  0
SECTION
  2
HEADER
  9
$ACADVER
  1
AC1015
  9
$ACADMAINTVER
 70
     6
  9
$DWGCODEPAGE
  3
ANSI_932
  9
$INSBASE
 10
0.0
 20
0.0
 30
0.0
  9
$EXTMIN
 10
-4.70052
 20
-21.0714
 30
0.0
  9
$EXTMAX
 10
205.301
 20
275.93
 30
0.0
  9
$LIMMIN
 10
0.0
 20
0.0
  9
$LIMMAX
 10
12.0
 20
9.0
  9
$ORTHOMODE
 70
     0
  9
$REGENMODE
 70
     1
  9
$FILLMODE
 70
     1
  9
$QTEXTMODE
 70
     0
  9
$MIRRTEXT
 70
     1
  9
$LTSCALE
 40
1.0
  9
$ATTMODE
 70
     1
  9
$TEXTSIZE
 40
0.0
  9
$TRACEWID
 40
0.05
  9
$TEXTSTYLE
  7
STANDARD
  9
$CLAYER
  8
0
  9
$CELTYPE
  6
CONTINUOUS
  9
$CECOLOR
 62
   256
  9
$CELTSCALE
 40
1.0
  9
$DISPSILH
 70
     0
  9
$DIMSCALE
 40
1.0
  9
$DIMASZ
 40
0.18
  9
$DIMEXO
 40
0.0625
  9
$DIMDLI
 40
0.38
  9
$DIMRND
 40
0.0
  9
$DIMDLE
 40
0.0
  9
$DIMEXE
 40
0.18
  9
$DIMTP
 40
0.0
  9
$DIMTM
 40
0.0
  9
$DIMTXT
 40
0.18
  9
$DIMCEN
 40
0.09
  9
$DIMTSZ
 40
0.0
  9
$DIMTOL
 70
     0
  9
$DIMLIM
 70
     0
  9
$DIMTIH
 70
     1
  9
$DIMTOH
 70
     1
  9
$DIMSE1
 70
     0
  9
$DIMSE2
 70
     0
  9
$DIMTAD
 70
     0
  9
$DIMZIN
 70
     0
  9
$DIMBLK
  1

  9
$DIMASO
 70
     1
  9
$DIMSHO
 70
     1
  9
$DIMPOST
  1

  9
$DIMAPOST
  1

  9
$DIMALT
 70
     0
  9
$DIMALTD
 70
     2
  9
$DIMALTF
 40
25.4
  9
$DIMLFAC
 40
1.0
  9
$DIMTOFL
 70
     0
  9
$DIMTVP
 40
0.0
  9
$DIMTIX
 70
     0
  9
$DIMSOXD
 70
     0
  9
$DIMSAH
 70
     0
  9
$DIMBLK1
  1

  9
$DIMBLK2
  1

  9
$DIMSTYLE
  2
STANDARD
  9
$DIMCLRD
 70
     0
  9
$DIMCLRE
 70
     0
  9
$DIMCLRT
 70
     0
  9
$DIMTFAC
 40
1.0
  9
$DIMGAP
 40
0.09
  9
$DIMJUST
 70
     0
  9
$DIMSD1
 70
     0
  9
$DIMSD2
 70
     0
  9
$DIMTOLJ
 70
     1
  9
$DIMTZIN
 70
     0
  9
$DIMALTZ
 70
     0
  9
$DIMALTTZ
 70
     0
  9
$DIMUPT
 70
     0
  9
$DIMDEC
 70
     4
  9
$DIMTDEC
 70
     4
  9
$DIMALTU
 70
     2
  9
$DIMALTTD
 70
     2
  9
$DIMTXSTY
  7
STANDARD
  9
$DIMAUNIT
 70
     0
  9
$DIMADEC
 70
     0
  9
$DIMALTRND
 40
0.0
  9
$DIMAZIN
 70
     0
  9
$DIMDSEP
 70
    46
  9
$DIMATFIT
 70
     3
  9
$DIMFRAC
 70
     0
  9
$DIMLDRBLK
  1

  9
$DIMLUNIT
 70
     2
  9
$DIMLWD
 70
    -2
  9
$DIMLWE
 70
    -2
  9
$DIMTMOVE
 70
     0
  9
$LUNITS
 70
     2
  9
$LUPREC
 70
     4
  9
$SKETCHINC
 40
0.1
  9
$FILLETRAD
 40
0.0
  9
$AUNITS
 70
     0
  9
$AUPREC
 70
     0
  9
$MENU
  1
.
  9
$ELEVATION
 40
0.0
  9
$PELEVATION
 40
0.0
  9
$THICKNESS
 40
0.0
  9
$LIMCHECK
 70
     0
  9
$CHAMFERA
 40
0.0
  9
$CHAMFERB
 40
0.0
  9
$CHAMFERC
 40
0.0
  9
$CHAMFERD
 40
0.0
  9
$SKPOLY
 70
     0
  9
$TDCREATE
 40
2444972.375000000
  9
$TDUCREATE
 40
2444972.000000000
  9
$TDUPDATE
 40
2455216.794390462
  9
$TDUUPDATE
 40
2455216.419390463
  9
$TDINDWG
 40
0.0196418287
  9
$TDUSRTIMER
 40
0.0196418287
  9
$USRTIMER
 70
     1
  9
$ANGBASE
 50
0.0
  9
$ANGDIR
 70
     0
  9
$PDMODE
 70
     0
  9
$PDSIZE
 40
0.0
  9
$PLINEWID
 40
0.0
  9
$SPLFRAME
 70
     0
  9
$SPLINETYPE
 70
     6
  9
$SPLINESEGS
 70
     8
  9
$HANDSEED
  5
BD
  9
$SURFTAB1
 70
     6
  9
$SURFTAB2
 70
     6
  9
$SURFTYPE
 70
     6
  9
$SURFU
 70
     6
  9
$SURFV
 70
     6
  9
$UCSBASE
  2

  9
$UCSNAME
  2

  9
$UCSORG
 10
0.0
 20
0.0
 30
0.0
  9
$UCSXDIR
 10
1.0
 20
0.0
 30
0.0
  9
$UCSYDIR
 10
0.0
 20
1.0
 30
0.0
  9
$UCSORTHOREF
  2

  9
$UCSORTHOVIEW
 70
     0
  9
$UCSORGTOP
 10
0.0
 20
0.0
 30
0.0
  9
$UCSORGBOTTOM
 10
0.0
 20
0.0
 30
0.0
  9
$UCSORGLEFT
 10
0.0
 20
0.0
 30
0.0
  9
$UCSORGRIGHT
 10
0.0
 20
0.0
 30
0.0
  9
$UCSORGFRONT
 10
0.0
 20
0.0
 30
0.0
  9
$UCSORGBACK
 10
0.0
 20
0.0
 30
0.0
  9
$PUCSBASE
  2

  9
$PUCSNAME
  2

  9
$PUCSORG
 10
0.0
 20
0.0
 30
0.0
  9
$PUCSXDIR
 10
1.0
 20
0.0
 30
0.0
  9
$PUCSYDIR
 10
0.0
 20
1.0
 30
0.0
  9
$PUCSORTHOREF
  2

  9
$PUCSORTHOVIEW
 70
     0
  9
$PUCSORGTOP
 10
0.0
 20
0.0
 30
0.0
  9
$PUCSORGBOTTOM
 10
0.0
 20
0.0
 30
0.0
  9
$PUCSORGLEFT
 10
0.0
 20
0.0
 30
0.0
  9
$PUCSORGRIGHT
 10
0.0
 20
0.0
 30
0.0
  9
$PUCSORGFRONT
 10
0.0
 20
0.0
 30
0.0
  9
$PUCSORGBACK
 10
0.0
 20
0.0
 30
0.0
  9
$USERI1
 70
     0
  9
$USERI2
 70
     0
  9
$USERI3
 70
     0
  9
$USERI4
 70
     0
  9
$USERI5
 70
     0
  9
$USERR1
 40
0.0
  9
$USERR2
 40
0.0
  9
$USERR3
 40
0.0
  9
$USERR4
 40
0.0
  9
$USERR5
 40
0.0
  9
$WORLDVIEW
 70
     1
  9
$SHADEDGE
 70
     3
  9
$SHADEDIF
 70
    70
  9
$TILEMODE
 70
     1
  9
$MAXACTVP
 70
    48
  9
$PINSBASE
 10
0.0
 20
0.0
 30
0.0
  9
$PLIMCHECK
 70
     0
  9
$PEXTMIN
 10
1.000000000000000E+20
 20
1.000000000000000E+20
 30
1.000000000000000E+20
  9
$PEXTMAX
 10
-1.000000000000000E+20
 20
-1.000000000000000E+20
 30
-1.000000000000000E+20
  9
$PLIMMIN
 10
0.0
 20
0.0
  9
$PLIMMAX
 10
12.0
 20
9.0
  9
$UNITMODE
 70
     0
  9
$VISRETAIN
 70
     1
  9
$PLINEGEN
 70
     0
  9
$PSLTSCALE
 70
     1
  9
$TREEDEPTH
 70
  3020
  9
$CMLSTYLE
  2
STANDARD
  9
$CMLJUST
 70
     0
  9
$CMLSCALE
 40
1.0
  9
$PROXYGRAPHICS
 70
     1
  9
$MEASUREMENT
 70
     0
  9
$CELWEIGHT
370
    -1
  9
$ENDCAPS
280
     0
  9
$JOINSTYLE
280
     0
  9
$LWDISPLAY
290
     0
  9
$INSUNITS
 70
     0
  9
$HYPERLINKBASE
  1

  9
$STYLESHEET
  1

  9
$XEDIT
290
     1
  9
$CEPSNTYPE
380
     0
  9
$PSTYLEMODE
290
     1
  9
$FINGERPRINTGUID
  2
{D8DD3B6F-0828-4230-AD6A-713C390EB726}
  9
$VERSIONGUID
  2
{0713B73C-4AA3-484B-9694-4363043D03D2}
  9
$EXTNAMES
290
     1
  9
$PSVPSCALE
 40
0.0
  9
$OLESTARTUP
290
     0
  0
ENDSEC
  0
SECTION
  2
CLASSES
  0
CLASS
  1
ACDBDICTIONARYWDFLT
  2
AcDbDictionaryWithDefault
  3
AutoCAD 2000
 90
        0
280
     0
281
     0
  0
CLASS
  1
ACDBPLACEHOLDER
  2
AcDbPlaceHolder
  3
AutoCAD 2000
 90
        0
280
     0
281
     0
  0
CLASS
  1
LAYOUT
  2
AcDbLayout
  3
AutoCAD 2000
 90
        0
280
     0
281
     0
  0
ENDSEC
  0
SECTION
  2
TABLES
  0
TABLE
  2
VPORT
  5
8
330
0
100
AcDbSymbolTable
 70
     2
  0
VPORT
  5
BC
330
8
100
AcDbSymbolTableRecord
100
AcDbViewportTableRecord
  2
*Active
 70
     0
 10
0.0
 20
0.0
 11
1.0
 21
1.0
 12
148.8480003674488
 22
127.4292999999999
 13
0.0
 23
0.0
 14
1.0
 24
1.0
 15
0.0
 25
0.0
 16
0.0
 26
0.0
 36
1.0
 17
0.0
 27
0.0
 37
0.0
 40
299.4846692198539
 41
1.912109375
 42
50.0
 43
0.0
 44
0.0
 50
0.0
 51
0.0
 71
     0
 72
   100
 73
     1
 74
     1
 75
     0
 76
     0
 77
     0
 78
     0
281
     0
 65
     1
110
0.0
120
0.0
130
0.0
111
1.0
121
0.0
131
0.0
112
0.0
122
1.0
132
0.0
 79
     0
146
0.0
  0
ENDTAB
  0
TABLE
  2
LTYPE
  5
5
330
0
100
AcDbSymbolTable
 70
     1
  0
LTYPE
  5
12
330
5
100
AcDbSymbolTableRecord
100
AcDbLinetypeTableRecord
  2
BYBLOCK
 70
     0
  3

 72
    65
 73
     0
 40
0.0
  0
LTYPE
  5
13
330
5
100
AcDbSymbolTableRecord
100
AcDbLinetypeTableRecord
  2
BYLAYER
 70
     0
  3

 72
    65
 73
     0
 40
0.0
  0
LTYPE
  5
14
330
5
100
AcDbSymbolTableRecord
100
AcDbLinetypeTableRecord
  2
CONTINUOUS
 70
     0
  3
Solid line
 72
    65
 73
     0
 40
0.0
  0
ENDTAB
  0
TABLE
  2
LAYER
  5
2
330
0
100
AcDbSymbolTable
 70
     2
  0
LAYER
  5
E
330
2
100
AcDbSymbolTableRecord
100
AcDbLayerTableRecord
  2
0
 70
     0
 62
     7
  6
CONTINUOUS
370
    -3
390
B4
  0
LAYER
  5
1F
330
2
100
AcDbSymbolTableRecord
100
AcDbLayerTableRecord
  2
_________2
 70
     0
 62
     7
  6
CONTINUOUS
370
    -3
390
B4
  0
ENDTAB
  0
TABLE
  2
STYLE
  5
3
330
0
100
AcDbSymbolTable
 70
     1
  0
STYLE
  5
F
330
3
100
AcDbSymbolTableRecord
100
AcDbTextStyleTableRecord
  2
STANDARD
 70
     0
 40
0.0
 41
0.0
 50
0.0
 71
     0
 42
0.0
  3
TXT
  4
BIGFONT
  0
ENDTAB
  0
TABLE
  2
VIEW
  5
6
330
0
100
AcDbSymbolTable
 70
     0
  0
ENDTAB
  0
TABLE
  2
UCS
  5
7
330
0
100
AcDbSymbolTable
 70
     0
  0
ENDTAB
  0
TABLE
  2
APPID
  5
9
330
0
100
AcDbSymbolTable
 70
     1
  0
APPID
  5
10
330
9
100
AcDbSymbolTableRecord
100
AcDbRegAppTableRecord
  2
ACAD
 70
     0
  0
ENDTAB
  0
TABLE
  2
DIMSTYLE
  5
A
330
0
100
AcDbSymbolTable
 70
     1
100
AcDbDimStyleTable
 71
     0
  0
DIMSTYLE
105
B0
330
A
100
AcDbSymbolTableRecord
100
AcDbDimStyleTableRecord
  2
STANDARD
 70
     0
340
F
  0
ENDTAB
  0
TABLE
  2
BLOCK_RECORD
  5
1
330
0
100
AcDbSymbolTable
 70
     0
  0
BLOCK_RECORD
  5
18
330
1
100
AcDbSymbolTableRecord
100
AcDbBlockTableRecord
  2
*MODEL_SPACE
340
B7
  0
BLOCK_RECORD
  5
15
330
1
100
AcDbSymbolTableRecord
100
AcDbBlockTableRecord
  2
*PAPER_SPACE
340
B8
  0
ENDTAB
  0
ENDSEC
  0
SECTION
  2
BLOCKS
  0
BLOCK
  5
19
330
18
100
AcDbEntity
  8
0
100
AcDbBlockBegin
  2
*MODEL_SPACE
 70
     0
 10
0.0
 20
0.0
 30
0.0
  3
*MODEL_SPACE
  1

  0
ENDBLK
  5
1A
330
18
100
AcDbEntity
  8
0
100
AcDbBlockEnd
  0
BLOCK
  5
16
330
15
100
AcDbEntity
 67
     1
  8
0
100
AcDbBlockBegin
  2
*PAPER_SPACE
 70
     0
 10
0.0
 20
0.0
 30
0.0
  3
*PAPER_SPACE
  1

  0
ENDBLK
  5
17
330
15
100
AcDbEntity
 67
     1
  8
0
100
AcDbBlockEnd
  0
ENDSEC
  0
SECTION
  2
ENTITIES
  0
TEXT
  5
21
330
18
100
AcDbEntity
  8
0
100
AcDbText
 10
115.8379999999999
 20
198.342
 30
0.0
 40
3.09234
  1
120%%d
 41
0.5
100
AcDbText
  0
TEXT
  5
22
330
18
100
AcDbEntity
  8
0
100
AcDbText
 10
73.4065
 20
201.4552199999999
 30
0.0
 40
3.09234
  1
13
 50
90.0
 41
0.5
 72
     1
 11
73.4065
 21
202.4859999999999
 31
0.0
100
AcDbText
  0
TEXT
  5
23
330
18
100
AcDbEntity
  8
0
100
AcDbText
 10
73.4065
 20
188.4552199999999
 30
0.0
 40
3.09234
  1
13
 50
90.0
 41
0.5
 72
     1
 11
73.4065
 21
189.4859999999999
 31
0.0
100
AcDbText
  0
ARC
  5
24
330
18
100
AcDbEntity
  8
0
100
AcDbCircle
 10
147.488052
 20
75.406897
 30
0.0
 40
12.99997499999999
100
AcDbArc
 50
180.0007689999999
 51
270.000779
  0
ARC
  5
25
330
18
100
AcDbEntity
  8
0
100
AcDbCircle
 10
147.5786219999999
 20
75.387388
 30
0.0
 40
13.090561
100
AcDbArc
 50
150.1228
 51
179.915335
  0
ARC
  5
26
330
18
100
AcDbEntity
  8
0
100
AcDbCircle
 10
147.5283729999999
 20
75.39586800000001
 30
0.0
 40
6.540403999999999
100
AcDbArc
 50
150.093196
 51
179.901834
  0
ARC
  5
27
330
18
100
AcDbEntity
  8
0
100
AcDbCircle
 10
147.488053
 20
75.40724200000001
 30
0.0
 40
6.500073999999999
100
AcDbArc
 50
180.001528
 51
270.0015379999999
  0
LINE
  5
28
330
18
100
AcDbEntity
  8
0
100
AcDbLine
 10
141.859
 20
78.6572
 30
0.0
 11
136.2279999999999
 21
81.90839999999999
 31
0.0
  0
LINE
  5
29
330
18
100
AcDbEntity
  8
0
100
AcDbLine
 10
147.4879999999999
 20
68.9072
 30
0.0
 11
147.4879999999999
 21
62.4069
 31
0.0
  0
ARC
  5
2A
330
18
100
AcDbEntity
  8
0
100
AcDbCircle
 10
148.98844
 20
75.407015
 30
0.0
 40
12.99977
100
AcDbArc
 50
299.9990279999999
 51
30.00037199999999
  0
ARC
  5
2B
330
18
100
AcDbEntity
  8
0
100
AcDbCircle
 10
148.9614949999999
 20
75.48962900000001
 30
0.0
 40
13.08480199999999
100
AcDbArc
 50
270.11557
 51
299.920339
  0
ARC
  5
2C
330
18
100
AcDbEntity
  8
0
100
AcDbCircle
 10
148.978834
 20
75.444349
 30
0.0
 40
6.537187
100
AcDbArc
 50
270.0823619999999
 51
299.9082169999999
  0
ARC
  5
2D
330
18
100
AcDbEntity
  8
0
100
AcDbCircle
 10
148.987843
 20
75.40695600000001
 30
0.0
 40
6.500291
100
AcDbArc
 50
300.003719
 51
30.00094
  0
LINE
  5
2E
330
18
100
AcDbEntity
  8
0
100
AcDbLine
 10
148.988
 20
68.9072
 30
0.0
 11
148.988
 21
62.4049
 31
0.0
  0
LINE
  5
2F
330
18
100
AcDbEntity
  8
0
100
AcDbLine
 10
154.617
 20
78.6572
 30
0.0
 11
160.247
 21
81.90699999999999
 31
0.0
  0
ARC
  5
30
330
18
100
AcDbEntity
  8
0
100
AcDbCircle
 10
148.2343659999999
 20
76.704647
 30
0.0
 40
13.000432
100
AcDbArc
 50
60.00121800000002
 51
149.998807
  0
ARC
  5
31
330
18
100
AcDbEntity
  8
0
100
AcDbCircle
 10
148.175902
 20
76.640312
 30
0.0
 40
13.085392
100
AcDbArc
 50
30.116957
 51
59.92036299999999
  0
ARC
  5
32
330
18
100
AcDbEntity
  8
0
100
AcDbCircle
 10
148.208019
 20
76.67877199999999
 30
0.0
 40
6.535823999999999
100
AcDbArc
 50
30.083918
 51
59.916072
  0
ARC
  5
33
330
18
100
AcDbEntity
  8
0
100
AcDbCircle
 10
148.234136
 20
76.704689
 30
0.0
 40
6.500312999999999
100
AcDbArc
 50
60.00075500000001
 51
149.9987129999999
  0
LINE
  5
34
330
18
100
AcDbEntity
  8
0
100
AcDbLine
 10
153.8629999999999
 20
79.95499999999999
 30
0.0
 11
159.495
 21
83.2061
 31
0.0
  0
LINE
  5
35
330
18
100
AcDbEntity
  8
0
100
AcDbLine
 10
142.6049999999999
 20
79.95499999999999
 30
0.0
 11
136.976
 21
83.2051
 31
0.0
  0
ARC
  5
36
330
18
100
AcDbEntity
  8
0
100
AcDbCircle
 10
85.121607
 20
182.985331
 30
0.0
 40
33.79901799999999
100
AcDbArc
 50
0.000594
 51
90.000564
  0
ARC
  5
37
330
18
100
AcDbEntity
  8
0
100
AcDbCircle
 10
84.898126
 20
183.0344739999999
 30
0.0
 40
34.022534
100
AcDbArc
 50
330.117021
 51
359.9178299999999
  0
ARC
  5
38
330
18
100
AcDbEntity
  8
0
100
AcDbCircle
 10
85.12169399999999
 20
110.001135
 30
0.0
 40
26.000218
100
AcDbArc
 50
269.99945
 51
359.9994209999999
  0
ARC
  5
39
330
18
100
AcDbEntity
  8
0
100
AcDbCircle
 10
84.94686899999999
 20
109.962174
 30
0.0
 40
26.175072
100
AcDbArc
 50
0.084706
 51
29.882227
  0
ARC
  5
3A
330
18
100
AcDbEntity
  8
0
100
AcDbCircle
 10
85.121608
 20
182.9855039999999
 30
0.0
 40
26.000304
100
AcDbArc
 50
0.00039
 51
90.00035999999999
  0
ARC
  5
3B
330
18
100
AcDbEntity
  8
0
100
AcDbCircle
 10
84.946829
 20
183.024389
 30
0.0
 40
26.175113
100
AcDbArc
 50
330.1177969999999
 51
359.91527
  0
ARC
  5
3C
330
18
100
AcDbEntity
  8
0
100
AcDbCircle
 10
84.40834699999999
 20
182.394357
 30
0.0
 40
23.720929
100
AcDbArc
 50
1.428437
 51
78.251805
  0
ARC
  5
3D
330
18
100
AcDbEntity
  8
0
100
AcDbCircle
 10
84.96689700000001
 20
182.9944949999999
 30
0.0
 40
23.15501
100
AcDbArc
 50
340.3248609999999
 51
359.978189
  0
ARC
  5
3E
330
18
100
AcDbEntity
  8
0
100
AcDbCircle
 10
85.12169699999999
 20
110.0007879999999
 30
0.0
 40
13.000066
100
AcDbArc
 50
269.9988809999999
 51
359.998851
  0
ARC
  5
3F
330
18
100
AcDbEntity
  8
0
100
AcDbCircle
 10
85.05190199999999
 20
109.9817399999999
 30
0.0
 40
13.06987499999999
100
AcDbArc
 50
0.082361
 51
29.919532
  0
LINE
  5
40
330
18
100
AcDbEntity
  8
0
100
AcDbLine
 10
96.37990000000002
 20
116.501
 30
0.0
 11
107.642
 21
123.0029999999999
 31
0.0
  0
LINE
  5
41
330
18
100
AcDbEntity
  8
0
100
AcDbLine
 10
85.1214
 20
97.0007
 30
0.0
 11
85.1214
 21
84.0009
 31
0.0
  0
LINE
  5
42
330
18
100
AcDbEntity
  8
0
100
AcDbLine
 10
106.3749999999999
 20
143.7309999999999
 30
0.0
 11
106.3749999999999
 21
148.186
 31
0.0
  0
LINE
  5
43
330
18
100
AcDbEntity
  8
0
100
AcDbLine
 10
85.1214
 20
142.5399999999999
 30
0.0
 11
88.8363
 21
142.5399999999999
 31
0.0
  0
ARC
  5
44
330
18
100
AcDbEntity
  8
0
100
AcDbCircle
 10
104.641991
 20
142.53966
 30
0.0
 40
3.000008999999999
100
AcDbArc
 50
270.00002
 51
359.9999899999999
  0
LINE
  5
45
330
18
100
AcDbEntity
  8
0
100
AcDbLine
 10
85.1214
 20
139.5399999999999
 30
0.0
 11
108.122
 21
139.5399999999999
 31
0.0
  0
ARC
  5
46
330
18
100
AcDbEntity
  8
0
100
AcDbCircle
 10
108.121904
 20
142.540005
 30
0.0
 40
3.000008999999999
100
AcDbArc
 50
270.00002
 51
359.9999899999999
  0
LINE
  5
47
330
18
100
AcDbEntity
  8
0
100
AcDbLine
 10
108.122
 20
149.54
 30
0.0
 11
108.122
 21
142.5399999999999
 31
0.0
  0
LINE
  5
48
330
18
100
AcDbEntity
  8
0
100
AcDbLine
 10
88.12139999999999
 20
149.54
 30
0.0
 11
108.122
 21
149.54
 31
0.0
  0
LINE
  5
49
330
18
100
AcDbEntity
  8
0
100
AcDbLine
 10
96.37990000000002
 20
142.5399999999999
 30
0.0
 11
111.122
 21
142.5399999999999
 31
0.0
  0
LINE
  5
4A
330
18
100
AcDbEntity
  8
0
100
AcDbLine
 10
97.74070000000001
 20
142.5399999999999
 30
0.0
 11
97.74070000000001
 21
149.54
 31
0.0
  0
LINE
  5
4B
330
18
100
AcDbEntity
  8
0
100
AcDbLine
 10
96.37990000000002
 20
139.5399999999999
 30
0.0
 11
96.37990000000002
 21
142.5399999999999
 31
0.0
  0
LINE
  5
4C
330
18
100
AcDbEntity
  8
0
100
AcDbLine
 10
88.12139999999999
 20
142.5399999999999
 30
0.0
 11
88.12139999999999
 21
149.54
 31
0.0
  0
LINE
  5
4D
330
18
100
AcDbEntity
  8
0
100
AcDbLine
 10
85.1214
 20
139.5399999999999
 30
0.0
 11
85.1214
 21
142.5399999999999
 31
0.0
  0
LINE
  5
4E
330
18
100
AcDbEntity
  8
0
100
AcDbLine
 10
73.51399999999999
 20
198.1979999999999
 30
0.0
 11
74.1065
 21
195.9859999999999
 31
0.0
  0
LINE
  5
4F
330
18
100
AcDbEntity
  8
0
100
AcDbLine
 10
74.1065
 20
195.9859999999999
 30
0.0
 11
74.69929999999999
 21
198.1979999999999
 31
0.0
  0
LINE
  5
50
330
18
100
AcDbEntity
  8
0
100
AcDbLine
 10
74.69929999999999
 20
198.1979999999999
 30
0.0
 11
73.51399999999999
 21
198.1979999999999
 31
0.0
  0
LINE
  5
51
330
18
100
AcDbEntity
  8
0
100
AcDbLine
 10
73.51399999999999
 20
185.197
 30
0.0
 11
74.1065
 21
182.986
 31
0.0
  0
LINE
  5
52
330
18
100
AcDbEntity
  8
0
100
AcDbLine
 10
74.1065
 20
182.986
 30
0.0
 11
74.69929999999999
 21
185.197
 31
0.0
  0
LINE
  5
53
330
18
100
AcDbEntity
  8
0
100
AcDbLine
 10
74.69929999999999
 20
185.197
 30
0.0
 11
73.51399999999999
 21
185.197
 31
0.0
  0
LINE
  5
54
330
18
100
AcDbEntity
  8
0
100
AcDbLine
 10
74.6991
 20
193.7739999999999
 30
0.0
 11
74.1065
 21
195.9859999999999
 31
0.0
  0
LINE
  5
55
330
18
100
AcDbEntity
  8
0
100
AcDbLine
 10
74.1065
 20
195.9859999999999
 30
0.0
 11
73.5138
 21
193.7739999999999
 31
0.0
  0
LINE
  5
56
330
18
100
AcDbEntity
  8
0
100
AcDbLine
 10
73.5138
 20
193.7739999999999
 30
0.0
 11
74.6991
 21
193.7739999999999
 31
0.0
  0
LINE
  5
57
330
18
100
AcDbEntity
  8
0
100
AcDbLine
 10
74.6991
 20
206.774
 30
0.0
 11
74.1065
 21
208.9859999999999
 31
0.0
  0
LINE
  5
58
330
18
100
AcDbEntity
  8
0
100
AcDbLine
 10
74.1065
 20
208.9859999999999
 30
0.0
 11
73.5138
 21
206.774
 31
0.0
  0
LINE
  5
59
330
18
100
AcDbEntity
  8
0
100
AcDbLine
 10
73.5138
 20
206.774
 30
0.0
 11
74.6991
 21
206.774
 31
0.0
  0
LINE
  5
5A
330
18
100
AcDbEntity
  8
0
100
AcDbLine
 10
74.1065
 20
182.986
 30
0.0
 11
74.1065
 21
208.9859999999999
 31
0.0
  0
LINE
  5
5B
330
18
100
AcDbEntity
  8
0
100
AcDbLine
 10
84.4214
 20
208.9859999999999
 30
0.0
 11
73.4065
 21
208.9859999999999
 31
0.0
  0
LINE
  5
5C
330
18
100
AcDbEntity
  8
0
100
AcDbLine
 10
84.4214
 20
195.9859999999999
 30
0.0
 11
73.4065
 21
195.9859999999999
 31
0.0
  0
LINE
  5
5D
330
18
100
AcDbEntity
  8
0
100
AcDbLine
 10
84.4214
 20
182.986
 30
0.0
 11
73.4065
 21
182.986
 31
0.0
  0
LINE
  5
5E
330
18
100
AcDbEntity
  8
0
100
AcDbLine
 10
114.992
 20
168.294
 30
0.0
 11
114.397
 21
166.0829999999999
 31
0.0
  0
LINE
  5
5F
330
18
100
AcDbEntity
  8
0
100
AcDbLine
 10
114.397
 20
166.0829999999999
 30
0.0
 11
116.0179999999999
 21
167.7009999999999
 31
0.0
  0
LINE
  5
60
330
18
100
AcDbEntity
  8
0
100
AcDbLine
 10
116.0179999999999
 20
167.7009999999999
 30
0.0
 11
114.992
 21
168.294
 31
0.0
  0
LINE
  5
61
330
18
100
AcDbEntity
  8
0
100
AcDbLine
 10
87.33299999999999
 20
217.377
 30
0.0
 11
85.1213
 21
216.784
 31
0.0
  0
LINE
  5
62
330
18
100
AcDbEntity
  8
0
100
AcDbLine
 10
85.1213
 20
216.784
 30
0.0
 11
87.33299999999999
 21
216.1909999999999
 31
0.0
  0
LINE
  5
63
330
18
100
AcDbEntity
  8
0
100
AcDbLine
 10
87.33299999999999
 20
216.1909999999999
 30
0.0
 11
87.33299999999999
 21
217.377
 31
0.0
  0
LINE
  5
64
330
18
100
AcDbEntity
  8
0
100
AcDbLine
 10
108.136
 20
169.6979999999999
 30
0.0
 11
114.9089999999999
 21
165.7879999999999
 31
0.0
  0
LINE
  5
65
330
18
100
AcDbEntity
  8
0
100
AcDbLine
 10
85.1214
 20
209.6859999999999
 30
0.0
 11
85.1214
 21
217.484
 31
0.0
  0
LINE
  5
66
330
18
100
AcDbEntity
  8
0
100
AcDbLine
 10
85.1214
 20
182.986
 30
0.0
 11
85.1214
 21
194.164
 31
0.0
  0
ARC
  5
67
330
18
100
AcDbEntity
  8
0
100
AcDbCircle
 10
85.049471
 20
183.0056379999999
 30
0.0
 40
13.072307
100
AcDbArc
 50
330.083302
 51
359.9125279999999
  0
ARC
  5
68
330
18
100
AcDbEntity
  8
0
100
AcDbCircle
 10
85.12152399999999
 20
182.9855929999999
 30
0.0
 40
13.000238
100
AcDbArc
 50
0.00039
 51
90.00035999999999
  0
LINE
  5
69
330
18
100
AcDbEntity
  8
0
100
AcDbLine
 10
88.12139999999999
 20
196.402
 30
0.0
 11
88.12139999999999
 21
204.6279999999999
 31
0.0
  0
ARC
  5
6A
330
18
100
AcDbEntity
  8
0
100
AcDbCircle
 10
89.15691899999998
 20
204.5862459999999
 30
0.0
 40
1.039366
100
AcDbArc
 50
87.447014
 51
173.1863179999999
  0
ARC
  5
6B
330
18
100
AcDbEntity
  8
0
100
AcDbCircle
 10
89.27167
 20
204.620272
 30
0.0
 40
1.150245999999999
100
AcDbArc
 50
175.548086
 51
179.6196549999999
  0
LINE
  5
6C
330
18
100
AcDbEntity
  8
0
100
AcDbLine
 10
98.2403
 20
178.875
 30
0.0
 11
105.367
 21
174.7609999999999
 31
0.0
  0
ARC
  5
6D
330
18
100
AcDbEntity
  8
0
100
AcDbCircle
 10
105.8531389999999
 20
175.678669
 30
0.0
 40
1.038259999999999
100
AcDbArc
 50
242.092697
 51
327.916743
  0
ARC
  5
6E
330
18
100
AcDbEntity
  8
0
100
AcDbCircle
 10
105.9556219999999
 20
175.5795009999999
 30
0.0
 40
0.899243
100
AcDbArc
 50
329.8023499999999
 51
335.017641
  0
ARC
  5
6F
330
18
100
AcDbEntity
  8
0
100
AcDbCircle
 10
98.771968
 20
179.7549389999999
 30
0.0
 40
1.027329999999999
100
AcDbArc
 50
167.6805749999999
 51
238.8769649999999
  0
ARC
  5
70
330
18
100
AcDbEntity
  8
0
100
AcDbCircle
 10
89.14990899999999
 20
196.423456
 30
0.0
 40
1.028679999999999
100
AcDbArc
 50
181.1854859999999
 51
252.2505779999999
  0
LINE
  5
71
330
18
100
AcDbEntity
  8
0
100
AcDbLine
 10
96.37990000000002
 20
176.4859999999999
 30
0.0
 11
107.642
 21
169.983
 31
0.0
  0
LINE
  5
72
330
18
100
AcDbEntity
  8
0
100
AcDbLine
 10
85.1214
 20
182.986
 30
0.0
 11
95.1858
 21
177.175
 31
0.0
  0
LINE
  5
73
330
18
100
AcDbEntity
  8
0
100
AcDbLine
 10
85.1214
 20
195.9859999999999
 30
0.0
 11
85.1214
 21
208.9859999999999
 31
0.0
  0
LINE
  5
74
330
18
100
AcDbEntity
  8
_________2
100
AcDbLine
 10
205.301
 20
127.411
 30
0.0
 11
183.55
 21
127.411
 31
0.0
  0
LINE
  5
75
330
18
100
AcDbEntity
  8
_________2
100
AcDbLine
 10
100.2999999999999
 20
-4.09108
 30
0.0
 11
100.2999999999999
 21
-21.0714
 31
0.0
  0
LINE
  5
76
330
18
100
AcDbEntity
  8
_________2
100
AcDbLine
 10
100.2999999999999
 20
275.93
 30
0.0
 11
100.2999999999999
 21
258.911
 31
0.0
  0
LINE
  5
77
330
18
100
AcDbEntity
  8
_________2
100
AcDbLine
 10
17.0495
 20
127.411
 30
0.0
 11
-4.70052
 21
127.411
 31
0.0
  0
LINE
  5
78
330
18
100
AcDbEntity
  8
_________2
100
AcDbLine
 10
76.741
 20
29.8047
 30
0.0
 11
74.5547
 21
29.8047
 31
0.0
  0
LINE
  5
79
330
18
100
AcDbEntity
  8
_________2
100
AcDbLine
 10
77.2337
 20
29.8047
 30
0.0
 11
76.9815
 21
29.8047
 31
0.0
  0
LINE
  5
7A
330
18
100
AcDbEntity
  8
_________2
100
AcDbLine
 10
77.72629999999999
 20
29.8047
 30
0.0
 11
80.6512
 21
29.8047
 31
0.0
  0
LINE
  5
7B
330
18
100
AcDbEntity
  8
_________2
100
AcDbLine
 10
77.2337
 20
29.8047
 30
0.0
 11
77.4855
 21
29.8047
 31
0.0
  0
LINE
  5
7C
330
18
100
AcDbEntity
  8
_________2
100
AcDbLine
 10
70.8371
 20
29.8047
 30
0.0
 11
68.6505
 21
29.8047
 31
0.0
  0
LINE
  5
7D
330
18
100
AcDbEntity
  8
_________2
100
AcDbLine
 10
71.32940000000001
 20
29.8047
 30
0.0
 11
71.0776
 21
29.8047
 31
0.0
  0
LINE
  5
7E
330
18
100
AcDbEntity
  8
_________2
100
AcDbLine
 10
71.32940000000001
 20
30.2974
 30
0.0
 11
71.32940000000001
 21
32.4844
 31
0.0
  0
LINE
  5
7F
330
18
100
AcDbEntity
  8
_________2
100
AcDbLine
 10
71.32940000000001
 20
29.8047
 30
0.0
 11
71.32940000000001
 21
30.05689999999999
 31
0.0
  0
LINE
  5
80
330
18
100
AcDbEntity
  8
_________2
100
AcDbLine
 10
71.82210000000001
 20
29.8047
 30
0.0
 11
74.009
 21
29.8047
 31
0.0
  0
LINE
  5
81
330
18
100
AcDbEntity
  8
_________2
100
AcDbLine
 10
71.32940000000001
 20
29.8047
 30
0.0
 11
71.58159999999999
 21
29.8047
 31
0.0
  0
LINE
  5
82
330
18
100
AcDbEntity
  8
_________2
100
AcDbLine
 10
71.32940000000001
 20
29.3128
 30
0.0
 11
71.32940000000001
 21
27.1258
 31
0.0
  0
LINE
  5
83
330
18
100
AcDbEntity
  8
_________2
100
AcDbLine
 10
71.32940000000001
 20
29.8047
 30
0.0
 11
71.32940000000001
 21
29.5532
 31
0.0
  0
LINE
  5
84
330
18
100
AcDbEntity
  8
_________2
100
AcDbLine
 10
75.04049999999999
 20
28.5852
 30
0.0
 11
80.2185
 21
27.7204
 31
0.0
  0
LINE
  5
85
330
18
100
AcDbEntity
  8
_________2
100
AcDbLine
 10
75.04049999999999
 20
31.0243
 30
0.0
 11
80.2185
 21
31.8897
 31
0.0
  0
LINE
  5
86
330
18
100
AcDbEntity
  8
_________2
100
AcDbLine
 10
80.2185
 20
27.7204
 30
0.0
 11
80.2185
 21
31.8897
 31
0.0
  0
LINE
  5
87
330
18
100
AcDbEntity
  8
_________2
100
AcDbLine
 10
75.04049999999999
 20
28.5852
 30
0.0
 11
75.04049999999999
 21
31.0243
 31
0.0
  0
ARC
  5
88
330
18
100
AcDbEntity
  8
_________2
100
AcDbCircle
 10
71.28285600000001
 20
29.757811
 30
0.0
 40
1.267359
100
AcDbArc
 50
2.122214
 51
87.893959
  0
ARC
  5
89
330
18
100
AcDbEntity
  8
_________2
100
AcDbCircle
 10
71.37595999999999
 20
29.758213
 30
0.0
 40
1.266955999999999
100
AcDbArc
 50
92.104701
 51
177.8952689999999
  0
ARC
  5
8A
330
18
100
AcDbEntity
  8
_________2
100
AcDbCircle
 10
71.37635799999999
 20
29.851671
 30
0.0
 40
1.267368
100
AcDbArc
 50
182.122036
 51
267.877993
  0
ARC
  5
8B
330
18
100
AcDbEntity
  8
_________2
100
AcDbCircle
 10
71.28253199999999
 20
29.85199899999999
 30
0.0
 40
1.267695999999999
100
AcDbArc
 50
272.120153
 51
357.863674
  0
ARC
  5
8C
330
18
100
AcDbEntity
  8
_________2
100
AcDbCircle
 10
71.32943
 20
29.804743
 30
0.0
 40
2.084984999999999
100
AcDbArc
 50
0.00001
 51
89.99998000000001
  0
ARC
  5
8D
330
18
100
AcDbEntity
  8
_________2
100
AcDbCircle
 10
71.329603
 20
29.804915
 30
0.0
 40
2.084813
100
AcDbArc
 50
90.004734
 51
180.004744
  0
ARC
  5
8E
330
18
100
AcDbEntity
  8
_________2
100
AcDbCircle
 10
71.40910600000001
 20
29.884776
 30
0.0
 40
2.165795
100
AcDbArc
 50
182.117766
 51
267.891734
  0
ARC
  5
8F
330
18
100
AcDbEntity
  8
_________2
100
AcDbCircle
 10
71.249459
 20
29.88542999999999
 30
0.0
 40
2.166459
100
AcDbArc
 50
272.115468
 51
357.865604
  0
TEXT
  5
90
330
18
100
AcDbEntity
  8
_________2
100
AcDbText
 10
104.605
 20
1.67949
 30
0.0
 40
3.09234
  1
図番
 41
0.5
100
AcDbText
  0
LINE
  5
91
330
18
100
AcDbEntity
  8
_________2
100
AcDbLine
 10
103.55
 20
5.908719999999999
 30
0.0
 11
183.551
 21
5.908719999999999
 31
0.0
  0
TEXT
  5
92
330
18
100
AcDbEntity
  8
_________2
100
AcDbText
 10
104.605
 20
11.67929999999999
 30
0.0
 40
3.09234
  1
品番
 41
0.5
100
AcDbText
  0
TEXT
  5
93
330
18
100
AcDbEntity
  8
_________2
100
AcDbText
 10
104.605
 20
31.8181
 30
0.0
 40
3.09234
  1
名称
 41
0.5
100
AcDbText
  0
TEXT
  5
94
330
18
100
AcDbEntity
  8
_________2
100
AcDbText
 10
91.84505833333334
 20
26.82199999999999
 30
0.0
 40
3.65458
  1
mm
 41
0.5
 72
     1
 11
93.3678
 21
26.82199999999999
 31
0.0
100
AcDbText
  0
TEXT
  5
95
330
18
100
AcDbEntity
  8
_________2
100
AcDbText
 10
85.6432
 20
31.8181
 30
0.0
 40
3.09234
  1
単位
 41
0.5
100
AcDbText
  0
TEXT
  5
96
330
18
100
AcDbEntity
  8
_________2
100
AcDbText
 10
85.6432
 20
19.41079999999999
 30
0.0
 40
3.09234
  1
尺度
 41
0.5
100
AcDbText
  0
TEXT
  5
97
330
18
100
AcDbEntity
  8
_________2
100
AcDbText
 10
90.853307
 20
13.2179
 30
0.0
 40
3.65458
  1
1 ： 1
 41
0.5
 72
     1
 11
93.9597
 21
13.2179
 31
0.0
100
AcDbText
  0
TEXT
  5
98
330
18
100
AcDbEntity
  8
_________2
100
AcDbText
 10
138.3024
 20
9.10786
 30
0.0
 40
3.9357
  1
CET815
 41
0.5
 72
     1
 11
143.55
 21
9.10786
 31
0.0
100
AcDbText
  0
TEXT
  5
99
330
18
100
AcDbEntity
  8
_________2
100
AcDbText
 10
138.3024
 20
-0.8926299999999999
 30
0.0
 40
3.9357
  1
CET815
 41
0.5
 72
     1
 11
143.55
 21
-0.8926299999999999
 31
0.0
100
AcDbText
  0
TEXT
  5
9A
330
18
100
AcDbEntity
  8
_________2
100
AcDbText
 10
141.9127699999999
 20
55.84089999999999
 30
0.0
 40
4.216819999999999
  1
3ケ1セット
 41
0.5
 72
     1
 11
148.238
 21
55.84089999999999
 31
0.0
100
AcDbText
  0
TEXT
  5
9B
330
18
100
AcDbEntity
  8
_________2
100
AcDbText
 10
109.179
 20
24.2257
 30
0.0
 40
3.9357
  1
バス用排水金具 オーバーフロー塞ぎ蓋
 41
0.5
100
AcDbText
  0
TEXT
  5
9C
330
18
100
AcDbEntity
  8
_________2
100
AcDbText
 10
39.30348099999999
 20
13.603
 30
0.0
 40
3.65458
  1
田尻
 41
0.5
 72
     1
 11
41.3135
 21
13.603
 31
0.0
100
AcDbText
  0
TEXT
  5
9D
330
18
100
AcDbEntity
  8
_________2
100
AcDbText
 10
20.79009066666666
 20
13.603
 30
0.0
 40
3.65458
  1
石原
 41
0.5
 72
     1
 11
22.73919999999999
 21
13.603
 31
0.0
100
AcDbText
  0
TEXT
  5
9E
330
18
100
AcDbEntity
  8
_________2
100
AcDbText
 10
67.78539999999999
 20
13.2179
 30
0.0
 40
3.65458
  1
09.11.25
 41
0.5
100
AcDbText
  0
TEXT
  5
9F
330
18
100
AcDbEntity
  8
_________2
100
AcDbText
 10
66.59310000000001
 20
19.41079999999999
 30
0.0
 40
3.09234
  1
日付
 41
0.5
100
AcDbText
  0
TEXT
  5
A0
330
18
100
AcDbEntity
  8
_________2
100
AcDbText
 10
29.6394
 20
19.41079999999999
 30
0.0
 40
3.09234
  1
検図
 41
0.5
100
AcDbText
  0
TEXT
  5
A1
330
18
100
AcDbEntity
  8
_________2
100
AcDbText
 10
18.0211
 20
5.21143
 30
0.0
 40
3.09234
  1
備考
 41
0.5
100
AcDbText
  0
TEXT
  5
A2
330
18
100
AcDbEntity
  8
_________2
100
AcDbText
 10
18.0211
 20
19.41079999999999
 30
0.0
 40
3.09234
  1
製図
 41
0.5
100
AcDbText
  0
TEXT
  5
A3
330
18
100
AcDbEntity
  8
_________2
100
AcDbText
 10
23.863431
 20
27.9368
 30
0.0
 40
4.497939999999999
  1
セラトレーディング株式会社
 41
0.5
 72
     1
 11
41.1805
 21
27.9368
 31
0.0
100
AcDbText
  0
LINE
  5
A4
330
18
100
AcDbEntity
  8
_________2
100
AcDbLine
 10
183.551
 20
-4.09108
 30
0.0
 11
17.0495
 21
-4.09108
 31
0.0
  0
LINE
  5
A5
330
18
100
AcDbEntity
  8
_________2
100
AcDbLine
 10
17.0495
 20
-4.09108
 30
0.0
 11
17.0495
 21
258.911
 31
0.0
  0
LINE
  5
A6
330
18
100
AcDbEntity
  8
_________2
100
AcDbLine
 10
17.0495
 20
258.911
 30
0.0
 11
183.551
 21
258.911
 31
0.0
  0
LINE
  5
A7
330
18
100
AcDbEntity
  8
_________2
100
AcDbLine
 10
183.551
 20
258.911
 30
0.0
 11
183.551
 21
-4.09108
 31
0.0
  0
LINE
  5
A8
330
18
100
AcDbEntity
  8
_________2
100
AcDbLine
 10
65.5496
 20
9.40896
 30
0.0
 11
65.5496
 21
35.9088
 31
0.0
  0
LINE
  5
A9
330
18
100
AcDbEntity
  8
_________2
100
AcDbLine
 10
84.54970000000001
 20
9.40896
 30
0.0
 11
84.54970000000001
 21
35.9088
 31
0.0
  0
LINE
  5
AA
330
18
100
AcDbEntity
  8
_________2
100
AcDbLine
 10
103.55
 20
-4.09108
 30
0.0
 11
103.55
 21
35.9088
 31
0.0
  0
LINE
  5
AB
330
18
100
AcDbEntity
  8
_________2
100
AcDbLine
 10
28.54929999999999
 20
9.40896
 30
0.0
 11
28.54929999999999
 21
23.4092
 31
0.0
  0
LINE
  5
AC
330
18
100
AcDbEntity
  8
_________2
100
AcDbLine
 10
17.0495
 20
9.40896
 30
0.0
 11
103.55
 21
9.40896
 31
0.0
  0
LINE
  5
AD
330
18
100
AcDbEntity
  8
_________2
100
AcDbLine
 10
17.0495
 20
23.4092
 30
0.0
 11
103.55
 21
23.4092
 31
0.0
  0
LINE
  5
AE
330
18
100
AcDbEntity
  8
_________2
100
AcDbLine
 10
103.55
 20
15.9085
 30
0.0
 11
183.551
 21
15.9085
 31
0.0
  0
LINE
  5
AF
330
18
100
AcDbEntity
  8
_________2
100
AcDbLine
 10
17.0495
 20
35.9088
 30
0.0
 11
183.551
 21
35.9088
 31
0.0
  0
ENDSEC
  0
SECTION
  2
OBJECTS
  0
DICTIONARY
  5
C
330
0
100
AcDbDictionary
281
     1
  3
ACAD_GROUP
350
D
  3
ACAD_MLINESTYLE
350
1B
  3
ACAD_PLOTSTYLENAME
350
B3
  3
ACAD_LAYOUT
350
B5
  3
ACAD_PLOTSETTINGS
350
B6
  0
DICTIONARY
  5
D
102
{ACAD_REACTORS
330
C
102
}
330
C
100
AcDbDictionary
281
     1
  0
DICTIONARY
  5
1B
102
{ACAD_REACTORS
330
C
102
}
330
C
100
AcDbDictionary
281
     1
  3
STANDARD
350
1C
  0
ACDBDICTIONARYWDFLT
  5
B3
102
{ACAD_REACTORS
330
C
102
}
330
C
100
AcDbDictionary
281
     1
  3
Normal
350
B4
100
AcDbDictionaryWithDefault
340
B4
  0
DICTIONARY
  5
B5
102
{ACAD_REACTORS
330
C
102
}
330
C
100
AcDbDictionary
281
     1
  3
Model
350
B7
  3
ﾚｲｱｳﾄ1
350
B8
  0
DICTIONARY
  5
B6
102
{ACAD_REACTORS
330
C
102
}
330
C
100
AcDbDictionary
281
     1
  0
MLINESTYLE
  5
1C
102
{ACAD_REACTORS
330
1B
102
}
330
1B
100
AcDbMlineStyle
  2
STANDARD
 70
     0
  3

 62
   256
 51
90.0
 52
90.0
 71
     2
 49
0.5
 62
   256
  6
BYLAYER
 49
-0.5
 62
   256
  6
BYLAYER
  0
ACDBPLACEHOLDER
  5
B4
102
{ACAD_REACTORS
330
B3
102
}
330
B3
  0
LAYOUT
  5
B7
102
{ACAD_REACTORS
330
B5
102
}
330
B5
100
AcDbPlotSettings
  1

  2
Canon LASER SHOT LBP-880
  4

  6

 40
0.0
 41
0.0
 42
0.0
 43
0.0
 44
0.0
 45
0.0
 46
0.0
 47
0.0
 48
0.0
 49
0.0
140
0.0
141
0.0
142
1.0
143
1.0
 70
  1712
 72
     0
 73
     0
 74
     0
  7

 75
     0
147
1.0
148
0.0
149
0.0
100
AcDbLayout
  1
Model
 70
     1
 71
     0
 10
0.0
 20
0.0
 11
12.0
 21
9.0
 12
0.0
 22
0.0
 32
0.0
 14
0.0
 24
0.0
 34
0.0
 15
0.0
 25
0.0
 35
0.0
146
0.0
 13
0.0
 23
0.0
 33
0.0
 16
1.0
 26
0.0
 36
0.0
 17
0.0
 27
1.0
 37
0.0
 76
     0
330
18
  0
LAYOUT
  5
B8
102
{ACAD_REACTORS
330
B5
102
}
330
B5
100
AcDbPlotSettings
  1

  2
Canon LASER SHOT LBP-880
  4

  6

 40
0.0
 41
0.0
 42
0.0
 43
0.0
 44
0.0
 45
0.0
 46
0.0
 47
0.0
 48
0.0
 49
0.0
140
0.0
141
0.0
142
1.0
143
1.0
 70
   688
 72
     0
 73
     0
 74
     5
  7

 75
    16
147
1.0
148
0.0
149
0.0
100
AcDbLayout
  1
ﾚｲｱｳﾄ1
 70
     1
 71
     1
 10
0.0
 20
0.0
 11
12.0
 21
9.0
 12
0.0
 22
0.0
 32
0.0
 14
1.000000000000000E+20
 24
1.000000000000000E+20
 34
1.000000000000000E+20
 15
-1.000000000000000E+20
 25
-1.000000000000000E+20
 35
-1.000000000000000E+20
146
0.0
 13
0.0
 23
0.0
 33
0.0
 16
1.0
 26
0.0
 36
0.0
 17
0.0
 27
1.0
 37
0.0
 76
     0
330
15
  0
ENDSEC
  0
EOF
