  0
SECTION
  2
HEADER
  9
$ACADVER
  1
AC1009
  9
$INSBASE
 10
0.0
 20
0.0
 30
0.0
  9
$EXTMIN
 10
-4.7008599999999987
 20
-21.071400000000001
 30
0.0
  9
$EXTMAX
 10
205.30099999999999
 20
275.93099999999998
 30
0.0
  9
$LIMMIN
 10
0.0
 20
0.0
  9
$LIMMAX
 10
12.0
 20
9.0
  9
$ORTHOMODE
 70
     0
  9
$REGENMODE
 70
     1
  9
$FILLMODE
 70
     1
  9
$QTEXTMODE
 70
     0
  9
$MIRRTEXT
 70
     1
  9
$DRAGMODE
 70
     2
  9
$LTSCALE
 40
1.0
  9
$OSMODE
 70
    37
  9
$ATTMODE
 70
     1
  9
$TEXTSIZE
 40
0.0
  9
$TRACEWID
 40
0.05
  9
$TEXTSTYLE
  7
STANDARD
  9
$CLAYER
  8
0
  9
$CELTYPE
  6
CONTINUOUS
  9
$CECOLOR
 62
   256
  9
$DIMSCALE
 40
1.0
  9
$DIMASZ
 40
0.18
  9
$DIMEXO
 40
0.0625
  9
$DIMDLI
 40
0.38
  9
$DIMRND
 40
0.0
  9
$DIMDLE
 40
0.0
  9
$DIMEXE
 40
0.18
  9
$DIMTP
 40
0.0
  9
$DIMTM
 40
0.0
  9
$DIMTXT
 40
0.18
  9
$DIMCEN
 40
0.09
  9
$DIMTSZ
 40
0.0
  9
$DIMTOL
 70
     0
  9
$DIMLIM
 70
     0
  9
$DIMTIH
 70
     1
  9
$DIMTOH
 70
     1
  9
$DIMSE1
 70
     0
  9
$DIMSE2
 70
     0
  9
$DIMTAD
 70
     0
  9
$DIMZIN
 70
     0
  9
$DIMBLK
  1

  9
$DIMASO
 70
     1
  9
$DIMSHO
 70
     1
  9
$DIMPOST
  1

  9
$DIMAPOST
  1

  9
$DIMALT
 70
     0
  9
$DIMALTD
 70
     2
  9
$DIMALTF
 40
25.399999999999999
  9
$DIMLFAC
 40
1.0
  9
$DIMTOFL
 70
     0
  9
$DIMTVP
 40
0.0
  9
$DIMTIX
 70
     0
  9
$DIMSOXD
 70
     0
  9
$DIMSAH
 70
     0
  9
$DIMBLK1
  1

  9
$DIMBLK2
  1

  9
$DIMSTYLE
  2
STANDARD
  9
$DIMCLRD
 70
     0
  9
$DIMCLRE
 70
     0
  9
$DIMCLRT
 70
     0
  9
$DIMTFAC
 40
1.0
  9
$DIMGAP
 40
0.09
  9
$LUNITS
 70
     2
  9
$LUPREC
 70
     4
  9
$SKETCHINC
 40
0.1
  9
$FILLETRAD
 40
0.0
  9
$AUNITS
 70
     0
  9
$AUPREC
 70
     0
  9
$MENU
  1
.
  9
$ELEVATION
 40
0.0
  9
$PELEVATION
 40
0.0
  9
$THICKNESS
 40
0.0
  9
$LIMCHECK
 70
     0
  9
$BLIPMODE
 70
     0
  9
$CHAMFERA
 40
0.0
  9
$CHAMFERB
 40
0.0
  9
$SKPOLY
 70
     0
  9
$TDCREATE
 40
2444972.375
  9
$TDUPDATE
 40
2458180.251277315
  9
$TDINDWG
 40
0.0000316204
  9
$TDUSRTIMER
 40
0.0000316204
  9
$USRTIMER
 70
     1
  9
$ANGBASE
 50
0.0
  9
$ANGDIR
 70
     0
  9
$PDMODE
 70
     0
  9
$PDSIZE
 40
0.0
  9
$PLINEWID
 40
0.0
  9
$COORDS
 70
     1
  9
$SPLFRAME
 70
     0
  9
$SPLINETYPE
 70
     6
  9
$SPLINESEGS
 70
     8
  9
$ATTDIA
 70
     1
  9
$ATTREQ
 70
     1
  9
$HANDLING
 70
     1
  9
$HANDSEED
  5
603
  9
$SURFTAB1
 70
     6
  9
$SURFTAB2
 70
     6
  9
$SURFTYPE
 70
     6
  9
$SURFU
 70
     6
  9
$SURFV
 70
     6
  9
$UCSNAME
  2

  9
$UCSORG
 10
0.0
 20
0.0
 30
0.0
  9
$UCSXDIR
 10
1.0
 20
0.0
 30
0.0
  9
$UCSYDIR
 10
0.0
 20
1.0
 30
0.0
  9
$PUCSNAME
  2

  9
$PUCSORG
 10
0.0
 20
0.0
 30
0.0
  9
$PUCSXDIR
 10
1.0
 20
0.0
 30
0.0
  9
$PUCSYDIR
 10
0.0
 20
1.0
 30
0.0
  9
$USERI1
 70
     0
  9
$USERI2
 70
     0
  9
$USERI3
 70
     0
  9
$USERI4
 70
     0
  9
$USERI5
 70
     0
  9
$USERR1
 40
0.0
  9
$USERR2
 40
0.0
  9
$USERR3
 40
0.0
  9
$USERR4
 40
0.0
  9
$USERR5
 40
0.0
  9
$WORLDVIEW
 70
     1
  9
$SHADEDGE
 70
     3
  9
$SHADEDIF
 70
    70
  9
$TILEMODE
 70
     1
  9
$MAXACTVP
 70
    48
  9
$PLIMCHECK
 70
     0
  9
$PEXTMIN
 10
1.0000000000000000E+020
 20
1.0000000000000000E+020
 30
1.0000000000000000E+020
  9
$PEXTMAX
 10
-1.0000000000000000E+020
 20
-1.0000000000000000E+020
 30
-1.0000000000000000E+020
  9
$PLIMMIN
 10
0.0
 20
0.0
  9
$PLIMMAX
 10
12.0
 20
9.0
  9
$UNITMODE
 70
     0
  9
$VISRETAIN
 70
     1
  9
$PLINEGEN
 70
     0
  9
$PSLTSCALE
 70
     1
  0
ENDSEC
  0
SECTION
  2
TABLES
  0
TABLE
  2
VPORT
 70
     1
  0
VPORT
  2
*ACTIVE
 70
     0
 10
0.0
 20
0.0
 11
1.0
 21
1.0
 12
190.88172555799329
 22
127.4298
 13
0.0
 23
0.0
 14
1.0
 24
1.0
 15
0.0
 25
0.0
 16
0.0
 26
0.0
 36
1.0
 17
0.0
 27
0.0
 37
0.0
 40
280.9492874949953
 41
2.298642533936651
 42
50.0
 43
0.0
 44
0.0
 50
0.0
 51
0.0
 71
     0
 72
   100
 73
     1
 74
     1
 75
     0
 76
     0
 77
     0
 78
     0
  0
ENDTAB
  0
TABLE
  2
LTYPE
 70
     3
  0
LTYPE
  2
CONTINUOUS
 70
     0
  3
Solid line
 72
    65
 73
     0
 40
0.0
  0
LTYPE
  2
AIGENLINE001
 70
     0
  3
generate AI->DXF Converter
 72
    65
 73
     4
 40
5.8561449999999988
 49
3.5278
 49
-0.776115
 49
0.776115
 49
-0.776115
  0
LTYPE
  2
AIGENLINE002
 70
     0
  3
generate AI->DXF Converter
 72
    65
 73
     2
 40
1.5522299999999991
 49
0.776115
 49
-0.776115
  0
ENDTAB
  0
TABLE
  2
LAYER
 70
     2
  0
LAYER
  2
0
 70
     0
 62
     7
  6
CONTINUOUS
  0
LAYER
  2
_________2
 70
     0
 62
     7
  6
CONTINUOUS
  0
ENDTAB
  0
TABLE
  2
STYLE
 70
     1
  0
STYLE
  2
STANDARD
 70
     0
 40
0.0
 41
0.0
 50
0.0
 71
     0
 42
0.0
  3
TXT
  4
EXTFONT.SHX
  0
ENDTAB
  0
TABLE
  2
VIEW
 70
     0
  0
ENDTAB
  0
TABLE
  2
UCS
 70
     0
  0
ENDTAB
  0
TABLE
  2
APPID
 70
     3
  0
APPID
  2
ACAD
 70
     0
  0
APPID
  2
ACAD_NAV_VCDISPLAY
 70
     0
  0
APPID
  2
ACAD_MLEADERVER
 70
     0
  0
ENDTAB
  0
TABLE
  2
DIMSTYLE
 70
     1
  0
DIMSTYLE
  2
STANDARD
 70
     0
  3

  4

  5

  6

  7

 40
1.0
 41
0.18
 42
0.0625
 43
0.38
 44
0.18
 45
0.0
 46
0.0
 47
0.0
 48
0.0
140
0.18
141
0.09
142
0.0
143
25.399999999999999
144
1.0
145
0.0
146
1.0
147
0.09
 71
     0
 72
     0
 73
     1
 74
     1
 75
     0
 76
     0
 77
     0
 78
     0
170
     0
171
     2
172
     0
173
     0
174
     0
175
     0
176
     0
177
     0
178
     0
  0
ENDTAB
  0
ENDSEC
  0
SECTION
  2
BLOCKS
  0
BLOCK
  8
0
  2
$MODEL_SPACE
 70
     0
 10
0.0
 20
0.0
 30
0.0
  3
$MODEL_SPACE
  1

  0
ENDBLK
  5
1A
  8
0
  0
BLOCK
 67
     1
  8
0
  2
$PAPER_SPACE
 70
     0
 10
0.0
 20
0.0
 30
0.0
  3
$PAPER_SPACE
  1

  0
ENDBLK
  5
17
 67
     1
  8
0
  0
ENDSEC
  0
SECTION
  2
ENTITIES
  0
TEXT
  5
23
  8
0
 62
     7
 10
167.5168799999999
 20
208.99199999999999
 30
0.0
 40
3.0923400000000001
  1
%%c77
 41
0.5
 72
     2
 11
171.63999999999999
 21
208.99199999999999
 31
0.0
  0
TEXT
  5
24
  8
0
 62
     7
 10
129.40643999999989
 20
147.55500000000001
 30
0.0
 40
3.0923400000000001
  1
%%c77
 41
0.5
 72
     1
 11
131.46799999999999
 21
147.55500000000001
 31
0.0
  0
TEXT
  5
25
  8
0
 62
     7
 10
122.24299999999999
 20
172.05761000000001
 30
0.0
 40
3.0923400000000001
  1
Y
 50
90.0
 41
0.5
 72
     1
 11
122.24299999999999
 21
172.57299999999989
 31
0.0
  0
TEXT
  5
26
  8
0
 62
     7
 10
36.405425000000001
 20
225.26900000000001
 30
0.0
 40
3.0923400000000001
  1
47
 41
0.5
 72
     1
 11
37.693899999999999
 21
225.26900000000001
 31
0.0
  0
TEXT
  5
27
  8
0
 62
     7
 10
89.129109999999983
 20
225.27600000000001
 30
0.0
 40
3.0923400000000001
  1
X
 41
0.5
 72
     1
 11
89.644499999999994
 21
225.27600000000001
 31
0.0
  0
TEXT
  5
28
  8
0
 62
     7
 10
161.434
 20
63.509208999999998
 30
0.0
 40
3.0923400000000001
  1
G1 1/2
 50
90.0
 41
0.5
 72
     1
 11
161.434
 21
67.065399999999997
 31
0.0
  0
TEXT
  5
29
  8
0
 62
     7
 10
169.43700000000001
 20
69.600372500000006
 30
0.0
 40
3.0923400000000001
  1
70
 50
90.0
 41
0.5
 72
     1
 11
169.43700000000001
 21
70.760000000000005
 31
0.0
  0
TEXT
  5
2A
  8
0
 62
     7
 10
150.71600000000001
 20
120.421525
 30
0.0
 40
3.0923400000000001
  1
77
 50
90.0
 41
0.5
 72
     1
 11
150.71600000000001
 21
121.70999999999999
 31
0.0
  0
TEXT
  5
2B
  8
0
 62
     7
 10
127.883809
 20
100.90300000000001
 30
0.0
 40
3.0923400000000001
  1
G1 1/2
 41
0.5
 72
     1
 11
131.44
 21
100.90300000000001
 31
0.0
  0
LINE
  5
2C
  8
0
  6
AIGENLINE001
 62
     7
 10
110.08499999999999
 20
69.918700000000001
 30
0.0
 11
131.46700000000001
 21
69.918700000000001
 31
0.0
  0
LINE
  5
2D
  8
0
  6
AIGENLINE001
 62
     7
 10
131.46700000000001
 20
85.060599999999994
 30
0.0
 11
131.46700000000001
 21
55.550400000000003
 31
0.0
  0
LINE
  5
2E
  8
0
  6
AIGENLINE001
 62
     7
 10
153.91
 20
67.021999999999991
 30
0.0
 11
131.452
 21
67.414100000000005
 31
0.0
  0
LINE
  5
2F
  8
0
 62
     7
 10
139.40700000000001
 20
110.328
 30
0.0
 11
123.473
 21
110.328
 31
0.0
  0
LINE
  5
30
  8
0
 62
     7
 10
139.40700000000001
 20
111.328
 30
0.0
 11
123.473
 21
111.328
 31
0.0
  0
ARC
  5
31
  8
0
 62
     7
 10
155.51414199999999
 20
197.691507
 30
0.0
 40
6.816682000000001
 50
359.99856199999999
 51
89.998531999999997
  0
ARC
  5
32
  8
0
 62
     7
 10
155.51431700000001
 20
197.69133500000001
 30
0.0
 40
6.8168550000000003
 50
90.0
 51
179.99996999999999
  0
ARC
  5
33
  8
0
 62
     7
 10
155.514229
 20
197.69142099999999
 30
0.0
 40
6.8167660000000003
 50
180.00073399999999
 51
270.000744
  0
ARC
  5
34
  8
0
 62
     7
 10
155.514229
 20
197.69125099999999
 30
0.0
 40
6.8165959999999997
 50
270.000744
 51
0.000714
  0
LINE
  5
35
  8
0
 62
     7
 10
140.274
 20
131.828
 30
0.0
 11
140.274
 21
128.078
 31
0.0
  0
LINE
  5
36
  8
0
 62
     7
 10
123.96599999999999
 20
112.327
 30
0.0
 11
123.473
 21
112.327
 31
0.0
  0
LINE
  5
37
  8
0
 62
     7
 10
139.40700000000001
 20
112.327
 30
0.0
 11
139.40700000000001
 21
109.488
 31
0.0
  0
LINE
  5
38
  8
0
 62
     7
 10
138.91499999999999
 20
108.995
 30
0.0
 11
139.40700000000001
 21
109.488
 31
0.0
  0
LINE
  5
39
  8
0
 62
     7
 10
123.473
 20
109.488
 30
0.0
 11
123.473
 21
112.327
 31
0.0
  0
LINE
  5
3A
  8
0
 62
     7
 10
123.473
 20
109.488
 30
0.0
 11
123.96599999999999
 21
108.995
 31
0.0
  0
LINE
  5
3B
  8
0
 62
     7
 10
139.40700000000001
 20
112.327
 30
0.0
 11
123.96599999999999
 21
112.327
 31
0.0
  0
LINE
  5
3C
  8
0
 62
     7
 10
143.107
 20
132.495
 30
0.0
 11
142.94
 21
132.32900000000001
 31
0.0
  0
LINE
  5
3D
  8
0
 62
     7
 10
138.149
 20
108.995
 30
0.0
 11
138.17699999999999
 21
108.995
 31
0.0
  0
LINE
  5
3E
  8
0
 62
     7
 10
138.17699999999999
 20
108.995
 30
0.0
 11
138.149
 21
108.995
 31
0.0
  0
ARC
  5
3F
  8
0
 62
     7
 10
140.79335699999999
 20
131.808953
 30
0.0
 40
0.51991
 50
92.129608000000005
 51
177.870362
  0
ARC
  5
40
  8
0
 62
     7
 10
142.93415400000001
 20
133.155361
 30
0.0
 40
0.173027
 50
2.0446049999999989
 51
87.955384999999993
  0
LINE
  5
41
  8
0
 62
     7
 10
125.259
 20
115.863
 30
0.0
 11
125.262
 21
115.66200000000001
 31
0.0
  0
LINE
  5
42
  8
0
 62
     7
 10
122.774
 20
114.744
 30
0.0
 11
122.774
 21
114.428
 31
0.0
  0
LINE
  5
43
  8
0
 62
     7
 10
122.67400000000001
 20
114.328
 30
0.0
 11
122.107
 21
114.328
 31
0.0
  0
LINE
  5
44
  8
0
 62
     7
 10
122.441
 20
128.328
 30
0.0
 11
122.20699999999999
 21
128.328
 31
0.0
  0
LINE
  5
45
  8
0
 62
     7
 10
122.607
 20
131.828
 30
0.0
 11
122.607
 21
128.495
 31
0.0
  0
LINE
  5
46
  8
0
 62
     7
 10
119.94
 20
132.32900000000001
 30
0.0
 11
119.774
 21
132.495
 31
0.0
  0
ARC
  5
47
  8
0
 62
     7
 10
123.61971800000001
 20
114.564572
 30
0.0
 40
0.3468739999999999
 50
2.170609999999999
 51
87.829379999999986
  0
ARC
  5
48
  8
0
 62
     7
 10
122.434319
 20
128.50095999999999
 30
0.0
 40
0.173036
 50
272.04747200000003
 51
357.95253800000012
  0
ARC
  5
49
  8
0
 62
     7
 10
122.94656999999999
 20
114.73827199999999
 30
0.0
 40
0.173036
 50
92.047434999999993
 51
177.95253500000001
  0
ARC
  5
4A
  8
0
 62
     7
 10
122.087694
 20
131.808953
 30
0.0
 40
0.51991
 50
2.1296179999999998
 51
87.870372000000003
  0
ARC
  5
4B
  8
0
 62
     7
 10
122.66994800000001
 20
114.43129
 30
0.0
 40
0.103765
 50
272.091589
 51
357.90842099999998
  0
ARC
  5
4C
  8
0
 62
     7
 10
138.741094
 20
115.48795699999999
 30
0.0
 40
0.173723
 50
2.0301409999999991
 51
87.733578000000009
  0
ARC
  5
4D
  8
0
 62
     7
 10
119.946562
 20
133.15535199999999
 30
0.0
 40
0.173036
 50
92.047434999999993
 51
177.95253500000001
  0
ARC
  5
4E
  8
0
 62
     7
 10
138.6129
 20
115.833809
 30
0.0
 40
0.172353
 50
182.064941
 51
268.17233800000002
  0
LINE
  5
4F
  8
0
 62
     7
 10
138.33199999999999
 20
123.494
 30
0.0
 11
138.441
 21
123.604
 31
0.0
  0
ARC
  5
50
  8
0
 62
     7
 10
74.720460000000003
 20
220.301265
 30
0.0
 40
78.924788000000007
 50
233.13700499999999
 51
233.689717
  0
ARC
  5
51
  8
0
 62
     7
 10
37.913510000000002
 20
170.285472
 30
0.0
 40
16.825492000000001
 50
233.83475899999999
 51
236.897471
  0
ARC
  5
52
  8
0
 62
     7
 10
32.995838999999997
 20
162.793869
 30
0.0
 40
7.8641339999999991
 50
237.10182499999999
 51
244.09951899999999
  0
ARC
  5
53
  8
0
 62
     7
 10
31.351089000000002
 20
159.497728
 30
0.0
 40
4.1808239999999994
 50
244.64434800000001
 51
256.80431199999998
  0
ARC
  5
54
  8
0
 62
     7
 10
30.958275
 20
158.00872699999999
 30
0.0
 40
2.6418099999999991
 50
257.72689600000012
 51
274.55538999999999
  0
ARC
  5
55
  8
0
 62
     7
 10
30.961480999999999
 20
157.617164
 30
0.0
 40
2.2514020000000001
 50
275.26550600000002
 51
283.56138900000002
  0
ARC
  5
56
  8
0
 62
     7
 10
30.874745000000001
 20
157.97181
 30
0.0
 40
2.6164990000000001
 50
283.586749
 51
290.91828700000002
  0
ARC
  5
57
  8
0
 62
     7
 10
30.300421000000011
 20
159.55496600000001
 30
0.0
 40
4.3004610000000003
 50
290.53493500000002
 51
293.69647099999997
  0
ARC
  5
58
  8
0
 62
     7
 10
29.076271999999999
 20
162.33845600000001
 30
0.0
 40
7.3412420000000003
 50
293.71424200000001
 51
296.1248129999999
  0
ARC
  5
59
  8
0
 62
     7
 10
65.25224399999999
 20
89.530085999999997
 30
0.0
 40
73.959293000000002
 50
115.826493
 51
116.45060599999999
  0
ARC
  5
5A
  8
0
 62
     7
 10
35.000056999999998
 20
151.81795099999999
 30
0.0
 40
4.7145720000000004
 50
109.105047
 51
114.672346
  0
ARC
  5
5B
  8
0
 62
     7
 10
34.202626000000002
 20
154.07964799999999
 30
0.0
 40
2.3164869999999991
 50
93.295681000000016
 51
108.77728
  0
ARC
  5
5C
  8
0
 62
     7
 10
34.097496
 20
155.48513800000001
 30
0.0
 40
0.9075989999999999
 50
79.785038
 51
91.770526000000004
  0
ARC
  5
5D
  8
0
 62
     7
 10
33.909740999999997
 20
154.487953
 30
0.0
 40
1.9222909999999991
 50
74.962389000000002
 51
79.548505000000006
  0
ARC
  5
5E
  8
0
 62
     7
 10
33.108255
 20
151.47838899999999
 30
0.0
 40
5.0367470000000001
 50
72.213382999999993
 51
75.039746999999991
  0
ARC
  5
5F
  8
0
 62
     7
 10
30.297619999999998
 20
142.665716
 30
0.0
 40
14.286763000000001
 50
70.546138999999997
 51
72.276514000000006
  0
ARC
  5
60
  8
0
 62
     7
 10
40.474815999999997
 20
165.66519099999999
 30
0.0
 40
13.877344000000001
 50
238.340203
 51
239.5646549999999
  0
ARC
  5
61
  8
0
 62
     7
 10
34.738828999999988
 20
155.929182
 30
0.0
 40
2.5773259999999989
 50
239.86799400000001
 51
247.89776599999999
  0
ARC
  5
62
  8
0
 62
     7
 10
34.180554000000001
 20
154.60155399999999
 30
0.0
 40
1.137340999999999
 50
248.79022699999999
 51
260.84072200000003
  0
ARC
  5
63
  8
0
 62
     7
 10
34.101728999999999
 20
154.159874
 30
0.0
 40
0.688786
 50
261.46570800000001
 51
289.16383500000001
  0
ARC
  5
64
  8
0
 62
     7
 10
34.081842000000002
 20
154.17137700000001
 30
0.0
 40
0.7063390000000001
 50
290.3814220000001
 51
296.40634799999998
  0
ARC
  5
65
  8
0
 62
     7
 10
33.763052999999999
 20
154.81478300000001
 30
0.0
 40
1.4243909999999991
 50
296.38150999999999
 51
301.55337500000002
  0
ARC
  5
66
  8
0
 62
     7
 10
37.045794000000001
 20
149.606843
 30
0.0
 40
4.7319550000000001
 50
119.41160499999999
 51
122.426655
  0
ARC
  5
67
  8
0
 62
     7
 10
35.042417999999998
 20
153.14470800000001
 30
0.0
 40
0.6662970000000001
 50
102.366001
 51
118.7415
  0
ARC
  5
68
  8
0
 62
     7
 10
34.974696000000002
 20
153.36757399999999
 30
0.0
 40
0.43449
 50
71.393945000000002
 51
99.935838999999987
  0
ARC
  5
69
  8
0
 62
     7
 10
34.877222000000003
 20
152.987853
 30
0.0
 40
0.825966
 50
66.181664999999995
 51
73.390309000000002
  0
ARC
  5
6A
  8
0
 62
     7
 10
34.632379
 20
152.436474
 30
0.0
 40
1.4292609999999999
 50
60.780529000000001
 51
66.12865699999999
  0
ARC
  5
6B
  8
0
 62
     7
 10
32.870367999999999
 20
149.32354799999999
 30
0.0
 40
5.0062569999999988
 50
57.823256999999991
 51
60.57209799999999
  0
ARC
  5
6C
  8
0
 62
     7
 10
36.723174
 20
155.41271800000001
 30
0.0
 40
2.199495999999999
 50
237.34474700000001
 51
245.33932100000001
  0
ARC
  5
6D
  8
0
 62
     7
 10
36.310130999999998
 20
154.56668400000001
 30
0.0
 40
1.258483999999999
 50
246.35776799999999
 51
269.51082700000001
  0
ARC
  5
6E
  8
0
 62
     7
 10
36.358628000000003
 20
155.485096
 30
0.0
 40
2.1776569999999991
 50
268.44113199999998
 51
277.69792999999999
  0
ARC
  5
6F
  8
0
 62
     7
 10
35.856197999999999
 20
159.564098
 30
0.0
 40
6.2873859999999988
 50
277.25612799999999
 51
280.89576799999998
  0
ARC
  5
70
  8
0
 62
     7
 10
51.399130999999997
 20
184.203698
 30
0.0
 40
32.274698000000001
 50
242.08455599999999
 51
242.95136299999999
  0
ARC
  5
71
  8
0
 62
     7
 10
40.117652
 20
162.15538799999999
 30
0.0
 40
7.5078279999999991
 50
243.112528
 51
247.75125499999999
  0
ARC
  5
72
  8
0
 62
     7
 10
38.642074999999998
 20
158.624256
 30
0.0
 40
3.6810099999999988
 50
248.19846699999999
 51
254.81877600000001
  0
ARC
  5
73
  8
0
 62
     7
 10
38.250965000000001
 20
157.214821
 30
0.0
 40
2.2183559999999991
 50
255.034909
 51
268.48939200000001
  0
ARC
  5
74
  8
0
 62
     7
 10
38.210248
 20
156.540603
 30
0.0
 40
1.5434689999999991
 50
269.34057100000001
 51
281.83282300000002
  0
ARC
  5
75
  8
0
 62
     7
 10
38.176760000000002
 20
156.660706
 30
0.0
 40
1.667907
 50
282.11272100000002
 51
296.11359700000003
  0
ARC
  5
76
  8
0
 62
     7
 10
37.574821999999998
 20
157.99139299999999
 30
0.0
 40
3.1280320000000001
 50
295.28545800000001
 51
303.21200900000002
  0
ARC
  5
77
  8
0
 62
     7
 10
35.572192999999999
 20
161.16697500000001
 30
0.0
 40
6.8820949999999987
 50
302.68010099999998
 51
305.18652400000002
  0
ARC
  5
78
  8
0
 62
     7
 10
83.431433999999996
 20
94.059872999999996
 30
0.0
 40
75.542950000000005
 50
124.90762700000001
 51
125.523736
  0
ARC
  5
79
  8
0
 62
     7
 10
42.678161000000003
 20
152.291865
 30
0.0
 40
4.4680989999999987
 50
117.903402
 51
123.661096
  0
ARC
  5
7A
  8
0
 62
     7
 10
41.729596000000001
 20
154.03821199999999
 30
0.0
 40
2.4809639999999988
 50
110.753315
 51
117.417889
  0
ARC
  5
7B
  8
0
 62
     7
 10
41.61374099999999
 20
154.30884
 30
0.0
 40
2.1868780000000001
 50
88.143321999999998
 51
110.42734900000001
  0
ARC
  5
7C
  8
0
 62
     7
 10
41.631479999999989
 20
153.16744700000001
 30
0.0
 40
3.327547
 50
78.155004000000005
 51
89.085387999999995
  0
ARC
  5
7D
  8
0
 62
     7
 10
41.228004999999989
 20
150.97282799999999
 30
0.0
 40
5.5585319999999987
 50
72.923799000000002
 51
78.728064000000003
  0
ARC
  5
7E
  8
0
 62
     7
 10
40.182274999999997
 20
147.40402499999999
 30
0.0
 40
9.2772020000000008
 50
71.105193999999997
 51
73.222257999999997
  0
ARC
  5
7F
  8
0
 62
     7
 10
36.502113000000001
 20
136.77163100000001
 30
0.0
 40
20.528455999999998
 50
68.665177
 51
70.997037000000006
  0
ARC
  5
80
  8
0
 62
     7
 10
98.767606000000001
 20
123.903137
 30
0.0
 40
6.6544249999999989
 50
332.95401299999997
 51
337.66428999999999
  0
ARC
  5
81
  8
0
 62
     7
 10
86.253144999999989
 20
130.14674400000001
 30
0.0
 40
20.639735999999999
 50
331.92700300000001
 51
333.31372099999999
  0
ARC
  5
82
  8
0
 62
     7
 10
117.866595
 20
113.12390600000001
 30
0.0
 40
15.265902000000001
 50
151.390601
 51
154.22842900000001
  0
ARC
  5
83
  8
0
 62
     7
 10
109.245069
 20
117.27491499999999
 30
0.0
 40
5.6971350000000003
 50
154.12410399999999
 51
159.96195299999999
  0
ARC
  5
84
  8
0
 62
     7
 10
106.592021
 20
118.2607
 30
0.0
 40
2.8669660000000001
 50
160.30288400000001
 51
172.09304
  0
ARC
  5
85
  8
0
 62
     7
 10
105.42574500000001
 20
118.452023
 30
0.0
 40
1.6857089999999999
 50
173.08102500000001
 51
191.19300399999989
  0
ARC
  5
86
  8
0
 62
     7
 10
105.40783
 20
118.476507
 30
0.0
 40
1.6731139999999991
 50
192.13462599999991
 51
206.10176799999999
  0
ARC
  5
87
  8
0
 62
     7
 10
106.739631
 20
119.07970400000001
 30
0.0
 40
3.134789
 50
205.292633
 51
213.205252
  0
ARC
  5
88
  8
0
 62
     7
 10
109.890961
 20
121.065941
 30
0.0
 40
6.8595909999999991
 50
212.671672
 51
215.186905
  0
ARC
  5
89
  8
0
 62
     7
 10
42.702058000000001
 20
73.151421999999997
 30
0.0
 40
75.664147999999997
 50
34.906413000000001
 51
35.521687
  0
ARC
  5
8A
  8
0
 62
     7
 10
101.02367099999999
 20
113.966466
 30
0.0
 40
4.4804699999999986
 50
27.907568999999999
 51
33.651929000000003
  0
ARC
  5
8B
  8
0
 62
     7
 10
102.778325
 20
114.919777
 30
0.0
 40
2.4837729999999989
 50
20.75695
 51
27.418868
  0
ARC
  5
8C
  8
0
 62
     7
 10
103.05431900000001
 20
115.037447
 30
0.0
 40
2.1840239999999991
 50
358.12889999999999
 51
20.436416999999999
  0
ARC
  5
8D
  8
0
 62
     7
 10
101.90923600000001
 20
115.020432
 30
0.0
 40
3.3283860000000001
 50
348.13868000000002
 51
359.06528800000001
  0
ARC
  5
8E
  8
0
 62
     7
 10
99.720338999999996
 20
115.42278399999999
 30
0.0
 40
5.5535300000000003
 50
342.90860400000003
 51
348.71802300000002
  0
ARC
  5
8F
  8
0
 62
     7
 10
96.092563999999996
 20
116.486554
 30
0.0
 40
9.3338619999999999
 50
341.107664
 51
343.21185300000002
  0
ARC
  5
90
  8
0
 62
     7
 10
85.305228999999997
 20
120.21955800000001
 30
0.0
 40
20.748818
 50
338.69293299999998
 51
340.999799
  0
ARC
  5
91
  8
0
 62
     7
 10
168.370653
 20
82.418880999999999
 30
0.0
 40
78.093232999999984
 50
143.127622
 51
143.686148
  0
ARC
  5
92
  8
0
 62
     7
 10
119.038928
 20
118.727935
 30
0.0
 40
16.840004999999991
 50
143.83132699999999
 51
146.89122
  0
ARC
  5
93
  8
0
 62
     7
 10
111.53545099999999
 20
123.65479000000001
 30
0.0
 40
7.8636829999999991
 50
147.09729200000001
 51
154.09523799999999
  0
ARC
  5
94
  8
0
 62
     7
 10
108.238269
 20
125.300179
 30
0.0
 40
4.1791529999999986
 50
154.638192
 51
166.80238899999989
  0
ARC
  5
95
  8
0
 62
     7
 10
106.751116
 20
125.692656
 30
0.0
 40
2.6420149999999998
 50
167.72581600000001
 51
184.55049199999999
  0
ARC
  5
96
  8
0
 62
     7
 10
106.36274299999999
 20
125.690331
 30
0.0
 40
2.254861
 50
185.27456100000001
 51
193.556072
  0
ARC
  5
97
  8
0
 62
     7
 10
106.71091800000001
 20
125.77570799999999
 30
0.0
 40
2.6133489999999999
 50
193.5864939999999
 51
200.93008399999999
  0
ARC
  5
98
  8
0
 62
     7
 10
108.225623
 20
126.32483499999999
 30
0.0
 40
4.2243680000000001
 50
200.547583
 51
203.76910699999999
  0
ARC
  5
99
  8
0
 62
     7
 10
110.735877
 20
127.43050100000001
 30
0.0
 40
6.9673350000000003
 50
203.77007900000001
 51
206.13135700000001
  0
ARC
  5
9A
  8
0
 62
     7
 10
-14.746756
 20
64.958980000000011
 30
0.0
 40
133.20619099999999
 50
26.087562999999999
 51
26.483937999999998
  0
ARC
  5
9B
  8
0
 62
     7
 10
100.737369
 20
121.649546
 30
0.0
 40
4.559787
 50
18.922194000000001
 51
24.433468999999999
  0
ARC
  5
9C
  8
0
 62
     7
 10
102.778158
 20
122.362926
 30
0.0
 40
2.39798
 50
4.996086
 51
18.610776999999999
  0
ARC
  5
9D
  8
0
 62
     7
 10
103.164523
 20
122.438305
 30
0.0
 40
2.0069469999999998
 50
346.12855999999999
 51
3.8127840000000002
  0
ARC
  5
9E
  8
0
 62
     7
 10
154.473871
 20
146.689358
 30
0.0
 40
5.4659490000000002
 50
213.12727000000001
 51
255.274348
  0
ARC
  5
9F
  8
0
 62
     7
 10
151.829925
 20
139.168218
 30
0.0
 40
2.5627900000000001
 50
338.82261399999999
 51
60.69063100000001
  0
LINE
  5
A0
  8
0
 62
     7
 10
43.18869999999999
 20
190.22499999999999
 30
0.0
 11
39.717399999999998
 21
190.22499999999999
 31
0.0
  0
LINE
  5
A1
  8
0
 62
     7
 10
37.786000000000001
 20
195.59899999999999
 30
0.0
 11
37.123899999999999
 21
195.59899999999999
 31
0.0
  0
LINE
  5
A2
  8
0
 62
     7
 10
155.84700000000001
 20
192.06399999999999
 30
0.0
 11
155.84700000000001
 21
191.03099999999989
 31
0.0
  0
ARC
  5
A3
  8
0
 62
     7
 10
155.74347700000001
 20
191.034088
 30
0.0
 40
0.103698
 50
273.96717100000001
 51
358.04301099999998
  0
ARC
  5
A4
  8
0
 62
     7
 10
155.513971
 20
197.66303099999999
 30
0.0
 40
6.7365509999999986
 50
267.98658699999999
 51
272.01343300000002
  0
ARC
  5
A5
  8
0
 62
     7
 10
155.284549
 20
191.03416799999999
 30
0.0
 40
0.103784
 50
181.99960300000001
 51
265.99025499999999
  0
LINE
  5
A6
  8
0
 62
     7
 10
155.18100000000001
 20
191.03099999999989
 30
0.0
 11
155.18100000000001
 21
192.06399999999999
 31
0.0
  0
LINE
  5
A7
  8
0
 62
     7
 10
155.864
 20
192.16900000000001
 30
0.0
 11
155.85300000000001
 21
192.124
 31
0.0
  0
LINE
  5
A8
  8
0
 62
     7
 10
155.85300000000001
 20
192.124
 30
0.0
 11
155.84700000000001
 21
192.06399999999999
 31
0.0
  0
LINE
  5
A9
  8
0
 62
     7
 10
155.18100000000001
 20
192.06399999999999
 30
0.0
 11
155.17500000000001
 21
192.124
 31
0.0
  0
LINE
  5
AA
  8
0
 62
     7
 10
155.17500000000001
 20
192.124
 30
0.0
 11
155.16399999999999
 21
192.16900000000001
 31
0.0
  0
ARC
  5
AB
  8
0
 62
     7
 10
155.606404
 20
197.74270100000001
 30
0.0
 40
6.3927459999999989
 50
27.889581
 51
32.137528000000003
  0
ARC
  5
AC
  8
0
 62
     7
 10
160.93349000000001
 20
201.08536000000001
 30
0.0
 40
0.103824
 50
33.950946000000002
 51
118.11415599999999
  0
LINE
  5
AD
  8
0
 62
     7
 10
161.21799999999999
 20
200.59999999999999
 30
0.0
 11
160.554
 21
200.21600000000001
 31
0.0
  0
LINE
  5
AE
  8
0
 62
     7
 10
160.221
 20
200.79400000000001
 30
0.0
 11
160.88499999999999
 21
201.17699999999999
 31
0.0
  0
LINE
  5
AF
  8
0
 62
     7
 10
150.143
 20
201.17699999999999
 30
0.0
 11
150.80699999999999
 21
200.79400000000001
 31
0.0
  0
ARC
  5
B0
  8
0
 62
     7
 10
150.09473299999999
 20
201.08599899999999
 30
0.0
 40
0.103128
 50
61.855646999999998
 51
146.21681699999999
  0
LINE
  5
B1
  8
0
 62
     7
 10
150.47399999999999
 20
200.21600000000001
 30
0.0
 11
149.81
 21
200.59999999999999
 31
0.0
  0
ARC
  5
B2
  8
0
 62
     7
 10
155.54375899999999
 20
197.672496
 30
0.0
 40
6.533002999999999
 50
147.90807100000001
 51
152.06477899999999
  0
LINE
  5
B3
  8
0
 62
     7
 10
150.80699999999999
 20
200.79400000000001
 30
0.0
 11
150.86199999999999
 21
200.768
 31
0.0
  0
LINE
  5
B4
  8
0
 62
     7
 10
150.86199999999999
 20
200.768
 30
0.0
 11
150.90700000000001
 21
200.756
 31
0.0
  0
LINE
  5
B5
  8
0
 62
     7
 10
160.12100000000001
 20
200.756
 30
0.0
 11
160.166
 21
200.768
 31
0.0
  0
LINE
  5
B6
  8
0
 62
     7
 10
160.166
 20
200.768
 30
0.0
 11
160.221
 21
200.79400000000001
 31
0.0
  0
LINE
  5
B7
  8
0
 62
     7
 10
150.55600000000001
 20
200.149
 30
0.0
 11
150.523
 21
200.18100000000001
 31
0.0
  0
LINE
  5
B8
  8
0
 62
     7
 10
150.523
 20
200.18100000000001
 30
0.0
 11
150.47399999999999
 21
200.21600000000001
 31
0.0
  0
LINE
  5
B9
  8
0
 62
     7
 10
160.554
 20
200.21600000000001
 30
0.0
 11
160.505
 21
200.18100000000001
 31
0.0
  0
LINE
  5
BA
  8
0
 62
     7
 10
160.505
 20
200.18100000000001
 30
0.0
 11
160.471
 21
200.149
 31
0.0
  0
ARC
  5
BB
  8
0
 62
     7
 10
161.16464400000001
 20
200.685902
 30
0.0
 40
0.103363
 50
0.152145
 51
27.125955999999999
  0
ARC
  5
BC
  8
0
 62
     7
 10
161.165809
 20
200.687375
 30
0.0
 40
0.102205
 50
300.741467
 51
359.32813700000003
  0
ARC
  5
BD
  8
0
 62
     7
 10
149.86502100000001
 20
200.68731
 30
0.0
 40
0.103655
 50
153.827034
 51
237.86837200000011
  0
ARC
  5
BE
  8
0
 62
     7
 10
155.514229
 20
197.69142099999999
 30
0.0
 40
5.53329
 50
359.99911800000001
 51
89.999088
  0
ARC
  5
BF
  8
0
 62
     7
 10
155.514231
 20
197.691249
 30
0.0
 40
5.5334620000000001
 50
89.999108000000007
 51
179.999078
  0
ARC
  5
C0
  8
0
 62
     7
 10
155.51414299999999
 20
197.691508
 30
0.0
 40
5.5333740000000002
 50
180.00179399999999
 51
270.001803
  0
ARC
  5
C1
  8
0
 62
     7
 10
155.51431500000001
 20
197.691337
 30
0.0
 40
5.5332039999999996
 50
270.00002000000001
 51
359.99999000000003
  0
LINE
  5
C2
  8
0
 62
     7
 10
38.864699999999999
 20
190.22499999999999
 30
0.0
 11
43.198300000000003
 21
190.22499999999999
 31
0.0
  0
LINE
  5
C3
  8
0
 62
     7
 10
47.917099999999998
 20
185.691
 30
0.0
 11
48.0167
 21
185.691
 31
0.0
  0
LINE
  5
C4
  8
0
 62
     7
 10
47.917099999999998
 20
185.941
 30
0.0
 11
48.0167
 21
185.941
 31
0.0
  0
LINE
  5
C5
  8
0
 62
     7
 10
47.917099999999998
 20
185.691
 30
0.0
 11
47.917099999999998
 21
185.32400000000001
 31
0.0
  0
ARC
  5
C6
  8
0
 62
     7
 10
48.401400000000002
 20
185.34221400000001
 30
0.0
 40
0.484625
 50
182.10678200000001
 51
267.85091599999998
  0
ARC
  5
C7
  8
0
 62
     7
 10
48.369859999999989
 20
185.339304
 30
0.0
 40
0.4815600000000001
 50
271.59055799999999
 51
351.5971009999999
  0
ARC
  5
C8
  8
0
 62
     7
 10
48.367947999999991
 20
210.03900699999991
 30
0.0
 40
0.484105
 50
8.8805049999999994
 51
94.720956000000015
  0
ARC
  5
C9
  8
0
 62
     7
 10
48.399627000000002
 20
210.044059
 30
0.0
 40
0.4827390000000001
 50
98.520222000000004
 51
178.29209900000001
  0
LINE
  5
CA
  8
0
 62
     7
 10
47.917099999999998
 20
210.05799999999999
 30
0.0
 11
47.917099999999998
 21
209.691
 31
0.0
  0
LINE
  5
CB
  8
0
 62
     7
 10
48.0167
 20
209.691
 30
0.0
 11
47.917099999999998
 21
209.691
 31
0.0
  0
LINE
  5
CC
  8
0
 62
     7
 10
48.0167
 20
209.44200000000001
 30
0.0
 11
47.917099999999998
 21
209.44200000000001
 31
0.0
  0
ARC
  5
CD
  8
0
  6
AIGENLINE001
 62
     7
 10
1182.752
 20
172.43813499999999
 30
0.0
 40
1147.152
 50
180.64183
 51
180.781083
  0
ARC
  5
CE
  8
0
  6
AIGENLINE001
 62
     7
 10
294.60718600000001
 20
160.49491800000001
 30
0.0
 40
258.92680300000001
 50
180.817553
 51
181.62829499999989
  0
ARC
  5
CF
  8
0
  6
AIGENLINE001
 62
     7
 10
170.001282
 20
157.089123
 30
0.0
 40
134.274507
 50
181.68643299999999
 51
183.854581
  0
ARC
  5
D0
  8
0
  6
AIGENLINE001
 62
     7
 10
121.838004
 20
154.08503099999999
 30
0.0
 40
86.018568000000002
 50
184.01473100000001
 51
187.552606
  0
ARC
  5
D1
  8
0
  6
AIGENLINE001
 62
     7
 10
101.100731
 20
151.523113
 30
0.0
 40
65.124735000000001
 50
187.7161899999999
 51
192.805926
  0
ARC
  5
D2
  8
0
  6
AIGENLINE001
 62
     7
 10
88.021372999999997
 20
148.69255899999999
 30
0.0
 40
51.743502999999997
 50
192.95970600000001
 51
196.40942699999999
  0
ARC
  5
D3
  8
0
  6
AIGENLINE001
 62
     7
 10
73.363026000000005
 20
144.47927799999999
 30
0.0
 40
36.49211300000001
 50
196.56534500000001
 51
201.87779900000001
  0
ARC
  5
D4
  8
0
  6
AIGENLINE001
 62
     7
 10
63.061756999999993
 20
140.473693
 30
0.0
 40
25.440429999999999
 50
202.15128899999999
 51
208.65079399999999
  0
ARC
  5
D5
  8
0
  6
AIGENLINE001
 62
     7
 10
56.644342000000002
 20
137.08103
 30
0.0
 40
18.182368
 50
208.964955
 51
216.796469
  0
ARC
  5
D6
  8
0
  6
AIGENLINE001
 62
     7
 10
53.696545999999998
 20
134.99480399999999
 30
0.0
 40
14.572581
 50
217.17026299999989
 51
219.28310099999999
  0
ARC
  5
D7
  8
0
  6
AIGENLINE001
 62
     7
 10
53.350105999999997
 20
134.72396699999999
 30
0.0
 40
14.132948000000001
 50
219.32248300000001
 51
239.05105499999999
  0
ARC
  5
D8
  8
0
  6
AIGENLINE001
 62
     7
 10
54.746256999999993
 20
136.88488599999999
 30
0.0
 40
16.704435
 50
238.75583499999999
 51
248.096036
  0
ARC
  5
D9
  8
0
  6
AIGENLINE001
 62
     7
 10
56.366240000000012
 20
140.68300300000001
 30
0.0
 40
20.832882999999999
 50
247.85912400000001
 51
255.60415399999999
  0
ARC
  5
DA
  8
0
  6
AIGENLINE001
 62
     7
 10
58.070979000000001
 20
146.837219
 30
0.0
 40
27.217966000000001
 50
255.349121
 51
261.53344600000003
  0
ARC
  5
DB
  8
0
  6
AIGENLINE001
 62
     7
 10
59.686414999999997
 20
156.70479800000001
 30
0.0
 40
37.216134000000011
 50
261.310204
 51
266.99773800000003
  0
ARC
  5
DC
  8
0
  6
AIGENLINE001
 62
     7
 10
60.740927999999997
 20
171.857384
 30
0.0
 40
52.403796
 50
266.71407699999997
 51
269.864507
  0
ARC
  5
DD
  8
0
  6
AIGENLINE001
 62
     7
 10
60.934543000000012
 20
192.64136499999989
 30
0.0
 40
73.18831800000001
 50
269.75141500000001
 51
272.85095899999999
  0
ARC
  5
DE
  8
0
  6
AIGENLINE001
 62
     7
 10
59.009059999999991
 20
238.06431499999999
 30
0.0
 40
118.65129399999999
 50
272.68863800000003
 51
274.64253400000001
  0
ARC
  5
DF
  8
0
  6
AIGENLINE001
 62
     7
 10
50.904719999999998
 20
343.673922
 30
0.0
 40
224.570851
 50
274.522581
 51
275.38885800000003
  0
ARC
  5
E0
  8
0
  6
AIGENLINE001
 62
     7
 10
-50.211624999999991
 20
1423.9739999999999
 30
0.0
 40
1309.5930000000001
 50
275.35444999999999
 51
275.53150699999998
  0
ARC
  5
E1
  8
0
  6
AIGENLINE001
 62
     7
 10
103.307389
 20
-163.407231
 30
0.0
 40
285.194772
 50
94.630234999999999
 51
95.489655999999997
  0
ARC
  5
E2
  8
0
  6
AIGENLINE001
 62
     7
 10
93.117417000000003
 20
-42.532928999999989
 30
0.0
 40
163.892854
 50
91.473891000000009
 51
94.490704000000008
  0
ARC
  5
E3
  8
0
  6
AIGENLINE001
 62
     7
 10
95.355907000000002
 20
-112.553817
 30
0.0
 40
233.94856100000001
 50
90.240704000000008
 51
91.580842000000004
  0
ARC
  5
E4
  8
0
  6
AIGENLINE001
 62
     7
 10
96.502240999999998
 20
-263.18584399999997
 30
0.0
 40
384.58441699999997
 50
89.990657999999996
 51
90.317203000000006
  0
ARC
  5
E5
  8
0
  6
AIGENLINE001
 62
     7
 10
96.374418999999975
 20
-556.75340499999993
 30
0.0
 40
678.15199999999993
 50
89.728242000000009
 51
89.983897999999996
  0
LINE
  5
E6
  8
0
  6
AIGENLINE001
 62
     7
 10
99.590800000000002
 20
121.39100000000001
 30
0.0
 11
102.456
 21
121.377
 31
0.0
  0
ARC
  5
E7
  8
0
  6
AIGENLINE001
 62
     7
 10
114.58719000000001
 20
2616.4499999999998
 30
0.0
 40
2495.1030000000001
 50
269.72143
 51
269.95898499999998
  0
ARC
  5
E8
  8
0
  6
AIGENLINE001
 62
     7
 10
117.92994400000001
 20
5248.1480000000001
 30
0.0
 40
5126.8021899999994
 50
269.94268599999998
 51
270.03308299999998
  0
LINE
  5
E9
  8
0
  6
AIGENLINE001
 62
     7
 10
120.889
 20
121.346
 30
0.0
 11
128.215
 21
121.352
 31
0.0
  0
LINE
  5
EA
  8
0
  6
AIGENLINE001
 62
     7
 10
35.6721
 20
197.69099999999989
 30
0.0
 11
35.6721
 21
159.58799999999999
 31
0.0
  0
LINE
  5
EB
  8
0
  6
AIGENLINE001
 62
     7
 10
155.51400000000001
 20
213.94800000000001
 30
0.0
 11
155.51400000000001
 21
180.779
 31
0.0
  0
LINE
  5
EC
  8
0
  6
AIGENLINE001
 62
     7
 10
51.07459999999999
 20
197.69099999999989
 30
0.0
 11
27.617100000000001
 21
197.69099999999989
 31
0.0
  0
LINE
  5
ED
  8
0
  6
AIGENLINE001
 62
     7
 10
171.744
 20
197.69099999999989
 30
0.0
 11
138.839
 21
197.69099999999989
 31
0.0
  0
LINE
  5
EE
  8
0
 62
     7
 10
148.53999999999999
 20
75.080100000000002
 30
0.0
 11
148.262
 21
59.148499999999999
 31
0.0
  0
LINE
  5
EF
  8
0
 62
     7
 10
151.34
 20
75.031199999999998
 30
0.0
 11
151.06200000000001
 21
59.10029999999999
 31
0.0
  0
LINE
  5
F0
  8
0
 62
     7
 10
118.03400000000001
 20
75.897300000000001
 30
0.0
 11
118.901
 21
75.897300000000001
 31
0.0
  0
LINE
  5
F1
  8
0
 62
     7
 10
116.03400000000001
 20
75.897300000000001
 30
0.0
 11
116.90000000000001
 21
75.897300000000001
 31
0.0
  0
LINE
  5
F2
  8
0
 62
     7
 10
118.03400000000001
 20
63.9407
 30
0.0
 11
118.901
 21
63.9407
 31
0.0
  0
LINE
  5
F3
  8
0
 62
     7
 10
116.03400000000001
 20
63.9407
 30
0.0
 11
116.90000000000001
 21
63.9407
 31
0.0
  0
ARC
  5
F4
  8
0
 62
     7
 10
117.895661
 20
69.941797999999991
 30
0.0
 40
10.278162999999999
 50
321.20720299999999
 51
31.110237999999999
  0
ARC
  5
F5
  8
0
 62
     7
 10
124.184748
 20
76.636605000000003
 30
0.0
 40
1.38517
 50
182.10834299999999
 51
267.87688000000003
  0
LINE
  5
F6
  8
0
 62
     7
 10
124.133
 20
75.252399999999994
 30
0.0
 11
138.80000000000001
 21
75.252399999999994
 31
0.0
  0
ARC
  5
F7
  8
0
 62
     7
 10
122.42604300000001
 20
80.613320000000002
 30
0.0
 40
0.8533370000000001
 50
357.71018800000002
 51
70.790604000000002
  0
ARC
  5
F8
  8
0
 62
     7
 10
123.454666
 20
80.656414999999996
 30
0.0
 40
0.772269
 50
4.9634239999999989
 51
80.985555000000005
  0
ARC
  5
F9
  8
0
 62
     7
 10
123.492761
 20
81.138091000000003
 30
0.0
 40
0.293027
 50
13.032529
 51
73.564752999999996
  0
LINE
  5
FA
  8
0
 62
     7
 10
123.423
 20
76.7517
 30
0.0
 11
123.279
 21
76.9191
 31
0.0
  0
LINE
  5
FB
  8
0
 62
     7
 10
123.923
 20
76.7517
 30
0.0
 11
123.77800000000001
 21
76.9191
 31
0.0
  0
LINE
  5
FC
  8
0
 62
     7
 10
123.77800000000001
 20
76.9191
 30
0.0
 11
123.279
 21
76.9191
 31
0.0
  0
LINE
  5
FD
  8
0
 62
     7
 10
124.224
 20
76.7517
 30
0.0
 11
123.423
 21
76.7517
 31
0.0
  0
LINE
  5
FE
  8
0
 62
     7
 10
123.279
 20
76.9191
 30
0.0
 11
123.279
 21
80.684599999999989
 31
0.0
  0
LINE
  5
FF
  8
0
 62
     7
 10
123.77800000000001
 20
76.9191
 30
0.0
 11
123.77800000000001
 21
81.204200000000014
 31
0.0
  0
LINE
  5
100
  8
0
 62
     7
 10
124.224
 20
76.7517
 30
0.0
 11
124.224
 21
80.723200000000006
 31
0.0
  0
ARC
  5
101
  8
0
 62
     7
 10
140.50615999999999
 20
80.614851000000002
 30
0.0
 40
0.851154
 50
109.10038400000001
 51
182.39882399999999
  0
ARC
  5
102
  8
0
 62
     7
 10
139.442363
 20
81.136673000000016
 30
0.0
 40
0.294676
 50
106.547
 51
166.758486
  0
ARC
  5
103
  8
0
 62
     7
 10
139.47888900000001
 20
80.656929000000005
 30
0.0
 40
0.7716750000000001
 50
98.979961000000017
 51
175.07102
  0
LINE
  5
104
  8
0
 62
     7
 10
138.71000000000001
 20
76.7517
 30
0.0
 11
138.71000000000001
 21
80.723200000000006
 31
0.0
  0
LINE
  5
105
  8
0
 62
     7
 10
139.15600000000001
 20
76.9191
 30
0.0
 11
139.15600000000001
 21
81.204200000000014
 31
0.0
  0
LINE
  5
106
  8
0
 62
     7
 10
139.011
 20
76.7517
 30
0.0
 11
139.15600000000001
 21
76.9191
 31
0.0
  0
LINE
  5
107
  8
0
 62
     7
 10
138.71000000000001
 20
76.7517
 30
0.0
 11
139.511
 21
76.7517
 31
0.0
  0
LINE
  5
108
  8
0
 62
     7
 10
139.15600000000001
 20
76.9191
 30
0.0
 11
139.65600000000001
 21
76.9191
 31
0.0
  0
LINE
  5
109
  8
0
 62
     7
 10
139.511
 20
76.7517
 30
0.0
 11
139.65600000000001
 21
76.9191
 31
0.0
  0
LINE
  5
10A
  8
0
 62
     7
 10
139.65600000000001
 20
76.9191
 30
0.0
 11
139.65600000000001
 21
80.684599999999989
 31
0.0
  0
LINE
  5
10B
  8
0
 62
     7
 10
143.13399999999999
 20
81.585899999999995
 30
0.0
 11
119.801
 21
81.585899999999995
 31
0.0
  0
ARC
  5
10C
  8
0
 62
     7
 10
121.416246
 20
80.034862000000004
 30
0.0
 40
1.3852100000000001
 50
2.1109149999999999
 51
87.903879000000003
  0
LINE
  5
10D
  8
0
 62
     7
 10
139.434
 20
82.419600000000003
 30
0.0
 11
123.5
 21
82.419600000000003
 31
0.0
  0
LINE
  5
10E
  8
0
 62
     7
 10
140.13399999999999
 20
80.085899999999995
 30
0.0
 11
140.13399999999999
 21
76.585599999999999
 31
0.0
  0
LINE
  5
10F
  8
0
 62
     7
 10
122.801
 20
80.085899999999995
 30
0.0
 11
122.801
 21
76.9191
 31
0.0
  0
ARC
  5
110
  8
0
 62
     7
 10
144.62248199999999
 20
74.531846000000002
 30
0.0
 40
0.341935
 50
270.016029
 51
339.93500999999998
  0
ARC
  5
111
  8
0
 62
     7
 10
145.265601
 20
74.298231000000001
 30
0.0
 40
0.342301
 50
90.027450000000002
 51
160.13751400000001
  0
LINE
  5
112
  8
0
 62
     7
 10
148.26499999999999
 20
74.588200000000001
 30
0.0
 11
145.26499999999999
 21
74.640500000000003
 31
0.0
  0
ARC
  5
113
  8
0
 62
     7
 10
144.365554
 20
59.842351000000001
 30
0.0
 40
0.342019
 50
17.835735
 51
87.861161999999993
  0
ARC
  5
114
  8
0
 62
     7
 10
145.01767100000001
 20
60.052148000000003
 30
0.0
 40
0.343014
 50
197.83204900000001
 51
267.76546400000001
  0
LINE
  5
115
  8
0
 62
     7
 10
148.00399999999999
 20
59.656999999999996
 30
0.0
 11
145.00399999999999
 21
59.709400000000002
 31
0.0
  0
LINE
  5
116
  8
0
 62
     7
 10
151.33699999999999
 20
59.599200000000003
 30
0.0
 11
148.00399999999999
 21
59.656999999999996
 31
0.0
  0
LINE
  5
117
  8
0
 62
     7
 10
151.06200000000001
 20
59.10029999999999
 30
0.0
 11
151.333
 21
59.362099999999991
 31
0.0
  0
LINE
  5
118
  8
0
 62
     7
 10
151.333
 20
59.362099999999991
 30
0.0
 11
151.34999999999999
 21
60.354300000000002
 31
0.0
  0
LINE
  5
119
  8
0
 62
     7
 10
144.37799999999999
 20
60.184100000000001
 30
0.0
 11
131.80500000000001
 21
60.421799999999998
 31
0.0
  0
LINE
  5
11A
  8
0
 62
     7
 10
151.06200000000001
 20
59.10029999999999
 30
0.0
 11
148.262
 21
59.148499999999999
 31
0.0
  0
LINE
  5
11B
  8
0
 62
     7
 10
144.67699999999999
 20
60.049100000000003
 30
0.0
 11
144.92699999999999
 21
74.375299999999996
 31
0.0
  0
LINE
  5
11C
  8
0
 62
     7
 10
148.26900000000001
 20
74.818299999999994
 30
0.0
 11
148.53999999999999
 21
75.080100000000002
 31
0.0
  0
LINE
  5
11D
  8
0
 62
     7
 10
151.602
 20
74.760400000000004
 30
0.0
 11
151.34
 21
75.031199999999998
 31
0.0
  0
LINE
  5
11E
  8
0
 62
     7
 10
148.53999999999999
 20
75.080100000000002
 30
0.0
 11
151.34
 21
75.031199999999998
 31
0.0
  0
ARC
  5
11F
  8
0
 62
     7
 10
141.517852
 20
80.035240000000002
 30
0.0
 40
1.3848439999999991
 50
92.110606000000004
 51
177.90417099999999
  0
LINE
  5
120
  8
0
 62
     7
 10
142.96700000000001
 20
81.419100000000014
 30
0.0
 11
143.13399999999999
 21
81.585899999999995
 31
0.0
  0
LINE
  5
121
  8
0
 62
     7
 10
143.13399999999999
 20
81.585899999999995
 30
0.0
 11
143.13399999999999
 21
82.419600000000003
 31
0.0
  0
LINE
  5
122
  8
0
 62
     7
 10
121.467
 20
81.419100000000014
 30
0.0
 11
142.96700000000001
 21
81.419100000000014
 31
0.0
  0
LINE
  5
123
  8
0
 62
     7
 10
119.967
 20
81.419100000000014
 30
0.0
 11
121.467
 21
81.419100000000014
 31
0.0
  0
LINE
  5
124
  8
0
 62
     7
 10
119.967
 20
81.419100000000014
 30
0.0
 11
119.801
 21
81.585899999999995
 31
0.0
  0
LINE
  5
125
  8
0
 62
     7
 10
119.801
 20
82.419600000000003
 30
0.0
 11
119.801
 21
81.585899999999995
 31
0.0
  0
LINE
  5
126
  8
0
 62
     7
 10
151.584
 20
73.768900000000002
 30
0.0
 11
151.602
 21
74.760400000000004
 31
0.0
  0
LINE
  5
127
  8
0
 62
     7
 10
139.434
 20
82.419600000000003
 30
0.0
 11
143.13399999999999
 21
82.419600000000003
 31
0.0
  0
LINE
  5
128
  8
0
 62
     7
 10
123.5
 20
82.419600000000003
 30
0.0
 11
119.801
 21
82.419600000000003
 31
0.0
  0
LINE
  5
129
  8
0
 62
     7
 10
148.262
 20
59.148499999999999
 30
0.0
 11
148.0
 21
59.420699999999997
 31
0.0
  0
LINE
  5
12A
  8
0
 62
     7
 10
148.0
 20
59.420699999999997
 30
0.0
 11
148.26900000000001
 21
74.818299999999994
 31
0.0
  0
LINE
  5
12B
  8
0
 62
     7
 10
151.34999999999999
 20
60.354300000000002
 30
0.0
 11
151.584
 21
73.768900000000002
 31
0.0
  0
LINE
  5
12C
  8
0
 62
     7
 10
144.62299999999999
 20
74.189899999999994
 30
0.0
 11
138.79400000000001
 21
74.2898
 31
0.0
  0
ARC
  5
12D
  8
0
 62
     7
 10
138.74935500000001
 20
76.636977999999999
 30
0.0
 40
1.385530999999999
 50
272.10843399999999
 51
357.87677300000001
  0
LINE
  5
12E
  8
0
 62
     7
 10
151.59800000000001
 20
74.530299999999997
 30
0.0
 11
148.26499999999999
 21
74.588200000000001
 31
0.0
  0
LINE
  5
12F
  8
0
 62
     7
 10
142.96700000000001
 20
81.419100000000014
 30
0.0
 11
142.96700000000001
 21
75.201400000000007
 31
0.0
  0
ARC
  5
130
  8
0
 62
     7
 10
144.00524300000001
 20
75.238146
 30
0.0
 40
1.038694
 50
182.027536
 51
266.937296
  0
ARC
  5
131
  8
0
 62
     7
 10
138.813085
 20
74.906142000000003
 30
0.0
 40
0.346478
 50
92.109865999999997
 51
177.89010400000001
  0
LINE
  5
132
  8
0
 62
     7
 10
138.46700000000001
 20
74.918899999999994
 30
0.0
 11
138.46700000000001
 21
74.6233
 31
0.0
  0
ARC
  5
133
  8
0
 62
     7
 10
138.812589
 20
74.635300000000001
 30
0.0
 40
0.345955
 50
181.98662899999999
 51
266.99828600000001
  0
ARC
  5
134
  8
0
 62
     7
 10
132.030598
 20
68.041710999999992
 30
0.0
 40
7.6228379999999998
 50
216.54682500000001
 51
268.40008599999999
  0
LINE
  5
135
  8
0
 62
     7
 10
113.134
 20
76.086100000000002
 30
0.0
 11
114.467
 21
76.585599999999999
 31
0.0
  0
LINE
  5
136
  8
0
 62
     7
 10
114.467
 20
76.335499999999996
 30
0.0
 11
114.467
 21
76.585599999999999
 31
0.0
  0
LINE
  5
137
  8
0
 62
     7
 10
113.134
 20
75.918700000000001
 30
0.0
 11
113.134
 21
76.086100000000002
 31
0.0
  0
LINE
  5
138
  8
0
 62
     7
 10
113.134
 20
63.752600000000001
 30
0.0
 11
114.467
 21
63.252400000000002
 31
0.0
  0
LINE
  5
139
  8
0
 62
     7
 10
118.901
 20
76.335499999999996
 30
0.0
 11
118.901
 21
63.502499999999991
 31
0.0
  0
LINE
  5
13A
  8
0
 62
     7
 10
118.03400000000001
 20
76.335499999999996
 30
0.0
 11
118.03400000000001
 21
63.502499999999991
 31
0.0
  0
LINE
  5
13B
  8
0
 62
     7
 10
116.03400000000001
 20
76.335499999999996
 30
0.0
 11
116.03400000000001
 21
63.502499999999991
 31
0.0
  0
LINE
  5
13C
  8
0
 62
     7
 10
116.90000000000001
 20
76.335499999999996
 30
0.0
 11
116.90000000000001
 21
63.502499999999991
 31
0.0
  0
LINE
  5
13D
  8
0
 62
     7
 10
114.467
 20
76.335499999999996
 30
0.0
 11
114.467
 21
63.252400000000002
 31
0.0
  0
LINE
  5
13E
  8
0
 62
     7
 10
113.134
 20
63.918599999999998
 30
0.0
 11
113.134
 21
63.752600000000001
 31
0.0
  0
LINE
  5
13F
  8
0
 62
     7
 10
113.134
 20
63.918599999999998
 30
0.0
 11
113.134
 21
75.918700000000001
 31
0.0
  0
LINE
  5
140
  8
0
 62
     7
 10
123.5
 20
82.419600000000003
 30
0.0
 11
119.801
 21
82.419600000000003
 31
0.0
  0
LINE
  5
141
  8
0
 62
     7
 10
119.967
 20
81.419100000000014
 30
0.0
 11
121.467
 21
81.419100000000014
 31
0.0
  0
LINE
  5
142
  8
0
 62
     7
 10
119.801
 20
82.419600000000003
 30
0.0
 11
119.801
 21
81.585899999999995
 31
0.0
  0
LINE
  5
143
  8
0
 62
     7
 10
119.967
 20
81.419100000000014
 30
0.0
 11
119.801
 21
81.585899999999995
 31
0.0
  0
LINE
  5
144
  8
0
 62
     7
 10
122.134
 20
76.9191
 30
0.0
 11
122.801
 21
76.9191
 31
0.0
  0
LINE
  5
145
  8
0
 62
     7
 10
122.134
 20
63.502499999999991
 30
0.0
 11
122.134
 21
76.9191
 31
0.0
  0
LINE
  5
146
  8
0
 62
     7
 10
122.801
 20
80.085899999999995
 30
0.0
 11
122.801
 21
77.418700000000001
 31
0.0
  0
ARC
  5
147
  8
0
 62
     7
 10
121.416246
 20
80.034862000000004
 30
0.0
 40
1.3852100000000001
 50
2.1109149999999999
 51
87.903879000000003
  0
LINE
  5
148
  8
0
 62
     7
 10
122.801
 20
63.502499999999991
 30
0.0
 11
125.907
 21
63.502499999999991
 31
0.0
  0
LINE
  5
149
  8
0
 62
     7
 10
122.801
 20
62.918900000000001
 30
0.0
 11
122.801
 21
76.9191
 31
0.0
  0
LINE
  5
14A
  8
0
 62
     7
 10
122.134
 20
62.918900000000001
 30
0.0
 11
122.801
 21
62.918900000000001
 31
0.0
  0
LINE
  5
14B
  8
0
 62
     7
 10
122.134
 20
63.502499999999991
 30
0.0
 11
122.134
 21
62.918900000000001
 31
0.0
  0
LINE
  5
14C
  8
0
 62
     7
 10
118.901
 20
63.502499999999991
 30
0.0
 11
122.134
 21
63.502499999999991
 31
0.0
  0
LINE
  5
14D
  8
0
 62
     7
 10
116.90000000000001
 20
63.502499999999991
 30
0.0
 11
118.03400000000001
 21
63.502499999999991
 31
0.0
  0
LINE
  5
14E
  8
0
 62
     7
 10
114.467
 20
63.502499999999991
 30
0.0
 11
116.03400000000001
 21
63.502499999999991
 31
0.0
  0
LINE
  5
14F
  8
0
 62
     7
 10
118.901
 20
76.335499999999996
 30
0.0
 11
122.134
 21
76.335499999999996
 31
0.0
  0
LINE
  5
150
  8
0
 62
     7
 10
116.90000000000001
 20
76.335499999999996
 30
0.0
 11
118.03400000000001
 21
76.335499999999996
 31
0.0
  0
LINE
  5
151
  8
0
 62
     7
 10
114.467
 20
76.335499999999996
 30
0.0
 11
116.03400000000001
 21
76.335499999999996
 31
0.0
  0
LINE
  5
152
  8
0
 62
     7
 10
34.40570000000001
 20
192.33500000000001
 30
0.0
 11
35.02000000000001
 21
192.42500000000001
 31
0.0
  0
LINE
  5
153
  8
0
 62
     7
 10
35.02000000000001
 20
192.42500000000001
 30
0.0
 11
35.6721
 21
192.47399999999999
 31
0.0
  0
LINE
  5
154
  8
0
 62
     7
 10
134.946
 20
127.93000000000001
 30
0.0
 11
135.446
 21
127.93000000000001
 31
0.0
  0
LINE
  5
155
  8
0
 62
     7
 10
127.086
 20
127.999
 30
0.0
 11
127.586
 21
127.999
 31
0.0
  0
LINE
  5
156
  8
0
 62
     7
 10
135.446
 20
127.93000000000001
 30
0.0
 11
135.446
 21
132.32900000000001
 31
0.0
  0
LINE
  5
157
  8
0
 62
     7
 10
134.946
 20
127.93000000000001
 30
0.0
 11
134.946
 21
132.32900000000001
 31
0.0
  0
LINE
  5
158
  8
0
 62
     7
 10
127.586
 20
127.999
 30
0.0
 11
127.586
 21
132.28399999999999
 31
0.0
  0
LINE
  5
159
  8
0
 62
     7
 10
127.086
 20
127.999
 30
0.0
 11
127.086
 21
132.32900000000001
 31
0.0
  0
LINE
  5
15A
  8
0
 62
     7
 10
128.25399999999999
 20
121.569
 30
0.0
 11
128.249
 21
120.40300000000001
 31
0.0
  0
LINE
  5
15B
  8
0
 62
     7
 10
123.191
 20
137.08600000000001
 30
0.0
 11
139.744
 21
137.08600000000001
 31
0.0
  0
LINE
  5
15C
  8
0
 62
     7
 10
140.31200000000001
 20
138.68000000000001
 30
0.0
 11
143.36799999999999
 21
138.68000000000001
 31
0.0
  0
LINE
  5
15D
  8
0
 62
     7
 10
132.28999999999999
 20
138.68000000000001
 30
0.0
 11
140.31200000000001
 21
138.68000000000001
 31
0.0
  0
LINE
  5
15E
  8
0
 62
     7
 10
125.92
 20
138.68000000000001
 30
0.0
 11
132.28999999999999
 21
138.68000000000001
 31
0.0
  0
LINE
  5
15F
  8
0
 62
     7
 10
122.77
 20
138.68000000000001
 30
0.0
 11
125.92
 21
138.68000000000001
 31
0.0
  0
LINE
  5
160
  8
0
 62
     7
 10
119.56699999999999
 20
138.68000000000001
 30
0.0
 11
122.77
 21
138.68000000000001
 31
0.0
  0
LINE
  5
161
  8
0
 62
     7
 10
126.17
 20
125.53700000000001
 30
0.0
 11
138.4489999999999
 21
125.551
 31
0.0
  0
LINE
  5
162
  8
0
 62
     7
 10
138.4489999999999
 20
125.551
 30
0.0
 11
126.17
 21
125.53700000000001
 31
0.0
  0
LINE
  5
163
  8
0
  6
AIGENLINE002
 62
     7
 10
47.821999999999989
 20
178.81899999999999
 30
0.0
 11
47.821999999999989
 21
186.315
 31
0.0
  0
LINE
  5
164
  8
0
  6
AIGENLINE002
 62
     7
 10
45.869699999999987
 20
186.54300000000001
 30
0.0
 11
45.869699999999987
 21
178.904
 31
0.0
  0
ARC
  5
165
  8
0
 62
     7
 10
47.128774999999997
 20
206.351426
 30
0.0
 40
0.6937540000000001
 50
272.16995299999991
 51
357.800454
  0
LINE
  5
166
  8
0
  6
AIGENLINE002
 62
     7
 10
45.865200000000002
 20
206.52500000000001
 30
0.0
 11
45.865200000000002
 21
212.214
 31
0.0
  0
ARC
  5
167
  8
0
  6
AIGENLINE002
 62
     7
 10
32.210172999999998
 20
211.386675
 30
0.0
 40
13.680082000000001
 50
3.4688500000000002
 51
23.099907999999999
  0
LINE
  5
168
  8
0
  6
AIGENLINE002
 62
     7
 10
47.821999999999989
 20
206.52500000000001
 30
0.0
 11
47.821999999999989
 21
212.167
 31
0.0
  0
ARC
  5
169
  8
0
  6
AIGENLINE002
 62
     7
 10
34.258318000000003
 20
211.418193
 30
0.0
 40
13.584355
 50
3.1600290000000002
 51
23.127602
  0
ARC
  5
16A
  8
0
  6
AIGENLINE002
 62
     7
 10
45.772171999999991
 20
214.62890999999999
 30
0.0
 40
2.3395250000000001
 50
65.269060999999994
 51
114.730919
  0
ARC
  5
16B
  8
0
 62
     7
 10
41.590950999999997
 20
168.787297
 30
0.0
 40
0.17298
 50
190.08659700000001
 51
275.9054680000001
  0
ARC
  5
16C
  8
0
 62
     7
 10
41.578403999999999
 20
168.78542100000001
 30
0.0
 40
0.17287
 50
280.109667
 51
5.949330999999999
  0
ARC
  5
16D
  8
0
 62
     7
 10
41.348298
 20
170.423551
 30
0.0
 40
0.173211
 50
10.089269
 51
95.936654000000004
  0
ARC
  5
16E
  8
0
 62
     7
 10
41.360726
 20
170.42530099999999
 30
0.0
 40
0.173211
 50
100.089242
 51
185.936701
  0
LINE
  5
16F
  8
0
 62
     7
 10
41.420599999999993
 20
168.75700000000001
 30
0.0
 11
41.188400000000001
 21
170.40700000000001
 31
0.0
  0
LINE
  5
170
  8
0
 62
     7
 10
41.518799999999999
 20
170.45400000000001
 30
0.0
 11
41.750300000000003
 21
168.803
 31
0.0
  0
ARC
  5
171
  8
0
 62
     7
 10
40.757632999999998
 20
168.787328
 30
0.0
 40
0.17304
 50
190.09343699999999
 51
275.99938600000002
  0
ARC
  5
172
  8
0
 62
     7
 10
40.745409999999993
 20
168.78507999999999
 30
0.0
 40
0.172528
 50
280.11799200000002
 51
6.0750910000000014
  0
ARC
  5
173
  8
0
 62
     7
 10
40.515349000000001
 20
170.42448400000001
 30
0.0
 40
0.172292
 50
9.8287499999999994
 51
95.995352999999994
  0
ARC
  5
174
  8
0
 62
     7
 10
40.527633999999992
 20
170.42471699999999
 30
0.0
 40
0.173775
 50
100.035134
 51
185.72395299999999
  0
LINE
  5
175
  8
0
 62
     7
 10
40.587299999999992
 20
168.75700000000001
 30
0.0
 11
40.354700000000001
 21
170.40700000000001
 31
0.0
  0
LINE
  5
176
  8
0
 62
     7
 10
40.685099999999991
 20
170.45400000000001
 30
0.0
 11
40.917000000000002
 21
168.803
 31
0.0
  0
ARC
  5
177
  8
0
 62
     7
 10
39.924864999999997
 20
168.788175
 30
0.0
 40
0.173786
 50
190.333383
 51
275.658682
  0
ARC
  5
178
  8
0
 62
     7
 10
39.911754999999999
 20
168.785662
 30
0.0
 40
0.17309
 50
280.063602
 51
5.8615490000000001
  0
ARC
  5
179
  8
0
 62
     7
 10
39.681260999999999
 20
170.42358200000001
 30
0.0
 40
0.173151
 50
10.082436
 51
95.842694999999992
  0
ARC
  5
17A
  8
0
 62
     7
 10
39.694046
 20
170.42525000000001
 30
0.0
 40
0.173273
 50
100.108172
 51
185.91777200000001
  0
LINE
  5
17B
  8
0
 62
     7
 10
39.753900000000002
 20
168.75700000000001
 30
0.0
 11
39.521700000000003
 21
170.40700000000001
 31
0.0
  0
LINE
  5
17C
  8
0
 62
     7
 10
39.851700000000001
 20
170.45400000000001
 30
0.0
 11
40.0839
 21
168.803
 31
0.0
  0
LINE
  5
17D
  8
0
 62
     7
 10
37.122900000000001
 20
179.28599999999989
 30
0.0
 11
37.795299999999997
 21
178.232
 31
0.0
  0
LINE
  5
17E
  8
0
 62
     7
 10
37.789499999999997
 20
195.59299999999999
 30
0.0
 11
37.789499999999997
 21
178.232
 31
0.0
  0
LINE
  5
17F
  8
0
 62
     7
 10
37.122900000000001
 20
195.59899999999999
 30
0.0
 11
37.122900000000001
 21
179.285
 31
0.0
  0
LINE
  5
180
  8
0
 62
     7
 10
48.014899999999997
 20
209.44399999999999
 30
0.0
 11
48.014899999999997
 21
209.69300000000001
 31
0.0
  0
LINE
  5
181
  8
0
 62
     7
 10
35.789299999999997
 20
205.69399999999999
 30
0.0
 11
35.789299999999997
 21
191.66800000000001
 31
0.0
  0
LINE
  5
182
  8
0
 62
     7
 10
45.865200000000002
 20
205.65899999999999
 30
0.0
 11
47.18399999999999
 21
205.65899999999999
 31
0.0
  0
LINE
  5
183
  8
0
 62
     7
 10
42.0563
 20
172.357
 30
0.0
 11
42.0563
 21
167.02500000000001
 31
0.0
  0
LINE
  5
184
  8
0
 62
     7
 10
28.468699999999998
 20
171.626
 30
0.0
 11
28.468699999999998
 21
167.626
 31
0.0
  0
LINE
  5
185
  8
0
 62
     7
 10
28.6355
 20
171.626
 30
0.0
 11
28.468699999999998
 21
171.626
 31
0.0
  0
LINE
  5
186
  8
0
 62
     7
 10
27.028300000000002
 20
168.41499999999999
 30
0.0
 11
26.528099999999998
 21
168.41499999999999
 31
0.0
  0
LINE
  5
187
  8
0
 62
     7
 10
27.028300000000002
 20
170.8009999999999
 30
0.0
 11
26.528099999999998
 21
170.8009999999999
 31
0.0
  0
LINE
  5
188
  8
0
 62
     7
 10
27.028300000000002
 20
170.8009999999999
 30
0.0
 11
27.028300000000002
 21
168.41499999999999
 31
0.0
  0
LINE
  5
189
  8
0
 62
     7
 10
27.467199999999998
 20
168.41499999999999
 30
0.0
 11
27.028300000000002
 21
168.41499999999999
 31
0.0
  0
LINE
  5
18A
  8
0
 62
     7
 10
28.156300000000002
 20
169.608
 30
0.0
 11
27.467199999999998
 21
168.41499999999999
 31
0.0
  0
LINE
  5
18B
  8
0
 62
     7
 10
27.467199999999998
 20
170.8009999999999
 30
0.0
 11
28.156300000000002
 21
169.608
 31
0.0
  0
LINE
  5
18C
  8
0
 62
     7
 10
27.028300000000002
 20
170.8009999999999
 30
0.0
 11
27.467199999999998
 21
170.8009999999999
 31
0.0
  0
LINE
  5
18D
  8
0
 62
     7
 10
27.107199999999999
 20
168.06800000000001
 30
0.0
 11
27.107199999999999
 21
167.83699999999999
 31
0.0
  0
LINE
  5
18E
  8
0
 62
     7
 10
27.107199999999999
 20
171.37799999999999
 30
0.0
 11
27.107199999999999
 21
171.148
 31
0.0
  0
ARC
  5
18F
  8
0
 62
     7
 10
27.180423000000001
 20
169.599073
 30
0.0
 40
1.5503979999999991
 50
92.70638000000001
 51
129.153783
  0
ARC
  5
190
  8
0
 62
     7
 10
27.179721000000001
 20
169.614217
 30
0.0
 40
1.5479369999999999
 50
230.80552399999999
 51
267.31530199999997
  0
ARC
  5
191
  8
0
 62
     7
 10
27.255887000000001
 20
169.54511500000001
 30
0.0
 40
1.9472919999999989
 50
98.490495999999993
 51
184.282927
  0
ARC
  5
192
  8
0
 62
     7
 10
27.228766
 20
169.659279
 30
0.0
 40
1.9322499999999989
 50
187.7208399999999
 51
262.25533100000001
  0
ARC
  5
193
  8
0
 62
     7
 10
27.996227999999999
 20
168.63629
 30
0.0
 40
1.1952750000000001
 50
221.94630900000001
 51
302.330915
  0
ARC
  5
194
  8
0
 62
     7
 10
27.965433999999998
 20
168.558278
 30
0.0
 40
1.2868969999999991
 50
219.21532500000001
 51
301.37653899999998
  0
ARC
  5
195
  8
0
 62
     7
 10
28.030252000000001
 20
170.52319
 30
0.0
 40
1.2582009999999999
 50
61.248027
 51
137.19033099999999
  0
ARC
  5
196
  8
0
 62
     7
 10
28.00113300000001
 20
170.60050000000001
 30
0.0
 40
1.3507279999999999
 50
61.989975000000001
 51
139.870631
  0
ARC
  5
197
  8
0
 62
     7
 10
29.090686999999999
 20
168.787297
 30
0.0
 40
0.17298
 50
190.08659700000001
 51
275.9054680000001
  0
ARC
  5
198
  8
0
 62
     7
 10
29.078305
 20
168.78561199999999
 30
0.0
 40
0.173029
 50
280.044848
 51
5.8803029999999987
  0
ARC
  5
199
  8
0
 62
     7
 10
28.848033999999998
 20
170.423551
 30
0.0
 40
0.173211
 50
10.089269
 51
95.936654000000004
  0
ARC
  5
19A
  8
0
 62
     7
 10
28.860462999999999
 20
170.42530099999999
 30
0.0
 40
0.173211
 50
100.089242
 51
185.936701
  0
LINE
  5
19B
  8
0
 62
     7
 10
28.920400000000001
 20
168.75700000000001
 30
0.0
 11
28.688199999999998
 21
170.40700000000001
 31
0.0
  0
LINE
  5
19C
  8
0
 62
     7
 10
29.018599999999999
 20
170.45400000000001
 30
0.0
 11
29.250399999999999
 21
168.803
 31
0.0
  0
ARC
  5
19D
  8
0
 62
     7
 10
30.091176999999998
 20
168.788206
 30
0.0
 40
0.173846
 50
190.340147
 51
275.75267700000001
  0
ARC
  5
19E
  8
0
 62
     7
 10
30.078223000000001
 20
168.785763
 30
0.0
 40
0.173213
 50
280.101382
 51
5.8237689999999986
  0
ARC
  5
19F
  8
0
 62
     7
 10
29.847822000000001
 20
170.423113
 30
0.0
 40
0.173614
 50
10.212642000000001
 51
95.813281000000003
  0
ARC
  5
1A0
  8
0
 62
     7
 10
29.860648000000001
 20
170.42525000000001
 30
0.0
 40
0.173273
 50
100.108172
 51
185.91777200000001
  0
LINE
  5
1A1
  8
0
 62
     7
 10
29.920200000000001
 20
168.75700000000001
 30
0.0
 11
29.688300000000002
 21
170.40700000000001
 31
0.0
  0
LINE
  5
1A2
  8
0
 62
     7
 10
30.018699999999999
 20
170.45400000000001
 30
0.0
 11
30.250499999999999
 21
168.803
 31
0.0
  0
ARC
  5
1A3
  8
0
 62
     7
 10
31.090634000000001
 20
168.787328
 30
0.0
 40
0.17304
 50
190.09343699999999
 51
275.99938600000002
  0
ARC
  5
1A4
  8
0
 62
     7
 10
31.078474
 20
168.785662
 30
0.0
 40
0.17309
 50
280.063602
 51
5.8615490000000001
  0
ARC
  5
1A5
  8
0
 62
     7
 10
30.847981000000001
 20
170.42358200000001
 30
0.0
 40
0.173151
 50
10.082436
 51
95.842694999999992
  0
ARC
  5
1A6
  8
0
 62
     7
 10
30.860565000000001
 20
170.42540099999999
 30
0.0
 40
0.173089
 50
100.05165599999999
 51
185.974287
  0
LINE
  5
1A7
  8
0
 62
     7
 10
30.920300000000001
 20
168.75700000000001
 30
0.0
 11
30.688400000000001
 21
170.40700000000001
 31
0.0
  0
LINE
  5
1A8
  8
0
 62
     7
 10
31.0185
 20
170.45400000000001
 30
0.0
 11
31.250699999999998
 21
168.803
 31
0.0
  0
ARC
  5
1A9
  8
0
 62
     7
 10
32.090696000000001
 20
168.787297
 30
0.0
 40
0.17298
 50
190.08659700000001
 51
275.9054680000001
  0
ARC
  5
1AA
  8
0
 62
     7
 10
32.078113000000002
 20
168.785763
 30
0.0
 40
0.173213
 50
280.101382
 51
5.8237689999999986
  0
ARC
  5
1AB
  8
0
 62
     7
 10
31.848043000000001
 20
170.423551
 30
0.0
 40
0.173211
 50
10.089269
 51
95.936654000000004
  0
ARC
  5
1AC
  8
0
 62
     7
 10
31.860537999999998
 20
170.42525000000001
 30
0.0
 40
0.173273
 50
100.108172
 51
185.91777200000001
  0
LINE
  5
1AD
  8
0
 62
     7
 10
31.920400000000001
 20
168.75700000000001
 30
0.0
 11
31.688199999999998
 21
170.40700000000001
 31
0.0
  0
LINE
  5
1AE
  8
0
 62
     7
 10
32.018599999999999
 20
170.45400000000001
 30
0.0
 11
32.250399999999999
 21
168.803
 31
0.0
  0
ARC
  5
1AF
  8
0
 62
     7
 10
33.091185000000003
 20
168.788206
 30
0.0
 40
0.173846
 50
190.340147
 51
275.75267700000001
  0
ARC
  5
1B0
  8
0
 62
     7
 10
33.078364999999998
 20
168.785662
 30
0.0
 40
0.17309
 50
280.063602
 51
5.8615490000000001
  0
ARC
  5
1B1
  8
0
 62
     7
 10
32.847830000000002
 20
170.423113
 30
0.0
 40
0.173614
 50
10.212642000000001
 51
95.813281000000003
  0
ARC
  5
1B2
  8
0
 62
     7
 10
32.860588
 20
170.42530099999999
 30
0.0
 40
0.173211
 50
100.089242
 51
185.936701
  0
LINE
  5
1B3
  8
0
 62
     7
 10
32.920200000000001
 20
168.75700000000001
 30
0.0
 11
32.688299999999998
 21
170.40700000000001
 31
0.0
  0
LINE
  5
1B4
  8
0
 62
     7
 10
33.018700000000003
 20
170.45400000000001
 30
0.0
 11
33.250500000000002
 21
168.803
 31
0.0
  0
ARC
  5
1B5
  8
0
 62
     7
 10
34.090641999999988
 20
168.787328
 30
0.0
 40
0.17304
 50
190.09343699999999
 51
275.99938600000002
  0
ARC
  5
1B6
  8
0
 62
     7
 10
34.078347999999998
 20
168.785763
 30
0.0
 40
0.173213
 50
280.101382
 51
5.8237689999999986
  0
ARC
  5
1B7
  8
0
 62
     7
 10
33.847988999999998
 20
170.42358200000001
 30
0.0
 40
0.173151
 50
10.082436
 51
95.842694999999992
  0
ARC
  5
1B8
  8
0
 62
     7
 10
33.860773000000002
 20
170.42525000000001
 30
0.0
 40
0.173273
 50
100.108172
 51
185.91777200000001
  0
LINE
  5
1B9
  8
0
 62
     7
 10
33.920299999999997
 20
168.75700000000001
 30
0.0
 11
33.688400000000001
 21
170.40700000000001
 31
0.0
  0
LINE
  5
1BA
  8
0
 62
     7
 10
34.018500000000003
 20
170.45400000000001
 30
0.0
 11
34.250700000000002
 21
168.803
 31
0.0
  0
ARC
  5
1BB
  8
0
 62
     7
 10
35.090704000000002
 20
168.787297
 30
0.0
 40
0.17298
 50
190.08659700000001
 51
275.9054680000001
  0
ARC
  5
1BC
  8
0
 62
     7
 10
35.078322
 20
168.78561199999999
 30
0.0
 40
0.173029
 50
280.044848
 51
5.8803029999999987
  0
ARC
  5
1BD
  8
0
 62
     7
 10
34.848050999999998
 20
170.423551
 30
0.0
 40
0.173211
 50
10.089269
 51
95.936654000000004
  0
ARC
  5
1BE
  8
0
 62
     7
 10
34.860478999999998
 20
170.42530099999999
 30
0.0
 40
0.173211
 50
100.089242
 51
185.936701
  0
LINE
  5
1BF
  8
0
 62
     7
 10
34.920400000000001
 20
168.75700000000001
 30
0.0
 11
34.688200000000002
 21
170.40700000000001
 31
0.0
  0
LINE
  5
1C0
  8
0
 62
     7
 10
35.018599999999999
 20
170.45400000000001
 30
0.0
 11
35.250399999999999
 21
168.803
 31
0.0
  0
ARC
  5
1C1
  8
0
 62
     7
 10
36.091192999999997
 20
168.788206
 30
0.0
 40
0.173846
 50
190.340147
 51
275.75267700000001
  0
ARC
  5
1C2
  8
0
 62
     7
 10
36.078239000000004
 20
168.785763
 30
0.0
 40
0.173213
 50
280.101382
 51
5.8237689999999986
  0
ARC
  5
1C3
  8
0
 62
     7
 10
35.847838000000003
 20
170.423113
 30
0.0
 40
0.173614
 50
10.212642000000001
 51
95.813281000000003
  0
ARC
  5
1C4
  8
0
 62
     7
 10
35.860664
 20
170.42525000000001
 30
0.0
 40
0.173273
 50
100.108172
 51
185.91777200000001
  0
LINE
  5
1C5
  8
0
 62
     7
 10
35.920200000000001
 20
168.75700000000001
 30
0.0
 11
35.688299999999998
 21
170.40700000000001
 31
0.0
  0
LINE
  5
1C6
  8
0
 62
     7
 10
36.018700000000003
 20
170.45400000000001
 30
0.0
 11
36.250599999999999
 21
168.803
 31
0.0
  0
ARC
  5
1C7
  8
0
 62
     7
 10
37.090649999999997
 20
168.787328
 30
0.0
 40
0.17304
 50
190.09343699999999
 51
275.99938600000002
  0
ARC
  5
1C8
  8
0
 62
     7
 10
37.078490000000002
 20
168.785662
 30
0.0
 40
0.17309
 50
280.063602
 51
5.8615490000000001
  0
ARC
  5
1C9
  8
0
 62
     7
 10
36.847996999999999
 20
170.42358200000001
 30
0.0
 40
0.173151
 50
10.082436
 51
95.842694999999992
  0
ARC
  5
1CA
  8
0
 62
     7
 10
36.860581000000003
 20
170.42540099999999
 30
0.0
 40
0.173089
 50
100.05165599999999
 51
185.974287
  0
LINE
  5
1CB
  8
0
 62
     7
 10
36.920299999999997
 20
168.75700000000001
 30
0.0
 11
36.688400000000001
 21
170.40700000000001
 31
0.0
  0
LINE
  5
1CC
  8
0
 62
     7
 10
37.018500000000003
 20
170.45400000000001
 30
0.0
 11
37.250700000000002
 21
168.803
 31
0.0
  0
ARC
  5
1CD
  8
0
 62
     7
 10
38.090712000000003
 20
168.787297
 30
0.0
 40
0.17298
 50
190.08659700000001
 51
275.9054680000001
  0
ARC
  5
1CE
  8
0
 62
     7
 10
38.078128999999997
 20
168.785763
 30
0.0
 40
0.173213
 50
280.101382
 51
5.8237689999999986
  0
ARC
  5
1CF
  8
0
 62
     7
 10
37.848058999999999
 20
170.423551
 30
0.0
 40
0.173211
 50
10.089269
 51
95.936654000000004
  0
ARC
  5
1D0
  8
0
 62
     7
 10
37.860554
 20
170.42525000000001
 30
0.0
 40
0.173273
 50
100.108172
 51
185.91777200000001
  0
LINE
  5
1D1
  8
0
 62
     7
 10
37.920400000000001
 20
168.75700000000001
 30
0.0
 11
37.688200000000002
 21
170.40700000000001
 31
0.0
  0
LINE
  5
1D2
  8
0
 62
     7
 10
38.018599999999999
 20
170.45400000000001
 30
0.0
 11
38.250399999999999
 21
168.803
 31
0.0
  0
ARC
  5
1D3
  8
0
 62
     7
 10
39.091200999999998
 20
168.788206
 30
0.0
 40
0.173846
 50
190.340147
 51
275.75267700000001
  0
ARC
  5
1D4
  8
0
 62
     7
 10
39.078381
 20
168.785662
 30
0.0
 40
0.17309
 50
280.063602
 51
5.8615490000000001
  0
ARC
  5
1D5
  8
0
 62
     7
 10
38.847846000000011
 20
170.423113
 30
0.0
 40
0.173614
 50
10.212642000000001
 51
95.813281000000003
  0
ARC
  5
1D6
  8
0
 62
     7
 10
38.860605
 20
170.42530099999999
 30
0.0
 40
0.173211
 50
100.089242
 51
185.936701
  0
LINE
  5
1D7
  8
0
 62
     7
 10
38.920200000000001
 20
168.75700000000001
 30
0.0
 11
38.688299999999998
 21
170.40700000000001
 31
0.0
  0
LINE
  5
1D8
  8
0
 62
     7
 10
39.018700000000003
 20
170.45400000000001
 30
0.0
 11
39.250599999999999
 21
168.803
 31
0.0
  0
LINE
  5
1D9
  8
0
 62
     7
 10
28.468699999999998
 20
167.626
 30
0.0
 11
40.280299999999997
 21
167.626
 31
0.0
  0
LINE
  5
1DA
  8
0
 62
     7
 10
28.6355
 20
171.626
 30
0.0
 11
42.0535
 21
171.626
 31
0.0
  0
LINE
  5
1DB
  8
0
 62
     7
 10
41.793399999999991
 20
173.358
 30
0.0
 11
42.177199999999992
 21
173.358
 31
0.0
  0
ARC
  5
1DC
  8
0
 62
     7
 10
42.173217000000001
 20
173.92070899999999
 30
0.0
 40
0.103953
 50
2.092978
 51
87.808311000000003
  0
LINE
  5
1DD
  8
0
 62
     7
 10
42.277099999999997
 20
173.458
 30
0.0
 11
42.277099999999997
 21
173.92500000000001
 31
0.0
  0
ARC
  5
1DE
  8
0
 62
     7
 10
42.173513999999997
 20
173.46135899999999
 30
0.0
 40
0.103641
 50
272.03424799999999
 51
358.16299400000003
  0
ARC
  5
1DF
  8
0
 62
     7
 10
42.682676000000001
 20
163.457987
 30
0.0
 40
0.051623
 50
2.0017429999999989
 51
87.799649000000016
  0
LINE
  5
1E0
  8
0
 62
     7
 10
42.684699999999992
 20
163.50999999999999
 30
0.0
 11
42.681600000000003
 21
163.50999999999999
 31
0.0
  0
ARC
  5
1E1
  8
0
 62
     7
 10
42.681956999999997
 20
158.55765400000001
 30
0.0
 40
0.052342
 50
1.9723580000000001
 51
87.041499000000002
  0
LINE
  5
1E2
  8
0
 62
     7
 10
42.684699999999992
 20
158.61000000000001
 30
0.0
 11
42.681600000000003
 21
158.61000000000001
 31
0.0
  0
ARC
  5
1E3
  8
0
 62
     7
 10
43.100015999999989
 20
158.68737100000001
 30
0.0
 40
0.051469
 50
275.130449
 51
358.73530399999999
  0
ARC
  5
1E4
  8
0
 62
     7
 10
43.099471000000001
 20
159.40231700000001
 30
0.0
 40
0.052035
 50
2.0709779999999989
 51
88.125566000000006
  0
LINE
  5
1E5
  8
0
 62
     7
 10
43.101199999999999
 20
159.45400000000001
 30
0.0
 11
43.098100000000002
 21
159.45400000000001
 31
0.0
  0
ARC
  5
1E6
  8
0
 62
     7
 10
42.516413
 20
159.46924100000001
 30
0.0
 40
0.051469
 50
275.130449
 51
358.73530399999999
  0
ARC
  5
1E7
  8
0
 62
     7
 10
42.515827999999999
 20
159.53268800000001
 30
0.0
 40
0.052076
 50
2.0991309999999999
 51
87.703627999999995
  0
LINE
  5
1E8
  8
0
 62
     7
 10
42.51789999999999
 20
159.58500000000001
 30
0.0
 11
42.514799999999987
 21
159.58500000000001
 31
0.0
  0
ARC
  5
1E9
  8
0
 62
     7
 10
42.683219000000001
 20
159.64663899999999
 30
0.0
 40
0.051065
 50
274.7125200000001
 51
358.56064400000002
  0
ARC
  5
1EA
  8
0
 62
     7
 10
42.682496999999998
 20
160.19115500000001
 30
0.0
 40
0.051802
 50
1.9942729999999991
 51
87.609207999999995
  0
LINE
  5
1EB
  8
0
 62
     7
 10
42.684699999999992
 20
160.24299999999999
 30
0.0
 11
42.681600000000003
 21
160.24299999999999
 31
0.0
  0
ARC
  5
1EC
  8
0
 62
     7
 10
43.099094000000001
 20
162.66878500000001
 30
0.0
 40
0.052412
 50
2.0777320000000001
 51
87.726375000000004
  0
LINE
  5
1ED
  8
0
 62
     7
 10
43.101199999999999
 20
162.721
 30
0.0
 11
43.098100000000002
 21
162.721
 31
0.0
  0
ARC
  5
1EE
  8
0
 62
     7
 10
43.099107999999987
 20
161.95470700000001
 30
0.0
 40
0.052401
 50
276.03572700000001
 51
357.83002599999998
  0
ARC
  5
1EF
  8
0
 62
     7
 10
43.099031999999987
 20
160.321258
 30
0.0
 40
0.052461
 50
276.11218300000002
 51
358.33967400000012
  0
ARC
  5
1F0
  8
0
 62
     7
 10
43.099598
 20
161.03576799999999
 30
0.0
 40
0.05191
 50
2.1330759999999991
 51
88.260698000000005
  0
LINE
  5
1F1
  8
0
 62
     7
 10
43.101199999999999
 20
161.08799999999999
 30
0.0
 11
43.098100000000002
 21
161.08799999999999
 31
0.0
  0
ARC
  5
1F2
  8
0
 62
     7
 10
42.515440999999988
 20
161.10312200000001
 30
0.0
 40
0.052455
 50
276.10014799999999
 51
358.15705700000001
  0
ARC
  5
1F3
  8
0
 62
     7
 10
42.515340000000002
 20
161.16572600000001
 30
0.0
 40
0.052562
 50
2.0228250000000001
 51
87.192303999999993
  0
LINE
  5
1F4
  8
0
 62
     7
 10
42.51789999999999
 20
161.21799999999999
 30
0.0
 11
42.514799999999987
 21
161.21799999999999
 31
0.0
  0
ARC
  5
1F5
  8
0
 62
     7
 10
42.682997999999998
 20
161.27982
 30
0.0
 40
0.051279
 50
274.9408390000001
 51
358.924914
  0
ARC
  5
1F6
  8
0
 62
     7
 10
42.682318000000002
 20
161.82448500000001
 30
0.0
 40
0.051981
 50
1.9868859999999999
 51
87.419370000000001
  0
LINE
  5
1F7
  8
0
 62
     7
 10
42.684699999999992
 20
161.876
 30
0.0
 11
42.681600000000003
 21
161.876
 31
0.0
  0
ARC
  5
1F8
  8
0
 62
     7
 10
42.515859000000013
 20
164.26562100000001
 30
0.0
 40
0.052044
 50
2.0663
 51
87.736457999999999
  0
LINE
  5
1F9
  8
0
 62
     7
 10
42.51789999999999
 20
164.31800000000001
 30
0.0
 11
42.514799999999987
 21
164.31800000000001
 31
0.0
  0
ARC
  5
1FA
  8
0
 62
     7
 10
42.515827999999999
 20
162.79934800000001
 30
0.0
 40
0.052076
 50
2.0991309999999999
 51
87.703627999999995
  0
LINE
  5
1FB
  8
0
 62
     7
 10
42.51789999999999
 20
162.851
 30
0.0
 11
42.514799999999987
 21
162.851
 31
0.0
  0
ARC
  5
1FC
  8
0
 62
     7
 10
42.515802000000001
 20
162.73630499999999
 30
0.0
 40
0.052101
 50
275.74235800000002
 51
357.92658999999998
  0
ARC
  5
1FD
  8
0
 62
     7
 10
43.099420000000002
 20
164.13534000000001
 30
0.0
 40
0.052088
 50
2.125448
 51
88.071096999999995
  0
LINE
  5
1FE
  8
0
 62
     7
 10
43.101199999999999
 20
164.18700000000001
 30
0.0
 11
43.098100000000002
 21
164.18700000000001
 31
0.0
  0
ARC
  5
1FF
  8
0
 62
     7
 10
43.099810999999988
 20
163.58773500000001
 30
0.0
 40
0.051688
 50
275.33627799999999
 51
358.13513999999998
  0
ARC
  5
200
  8
0
 62
     7
 10
42.682796999999987
 20
162.91352000000001
 30
0.0
 40
0.051493
 50
275.14464299999997
 51
358.326776
  0
ARC
  5
201
  8
0
 62
     7
 10
42.515631999999997
 20
164.20287300000001
 30
0.0
 40
0.052271
 50
275.91172899999998
 51
357.954024
  0
LINE
  5
202
  8
0
 62
     7
 10
35.6721
 20
157.52099999999999
 30
0.0
 11
42.687399999999997
 21
157.96199999999999
 31
0.0
  0
LINE
  5
203
  8
0
 62
     7
 10
42.734299999999998
 20
158.559
 30
0.0
 11
42.734299999999998
 21
158.012
 31
0.0
  0
LINE
  5
204
  8
0
 62
     7
 10
43.151499999999999
 20
159.404
 30
0.0
 11
43.151499999999999
 21
158.68600000000001
 31
0.0
  0
LINE
  5
205
  8
0
 62
     7
 10
35.6721
 20
159.155
 30
0.0
 11
42.687399999999997
 21
159.596
 31
0.0
  0
LINE
  5
206
  8
0
 62
     7
 10
42.567900000000002
 20
159.535
 30
0.0
 11
42.567900000000002
 21
159.46799999999999
 31
0.0
  0
LINE
  5
207
  8
0
 62
     7
 10
42.734299999999998
 20
160.19300000000001
 30
0.0
 11
42.734299999999998
 21
159.64500000000001
 31
0.0
  0
LINE
  5
208
  8
0
 62
     7
 10
35.6721
 20
160.7879999999999
 30
0.0
 11
42.687399999999997
 21
161.2289999999999
 31
0.0
  0
LINE
  5
209
  8
0
 62
     7
 10
43.151499999999999
 20
161.03800000000001
 30
0.0
 11
43.151499999999999
 21
160.31999999999999
 31
0.0
  0
LINE
  5
20A
  8
0
 62
     7
 10
42.567900000000002
 20
161.16800000000001
 30
0.0
 11
42.567900000000002
 21
161.101
 31
0.0
  0
LINE
  5
20B
  8
0
 62
     7
 10
43.151499999999999
 20
162.67099999999999
 30
0.0
 11
43.151499999999999
 21
161.953
 31
0.0
  0
LINE
  5
20C
  8
0
 62
     7
 10
42.734299999999998
 20
161.82599999999999
 30
0.0
 11
42.734299999999998
 21
161.279
 31
0.0
  0
LINE
  5
20D
  8
0
 62
     7
 10
35.6721
 20
162.422
 30
0.0
 11
42.687399999999997
 21
162.86199999999999
 31
0.0
  0
LINE
  5
20E
  8
0
 62
     7
 10
42.567900000000002
 20
162.80099999999999
 30
0.0
 11
42.567900000000002
 21
162.73400000000001
 31
0.0
  0
LINE
  5
20F
  8
0
 62
     7
 10
42.567900000000002
 20
164.267
 30
0.0
 11
42.567900000000002
 21
164.20099999999999
 31
0.0
  0
LINE
  5
210
  8
0
 62
     7
 10
35.6721
 20
163.721
 30
0.0
 11
43.098100000000002
 21
164.18700000000001
 31
0.0
  0
LINE
  5
211
  8
0
 62
     7
 10
42.734299999999998
 20
163.46000000000001
 30
0.0
 11
42.734299999999998
 21
162.91200000000001
 31
0.0
  0
ARC
  5
212
  8
0
 62
     7
 10
42.682796999999987
 20
164.379762
 30
0.0
 40
0.051493
 50
275.14464299999997
 51
358.326776
  0
LINE
  5
213
  8
0
 62
     7
 10
43.151499999999999
 20
164.137
 30
0.0
 11
43.151499999999999
 21
163.58600000000001
 31
0.0
  0
LINE
  5
214
  8
0
 62
     7
 10
35.6721
 20
163.88800000000001
 30
0.0
 11
42.687399999999997
 21
164.328
 31
0.0
  0
LINE
  5
215
  8
0
 62
     7
 10
35.6721
 20
163.06999999999999
 30
0.0
 11
43.104599999999991
 21
163.536
 31
0.0
  0
LINE
  5
216
  8
0
 62
     7
 10
35.6721
 20
162.255
 30
0.0
 11
43.098100000000002
 21
162.721
 31
0.0
  0
LINE
  5
217
  8
0
 62
     7
 10
35.6721
 20
161.43600000000001
 30
0.0
 11
43.104599999999991
 21
161.90299999999999
 31
0.0
  0
LINE
  5
218
  8
0
 62
     7
 10
35.6721
 20
160.62100000000001
 30
0.0
 11
43.098100000000002
 21
161.08799999999999
 31
0.0
  0
LINE
  5
219
  8
0
 62
     7
 10
35.6721
 20
159.803
 30
0.0
 11
43.104599999999991
 21
160.26900000000001
 31
0.0
  0
LINE
  5
21A
  8
0
 62
     7
 10
35.6721
 20
158.988
 30
0.0
 11
43.098100000000002
 21
159.45400000000001
 31
0.0
  0
LINE
  5
21B
  8
0
 62
     7
 10
35.6721
 20
158.16900000000001
 30
0.0
 11
43.104599999999991
 21
158.636
 31
0.0
  0
LINE
  5
21C
  8
0
 62
     7
 10
35.731000000000002
 20
157.358
 30
0.0
 11
43.151499999999999
 21
157.82400000000001
 31
0.0
  0
LINE
  5
21D
  8
0
 62
     7
 10
42.734299999999998
 20
165.02500000000001
 30
0.0
 11
42.734299999999998
 21
164.37799999999999
 31
0.0
  0
LINE
  5
21E
  8
0
 62
     7
 10
43.151499999999999
 20
167.02500000000001
 30
0.0
 11
43.151499999999999
 21
165.02500000000001
 31
0.0
  0
LINE
  5
21F
  8
0
 62
     7
 10
35.6721
 20
167.02500000000001
 30
0.0
 11
43.151499999999999
 21
167.02500000000001
 31
0.0
  0
LINE
  5
220
  8
0
 62
     7
 10
35.6721
 20
165.02500000000001
 30
0.0
 11
43.151499999999999
 21
165.02500000000001
 31
0.0
  0
LINE
  5
221
  8
0
 62
     7
 10
27.860700000000001
 20
172.40799999999999
 30
0.0
 11
27.860700000000001
 21
172.358
 31
0.0
  0
LINE
  5
222
  8
0
 62
     7
 10
41.698999999999998
 20
173.358
 30
0.0
 11
35.277299999999997
 21
173.358
 31
0.0
  0
LINE
  5
223
  8
0
 62
     7
 10
42.390799999999999
 20
173.358
 30
0.0
 11
41.693800000000003
 21
173.358
 31
0.0
  0
LINE
  5
224
  8
0
 62
     7
 10
41.693800000000003
 20
173.358
 30
0.0
 11
42.694000000000003
 21
173.358
 31
0.0
  0
LINE
  5
225
  8
0
 62
     7
 10
35.277299999999997
 20
173.358
 30
0.0
 11
40.7774
 21
173.358
 31
0.0
  0
LINE
  5
226
  8
0
 62
     7
 10
42.694000000000003
 20
173.358
 30
0.0
 11
42.694000000000003
 21
172.358
 31
0.0
  0
LINE
  5
227
  8
0
 62
     7
 10
41.696599999999989
 20
172.358
 30
0.0
 11
35.277299999999997
 21
172.358
 31
0.0
  0
LINE
  5
228
  8
0
 62
     7
 10
42.694000000000003
 20
172.358
 30
0.0
 11
41.693800000000003
 21
172.358
 31
0.0
  0
ARC
  5
229
  8
0
 62
     7
 10
28.661763000000001
 20
163.457933
 30
0.0
 40
0.051664
 50
88.210770999999994
 51
174.685733
  0
LINE
  5
22A
  8
0
 62
     7
 10
28.610299999999999
 20
163.46299999999999
 30
0.0
 11
28.610299999999999
 21
163.46000000000001
 31
0.0
  0
ARC
  5
22B
  8
0
 62
     7
 10
28.662039
 20
158.557591
 30
0.0
 40
0.052008
 50
88.527294999999995
 51
173.94980200000001
  0
LINE
  5
22C
  8
0
 62
     7
 10
28.610299999999999
 20
158.56299999999999
 30
0.0
 11
28.610299999999999
 21
158.559
 31
0.0
  0
ARC
  5
22D
  8
0
 62
     7
 10
28.246129
 20
158.687859
 30
0.0
 40
0.052004
 50
181.789526
 51
264.34476100000001
  0
ARC
  5
22E
  8
0
 62
     7
 10
28.245570000000001
 20
159.40270000000001
 30
0.0
 40
0.051641
 50
88.567998000000003
 51
174.699051
  0
LINE
  5
22F
  8
0
 62
     7
 10
28.194199999999999
 20
159.40700000000001
 30
0.0
 11
28.194199999999999
 21
159.404
 31
0.0
  0
ARC
  5
230
  8
0
 62
     7
 10
28.829387000000001
 20
159.469729
 30
0.0
 40
0.052004
 50
181.789526
 51
264.34476100000001
  0
ARC
  5
231
  8
0
 62
     7
 10
28.828530000000001
 20
159.533434
 30
0.0
 40
0.051313
 50
88.224698000000004
 51
175.04235199999999
  0
LINE
  5
232
  8
0
 62
     7
 10
28.7774
 20
159.53800000000001
 30
0.0
 11
28.7774
 21
159.535
 31
0.0
  0
ARC
  5
233
  8
0
 62
     7
 10
28.661829999999998
 20
159.64707300000001
 30
0.0
 40
0.051538
 50
181.90950100000001
 51
264.81737500000003
  0
ARC
  5
234
  8
0
 62
     7
 10
28.662524999999999
 20
160.19041000000001
 30
0.0
 40
0.052509
 50
89.071803000000003
 51
173.824702
  0
LINE
  5
235
  8
0
 62
     7
 10
28.610299999999999
 20
160.196
 30
0.0
 11
28.610299999999999
 21
160.19300000000001
 31
0.0
  0
ARC
  5
236
  8
0
 62
     7
 10
28.246027999999999
 20
162.669017
 30
0.0
 40
0.052146
 50
89.084727000000001
 51
174.182323
  0
LINE
  5
237
  8
0
 62
     7
 10
28.194199999999999
 20
162.67400000000001
 30
0.0
 11
28.194199999999999
 21
162.67099999999999
 31
0.0
  0
ARC
  5
238
  8
0
 62
     7
 10
28.246195
 20
161.954409
 30
0.0
 40
0.052072
 50
181.85524799999999
 51
264.27903900000013
  0
ARC
  5
239
  8
0
 62
     7
 10
28.246703000000011
 20
160.32136299999999
 30
0.0
 40
0.052578
 50
181.770962
 51
263.777221
  0
ARC
  5
23A
  8
0
 62
     7
 10
28.245270999999999
 20
161.03636599999999
 30
0.0
 40
0.051313
 50
88.224698000000004
 51
175.04235199999999
  0
LINE
  5
23B
  8
0
 62
     7
 10
28.194199999999999
 20
161.041
 30
0.0
 11
28.194199999999999
 21
161.03800000000001
 31
0.0
  0
ARC
  5
23C
  8
0
 62
     7
 10
28.829792000000001
 20
161.10308000000001
 30
0.0
 40
0.052408
 50
181.79877999999999
 51
263.94405499999999
  0
ARC
  5
23D
  8
0
 62
     7
 10
28.829286
 20
161.16608500000001
 30
0.0
 40
0.052146
 50
89.084727000000001
 51
174.182323
  0
LINE
  5
23E
  8
0
 62
     7
 10
28.7774
 20
161.17099999999999
 30
0.0
 11
28.7774
 21
161.16800000000001
 31
0.0
  0
ARC
  5
23F
  8
0
 62
     7
 10
28.662389000000001
 20
161.28056699999999
 30
0.0
 40
0.052096
 50
181.87918999999991
 51
264.25509599999998
  0
ARC
  5
240
  8
0
 62
     7
 10
28.661725000000001
 20
161.82424599999999
 30
0.0
 40
0.051678
 50
88.169289000000006
 51
174.09708800000001
  0
LINE
  5
241
  8
0
 62
     7
 10
28.610299999999999
 20
161.83000000000001
 30
0.0
 11
28.610299999999999
 21
161.82599999999999
 31
0.0
  0
ARC
  5
242
  8
0
 62
     7
 10
28.829132999999999
 20
164.265658
 30
0.0
 40
0.051976
 50
88.912251999999995
 51
174.35479699999999
  0
LINE
  5
243
  8
0
 62
     7
 10
28.7774
 20
164.27099999999999
 30
0.0
 11
28.7774
 21
164.267
 31
0.0
  0
ARC
  5
244
  8
0
 62
     7
 10
28.828816
 20
162.79958199999999
 30
0.0
 40
0.051645
 50
88.554237999999998
 51
174.50327899999999
  0
LINE
  5
245
  8
0
 62
     7
 10
28.7774
 20
162.80500000000001
 30
0.0
 11
28.7774
 21
162.80099999999999
 31
0.0
  0
ARC
  5
246
  8
0
 62
     7
 10
28.829263000000001
 20
162.73610600000001
 30
0.0
 40
0.051881
 50
181.8616759999999
 51
264.46941600000002
  0
ARC
  5
247
  8
0
 62
     7
 10
28.245570000000001
 20
164.13560200000001
 30
0.0
 40
0.051641
 50
88.567998000000003
 51
174.699051
  0
LINE
  5
248
  8
0
 62
     7
 10
28.194199999999999
 20
164.13999999999999
 30
0.0
 11
28.194199999999999
 21
164.137
 31
0.0
  0
ARC
  5
249
  8
0
 62
     7
 10
28.245792999999999
 20
163.587718
 30
0.0
 40
0.051669
 50
181.84607399999999
 51
264.682547
  0
ARC
  5
24A
  8
0
 62
     7
 10
28.662053000000011
 20
162.91376600000001
 30
0.0
 40
0.051762
 50
181.93687
 51
264.59175099999999
  0
ARC
  5
24B
  8
0
 62
     7
 10
28.829408999999998
 20
164.202651
 30
0.0
 40
0.052026
 50
181.81129000000001
 51
264.3229970000001
  0
LINE
  5
24C
  8
0
 62
     7
 10
35.6721
 20
157.52099999999999
 30
0.0
 11
28.6572
 21
157.96199999999999
 31
0.0
  0
LINE
  5
24D
  8
0
 62
     7
 10
28.610299999999999
 20
158.559
 30
0.0
 11
28.610299999999999
 21
158.012
 31
0.0
  0
LINE
  5
24E
  8
0
 62
     7
 10
28.194199999999999
 20
159.404
 30
0.0
 11
28.194199999999999
 21
158.68600000000001
 31
0.0
  0
LINE
  5
24F
  8
0
 62
     7
 10
35.6721
 20
159.155
 30
0.0
 11
28.6572
 21
159.596
 31
0.0
  0
LINE
  5
250
  8
0
 62
     7
 10
28.7774
 20
159.535
 30
0.0
 11
28.7774
 21
159.46799999999999
 31
0.0
  0
LINE
  5
251
  8
0
 62
     7
 10
28.610299999999999
 20
160.19300000000001
 30
0.0
 11
28.610299999999999
 21
159.64500000000001
 31
0.0
  0
LINE
  5
252
  8
0
 62
     7
 10
35.6721
 20
160.7879999999999
 30
0.0
 11
28.6572
 21
161.2289999999999
 31
0.0
  0
LINE
  5
253
  8
0
 62
     7
 10
28.194199999999999
 20
161.03800000000001
 30
0.0
 11
28.194199999999999
 21
160.31999999999999
 31
0.0
  0
LINE
  5
254
  8
0
 62
     7
 10
28.7774
 20
161.16800000000001
 30
0.0
 11
28.7774
 21
161.101
 31
0.0
  0
LINE
  5
255
  8
0
 62
     7
 10
28.194199999999999
 20
162.67099999999999
 30
0.0
 11
28.194199999999999
 21
161.953
 31
0.0
  0
LINE
  5
256
  8
0
 62
     7
 10
28.610299999999999
 20
161.82599999999999
 30
0.0
 11
28.610299999999999
 21
161.279
 31
0.0
  0
LINE
  5
257
  8
0
 62
     7
 10
35.6721
 20
162.422
 30
0.0
 11
28.6572
 21
162.86199999999999
 31
0.0
  0
LINE
  5
258
  8
0
 62
     7
 10
28.7774
 20
162.80099999999999
 30
0.0
 11
28.7774
 21
162.73400000000001
 31
0.0
  0
LINE
  5
259
  8
0
 62
     7
 10
28.7774
 20
164.267
 30
0.0
 11
28.7774
 21
164.20099999999999
 31
0.0
  0
LINE
  5
25A
  8
0
 62
     7
 10
35.6721
 20
163.721
 30
0.0
 11
28.2469
 21
164.18700000000001
 31
0.0
  0
LINE
  5
25B
  8
0
 62
     7
 10
28.610299999999999
 20
163.46000000000001
 30
0.0
 11
28.610299999999999
 21
162.91200000000001
 31
0.0
  0
ARC
  5
25C
  8
0
 62
     7
 10
28.662053000000011
 20
164.380008
 30
0.0
 40
0.051762
 50
181.93687
 51
264.59175099999999
  0
LINE
  5
25D
  8
0
 62
     7
 10
28.194199999999999
 20
164.137
 30
0.0
 11
28.194199999999999
 21
163.58600000000001
 31
0.0
  0
LINE
  5
25E
  8
0
 62
     7
 10
35.6721
 20
163.88800000000001
 30
0.0
 11
28.6572
 21
164.328
 31
0.0
  0
LINE
  5
25F
  8
0
 62
     7
 10
35.6721
 20
163.06999999999999
 30
0.0
 11
28.241
 21
163.536
 31
0.0
  0
LINE
  5
260
  8
0
 62
     7
 10
35.6721
 20
162.255
 30
0.0
 11
28.2469
 21
162.721
 31
0.0
  0
LINE
  5
261
  8
0
 62
     7
 10
35.6721
 20
161.43600000000001
 30
0.0
 11
28.241
 21
161.90299999999999
 31
0.0
  0
LINE
  5
262
  8
0
 62
     7
 10
35.6721
 20
160.62100000000001
 30
0.0
 11
28.2469
 21
161.08799999999999
 31
0.0
  0
LINE
  5
263
  8
0
 62
     7
 10
35.6721
 20
159.803
 30
0.0
 11
28.241
 21
160.26900000000001
 31
0.0
  0
LINE
  5
264
  8
0
 62
     7
 10
35.6721
 20
158.988
 30
0.0
 11
28.2469
 21
159.45400000000001
 31
0.0
  0
LINE
  5
265
  8
0
 62
     7
 10
35.6721
 20
158.16900000000001
 30
0.0
 11
28.241
 21
158.636
 31
0.0
  0
LINE
  5
266
  8
0
 62
     7
 10
35.613599999999998
 20
157.358
 30
0.0
 11
28.194199999999999
 21
157.82400000000001
 31
0.0
  0
LINE
  5
267
  8
0
 62
     7
 10
28.610299999999999
 20
165.02500000000001
 30
0.0
 11
28.610299999999999
 21
164.37799999999999
 31
0.0
  0
LINE
  5
268
  8
0
 62
     7
 10
28.194199999999999
 20
167.02500000000001
 30
0.0
 11
28.194199999999999
 21
165.02500000000001
 31
0.0
  0
LINE
  5
269
  8
0
 62
     7
 10
35.6721
 20
167.02500000000001
 30
0.0
 11
28.194199999999999
 21
167.02500000000001
 31
0.0
  0
LINE
  5
26A
  8
0
 62
     7
 10
35.6721
 20
165.02500000000001
 30
0.0
 11
28.194199999999999
 21
165.02500000000001
 31
0.0
  0
LINE
  5
26B
  8
0
 62
     7
 10
28.610299999999999
 20
167.626
 30
0.0
 11
28.610299999999999
 21
167.02500000000001
 31
0.0
  0
LINE
  5
26C
  8
0
 62
     7
 10
28.610299999999999
 20
172.31100000000001
 30
0.0
 11
28.610299999999999
 21
171.626
 31
0.0
  0
LINE
  5
26D
  8
0
 62
     7
 10
28.793600000000001
 20
173.358
 30
0.0
 11
27.860700000000001
 21
173.358
 31
0.0
  0
LINE
  5
26E
  8
0
 62
     7
 10
35.277299999999997
 20
173.358
 30
0.0
 11
29.776800000000001
 21
173.358
 31
0.0
  0
LINE
  5
26F
  8
0
 62
     7
 10
27.860700000000001
 20
173.358
 30
0.0
 11
27.860700000000001
 21
172.40799999999999
 31
0.0
  0
LINE
  5
270
  8
0
 62
     7
 10
28.610299999999999
 20
172.358
 30
0.0
 11
35.277299999999997
 21
172.358
 31
0.0
  0
LINE
  5
271
  8
0
 62
     7
 10
27.860700000000001
 20
172.358
 30
0.0
 11
28.8628
 21
172.358
 31
0.0
  0
LINE
  5
272
  8
0
 62
     7
 10
35.055799999999998
 20
157.35900000000001
 30
0.0
 11
35.055799999999998
 21
153.79300000000001
 31
0.0
  0
LINE
  5
273
  8
0
 62
     7
 10
34.915199999999999
 20
167.02500000000001
 30
0.0
 11
35.277299999999997
 21
167.02500000000001
 31
0.0
  0
LINE
  5
274
  8
0
 62
     7
 10
36.289099999999998
 20
155.685
 30
0.0
 11
36.289099999999998
 21
153.309
 31
0.0
  0
LINE
  5
275
  8
0
 62
     7
 10
42.057999999999993
 20
167.626
 30
0.0
 11
30.2988
 21
167.626
 31
0.0
  0
LINE
  5
276
  8
0
 62
     7
 10
40.7774
 20
172.358
 30
0.0
 11
35.277299999999997
 21
172.358
 31
0.0
  0
LINE
  5
277
  8
0
 62
     7
 10
42.310899999999997
 20
172.358
 30
0.0
 11
41.693800000000003
 21
172.358
 31
0.0
  0
LINE
  5
278
  8
0
 62
     7
 10
30.604700000000001
 20
172.358
 30
0.0
 11
35.277299999999997
 21
172.358
 31
0.0
  0
LINE
  5
279
  8
0
 62
     7
 10
35.055799999999998
 20
167.02500000000001
 30
0.0
 11
30.4724
 21
167.02500000000001
 31
0.0
  0
ARC
  5
27A
  8
0
 62
     7
 10
155.51405500000001
 20
197.69159200000001
 30
0.0
 40
12.833322000000001
 50
359.99885599999999
 51
89.998827000000006
  0
ARC
  5
27B
  8
0
 62
     7
 10
155.51440400000001
 20
197.69141999999999
 30
0.0
 40
12.833494999999999
 50
90.000384999999994
 51
180.000394
  0
ARC
  5
27C
  8
0
 62
     7
 10
155.51431400000001
 20
197.69133400000001
 30
0.0
 40
12.833404
 50
179.99996999999999
 51
270.00002000000001
  0
ARC
  5
27D
  8
0
 62
     7
 10
155.514141
 20
197.69116600000001
 30
0.0
 40
12.833235999999999
 50
270.000789
 51
0.000759
  0
ARC
  5
27E
  8
0
 62
     7
 10
106.578327
 20
114.922574
 30
0.0
 40
0.051364
 50
185.010921
 51
268.26226200000002
  0
ARC
  5
27F
  8
0
 62
     7
 10
106.642213
 20
114.92258
 30
0.0
 40
0.051375
 50
271.93654099999998
 51
358.063469
  0
LINE
  5
280
  8
0
 62
     7
 10
106.694
 20
114.92100000000001
 30
0.0
 11
106.694
 21
114.925
 31
0.0
  0
LINE
  5
281
  8
0
 62
     7
 10
106.64400000000001
 20
114.871
 30
0.0
 11
106.577
 21
114.871
 31
0.0
  0
ARC
  5
282
  8
0
 62
     7
 10
106.58750000000001
 20
127.808548
 30
0.0
 40
0.052359
 50
91.940461999999997
 51
173.99768
  0
ARC
  5
283
  8
0
 62
     7
 10
106.650869
 20
127.809731
 30
0.0
 40
0.051338
 50
357.86806200000001
 51
85.028462000000005
  0
LINE
  5
284
  8
0
 62
     7
 10
106.655
 20
127.861
 30
0.0
 11
106.65300000000001
 21
127.861
 31
0.0
  0
LINE
  5
285
  8
0
 62
     7
 10
106.65300000000001
 20
127.861
 30
0.0
 11
106.586
 21
127.861
 31
0.0
  0
LINE
  5
286
  8
0
 62
     7
 10
105.113
 20
121.95699999999999
 30
0.0
 11
102.456
 21
121.95699999999999
 31
0.0
  0
LINE
  5
287
  8
0
 62
     7
 10
119.83799999999999
 20
128.15700000000001
 30
0.0
 11
119.83799999999999
 21
127.98999999999999
 31
0.0
  0
LINE
  5
288
  8
0
 62
     7
 10
119.337
 20
127.991
 30
0.0
 11
119.33799999999999
 21
128.15799999999999
 31
0.0
  0
LINE
  5
289
  8
0
 62
     7
 10
117.836
 20
128.16
 30
0.0
 11
117.836
 21
127.99299999999999
 31
0.0
  0
LINE
  5
28A
  8
0
 62
     7
 10
119.337
 20
127.991
 30
0.0
 11
117.836
 21
127.99299999999999
 31
0.0
  0
LINE
  5
28B
  8
0
 62
     7
 10
119.337
 20
127.991
 30
0.0
 11
117.836
 21
127.99299999999999
 31
0.0
  0
LINE
  5
28C
  8
0
 62
     7
 10
106.575
 20
128.423
 30
0.0
 11
105.166
 21
128.42500000000001
 31
0.0
  0
ARC
  5
28D
  8
0
 62
     7
 10
112.20781100000001
 20
127.94832700000001
 30
0.0
 40
0.052063
 50
357.78527100000002
 51
83.538185999999996
  0
LINE
  5
28E
  8
0
 62
     7
 10
112.214
 20
128.0
 30
0.0
 11
112.20999999999999
 21
128.0
 31
0.0
  0
ARC
  5
28F
  8
0
 62
     7
 10
106.764061
 20
127.954498
 30
0.0
 40
0.051787
 50
91.77024200000001
 51
174.56079099999999
  0
ARC
  5
290
  8
0
 62
     7
 10
107.30891800000001
 20
127.954475
 30
0.0
 40
0.051287
 50
358.58183300000002
 51
85.058498
  0
LINE
  5
291
  8
0
 62
     7
 10
107.313
 20
128.006
 30
0.0
 11
107.31
 21
128.006
 31
0.0
  0
ARC
  5
292
  8
0
 62
     7
 10
107.43889
 20
128.370363
 30
0.0
 40
0.05209
 50
91.683082000000013
 51
174.25505999999999
  0
ARC
  5
293
  8
0
 62
     7
 10
108.15204199999999
 20
128.36888300000001
 30
0.0
 40
0.053242
 50
359.04682100000002
 51
83.116671999999994
  0
LINE
  5
294
  8
0
 62
     7
 10
108.158
 20
128.422
 30
0.0
 11
108.155
 21
128.422
 31
0.0
  0
ARC
  5
295
  8
0
 62
     7
 10
108.219583
 20
127.786419
 30
0.0
 40
0.051743
 50
91.727484000000004
 51
174.60354899999999
  0
ARC
  5
296
  8
0
 62
     7
 10
108.282833
 20
127.786395
 30
0.0
 40
0.051996
 50
358.554484
 51
84.342039999999983
  0
LINE
  5
297
  8
0
 62
     7
 10
108.288
 20
127.83799999999999
 30
0.0
 11
108.285
 21
127.83799999999999
 31
0.0
  0
ARC
  5
298
  8
0
 62
     7
 10
108.397351
 20
127.952473
 30
0.0
 40
0.051743
 50
91.727484000000004
 51
174.60354899999999
  0
ARC
  5
299
  8
0
 62
     7
 10
108.94154
 20
127.951761
 30
0.0
 40
0.051996
 50
358.554484
 51
84.342039999999983
  0
LINE
  5
29A
  8
0
 62
     7
 10
108.947
 20
128.00399999999999
 30
0.0
 11
108.944
 21
128.00399999999999
 31
0.0
  0
ARC
  5
29B
  8
0
 62
     7
 10
111.420277
 20
128.366513
 30
0.0
 40
0.051353
 50
357.81179700000001
 51
84.243202000000025
  0
LINE
  5
29C
  8
0
 62
     7
 10
111.425
 20
128.41800000000001
 30
0.0
 11
111.422
 21
128.41800000000001
 31
0.0
  0
ARC
  5
29D
  8
0
 62
     7
 10
110.705403
 20
128.36631800000001
 30
0.0
 40
0.052007
 50
91.902854000000005
 51
173.58150900000001
  0
ARC
  5
29E
  8
0
 62
     7
 10
109.07211599999999
 20
128.368798
 30
0.0
 40
0.051595
 50
91.966113000000007
 51
174.76070300000001
  0
ARC
  5
29F
  8
0
 62
     7
 10
109.786271
 20
128.36795599999999
 30
0.0
 40
0.052008
 50
358.52730400000002
 51
83.949812000000009
  0
LINE
  5
2A0
  8
0
 62
     7
 10
109.792
 20
128.41999999999999
 30
0.0
 11
109.789
 21
128.41999999999999
 31
0.0
  0
ARC
  5
2A1
  8
0
 62
     7
 10
109.853397
 20
127.783823
 30
0.0
 40
0.052276
 50
91.861829999999983
 51
174.076312
  0
ARC
  5
2A2
  8
0
 62
     7
 10
109.91683999999999
 20
127.784927
 30
0.0
 40
0.051338
 50
357.86806200000001
 51
85.028462000000005
  0
LINE
  5
2A3
  8
0
 62
     7
 10
109.92100000000001
 20
127.836
 30
0.0
 11
109.91800000000001
 21
127.836
 31
0.0
  0
ARC
  5
2A4
  8
0
 62
     7
 10
110.030547
 20
127.95125
 30
0.0
 40
0.051595
 50
91.966113000000007
 51
174.76070300000001
  0
ARC
  5
2A5
  8
0
 62
     7
 10
110.57451399999999
 20
127.949719
 30
0.0
 40
0.052008
 50
358.52730400000002
 51
83.949812000000009
  0
LINE
  5
2A6
  8
0
 62
     7
 10
110.58
 20
128.001
 30
0.0
 11
110.577
 21
128.001
 31
0.0
  0
ARC
  5
2A7
  8
0
 62
     7
 10
113.01608
 20
127.78019399999999
 30
0.0
 40
0.051996
 50
358.554484
 51
84.342039999999983
  0
LINE
  5
2A8
  8
0
 62
     7
 10
113.021
 20
127.83199999999999
 30
0.0
 11
113.018
 21
127.83199999999999
 31
0.0
  0
ARC
  5
2A9
  8
0
 62
     7
 10
111.550512
 20
127.782859
 30
0.0
 40
0.050652
 50
357.83951000000002
 51
84.957925000000003
  0
LINE
  5
2AA
  8
0
 62
     7
 10
111.55500000000001
 20
127.833
 30
0.0
 11
111.55200000000001
 21
127.834
 31
0.0
  0
ARC
  5
2AB
  8
0
 62
     7
 10
111.486712
 20
127.782072
 30
0.0
 40
0.051959
 50
91.857472999999999
 51
173.62689
  0
ARC
  5
2AC
  8
0
 62
     7
 10
112.88651900000001
 20
128.36444599999999
 30
0.0
 40
0.051353
 50
357.81179700000001
 51
84.243202000000025
  0
LINE
  5
2AD
  8
0
 62
     7
 10
112.892
 20
128.416
 30
0.0
 11
112.88800000000001
 21
128.416
 31
0.0
  0
ARC
  5
2AE
  8
0
 62
     7
 10
112.338735
 20
128.364329
 30
0.0
 40
0.051929
 50
91.907856999999964
 51
174.42317499999999
  0
ARC
  5
2AF
  8
0
 62
     7
 10
111.664222
 20
127.949183
 30
0.0
 40
0.051595
 50
91.966113000000007
 51
174.76070300000001
  0
ARC
  5
2B0
  8
0
 62
     7
 10
112.951797
 20
127.78125799999999
 30
0.0
 40
0.050682
 50
90.595143000000007
 51
174.88921999999999
  0
LINE
  5
2B1
  8
0
 62
     7
 10
106.289
 20
121.34
 30
0.0
 11
106.71299999999999
 21
127.959
 31
0.0
  0
LINE
  5
2B2
  8
0
 62
     7
 10
107.31
 20
128.006
 30
0.0
 11
106.762
 21
128.006
 31
0.0
  0
LINE
  5
2B3
  8
0
 62
     7
 10
108.155
 20
128.422
 30
0.0
 11
107.437
 21
128.422
 31
0.0
  0
LINE
  5
2B4
  8
0
 62
     7
 10
107.922
 20
121.33799999999999
 30
0.0
 11
108.346
 21
127.95699999999999
 31
0.0
  0
LINE
  5
2B5
  8
0
 62
     7
 10
108.285
 20
127.83799999999999
 30
0.0
 11
108.218
 21
127.83799999999999
 31
0.0
  0
LINE
  5
2B6
  8
0
 62
     7
 10
108.944
 20
128.00399999999999
 30
0.0
 11
108.396
 21
128.00399999999999
 31
0.0
  0
LINE
  5
2B7
  8
0
 62
     7
 10
109.55500000000001
 20
121.336
 30
0.0
 11
109.979
 21
127.956
 31
0.0
  0
LINE
  5
2B8
  8
0
 62
     7
 10
109.789
 20
128.41999999999999
 30
0.0
 11
109.06999999999999
 21
128.41999999999999
 31
0.0
  0
LINE
  5
2B9
  8
0
 62
     7
 10
109.91800000000001
 20
127.836
 30
0.0
 11
109.852
 21
127.836
 31
0.0
  0
LINE
  5
2BA
  8
0
 62
     7
 10
111.422
 20
128.41800000000001
 30
0.0
 11
110.70399999999999
 21
128.41800000000001
 31
0.0
  0
LINE
  5
2BB
  8
0
 62
     7
 10
110.577
 20
128.001
 30
0.0
 11
110.029
 21
128.00299999999999
 31
0.0
  0
LINE
  5
2BC
  8
0
 62
     7
 10
111.18899999999999
 20
121.334
 30
0.0
 11
111.613
 21
127.95399999999999
 31
0.0
  0
LINE
  5
2BD
  8
0
 62
     7
 10
111.55200000000001
 20
127.834
 30
0.0
 11
111.485
 21
127.834
 31
0.0
  0
LINE
  5
2BE
  8
0
 62
     7
 10
113.018
 20
127.83199999999999
 30
0.0
 11
112.95099999999999
 21
127.83199999999999
 31
0.0
  0
LINE
  5
2BF
  8
0
 62
     7
 10
112.488
 20
121.333
 30
0.0
 11
112.938
 21
128.36199999999999
 31
0.0
  0
LINE
  5
2C0
  8
0
 62
     7
 10
112.20999999999999
 20
128.0
 30
0.0
 11
111.66200000000001
 21
128.001
 31
0.0
  0
ARC
  5
2C1
  8
0
 62
     7
 10
113.13076700000001
 20
127.946781
 30
0.0
 40
0.051929
 50
91.907856999999964
 51
174.42317499999999
  0
LINE
  5
2C2
  8
0
 62
     7
 10
112.88800000000001
 20
128.416
 30
0.0
 11
112.337
 21
128.416
 31
0.0
  0
LINE
  5
2C3
  8
0
 62
     7
 10
112.655
 20
121.333
 30
0.0
 11
113.07899999999999
 21
127.952
 31
0.0
  0
LINE
  5
2C4
  8
0
 62
     7
 10
111.836
 20
121.334
 30
0.0
 11
112.28700000000001
 21
128.369
 31
0.0
  0
LINE
  5
2C5
  8
0
 62
     7
 10
111.02200000000001
 20
121.334
 30
0.0
 11
111.47199999999999
 21
128.36500000000001
 31
0.0
  0
LINE
  5
2C6
  8
0
 62
     7
 10
110.203
 20
121.336
 30
0.0
 11
110.654
 21
128.37200000000001
 31
0.0
  0
LINE
  5
2C7
  8
0
 62
     7
 10
109.389
 20
121.336
 30
0.0
 11
109.83799999999999
 21
128.36699999999999
 31
0.0
  0
LINE
  5
2C8
  8
0
 62
     7
 10
108.56999999999999
 20
121.337
 30
0.0
 11
109.021
 21
128.374
 31
0.0
  0
LINE
  5
2C9
  8
0
 62
     7
 10
107.755
 20
121.33799999999999
 30
0.0
 11
108.205
 21
128.36799999999999
 31
0.0
  0
LINE
  5
2CA
  8
0
 62
     7
 10
106.93600000000001
 20
121.339
 30
0.0
 11
107.387
 21
128.376
 31
0.0
  0
LINE
  5
2CB
  8
0
 62
     7
 10
106.122
 20
121.34
 30
0.0
 11
106.575
 21
128.423
 31
0.0
  0
ARC
  5
2CC
  8
0
 62
     7
 10
121.05656999999999
 20
128.040752
 30
0.0
 40
0.051747
 50
271.93814099999997
 51
357.66536000000002
  0
ARC
  5
2CD
  8
0
 62
     7
 10
121.159621
 20
128.35454100000001
 30
0.0
 40
0.050668
 50
90.795343000000003
 51
178.808119
  0
LINE
  5
2CE
  8
0
 62
     7
 10
113.77500000000001
 20
127.998
 30
0.0
 11
113.129
 21
127.999
 31
0.0
  0
LINE
  5
2CF
  8
0
 62
     7
 10
115.77500000000001
 20
128.41200000000001
 30
0.0
 11
113.77500000000001
 21
128.41499999999999
 31
0.0
  0
LINE
  5
2D0
  8
0
 62
     7
 10
115.767
 20
121.328
 30
0.0
 11
115.77500000000001
 21
128.41200000000001
 31
0.0
  0
LINE
  5
2D1
  8
0
 62
     7
 10
113.767
 20
121.331
 30
0.0
 11
113.77500000000001
 21
128.41499999999999
 31
0.0
  0
LINE
  5
2D2
  8
0
 62
     7
 10
117.336
 20
127.99299999999999
 30
0.0
 11
115.77500000000001
 21
127.995
 31
0.0
  0
LINE
  5
2D3
  8
0
 62
     7
 10
119.337
 20
127.991
 30
0.0
 11
117.836
 21
127.99299999999999
 31
0.0
  0
LINE
  5
2D4
  8
0
 62
     7
 10
121.06100000000001
 20
127.989
 30
0.0
 11
119.83799999999999
 21
127.98999999999999
 31
0.0
  0
LINE
  5
2D5
  8
0
 62
     7
 10
122.09999999999999
 20
121.31999999999999
 30
0.0
 11
122.10899999999999
 21
128.404
 31
0.0
  0
LINE
  5
2D6
  8
0
 62
     7
 10
122.10899999999999
 20
128.404
 30
0.0
 11
121.15900000000001
 21
128.405
 31
0.0
  0
LINE
  5
2D7
  8
0
 62
     7
 10
121.10899999999999
 20
128.35599999999999
 30
0.0
 11
121.09999999999999
 21
121.322
 31
0.0
  0
LINE
  5
2D8
  8
0
 62
     7
 10
155.18100000000001
 20
184.74600000000001
 30
0.0
 11
155.18100000000001
 21
184.83099999999999
 31
0.0
  0
LINE
  5
2D9
  8
0
 62
     7
 10
155.84700000000001
 20
184.8359999999999
 30
0.0
 11
155.84700000000001
 21
184.74600000000001
 31
0.0
  0
LINE
  5
2DA
  8
0
 62
     7
 10
119.82899999999999
 20
114.541
 30
0.0
 11
119.82899999999999
 21
114.70699999999999
 31
0.0
  0
LINE
  5
2DB
  8
0
 62
     7
 10
119.33
 20
114.541
 30
0.0
 11
119.82899999999999
 21
114.541
 31
0.0
  0
LINE
  5
2DC
  8
0
 62
     7
 10
119.33
 20
114.70699999999999
 30
0.0
 11
119.33
 21
114.541
 31
0.0
  0
LINE
  5
2DD
  8
0
 62
     7
 10
117.828
 20
114.541
 30
0.0
 11
117.828
 21
114.70699999999999
 31
0.0
  0
LINE
  5
2DE
  8
0
 62
     7
 10
117.328
 20
114.541
 30
0.0
 11
117.828
 21
114.541
 31
0.0
  0
LINE
  5
2DF
  8
0
 62
     7
 10
117.328
 20
114.70699999999999
 30
0.0
 11
117.328
 21
114.541
 31
0.0
  0
LINE
  5
2E0
  8
0
 62
     7
 10
119.82899999999999
 20
128.20699999999999
 30
0.0
 11
119.82899999999999
 21
128.041
 31
0.0
  0
LINE
  5
2E1
  8
0
 62
     7
 10
119.33
 20
128.20699999999999
 30
0.0
 11
119.82899999999999
 21
128.20699999999999
 31
0.0
  0
LINE
  5
2E2
  8
0
 62
     7
 10
119.33
 20
128.041
 30
0.0
 11
119.33
 21
128.20699999999999
 31
0.0
  0
LINE
  5
2E3
  8
0
 62
     7
 10
117.828
 20
128.20699999999999
 30
0.0
 11
117.828
 21
128.041
 31
0.0
  0
LINE
  5
2E4
  8
0
 62
     7
 10
117.328
 20
128.20699999999999
 30
0.0
 11
117.828
 21
128.20699999999999
 31
0.0
  0
LINE
  5
2E5
  8
0
 62
     7
 10
117.328
 20
128.041
 30
0.0
 11
117.328
 21
128.20699999999999
 31
0.0
  0
LINE
  5
2E6
  8
0
 62
     7
 10
119.33
 20
128.041
 30
0.0
 11
119.33
 21
114.70699999999999
 31
0.0
  0
LINE
  5
2E7
  8
0
 62
     7
 10
119.82899999999999
 20
128.041
 30
0.0
 11
119.82899999999999
 21
114.70699999999999
 31
0.0
  0
LINE
  5
2E8
  8
0
 62
     7
 10
117.828
 20
128.041
 30
0.0
 11
117.828
 21
114.70699999999999
 31
0.0
  0
LINE
  5
2E9
  8
0
 62
     7
 10
117.328
 20
128.041
 30
0.0
 11
117.328
 21
114.70699999999999
 31
0.0
  0
LINE
  5
2EA
  8
0
 62
     7
 10
119.33
 20
114.70699999999999
 30
0.0
 11
117.828
 21
114.70699999999999
 31
0.0
  0
LINE
  5
2EB
  8
0
 62
     7
 10
119.33
 20
114.70699999999999
 30
0.0
 11
117.828
 21
114.70699999999999
 31
0.0
  0
LINE
  5
2EC
  8
0
 62
     7
 10
104.651
 20
120.791
 30
0.0
 11
102.134
 21
120.791
 31
0.0
  0
ARC
  5
2ED
  8
0
 62
     7
 10
113.23261599999999
 20
116.900509
 30
0.0
 40
12.497536
 50
148.33774399999999
 51
149.745733
  0
ARC
  5
2EE
  8
0
 62
     7
 10
104.63268100000001
 20
121.931971
 30
0.0
 40
2.533920999999999
 50
150.04406900000001
 51
157.980513
  0
ARC
  5
2EF
  8
0
 62
     7
 10
103.34416400000001
 20
122.470606
 30
0.0
 40
1.137562999999999
 50
158.799103
 51
170.853678
  0
ARC
  5
2F0
  8
0
 62
     7
 10
102.901729
 20
122.54943
 30
0.0
 40
0.6882640000000001
 50
171.47751
 51
199.20527799999999
  0
ARC
  5
2F1
  8
0
 62
     7
 10
102.931873
 20
122.57546600000001
 30
0.0
 40
0.725444
 50
200.364149
 51
206.231582
  0
ARC
  5
2F2
  8
0
 62
     7
 10
103.531148
 20
122.87256600000001
 30
0.0
 40
1.394320999999999
 50
206.29830200000001
 51
211.57671199999999
  0
ARC
  5
2F3
  8
0
 62
     7
 10
98.303646000000015
 20
119.578143
 30
0.0
 40
4.7847889999999991
 50
29.37044800000001
 51
32.406851000000003
  0
ARC
  5
2F4
  8
0
 62
     7
 10
101.89545200000001
 20
121.611688
 30
0.0
 40
0.6573720000000001
 50
12.308384999999999
 51
28.450925000000002
  0
ARC
  5
2F5
  8
0
 62
     7
 10
102.11023900000001
 20
121.676939
 30
0.0
 40
0.4339850000000001
 50
341.346046
 51
9.9360149999999994
  0
ARC
  5
2F6
  8
0
 62
     7
 10
101.725763
 20
121.775047
 30
0.0
 40
0.830187
 50
336.24213200000003
 51
343.418385
  0
ARC
  5
2F7
  8
0
 62
     7
 10
101.182362
 20
122.01539
 30
0.0
 40
1.424364999999999
 50
330.83145999999999
 51
336.19973499999998
  0
ARC
  5
2F8
  8
0
 62
     7
 10
98.073933000000011
 20
123.768565
 30
0.0
 40
4.9931019999999986
 50
327.89361400000001
 51
330.649382
  0
ARC
  5
2F9
  8
0
 62
     7
 10
104.164208
 20
119.925361
 30
0.0
 40
2.2084559999999991
 50
147.413737
 51
155.369809
  0
ARC
  5
2FA
  8
0
 62
     7
 10
103.305059
 20
120.34140499999999
 30
0.0
 40
1.254246999999999
 50
156.28953200000001
 51
179.529955
  0
ARC
  5
2FB
  8
0
 62
     7
 10
104.231088
 20
120.292717
 30
0.0
 40
2.1810309999999991
 50
178.45044899999999
 51
187.69666199999989
  0
ARC
  5
2FC
  8
0
 62
     7
 10
108.3691
 20
120.80241700000001
 30
0.0
 40
6.3502159999999996
 50
187.25375299999999
 51
190.85790499999999
  0
LINE
  5
2FD
  8
0
 62
     7
 10
106.566
 20
114.291
 30
0.0
 11
105.157
 21
114.291
 31
0.0
  0
ARC
  5
2FE
  8
0
 62
     7
 10
112.199887
 20
114.75961599999999
 30
0.0
 40
0.05241
 50
272.264049
 51
357.73596099999997
  0
LINE
  5
2FF
  8
0
 62
     7
 10
112.252
 20
114.758
 30
0.0
 11
112.252
 21
114.76000000000001
 31
0.0
  0
ARC
  5
300
  8
0
 62
     7
 10
106.755751
 20
114.75858599999999
 30
0.0
 40
0.051364
 50
185.010921
 51
268.26226200000002
  0
ARC
  5
301
  8
0
 62
     7
 10
107.300253
 20
114.75889100000001
 30
0.0
 40
0.051686
 50
272.28252600000002
 51
358.50775800000002
  0
LINE
  5
302
  8
0
 62
     7
 10
107.352
 20
114.758
 30
0.0
 11
107.352
 21
114.76000000000001
 31
0.0
  0
ARC
  5
303
  8
0
 62
     7
 10
107.430007
 20
114.342843
 30
0.0
 40
0.051792
 50
185.44379900000001
 51
268.225168
  0
ARC
  5
304
  8
0
 62
     7
 10
108.14461300000001
 20
114.34315599999999
 30
0.0
 40
0.05211
 50
271.92704400000002
 51
357.282692
  0
LINE
  5
305
  8
0
 62
     7
 10
108.197
 20
114.34099999999999
 30
0.0
 11
108.197
 21
114.34399999999999
 31
0.0
  0
ARC
  5
306
  8
0
 62
     7
 10
108.21252800000001
 20
114.926652
 30
0.0
 40
0.052704
 50
186.32778300000001
 51
267.73407500000002
  0
ARC
  5
307
  8
0
 62
     7
 10
108.27518499999999
 20
114.925708
 30
0.0
 40
0.051747
 50
271.93814099999997
 51
357.66536000000002
  0
LINE
  5
308
  8
0
 62
     7
 10
108.327
 20
114.92400000000001
 30
0.0
 11
108.327
 21
114.928
 31
0.0
  0
ARC
  5
309
  8
0
 62
     7
 10
108.38925399999999
 20
114.75914899999999
 30
0.0
 40
0.051931
 50
185.57899900000001
 51
268.089968
  0
ARC
  5
30A
  8
0
 62
     7
 10
108.933387
 20
114.75909799999999
 30
0.0
 40
0.051887
 50
272.10923700000001
 51
358.28455700000001
  0
LINE
  5
30B
  8
0
 62
     7
 10
108.985
 20
114.758
 30
0.0
 11
108.985
 21
114.76000000000001
 31
0.0
  0
ARC
  5
30C
  8
0
 62
     7
 10
111.41162
 20
114.342794
 30
0.0
 40
0.051747
 50
271.93814099999997
 51
357.66536000000002
  0
LINE
  5
30D
  8
0
 62
     7
 10
111.46299999999999
 20
114.34099999999999
 30
0.0
 11
111.46299999999999
 21
114.34399999999999
 31
0.0
  0
ARC
  5
30E
  8
0
 62
     7
 10
110.696506
 20
114.34229499999999
 30
0.0
 40
0.051239
 50
184.88677300000001
 51
268.38641100000001
  0
ARC
  5
30F
  8
0
 62
     7
 10
109.062831
 20
114.34229499999999
 30
0.0
 40
0.051239
 50
184.88677300000001
 51
268.38641100000001
  0
ARC
  5
310
  8
0
 62
     7
 10
109.77829
 20
114.342794
 30
0.0
 40
0.051747
 50
271.93814099999997
 51
357.66536000000002
  0
LINE
  5
311
  8
0
 62
     7
 10
109.83
 20
114.34099999999999
 30
0.0
 11
109.83
 21
114.34399999999999
 31
0.0
  0
ARC
  5
312
  8
0
 62
     7
 10
109.844987
 20
114.92533
 30
0.0
 40
0.051364
 50
185.010921
 51
268.26226200000002
  0
ARC
  5
313
  8
0
 62
     7
 10
109.908513
 20
114.92607
 30
0.0
 40
0.05211
 50
271.92704400000002
 51
357.282692
  0
ARC
  5
314
  8
0
 62
     7
 10
109.948232
 20
114.923669
 30
0.0
 40
0.012332
 50
359.678585
 51
19.246057
  0
ARC
  5
315
  8
0
 62
     7
 10
110.02328199999999
 20
114.75990899999999
 30
0.0
 40
0.052704
 50
186.32778300000001
 51
267.73407500000002
  0
ARC
  5
316
  8
0
 62
     7
 10
110.566557
 20
114.759258
 30
0.0
 40
0.052053
 50
272.27962100000002
 51
358.11417299999999
  0
LINE
  5
317
  8
0
 62
     7
 10
110.619
 20
114.758
 30
0.0
 11
110.619
 21
114.76000000000001
 31
0.0
  0
ARC
  5
318
  8
0
 62
     7
 10
113.008432
 20
114.925708
 30
0.0
 40
0.051747
 50
271.93814099999997
 51
357.66536000000002
  0
ARC
  5
319
  8
0
 62
     7
 10
113.03439899999999
 20
114.923536
 30
0.0
 40
0.025737
 50
0.141016
 51
9.3862660000000009
  0
ARC
  5
31A
  8
0
 62
     7
 10
111.542204
 20
114.925336
 30
0.0
 40
0.051375
 50
271.93654099999998
 51
358.063469
  0
LINE
  5
31B
  8
0
 62
     7
 10
111.59399999999999
 20
114.92400000000001
 30
0.0
 11
111.59399999999999
 21
114.928
 31
0.0
  0
ARC
  5
31C
  8
0
 62
     7
 10
111.478318
 20
114.92533
 30
0.0
 40
0.051364
 50
185.010921
 51
268.26226200000002
  0
ARC
  5
31D
  8
0
 62
     7
 10
112.87786199999999
 20
114.342794
 30
0.0
 40
0.051747
 50
271.93814099999997
 51
357.66536000000002
  0
LINE
  5
31E
  8
0
 62
     7
 10
112.93000000000001
 20
114.34099999999999
 30
0.0
 11
112.93000000000001
 21
114.34399999999999
 31
0.0
  0
ARC
  5
31F
  8
0
 62
     7
 10
112.32999700000001
 20
114.342843
 30
0.0
 40
0.051792
 50
185.44379900000001
 51
268.225168
  0
ARC
  5
320
  8
0
 62
     7
 10
111.65574100000001
 20
114.75858599999999
 30
0.0
 40
0.051364
 50
185.010921
 51
268.26226200000002
  0
ARC
  5
321
  8
0
 62
     7
 10
112.944559
 20
114.92533
 30
0.0
 40
0.051364
 50
185.010921
 51
268.26226200000002
  0
LINE
  5
322
  8
0
 62
     7
 10
106.289
 20
121.374
 30
0.0
 11
106.705
 21
114.754
 31
0.0
  0
LINE
  5
323
  8
0
 62
     7
 10
107.30200000000001
 20
114.70699999999999
 30
0.0
 11
106.754
 21
114.70699999999999
 31
0.0
  0
LINE
  5
324
  8
0
 62
     7
 10
108.146
 20
114.291
 30
0.0
 11
107.428
 21
114.291
 31
0.0
  0
LINE
  5
325
  8
0
 62
     7
 10
107.922
 20
121.374
 30
0.0
 11
108.33799999999999
 21
114.754
 31
0.0
  0
LINE
  5
326
  8
0
 62
     7
 10
108.277
 20
114.874
 30
0.0
 11
108.20999999999999
 21
114.874
 31
0.0
  0
LINE
  5
327
  8
0
 62
     7
 10
108.935
 20
114.70699999999999
 30
0.0
 11
108.38800000000001
 21
114.70699999999999
 31
0.0
  0
LINE
  5
328
  8
0
 62
     7
 10
109.55500000000001
 20
121.374
 30
0.0
 11
109.971
 21
114.754
 31
0.0
  0
LINE
  5
329
  8
0
 62
     7
 10
109.78
 20
114.291
 30
0.0
 11
109.06100000000001
 21
114.291
 31
0.0
  0
LINE
  5
32A
  8
0
 62
     7
 10
109.91
 20
114.874
 30
0.0
 11
109.843
 21
114.874
 31
0.0
  0
LINE
  5
32B
  8
0
 62
     7
 10
111.413
 20
114.291
 30
0.0
 11
110.69499999999999
 21
114.291
 31
0.0
  0
LINE
  5
32C
  8
0
 62
     7
 10
110.569
 20
114.70699999999999
 30
0.0
 11
110.021
 21
114.70699999999999
 31
0.0
  0
LINE
  5
32D
  8
0
 62
     7
 10
111.18899999999999
 20
121.374
 30
0.0
 11
111.605
 21
114.754
 31
0.0
  0
LINE
  5
32E
  8
0
 62
     7
 10
111.544
 20
114.874
 30
0.0
 11
111.477
 21
114.874
 31
0.0
  0
LINE
  5
32F
  8
0
 62
     7
 10
113.01000000000001
 20
114.874
 30
0.0
 11
112.943
 21
114.874
 31
0.0
  0
LINE
  5
330
  8
0
 62
     7
 10
112.488
 20
121.374
 30
0.0
 11
112.93000000000001
 21
114.34399999999999
 31
0.0
  0
LINE
  5
331
  8
0
 62
     7
 10
112.202
 20
114.70699999999999
 30
0.0
 11
111.654
 21
114.70699999999999
 31
0.0
  0
ARC
  5
332
  8
0
 62
     7
 10
113.122501
 20
114.75914899999999
 30
0.0
 40
0.051931
 50
185.57899900000001
 51
268.089968
  0
LINE
  5
333
  8
0
 62
     7
 10
112.88
 20
114.291
 30
0.0
 11
112.328
 21
114.291
 31
0.0
  0
LINE
  5
334
  8
0
 62
     7
 10
112.655
 20
121.374
 30
0.0
 11
113.071
 21
114.754
 31
0.0
  0
LINE
  5
335
  8
0
 62
     7
 10
111.837
 20
121.374
 30
0.0
 11
112.27800000000001
 21
114.33799999999999
 31
0.0
  0
LINE
  5
336
  8
0
 62
     7
 10
111.02200000000001
 20
121.374
 30
0.0
 11
111.46299999999999
 21
114.34399999999999
 31
0.0
  0
LINE
  5
337
  8
0
 62
     7
 10
110.203
 20
121.374
 30
0.0
 11
110.645
 21
114.33799999999999
 31
0.0
  0
LINE
  5
338
  8
0
 62
     7
 10
109.389
 20
121.374
 30
0.0
 11
109.83
 21
114.34399999999999
 31
0.0
  0
LINE
  5
339
  8
0
 62
     7
 10
108.56999999999999
 20
121.374
 30
0.0
 11
109.012
 21
114.33799999999999
 31
0.0
  0
LINE
  5
33A
  8
0
 62
     7
 10
107.755
 20
121.374
 30
0.0
 11
108.197
 21
114.34399999999999
 31
0.0
  0
LINE
  5
33B
  8
0
 62
     7
 10
106.93600000000001
 20
121.374
 30
0.0
 11
107.378
 21
114.33799999999999
 31
0.0
  0
LINE
  5
33C
  8
0
 62
     7
 10
106.122
 20
121.374
 30
0.0
 11
106.566
 21
114.291
 31
0.0
  0
ARC
  5
33D
  8
0
 62
     7
 10
121.048579
 20
114.65580799999999
 30
0.0
 40
0.051459
 50
2.0360819999999991
 51
88.360416999999998
  0
ARC
  5
33E
  8
0
 62
     7
 10
121.151606
 20
114.342699
 30
0.0
 40
0.051639
 50
182.23426499999999
 51
268.556039
  0
LINE
  5
33F
  8
0
 62
     7
 10
113.767
 20
114.70699999999999
 30
0.0
 11
113.121
 21
114.70699999999999
 31
0.0
  0
LINE
  5
340
  8
0
 62
     7
 10
115.767
 20
114.291
 30
0.0
 11
113.767
 21
114.291
 31
0.0
  0
LINE
  5
341
  8
0
 62
     7
 10
115.767
 20
121.374
 30
0.0
 11
115.767
 21
114.291
 31
0.0
  0
LINE
  5
342
  8
0
 62
     7
 10
113.767
 20
121.374
 30
0.0
 11
113.767
 21
114.291
 31
0.0
  0
LINE
  5
343
  8
0
 62
     7
 10
117.328
 20
114.70699999999999
 30
0.0
 11
115.767
 21
114.70699999999999
 31
0.0
  0
LINE
  5
344
  8
0
 62
     7
 10
119.33
 20
114.70699999999999
 30
0.0
 11
117.828
 21
114.70699999999999
 31
0.0
  0
LINE
  5
345
  8
0
 62
     7
 10
121.053
 20
114.70699999999999
 30
0.0
 11
119.82899999999999
 21
114.70699999999999
 31
0.0
  0
LINE
  5
346
  8
0
 62
     7
 10
122.09999999999999
 20
121.374
 30
0.0
 11
122.09999999999999
 21
114.291
 31
0.0
  0
LINE
  5
347
  8
0
 62
     7
 10
122.09999999999999
 20
114.291
 30
0.0
 11
121.15000000000001
 21
114.291
 31
0.0
  0
LINE
  5
348
  8
0
 62
     7
 10
121.09999999999999
 20
114.34099999999999
 30
0.0
 11
121.09999999999999
 21
121.374
 31
0.0
  0
LINE
  5
349
  8
0
 62
     7
 10
122.09999999999999
 20
121.374
 30
0.0
 11
122.09999999999999
 21
114.291
 31
0.0
  0
ARC
  5
34A
  8
0
  6
AIGENLINE002
 62
     7
 10
403.72718900000001
 20
208.602462
 30
0.0
 40
359.09307000000001
 50
184.73706999999999
 51
185.57754800000001
  0
ARC
  5
34B
  8
0
  6
AIGENLINE002
 62
     7
 10
237.47166799999999
 20
192.584823
 30
0.0
 40
192.06799699999999
 50
185.64228
 51
187.06017
  0
ARC
  5
34C
  8
0
  6
AIGENLINE002
 62
     7
 10
165.38364000000001
 20
183.86525499999999
 30
0.0
 40
119.455011
 50
187.15944500000001
 51
188.55077199999991
  0
ARC
  5
34D
  8
0
  6
AIGENLINE002
 62
     7
 10
132.47216
 20
178.97414000000001
 30
0.0
 40
86.182137999999995
 50
188.58847299999999
 51
190.383534
  0
ARC
  5
34E
  8
0
  6
AIGENLINE002
 62
     7
 10
110.073076
 20
174.92129600000001
 30
0.0
 40
63.419426999999999
 50
190.42929599999999
 51
192.69914900000001
  0
ARC
  5
34F
  8
0
  6
AIGENLINE002
 62
     7
 10
94.588708999999994
 20
171.47842700000001
 30
0.0
 40
47.557010999999989
 50
192.753727
 51
195.57243099999999
  0
ARC
  5
350
  8
0
  6
AIGENLINE002
 62
     7
 10
83.825066000000007
 20
168.521368
 30
0.0
 40
36.394663999999999
 50
195.63706099999999
 51
199.07476500000001
  0
ARC
  5
351
  8
0
  6
AIGENLINE002
 62
     7
 10
76.384379999999993
 20
165.98729299999999
 30
0.0
 40
28.534407000000002
 50
199.148437
 51
203.259265
  0
ARC
  5
352
  8
0
  6
AIGENLINE002
 62
     7
 10
71.380818999999988
 20
163.87198000000001
 30
0.0
 40
23.102201000000001
 50
203.33979600000001
 51
208.13548499999999
  0
ARC
  5
353
  8
0
  6
AIGENLINE002
 62
     7
 10
68.163748999999996
 20
162.18300600000001
 30
0.0
 40
19.468845000000002
 50
208.21682200000001
 51
213.65030899999999
  0
ARC
  5
354
  8
0
  6
AIGENLINE002
 62
     7
 10
66.020538000000002
 20
160.77789300000001
 30
0.0
 40
16.906165999999999
 50
213.71109500000011
 51
225.746611
  0
ARC
  5
355
  8
0
  6
AIGENLINE002
 62
     7
 10
65.696475000000007
 20
160.529391
 30
0.0
 40
16.502137999999999
 50
225.95042000000001
 51
235.22407300000009
  0
ARC
  5
356
  8
0
  6
AIGENLINE002
 62
     7
 10
66.880392000000001
 20
162.18508299999999
 30
0.0
 40
18.537393999999999
 50
235.137216
 51
240.8460950000001
  0
ARC
  5
357
  8
0
  6
AIGENLINE002
 62
     7
 10
68.392204000000007
 20
164.85073899999989
 30
0.0
 40
21.601851
 50
240.7885600000001
 51
245.92548600000001
  0
ARC
  5
358
  8
0
  6
AIGENLINE002
 62
     7
 10
70.343040999999985
 20
169.132811
 30
0.0
 40
26.307267
 50
245.850604
 51
250.32508799999999
  0
ARC
  5
359
  8
0
  6
AIGENLINE002
 62
     7
 10
72.684547999999992
 20
175.54417699999999
 30
0.0
 40
33.132702000000002
 50
250.24518399999999
 51
254.04424399999999
  0
ARC
  5
35A
  8
0
  6
AIGENLINE002
 62
     7
 10
75.387647000000001
 20
184.78579300000001
 30
0.0
 40
42.761386000000002
 50
253.965881
 51
257.12935099999999
  0
ARC
  5
35B
  8
0
  6
AIGENLINE002
 62
     7
 10
78.459054000000009
 20
197.90716800000001
 30
0.0
 40
56.237295999999994
 50
257.05656599999998
 51
259.64841999999999
  0
ARC
  5
35C
  8
0
  6
AIGENLINE002
 62
     7
 10
81.939352
 20
216.49527499999999
 30
0.0
 40
75.148269999999997
 50
259.58468699999997
 51
261.67654199999998
  0
ARC
  5
35D
  8
0
  6
AIGENLINE002
 62
     7
 10
85.901720999999995
 20
242.920074
 30
0.0
 40
101.868369
 50
261.62292000000002
 51
263.28678100000002
  0
ARC
  5
35E
  8
0
  6
AIGENLINE002
 62
     7
 10
90.456789999999984
 20
280.68264099999999
 30
0.0
 40
139.90455399999999
 50
263.24198100000001
 51
264.54693500000002
  0
ARC
  5
35F
  8
0
  6
AIGENLINE002
 62
     7
 10
97.008432000000013
 20
348.14211399999999
 30
0.0
 40
207.681366
 50
264.516233
 51
265.96042799999998
  0
ARC
  5
360
  8
0
  6
AIGENLINE002
 62
     7
 10
108.64841
 20
505.34471100000002
 30
0.0
 40
365.31379299999998
 50
265.87623200000002
 51
266.78840600000001
  0
ARC
  5
361
  8
0
  6
AIGENLINE002
 62
     7
 10
129.61901700000001
 20
865.13192200000015
 30
0.0
 40
725.71120699999994
 50
266.726741
 51
267.23475000000002
  0
ARC
  5
362
  8
0
  6
AIGENLINE002
 62
     7
 10
186.487909
 20
2014.1099999999999
 30
0.0
 40
1876.0951399999999
 50
267.19287400000002
 51
267.33491900000001
  0
ARC
  5
363
  8
0
  6
AIGENLINE002
 62
     7
 10
-537.46497399999987
 20
-13666.5
 30
0.0
 40
13821.219999999999
 50
87.311524000000006
 51
87.359543000000016
  0
ARC
  5
364
  8
0
  6
AIGENLINE002
 62
     7
 10
0.423248
 20
-2180.0758300000002
 30
0.0
 40
2322.2069999999999
 50
87.170884999999998
 51
87.275032999999993
  0
ARC
  5
365
  8
0
  6
AIGENLINE002
 62
     7
 10
1722.1989999999989
 20
348.655959
 30
0.0
 40
1682.9737500000001
 50
185.792036
 51
185.92571599999991
  0
ARC
  5
366
  8
0
  6
AIGENLINE002
 62
     7
 10
397.72448100000003
 20
211.35607400000001
 30
0.0
 40
351.40214600000002
 50
185.953543
 51
186.76737199999999
  0
ARC
  5
367
  8
0
  6
AIGENLINE002
 62
     7
 10
190.935622
 20
187.12318500000001
 30
0.0
 40
143.19878600000001
 50
186.88883100000001
 51
188.425003
  0
ARC
  5
368
  8
0
  6
AIGENLINE002
 62
     7
 10
131.927885
 20
178.569694
 30
0.0
 40
83.574821999999983
 50
188.55134899999999
 51
190.16298699999999
  0
ARC
  5
369
  8
0
  6
AIGENLINE002
 62
     7
 10
107.55882
 20
174.25109499999999
 30
0.0
 40
58.826120999999993
 50
190.210758
 51
192.349816
  0
ARC
  5
36A
  8
0
  6
AIGENLINE002
 62
     7
 10
91.878387000000004
 20
170.86242999999999
 30
0.0
 40
42.783788999999992
 50
192.40803299999999
 51
195.1586439999999
  0
ARC
  5
36B
  8
0
  6
AIGENLINE002
 62
     7
 10
81.528182999999984
 20
168.09790599999999
 30
0.0
 40
32.070834999999988
 50
195.22682599999999
 51
198.66812200000001
  0
ARC
  5
36C
  8
0
  6
AIGENLINE002
 62
     7
 10
74.682146000000003
 20
165.82036199999999
 30
0.0
 40
24.855991
 50
198.7455719999999
 51
202.93161499999999
  0
ARC
  5
36D
  8
0
  6
AIGENLINE002
 62
     7
 10
70.221969999999999
 20
163.96520000000001
 30
0.0
 40
20.025490000000001
 50
203.01537999999999
 51
207.955455
  0
ARC
  5
36E
  8
0
  6
AIGENLINE002
 62
     7
 10
67.178783999999993
 20
162.37346199999999
 30
0.0
 40
16.591237
 50
208.02658500000001
 51
216.58154300000001
  0
ARC
  5
36F
  8
0
  6
AIGENLINE002
 62
     7
 10
65.625022000000001
 20
161.28801799999999
 30
0.0
 40
14.696764
 50
216.79349500000001
 51
232.703329
  0
ARC
  5
370
  8
0
  6
AIGENLINE002
 62
     7
 10
66.676090000000002
 20
162.634162
 30
0.0
 40
16.404533000000001
 50
232.631911
 51
238.61149800000001
  0
ARC
  5
371
  8
0
  6
AIGENLINE002
 62
     7
 10
68.101406000000011
 20
164.933222
 30
0.0
 40
19.109506
 50
238.553664
 51
243.969999
  0
ARC
  5
372
  8
0
  6
AIGENLINE002
 62
     7
 10
69.990433999999993
 20
168.72897499999999
 30
0.0
 40
23.349240999999999
 50
243.89226600000001
 51
248.62975
  0
ARC
  5
373
  8
0
  6
AIGENLINE002
 62
     7
 10
72.285710999999992
 20
174.473727
 30
0.0
 40
29.535429000000001
 50
248.54417100000001
 51
252.58219600000001
  0
ARC
  5
374
  8
0
  6
AIGENLINE002
 62
     7
 10
74.961761999999993
 20
182.81294199999999
 30
0.0
 40
38.293354000000001
 50
252.49674999999999
 51
255.87282500000001
  0
ARC
  5
375
  8
0
  6
AIGENLINE002
 62
     7
 10
78.021158999999997
 20
194.68580499999999
 30
0.0
 40
50.553908
 50
255.79462599999999
 51
258.57416400000011
  0
ARC
  5
376
  8
0
  6
AIGENLINE002
 62
     7
 10
81.468085000000002
 20
211.33546799999999
 30
0.0
 40
67.556488999999999
 50
258.50603999999998
 51
260.76854700000001
  0
ARC
  5
377
  8
0
  6
AIGENLINE002
 62
     7
 10
85.324562
 20
234.49121600000001
 30
0.0
 40
91.031045999999989
 50
260.71076199999999
 51
262.53623399999998
  0
ARC
  5
378
  8
0
  6
AIGENLINE002
 62
     7
 10
89.674813999999998
 20
266.88531499999999
 30
0.0
 40
123.71581500000001
 50
262.48741100000001
 51
263.945763
  0
ARC
  5
379
  8
0
  6
AIGENLINE002
 62
     7
 10
95.604631000000012
 20
321.828666
 30
0.0
 40
178.97816599999999
 50
263.91315300000002
 51
265.58497399999999
  0
ARC
  5
37A
  8
0
  6
AIGENLINE002
 62
     7
 10
104.962431
 20
437.03527300000002
 30
0.0
 40
294.56363700000003
 50
265.49523699999997
 51
266.63571400000001
  0
ARC
  5
37B
  8
0
  6
AIGENLINE002
 62
     7
 10
118.006378
 20
649.05085800000006
 30
0.0
 40
506.97963899999991
 50
266.57022499999999
 51
267.310428
  0
ARC
  5
37C
  8
0
  6
AIGENLINE002
 62
     7
 10
141.33929800000001
 20
1131.624
 30
0.0
 40
990.11665999999991
 50
267.272088
 51
267.69335999999998
  0
ARC
  5
37D
  8
0
  6
AIGENLINE002
 62
     7
 10
185.48075
 20
2207.0320000000002
 30
0.0
 40
2066.4290000000001
 50
267.67054300000001
 51
267.81694900000002
  0
ARC
  5
37E
  8
0
  6
AIGENLINE002
 62
     7
 10
362.026704
 20
6858.201
 30
0.0
 40
6720.9479999999994
 50
267.823397
 51
267.89664900000002
  0
LINE
  5
37F
  8
0
 62
     7
 10
142.94
 20
133.328
 30
0.0
 11
123.33499999999999
 21
133.328
 31
0.0
  0
LINE
  5
380
  8
0
 62
     7
 10
142.44
 20
133.328
 30
0.0
 11
142.94
 21
133.328
 31
0.0
  0
ARC
  5
381
  8
0
 62
     7
 10
139.26759999999999
 20
125.400817
 30
0.0
 40
0.8276309999999998
 50
94.089631999999995
 51
179.89947599999999
  0
LINE
  5
382
  8
0
 62
     7
 10
138.44
 20
125.402
 30
0.0
 11
138.441
 21
125.396
 31
0.0
  0
ARC
  5
383
  8
0
 62
     7
 10
138.31424899999999
 20
127.973062
 30
0.0
 40
1.962359999999999
 50
297.11257699999999
 51
3.0629900000000001
  0
LINE
  5
384
  8
0
 62
     7
 10
125.068
 20
126.79600000000001
 30
0.0
 11
122.107
 21
126.848
 31
0.0
  0
LINE
  5
385
  8
0
 62
     7
 10
138.441
 20
125.46599999999999
 30
0.0
 11
138.441
 21
115.828
 31
0.0
  0
LINE
  5
386
  8
0
 62
     7
 10
123.96599999999999
 20
112.327
 30
0.0
 11
123.96599999999999
 21
114.578
 31
0.0
  0
LINE
  5
387
  8
0
 62
     7
 10
143.107
 20
132.495
 30
0.0
 11
143.107
 21
133.16200000000001
 31
0.0
  0
LINE
  5
388
  8
0
 62
     7
 10
142.94
 20
132.32900000000001
 30
0.0
 11
121.503
 21
132.32900000000001
 31
0.0
  0
LINE
  5
389
  8
0
 62
     7
 10
124.732
 20
108.995
 30
0.0
 11
123.96599999999999
 21
108.995
 31
0.0
  0
LINE
  5
38A
  8
0
 62
     7
 10
138.91499999999999
 20
115.411
 30
0.0
 11
138.91499999999999
 21
112.327
 31
0.0
  0
LINE
  5
38B
  8
0
 62
     7
 10
138.149
 20
108.995
 30
0.0
 11
124.732
 21
108.995
 31
0.0
  0
LINE
  5
38C
  8
0
 62
     7
 10
138.91499999999999
 20
108.995
 30
0.0
 11
138.17699999999999
 21
108.995
 31
0.0
  0
ARC
  5
38D
  8
0
 62
     7
 10
75.150471999999993
 20
116.27336099999999
 30
0.0
 40
53.367356999999998
 50
5.6943330000000003
 51
6.3605169999999998
  0
ARC
  5
38E
  8
0
 62
     7
 10
127.552584
 20
122.146839
 30
0.0
 40
0.637921
 50
3.4850259999999991
 51
15.261415
  0
ARC
  5
38F
  8
0
 62
     7
 10
127.61181000000001
 20
122.155086
 30
0.0
 40
0.5786630000000002
 50
16.017271999999998
 51
19.383579999999998
  0
ARC
  5
390
  8
0
 62
     7
 10
129.25218100000001
 20
122.73718599999999
 30
0.0
 40
1.161931
 50
198.03498200000001
 51
199.614474
  0
ARC
  5
391
  8
0
 62
     7
 10
123.43208300000001
 20
120.705169
 30
0.0
 40
5.0030159999999997
 50
19.527276000000001
 51
20.552016999999999
  0
ARC
  5
392
  8
0
 62
     7
 10
123.08984599999999
 20
120.639921
 30
0.0
 40
5.3467029999999989
 50
19.919226999999999
 51
21.109670000000001
  0
ARC
  5
393
  8
0
 62
     7
 10
122.379998
 20
120.43067000000001
 30
0.0
 40
6.0845779999999987
 50
20.540464
 51
21.534552999999999
  0
ARC
  5
394
  8
0
 62
     7
 10
123.861425
 20
120.961271
 30
0.0
 40
4.5120750000000003
 50
22.172184000000001
 51
23.215401
  0
ARC
  5
395
  8
0
 62
     7
 10
126.320229
 20
122.03515899999999
 30
0.0
 40
1.8291329999999999
 50
22.660914999999999
 51
25.163715
  0
ARC
  5
396
  8
0
 62
     7
 10
112.93572
 20
115.669173
 30
0.0
 40
16.650411999999999
 50
25.406849999999999
 51
25.864450000000009
  0
LINE
  5
397
  8
0
 62
     7
 10
127.91800000000001
 20
122.93300000000001
 30
0.0
 11
127.855
 21
123.06399999999999
 31
0.0
  0
ARC
  5
398
  8
0
 62
     7
 10
95.477827000000005
 20
106.945234
 30
0.0
 40
36.167656000000001
 50
26.466808
 51
26.663288000000001
  0
LINE
  5
399
  8
0
 62
     7
 10
127.79900000000001
 20
123.175
 30
0.0
 11
127.768
 21
123.233
 31
0.0
  0
ARC
  5
39A
  8
0
 62
     7
 10
125.909013
 20
122.269339
 30
0.0
 40
2.0943489999999998
 50
27.40198599999999
 51
29.114066999999999
  0
ARC
  5
39B
  8
0
 62
     7
 10
122.73440600000001
 20
120.509865
 30
0.0
 40
5.7239300000000002
 50
29.039638
 51
30.29378599999999
  0
ARC
  5
39C
  8
0
 62
     7
 10
157.634863
 20
140.75895700000001
 30
0.0
 40
34.625419999999998
 50
209.83580799999999
 51
210.0937560000001
  0
LINE
  5
39D
  8
0
 62
     7
 10
127.599
 20
123.532
 30
0.0
 11
127.51600000000001
 21
123.673
 31
0.0
  0
ARC
  5
39E
  8
0
 62
     7
 10
25.406030000000001
 20
61.666106000000013
 30
0.0
 40
119.462621
 50
31.268343999999999
 51
31.33989600000001
  0
ARC
  5
39F
  8
0
 62
     7
 10
124.246185
 20
121.872899
 30
0.0
 40
3.729187
 50
31.120467999999999
 51
33.487825000000001
  0
ARC
  5
3A0
  8
0
 62
     7
 10
122.832576
 20
121.013373
 30
0.0
 40
5.382763999999999
 50
32.815877999999998
 51
34.418828999999988
  0
ARC
  5
3A1
  8
0
 62
     7
 10
141.50264999999999
 20
134.01837499999999
 30
0.0
 40
17.370505000000001
 50
214.407748
 51
214.996577
  0
ARC
  5
3A2
  8
0
 62
     7
 10
-19.790945000000001
 20
21.943304999999999
 30
0.0
 40
179.03879900000001
 50
34.830986000000003
 51
34.895212999999998
  0
ARC
  5
3A3
  8
0
 62
     7
 10
-19.905470999999999
 20
20.233385999999999
 30
0.0
 40
180.11590100000001
 50
35.320509000000001
 51
35.383392000000001
  0
ARC
  5
3A4
  8
0
 62
     7
 10
117.351072
 20
117.759996
 30
0.0
 40
11.739006
 50
35.211040000000011
 51
36.050981999999998
  0
ARC
  5
3A5
  8
0
 62
     7
 10
99.926978000000005
 20
105.05225799999999
 30
0.0
 40
33.304846999999988
 50
36.085318999999998
 51
36.307115000000003
  0
ARC
  5
3A6
  8
0
 62
     7
 10
76.245456000000004
 20
86.378901999999997
 30
0.0
 40
63.453749000000002
 50
37.233466
 51
37.351554
  0
ARC
  5
3A7
  8
0
 62
     7
 10
111.658736
 20
113.44573699999999
 30
0.0
 40
18.881215000000001
 50
37.258080999999997
 51
37.923032999999997
  0
ARC
  5
3A8
  8
0
 62
     7
 10
69.850712000000001
 20
81.127125000000007
 30
0.0
 40
71.724311999999998
 50
37.762310999999997
 51
37.959609999999998
  0
ARC
  5
3A9
  8
0
 62
     7
 10
56.592574999999989
 20
70.397592000000003
 30
0.0
 40
88.777938000000006
 50
38.156118999999997
 51
38.298769
  0
ARC
  5
3AA
  8
0
 62
     7
 10
122.194659
 20
122.295834
 30
0.0
 40
5.1300299999999996
 50
37.500083000000011
 51
38.851025
  0
ARC
  5
3AB
  8
0
 62
     7
 10
133.726662
 20
131.741848
 30
0.0
 40
9.7770860000000006
 50
218.83345299999999
 51
219.56814199999999
  0
ARC
  5
3AC
  8
0
 62
     7
 10
136.67299800000001
 20
134.36366000000001
 30
0.0
 40
13.717612000000001
 50
219.04792699999999
 51
219.647097
  0
LINE
  5
3AD
  8
0
 62
     7
 10
126.02
 20
125.72199999999999
 30
0.0
 11
125.925
 21
125.837
 31
0.0
  0
ARC
  5
3AE
  8
0
 62
     7
 10
-47.191288
 20
-16.425260000000002
 30
0.0
 40
224.071181
 50
39.412401000000003
 51
39.443193999999998
  0
ARC
  5
3AF
  8
0
 62
     7
 10
126.693074
 20
126.650262
 30
0.0
 40
1.1097589999999991
 50
218.391536
 51
220.46409900000009
  0
ARC
  5
3B0
  8
0
 62
     7
 10
128.734093
 20
128.42536000000001
 30
0.0
 40
3.8138800000000002
 50
219.58973499999999
 51
220.25108
  0
ARC
  5
3B1
  8
0
 62
     7
 10
144.66340600000001
 20
141.89075700000001
 30
0.0
 40
24.671782
 50
219.8289620000001
 51
220.112922
  0
ARC
  5
3B2
  8
0
 62
     7
 10
133.33802299999999
 20
132.518643
 30
0.0
 40
9.9716830000000005
 50
219.45772400000001
 51
220.15344999999999
  0
ARC
  5
3B3
  8
0
 62
     7
 10
128.44807800000001
 20
128.59153599999999
 30
0.0
 40
3.7012459999999989
 50
220.02505099999999
 51
220.626653
  0
ARC
  5
3B4
  8
0
 62
     7
 10
124.478447
 20
125.276346
 30
0.0
 40
1.4706939999999991
 50
39.467646999999999
 51
40.94388
  0
LINE
  5
3B5
  8
0
 62
     7
 10
125.589
 20
126.23999999999999
 30
0.0
 11
125.526
 21
126.315
 31
0.0
  0
LINE
  5
3B6
  8
0
 62
     7
 10
125.526
 20
126.315
 30
0.0
 11
125.45
 21
126.404
 31
0.0
  0
ARC
  5
3B7
  8
0
 62
     7
 10
118.713578
 20
120.680241
 30
0.0
 40
8.8399169999999998
 50
40.353552999999998
 51
41.048664000000002
  0
LINE
  5
3B8
  8
0
 62
     7
 10
125.38
 20
126.485
 30
0.0
 11
125.339
 21
126.53400000000001
 31
0.0
  0
ARC
  5
3B9
  8
0
 62
     7
 10
124.27197700000001
 20
125.651128
 30
0.0
 40
1.3850379999999991
 50
39.618763999999999
 51
42.144848000000003
  0
ARC
  5
3BA
  8
0
 62
     7
 10
122.55911500000001
 20
124.239372
 30
0.0
 40
3.6038000000000001
 50
40.513494000000001
 51
42.147445000000012
  0
ARC
  5
3BB
  8
0
 62
     7
 10
124.518776
 20
126.010069
 30
0.0
 40
0.9626599999999999
 50
42.277282
 51
48.965516999999991
  0
ARC
  5
3BC
  8
0
 62
     7
 10
124.70522699999999
 20
126.204497
 30
0.0
 40
0.6937140000000001
 50
50.039135999999999
 51
58.527957999999998
  0
ARC
  5
3BD
  8
0
 62
     7
 10
125.204149
 20
116.083724
 30
0.0
 40
0.226927
 50
283.88535000000002
 51
300.17356699999999
  0
ARC
  5
3BE
  8
0
 62
     7
 10
125.24937300000001
 20
115.993251
 30
0.0
 40
0.126144
 50
303.07124800000003
 51
318.87223499999999
  0
LINE
  5
3BF
  8
0
 62
     7
 10
125.34399999999999
 20
115.91
 30
0.0
 11
125.34699999999999
 21
115.913
 31
0.0
  0
LINE
  5
3C0
  8
0
 62
     7
 10
125.34699999999999
 20
115.913
 30
0.0
 11
125.34999999999999
 21
115.917
 31
0.0
  0
ARC
  5
3C1
  8
0
 62
     7
 10
125.25766900000001
 20
116.008484
 30
0.0
 40
0.129544
 50
315.180454
 51
323.61696499999999
  0
ARC
  5
3C2
  8
0
 62
     7
 10
125.20792
 20
116.07586000000001
 30
0.0
 40
0.211016
 50
316.88603899999998
 51
322.529674
  0
ARC
  5
3C3
  8
0
 62
     7
 10
125.341319
 20
115.982173
 30
0.0
 40
0.048624
 50
314.49464499999999
 51
323.13351399999999
  0
LINE
  5
3C4
  8
0
 62
     7
 10
125.38
 20
115.953
 30
0.0
 11
125.384
 21
115.956
 31
0.0
  0
ARC
  5
3C5
  8
0
 62
     7
 10
129.58711199999999
 20
112.393798
 30
0.0
 40
5.5101209999999989
 50
139.160492
 51
139.71691000000001
  0
ARC
  5
3C6
  8
0
 62
     7
 10
122.418063
 20
118.59491
 30
0.0
 40
3.9687540000000001
 50
319.11325399999998
 51
320.15768100000003
  0
ARC
  5
3C7
  8
0
 62
     7
 10
124.41946799999999
 20
116.993852
 30
0.0
 40
1.407289999999999
 50
318.001577
 51
321.026409
  0
ARC
  5
3C8
  8
0
 62
     7
 10
123.486763
 20
117.86698800000001
 30
0.0
 40
2.6831610000000001
 50
319.05781899999999
 51
320.65539799999999
  0
LINE
  5
3C9
  8
0
 62
     7
 10
125.562
 20
116.166
 30
0.0
 11
125.637
 21
116.255
 31
0.0
  0
ARC
  5
3CA
  8
0
 62
     7
 10
127.982068
 20
114.371167
 30
0.0
 40
3.0077129999999999
 50
138.91393500000001
 51
141.224874
  0
ARC
  5
3CB
  8
0
 62
     7
 10
118.604761
 20
122.30556300000001
 30
0.0
 40
9.2763949999999991
 50
320.04030799999998
 51
320.653864
  0
ARC
  5
3CC
  8
0
 62
     7
 10
125.416414
 20
116.755128
 30
0.0
 40
0.490449
 50
317.580377
 51
322.00809600000002
  0
ARC
  5
3CD
  8
0
 62
     7
 10
125.10060199999999
 20
117.057976
 30
0.0
 40
0.9268159999999999
 50
319.26989800000013
 51
321.645217
  0
ARC
  5
3CE
  8
0
 62
     7
 10
136.09922700000001
 20
108.039565
 30
0.0
 40
13.296606000000001
 50
140.05947699999999
 51
140.58027999999999
  0
ARC
  5
3CF
  8
0
 62
     7
 10
129.18270200000001
 20
113.949085
 30
0.0
 40
4.2007399999999997
 50
139.57558499999999
 51
141.29454699999999
  0
ARC
  5
3D0
  8
0
 62
     7
 10
126.700107
 20
116.123903
 30
0.0
 40
0.901749
 50
139.32648399999999
 51
142.4857669999999
  0
ARC
  5
3D1
  8
0
 62
     7
 10
125.37680400000001
 20
117.254198
 30
0.0
 40
0.8385739999999998
 50
319.68202200000002
 51
322.99837000000002
  0
LINE
  5
3D2
  8
0
 62
     7
 10
126.047
 20
116.75
 30
0.0
 11
126.13500000000001
 21
116.858
 31
0.0
  0
ARC
  5
3D3
  8
0
 62
     7
 10
136.14859999999999
 20
108.91483599999999
 30
0.0
 40
12.781402
 50
140.933235
 51
141.57480000000001
  0
ARC
  5
3D4
  8
0
 62
     7
 10
123.219926
 20
119.404157
 30
0.0
 40
3.8672169999999988
 50
320.99163700000003
 51
321.80154199999998
  0
ARC
  5
3D5
  8
0
 62
     7
 10
124.89386
 20
118.137659
 30
0.0
 40
1.7689790000000001
 50
320.51128399999999
 51
322.28189500000002
  0
LINE
  5
3D6
  8
0
 62
     7
 10
126.29300000000001
 20
117.05500000000001
 30
0.0
 11
126.354
 21
117.133
 31
0.0
  0
ARC
  5
3D7
  8
0
 62
     7
 10
134.59407100000001
 20
110.716326
 30
0.0
 40
10.443566000000001
 50
141.47751199999999
 51
142.08855399999999
  0
ARC
  5
3D8
  8
0
 62
     7
 10
89.184091000000009
 20
146.39623399999999
 30
0.0
 40
47.307208000000003
 50
321.92280099999999
 51
322.03932200000003
  0
LINE
  5
3D9
  8
0
 62
     7
 10
126.483
 20
117.297
 30
0.0
 11
126.51600000000001
 21
117.339
 31
0.0
  0
LINE
  5
3DA
  8
0
 62
     7
 10
126.51600000000001
 20
117.339
 30
0.0
 11
126.547
 21
117.379
 31
0.0
  0
ARC
  5
3DB
  8
0
 62
     7
 10
119.571433
 20
122.753513
 30
0.0
 40
8.8055229999999991
 50
322.38697999999999
 51
323.32626099999999
  0
LINE
  5
3DC
  8
0
 62
     7
 10
126.634
 20
117.494
 30
0.0
 11
126.74299999999999
 21
117.63800000000001
 31
0.0
  0
LINE
  5
3DD
  8
0
 62
     7
 10
126.74299999999999
 20
117.63800000000001
 30
0.0
 11
126.848
 21
117.77800000000001
 31
0.0
  0
ARC
  5
3DE
  8
0
 62
     7
 10
120.56383700000001
 20
122.481853
 30
0.0
 40
7.8493830000000004
 50
323.18483700000002
 51
324.30749500000002
  0
ARC
  5
3DF
  8
0
 62
     7
 10
117.041048
 20
125.089493
 30
0.0
 40
12.231999
 50
324.01473199999998
 51
324.72946100000001
  0
ARC
  5
3E0
  8
0
 62
     7
 10
196.71489399999999
 20
70.304743999999999
 30
0.0
 40
84.460954000000001
 50
145.499302
 51
145.59679700000001
  0
LINE
  5
3E1
  8
0
 62
     7
 10
127.10899999999999
 20
118.145
 30
0.0
 11
127.196
 21
118.27200000000001
 31
0.0
  0
LINE
  5
3E2
  8
0
 62
     7
 10
127.196
 20
118.27200000000001
 30
0.0
 11
127.276
 21
118.392
 31
0.0
  0
ARC
  5
3E3
  8
0
 62
     7
 10
123.28456
 20
121.127875
 30
0.0
 40
4.8393300000000004
 50
325.57603699999999
 51
326.94944299999997
  0
ARC
  5
3E4
  8
0
 62
     7
 10
129.35073700000001
 20
117.188216
 30
0.0
 40
2.3938919999999988
 50
145.71151
 51
147.09741700000001
  0
ARC
  5
3E5
  8
0
 62
     7
 10
132.049778
 20
115.65018499999999
 30
0.0
 40
5.496016
 50
147.67271600000001
 51
148.316485
  0
LINE
  5
3E6
  8
0
 62
     7
 10
127.40600000000001
 20
118.589
 30
0.0
 11
127.468
 21
118.688
 31
0.0
  0
LINE
  5
3E7
  8
0
 62
     7
 10
127.468
 20
118.688
 30
0.0
 11
127.539
 21
118.806
 31
0.0
  0
ARC
  5
3E8
  8
0
 62
     7
 10
111.237791
 20
128.73300599999999
 30
0.0
 40
19.086449999999999
 50
328.65898600000003
 51
329.02879000000001
  0
ARC
  5
3E9
  8
0
 62
     7
 10
135.363069
 20
114.39093200000001
 30
0.0
 40
8.9804979999999972
 50
149.31617399999999
 51
149.78022300000001
  0
ARC
  5
3EA
  8
0
 62
     7
 10
125.81104499999999
 20
120.039052
 30
0.0
 40
2.1165129999999999
 50
329.77731399999999
 51
331.74400500000002
  0
ARC
  5
3EB
  8
0
 62
     7
 10
123.861638
 20
121.19295700000001
 30
0.0
 40
4.380901999999999
 50
330.52061500000002
 51
332.18415900000002
  0
ARC
  5
3EC
  8
0
 62
     7
 10
114.90588200000001
 20
126.094711
 30
0.0
 40
14.589987000000001
 50
331.57022899999998
 51
332.14100500000001
  0
ARC
  5
3ED
  8
0
 62
     7
 10
211.02835899999999
 20
76.015563
 30
0.0
 40
93.795970999999994
 50
152.453439
 51
152.533635
  0
ARC
  5
3EE
  8
0
 62
     7
 10
125.273607
 20
120.73275
 30
0.0
 40
2.917565999999999
 50
332.67094900000001
 51
334.19895500000001
  0
ARC
  5
3EF
  8
0
 62
     7
 10
126.49983400000001
 20
120.162233
 30
0.0
 40
1.565393
 50
333.46436
 51
336.44324399999999
  0
ARC
  5
3F0
  8
0
 62
     7
 10
119.67125900000001
 20
123.30285499999999
 30
0.0
 40
9.0813140000000008
 50
335.49803600000001
 51
336.15085900000003
  0
ARC
  5
3F1
  8
0
 62
     7
 10
185.73764600000001
 20
94.964283999999992
 30
0.0
 40
62.807023999999998
 50
156.77516499999999
 51
156.87499099999999
  0
ARC
  5
3F2
  8
0
 62
     7
 10
123.331717
 20
121.76620699999999
 30
0.0
 40
5.1109289999999996
 50
336.541268
 51
337.53119100000009
  0
ARC
  5
3F3
  8
0
 62
     7
 10
128.86444
 20
119.492485
 30
0.0
 40
0.8708670000000001
 50
156.348759
 51
158.41147599999999
  0
ARC
  5
3F4
  8
0
 62
     7
 10
128.91647800000001
 20
119.538546
 30
0.0
 40
0.9022629999999999
 50
158.25208699999999
 51
160.356977
  0
ARC
  5
3F5
  8
0
 62
     7
 10
121.16243799999999
 20
122.487225
 30
0.0
 40
7.3936429999999991
 50
339.29252300000002
 51
340.06120800000002
  0
ARC
  5
3F6
  8
0
 62
     7
 10
125.180059
 20
121.07549
 30
0.0
 40
3.1357179999999998
 50
339.27619099999998
 51
341.096227
  0
ARC
  5
3F7
  8
0
 62
     7
 10
126.72651
 20
120.571307
 30
0.0
 40
1.5095229999999991
 50
340.184121
 51
341.45786800000008
  0
ARC
  5
3F8
  8
0
 62
     7
 10
122.466601
 20
121.983547
 30
0.0
 40
5.9974160000000003
 50
341.60812499999997
 51
341.91307799999998
  0
ARC
  5
3F9
  8
0
 62
     7
 10
123.886855
 20
121.46709199999999
 30
0.0
 40
4.4872819999999987
 50
342.55156699999998
 51
343.71911800000009
  0
ARC
  5
3FA
  8
0
 62
     7
 10
121.323852
 20
122.258816
 30
0.0
 40
7.169582000000001
 50
343.38790400000011
 51
344.28798
  0
ARC
  5
3FB
  8
0
 62
     7
 10
122.324005
 20
122.005262
 30
0.0
 40
6.1381949999999987
 50
344.03815600000001
 51
344.86596800000001
  0
LINE
  5
3FC
  8
0
 62
     7
 10
140.904
 20
134.42500000000001
 30
0.0
 11
140.56999999999999
 21
134.42500000000001
 31
0.0
  0
LINE
  5
3FD
  8
0
 62
     7
 10
140.23699999999999
 20
134.42500000000001
 30
0.0
 11
139.904
 21
134.42500000000001
 31
0.0
  0
LINE
  5
3FE
  8
0
 62
     7
 10
141.999
 20
134.42500000000001
 30
0.0
 11
139.43799999999999
 21
134.42500000000001
 31
0.0
  0
LINE
  5
3FF
  8
0
 62
     7
 10
123.501
 20
133.494
 30
0.0
 11
141.999
 21
133.494
 31
0.0
  0
LINE
  5
400
  8
0
 62
     7
 10
139.43799999999999
 20
133.494
 30
0.0
 11
141.60499999999999
 21
133.494
 31
0.0
  0
LINE
  5
401
  8
0
 62
     7
 10
139.43799999999999
 20
133.494
 30
0.0
 11
141.27099999999999
 21
133.494
 31
0.0
  0
LINE
  5
402
  8
0
 62
     7
 10
139.43799999999999
 20
133.494
 30
0.0
 11
140.93799999999999
 21
133.494
 31
0.0
  0
LINE
  5
403
  8
0
 62
     7
 10
139.43799999999999
 20
133.494
 30
0.0
 11
140.60499999999999
 21
133.494
 31
0.0
  0
LINE
  5
404
  8
0
 62
     7
 10
139.43799999999999
 20
133.494
 30
0.0
 11
140.27099999999999
 21
133.494
 31
0.0
  0
LINE
  5
405
  8
0
 62
     7
 10
141.999
 20
134.42500000000001
 30
0.0
 11
141.999
 21
133.494
 31
0.0
  0
LINE
  5
406
  8
0
 62
     7
 10
140.904
 20
133.494
 30
0.0
 11
140.56999999999999
 21
133.494
 31
0.0
  0
LINE
  5
407
  8
0
 62
     7
 10
140.23699999999999
 20
133.494
 30
0.0
 11
139.904
 21
133.494
 31
0.0
  0
LINE
  5
408
  8
0
 62
     7
 10
122.039
 20
134.42500000000001
 30
0.0
 11
122.373
 21
134.42500000000001
 31
0.0
  0
LINE
  5
409
  8
0
 62
     7
 10
122.705
 20
134.42500000000001
 30
0.0
 11
123.039
 21
134.42500000000001
 31
0.0
  0
LINE
  5
40A
  8
0
 62
     7
 10
120.944
 20
134.42500000000001
 30
0.0
 11
139.666
 21
134.42500000000001
 31
0.0
  0
LINE
  5
40B
  8
0
 62
     7
 10
123.505
 20
133.494
 30
0.0
 11
120.944
 21
133.494
 31
0.0
  0
LINE
  5
40C
  8
0
 62
     7
 10
123.505
 20
133.494
 30
0.0
 11
121.33799999999999
 21
133.494
 31
0.0
  0
LINE
  5
40D
  8
0
 62
     7
 10
123.505
 20
133.494
 30
0.0
 11
121.672
 21
133.494
 31
0.0
  0
LINE
  5
40E
  8
0
 62
     7
 10
123.505
 20
133.494
 30
0.0
 11
122.005
 21
133.494
 31
0.0
  0
LINE
  5
40F
  8
0
 62
     7
 10
123.505
 20
133.494
 30
0.0
 11
122.339
 21
133.494
 31
0.0
  0
LINE
  5
410
  8
0
 62
     7
 10
123.505
 20
133.494
 30
0.0
 11
122.672
 21
133.494
 31
0.0
  0
LINE
  5
411
  8
0
 62
     7
 10
120.944
 20
134.42500000000001
 30
0.0
 11
120.944
 21
133.494
 31
0.0
  0
LINE
  5
412
  8
0
 62
     7
 10
122.039
 20
133.494
 30
0.0
 11
122.373
 21
133.494
 31
0.0
  0
LINE
  5
413
  8
0
 62
     7
 10
122.705
 20
133.494
 30
0.0
 11
123.039
 21
133.494
 31
0.0
  0
LINE
  5
414
  8
0
 62
     7
 10
123.501
 20
133.328
 30
0.0
 11
121.501
 21
133.328
 31
0.0
  0
LINE
  5
415
  8
0
 62
     7
 10
123.33499999999999
 20
133.328
 30
0.0
 11
120.501
 21
133.328
 31
0.0
  0
LINE
  5
416
  8
0
 62
     7
 10
120.501
 20
133.328
 30
0.0
 11
123.501
 21
133.328
 31
0.0
  0
LINE
  5
417
  8
0
 62
     7
 10
123.474
 20
133.328
 30
0.0
 11
119.94
 21
133.328
 31
0.0
  0
LINE
  5
418
  8
0
 62
     7
 10
122.107
 20
114.245
 30
0.0
 11
122.107
 21
114.911
 31
0.0
  0
LINE
  5
419
  8
0
 62
     7
 10
122.107
 20
132.32900000000001
 30
0.0
 11
119.94
 21
132.32900000000001
 31
0.0
  0
LINE
  5
41A
  8
0
 62
     7
 10
122.107
 20
114.328
 30
0.0
 11
122.107
 21
114.911
 31
0.0
  0
LINE
  5
41B
  8
0
 62
     7
 10
138.91499999999999
 20
115.494
 30
0.0
 11
138.91499999999999
 21
115.411
 31
0.0
  0
LINE
  5
41C
  8
0
 62
     7
 10
122.107
 20
115.80800000000001
 30
0.0
 11
125.259
 21
115.863
 31
0.0
  0
LINE
  5
41D
  8
0
 62
     7
 10
119.774
 20
133.16200000000001
 30
0.0
 11
119.774
 21
132.495
 31
0.0
  0
LINE
  5
41E
  8
0
 62
     7
 10
138.74799999999999
 20
115.66200000000001
 30
0.0
 11
125.264
 21
115.66200000000001
 31
0.0
  0
LINE
  5
41F
  8
0
 62
     7
 10
123.633
 20
114.911
 30
0.0
 11
122.94
 21
114.911
 31
0.0
  0
LINE
  5
420
  8
0
 62
     7
 10
123.474
 20
133.328
 30
0.0
 11
119.94
 21
133.328
 31
0.0
  0
LINE
  5
421
  8
0
  6
AIGENLINE002
 62
     7
 10
140.71899999999999
 20
137.08600000000001
 30
0.0
 11
140.923
 21
137.08600000000001
 31
0.0
  0
LINE
  5
422
  8
0
 62
     7
 10
142.46199999999999
 20
138.15700000000001
 30
0.0
 11
121.328
 21
138.15700000000001
 31
0.0
  0
ARC
  5
423
  8
0
  6
AIGENLINE002
 62
     7
 10
122.21816099999999
 20
140.49879300000001
 30
0.0
 40
5.9131549999999997
 50
222.662387
 51
269.65410200000002
  0
ARC
  5
424
  8
0
  6
AIGENLINE002
 62
     7
 10
122.21816099999999
 20
140.49879300000001
 30
0.0
 40
5.9131549999999997
 50
222.662387
 51
269.65410200000002
  0
ARC
  5
425
  8
0
  6
AIGENLINE002
 62
     7
 10
122.21816099999999
 20
140.49879300000001
 30
0.0
 40
5.9131549999999997
 50
222.662387
 51
269.65410200000002
  0
ARC
  5
426
  8
0
  6
AIGENLINE002
 62
     7
 10
122.202422
 20
140.46403000000001
 30
0.0
 40
3.377877999999999
 50
222.66359
 51
269.661449
  0
LINE
  5
427
  8
0
  6
AIGENLINE002
 62
     7
 10
117.87
 20
136.49199999999999
 30
0.0
 11
115.553
 21
139.035
 31
0.0
  0
LINE
  5
428
  8
0
  6
AIGENLINE002
 62
     7
 10
117.87
 20
136.49199999999999
 30
0.0
 11
115.553
 21
139.035
 31
0.0
  0
LINE
  5
429
  8
0
  6
AIGENLINE002
 62
     7
 10
119.71899999999999
 20
138.17500000000001
 30
0.0
 11
117.401
 21
140.71799999999999
 31
0.0
  0
LINE
  5
42A
  8
0
  6
AIGENLINE002
 62
     7
 10
117.87
 20
136.49199999999999
 30
0.0
 11
115.553
 21
139.035
 31
0.0
  0
ARC
  5
42B
  8
0
  6
AIGENLINE002
 62
     7
 10
114.932433
 20
138.46576899999999
 30
0.0
 40
0.8419579999999999
 50
42.516801999999998
 51
82.609565000000003
  0
ARC
  5
42C
  8
0
  6
AIGENLINE002
 62
     7
 10
114.932433
 20
138.46576899999999
 30
0.0
 40
0.8419579999999999
 50
42.516801999999998
 51
82.609565000000003
  0
ARC
  5
42D
  8
0
  6
AIGENLINE002
 62
     7
 10
114.91950199999999
 20
138.44091399999999
 30
0.0
 40
3.3682080000000001
 50
42.537178999999988
 51
82.619543000000007
  0
ARC
  5
42E
  8
0
  6
AIGENLINE002
 62
     7
 10
114.932433
 20
138.46576899999999
 30
0.0
 40
0.8419579999999999
 50
42.516801999999998
 51
82.609565000000003
  0
ARC
  5
42F
  8
0
  6
AIGENLINE002
 62
     7
 10
114.91950199999999
 20
138.44091399999999
 30
0.0
 40
3.3682080000000001
 50
42.537178999999988
 51
82.619543000000007
  0
LINE
  5
430
  8
0
  6
AIGENLINE002
 62
     7
 10
122.386
 20
134.58600000000001
 30
0.0
 11
122.386
 21
137.08600000000001
 31
0.0
  0
LINE
  5
431
  8
0
  6
AIGENLINE002
 62
     7
 10
122.386
 20
134.58600000000001
 30
0.0
 11
122.386
 21
137.08600000000001
 31
0.0
  0
LINE
  5
432
  8
0
  6
AIGENLINE002
 62
     7
 10
122.182
 20
137.08600000000001
 30
0.0
 11
122.386
 21
137.08600000000001
 31
0.0
  0
LINE
  5
433
  8
0
  6
AIGENLINE002
 62
     7
 10
148.16999999999999
 20
141.60400000000001
 30
0.0
 11
152.23500000000001
 21
141.69900000000001
 31
0.0
  0
LINE
  5
434
  8
0
  6
AIGENLINE002
 62
     7
 10
148.00800000000001
 20
139.10599999999999
 30
0.0
 11
154.416
 21
139.244
 31
0.0
  0
ARC
  5
435
  8
0
  6
AIGENLINE002
 62
     7
 10
140.888609
 20
140.49610300000001
 30
0.0
 40
5.9104570000000001
 50
270.33209500000009
 51
316.81084299999998
  0
LINE
  5
436
  8
0
  6
AIGENLINE002
 62
     7
 10
140.71899999999999
 20
134.58600000000001
 30
0.0
 11
140.71899999999999
 21
137.08600000000001
 31
0.0
  0
ARC
  5
437
  8
0
  6
AIGENLINE002
 62
     7
 10
140.90306299999989
 20
140.46397999999999
 30
0.0
 40
3.377826999999999
 50
270.335916
 51
316.81005599999997
  0
LINE
  5
438
  8
0
  6
AIGENLINE002
 62
     7
 10
143.36600000000001
 20
138.15199999999999
 30
0.0
 11
145.583
 21
140.541
 31
0.0
  0
ARC
  5
439
  8
0
  6
AIGENLINE002
 62
     7
 10
148.030809
 20
138.26190600000001
 30
0.0
 40
0.844818
 50
91.517335000000003
 51
136.777545
  0
LINE
  5
43A
  8
0
  6
AIGENLINE002
 62
     7
 10
145.19800000000001
 20
136.45099999999999
 30
0.0
 11
147.41499999999999
 21
138.84
 31
0.0
  0
ARC
  5
43B
  8
0
  6
AIGENLINE002
 62
     7
 10
148.04814400000001
 20
138.22172900000001
 30
0.0
 40
3.384592
 50
87.942299000000006
 51
136.745769
  0
LINE
  5
43C
  8
0
 62
     7
 10
143.739
 20
139.65700000000001
 30
0.0
 11
128.917
 21
139.65700000000001
 31
0.0
  0
LINE
  5
43D
  8
0
 62
     7
 10
134.017
 20
139.65700000000001
 30
0.0
 11
133.13399999999999
 21
139.65700000000001
 31
0.0
  0
LINE
  5
43E
  8
0
 62
     7
 10
128.917
 20
139.65700000000001
 30
0.0
 11
129.80099999999999
 21
139.65700000000001
 31
0.0
  0
LINE
  5
43F
  8
0
 62
     7
 10
128.251
 20
139.65700000000001
 30
0.0
 11
126.634
 21
139.65700000000001
 31
0.0
  0
LINE
  5
440
  8
0
 62
     7
 10
136.30099999999999
 20
139.65700000000001
 30
0.0
 11
134.684
 21
139.65700000000001
 31
0.0
  0
LINE
  5
441
  8
0
 62
     7
 10
126.634
 20
139.65700000000001
 30
0.0
 11
128.251
 21
139.65700000000001
 31
0.0
  0
LINE
  5
442
  8
0
 62
     7
 10
121.634
 20
138.15700000000001
 30
0.0
 11
120.473
 21
138.15700000000001
 31
0.0
  0
ARC
  5
443
  8
0
 62
     7
 10
119.38190400000001
 20
139.242007
 30
0.0
 40
0.41502
 50
91.043334999999999
 51
176.93260900000001
  0
ARC
  5
444
  8
0
 62
     7
 10
119.37551499999999
 20
139.26098200000001
 30
0.0
 40
0.4080490000000001
 50
179.54609500000001
 51
239.31748400000001
  0
LINE
  5
445
  8
0
 62
     7
 10
119.167
 20
138.91
 30
0.0
 11
120.473
 21
138.15700000000001
 31
0.0
  0
ARC
  5
446
  8
0
 62
     7
 10
121.575205
 20
136.428642
 30
0.0
 40
1.7293229999999991
 50
4.1206990000000001
 51
88.040229000000011
  0
LINE
  5
447
  8
0
  6
AIGENLINE001
 62
     7
 10
131.46700000000001
 20
143.37299999999999
 30
0.0
 11
131.46700000000001
 21
106.331
 31
0.0
  0
LINE
  5
448
  8
0
 62
     7
 10
123.3
 20
136.596
 30
0.0
 11
123.3
 21
134.42500000000001
 31
0.0
  0
LINE
  5
449
  8
0
 62
     7
 10
141.30000000000001
 20
138.15700000000001
 30
0.0
 11
142.46199999999999
 21
138.15700000000001
 31
0.0
  0
ARC
  5
44A
  8
0
 62
     7
 10
141.359656
 20
136.428586
 30
0.0
 40
1.7293929999999991
 50
91.973283999999992
 51
175.87759199999999
  0
LINE
  5
44B
  8
0
 62
     7
 10
139.63499999999999
 20
136.553
 30
0.0
 11
139.63499999999999
 21
134.42500000000001
 31
0.0
  0
ARC
  5
44C
  8
0
 62
     7
 10
143.54512199999999
 20
139.26247499999999
 30
0.0
 40
0.416714
 50
302.25208000000009
 51
27.849162
  0
ARC
  5
44D
  8
0
 62
     7
 10
143.562163
 20
139.248052
 30
0.0
 40
0.4089090000000001
 50
30.752685
 51
90.240281000000024
  0
LINE
  5
44E
  8
0
 62
     7
 10
143.767
 20
138.91
 30
0.0
 11
142.46199999999999
 21
138.15700000000001
 31
0.0
  0
ARC
  5
44F
  8
0
 62
     7
 10
143.81605400000001
 20
140.14168100000001
 30
0.0
 40
0.4850680000000001
 50
272.159873
 51
357.92470600000001
  0
ARC
  5
450
  8
0
 62
     7
 10
143.81965600000001
 20
140.112516
 30
0.0
 40
0.481288
 50
1.381062
 51
75.040980000000005
  0
LINE
  5
451
  8
0
 62
     7
 10
143.30099999999999
 20
139.65700000000001
 30
0.0
 11
140.869
 21
139.65700000000001
 31
0.0
  0
LINE
  5
452
  8
0
 62
     7
 10
129.40899999999999
 20
139.65700000000001
 30
0.0
 11
119.634
 21
139.65700000000001
 31
0.0
  0
ARC
  5
453
  8
0
 62
     7
 10
119.123856
 20
140.10970900000001
 30
0.0
 40
0.486311
 50
105.865908
 51
191.36567500000001
  0
ARC
  5
454
  8
0
 62
     7
 10
119.112072
 20
140.13812100000001
 30
0.0
 40
0.481304
 50
194.960444
 51
268.61753399999998
  0
LINE
  5
455
  8
0
 62
     7
 10
143.86099999999999
 20
139.65700000000001
 30
0.0
 11
143.30099999999999
 21
139.65700000000001
 31
0.0
  0
ARC
  5
456
  8
0
 62
     7
 10
131.46739700000001
 20
36.521362000000003
 30
0.0
 40
104.801438
 50
83.162778000000003
 51
96.837202000000005
  0
LINE
  5
457
  8
0
 62
     7
 10
28.3767
 20
173.358
 30
0.0
 11
28.860099999999999
 21
173.358
 31
0.0
  0
LINE
  5
458
  8
0
 62
     7
 10
40.7774
 20
173.358
 30
0.0
 11
35.277299999999997
 21
173.358
 31
0.0
  0
LINE
  5
459
  8
0
 62
     7
 10
42.360500000000002
 20
173.358
 30
0.0
 11
41.693800000000003
 21
173.358
 31
0.0
  0
LINE
  5
45A
  8
0
 62
     7
 10
28.860099999999999
 20
173.358
 30
0.0
 11
28.3767
 21
173.358
 31
0.0
  0
LINE
  5
45B
  8
0
 62
     7
 10
34.6937
 20
173.358
 30
0.0
 11
29.776800000000001
 21
173.358
 31
0.0
  0
LINE
  5
45C
  8
0
 62
     7
 10
42.277099999999997
 20
173.358
 30
0.0
 11
41.693800000000003
 21
173.358
 31
0.0
  0
LINE
  5
45D
  8
0
 62
     7
 10
28.860099999999999
 20
173.358
 30
0.0
 11
28.3767
 21
173.358
 31
0.0
  0
LINE
  5
45E
  8
0
 62
     7
 10
41.693800000000003
 20
173.358
 30
0.0
 11
42.277099999999997
 21
173.358
 31
0.0
  0
LINE
  5
45F
  8
0
 62
     7
 10
42.177199999999992
 20
174.02500000000001
 30
0.0
 11
39.527200000000001
 21
174.02500000000001
 31
0.0
  0
LINE
  5
460
  8
0
 62
     7
 10
41.793399999999991
 20
173.358
 30
0.0
 11
42.177199999999992
 21
173.358
 31
0.0
  0
ARC
  5
461
  8
0
 62
     7
 10
44.09035999999999
 20
185.4617649999999
 30
0.0
 40
0.10367
 50
272.04300000000001
 51
357.95701000000003
  0
LINE
  5
462
  8
0
 62
     7
 10
44.094099999999997
 20
185.358
 30
0.0
 11
40.527000000000001
 21
185.358
 31
0.0
  0
ARC
  5
463
  8
0
 62
     7
 10
40.590338000000003
 20
183.62841399999999
 30
0.0
 40
1.730907
 50
92.097658999999993
 51
177.91415599999999
  0
LINE
  5
464
  8
0
 62
     7
 10
38.860599999999998
 20
190.22
 30
0.0
 11
38.860599999999998
 21
174.69099999999989
 31
0.0
  0
ARC
  5
465
  8
0
 62
     7
 10
39.552869000000001
 20
174.716871
 30
0.0
 40
0.69276
 50
182.10803000000001
 51
267.87719600000003
  0
LINE
  5
466
  8
0
 62
     7
 10
38.860599999999998
 20
173.358
 30
0.0
 11
40.7774
 21
173.358
 31
0.0
  0
ARC
  5
467
  8
0
 62
     7
 10
42.19812499999999
 20
173.02922100000001
 30
0.0
 40
21.082377999999999
 50
120.946511
 51
122.534114
  0
ARC
  5
468
  8
0
 62
     7
 10
38.911208000000002
 20
178.43466100000001
 30
0.0
 40
14.756211
 50
118.10827399999999
 51
120.79378199999999
  0
ARC
  5
469
  8
0
 62
     7
 10
38.489842000000003
 20
179.11751000000001
 30
0.0
 40
13.955465999999999
 50
116.339393
 51
117.903188
  0
ARC
  5
46A
  8
0
 62
     7
 10
37.173214999999999
 20
181.66086000000001
 30
0.0
 40
11.092110999999999
 50
114.026516
 51
116.073452
  0
ARC
  5
46B
  8
0
 62
     7
 10
36.209468000000001
 20
183.791428
 30
0.0
 40
8.7537529999999997
 50
108.43886000000001
 51
113.94297299999999
  0
ARC
  5
46C
  8
0
 62
     7
 10
35.913849999999996
 20
184.46738400000001
 30
0.0
 40
8.0192740000000011
 50
104.788754
 51
107.962717
  0
ARC
  5
46D
  8
0
 62
     7
 10
35.540705000000003
 20
185.63734400000001
 30
0.0
 40
6.793107
 50
100.45627399999999
 51
104.264593
  0
ARC
  5
46E
  8
0
 62
     7
 10
35.505821000000012
 20
185.666313
 30
0.0
 40
6.7583500000000001
 50
99.368281999999994
 51
100.210022
  0
ARC
  5
46F
  8
0
 62
     7
 10
30.826749
 20
191.02424199999999
 30
0.0
 40
0.6327080000000001
 50
179.95943700000001
 51
185.0042719999999
  0
ARC
  5
470
  8
0
 62
     7
 10
30.619693000000002
 20
191.00196
 30
0.0
 40
0.4245180000000001
 50
184.446078
 51
191.49318
  0
ARC
  5
471
  8
0
 62
     7
 10
30.609310000000001
 20
191.001721
 30
0.0
 40
0.414299
 50
191.74694299999999
 51
205.05799200000001
  0
ARC
  5
472
  8
0
 62
     7
 10
30.47824
 20
190.94816
 30
0.0
 40
0.272971
 50
206.52592200000001
 51
243.952234
  0
ARC
  5
473
  8
0
 62
     7
 10
30.481059999999999
 20
190.970564
 30
0.0
 40
0.294428
 50
245.37387799999999
 51
267.34301299999998
  0
ARC
  5
474
  8
0
 62
     7
 10
30.493327000000001
 20
191.106887
 30
0.0
 40
0.4312140000000001
 50
266.55444799999998
 51
280.27553599999999
  0
ARC
  5
475
  8
0
 62
     7
 10
30.464706
 20
191.29290700000001
 30
0.0
 40
0.619375
 50
279.81108699999999
 51
293.030508
  0
ARC
  5
476
  8
0
 62
     7
 10
30.382055000000001
 20
191.52802
 30
0.0
 40
0.86823
 50
291.98003699999998
 51
303.39868799999999
  0
LINE
  5
477
  8
0
 62
     7
 10
38.193899999999999
 20
173.358
 30
0.0
 11
28.7605
 21
173.358
 31
0.0
  0
ARC
  5
478
  8
0
 62
     7
 10
42.173217000000001
 20
173.92070899999999
 30
0.0
 40
0.103953
 50
2.092978
 51
87.808311000000003
  0
LINE
  5
479
  8
0
 62
     7
 10
42.277099999999997
 20
173.458
 30
0.0
 11
42.277099999999997
 21
173.92500000000001
 31
0.0
  0
ARC
  5
47A
  8
0
 62
     7
 10
42.173513999999997
 20
173.46135899999999
 30
0.0
 40
0.103641
 50
272.03424799999999
 51
358.16299400000003
  0
ARC
  5
47B
  8
0
 62
     7
 10
28.919357000000002
 20
174.368605
 30
0.0
 40
0.344144
 50
271.54726899999997
 51
349.11902500000008
  0
LINE
  5
47C
  8
0
 62
     7
 10
29.257300000000001
 20
174.304
 30
0.0
 11
29.527100000000001
 21
175.93899999999999
 31
0.0
  0
LINE
  5
47D
  8
0
 62
     7
 10
28.3767
 20
173.358
 30
0.0
 11
28.7605
 21
173.358
 31
0.0
  0
ARC
  5
47E
  8
0
 62
     7
 10
28.381218000000001
 20
173.46179599999999
 30
0.0
 40
0.104108
 50
182.06906900000001
 51
267.53582
  0
LINE
  5
47F
  8
0
 62
     7
 10
28.277200000000001
 20
173.92500000000001
 30
0.0
 11
28.277200000000001
 21
173.458
 31
0.0
  0
ARC
  5
480
  8
0
 62
     7
 10
28.380571
 20
173.921212
 30
0.0
 40
0.103446
 50
92.121420999999984
 51
178.175162
  0
LINE
  5
481
  8
0
 62
     7
 10
28.928599999999999
 20
174.02500000000001
 30
0.0
 11
28.3767
 21
174.02500000000001
 31
0.0
  0
LINE
  5
482
  8
0
 62
     7
 10
29.527100000000001
 20
191.02500000000001
 30
0.0
 11
29.527100000000001
 21
175.93899999999999
 31
0.0
  0
LINE
  5
483
  8
0
 62
     7
 10
29.527100000000001
 20
191.02500000000001
 30
0.0
 11
29.527100000000001
 21
204.358
 31
0.0
  0
ARC
  5
484
  8
0
 62
     7
 10
30.910990000000002
 20
204.30750499999999
 30
0.0
 40
1.384849999999999
 50
92.110804000000002
 51
177.90397300000001
  0
LINE
  5
485
  8
0
 62
     7
 10
30.859999999999999
 20
205.691
 30
0.0
 11
35.784399999999998
 21
205.691
 31
0.0
  0
ARC
  5
486
  8
0
 62
     7
 10
35.777628999999997
 20
206.034175
 30
0.0
 40
0.342827
 50
271.13714599999997
 51
339.44344700000011
  0
ARC
  5
487
  8
0
 62
     7
 10
36.740625000000001
 20
205.67250999999999
 30
0.0
 40
0.6858420000000001
 50
91.136865999999984
 51
159.4018209999999
  0
LINE
  5
488
  8
0
 62
     7
 10
36.726999999999997
 20
206.358
 30
0.0
 11
42.527200000000001
 21
206.358
 31
0.0
  0
ARC
  5
489
  8
0
 62
     7
 10
42.527129999999993
 20
207.02458999999999
 30
0.0
 40
0.6663720000000001
 50
270.00742500000001
 51
0.007396
  0
LINE
  5
48A
  8
0
 62
     7
 10
43.1935
 20
185.36099999999999
 30
0.0
 11
43.1935
 21
209.691
 31
0.0
  0
LINE
  5
48B
  8
0
 62
     7
 10
43.1935
 20
209.691
 30
0.0
 11
43.527000000000001
 21
210.02500000000001
 31
0.0
  0
LINE
  5
48C
  8
0
 62
     7
 10
43.527000000000001
 20
210.02500000000001
 30
0.0
 11
44.094099999999997
 21
210.02500000000001
 31
0.0
  0
ARC
  5
48D
  8
0
 62
     7
 10
44.090255999999989
 20
209.920975
 30
0.0
 40
0.103778
 50
2.0984519999999991
 51
87.901539000000014
  0
LINE
  5
48E
  8
0
 62
     7
 10
44.193999999999988
 20
209.92500000000001
 30
0.0
 11
44.19189999999999
 21
185.43899999999999
 31
0.0
  0
LINE
  5
48F
  8
0
 62
     7
 10
44.193999999999988
 20
186.52500000000001
 30
0.0
 11
45.860700000000001
 21
186.52500000000001
 31
0.0
  0
LINE
  5
490
  8
0
 62
     7
 10
45.860700000000001
 20
189.65799999999999
 30
0.0
 11
45.860700000000001
 21
189.02500000000001
 31
0.0
  0
LINE
  5
491
  8
0
 62
     7
 10
45.860700000000001
 20
188.691
 30
0.0
 11
45.860700000000001
 21
188.358
 31
0.0
  0
LINE
  5
492
  8
0
 62
     7
 10
45.860700000000001
 20
188.02500000000001
 30
0.0
 11
45.860700000000001
 21
187.691
 31
0.0
  0
LINE
  5
493
  8
0
 62
     7
 10
45.860700000000001
 20
187.358
 30
0.0
 11
45.860700000000001
 21
186.52500000000001
 31
0.0
  0
LINE
  5
494
  8
0
 62
     7
 10
45.860700000000001
 20
189.554
 30
0.0
 11
45.860700000000001
 21
208.858
 31
0.0
  0
LINE
  5
495
  8
0
 62
     7
 10
45.860700000000001
 20
194.95400000000001
 30
0.0
 11
45.860700000000001
 21
195.625
 31
0.0
  0
LINE
  5
496
  8
0
 62
     7
 10
45.860700000000001
 20
190.916
 30
0.0
 11
45.860700000000001
 21
191.9679999999999
 31
0.0
  0
LINE
  5
497
  8
0
 62
     7
 10
45.860700000000001
 20
186.52500000000001
 30
0.0
 11
45.860700000000001
 21
189.72499999999999
 31
0.0
  0
LINE
  5
498
  8
0
 62
     7
 10
45.826900000000002
 20
186.52500000000001
 30
0.0
 11
44.22699999999999
 21
186.52500000000001
 31
0.0
  0
LINE
  5
499
  8
0
 62
     7
 10
45.860700000000001
 20
208.858
 30
0.0
 11
45.860700000000001
 21
208.02500000000001
 31
0.0
  0
LINE
  5
49A
  8
0
 62
     7
 10
45.860700000000001
 20
207.691
 30
0.0
 11
45.860700000000001
 21
207.358
 31
0.0
  0
LINE
  5
49B
  8
0
 62
     7
 10
45.860700000000001
 20
207.02500000000001
 30
0.0
 11
45.860700000000001
 21
206.691
 31
0.0
  0
LINE
  5
49C
  8
0
 62
     7
 10
45.860700000000001
 20
206.358
 30
0.0
 11
45.860700000000001
 21
205.72499999999999
 31
0.0
  0
LINE
  5
49D
  8
0
 62
     7
 10
44.22699999999999
 20
208.858
 30
0.0
 11
45.826900000000002
 21
208.858
 31
0.0
  0
LINE
  5
49E
  8
0
 62
     7
 10
44.193999999999988
 20
208.858
 30
0.0
 11
45.860700000000001
 21
208.858
 31
0.0
  0
LINE
  5
49F
  8
0
 62
     7
 10
42.017699999999991
 20
190.22499999999999
 30
0.0
 11
41.889200000000002
 21
190.22499999999999
 31
0.0
  0
LINE
  5
4A0
  8
0
 62
     7
 10
40.478099999999998
 20
190.22499999999999
 30
0.0
 11
40.349899999999991
 21
190.22499999999999
 31
0.0
  0
LINE
  5
4A1
  8
0
 62
     7
 10
48.0167
 20
185.69800000000001
 30
0.0
 11
48.0167
 21
185.9379999999999
 31
0.0
  0
LINE
  5
4A2
  8
0
 62
     7
 10
47.816800000000001
 20
186.041
 30
0.0
 11
47.816800000000001
 21
189.05799999999999
 31
0.0
  0
LINE
  5
4A3
  8
0
 62
     7
 10
47.816800000000001
 20
206.32499999999999
 30
0.0
 11
47.816800000000001
 21
209.34100000000001
 31
0.0
  0
ARC
  5
4A4
  8
0
 62
     7
 10
47.124279000000001
 20
206.35072700000001
 30
0.0
 40
0.693056
 50
272.17356599999999
 51
357.85606200000001
  0
ARC
  5
4A5
  8
0
 62
     7
 10
47.124559000000012
 20
189.03240400000001
 30
0.0
 40
0.6927590000000001
 50
2.106843
 51
87.848726000000013
  0
ARC
  5
4A6
  8
0
 62
     7
 10
47.92130499999999
 20
209.337142
 30
0.0
 40
0.10454
 50
92.304081000000011
 51
177.69588899999999
  0
ARC
  5
4A7
  8
0
 62
     7
 10
47.920744999999997
 20
186.04514900000001
 30
0.0
 40
0.103965
 50
182.10616999999999
 51
267.992391
  0
LINE
  5
4A8
  8
0
 62
     7
 10
47.917099999999998
 20
185.941
 30
0.0
 11
48.0167
 21
185.941
 31
0.0
  0
LINE
  5
4A9
  8
0
 62
     7
 10
48.0167
 20
209.44200000000001
 30
0.0
 11
47.917099999999998
 21
209.44200000000001
 31
0.0
  0
LINE
  5
4AA
  8
0
 62
     7
 10
45.868299999999991
 20
189.72499999999999
 30
0.0
 11
47.150599999999997
 21
189.72499999999999
 31
0.0
  0
LINE
  5
4AB
  8
0
 62
     7
 10
49.338200000000001
 20
190.51900000000001
 30
0.0
 11
49.341700000000003
 21
204.864
 31
0.0
  0
LINE
  5
4AC
  8
0
 62
     7
 10
47.917099999999998
 20
185.691
 30
0.0
 11
47.917099999999998
 21
185.32400000000001
 31
0.0
  0
ARC
  5
4AD
  8
0
 62
     7
 10
-55.815702000000002
 20
197.72501299999999
 30
0.0
 40
105.400561
 50
353.21301
 51
356.07953400000002
  0
LINE
  5
4AE
  8
0
 62
     7
 10
47.917099999999998
 20
210.05799999999999
 30
0.0
 11
47.917099999999998
 21
209.691
 31
0.0
  0
ARC
  5
4AF
  8
0
 62
     7
 10
-55.377320999999988
 20
197.6987409999999
 30
0.0
 40
104.960398
 50
3.9144540000000001
 51
6.7930020000000004
  0
LINE
  5
4B0
  8
0
 62
     7
 10
48.0167
 20
185.941
 30
0.0
 11
47.917099999999998
 21
185.941
 31
0.0
  0
LINE
  5
4B1
  8
0
 62
     7
 10
47.917099999999998
 20
209.44200000000001
 30
0.0
 11
48.0167
 21
209.44200000000001
 31
0.0
  0
ARC
  5
4B2
  8
0
 62
     7
 10
48.401400000000002
 20
185.34221400000001
 30
0.0
 40
0.484625
 50
182.10678200000001
 51
267.85091599999998
  0
ARC
  5
4B3
  8
0
 62
     7
 10
48.369859999999989
 20
185.339304
 30
0.0
 40
0.4815600000000001
 50
271.59055799999999
 51
351.5971009999999
  0
ARC
  5
4B4
  8
0
 62
     7
 10
48.367947999999991
 20
210.03900699999991
 30
0.0
 40
0.484105
 50
8.8805049999999994
 51
94.720956000000015
  0
ARC
  5
4B5
  8
0
 62
     7
 10
48.399627000000002
 20
210.044059
 30
0.0
 40
0.4827390000000001
 50
98.520222000000004
 51
178.29209900000001
  0
ARC
  5
4B6
  8
0
 62
     7
 10
131.46739700000001
 20
36.521362000000003
 30
0.0
 40
104.801438
 50
83.162778000000003
 51
96.837202000000005
  0
LINE
  5
4B7
  8
0
 62
     7
 10
143.86099999999999
 20
139.65700000000001
 30
0.0
 11
143.30099999999999
 21
139.65700000000001
 31
0.0
  0
ARC
  5
4B8
  8
0
 62
     7
 10
119.123856
 20
140.10970900000001
 30
0.0
 40
0.486311
 50
105.865908
 51
191.36567500000001
  0
ARC
  5
4B9
  8
0
 62
     7
 10
119.112072
 20
140.13812100000001
 30
0.0
 40
0.481304
 50
194.960444
 51
268.61753399999998
  0
LINE
  5
4BA
  8
0
 62
     7
 10
119.074
 20
139.65700000000001
 30
0.0
 11
119.634
 21
139.65700000000001
 31
0.0
  0
LINE
  5
4BB
  8
0
 62
     7
 10
143.30099999999999
 20
139.65700000000001
 30
0.0
 11
141.11000000000001
 21
139.65700000000001
 31
0.0
  0
ARC
  5
4BC
  8
0
 62
     7
 10
143.81605400000001
 20
140.14168100000001
 30
0.0
 40
0.4850680000000001
 50
272.159873
 51
357.92470600000001
  0
ARC
  5
4BD
  8
0
 62
     7
 10
143.81965600000001
 20
140.112516
 30
0.0
 40
0.481288
 50
1.381062
 51
75.040980000000005
  0
LINE
  5
4BE
  8
0
 62
     7
 10
166.107
 20
208.292
 30
0.0
 11
171.63999999999999
 21
208.292
 31
0.0
  0
LINE
  5
4BF
  8
0
 62
     7
 10
147.584
 20
190.59899999999999
 30
0.0
 11
146.44
 21
188.61699999999999
 31
0.0
  0
LINE
  5
4C0
  8
0
 62
     7
 10
146.44
 20
188.61699999999999
 30
0.0
 11
148.423
 21
189.761
 31
0.0
  0
LINE
  5
4C1
  8
0
 62
     7
 10
148.423
 20
189.761
 30
0.0
 11
147.584
 21
190.59899999999999
 31
0.0
  0
LINE
  5
4C2
  8
0
 62
     7
 10
163.44
 20
204.78700000000001
 30
0.0
 11
164.58500000000001
 21
206.76900000000001
 31
0.0
  0
LINE
  5
4C3
  8
0
 62
     7
 10
164.58500000000001
 20
206.76900000000001
 30
0.0
 11
162.602
 21
205.625
 31
0.0
  0
LINE
  5
4C4
  8
0
 62
     7
 10
162.602
 20
205.625
 30
0.0
 11
163.44
 21
204.78700000000001
 31
0.0
  0
LINE
  5
4C5
  8
0
 62
     7
 10
146.44
 20
188.61699999999999
 30
0.0
 11
166.107
 21
208.292
 31
0.0
  0
LINE
  5
4C6
  8
0
 62
     7
 10
120.84699999999999
 20
147.441
 30
0.0
 11
118.63500000000001
 21
146.84800000000001
 31
0.0
  0
LINE
  5
4C7
  8
0
 62
     7
 10
118.63500000000001
 20
146.84800000000001
 30
0.0
 11
120.84699999999999
 21
146.255
 31
0.0
  0
LINE
  5
4C8
  8
0
 62
     7
 10
120.84699999999999
 20
146.255
 30
0.0
 11
120.84699999999999
 21
147.441
 31
0.0
  0
LINE
  5
4C9
  8
0
 62
     7
 10
142.089
 20
146.27000000000001
 30
0.0
 11
144.30099999999999
 21
146.86199999999999
 31
0.0
  0
LINE
  5
4CA
  8
0
 62
     7
 10
144.30099999999999
 20
146.86199999999999
 30
0.0
 11
142.089
 21
147.45500000000001
 31
0.0
  0
LINE
  5
4CB
  8
0
 62
     7
 10
142.089
 20
147.45500000000001
 30
0.0
 11
142.089
 21
146.27000000000001
 31
0.0
  0
LINE
  5
4CC
  8
0
 62
     7
 10
122.25
 20
141.32400000000001
 30
0.0
 11
127.352
 21
141.32400000000001
 31
0.0
  0
LINE
  5
4CD
  8
0
 62
     7
 10
118.63500000000001
 20
146.85499999999999
 30
0.0
 11
144.30099999999999
 21
146.85499999999999
 31
0.0
  0
LINE
  5
4CE
  8
0
 62
     7
 10
144.30099999999999
 20
141.36000000000001
 30
0.0
 11
144.30099999999999
 21
147.56200000000001
 31
0.0
  0
LINE
  5
4CF
  8
0
 62
     7
 10
118.63500000000001
 20
141.36000000000001
 30
0.0
 11
118.63500000000001
 21
147.548
 31
0.0
  0
LINE
  5
4D0
  8
0
 62
     7
 10
170.72300000000001
 20
80.207800000000006
 30
0.0
 11
170.13
 21
82.419600000000003
 31
0.0
  0
LINE
  5
4D1
  8
0
 62
     7
 10
170.13
 20
82.419600000000003
 30
0.0
 11
169.53800000000001
 21
80.207800000000006
 31
0.0
  0
LINE
  5
4D2
  8
0
 62
     7
 10
169.53800000000001
 20
80.207800000000006
 30
0.0
 11
170.72300000000001
 21
80.207800000000006
 31
0.0
  0
LINE
  5
4D3
  8
0
 62
     7
 10
169.55199999999999
 20
61.312100000000001
 30
0.0
 11
170.14500000000001
 21
59.10029999999999
 31
0.0
  0
LINE
  5
4D4
  8
0
 62
     7
 10
170.14500000000001
 20
59.10029999999999
 30
0.0
 11
170.73699999999999
 21
61.312100000000001
 31
0.0
  0
LINE
  5
4D5
  8
0
 62
     7
 10
170.73699999999999
 20
61.312100000000001
 30
0.0
 11
169.55199999999999
 21
61.312100000000001
 31
0.0
  0
LINE
  5
4D6
  8
0
 62
     7
 10
170.137
 20
82.419600000000003
 30
0.0
 11
170.137
 21
59.10029999999999
 31
0.0
  0
LINE
  5
4D7
  8
0
 62
     7
 10
151.82599999999999
 20
59.10029999999999
 30
0.0
 11
170.845
 21
59.10029999999999
 31
0.0
  0
LINE
  5
4D8
  8
0
 62
     7
 10
144.00999999999999
 20
82.419600000000003
 30
0.0
 11
170.83000000000001
 21
82.419600000000003
 31
0.0
  0
LINE
  5
4D9
  8
0
 62
     7
 10
162.71899999999999
 20
72.819400000000002
 30
0.0
 11
162.12700000000001
 21
75.031199999999998
 31
0.0
  0
LINE
  5
4DA
  8
0
 62
     7
 10
162.12700000000001
 20
75.031199999999998
 30
0.0
 11
161.53399999999999
 21
72.819400000000002
 31
0.0
  0
LINE
  5
4DB
  8
0
 62
     7
 10
161.53399999999999
 20
72.819400000000002
 30
0.0
 11
162.71899999999999
 21
72.819400000000002
 31
0.0
  0
LINE
  5
4DC
  8
0
 62
     7
 10
161.548
 20
61.312100000000001
 30
0.0
 11
162.14099999999999
 21
59.10029999999999
 31
0.0
  0
LINE
  5
4DD
  8
0
 62
     7
 10
162.14099999999999
 20
59.10029999999999
 30
0.0
 11
162.73400000000001
 21
61.312100000000001
 31
0.0
  0
LINE
  5
4DE
  8
0
 62
     7
 10
162.73400000000001
 20
61.312100000000001
 30
0.0
 11
161.548
 21
61.312100000000001
 31
0.0
  0
LINE
  5
4DF
  8
0
 62
     7
 10
162.13399999999999
 20
75.031199999999998
 30
0.0
 11
162.13399999999999
 21
59.10029999999999
 31
0.0
  0
LINE
  5
4E0
  8
0
 62
     7
 10
152.035
 20
75.031199999999998
 30
0.0
 11
162.827
 21
75.031199999999998
 31
0.0
  0
LINE
  5
4E1
  8
0
 62
     7
 10
150.83099999999999
 20
111.206
 30
0.0
 11
151.423
 21
108.995
 31
0.0
  0
LINE
  5
4E2
  8
0
 62
     7
 10
151.423
 20
108.995
 30
0.0
 11
152.01599999999999
 21
111.206
 31
0.0
  0
LINE
  5
4E3
  8
0
 62
     7
 10
152.01599999999999
 20
111.206
 30
0.0
 11
150.83099999999999
 21
111.206
 31
0.0
  0
LINE
  5
4E4
  8
0
 62
     7
 10
152.001
 20
132.21299999999999
 30
0.0
 11
151.40899999999999
 21
134.42500000000001
 31
0.0
  0
LINE
  5
4E5
  8
0
 62
     7
 10
151.40899999999999
 20
134.42500000000001
 30
0.0
 11
150.816
 21
132.21299999999999
 31
0.0
  0
LINE
  5
4E6
  8
0
 62
     7
 10
150.816
 20
132.21299999999999
 30
0.0
 11
152.001
 21
132.21299999999999
 31
0.0
  0
LINE
  5
4E7
  8
0
 62
     7
 10
151.416
 20
108.995
 30
0.0
 11
151.416
 21
134.42500000000001
 31
0.0
  0
LINE
  5
4E8
  8
0
 62
     7
 10
142.69999999999999
 20
134.42500000000001
 30
0.0
 11
151.935
 21
134.42500000000001
 31
0.0
  0
LINE
  5
4E9
  8
0
 62
     7
 10
140.13499999999999
 20
108.995
 30
0.0
 11
151.946
 21
108.995
 31
0.0
  0
LINE
  5
4EA
  8
0
 62
     7
 10
125.685
 20
100.788
 30
0.0
 11
123.473
 21
100.196
 31
0.0
  0
LINE
  5
4EB
  8
0
 62
     7
 10
123.473
 20
100.196
 30
0.0
 11
125.685
 21
99.603200000000015
 31
0.0
  0
LINE
  5
4EC
  8
0
 62
     7
 10
125.685
 20
99.603200000000015
 30
0.0
 11
125.685
 21
100.788
 31
0.0
  0
LINE
  5
4ED
  8
0
 62
     7
 10
137.196
 20
99.617599999999996
 30
0.0
 11
139.40700000000001
 21
100.20999999999999
 31
0.0
  0
LINE
  5
4EE
  8
0
 62
     7
 10
139.40700000000001
 20
100.20999999999999
 30
0.0
 11
137.196
 21
100.803
 31
0.0
  0
LINE
  5
4EF
  8
0
 62
     7
 10
137.196
 20
100.803
 30
0.0
 11
137.196
 21
99.617599999999996
 31
0.0
  0
LINE
  5
4F0
  8
0
 62
     7
 10
123.473
 20
100.203
 30
0.0
 11
139.40700000000001
 21
100.203
 31
0.0
  0
LINE
  5
4F1
  8
0
 62
     7
 10
139.40700000000001
 20
108.41
 30
0.0
 11
139.40700000000001
 21
99.683800000000005
 31
0.0
  0
LINE
  5
4F2
  8
0
 62
     7
 10
123.473
 20
108.41
 30
0.0
 11
123.473
 21
99.672799999999995
 31
0.0
  0
LINE
  5
4F3
  8
0
 62
     7
 10
123.52800000000001
 20
195.47999999999999
 30
0.0
 11
122.93600000000001
 21
197.69099999999989
 31
0.0
  0
LINE
  5
4F4
  8
0
 62
     7
 10
122.93600000000001
 20
197.69099999999989
 30
0.0
 11
122.343
 21
195.47999999999999
 31
0.0
  0
LINE
  5
4F5
  8
0
 62
     7
 10
122.343
 20
195.47999999999999
 30
0.0
 11
123.52800000000001
 21
195.47999999999999
 31
0.0
  0
LINE
  5
4F6
  8
0
 62
     7
 10
122.358
 20
143.535
 30
0.0
 11
122.95
 21
141.32400000000001
 31
0.0
  0
LINE
  5
4F7
  8
0
 62
     7
 10
122.95
 20
141.32400000000001
 30
0.0
 11
123.54300000000001
 21
143.535
 31
0.0
  0
LINE
  5
4F8
  8
0
 62
     7
 10
123.54300000000001
 20
143.535
 30
0.0
 11
122.358
 21
143.535
 31
0.0
  0
LINE
  5
4F9
  8
0
 62
     7
 10
122.943
 20
195.88399999999999
 30
0.0
 11
122.943
 21
141.32400000000001
 31
0.0
  0
LINE
  5
4FA
  8
0
 62
     7
 10
51.774599999999992
 20
197.69099999999989
 30
0.0
 11
123.636
 21
197.69099999999989
 31
0.0
  0
LINE
  5
4FB
  8
0
 62
     7
 10
31.738800000000001
 20
225.154
 30
0.0
 11
29.527100000000001
 21
224.56200000000001
 31
0.0
  0
LINE
  5
4FC
  8
0
 62
     7
 10
29.527100000000001
 20
224.56200000000001
 30
0.0
 11
31.738800000000001
 21
223.96899999999999
 31
0.0
  0
LINE
  5
4FD
  8
0
 62
     7
 10
31.738800000000001
 20
223.96899999999999
 30
0.0
 11
31.738800000000001
 21
225.154
 31
0.0
  0
LINE
  5
4FE
  8
0
 62
     7
 10
43.64889999999999
 20
223.983
 30
0.0
 11
45.860700000000001
 21
224.57599999999999
 31
0.0
  0
LINE
  5
4FF
  8
0
 62
     7
 10
45.860700000000001
 20
224.57599999999999
 30
0.0
 11
43.64889999999999
 21
225.16900000000001
 31
0.0
  0
LINE
  5
500
  8
0
 62
     7
 10
43.64889999999999
 20
225.16900000000001
 30
0.0
 11
43.64889999999999
 21
223.983
 31
0.0
  0
LINE
  5
501
  8
0
 62
     7
 10
29.527100000000001
 20
224.56899999999999
 30
0.0
 11
45.860700000000001
 21
224.56899999999999
 31
0.0
  0
LINE
  5
502
  8
0
 62
     7
 10
45.860700000000001
 20
209.55799999999999
 30
0.0
 11
45.860700000000001
 21
225.27600000000001
 31
0.0
  0
LINE
  5
503
  8
0
 62
     7
 10
29.527100000000001
 20
206.47999999999999
 30
0.0
 11
29.527100000000001
 21
225.262
 31
0.0
  0
LINE
  5
504
  8
0
 62
     7
 10
50.033799999999992
 20
225.161
 30
0.0
 11
47.821999999999989
 21
224.56899999999999
 31
0.0
  0
LINE
  5
505
  8
0
 62
     7
 10
47.821999999999989
 20
224.56899999999999
 30
0.0
 11
50.033799999999992
 21
223.976
 31
0.0
  0
LINE
  5
506
  8
0
 62
     7
 10
50.033799999999992
 20
223.976
 30
0.0
 11
50.033799999999992
 21
225.161
 31
0.0
  0
LINE
  5
507
  8
0
 62
     7
 10
129.255
 20
223.99100000000001
 30
0.0
 11
131.46700000000001
 21
224.583
 31
0.0
  0
LINE
  5
508
  8
0
 62
     7
 10
131.46700000000001
 20
224.583
 30
0.0
 11
129.255
 21
225.17599999999999
 31
0.0
  0
LINE
  5
509
  8
0
 62
     7
 10
129.255
 20
225.17599999999999
 30
0.0
 11
129.255
 21
223.99100000000001
 31
0.0
  0
LINE
  5
50A
  8
0
 62
     7
 10
47.821999999999989
 20
224.57599999999999
 30
0.0
 11
131.46700000000001
 21
224.57599999999999
 31
0.0
  0
LINE
  5
50B
  8
0
 62
     7
 10
131.46700000000001
 20
144.07300000000001
 30
0.0
 11
131.46700000000001
 21
146.185
 31
0.0
  0
LINE
  5
50C
  8
0
 62
     7
 10
131.46700000000001
 20
151.95699999999999
 30
0.0
 11
131.46700000000001
 21
225.28299999999999
 31
0.0
  0
LINE
  5
50D
  8
0
 62
     7
 10
47.821999999999989
 20
214.83799999999999
 30
0.0
 11
47.821999999999989
 21
225.26900000000001
 31
0.0
  0
LINE
  5
50E
  8
_________2
 62
     7
 10
127.31399999999999
 20
258.911
 30
0.0
 11
127.31399999999999
 21
244.911
 31
0.0
  0
LINE
  5
50F
  8
_________2
 62
     7
 10
153.15899999999999
 20
258.911
 30
0.0
 11
153.15899999999999
 21
244.911
 31
0.0
  0
TEXT
  5
510
  8
_________2
 62
     7
 10
162.22593166666661
 20
246.78100000000001
 30
0.0
 40
3.3734599999999988
  1
CET834
 41
0.5
 72
     1
 11
167.005
 21
246.78100000000001
 31
0.0
  0
TEXT
  5
511
  8
_________2
 62
     7
 10
162.7786052380952
 20
253.95699999999999
 30
0.0
 40
3.3734599999999988
  1
排水金具品番
 41
0.5
 72
     1
 11
168.642
 21
253.95699999999999
 31
0.0
  0
TEXT
  5
512
  8
_________2
 62
     7
 10
130.98108766666661
 20
246.78200000000001
 30
0.0
 40
3.3734599999999988
  1
X＋Y＝485～585
 41
0.5
 72
     1
 11
140.483
 21
246.78200000000001
 31
0.0
  0
TEXT
  5
513
  8
_________2
 62
     7
 10
127.17400000000001
 20
239.60599999999999
 30
0.0
 40
3.3734599999999988
  1
X:排水口中心～オーバーフロー側面
 41
0.5
  0
TEXT
  5
514
  8
_________2
 62
     7
 10
127.17400000000001
 20
235.38999999999999
 30
0.0
 40
3.3734599999999988
  1
Y:オーバーフロー中心～バスタブ底面
 41
0.5
  0
TEXT
  5
515
  8
_________2
 62
     7
 10
134.02522066666671
 20
253.95699999999999
 30
0.0
 40
3.3734599999999988
  1
バスタブ寸法
 41
0.5
 72
     1
 11
139.98500000000001
 21
253.95699999999999
 31
0.0
  0
LINE
  5
516
  8
_________2
 62
     7
 10
127.31399999999999
 20
244.911
 30
0.0
 11
183.55099999999999
 21
244.911
 31
0.0
  0
LINE
  5
517
  8
_________2
 62
     7
 10
127.31399999999999
 20
251.911
 30
0.0
 11
183.55099999999999
 21
251.911
 31
0.0
  0
TEXT
  5
518
  8
_________2
 62
     7
 10
109.179
 20
24.226400000000002
 30
0.0
 40
3.9357000000000002
  1
バス排水金具
 41
0.5
  0
LINE
  5
519
  8
_________2
 62
     7
 10
205.30099999999999
 20
127.411
 30
0.0
 11
183.55099999999999
 21
127.411
 31
0.0
  0
LINE
  5
51A
  8
_________2
 62
     7
 10
100.3
 20
-4.0910799999999998
 30
0.0
 11
100.3
 21
-21.071400000000001
 31
0.0
  0
LINE
  5
51B
  8
_________2
 62
     7
 10
100.3
 20
275.93099999999998
 30
0.0
 11
100.3
 21
258.911
 31
0.0
  0
LINE
  5
51C
  8
_________2
 62
     7
 10
17.049499999999998
 20
127.411
 30
0.0
 11
-4.7008599999999987
 21
127.411
 31
0.0
  0
LINE
  5
51D
  8
_________2
 62
     7
 10
76.741
 20
29.8047
 30
0.0
 11
74.554699999999997
 21
29.8047
 31
0.0
  0
LINE
  5
51E
  8
_________2
 62
     7
 10
77.233699999999999
 20
29.8047
 30
0.0
 11
76.981499999999997
 21
29.8047
 31
0.0
  0
LINE
  5
51F
  8
_________2
 62
     7
 10
77.726299999999995
 20
29.8047
 30
0.0
 11
80.651200000000003
 21
29.8047
 31
0.0
  0
LINE
  5
520
  8
_________2
 62
     7
 10
77.233699999999999
 20
29.8047
 30
0.0
 11
77.485900000000001
 21
29.8047
 31
0.0
  0
LINE
  5
521
  8
_________2
 62
     7
 10
70.837500000000006
 20
29.8047
 30
0.0
 11
68.650499999999994
 21
29.8047
 31
0.0
  0
LINE
  5
522
  8
_________2
 62
     7
 10
71.329400000000007
 20
29.8047
 30
0.0
 11
71.0779
 21
29.8047
 31
0.0
  0
LINE
  5
523
  8
_________2
 62
     7
 10
71.329400000000007
 20
30.2974
 30
0.0
 11
71.329400000000007
 21
32.484400000000001
 31
0.0
  0
LINE
  5
524
  8
_________2
 62
     7
 10
71.329400000000007
 20
29.8047
 30
0.0
 11
71.329400000000007
 21
30.056899999999999
 31
0.0
  0
LINE
  5
525
  8
_________2
 62
     7
 10
71.822100000000006
 20
29.8047
 30
0.0
 11
74.009
 21
29.8047
 31
0.0
  0
LINE
  5
526
  8
_________2
 62
     7
 10
71.329400000000007
 20
29.8047
 30
0.0
 11
71.581599999999995
 21
29.8047
 31
0.0
  0
LINE
  5
527
  8
_________2
 62
     7
 10
71.329400000000007
 20
29.312799999999999
 30
0.0
 11
71.329400000000007
 21
27.125800000000002
 31
0.0
  0
LINE
  5
528
  8
_________2
 62
     7
 10
71.329400000000007
 20
29.8047
 30
0.0
 11
71.329400000000007
 21
29.5532
 31
0.0
  0
LINE
  5
529
  8
_________2
 62
     7
 10
75.040499999999994
 20
28.5852
 30
0.0
 11
80.218500000000006
 21
27.720400000000001
 31
0.0
  0
LINE
  5
52A
  8
_________2
 62
     7
 10
75.040499999999994
 20
31.0243
 30
0.0
 11
80.218500000000006
 21
31.889700000000001
 31
0.0
  0
LINE
  5
52B
  8
_________2
 62
     7
 10
80.218500000000006
 20
27.720400000000001
 30
0.0
 11
80.218500000000006
 21
31.889700000000001
 31
0.0
  0
LINE
  5
52C
  8
_________2
 62
     7
 10
75.040499999999994
 20
28.5852
 30
0.0
 11
75.040499999999994
 21
31.0243
 31
0.0
  0
ARC
  5
52D
  8
_________2
 62
     7
 10
71.283190000000005
 20
29.757787
 30
0.0
 40
1.2673709999999989
 50
2.1232950000000002
 51
87.909056000000007
  0
ARC
  5
52E
  8
_________2
 62
     7
 10
71.375959999999992
 20
29.758213000000001
 30
0.0
 40
1.2669559999999991
 50
92.104701000000006
 51
177.89526900000001
  0
ARC
  5
52F
  8
_________2
 62
     7
 10
71.376357999999996
 20
29.851671
 30
0.0
 40
1.2673680000000001
 50
182.12203600000001
 51
267.877993
  0
ARC
  5
530
  8
_________2
 62
     7
 10
71.282541000000009
 20
29.852347999999999
 30
0.0
 40
1.2680439999999991
 50
272.11916400000001
 51
357.84848499999998
  0
ARC
  5
531
  8
_________2
 62
     7
 10
71.329430000000002
 20
29.804742999999998
 30
0.0
 40
2.0849849999999992
 50
0.00001
 51
89.999980000000008
  0
ARC
  5
532
  8
_________2
 62
     7
 10
71.409075999999999
 20
29.725812999999999
 30
0.0
 40
2.165379999999999
 50
92.107876000000005
 51
177.91103200000001
  0
ARC
  5
533
  8
_________2
 62
     7
 10
71.409439000000006
 20
29.884751999999999
 30
0.0
 40
2.1657829999999998
 50
182.117133
 51
267.88289700000001
  0
ARC
  5
534
  8
_________2
 62
     7
 10
71.249459000000002
 20
29.885429999999999
 30
0.0
 40
2.1664590000000001
 50
272.11546800000002
 51
357.86560400000002
  0
TEXT
  5
535
  8
_________2
 62
     7
 10
104.605
 20
1.6794899999999999
 30
0.0
 40
3.0923400000000001
  1
図番
 41
0.5
  0
LINE
  5
536
  8
_________2
 62
     7
 10
103.55
 20
5.9087199999999989
 30
0.0
 11
183.55099999999999
 21
5.9087199999999989
 31
0.0
  0
TEXT
  5
537
  8
_________2
 62
     7
 10
104.605
 20
11.6793
 30
0.0
 40
3.0923400000000001
  1
品番
 41
0.5
  0
TEXT
  5
538
  8
_________2
 62
     7
 10
104.605
 20
31.818100000000001
 30
0.0
 40
3.0923400000000001
  1
名称
 41
0.5
  0
TEXT
  5
539
  8
_________2
 62
     7
 10
91.845058333333341
 20
26.821999999999999
 30
0.0
 40
3.6545800000000002
  1
mm
 41
0.5
 72
     1
 11
93.367800000000003
 21
26.821999999999999
 31
0.0
  0
TEXT
  5
53A
  8
_________2
 62
     7
 10
85.643199999999993
 20
31.818100000000001
 30
0.0
 40
3.0923400000000001
  1
単位
 41
0.5
  0
TEXT
  5
53B
  8
_________2
 62
     7
 10
85.643199999999993
 20
19.410799999999998
 30
0.0
 40
3.0923400000000001
  1
尺度
 41
0.5
  0
TEXT
  5
53C
  8
_________2
 62
     7
 10
90.548758666666686
 20
13.2179
 30
0.0
 40
3.6545800000000002
  1
1 ： 3
 41
0.5
 72
     1
 11
93.959699999999998
 21
13.2179
 31
0.0
  0
TEXT
  5
53D
  8
_________2
 62
     7
 10
137.974425
 20
9.1078600000000005
 30
0.0
 40
3.9357000000000002
  1
CET834
 41
0.5
 72
     1
 11
143.55000000000001
 21
9.1078600000000005
 31
0.0
  0
TEXT
  5
53E
  8
_________2
 62
     7
 10
137.974425
 20
-0.8926299999999999
 30
0.0
 40
3.9357000000000002
  1
CET834
 41
0.5
 72
     1
 11
143.55000000000001
 21
-0.8926299999999999
 31
0.0
  0
TEXT
  5
53F
  8
_________2
 62
     7
 10
39.364390666666672
 20
13.603
 30
0.0
 40
3.6545800000000002
  1
篠崎
 41
0.5
 72
     1
 11
41.313499999999998
 21
13.603
 31
0.0
  0
TEXT
  5
540
  8
_________2
 62
     7
 10
20.851300333333331
 20
13.603
 30
0.0
 40
3.6545800000000002
  1
土山
 41
0.5
 72
     1
 11
22.7395
 21
13.603
 31
0.0
  0
TEXT
  5
541
  8
_________2
 62
     7
 10
67.785799999999995
 20
13.2179
 30
0.0
 40
3.6545800000000002
  1
18.01.25
 41
0.5
  0
TEXT
  5
542
  8
_________2
 62
     7
 10
66.593100000000007
 20
19.410799999999998
 30
0.0
 40
3.0923400000000001
  1
日付
 41
0.5
  0
TEXT
  5
543
  8
_________2
 62
     7
 10
29.639399999999998
 20
19.410799999999998
 30
0.0
 40
3.0923400000000001
  1
検図
 41
0.5
  0
TEXT
  5
544
  8
_________2
 62
     7
 10
18.021100000000001
 20
5.21143
 30
0.0
 40
3.0923400000000001
  1
備考
 41
0.5
  0
TEXT
  5
545
  8
_________2
 62
     7
 10
18.021100000000001
 20
19.410799999999998
 30
0.0
 40
3.0923400000000001
  1
製図
 41
0.5
  0
TEXT
  5
546
  8
_________2
 62
     7
 10
23.788465333333338
 20
27.936800000000002
 30
0.0
 40
4.4979399999999989
  1
セラトレーディング株式会社
 41
0.5
 72
     1
 11
41.180500000000002
 21
27.936800000000002
 31
0.0
  0
LINE
  5
547
  8
_________2
 62
     7
 10
183.55099999999999
 20
-4.0910799999999998
 30
0.0
 11
17.049499999999998
 21
-4.0910799999999998
 31
0.0
  0
LINE
  5
548
  8
_________2
 62
     7
 10
17.049499999999998
 20
-4.0910799999999998
 30
0.0
 11
17.049499999999998
 21
258.911
 31
0.0
  0
LINE
  5
549
  8
_________2
 62
     7
 10
17.049499999999998
 20
258.911
 30
0.0
 11
183.55099999999999
 21
258.911
 31
0.0
  0
LINE
  5
54A
  8
_________2
 62
     7
 10
183.55099999999999
 20
258.911
 30
0.0
 11
183.55099999999999
 21
-4.0910799999999998
 31
0.0
  0
LINE
  5
54B
  8
_________2
 62
     7
 10
65.549899999999994
 20
9.4089600000000004
 30
0.0
 11
65.549899999999994
 21
35.908799999999999
 31
0.0
  0
LINE
  5
54C
  8
_________2
 62
     7
 10
84.549700000000016
 20
9.4089600000000004
 30
0.0
 11
84.549700000000016
 21
35.908799999999999
 31
0.0
  0
LINE
  5
54D
  8
_________2
 62
     7
 10
103.55
 20
-4.0910799999999998
 30
0.0
 11
103.55
 21
35.908799999999999
 31
0.0
  0
LINE
  5
54E
  8
_________2
 62
     7
 10
28.549299999999999
 20
9.4089600000000004
 30
0.0
 11
28.549299999999999
 21
23.409199999999998
 31
0.0
  0
LINE
  5
54F
  8
_________2
 62
     7
 10
17.049499999999998
 20
9.4089600000000004
 30
0.0
 11
103.55
 21
9.4089600000000004
 31
0.0
  0
LINE
  5
550
  8
_________2
 62
     7
 10
17.049499999999998
 20
23.409199999999998
 30
0.0
 11
103.55
 21
23.409199999999998
 31
0.0
  0
LINE
  5
551
  8
_________2
 62
     7
 10
103.55
 20
15.9085
 30
0.0
 11
183.55099999999999
 21
15.9085
 31
0.0
  0
LINE
  5
552
  8
_________2
 62
     7
 10
17.049499999999998
 20
35.908799999999999
 30
0.0
 11
183.55099999999999
 21
35.908799999999999
 31
0.0
  0
ENDSEC
  0
EOF
