  0
SECTION
  2
HEADER
  9
$ACADVER
  1
AC1009
  9
$INSBASE
 10
0.0
 20
0.0
 30
0.0
  9
$EXTMIN
 10
-4.7006899999999989
 20
-21.070999999999991
 30
0.0
  9
$EXTMAX
 10
205.30099999999999
 20
275.93099999999993
 30
0.0
  9
$LIMMIN
 10
0.0
 20
0.0
  9
$LIMMAX
 10
12.0
 20
9.0
  9
$ORTHOMODE
 70
     0
  9
$REGENMODE
 70
     1
  9
$FILLMODE
 70
     1
  9
$QTEXTMODE
 70
     0
  9
$MIRRTEXT
 70
     1
  9
$DRAGMODE
 70
     2
  9
$LTSCALE
 40
1.0
  9
$OSMODE
 70
    37
  9
$ATTMODE
 70
     1
  9
$TEXTSIZE
 40
0.0
  9
$TRACEWID
 40
0.05
  9
$TEXTSTYLE
  7
STANDARD
  9
$CLAYER
  8
0
  9
$CELTYPE
  6
CONTINUOUS
  9
$CECOLOR
 62
   256
  9
$DIMSCALE
 40
1.0
  9
$DIMASZ
 40
0.18
  9
$DIMEXO
 40
0.0625
  9
$DIMDLI
 40
0.38
  9
$DIMRND
 40
0.0
  9
$DIMDLE
 40
0.0
  9
$DIMEXE
 40
0.18
  9
$DIMTP
 40
0.0
  9
$DIMTM
 40
0.0
  9
$DIMTXT
 40
0.18
  9
$DIMCEN
 40
0.09
  9
$DIMTSZ
 40
0.0
  9
$DIMTOL
 70
     0
  9
$DIMLIM
 70
     0
  9
$DIMTIH
 70
     1
  9
$DIMTOH
 70
     1
  9
$DIMSE1
 70
     0
  9
$DIMSE2
 70
     0
  9
$DIMTAD
 70
     0
  9
$DIMZIN
 70
     0
  9
$DIMBLK
  1

  9
$DIMASO
 70
     1
  9
$DIMSHO
 70
     1
  9
$DIMPOST
  1

  9
$DIMAPOST
  1

  9
$DIMALT
 70
     0
  9
$DIMALTD
 70
     2
  9
$DIMALTF
 40
25.399999999999999
  9
$DIMLFAC
 40
1.0
  9
$DIMTOFL
 70
     0
  9
$DIMTVP
 40
0.0
  9
$DIMTIX
 70
     0
  9
$DIMSOXD
 70
     0
  9
$DIMSAH
 70
     0
  9
$DIMBLK1
  1

  9
$DIMBLK2
  1

  9
$DIMSTYLE
  2
STANDARD
  9
$DIMCLRD
 70
     0
  9
$DIMCLRE
 70
     0
  9
$DIMCLRT
 70
     0
  9
$DIMTFAC
 40
1.0
  9
$DIMGAP
 40
0.09
  9
$LUNITS
 70
     2
  9
$LUPREC
 70
     4
  9
$SKETCHINC
 40
0.1
  9
$FILLETRAD
 40
0.0
  9
$AUNITS
 70
     0
  9
$AUPREC
 70
     0
  9
$MENU
  1
.
  9
$ELEVATION
 40
0.0
  9
$PELEVATION
 40
0.0
  9
$THICKNESS
 40
0.0
  9
$LIMCHECK
 70
     0
  9
$BLIPMODE
 70
     0
  9
$CHAMFERA
 40
0.0
  9
$CHAMFERB
 40
0.0
  9
$SKPOLY
 70
     0
  9
$TDCREATE
 40
2444972.375
  9
$TDUPDATE
 40
2453728.2535318979
  9
$TDINDWG
 40
0.0012346875
  9
$TDUSRTIMER
 40
0.0012346875
  9
$USRTIMER
 70
     1
  9
$ANGBASE
 50
0.0
  9
$ANGDIR
 70
     0
  9
$PDMODE
 70
     0
  9
$PDSIZE
 40
0.0
  9
$PLINEWID
 40
0.0
  9
$COORDS
 70
     1
  9
$SPLFRAME
 70
     0
  9
$SPLINETYPE
 70
     6
  9
$SPLINESEGS
 70
     8
  9
$ATTDIA
 70
     0
  9
$ATTREQ
 70
     1
  9
$HANDLING
 70
     1
  9
$HANDSEED
  5
276
  9
$SURFTAB1
 70
     6
  9
$SURFTAB2
 70
     6
  9
$SURFTYPE
 70
     6
  9
$SURFU
 70
     6
  9
$SURFV
 70
     6
  9
$UCSNAME
  2

  9
$UCSORG
 10
0.0
 20
0.0
 30
0.0
  9
$UCSXDIR
 10
1.0
 20
0.0
 30
0.0
  9
$UCSYDIR
 10
0.0
 20
1.0
 30
0.0
  9
$PUCSNAME
  2

  9
$PUCSORG
 10
0.0
 20
0.0
 30
0.0
  9
$PUCSXDIR
 10
1.0
 20
0.0
 30
0.0
  9
$PUCSYDIR
 10
0.0
 20
1.0
 30
0.0
  9
$USERI1
 70
     0
  9
$USERI2
 70
     0
  9
$USERI3
 70
     0
  9
$USERI4
 70
     0
  9
$USERI5
 70
     0
  9
$USERR1
 40
0.0
  9
$USERR2
 40
0.0
  9
$USERR3
 40
0.0
  9
$USERR4
 40
0.0
  9
$USERR5
 40
0.0
  9
$WORLDVIEW
 70
     1
  9
$SHADEDGE
 70
     3
  9
$SHADEDIF
 70
    70
  9
$TILEMODE
 70
     1
  9
$MAXACTVP
 70
    48
  9
$PLIMCHECK
 70
     0
  9
$PEXTMIN
 10
1.0000000000000000E+020
 20
1.0000000000000000E+020
 30
1.0000000000000000E+020
  9
$PEXTMAX
 10
-1.0000000000000000E+020
 20
-1.0000000000000000E+020
 30
-1.0000000000000000E+020
  9
$PLIMMIN
 10
0.0
 20
0.0
  9
$PLIMMAX
 10
12.0
 20
9.0
  9
$UNITMODE
 70
     0
  9
$VISRETAIN
 70
     1
  9
$PLINEGEN
 70
     0
  9
$PSLTSCALE
 70
     1
  0
ENDSEC
  0
SECTION
  2
TABLES
  0
TABLE
  2
VPORT
 70
     2
  0
VPORT
  2
*ACTIVE
 70
     0
 10
0.0
 20
0.0
 11
1.0
 21
1.0
 12
206.3589367578376
 22
135.12078129453019
 13
0.0
 23
0.0
 14
1.0
 24
1.0
 15
0.0
 25
0.0
 16
0.0
 26
0.0
 36
1.0
 17
0.0
 27
0.0
 37
0.0
 40
314.62791019611331
 41
2.1842105263157889
 42
50.0
 43
0.0
 44
0.0
 50
0.0
 51
0.0
 71
     0
 72
   100
 73
     1
 74
     1
 75
     0
 76
     0
 77
     0
 78
     0
  0
ENDTAB
  0
TABLE
  2
LTYPE
 70
     2
  0
LTYPE
  2
CONTINUOUS
 70
     0
  3
Solid line
 72
    65
 73
     0
 40
0.0
  0
LTYPE
  2
AIGENLINE001
 70
     0
  3
generate AI->DXF Converter
 72
    65
 73
     4
 40
5.8561449999999988
 49
3.5278
 49
-0.776115
 49
0.776115
 49
-0.776115
  0
ENDTAB
  0
TABLE
  2
LAYER
 70
     2
  0
LAYER
  2
0
 70
     0
 62
     7
  6
CONTINUOUS
  0
LAYER
  2
_________2
 70
     0
 62
     7
  6
CONTINUOUS
  0
ENDTAB
  0
TABLE
  2
STYLE
 70
     1
  0
STYLE
  2
STANDARD
 70
     0
 40
0.0
 41
0.0
 50
0.0
 71
     0
 42
0.0
  3
TXT
  4
EXTFONT.SHX
  0
ENDTAB
  0
TABLE
  2
VIEW
 70
     0
  0
ENDTAB
  0
TABLE
  2
UCS
 70
     0
  0
ENDTAB
  0
TABLE
  2
APPID
 70
     1
  0
APPID
  2
ACAD
 70
     0
  0
ENDTAB
  0
TABLE
  2
DIMSTYLE
 70
     1
  0
DIMSTYLE
  2
STANDARD
 70
     0
  3

  4

  5

  6

  7

 40
1.0
 41
0.18
 42
0.0625
 43
0.38
 44
0.18
 45
0.0
 46
0.0
 47
0.0
 48
0.0
140
0.18
141
0.09
142
0.0
143
25.399999999999999
144
1.0
145
0.0
146
1.0
147
0.09
 71
     0
 72
     0
 73
     1
 74
     1
 75
     0
 76
     0
 77
     0
 78
     0
170
     0
171
     2
172
     0
173
     0
174
     0
175
     0
176
     0
177
     0
178
     0
  0
ENDTAB
  0
ENDSEC
  0
SECTION
  2
BLOCKS
  0
BLOCK
  8
0
  2
$MODEL_SPACE
 70
     0
 10
0.0
 20
0.0
 30
0.0
  3
$MODEL_SPACE
  1

  0
ENDBLK
  5
1A
  8
0
  0
BLOCK
 67
     1
  8
0
  2
$PAPER_SPACE
 70
     0
 10
0.0
 20
0.0
 30
0.0
  3
$PAPER_SPACE
  1

  0
ENDBLK
  5
17
 67
     1
  8
0
  0
ENDSEC
  0
SECTION
  2
ENTITIES
  0
TEXT
  5
22
  8
0
 62
     7
 10
113.9894399999999
 20
53.202899999999993
 30
0.0
 40
3.0923400000000001
  1
372
 41
0.5
 72
     1
 11
116.051
 21
53.202899999999993
 31
0.0
  0
TEXT
  5
23
  8
0
 62
     7
 10
79.209824999999995
 20
60.77259999999999
 30
0.0
 40
3.0923400000000001
  1
82
 41
0.5
 72
     1
 11
80.4983
 21
60.77259999999999
 31
0.0
  0
TEXT
  5
24
  8
0
 62
     7
 10
106.857
 20
81.628225
 30
0.0
 40
3.0923400000000001
  1
98
 50
90.0
 41
0.5
 72
     1
 11
106.857
 21
82.916700000000006
 31
0.0
  0
TEXT
  5
25
  8
0
 62
     7
 10
66.782809
 20
129.05899999999991
 30
0.0
 40
3.0923400000000001
  1
G1 1/4
 41
0.5
 72
     1
 11
70.338999999999999
 21
129.05899999999991
 31
0.0
  0
TEXT
  5
26
  8
0
 62
     7
 10
106.837
 20
103.72895799999991
 30
0.0
 40
3.0923400000000001
  1
30～120
 50
90.0
 41
0.5
 72
     1
 11
106.837
 21
107.749
 31
0.0
  0
TEXT
  5
27
  8
0
 62
     7
 10
175.999
 20
92.928639999999987
 30
0.0
 40
3.0923400000000001
  1
%%c75
 50
90.0
 41
0.5
 72
     1
 11
175.999
 21
94.990199999999987
 31
0.0
  0
TEXT
  5
28
  8
0
 62
     7
 10
169.10199999999989
 20
93.109139999999996
 30
0.0
 40
3.0923400000000001
  1
%%c32
 50
90.0
 41
0.5
 72
     1
 11
169.10199999999989
 21
95.170699999999997
 31
0.0
  0
ARC
  5
29
  8
0
 62
     7
 10
40.835603999999989
 20
95.235349999999997
 30
0.0
 40
8.9581959999999992
 50
0.7806470000000001
 51
62.015719000000011
  0
ARC
  5
2A
  8
0
 62
     7
 10
40.843959999999988
 20
95.474307999999979
 30
0.0
 40
8.9497719999999994
 50
297.96235200000001
 51
359.25154700000002
  0
ARC
  5
2B
  8
0
 62
     7
 10
41.241630000000001
 20
95.478818000000004
 30
0.0
 40
8.9575700000000005
 50
180.776669
 51
242.01932999999991
  0
ARC
  5
2C
  8
0
 62
     7
 10
41.233879999999999
 20
95.240479000000008
 30
0.0
 40
8.9497610000000005
 50
117.957294
 51
179.25143199999999
  0
ARC
  5
2D
  8
0
 62
     7
 10
40.813301000000003
 20
95.216884999999991
 30
0.0
 40
9.6016779999999997
 50
0.8385239999999999
 51
63.88824300000001
  0
ARC
  5
2E
  8
0
 62
     7
 10
40.818716999999992
 20
95.494313000000005
 30
0.0
 40
9.5962110000000003
 50
296.09403800000001
 51
359.18251600000002
  0
ARC
  5
2F
  8
0
 62
     7
 10
41.266156000000002
 20
95.498668999999992
 30
0.0
 40
9.6032939999999982
 50
180.84289499999991
 51
243.88346799999999
  0
ARC
  5
30
  8
0
 62
     7
 10
41.259415999999987
 20
95.220488999999986
 30
0.0
 40
9.5964919999999996
 50
116.09277399999991
 51
179.182523
  0
ARC
  5
31
  8
0
 62
     7
 10
41.089399999999991
 20
95.316357999999994
 30
0.0
 40
5.0893480000000002
 50
142.73369600000001
 51
149.56095199999999
  0
ARC
  5
32
  8
0
 62
     7
 10
40.912562000000001
 20
95.266466000000008
 30
0.0
 40
5.181068999999999
 50
30.478542999999998
 51
37.614694999999998
  0
ARC
  5
33
  8
0
 62
     7
 10
40.997627000000001
 20
95.371367000000006
 30
0.0
 40
5.0666409999999997
 50
322.91307899999993
 51
359.09011600000002
  0
ARC
  5
34
  8
0
 62
     7
 10
41.060499
 20
95.364219999999989
 30
0.0
 40
5.045776
 50
180.83250100000001
 51
217.16434399999989
  0
LINE
  5
35
  8
0
 62
     7
 10
36.636099999999999
 20
81.913499999999985
 30
0.0
 11
36.914400000000001
 21
81.199299999999994
 31
0.0
  0
LINE
  5
36
  8
0
 62
     7
 10
36.636099999999999
 20
81.913499999999985
 30
0.0
 11
36.636099999999999
 21
82.503699999999995
 31
0.0
  0
LINE
  5
37
  8
0
 62
     7
 10
37.039099999999998
 20
81.913499999999985
 30
0.0
 11
36.636099999999999
 21
81.913499999999985
 31
0.0
  0
LINE
  5
38
  8
0
 62
     7
 10
37.039099999999998
 20
81.199299999999994
 30
0.0
 11
36.914400000000001
 21
81.199299999999994
 31
0.0
  0
LINE
  5
39
  8
0
 62
     7
 10
45.441799999999994
 20
81.913499999999985
 30
0.0
 11
45.164099999999991
 21
81.199299999999994
 31
0.0
  0
LINE
  5
3A
  8
0
 62
     7
 10
45.441799999999994
 20
81.913499999999985
 30
0.0
 11
45.441799999999994
 21
82.503699999999995
 31
0.0
  0
LINE
  5
3B
  8
0
 62
     7
 10
45.039400000000001
 20
81.913499999999985
 30
0.0
 11
45.441799999999994
 21
81.913499999999985
 31
0.0
  0
LINE
  5
3C
  8
0
 62
     7
 10
45.039400000000001
 20
81.199299999999994
 30
0.0
 11
45.164099999999991
 21
81.199299999999994
 31
0.0
  0
LINE
  5
3D
  8
0
 62
     7
 10
45.039400000000001
 20
81.106999999999985
 30
0.0
 11
45.039400000000001
 21
81.199299999999994
 31
0.0
  0
LINE
  5
3E
  8
0
 62
     7
 10
37.039099999999998
 20
81.106999999999985
 30
0.0
 11
37.039099999999998
 21
81.199299999999994
 31
0.0
  0
ARC
  5
3F
  8
0
 62
     7
 10
45.790615000000003
 20
85.132538999999994
 30
0.0
 40
2.3890919999999989
 50
269.94604900000002
 51
276.94365599999998
  0
ARC
  5
40
  8
0
 62
     7
 10
45.983280999999991
 20
83.488831000000005
 30
0.0
 40
0.7341860000000001
 50
277.52580499999999
 51
314.58573899999988
  0
ARC
  5
41
  8
0
 62
     7
 10
30.136368000000001
 20
103.7748509999999
 30
0.0
 40
26.47140499999999
 50
308.17840000000001
 51
308.60485699999992
  0
ARC
  5
42
  8
0
 62
     7
 10
45.786549000000001
 20
85.137004000000005
 30
0.0
 40
2.3935559999999998
 50
263.02462100000008
 51
270.04346199999998
  0
ARC
  5
43
  8
0
 62
     7
 10
45.601014999999997
 20
83.522806000000003
 30
0.0
 40
0.7688649999999999
 50
223.07572999999991
 51
262.1398759999999
  0
LINE
  5
44
  8
0
 62
     7
 10
46.205199999999991
 20
82.503699999999995
 30
0.0
 11
46.78949999999999
 21
83.088300000000004
 31
0.0
  0
LINE
  5
45
  8
0
 62
     7
 10
45.039400000000001
 20
82.503699999999995
 30
0.0
 11
46.205199999999991
 21
82.503699999999995
 31
0.0
  0
ARC
  5
46
  8
0
 62
     7
 10
36.287925999999999
 20
85.132538999999994
 30
0.0
 40
2.3890919999999989
 50
263.05636399999997
 51
270.05397099999999
  0
ARC
  5
47
  8
0
 62
     7
 10
36.095271999999987
 20
83.488842000000005
 30
0.0
 40
0.734198
 50
225.41451299999991
 51
262.47340200000002
  0
ARC
  5
48
  8
0
 62
     7
 10
51.985765999999991
 20
103.830591
 30
0.0
 40
26.542164
 50
231.39669900000001
 51
231.82202799999999
  0
ARC
  5
49
  8
0
 62
     7
 10
36.292000999999999
 20
85.130366000000009
 30
0.0
 40
2.3869180000000001
 50
269.95620600000001
 51
276.99466100000001
  0
ARC
  5
4A
  8
0
 62
     7
 10
36.476964000000002
 20
83.524045999999984
 30
0.0
 40
0.770123
 50
277.88941999999997
 51
316.88542499999988
  0
LINE
  5
4B
  8
0
 62
     7
 10
35.8733
 20
82.503699999999995
 30
0.0
 11
35.289000000000001
 21
83.088300000000004
 31
0.0
  0
LINE
  5
4C
  8
0
 62
     7
 10
37.039099999999998
 20
82.503699999999995
 30
0.0
 11
35.8733
 21
82.503699999999995
 31
0.0
  0
ARC
  5
4D
  8
0
 62
     7
 10
45.790613
 20
82.477523000000005
 30
0.0
 40
2.3898419999999989
 50
83.058502000000004
 51
90.053905
  0
ARC
  5
4E
  8
0
 62
     7
 10
45.983181999999999
 20
84.121356999999975
 30
0.0
 40
0.734822
 50
45.452313999999987
 51
82.472960999999984
  0
ARC
  5
4F
  8
0
 62
     7
 10
29.693995999999999
 20
63.247880000000002
 30
0.0
 40
27.207265
 50
51.440306
 51
51.855003000000011
  0
ARC
  5
50
  8
0
 62
     7
 10
45.786560999999992
 20
82.465643999999998
 30
0.0
 40
2.4017200000000001
 50
89.956969000000001
 51
96.951834999999974
  0
ARC
  5
51
  8
0
 62
     7
 10
45.600532000000001
 20
84.088363999999999
 30
0.0
 40
0.768504
 50
97.82751300000001
 51
136.90040500000001
  0
LINE
  5
52
  8
0
 62
     7
 10
46.205199999999991
 20
85.107100000000017
 30
0.0
 11
46.78949999999999
 21
84.522900000000007
 31
0.0
  0
LINE
  5
53
  8
0
 62
     7
 10
45.039400000000001
 20
85.107100000000017
 30
0.0
 11
46.205199999999991
 21
85.107100000000017
 31
0.0
  0
ARC
  5
54
  8
0
 62
     7
 10
36.287927000000003
 20
82.477523000000005
 30
0.0
 40
2.3898419999999989
 50
89.946076000000005
 51
96.941478000000004
  0
ARC
  5
55
  8
0
 62
     7
 10
36.095371
 20
84.121345999999988
 30
0.0
 40
0.7348340000000001
 50
97.527831999999975
 51
134.54743300000001
  0
ARC
  5
56
  8
0
 62
     7
 10
52.430570999999993
 20
63.188966999999998
 30
0.0
 40
27.282022000000001
 50
128.1445699999999
 51
128.5581389999999
  0
ARC
  5
57
  8
0
 62
     7
 10
36.292014999999999
 20
82.471994999999978
 30
0.0
 40
2.3953690000000001
 50
83.014525000000006
 51
90.043977999999996
  0
ARC
  5
58
  8
0
 62
     7
 10
36.477637000000001
 20
84.086565000000007
 30
0.0
 40
0.7703050000000001
 50
43.05222899999999
 51
82.113271999999995
  0
LINE
  5
59
  8
0
 62
     7
 10
35.8733
 20
85.107100000000017
 30
0.0
 11
35.289000000000001
 21
84.522900000000007
 31
0.0
  0
LINE
  5
5A
  8
0
 62
     7
 10
46.653100000000002
 20
83.088300000000004
 30
0.0
 11
46.653100000000002
 21
84.522900000000007
 31
0.0
  0
LINE
  5
5B
  8
0
 62
     7
 10
35.4255
 20
83.088300000000004
 30
0.0
 11
35.4255
 21
84.522900000000007
 31
0.0
  0
LINE
  5
5C
  8
0
 62
     7
 10
35.289000000000001
 20
83.088300000000004
 30
0.0
 11
35.289000000000001
 21
84.522900000000007
 31
0.0
  0
LINE
  5
5D
  8
0
 62
     7
 10
46.78949999999999
 20
83.088300000000004
 30
0.0
 11
46.78949999999999
 21
84.522900000000007
 31
0.0
  0
LINE
  5
5E
  8
0
 62
     7
 10
37.039099999999998
 20
85.107100000000017
 30
0.0
 11
35.8733
 21
85.107100000000017
 31
0.0
  0
LINE
  5
5F
  8
0
 62
     7
 10
46.78949999999999
 20
84.522900000000007
 30
0.0
 11
46.653100000000002
 21
84.522900000000007
 31
0.0
  0
LINE
  5
60
  8
0
 62
     7
 10
35.4255
 20
84.522900000000007
 30
0.0
 11
35.289000000000001
 21
84.522900000000007
 31
0.0
  0
LINE
  5
61
  8
0
 62
     7
 10
46.78949999999999
 20
83.088300000000004
 30
0.0
 11
46.653100000000002
 21
83.088300000000004
 31
0.0
  0
LINE
  5
62
  8
0
 62
     7
 10
35.4255
 20
83.088300000000004
 30
0.0
 11
35.289000000000001
 21
83.088300000000004
 31
0.0
  0
ARC
  5
63
  8
0
 62
     7
 10
41.039096999999991
 20
70.857277999999994
 30
0.0
 40
4.000299
 50
269.99755299999993
 51
359.997523
  0
ARC
  5
64
  8
0
 62
     7
 10
41.039096999999991
 20
70.856932
 30
0.0
 40
3.9999530000000001
 50
179.99750299999991
 51
269.99755199999993
  0
LINE
  5
65
  8
0
 62
     7
 10
36.636099999999999
 20
94.700800000000015
 30
0.0
 11
36.914400000000001
 21
93.986199999999997
 31
0.0
  0
LINE
  5
66
  8
0
 62
     7
 10
36.636099999999999
 20
94.700800000000015
 30
0.0
 11
36.636099999999999
 21
95.290899999999993
 31
0.0
  0
LINE
  5
67
  8
0
 62
     7
 10
41.038899999999991
 20
94.700800000000015
 30
0.0
 11
36.636099999999999
 21
94.700800000000015
 31
0.0
  0
LINE
  5
68
  8
0
 62
     7
 10
41.038899999999991
 20
93.986199999999997
 30
0.0
 11
36.914400000000001
 21
93.986199999999997
 31
0.0
  0
LINE
  5
69
  8
0
 62
     7
 10
45.441799999999994
 20
94.700800000000015
 30
0.0
 11
45.164099999999991
 21
93.986199999999997
 31
0.0
  0
LINE
  5
6A
  8
0
 62
     7
 10
45.441799999999994
 20
94.700800000000015
 30
0.0
 11
45.441799999999994
 21
95.290899999999993
 31
0.0
  0
LINE
  5
6B
  8
0
 62
     7
 10
41.038899999999991
 20
94.700800000000015
 30
0.0
 11
45.441799999999994
 21
94.700800000000015
 31
0.0
  0
LINE
  5
6C
  8
0
 62
     7
 10
41.038899999999991
 20
93.986199999999997
 30
0.0
 11
45.164099999999991
 21
93.986199999999997
 31
0.0
  0
LINE
  5
6D
  8
0
 62
     7
 10
45.039400000000001
 20
93.894300000000001
 30
0.0
 11
45.039400000000001
 21
93.986199999999997
 31
0.0
  0
LINE
  5
6E
  8
0
 62
     7
 10
37.039099999999998
 20
93.894300000000001
 30
0.0
 11
37.039099999999998
 21
93.986199999999997
 31
0.0
  0
ARC
  5
6F
  8
0
 62
     7
 10
41.03546
 20
100.593599
 30
0.0
 40
5.0629099999999987
 50
270.03922699999998
 51
287.21233100000001
  0
ARC
  5
70
  8
0
 62
     7
 10
42.230314999999997
 20
96.655688999999995
 30
0.0
 40
0.9480889999999999
 50
288.65913
 51
304.62808999999987
  0
ARC
  5
71
  8
0
 62
     7
 10
45.790613
 20
97.920531000000025
 30
0.0
 40
2.3898419999999989
 50
269.94609500000001
 51
276.94149800000002
  0
ARC
  5
72
  8
0
 62
     7
 10
45.983235000000001
 20
96.276134999999996
 30
0.0
 40
0.734258
 50
277.52868999999993
 51
314.58522900000003
  0
ARC
  5
73
  8
0
 62
     7
 10
29.924809
 20
116.8300209999999
 30
0.0
 40
26.812784000000001
 50
308.179892
 51
308.60091099999988
  0
ARC
  5
74
  8
0
 62
     7
 10
45.786116
 20
97.920531000000025
 30
0.0
 40
2.3898419999999989
 50
263.05852199999998
 51
270.05392399999988
  0
ARC
  5
75
  8
0
 62
     7
 10
45.593488999999991
 20
96.276111000000014
 30
0.0
 40
0.7342340000000001
 50
225.414062
 51
262.47147799999999
  0
ARC
  5
76
  8
0
 62
     7
 10
61.758822000000002
 20
116.9656779999999
 30
0.0
 40
26.985496000000001
 50
231.40142399999999
 51
231.8197569999999
  0
LINE
  5
77
  8
0
 62
     7
 10
46.205199999999991
 20
95.290899999999993
 30
0.0
 11
46.78949999999999
 21
95.875500000000002
 31
0.0
  0
LINE
  5
78
  8
0
 62
     7
 10
41.039599999999993
 20
95.290899999999993
 30
0.0
 11
46.205199999999991
 21
95.290899999999993
 31
0.0
  0
ARC
  5
79
  8
0
 62
     7
 10
41.043086999999993
 20
100.59363999999999
 30
0.0
 40
5.0629509999999991
 50
252.78775999999999
 51
269.96072099999992
  0
ARC
  5
7A
  8
0
 62
     7
 10
39.848225999999997
 20
96.655688999999995
 30
0.0
 40
0.9480889999999999
 50
235.37192999999999
 51
251.34088999999989
  0
ARC
  5
7B
  8
0
 62
     7
 10
36.287927000000003
 20
97.920531000000025
 30
0.0
 40
2.3898419999999989
 50
263.05852199999998
 51
270.05392399999988
  0
ARC
  5
7C
  8
0
 62
     7
 10
36.095317999999999
 20
96.276146000000011
 30
0.0
 40
0.73427
 50
225.41502399999999
 51
262.47051699999992
  0
ARC
  5
7D
  8
0
 62
     7
 10
52.198459
 20
116.8872029999999
 30
0.0
 40
26.885376999999998
 50
231.400645
 51
231.82053599999989
  0
ARC
  5
7E
  8
0
 62
     7
 10
36.29242399999999
 20
97.921169999999989
 30
0.0
 40
2.3904809999999999
 50
269.94613599999991
 51
276.94056799999998
  0
ARC
  5
7F
  8
0
 62
     7
 10
36.485129000000001
 20
96.276286999999996
 30
0.0
 40
0.734403
 50
277.52367299999992
 51
314.57979599999987
  0
ARC
  5
80
  8
0
 62
     7
 10
21.308126000000001
 20
115.70019599999991
 30
0.0
 40
25.379854000000002
 50
308.19244200000003
 51
308.63699400000002
  0
LINE
  5
81
  8
0
 62
     7
 10
35.8733
 20
95.290899999999993
 30
0.0
 11
35.289000000000001
 21
95.875500000000002
 31
0.0
  0
LINE
  5
82
  8
0
 62
     7
 10
41.038899999999991
 20
95.290899999999993
 30
0.0
 11
35.8733
 21
95.290899999999993
 31
0.0
  0
ARC
  5
83
  8
0
 62
     7
 10
41.035455999999989
 20
92.587761
 30
0.0
 40
5.0668449999999989
 50
72.801403000000008
 51
89.960753999999994
  0
ARC
  5
84
  8
0
 62
     7
 10
42.230536999999998
 20
96.529165000000006
 30
0.0
 40
0.94861
 50
55.409939000000001
 51
71.365656000000001
  0
ARC
  5
85
  8
0
 62
     7
 10
45.790613
 20
95.264763999999985
 30
0.0
 40
2.3898419999999989
 50
83.058502000000004
 51
90.053905
  0
ARC
  5
86
  8
0
 62
     7
 10
45.983187000000001
 20
96.908622999999992
 30
0.0
 40
0.734798
 50
45.450984000000012
 51
82.473102999999995
  0
ARC
  5
87
  8
0
 62
     7
 10
29.553665999999989
 20
75.856815999999995
 30
0.0
 40
27.434163999999999
 50
51.443252000000001
 51
51.854512
  0
ARC
  5
88
  8
0
 62
     7
 10
45.786116
 20
95.264763999999985
 30
0.0
 40
2.3898419999999989
 50
89.946076000000005
 51
96.941478000000004
  0
ARC
  5
89
  8
0
 62
     7
 10
45.593536999999991
 20
96.90864599999999
 30
0.0
 40
0.7347730000000001
 50
97.526729000000003
 51
134.54972499999991
  0
ARC
  5
8A
  8
0
 62
     7
 10
62.134928000000002
 20
75.714679000000004
 30
0.0
 40
27.615037999999998
 50
128.14583799999991
 51
128.5544129999999
  0
LINE
  5
8B
  8
0
 62
     7
 10
46.205199999999991
 20
97.894400000000005
 30
0.0
 11
46.78949999999999
 21
97.310100000000006
 31
0.0
  0
LINE
  5
8C
  8
0
 62
     7
 10
41.039599999999993
 20
97.894400000000005
 30
0.0
 11
46.205199999999991
 21
97.894400000000005
 31
0.0
  0
ARC
  5
8D
  8
0
 62
     7
 10
41.043090999999997
 20
92.587718999999993
 30
0.0
 40
5.0668870000000004
 50
90.039296999999976
 51
107.19850599999999
  0
ARC
  5
8E
  8
0
 62
     7
 10
39.848003999999989
 20
96.529165000000006
 30
0.0
 40
0.94861
 50
108.63432399999991
 51
124.5900409999999
  0
ARC
  5
8F
  8
0
 62
     7
 10
36.287927000000003
 20
95.264763999999985
 30
0.0
 40
2.3898419999999989
 50
89.946076000000005
 51
96.941478000000004
  0
ARC
  5
90
  8
0
 62
     7
 10
36.095365999999999
 20
96.908612000000005
 30
0.0
 40
0.7348100000000001
 50
97.527690000000007
 51
134.54876399999989
  0
ARC
  5
91
  8
0
 62
     7
 10
52.571672
 20
75.79692
 30
0.0
 40
27.510171
 50
128.14506
 51
128.55519200000001
  0
ARC
  5
92
  8
0
 62
     7
 10
36.29242399999999
 20
95.264125000000007
 30
0.0
 40
2.3904809999999999
 50
83.059431999999987
 51
90.053864000000004
  0
ARC
  5
93
  8
0
 62
     7
 10
36.485081000000001
 20
96.908469999999994
 30
0.0
 40
0.734943
 50
45.456414000000002
 51
82.478116999999983
  0
ARC
  5
94
  8
0
 62
     7
 10
20.976582999999991
 20
77.038651000000002
 30
0.0
 40
25.935870000000001
 50
51.407181000000001
 51
51.841965999999992
  0
LINE
  5
95
  8
0
 62
     7
 10
35.8733
 20
97.894400000000005
 30
0.0
 11
35.289000000000001
 21
97.310100000000006
 31
0.0
  0
LINE
  5
96
  8
0
 62
     7
 10
44.9236
 20
95.875500000000002
 30
0.0
 11
44.9236
 21
97.310100000000006
 31
0.0
  0
LINE
  5
97
  8
0
 62
     7
 10
42.769099999999987
 20
95.875500000000002
 30
0.0
 11
42.769099999999987
 21
97.310100000000006
 31
0.0
  0
LINE
  5
98
  8
0
 62
     7
 10
39.3095
 20
95.875500000000002
 30
0.0
 11
39.3095
 21
97.310100000000006
 31
0.0
  0
LINE
  5
99
  8
0
 62
     7
 10
37.154899999999991
 20
95.875500000000002
 30
0.0
 11
37.154899999999991
 21
97.310100000000006
 31
0.0
  0
LINE
  5
9A
  8
0
 62
     7
 10
46.653100000000002
 20
95.875500000000002
 30
0.0
 11
46.653100000000002
 21
97.310100000000006
 31
0.0
  0
LINE
  5
9B
  8
0
 62
     7
 10
35.4255
 20
95.875500000000002
 30
0.0
 11
35.4255
 21
97.310100000000006
 31
0.0
  0
LINE
  5
9C
  8
0
 62
     7
 10
35.289000000000001
 20
95.875500000000002
 30
0.0
 11
35.289000000000001
 21
97.310100000000006
 31
0.0
  0
LINE
  5
9D
  8
0
 62
     7
 10
46.78949999999999
 20
95.875500000000002
 30
0.0
 11
46.78949999999999
 21
97.310100000000006
 31
0.0
  0
LINE
  5
9E
  8
0
 62
     7
 10
41.038899999999991
 20
97.894400000000005
 30
0.0
 11
35.8733
 21
97.894400000000005
 31
0.0
  0
LINE
  5
9F
  8
0
 62
     7
 10
46.78949999999999
 20
97.310100000000006
 30
0.0
 11
46.653100000000002
 21
97.310100000000006
 31
0.0
  0
LINE
  5
A0
  8
0
 62
     7
 10
44.9236
 20
97.310100000000006
 30
0.0
 11
42.769099999999987
 21
97.310100000000006
 31
0.0
  0
LINE
  5
A1
  8
0
 62
     7
 10
39.3095
 20
97.310100000000006
 30
0.0
 11
37.154899999999991
 21
97.310100000000006
 31
0.0
  0
LINE
  5
A2
  8
0
 62
     7
 10
35.4255
 20
97.310100000000006
 30
0.0
 11
35.289000000000001
 21
97.310100000000006
 31
0.0
  0
LINE
  5
A3
  8
0
 62
     7
 10
46.78949999999999
 20
95.875500000000002
 30
0.0
 11
46.653100000000002
 21
95.875500000000002
 31
0.0
  0
LINE
  5
A4
  8
0
 62
     7
 10
44.9236
 20
95.875500000000002
 30
0.0
 11
42.769099999999987
 21
95.875500000000002
 31
0.0
  0
LINE
  5
A5
  8
0
 62
     7
 10
39.3095
 20
95.875500000000002
 30
0.0
 11
37.154899999999991
 21
95.875500000000002
 31
0.0
  0
LINE
  5
A6
  8
0
 62
     7
 10
35.4255
 20
95.875500000000002
 30
0.0
 11
35.289000000000001
 21
95.875500000000002
 31
0.0
  0
LINE
  5
A7
  8
0
 62
     7
 10
45.039400000000001
 20
117.65900000000001
 30
0.0
 11
45.039400000000001
 21
117.751
 31
0.0
  0
LINE
  5
A8
  8
0
 62
     7
 10
37.039099999999998
 20
117.65900000000001
 30
0.0
 11
37.039099999999998
 21
117.751
 31
0.0
  0
ARC
  5
A9
  8
0
 62
     7
 10
41.035455999999989
 20
124.362298
 30
0.0
 40
5.0668449999999989
 50
270.03924599999988
 51
287.19859700000001
  0
ARC
  5
AA
  8
0
 62
     7
 10
42.230536999999998
 20
120.420894
 30
0.0
 40
0.94861
 50
288.634344
 51
304.59006099999988
  0
ARC
  5
AB
  8
0
 62
     7
 10
45.790613
 20
121.685294
 30
0.0
 40
2.3898419999999989
 50
269.94609500000001
 51
276.94149800000002
  0
ARC
  5
AC
  8
0
 62
     7
 10
45.983187000000001
 20
120.041436
 30
0.0
 40
0.734798
 50
277.52689700000002
 51
314.54901599999999
  0
ARC
  5
AD
  8
0
 62
     7
 10
29.553665999999989
 20
141.09324199999989
 30
0.0
 40
27.434163999999999
 50
308.14548799999989
 51
308.55674799999991
  0
ARC
  5
AE
  8
0
 62
     7
 10
45.786116
 20
121.685294
 30
0.0
 40
2.3898419999999989
 50
263.05852199999998
 51
270.05392399999988
  0
ARC
  5
AF
  8
0
 62
     7
 10
45.593536999999991
 20
120.04141199999999
 30
0.0
 40
0.7347730000000001
 50
225.45027499999989
 51
262.4732709999999
  0
ARC
  5
B0
  8
0
 62
     7
 10
62.134928000000002
 20
141.23537899999999
 30
0.0
 40
27.615037999999998
 50
231.44558699999999
 51
231.85416199999989
  0
LINE
  5
B1
  8
0
 62
     7
 10
46.205199999999991
 20
119.056
 30
0.0
 11
46.78949999999999
 21
119.64
 31
0.0
  0
LINE
  5
B2
  8
0
 62
     7
 10
41.039599999999993
 20
119.056
 30
0.0
 11
46.205199999999991
 21
119.056
 31
0.0
  0
ARC
  5
B3
  8
0
 62
     7
 10
41.043090999999997
 20
124.36233899999991
 30
0.0
 40
5.0668870000000004
 50
252.80149399999991
 51
269.96070299999991
  0
ARC
  5
B4
  8
0
 62
     7
 10
39.848003999999989
 20
120.420894
 30
0.0
 40
0.94861
 50
235.40995899999999
 51
251.36567599999989
  0
ARC
  5
B5
  8
0
 62
     7
 10
36.287927000000003
 20
121.685294
 30
0.0
 40
2.3898419999999989
 50
263.05852199999998
 51
270.05392399999988
  0
ARC
  5
B6
  8
0
 62
     7
 10
36.095365999999999
 20
120.04144699999991
 30
0.0
 40
0.7348100000000001
 50
225.45123599999991
 51
262.47230999999999
  0
ARC
  5
B7
  8
0
 62
     7
 10
52.571672
 20
141.1531379999999
 30
0.0
 40
27.510171
 50
231.44480799999999
 51
231.85494
  0
ARC
  5
B8
  8
0
 62
     7
 10
36.29242399999999
 20
121.68593300000001
 30
0.0
 40
2.3904809999999999
 50
269.94613599999991
 51
276.94056799999998
  0
ARC
  5
B9
  8
0
 62
     7
 10
36.485081000000001
 20
120.0415879999999
 30
0.0
 40
0.734943
 50
277.521883
 51
314.543586
  0
ARC
  5
BA
  8
0
 62
     7
 10
20.976582999999991
 20
139.91140799999991
 30
0.0
 40
25.935870000000001
 50
308.15803399999987
 51
308.59281900000002
  0
LINE
  5
BB
  8
0
 62
     7
 10
35.8733
 20
119.056
 30
0.0
 11
35.289000000000001
 21
119.64
 31
0.0
  0
LINE
  5
BC
  8
0
 62
     7
 10
41.038899999999991
 20
119.056
 30
0.0
 11
35.8733
 21
119.056
 31
0.0
  0
ARC
  5
BD
  8
0
 62
     7
 10
41.035455999999989
 20
116.35218
 30
0.0
 40
5.0668449999999989
 50
72.801403000000008
 51
89.960753999999994
  0
ARC
  5
BE
  8
0
 62
     7
 10
42.230536999999998
 20
120.293583
 30
0.0
 40
0.94861
 50
55.409939000000001
 51
71.365656000000001
  0
ARC
  5
BF
  8
0
 62
     7
 10
45.790613
 20
119.029183
 30
0.0
 40
2.3898419999999989
 50
83.058502000000004
 51
90.053905
  0
ARC
  5
C0
  8
0
 62
     7
 10
45.983187000000001
 20
120.673041
 30
0.0
 40
0.734798
 50
45.450984000000012
 51
82.473102999999995
  0
ARC
  5
C1
  8
0
 62
     7
 10
29.553665999999989
 20
99.621234999999999
 30
0.0
 40
27.434163999999999
 50
51.443252000000001
 51
51.854512
  0
ARC
  5
C2
  8
0
 62
     7
 10
45.786116
 20
119.029183
 30
0.0
 40
2.3898419999999989
 50
89.946076000000005
 51
96.941478000000004
  0
ARC
  5
C3
  8
0
 62
     7
 10
45.593536999999991
 20
120.67306499999989
 30
0.0
 40
0.7347730000000001
 50
97.526729000000003
 51
134.54972499999991
  0
ARC
  5
C4
  8
0
 62
     7
 10
62.134928000000002
 20
99.479097999999993
 30
0.0
 40
27.615037999999998
 50
128.14583799999991
 51
128.5544129999999
  0
LINE
  5
C5
  8
0
 62
     7
 10
46.205199999999991
 20
121.65899999999991
 30
0.0
 11
46.78949999999999
 21
121.0749999999999
 31
0.0
  0
LINE
  5
C6
  8
0
 62
     7
 10
41.039599999999993
 20
121.65899999999991
 30
0.0
 11
46.205199999999991
 21
121.65899999999991
 31
0.0
  0
ARC
  5
C7
  8
0
 62
     7
 10
41.043090999999997
 20
116.3521379999999
 30
0.0
 40
5.0668870000000004
 50
90.039296999999976
 51
107.19850599999999
  0
ARC
  5
C8
  8
0
 62
     7
 10
39.848003999999989
 20
120.293583
 30
0.0
 40
0.94861
 50
108.63432399999991
 51
124.5900409999999
  0
ARC
  5
C9
  8
0
 62
     7
 10
36.287927000000003
 20
119.029183
 30
0.0
 40
2.3898419999999989
 50
89.946076000000005
 51
96.941478000000004
  0
ARC
  5
CA
  8
0
 62
     7
 10
36.095365999999999
 20
120.67303099999999
 30
0.0
 40
0.7348100000000001
 50
97.527690000000007
 51
134.54876399999989
  0
ARC
  5
CB
  8
0
 62
     7
 10
52.571672
 20
99.561339000000004
 30
0.0
 40
27.510171
 50
128.14506
 51
128.55519200000001
  0
ARC
  5
CC
  8
0
 62
     7
 10
36.29242399999999
 20
119.028544
 30
0.0
 40
2.3904809999999999
 50
83.059431999999987
 51
90.053864000000004
  0
ARC
  5
CD
  8
0
 62
     7
 10
36.485081000000001
 20
120.6728889999999
 30
0.0
 40
0.734943
 50
45.456414000000002
 51
82.478116999999983
  0
ARC
  5
CE
  8
0
 62
     7
 10
20.976582999999991
 20
100.80306999999991
 30
0.0
 40
25.935870000000001
 50
51.407181000000001
 51
51.841965999999992
  0
LINE
  5
CF
  8
0
 62
     7
 10
35.8733
 20
121.65899999999991
 30
0.0
 11
35.289000000000001
 21
121.0749999999999
 31
0.0
  0
LINE
  5
D0
  8
0
 62
     7
 10
44.9236
 20
119.64
 30
0.0
 11
44.9236
 21
121.0749999999999
 31
0.0
  0
LINE
  5
D1
  8
0
 62
     7
 10
42.769099999999987
 20
119.64
 30
0.0
 11
42.769099999999987
 21
121.0749999999999
 31
0.0
  0
LINE
  5
D2
  8
0
 62
     7
 10
39.3095
 20
119.64
 30
0.0
 11
39.3095
 21
121.0749999999999
 31
0.0
  0
LINE
  5
D3
  8
0
 62
     7
 10
37.154899999999991
 20
119.64
 30
0.0
 11
37.154899999999991
 21
121.0749999999999
 31
0.0
  0
LINE
  5
D4
  8
0
 62
     7
 10
46.653100000000002
 20
119.64
 30
0.0
 11
46.653100000000002
 21
121.0749999999999
 31
0.0
  0
LINE
  5
D5
  8
0
 62
     7
 10
35.4255
 20
119.64
 30
0.0
 11
35.4255
 21
121.0749999999999
 31
0.0
  0
LINE
  5
D6
  8
0
 62
     7
 10
35.289000000000001
 20
119.64
 30
0.0
 11
35.289000000000001
 21
121.0749999999999
 31
0.0
  0
LINE
  5
D7
  8
0
 62
     7
 10
46.78949999999999
 20
119.64
 30
0.0
 11
46.78949999999999
 21
121.0749999999999
 31
0.0
  0
LINE
  5
D8
  8
0
 62
     7
 10
41.038899999999991
 20
121.65899999999991
 30
0.0
 11
35.8733
 21
121.65899999999991
 31
0.0
  0
LINE
  5
D9
  8
0
 62
     7
 10
46.78949999999999
 20
121.0749999999999
 30
0.0
 11
46.653100000000002
 21
121.0749999999999
 31
0.0
  0
LINE
  5
DA
  8
0
 62
     7
 10
44.9236
 20
121.0749999999999
 30
0.0
 11
42.769099999999987
 21
121.0749999999999
 31
0.0
  0
LINE
  5
DB
  8
0
 62
     7
 10
39.3095
 20
121.0749999999999
 30
0.0
 11
37.154899999999991
 21
121.0749999999999
 31
0.0
  0
LINE
  5
DC
  8
0
 62
     7
 10
35.4255
 20
121.0749999999999
 30
0.0
 11
35.289000000000001
 21
121.0749999999999
 31
0.0
  0
LINE
  5
DD
  8
0
 62
     7
 10
46.78949999999999
 20
119.64
 30
0.0
 11
46.653100000000002
 21
119.64
 31
0.0
  0
LINE
  5
DE
  8
0
 62
     7
 10
44.9236
 20
119.64
 30
0.0
 11
42.769099999999987
 21
119.64
 31
0.0
  0
LINE
  5
DF
  8
0
 62
     7
 10
39.3095
 20
119.64
 30
0.0
 11
37.154899999999991
 21
119.64
 31
0.0
  0
LINE
  5
E0
  8
0
 62
     7
 10
35.4255
 20
119.64
 30
0.0
 11
35.289000000000001
 21
119.64
 31
0.0
  0
LINE
  5
E1
  8
0
 62
     7
 10
37.039099999999998
 20
172.8829999999999
 30
0.0
 11
35.4255
 21
170.08799999999991
 31
0.0
  0
LINE
  5
E2
  8
0
 62
     7
 10
46.653100000000002
 20
170.08799999999991
 30
0.0
 11
45.039400000000001
 21
172.88399999999999
 31
0.0
  0
LINE
  5
E3
  8
0
 62
     7
 10
44.9236
 20
164.60400000000001
 30
0.0
 11
46.653100000000002
 21
167.59999999999991
 31
0.0
  0
LINE
  5
E4
  8
0
 62
     7
 10
39.3095
 20
163.36099999999999
 30
0.0
 11
42.769099999999987
 21
163.36099999999999
 31
0.0
  0
LINE
  5
E5
  8
0
 62
     7
 10
35.4255
 20
167.59999999999991
 30
0.0
 11
37.155200000000001
 21
164.60400000000001
 31
0.0
  0
ARC
  5
E6
  8
0
 62
     7
 10
41.192636999999998
 20
168.99753000000001
 30
0.0
 40
4.1563230000000004
 50
182.1146939999999
 51
267.885335
  0
ARC
  5
E7
  8
0
 62
     7
 10
41.039270000000002
 20
168.84416399999989
 30
0.0
 40
4.000125999999999
 50
270.00002000000001
 51
359.99998999999991
  0
ARC
  5
E8
  8
0
 62
     7
 10
41.043467999999997
 20
168.84539599999991
 30
0.0
 40
4.5042099999999987
 50
152.769227
 51
180.015691
  0
ARC
  5
E9
  8
0
 62
     7
 10
41.039270000000002
 20
168.8441629999999
 30
0.0
 40
4.5000109999999989
 50
179.99996999999991
 51
270.00002000000001
  0
ARC
  5
EA
  8
0
 62
     7
 10
41.039441999999987
 20
168.844337
 30
0.0
 40
4.5001850000000001
 50
269.99782699999997
 51
359.99779699999999
  0
ARC
  5
EB
  8
0
 62
     7
 10
41.012957999999998
 20
168.83949499999991
 30
0.0
 40
4.5266710000000003
 50
0.05909
 51
27.190517
  0
ARC
  5
EC
  8
0
 62
     7
 10
41.057062000000002
 20
168.83985100000001
 30
0.0
 40
4.7679210000000003
 50
147.4337919999999
 51
179.94816
  0
ARC
  5
ED
  8
0
 62
     7
 10
41.039270000000002
 20
168.8441629999999
 30
0.0
 40
4.7501269999999991
 50
179.99996999999991
 51
270.00002000000001
  0
ARC
  5
EE
  8
0
 62
     7
 10
41.039096999999991
 20
168.8439919999999
 30
0.0
 40
4.7499560000000001
 50
270.00209799999999
 51
0.002068
  0
ARC
  5
EF
  8
0
 62
     7
 10
41.005083999999997
 20
168.835722
 30
0.0
 40
4.7839769999999993
 50
0.101105
 51
32.494740999999998
  0
ARC
  5
F0
  8
0
 62
     7
 10
41.027697999999987
 20
168.846191
 30
0.0
 40
5.761817999999999
 50
347.50694499999997
 51
359.97983799999992
  0
ARC
  5
F1
  8
0
 62
     7
 10
41.024908000000003
 20
168.86808699999989
 30
0.0
 40
5.7773190000000003
 50
287.56800199999992
 51
312.44127200000003
  0
ARC
  5
F2
  8
0
 62
     7
 10
41.051571999999993
 20
168.864037
 30
0.0
 40
5.7729400000000002
 50
227.54671099999999
 51
252.4361199999999
  0
ARC
  5
F3
  8
0
 62
     7
 10
41.051829999999988
 20
168.843557
 30
0.0
 40
5.7623639999999989
 50
167.52785600000001
 51
192.4562719999999
  0
ARC
  5
F4
  8
0
 62
     7
 10
41.027611999999991
 20
168.842127
 30
0.0
 40
5.7619040000000004
 50
0.020255
 51
12.492962
  0
LINE
  5
F5
  8
0
  6
AIGENLINE001
 62
     7
 10
32.770600000000002
 20
168.84399999999999
 30
0.0
 11
49.409199999999998
 21
168.84399999999999
 31
0.0
  0
LINE
  5
F6
  8
0
 62
     7
 10
37.155200000000001
 20
152.584
 30
0.0
 11
35.4255
 21
149.58799999999991
 31
0.0
  0
LINE
  5
F7
  8
0
 62
     7
 10
42.769099999999987
 20
153.828
 30
0.0
 11
39.3095
 21
153.828
 31
0.0
  0
LINE
  5
F8
  8
0
 62
     7
 10
46.653100000000002
 20
149.58799999999991
 30
0.0
 11
44.9236
 21
152.584
 31
0.0
  0
LINE
  5
F9
  8
0
 62
     7
 10
44.9236
 20
144.1039999999999
 30
0.0
 11
46.653100000000002
 21
147.09999999999991
 31
0.0
  0
LINE
  5
FA
  8
0
 62
     7
 10
39.3095
 20
142.86000000000001
 30
0.0
 11
42.769099999999987
 21
142.86000000000001
 31
0.0
  0
LINE
  5
FB
  8
0
 62
     7
 10
35.4255
 20
147.09999999999991
 30
0.0
 11
37.155200000000001
 21
144.1039999999999
 31
0.0
  0
ARC
  5
FC
  8
0
 62
     7
 10
41.039270000000002
 20
148.3439929999999
 30
0.0
 40
3.8750689999999999
 50
0.00001
 51
89.999980000000008
  0
ARC
  5
FD
  8
0
 62
     7
 10
41.187413999999997
 20
148.19549199999989
 30
0.0
 40
4.0262949999999993
 50
92.108603000000016
 51
177.8862729999999
  0
ARC
  5
FE
  8
0
 62
     7
 10
41.187646000000001
 20
148.492548
 30
0.0
 40
4.026529
 50
182.11436199999989
 51
267.888214
  0
ARC
  5
FF
  8
0
 62
     7
 10
41.039183999999999
 20
148.34390799999991
 30
0.0
 40
3.8751549999999999
 50
270.00129299999998
 51
0.001264
  0
ARC
  5
100
  8
0
 62
     7
 10
41.039441999999987
 20
148.34381999999991
 30
0.0
 40
4.5001850000000001
 50
0.002203
 51
90.002172999999999
  0
ARC
  5
101
  8
0
 62
     7
 10
41.039270999999992
 20
148.3439929999999
 30
0.0
 40
4.500013
 50
90.0
 51
179.99996999999991
  0
ARC
  5
102
  8
0
 62
     7
 10
41.039270000000002
 20
148.3439929999999
 30
0.0
 40
4.5000109999999989
 50
179.99996999999991
 51
270.00002000000001
  0
ARC
  5
103
  8
0
 62
     7
 10
41.039441999999987
 20
148.34416599999989
 30
0.0
 40
4.5001850000000001
 50
269.99782699999997
 51
359.99779699999999
  0
ARC
  5
104
  8
0
 62
     7
 10
41.039096999999991
 20
148.344165
 30
0.0
 40
4.7499560000000001
 50
359.99793199999999
 51
89.997901999999996
  0
ARC
  5
105
  8
0
 62
     7
 10
41.039270999999992
 20
148.3439919999999
 30
0.0
 40
4.7501290000000003
 50
90.0
 51
179.99996999999991
  0
ARC
  5
106
  8
0
 62
     7
 10
41.039270000000002
 20
148.3439919999999
 30
0.0
 40
4.7501269999999991
 50
179.99996999999991
 51
270.00002000000001
  0
ARC
  5
107
  8
0
 62
     7
 10
41.039096999999991
 20
148.3438219999999
 30
0.0
 40
4.7499560000000001
 50
270.00209799999999
 51
0.002068
  0
ARC
  5
108
  8
0
 62
     7
 10
41.027697999999987
 20
148.34602100000001
 30
0.0
 40
5.761817999999999
 50
347.50694499999997
 51
359.97983799999992
  0
ARC
  5
109
  8
0
 62
     7
 10
41.024908000000003
 20
148.36791700000001
 30
0.0
 40
5.7773190000000003
 50
287.56800199999992
 51
312.44127200000003
  0
ARC
  5
10A
  8
0
 62
     7
 10
41.051571999999993
 20
148.36386699999991
 30
0.0
 40
5.7729400000000002
 50
227.54671099999999
 51
252.4361199999999
  0
ARC
  5
10B
  8
0
 62
     7
 10
41.051829999999988
 20
148.34338600000001
 30
0.0
 40
5.7623639999999989
 50
167.52785600000001
 51
192.4562719999999
  0
ARC
  5
10C
  8
0
 62
     7
 10
41.054054999999991
 20
148.31905800000001
 30
0.0
 40
5.7783499999999988
 50
107.572722
 51
132.437577
  0
ARC
  5
10D
  8
0
 62
     7
 10
41.027716999999988
 20
148.32493400000001
 30
0.0
 40
5.7718329999999991
 50
47.546718999999989
 51
72.444006999999985
  0
ARC
  5
10E
  8
0
 62
     7
 10
41.027611999999991
 20
148.34195600000001
 30
0.0
 40
5.7619040000000004
 50
0.020255
 51
12.492962
  0
LINE
  5
10F
  8
0
 62
     7
 10
45.039400000000001
 20
97.894400000000005
 30
0.0
 11
45.039400000000001
 21
119.056
 31
0.0
  0
LINE
  5
110
  8
0
 62
     7
 10
37.039099999999998
 20
97.894400000000005
 30
0.0
 11
37.039099999999998
 21
119.056
 31
0.0
  0
LINE
  5
111
  8
0
 62
     7
 10
45.039400000000001
 20
70.857100000000003
 30
0.0
 11
45.039400000000001
 21
93.986199999999997
 31
0.0
  0
LINE
  5
112
  8
0
 62
     7
 10
37.039099999999998
 20
70.857100000000003
 30
0.0
 11
37.039099999999998
 21
93.986199999999997
 31
0.0
  0
LINE
  5
113
  8
0
 62
     7
 10
45.039400000000001
 20
82.651099999999985
 30
0.0
 11
37.039099999999998
 21
82.651099999999985
 31
0.0
  0
LINE
  5
114
  8
0
 62
     7
 10
45.039400000000001
 20
81.922499999999985
 30
0.0
 11
37.039099999999998
 21
81.922499999999985
 31
0.0
  0
LINE
  5
115
  8
0
  6
AIGENLINE001
 62
     7
 10
41.038899999999991
 20
124.479
 30
0.0
 11
41.038899999999991
 21
63.9024
 31
0.0
  0
LINE
  5
116
  8
0
  6
AIGENLINE001
 62
     7
 10
29.0685
 20
95.357399999999998
 30
0.0
 11
52.914200000000001
 21
95.357399999999998
 31
0.0
  0
LINE
  5
117
  8
0
  6
AIGENLINE001
 62
     7
 10
32.770600000000002
 20
148.34399999999991
 30
0.0
 11
49.409199999999998
 21
148.34399999999991
 31
0.0
  0
LINE
  5
118
  8
0
 62
     7
 10
45.039400000000001
 20
168.84399999999999
 30
0.0
 11
45.039400000000001
 21
225.214
 31
0.0
  0
LINE
  5
119
  8
0
 62
     7
 10
37.039099999999998
 20
168.84399999999999
 30
0.0
 11
37.039099999999998
 21
225.214
 31
0.0
  0
LINE
  5
11A
  8
0
 62
     7
 10
45.039400000000001
 20
152.3829999999999
 30
0.0
 11
45.039400000000001
 21
164.80500000000001
 31
0.0
  0
LINE
  5
11B
  8
0
 62
     7
 10
37.039099999999998
 20
152.3829999999999
 30
0.0
 11
37.039099999999998
 21
164.80500000000001
 31
0.0
  0
LINE
  5
11C
  8
0
 62
     7
 10
45.039400000000001
 20
232.595
 30
0.0
 11
45.039400000000001
 21
241.345
 31
0.0
  0
LINE
  5
11D
  8
0
 62
     7
 10
37.039099999999998
 20
232.595
 30
0.0
 11
37.039099999999998
 21
241.345
 31
0.0
  0
LINE
  5
11E
  8
0
  6
AIGENLINE001
 62
     7
 10
41.038899999999991
 20
140.28399999999991
 30
0.0
 11
41.038899999999991
 21
243.00599999999989
 31
0.0
  0
LINE
  5
11F
  8
0
 62
     7
 10
32.2849
 20
231.57400000000001
 30
0.0
 11
32.2849
 21
229.8709999999999
 31
0.0
  0
ARC
  5
120
  8
0
 62
     7
 10
32.16854699999999
 20
224.3846889999999
 30
0.0
 40
3.527455999999999
 50
48.477284999999988
 51
62.261015999999998
  0
ARC
  5
121
  8
0
 62
     7
 10
31.797657999999998
 20
223.84128799999991
 30
0.0
 40
4.1809789999999989
 50
37.638246000000002
 51
49.608585999999988
  0
ARC
  5
122
  8
0
 62
     7
 10
34.885215000000002
 20
229.89176399999999
 30
0.0
 40
2.6004160000000001
 50
180.45817700000001
 51
233.99985100000001
  0
ARC
  5
123
  8
0
 62
     7
 10
35.257556999999991
 20
230.34774999999999
 30
0.0
 40
3.1883460000000001
 50
233.40308599999989
 51
243.00610800000001
  0
LINE
  5
124
  8
0
 62
     7
 10
35.108499999999999
 20
226.39500000000001
 30
0.0
 11
36.014600000000002
 21
225.214
 31
0.0
  0
LINE
  5
125
  8
0
 62
     7
 10
32.2849
 20
231.57400000000001
 30
0.0
 11
32.2849
 21
229.8709999999999
 31
0.0
  0
ARC
  5
126
  8
0
 62
     7
 10
49.914524999999998
 20
224.37964700000001
 30
0.0
 40
3.5343489999999989
 50
117.7758279999999
 51
131.52560399999999
  0
ARC
  5
127
  8
0
 62
     7
 10
50.293595000000003
 20
223.82628700000001
 30
0.0
 40
4.200753999999999
 50
130.39265399999991
 51
142.31132999999991
  0
ARC
  5
128
  8
0
 62
     7
 10
47.192634999999989
 20
229.89176499999991
 30
0.0
 40
2.6004169999999989
 50
306.00018699999998
 51
359.54182400000002
  0
ARC
  5
129
  8
0
 62
     7
 10
46.82072999999999
 20
230.347047
 30
0.0
 40
3.1875209999999989
 50
296.99266699999993
 51
306.5981779999999
  0
LINE
  5
12A
  8
0
 62
     7
 10
46.9694
 20
226.39500000000001
 30
0.0
 11
46.063999999999993
 21
225.214
 31
0.0
  0
LINE
  5
12B
  8
0
 62
     7
 10
49.792999999999999
 20
231.57400000000001
 30
0.0
 11
49.792999999999999
 21
229.8709999999999
 31
0.0
  0
LINE
  5
12C
  8
0
 62
     7
 10
31.664200000000001
 20
231.57400000000001
 30
0.0
 11
31.664200000000001
 21
232.595
 31
0.0
  0
LINE
  5
12D
  8
0
 62
     7
 10
50.414299999999997
 20
231.57400000000001
 30
0.0
 11
50.414299999999997
 21
232.595
 31
0.0
  0
LINE
  5
12E
  8
0
 62
     7
 10
47.20839999999999
 20
227.62299999999991
 30
0.0
 11
34.870100000000001
 21
227.62299999999991
 31
0.0
  0
LINE
  5
12F
  8
0
 62
     7
 10
46.063999999999993
 20
225.214
 30
0.0
 11
36.014600000000002
 21
225.214
 31
0.0
  0
LINE
  5
130
  8
0
 62
     7
 10
50.414299999999997
 20
231.57400000000001
 30
0.0
 11
31.664200000000001
 21
231.57400000000001
 31
0.0
  0
LINE
  5
131
  8
0
 62
     7
 10
45.039400000000001
 20
241.345
 30
0.0
 11
37.039099999999998
 21
241.345
 31
0.0
  0
LINE
  5
132
  8
0
 62
     7
 10
50.414299999999997
 20
232.595
 30
0.0
 11
31.664200000000001
 21
232.595
 31
0.0
  0
LINE
  5
133
  8
0
 62
     7
 10
73.578100000000006
 20
127.455
 30
0.0
 11
75.235799999999983
 21
127.899
 31
0.0
  0
LINE
  5
134
  8
0
 62
     7
 10
75.235799999999983
 20
127.899
 30
0.0
 11
73.578100000000006
 21
128.34399999999991
 31
0.0
  0
LINE
  5
135
  8
0
 62
     7
 10
73.578100000000006
 20
128.34399999999991
 30
0.0
 11
73.578100000000006
 21
127.455
 31
0.0
  0
LINE
  5
136
  8
0
 62
     7
 10
67.393699999999995
 20
128.333
 30
0.0
 11
65.735900000000001
 21
127.889
 31
0.0
  0
LINE
  5
137
  8
0
 62
     7
 10
65.735900000000001
 20
127.889
 30
0.0
 11
67.393699999999995
 21
127.444
 31
0.0
  0
LINE
  5
138
  8
0
 62
     7
 10
67.393699999999995
 20
127.444
 30
0.0
 11
67.393699999999995
 21
128.333
 31
0.0
  0
LINE
  5
139
  8
0
 62
     7
 10
75.235799999999983
 20
127.89399999999991
 30
0.0
 11
65.735900000000001
 21
127.89399999999991
 31
0.0
  0
LINE
  5
13A
  8
0
 62
     7
 10
66.083200000000005
 20
94.700800000000015
 30
0.0
 11
66.361199999999997
 21
93.986199999999997
 31
0.0
  0
LINE
  5
13B
  8
0
 62
     7
 10
66.083200000000005
 20
94.700800000000015
 30
0.0
 11
66.083200000000005
 21
95.290899999999993
 31
0.0
  0
LINE
  5
13C
  8
0
 62
     7
 10
70.485699999999994
 20
94.700800000000015
 30
0.0
 11
66.083200000000005
 21
94.700800000000015
 31
0.0
  0
LINE
  5
13D
  8
0
 62
     7
 10
70.485699999999994
 20
93.986199999999997
 30
0.0
 11
66.361199999999997
 21
93.986199999999997
 31
0.0
  0
LINE
  5
13E
  8
0
 62
     7
 10
74.888599999999997
 20
94.700800000000015
 30
0.0
 11
74.610900000000001
 21
93.986199999999997
 31
0.0
  0
ARC
  5
13F
  8
0
 62
     7
 10
73.433735999999996
 20
122.1807439999999
 30
0.0
 40
2.8852899999999999
 50
255.24135299999989
 51
270.01997899999992
  0
ARC
  5
140
  8
0
 62
     7
 10
73.161170999999996
 20
120.990748
 30
0.0
 40
1.6655899999999999
 50
234.17284900000001
 51
253.87978599999991
  0
ARC
  5
141
  8
0
 62
     7
 10
73.435746999999992
 20
122.1807439999999
 30
0.0
 40
2.8852899999999999
 50
269.98003999999992
 51
284.75866600000001
  0
ARC
  5
142
  8
0
 62
     7
 10
73.708312000000006
 20
120.990748
 30
0.0
 40
1.6655899999999999
 50
286.12023399999993
 51
305.82717100000002
  0
ARC
  5
143
  8
0
 62
     7
 10
73.433738000000005
 20
118.532483
 30
0.0
 40
2.886884999999999
 50
89.980074000000002
 51
104.7503509999999
  0
ARC
  5
144
  8
0
 62
     7
 10
73.161663000000004
 20
119.72154399999989
 30
0.0
 40
1.6682090000000001
 50
106.111784
 51
125.78304
  0
ARC
  5
145
  8
0
 62
     7
 10
73.435744999999983
 20
118.532483
 30
0.0
 40
2.886884999999999
 50
75.249628999999999
 51
90.019906999999975
  0
ARC
  5
146
  8
0
 62
     7
 10
73.707819999999998
 20
119.72154399999989
 30
0.0
 40
1.6682090000000001
 50
54.216940999999998
 51
73.888196000000008
  0
LINE
  5
147
  8
0
 62
     7
 10
75.772599999999997
 20
121.65899999999991
 30
0.0
 11
76.356899999999996
 21
121.0749999999999
 31
0.0
  0
LINE
  5
148
  8
0
 62
     7
 10
76.356899999999996
 20
119.64
 30
0.0
 11
75.772599999999997
 21
119.056
 31
0.0
  0
LINE
  5
149
  8
0
 62
     7
 10
72.186199999999999
 20
119.64
 30
0.0
 11
72.186199999999999
 21
121.0749999999999
 31
0.0
  0
LINE
  5
14A
  8
0
 62
     7
 10
74.683300000000003
 20
119.64
 30
0.0
 11
74.683300000000003
 21
121.0749999999999
 31
0.0
  0
LINE
  5
14B
  8
0
 62
     7
 10
76.356899999999996
 20
119.64
 30
0.0
 11
76.356899999999996
 21
121.0749999999999
 31
0.0
  0
LINE
  5
14C
  8
0
 62
     7
 10
70.485699999999994
 20
121.65899999999991
 30
0.0
 11
75.772599999999997
 21
121.65899999999991
 31
0.0
  0
LINE
  5
14D
  8
0
 62
     7
 10
70.485699999999994
 20
121.0749999999999
 30
0.0
 11
72.186199999999999
 21
121.0749999999999
 31
0.0
  0
LINE
  5
14E
  8
0
 62
     7
 10
74.683300000000003
 20
121.0749999999999
 30
0.0
 11
76.356899999999996
 21
121.0749999999999
 31
0.0
  0
LINE
  5
14F
  8
0
 62
     7
 10
70.485699999999994
 20
119.64
 30
0.0
 11
72.186199999999999
 21
119.64
 31
0.0
  0
LINE
  5
150
  8
0
 62
     7
 10
74.683300000000003
 20
119.64
 30
0.0
 11
76.356899999999996
 21
119.64
 31
0.0
  0
LINE
  5
151
  8
0
 62
     7
 10
70.485699999999994
 20
119.056
 30
0.0
 11
75.772599999999997
 21
119.056
 31
0.0
  0
ARC
  5
152
  8
0
 62
     7
 10
67.538394999999994
 20
122.1807439999999
 30
0.0
 40
2.8852899999999999
 50
269.98003999999992
 51
284.75866600000001
  0
ARC
  5
153
  8
0
 62
     7
 10
67.810959999999994
 20
120.990748
 30
0.0
 40
1.6655899999999999
 50
286.12023399999993
 51
305.82717100000002
  0
ARC
  5
154
  8
0
 62
     7
 10
67.536383999999984
 20
122.1807439999999
 30
0.0
 40
2.8852899999999999
 50
255.24135299999989
 51
270.01997899999992
  0
ARC
  5
155
  8
0
 62
     7
 10
67.263819999999996
 20
120.990748
 30
0.0
 40
1.6655899999999999
 50
234.17284900000001
 51
253.87978599999991
  0
ARC
  5
156
  8
0
 62
     7
 10
67.538392999999999
 20
118.532483
 30
0.0
 40
2.886884999999999
 50
75.249628999999999
 51
90.019906999999975
  0
ARC
  5
157
  8
0
 62
     7
 10
67.810468999999983
 20
119.72154399999989
 30
0.0
 40
1.6682090000000001
 50
54.216940999999998
 51
73.888196000000008
  0
ARC
  5
158
  8
0
 62
     7
 10
67.536385999999993
 20
118.532483
 30
0.0
 40
2.886884999999999
 50
89.980074000000002
 51
104.7503509999999
  0
ARC
  5
159
  8
0
 62
     7
 10
67.264310999999992
 20
119.72154399999989
 30
0.0
 40
1.6682090000000001
 50
106.111784
 51
125.78304
  0
LINE
  5
15A
  8
0
 62
     7
 10
65.1995
 20
121.65899999999991
 30
0.0
 11
64.614599999999996
 21
121.0749999999999
 31
0.0
  0
LINE
  5
15B
  8
0
 62
     7
 10
64.614599999999996
 20
119.64
 30
0.0
 11
65.1995
 21
119.056
 31
0.0
  0
LINE
  5
15C
  8
0
 62
     7
 10
68.785899999999984
 20
119.64
 30
0.0
 11
68.785899999999984
 21
121.0749999999999
 31
0.0
  0
LINE
  5
15D
  8
0
 62
     7
 10
66.288899999999998
 20
119.64
 30
0.0
 11
66.288899999999998
 21
121.0749999999999
 31
0.0
  0
LINE
  5
15E
  8
0
 62
     7
 10
64.614599999999996
 20
119.64
 30
0.0
 11
64.614599999999996
 21
121.0749999999999
 31
0.0
  0
LINE
  5
15F
  8
0
 62
     7
 10
70.485699999999994
 20
121.65899999999991
 30
0.0
 11
65.1995
 21
121.65899999999991
 31
0.0
  0
LINE
  5
160
  8
0
 62
     7
 10
70.485699999999994
 20
121.0749999999999
 30
0.0
 11
68.785899999999984
 21
121.0749999999999
 31
0.0
  0
LINE
  5
161
  8
0
 62
     7
 10
66.288899999999998
 20
121.0749999999999
 30
0.0
 11
64.614599999999996
 21
121.0749999999999
 31
0.0
  0
LINE
  5
162
  8
0
 62
     7
 10
70.485699999999994
 20
119.64
 30
0.0
 11
68.785899999999984
 21
119.64
 31
0.0
  0
LINE
  5
163
  8
0
 62
     7
 10
66.288899999999998
 20
119.64
 30
0.0
 11
64.614599999999996
 21
119.64
 31
0.0
  0
LINE
  5
164
  8
0
 62
     7
 10
70.485699999999994
 20
119.056
 30
0.0
 11
65.1995
 21
119.056
 31
0.0
  0
ARC
  5
165
  8
0
 62
     7
 10
73.433735999999996
 20
98.415980000000005
 30
0.0
 40
2.8852899999999999
 50
255.24135299999989
 51
270.01997899999992
  0
ARC
  5
166
  8
0
 62
     7
 10
73.161170999999996
 20
97.225983999999997
 30
0.0
 40
1.6655899999999999
 50
234.17284900000001
 51
253.87978599999991
  0
ARC
  5
167
  8
0
 62
     7
 10
73.435746999999992
 20
98.415980000000005
 30
0.0
 40
2.8852899999999999
 50
269.98003999999992
 51
284.75866600000001
  0
ARC
  5
168
  8
0
 62
     7
 10
73.708312000000006
 20
97.225983999999997
 30
0.0
 40
1.6655899999999999
 50
286.12023399999993
 51
305.82717100000002
  0
ARC
  5
169
  8
0
 62
     7
 10
73.433738000000005
 20
94.767719999999997
 30
0.0
 40
2.886884999999999
 50
89.980074000000002
 51
104.7503509999999
  0
ARC
  5
16A
  8
0
 62
     7
 10
73.161663000000004
 20
95.956781000000007
 30
0.0
 40
1.6682090000000001
 50
106.111784
 51
125.78304
  0
ARC
  5
16B
  8
0
 62
     7
 10
73.435744999999983
 20
94.767719999999997
 30
0.0
 40
2.886884999999999
 50
75.249628999999999
 51
90.019906999999975
  0
ARC
  5
16C
  8
0
 62
     7
 10
73.707819999999998
 20
95.956781000000007
 30
0.0
 40
1.6682090000000001
 50
54.216940999999998
 51
73.888196000000008
  0
LINE
  5
16D
  8
0
 62
     7
 10
75.772599999999997
 20
97.894400000000005
 30
0.0
 11
76.356899999999996
 21
97.310100000000006
 31
0.0
  0
LINE
  5
16E
  8
0
 62
     7
 10
76.356899999999996
 20
95.875500000000002
 30
0.0
 11
75.772599999999997
 21
95.290899999999993
 31
0.0
  0
LINE
  5
16F
  8
0
 62
     7
 10
72.186199999999999
 20
95.875500000000002
 30
0.0
 11
72.186199999999999
 21
97.310100000000006
 31
0.0
  0
LINE
  5
170
  8
0
 62
     7
 10
74.683300000000003
 20
95.875500000000002
 30
0.0
 11
74.683300000000003
 21
97.310100000000006
 31
0.0
  0
LINE
  5
171
  8
0
 62
     7
 10
74.888599999999997
 20
94.700800000000015
 30
0.0
 11
74.888599999999997
 21
95.290899999999993
 31
0.0
  0
LINE
  5
172
  8
0
 62
     7
 10
76.356899999999996
 20
95.875500000000002
 30
0.0
 11
76.356899999999996
 21
97.310100000000006
 31
0.0
  0
LINE
  5
173
  8
0
 62
     7
 10
70.485699999999994
 20
97.894400000000005
 30
0.0
 11
75.772599999999997
 21
97.894400000000005
 31
0.0
  0
LINE
  5
174
  8
0
 62
     7
 10
70.485699999999994
 20
97.310100000000006
 30
0.0
 11
72.186199999999999
 21
97.310100000000006
 31
0.0
  0
LINE
  5
175
  8
0
 62
     7
 10
74.683300000000003
 20
97.310100000000006
 30
0.0
 11
76.356899999999996
 21
97.310100000000006
 31
0.0
  0
LINE
  5
176
  8
0
 62
     7
 10
70.485699999999994
 20
95.875500000000002
 30
0.0
 11
72.186199999999999
 21
95.875500000000002
 31
0.0
  0
LINE
  5
177
  8
0
 62
     7
 10
74.683300000000003
 20
95.875500000000002
 30
0.0
 11
76.356899999999996
 21
95.875500000000002
 31
0.0
  0
LINE
  5
178
  8
0
 62
     7
 10
70.485699999999994
 20
94.700800000000015
 30
0.0
 11
74.888599999999997
 21
94.700800000000015
 31
0.0
  0
LINE
  5
179
  8
0
 62
     7
 10
70.485699999999994
 20
93.986199999999997
 30
0.0
 11
74.610900000000001
 21
93.986199999999997
 31
0.0
  0
LINE
  5
17A
  8
0
 62
     7
 10
70.485699999999994
 20
95.290899999999993
 30
0.0
 11
75.772599999999997
 21
95.290899999999993
 31
0.0
  0
ARC
  5
17B
  8
0
 62
     7
 10
67.538394999999994
 20
98.415980000000005
 30
0.0
 40
2.8852899999999999
 50
269.98003999999992
 51
284.75866600000001
  0
ARC
  5
17C
  8
0
 62
     7
 10
67.810959999999994
 20
97.225983999999997
 30
0.0
 40
1.6655899999999999
 50
286.12023399999993
 51
305.82717100000002
  0
ARC
  5
17D
  8
0
 62
     7
 10
67.536383999999984
 20
98.415980000000005
 30
0.0
 40
2.8852899999999999
 50
255.24135299999989
 51
270.01997899999992
  0
ARC
  5
17E
  8
0
 62
     7
 10
67.263819999999996
 20
97.225983999999997
 30
0.0
 40
1.6655899999999999
 50
234.17284900000001
 51
253.87978599999991
  0
ARC
  5
17F
  8
0
 62
     7
 10
67.538392999999999
 20
94.767719999999997
 30
0.0
 40
2.886884999999999
 50
75.249628999999999
 51
90.019906999999975
  0
ARC
  5
180
  8
0
 62
     7
 10
67.810468999999983
 20
95.956781000000007
 30
0.0
 40
1.6682090000000001
 50
54.216940999999998
 51
73.888196000000008
  0
ARC
  5
181
  8
0
 62
     7
 10
67.536385999999993
 20
94.767719999999997
 30
0.0
 40
2.886884999999999
 50
89.980074000000002
 51
104.7503509999999
  0
ARC
  5
182
  8
0
 62
     7
 10
67.264310999999992
 20
95.956781000000007
 30
0.0
 40
1.6682090000000001
 50
106.111784
 51
125.78304
  0
LINE
  5
183
  8
0
 62
     7
 10
65.1995
 20
97.894400000000005
 30
0.0
 11
64.614599999999996
 21
97.310100000000006
 31
0.0
  0
LINE
  5
184
  8
0
 62
     7
 10
65.735900000000001
 20
122.1009999999999
 30
0.0
 11
65.735900000000001
 21
128.31
 31
0.0
  0
LINE
  5
185
  8
0
 62
     7
 10
75.235799999999983
 20
122.1009999999999
 30
0.0
 11
75.235799999999983
 21
128.31
 31
0.0
  0
LINE
  5
186
  8
0
 62
     7
 10
74.486199999999997
 20
97.894400000000005
 30
0.0
 11
74.486199999999997
 21
119.056
 31
0.0
  0
LINE
  5
187
  8
0
 62
     7
 10
66.485900000000001
 20
97.894400000000005
 30
0.0
 11
66.485900000000001
 21
119.056
 31
0.0
  0
LINE
  5
188
  8
0
 62
     7
 10
74.486199999999997
 20
81.106999999999985
 30
0.0
 11
74.486199999999997
 21
93.986199999999997
 31
0.0
  0
LINE
  5
189
  8
0
 62
     7
 10
64.614599999999996
 20
95.875500000000002
 30
0.0
 11
65.1995
 21
95.290899999999993
 31
0.0
  0
LINE
  5
18A
  8
0
 62
     7
 10
68.785899999999984
 20
95.875500000000002
 30
0.0
 11
68.785899999999984
 21
97.310100000000006
 31
0.0
  0
LINE
  5
18B
  8
0
 62
     7
 10
66.288899999999998
 20
95.875500000000002
 30
0.0
 11
66.288899999999998
 21
97.310100000000006
 31
0.0
  0
LINE
  5
18C
  8
0
 62
     7
 10
66.485900000000001
 20
81.106999999999985
 30
0.0
 11
66.485900000000001
 21
93.986199999999997
 31
0.0
  0
LINE
  5
18D
  8
0
 62
     7
 10
64.614599999999996
 20
95.875500000000002
 30
0.0
 11
64.614599999999996
 21
97.310100000000006
 31
0.0
  0
LINE
  5
18E
  8
0
 62
     7
 10
70.485699999999994
 20
97.894400000000005
 30
0.0
 11
65.1995
 21
97.894400000000005
 31
0.0
  0
LINE
  5
18F
  8
0
 62
     7
 10
70.485699999999994
 20
97.310100000000006
 30
0.0
 11
68.785899999999984
 21
97.310100000000006
 31
0.0
  0
LINE
  5
190
  8
0
 62
     7
 10
66.288899999999998
 20
97.310100000000006
 30
0.0
 11
64.614599999999996
 21
97.310100000000006
 31
0.0
  0
LINE
  5
191
  8
0
 62
     7
 10
70.485699999999994
 20
95.875500000000002
 30
0.0
 11
68.785899999999984
 21
95.875500000000002
 31
0.0
  0
LINE
  5
192
  8
0
 62
     7
 10
66.288899999999998
 20
95.875500000000002
 30
0.0
 11
64.614599999999996
 21
95.875500000000002
 31
0.0
  0
LINE
  5
193
  8
0
 62
     7
 10
70.485699999999994
 20
95.290899999999993
 30
0.0
 11
65.1995
 21
95.290899999999993
 31
0.0
  0
LINE
  5
194
  8
0
 62
     7
 10
86.583399999999997
 20
81.913499999999985
 30
0.0
 11
86.861099999999993
 21
81.199299999999994
 31
0.0
  0
LINE
  5
195
  8
0
 62
     7
 10
86.583399999999997
 20
81.913499999999985
 30
0.0
 11
86.583399999999997
 21
82.503699999999995
 31
0.0
  0
LINE
  5
196
  8
0
 62
     7
 10
90.986199999999997
 20
81.913499999999985
 30
0.0
 11
86.583399999999997
 21
81.913499999999985
 31
0.0
  0
LINE
  5
197
  8
0
 62
     7
 10
74.486199999999997
 20
82.651099999999985
 30
0.0
 11
66.485900000000001
 21
82.651099999999985
 31
0.0
  0
LINE
  5
198
  8
0
 62
     7
 10
74.486199999999997
 20
81.922499999999985
 30
0.0
 11
66.485900000000001
 21
81.922499999999985
 31
0.0
  0
LINE
  5
199
  8
0
 62
     7
 10
90.986199999999997
 20
81.199299999999994
 30
0.0
 11
86.861099999999993
 21
81.199299999999994
 31
0.0
  0
LINE
  5
19A
  8
0
 62
     7
 10
95.389099999999985
 20
81.913499999999985
 30
0.0
 11
95.110699999999994
 21
81.199299999999994
 31
0.0
  0
ARC
  5
19B
  8
0
 62
     7
 10
101.2363239999999
 20
85.107313000000005
 30
0.0
 40
14.249869
 50
90.000692999999984
 51
180.00070299999999
  0
ARC
  5
19C
  8
0
 62
     7
 10
101.2361499999999
 20
85.107141999999996
 30
0.0
 40
6.2501329999999991
 50
90.0
 51
179.99996999999991
  0
ARC
  5
19D
  8
0
  6
AIGENLINE001
 62
     7
 10
101.236323
 20
85.107314000000002
 30
0.0
 40
10.25008699999999
 50
90.000962999999999
 51
180.00097299999999
  0
ARC
  5
19E
  8
0
 62
     7
 10
80.735804000000002
 20
81.107191999999998
 30
0.0
 40
14.250213
 50
269.99932699999988
 51
359.99929700000001
  0
ARC
  5
19F
  8
0
 62
     7
 10
80.735804000000002
 20
81.106842999999998
 30
0.0
 40
14.249864000000001
 50
179.999278
 51
269.99932699999988
  0
ARC
  5
1A0
  8
0
 62
     7
 10
80.736149999999995
 20
81.107535999999996
 30
0.0
 40
6.2503049999999991
 50
269.99528299999997
 51
359.99525299999988
  0
ARC
  5
1A1
  8
0
 62
     7
 10
80.735804999999999
 20
81.106843999999995
 30
0.0
 40
6.2496140000000002
 50
179.99839099999991
 51
269.99844100000001
  0
ARC
  5
1A2
  8
0
  6
AIGENLINE001
 62
     7
 10
80.735977000000005
 20
81.107364000000004
 30
0.0
 40
10.250258999999989
 50
269.99809399999992
 51
359.998064
  0
ARC
  5
1A3
  8
0
  6
AIGENLINE001
 62
     7
 10
80.735631999999995
 20
81.107016000000002
 30
0.0
 40
10.249911000000001
 50
179.99996999999991
 51
270.00002000000001
  0
LINE
  5
1A4
  8
0
 62
     7
 10
90.986199999999997
 20
76.135000000000005
 30
0.0
 11
90.986199999999997
 21
59.573700000000002
 31
0.0
  0
LINE
  5
1A5
  8
0
  6
AIGENLINE001
 62
     7
 10
90.986199999999997
 20
85.107100000000017
 30
0.0
 11
90.986199999999997
 21
81.106999999999985
 31
0.0
  0
LINE
  5
1A6
  8
0
 62
     7
 10
163.48699999999999
 20
90.292399999999986
 30
0.0
 11
163.48699999999999
 21
51.990600000000001
 31
0.0
  0
LINE
  5
1A7
  8
0
 62
     7
 10
70.485699999999994
 20
76.649699999999996
 30
0.0
 11
70.485699999999994
 21
51.990600000000001
 31
0.0
  0
LINE
  5
1A8
  8
0
  6
AIGENLINE001
 62
     7
 10
70.485699999999994
 20
122.821
 30
0.0
 11
70.485699999999994
 21
81.106999999999985
 31
0.0
  0
ARC
  5
1A9
  8
0
 62
     7
 10
93.933556999999979
 20
85.628701000000007
 30
0.0
 40
2.8852530000000001
 50
255.24125799999999
 51
270.02007500000002
  0
ARC
  5
1AA
  8
0
 62
     7
 10
93.661169999999998
 20
84.439098000000001
 30
0.0
 40
1.66598
 50
234.175175
 51
253.87745899999999
  0
ARC
  5
1AB
  8
0
 62
     7
 10
93.935578000000007
 20
85.628701000000007
 30
0.0
 40
2.8852530000000001
 50
269.97994499999999
 51
284.75876199999999
  0
ARC
  5
1AC
  8
0
 62
     7
 10
94.207964000000004
 20
84.439098000000001
 30
0.0
 40
1.66598
 50
286.12256099999991
 51
305.82484399999993
  0
ARC
  5
1AD
  8
0
 62
     7
 10
93.933559000000017
 20
81.980675000000005
 30
0.0
 40
2.8866890000000001
 50
89.979973000000015
 51
104.751276
  0
ARC
  5
1AE
  8
0
 62
     7
 10
93.661349999999985
 20
83.169788999999994
 30
0.0
 40
1.6679250000000001
 50
106.109646
 51
125.784205
  0
ARC
  5
1AF
  8
0
 62
     7
 10
93.935575999999983
 20
81.980675000000005
 30
0.0
 40
2.8866890000000001
 50
75.248704000000004
 51
90.020006999999993
  0
ARC
  5
1B0
  8
0
 62
     7
 10
94.207785000000001
 20
83.169788999999994
 30
0.0
 40
1.6679250000000001
 50
54.215775000000001
 51
73.890333999999996
  0
LINE
  5
1B1
  8
0
 62
     7
 10
96.272400000000005
 20
85.107100000000017
 30
0.0
 11
96.856700000000004
 21
84.522900000000007
 31
0.0
  0
LINE
  5
1B2
  8
0
 62
     7
 10
96.856700000000004
 20
83.088300000000004
 30
0.0
 11
96.272400000000005
 21
82.503699999999995
 31
0.0
  0
LINE
  5
1B3
  8
0
 62
     7
 10
92.686099999999996
 20
83.088300000000004
 30
0.0
 11
92.686099999999996
 21
84.522900000000007
 31
0.0
  0
LINE
  5
1B4
  8
0
 62
     7
 10
95.183099999999996
 20
83.088300000000004
 30
0.0
 11
95.183099999999996
 21
84.522900000000007
 31
0.0
  0
LINE
  5
1B5
  8
0
 62
     7
 10
95.389099999999985
 20
81.913499999999985
 30
0.0
 11
95.389099999999985
 21
82.503699999999995
 31
0.0
  0
LINE
  5
1B6
  8
0
 62
     7
 10
96.856700000000004
 20
83.088300000000004
 30
0.0
 11
96.856700000000004
 21
84.522900000000007
 31
0.0
  0
LINE
  5
1B7
  8
0
 62
     7
 10
90.986199999999997
 20
85.107100000000017
 30
0.0
 11
96.272400000000005
 21
85.107100000000017
 31
0.0
  0
LINE
  5
1B8
  8
0
 62
     7
 10
90.986199999999997
 20
84.522900000000007
 30
0.0
 11
92.686099999999996
 21
84.522900000000007
 31
0.0
  0
LINE
  5
1B9
  8
0
 62
     7
 10
95.183099999999996
 20
84.522900000000007
 30
0.0
 11
96.856700000000004
 21
84.522900000000007
 31
0.0
  0
LINE
  5
1BA
  8
0
 62
     7
 10
90.986199999999997
 20
83.088300000000004
 30
0.0
 11
92.686099999999996
 21
83.088300000000004
 31
0.0
  0
LINE
  5
1BB
  8
0
 62
     7
 10
95.183099999999996
 20
83.088300000000004
 30
0.0
 11
96.856700000000004
 21
83.088300000000004
 31
0.0
  0
LINE
  5
1BC
  8
0
 62
     7
 10
101.236
 20
91.357299999999995
 30
0.0
 11
147.35599999999991
 21
91.357299999999995
 31
0.0
  0
LINE
  5
1BD
  8
0
 62
     7
 10
101.236
 20
99.357200000000006
 30
0.0
 11
147.35599999999991
 21
99.357200000000006
 31
0.0
  0
LINE
  5
1BE
  8
0
 62
     7
 10
72.143500000000003
 20
52.926600000000001
 30
0.0
 11
70.485699999999994
 21
52.482199999999992
 31
0.0
  0
LINE
  5
1BF
  8
0
 62
     7
 10
70.485699999999994
 20
52.482199999999992
 30
0.0
 11
72.143500000000003
 21
52.038200000000003
 31
0.0
  0
LINE
  5
1C0
  8
0
 62
     7
 10
72.143500000000003
 20
52.038200000000003
 30
0.0
 11
72.143500000000003
 21
52.926600000000001
 31
0.0
  0
LINE
  5
1C1
  8
0
 62
     7
 10
161.828
 20
52.049199999999999
 30
0.0
 11
163.48699999999999
 21
52.492899999999999
 31
0.0
  0
LINE
  5
1C2
  8
0
 62
     7
 10
163.48699999999999
 20
52.492899999999999
 30
0.0
 11
161.828
 21
52.9373
 31
0.0
  0
LINE
  5
1C3
  8
0
 62
     7
 10
161.828
 20
52.9373
 30
0.0
 11
161.828
 21
52.049199999999999
 31
0.0
  0
LINE
  5
1C4
  8
0
 62
     7
 10
70.485699999999994
 20
52.487699999999997
 30
0.0
 11
163.48699999999999
 21
52.487699999999997
 31
0.0
  0
LINE
  5
1C5
  8
0
 62
     7
 10
155.762
 20
85.982200000000006
 30
0.0
 11
177.8249999999999
 21
85.982200000000006
 31
0.0
  0
LINE
  5
1C6
  8
0
 62
     7
 10
155.762
 20
104.732
 30
0.0
 11
177.8249999999999
 21
104.732
 31
0.0
  0
LINE
  5
1C7
  8
0
 62
     7
 10
176.8829999999999
 20
87.640000000000015
 30
0.0
 11
177.32799999999989
 21
85.982200000000006
 31
0.0
  0
LINE
  5
1C8
  8
0
 62
     7
 10
177.32799999999989
 20
85.982200000000006
 30
0.0
 11
177.7709999999999
 21
87.640000000000015
 31
0.0
  0
LINE
  5
1C9
  8
0
 62
     7
 10
177.7709999999999
 20
87.640000000000015
 30
0.0
 11
176.8829999999999
 21
87.640000000000015
 31
0.0
  0
LINE
  5
1CA
  8
0
 62
     7
 10
177.76099999999991
 20
103.0739999999999
 30
0.0
 11
177.31700000000001
 21
104.732
 31
0.0
  0
LINE
  5
1CB
  8
0
 62
     7
 10
177.31700000000001
 20
104.732
 30
0.0
 11
176.87200000000001
 21
103.0739999999999
 31
0.0
  0
LINE
  5
1CC
  8
0
 62
     7
 10
176.87200000000001
 20
103.0739999999999
 30
0.0
 11
177.76099999999991
 21
103.0739999999999
 31
0.0
  0
LINE
  5
1CD
  8
0
 62
     7
 10
177.322
 20
85.982200000000006
 30
0.0
 11
177.322
 21
104.732
 31
0.0
  0
LINE
  5
1CE
  8
0
 62
     7
 10
164.15700000000001
 20
91.357299999999995
 30
0.0
 11
171.048
 21
91.357299999999995
 31
0.0
  0
LINE
  5
1CF
  8
0
 62
     7
 10
164.15700000000001
 20
99.357200000000006
 30
0.0
 11
171.048
 21
99.357200000000006
 31
0.0
  0
LINE
  5
1D0
  8
0
 62
     7
 10
154.73699999999991
 20
91.357299999999995
 30
0.0
 11
163.48699999999999
 21
91.357299999999995
 31
0.0
  0
LINE
  5
1D1
  8
0
 62
     7
 10
154.73699999999991
 20
99.357200000000006
 30
0.0
 11
163.48699999999999
 21
99.357200000000006
 31
0.0
  0
LINE
  5
1D2
  8
0
 62
     7
 10
76.958399999999997
 20
120.3579999999999
 30
0.0
 11
107.955
 21
120.3579999999999
 31
0.0
  0
LINE
  5
1D3
  8
0
  6
AIGENLINE001
 62
     7
 10
101.236
 20
95.357399999999998
 30
0.0
 11
165.148
 21
95.357399999999998
 31
0.0
  0
LINE
  5
1D4
  8
0
 62
     7
 10
72.143500000000003
 20
60.50180000000001
 30
0.0
 11
70.485699999999994
 21
60.057400000000001
 31
0.0
  0
LINE
  5
1D5
  8
0
 62
     7
 10
70.485699999999994
 20
60.057400000000001
 30
0.0
 11
72.143500000000003
 21
59.613599999999991
 31
0.0
  0
LINE
  5
1D6
  8
0
 62
     7
 10
72.143500000000003
 20
59.613599999999991
 30
0.0
 11
72.143500000000003
 21
60.50180000000001
 31
0.0
  0
LINE
  5
1D7
  8
0
 62
     7
 10
89.327799999999996
 20
59.624299999999998
 30
0.0
 11
90.986199999999997
 21
60.068399999999997
 31
0.0
  0
LINE
  5
1D8
  8
0
 62
     7
 10
90.986199999999997
 20
60.068399999999997
 30
0.0
 11
89.327799999999996
 21
60.512799999999999
 31
0.0
  0
LINE
  5
1D9
  8
0
 62
     7
 10
89.327799999999996
 20
60.512799999999999
 30
0.0
 11
89.327799999999996
 21
59.624299999999998
 31
0.0
  0
LINE
  5
1DA
  8
0
 62
     7
 10
70.485699999999994
 20
60.063200000000002
 30
0.0
 11
90.986199999999997
 21
60.063200000000002
 31
0.0
  0
LINE
  5
1DB
  8
0
 62
     7
 10
85.596000000000004
 20
70.857100000000003
 30
0.0
 11
108.04000000000001
 21
70.857100000000003
 31
0.0
  0
LINE
  5
1DC
  8
0
 62
     7
 10
90.986199999999997
 20
81.913499999999985
 30
0.0
 11
95.389099999999985
 21
81.913499999999985
 31
0.0
  0
LINE
  5
1DD
  8
0
 62
     7
 10
90.986199999999997
 20
81.199299999999994
 30
0.0
 11
95.110699999999994
 21
81.199299999999994
 31
0.0
  0
LINE
  5
1DE
  8
0
 62
     7
 10
90.986199999999997
 20
82.503699999999995
 30
0.0
 11
96.272400000000005
 21
82.503699999999995
 31
0.0
  0
ARC
  5
1DF
  8
0
 62
     7
 10
88.038220999999993
 20
85.628738999999996
 30
0.0
 40
2.8852899999999999
 50
269.98003999999992
 51
284.75866600000001
  0
ARC
  5
1E0
  8
0
 62
     7
 10
88.310613000000004
 20
84.439098000000001
 30
0.0
 40
1.66598
 50
286.12256099999991
 51
305.82484399999993
  0
ARC
  5
1E1
  8
0
 62
     7
 10
88.036209999999997
 20
85.628738999999996
 30
0.0
 40
2.8852899999999999
 50
255.24135299999989
 51
270.01997899999992
  0
ARC
  5
1E2
  8
0
 62
     7
 10
87.763818000000015
 20
84.439098000000001
 30
0.0
 40
1.66598
 50
234.175175
 51
253.87745899999999
  0
ARC
  5
1E3
  8
0
 62
     7
 10
88.038218999999998
 20
81.980637999999985
 30
0.0
 40
2.886725999999999
 50
75.248800000000003
 51
90.019912000000005
  0
ARC
  5
1E4
  8
0
 62
     7
 10
88.310432999999989
 20
83.169788999999994
 30
0.0
 40
1.6679250000000001
 50
54.215775000000001
 51
73.890333999999996
  0
ARC
  5
1E5
  8
0
 62
     7
 10
88.036212000000006
 20
81.980637999999985
 30
0.0
 40
2.886725999999999
 50
89.980068000000003
 51
104.75117999999991
  0
ARC
  5
1E6
  8
0
 62
     7
 10
87.763998000000001
 20
83.169788999999994
 30
0.0
 40
1.6679250000000001
 50
106.109646
 51
125.784205
  0
LINE
  5
1E7
  8
0
 62
     7
 10
85.699399999999997
 20
85.107100000000017
 30
0.0
 11
85.115099999999984
 21
84.522900000000007
 31
0.0
  0
LINE
  5
1E8
  8
0
 62
     7
 10
94.986000000000004
 20
81.106999999999985
 30
0.0
 11
94.986000000000004
 21
81.199299999999994
 31
0.0
  0
LINE
  5
1E9
  8
0
 62
     7
 10
85.115099999999984
 20
83.088300000000004
 30
0.0
 11
85.699399999999997
 21
82.503699999999995
 31
0.0
  0
LINE
  5
1EA
  8
0
 62
     7
 10
89.285700000000006
 20
83.088300000000004
 30
0.0
 11
89.285700000000006
 21
84.522900000000007
 31
0.0
  0
LINE
  5
1EB
  8
0
 62
     7
 10
86.788700000000006
 20
83.088300000000004
 30
0.0
 11
86.788700000000006
 21
84.522900000000007
 31
0.0
  0
LINE
  5
1EC
  8
0
 62
     7
 10
86.985799999999983
 20
81.106999999999985
 30
0.0
 11
86.985799999999983
 21
81.199299999999994
 31
0.0
  0
LINE
  5
1ED
  8
0
 62
     7
 10
85.115099999999984
 20
83.088300000000004
 30
0.0
 11
85.115099999999984
 21
84.522900000000007
 31
0.0
  0
LINE
  5
1EE
  8
0
 62
     7
 10
90.986199999999997
 20
85.107100000000017
 30
0.0
 11
85.699399999999997
 21
85.107100000000017
 31
0.0
  0
LINE
  5
1EF
  8
0
 62
     7
 10
90.986199999999997
 20
84.522900000000007
 30
0.0
 11
89.285700000000006
 21
84.522900000000007
 31
0.0
  0
LINE
  5
1F0
  8
0
 62
     7
 10
86.788700000000006
 20
84.522900000000007
 30
0.0
 11
85.115099999999984
 21
84.522900000000007
 31
0.0
  0
LINE
  5
1F1
  8
0
 62
     7
 10
90.986199999999997
 20
83.088300000000004
 30
0.0
 11
89.285700000000006
 21
83.088300000000004
 31
0.0
  0
LINE
  5
1F2
  8
0
 62
     7
 10
86.788700000000006
 20
83.088300000000004
 30
0.0
 11
85.115099999999984
 21
83.088300000000004
 31
0.0
  0
LINE
  5
1F3
  8
0
 62
     7
 10
90.986199999999997
 20
82.503699999999995
 30
0.0
 11
85.699399999999997
 21
82.503699999999995
 31
0.0
  0
LINE
  5
1F4
  8
0
 62
     7
 10
153.71600000000001
 20
104.1109999999999
 30
0.0
 11
152.01299999999989
 21
104.1109999999999
 31
0.0
  0
ARC
  5
1F5
  8
0
 62
     7
 10
146.51467700000001
 20
104.2355909999999
 30
0.0
 40
3.5413299999999999
 50
318.51293599999991
 51
332.23627599999992
  0
ARC
  5
1F6
  8
0
 62
     7
 10
145.97588699999989
 20
104.6055289999999
 30
0.0
 40
4.1907659999999991
 50
307.65816100000001
 51
319.60401899999999
  0
ARC
  5
1F7
  8
0
 62
     7
 10
152.03428999999991
 20
101.509384
 30
0.0
 40
2.602145999999999
 50
90.467829000000009
 51
143.980503
  0
ARC
  5
1F8
  8
0
 62
     7
 10
152.4879389999999
 20
101.13913100000001
 30
0.0
 40
3.1869640000000001
 50
143.39270200000001
 51
153.00071800000001
  0
LINE
  5
1F9
  8
0
 62
     7
 10
148.536
 20
101.288
 30
0.0
 11
147.35599999999991
 21
100.38200000000001
 31
0.0
  0
LINE
  5
1FA
  8
0
 62
     7
 10
153.71600000000001
 20
104.1109999999999
 30
0.0
 11
152.01299999999989
 21
104.1109999999999
 31
0.0
  0
ARC
  5
1FB
  8
0
 62
     7
 10
146.519823
 20
86.482782
 30
0.0
 40
3.5351119999999998
 50
27.751353999999989
 51
41.499019999999987
  0
ARC
  5
1FC
  8
0
 62
     7
 10
145.97555299999991
 20
86.108897999999996
 30
0.0
 40
4.1912659999999997
 50
40.396977999999997
 51
52.341353999999988
  0
ARC
  5
1FD
  8
0
 62
     7
 10
152.033838
 20
89.204537000000016
 30
0.0
 40
2.6012619999999989
 50
216.009681
 51
269.54198700000001
  0
ARC
  5
1FE
  8
0
 62
     7
 10
152.4879389999999
 20
89.575670000000002
 30
0.0
 40
3.1869640000000001
 50
206.99928199999999
 51
216.60729799999999
  0
LINE
  5
1FF
  8
0
 62
     7
 10
148.536
 20
89.427000000000007
 30
0.0
 11
147.35599999999991
 21
90.332400000000007
 31
0.0
  0
LINE
  5
200
  8
0
 62
     7
 10
153.71600000000001
 20
86.603399999999993
 30
0.0
 11
152.01299999999989
 21
86.603399999999993
 31
0.0
  0
LINE
  5
201
  8
0
 62
     7
 10
153.71600000000001
 20
104.732
 30
0.0
 11
154.73699999999991
 21
104.732
 31
0.0
  0
LINE
  5
202
  8
0
 62
     7
 10
153.71600000000001
 20
85.982200000000006
 30
0.0
 11
154.73699999999991
 21
85.982200000000006
 31
0.0
  0
LINE
  5
203
  8
0
 62
     7
 10
149.7649999999999
 20
89.188199999999995
 30
0.0
 11
149.7649999999999
 21
101.527
 31
0.0
  0
LINE
  5
204
  8
0
 62
     7
 10
147.35599999999991
 20
90.332400000000007
 30
0.0
 11
147.35599999999991
 21
100.38200000000001
 31
0.0
  0
LINE
  5
205
  8
0
 62
     7
 10
153.71600000000001
 20
85.982200000000006
 30
0.0
 11
153.71600000000001
 21
104.732
 31
0.0
  0
LINE
  5
206
  8
0
 62
     7
 10
107.1429999999999
 20
97.015199999999993
 30
0.0
 11
107.58799999999989
 21
95.357399999999998
 31
0.0
  0
LINE
  5
207
  8
0
 62
     7
 10
107.58799999999989
 20
95.357399999999998
 30
0.0
 11
108.032
 21
97.015199999999993
 31
0.0
  0
LINE
  5
208
  8
0
 62
     7
 10
108.032
 20
97.015199999999993
 30
0.0
 11
107.1429999999999
 21
97.015199999999993
 31
0.0
  0
LINE
  5
209
  8
0
 62
     7
 10
107.1429999999999
 20
72.515199999999993
 30
0.0
 11
107.58799999999989
 21
70.857100000000003
 31
0.0
  0
LINE
  5
20A
  8
0
 62
     7
 10
107.58799999999989
 20
70.857100000000003
 30
0.0
 11
108.032
 21
72.515199999999993
 31
0.0
  0
LINE
  5
20B
  8
0
 62
     7
 10
108.032
 20
72.515199999999993
 30
0.0
 11
107.1429999999999
 21
72.515199999999993
 31
0.0
  0
LINE
  5
20C
  8
0
 62
     7
 10
108.021
 20
93.699299999999994
 30
0.0
 11
107.577
 21
95.357399999999998
 31
0.0
  0
LINE
  5
20D
  8
0
 62
     7
 10
107.577
 20
95.357399999999998
 30
0.0
 11
107.13200000000001
 21
93.699299999999994
 31
0.0
  0
LINE
  5
20E
  8
0
 62
     7
 10
107.13200000000001
 20
93.699299999999994
 30
0.0
 11
108.021
 21
93.699299999999994
 31
0.0
  0
LINE
  5
20F
  8
0
 62
     7
 10
108.021
 20
118.6989999999999
 30
0.0
 11
107.577
 21
120.3579999999999
 31
0.0
  0
LINE
  5
210
  8
0
 62
     7
 10
107.577
 20
120.3579999999999
 30
0.0
 11
107.13200000000001
 21
118.6989999999999
 31
0.0
  0
LINE
  5
211
  8
0
 62
     7
 10
107.13200000000001
 20
118.6989999999999
 30
0.0
 11
108.021
 21
118.6989999999999
 31
0.0
  0
LINE
  5
212
  8
0
 62
     7
 10
107.58199999999989
 20
70.857100000000003
 30
0.0
 11
107.58199999999989
 21
120.3579999999999
 31
0.0
  0
LINE
  5
213
  8
0
 62
     7
 10
170.21799999999999
 20
93.015100000000004
 30
0.0
 11
170.66200000000001
 21
91.357299999999995
 31
0.0
  0
LINE
  5
214
  8
0
 62
     7
 10
170.66200000000001
 20
91.357299999999995
 30
0.0
 11
171.10599999999991
 21
93.015100000000004
 31
0.0
  0
LINE
  5
215
  8
0
 62
     7
 10
171.10599999999991
 20
93.015100000000004
 30
0.0
 11
170.21799999999999
 21
93.015100000000004
 31
0.0
  0
LINE
  5
216
  8
0
 62
     7
 10
171.09599999999989
 20
97.699399999999997
 30
0.0
 11
170.6509999999999
 21
99.357200000000006
 31
0.0
  0
LINE
  5
217
  8
0
 62
     7
 10
170.6509999999999
 20
99.357200000000006
 30
0.0
 11
170.20699999999991
 21
97.699399999999997
 31
0.0
  0
LINE
  5
218
  8
0
 62
     7
 10
170.20699999999991
 20
97.699399999999997
 30
0.0
 11
171.09599999999989
 21
97.699399999999997
 31
0.0
  0
LINE
  5
219
  8
0
 62
     7
 10
170.65700000000001
 20
91.357299999999995
 30
0.0
 11
170.65700000000001
 21
99.357200000000006
 31
0.0
  0
LINE
  5
21A
  8
0
 62
     7
 10
163.48699999999999
 20
91.357299999999995
 30
0.0
 11
163.48699999999999
 21
99.357200000000006
 31
0.0
  0
LINE
  5
21B
  8
0
 62
     7
 10
154.73699999999991
 20
85.982200000000006
 30
0.0
 11
154.73699999999991
 21
104.732
 31
0.0
  0
LINE
  5
21C
  8
_________2
 62
     7
 10
205.30099999999999
 20
127.411
 30
0.0
 11
183.55000000000001
 21
127.411
 31
0.0
  0
LINE
  5
21D
  8
_________2
 62
     7
 10
100.2999999999999
 20
-4.0910799999999998
 30
0.0
 11
100.2999999999999
 21
-21.070999999999991
 31
0.0
  0
LINE
  5
21E
  8
_________2
 62
     7
 10
100.2999999999999
 20
275.93099999999993
 30
0.0
 11
100.2999999999999
 21
258.911
 31
0.0
  0
LINE
  5
21F
  8
_________2
 62
     7
 10
17.049399999999991
 20
127.411
 30
0.0
 11
-4.7006899999999989
 21
127.411
 31
0.0
  0
LINE
  5
220
  8
_________2
 62
     7
 10
76.740799999999993
 20
29.8047
 30
0.0
 11
74.554599999999994
 21
29.8047
 31
0.0
  0
LINE
  5
221
  8
_________2
 62
     7
 10
77.233500000000006
 20
29.8047
 30
0.0
 11
76.981300000000005
 21
29.8047
 31
0.0
  0
LINE
  5
222
  8
_________2
 62
     7
 10
77.726200000000006
 20
29.8047
 30
0.0
 11
80.6511
 21
29.8047
 31
0.0
  0
LINE
  5
223
  8
_________2
 62
     7
 10
77.233500000000006
 20
29.8047
 30
0.0
 11
77.485299999999995
 21
29.8047
 31
0.0
  0
LINE
  5
224
  8
_________2
 62
     7
 10
70.837000000000003
 20
29.8047
 30
0.0
 11
68.650300000000001
 21
29.8047
 31
0.0
  0
LINE
  5
225
  8
_________2
 62
     7
 10
71.329300000000003
 20
29.8047
 30
0.0
 11
71.077399999999983
 21
29.8047
 31
0.0
  0
LINE
  5
226
  8
_________2
 62
     7
 10
71.329300000000003
 20
30.2974
 30
0.0
 11
71.329300000000003
 21
32.484400000000001
 31
0.0
  0
LINE
  5
227
  8
_________2
 62
     7
 10
71.329300000000003
 20
29.8047
 30
0.0
 11
71.329300000000003
 21
30.057300000000001
 31
0.0
  0
LINE
  5
228
  8
_________2
 62
     7
 10
71.821899999999999
 20
29.8047
 30
0.0
 11
74.008899999999997
 21
29.8047
 31
0.0
  0
LINE
  5
229
  8
_________2
 62
     7
 10
71.329300000000003
 20
29.8047
 30
0.0
 11
71.581400000000002
 21
29.8047
 31
0.0
  0
LINE
  5
22A
  8
_________2
 62
     7
 10
71.329300000000003
 20
29.312799999999999
 30
0.0
 11
71.329300000000003
 21
27.126200000000001
 31
0.0
  0
LINE
  5
22B
  8
_________2
 62
     7
 10
71.329300000000003
 20
29.8047
 30
0.0
 11
71.329300000000003
 21
29.5532
 31
0.0
  0
LINE
  5
22C
  8
_________2
 62
     7
 10
75.040300000000002
 20
28.5852
 30
0.0
 11
80.218299999999985
 21
27.720400000000001
 31
0.0
  0
LINE
  5
22D
  8
_________2
 62
     7
 10
75.040300000000002
 20
31.024699999999999
 30
0.0
 11
80.218299999999985
 21
31.8901
 31
0.0
  0
LINE
  5
22E
  8
_________2
 62
     7
 10
80.218299999999985
 20
27.720400000000001
 30
0.0
 11
80.218299999999985
 21
31.8901
 31
0.0
  0
LINE
  5
22F
  8
_________2
 62
     7
 10
75.040300000000002
 20
28.5852
 30
0.0
 11
75.040300000000002
 21
31.024699999999999
 31
0.0
  0
ARC
  5
230
  8
_________2
 62
     7
 10
71.282340000000005
 20
29.757825
 30
0.0
 40
1.2677020000000001
 50
2.1210029999999991
 51
87.878986999999995
  0
ARC
  5
231
  8
_________2
 62
     7
 10
71.375812999999994
 20
29.758545999999999
 30
0.0
 40
1.2669680000000001
 50
92.105782999999988
 51
177.91037
  0
ARC
  5
232
  8
_________2
 62
     7
 10
71.376186000000004
 20
29.851671
 30
0.0
 40
1.2673680000000001
 50
182.12203600000001
 51
267.877993
  0
ARC
  5
233
  8
_________2
 62
     7
 10
71.282359999999997
 20
29.851998999999989
 30
0.0
 40
1.267695999999999
 50
272.12015300000002
 51
357.863674
  0
ARC
  5
234
  8
_________2
 62
     7
 10
71.248890000000003
 20
29.724731999999989
 30
0.0
 40
2.1668310000000002
 50
2.1161439999999989
 51
87.874379000000005
  0
ARC
  5
235
  8
_________2
 62
     7
 10
71.408918999999983
 20
29.725798000000001
 30
0.0
 40
2.1657399999999991
 50
92.107930000000025
 51
177.91097500000001
  0
ARC
  5
236
  8
_________2
 62
     7
 10
71.408934000000002
 20
29.884775999999999
 30
0.0
 40
2.1657950000000001
 50
182.11776599999999
 51
267.89173399999999
  0
ARC
  5
237
  8
_________2
 62
     7
 10
71.249286999999995
 20
29.885429999999989
 30
0.0
 40
2.1664590000000001
 50
272.11546800000002
 51
357.86560400000002
  0
TEXT
  5
238
  8
_________2
 62
     7
 10
104.604
 20
1.6794899999999999
 30
0.0
 40
3.0923400000000001
  1
図番
 41
0.5
  0
LINE
  5
239
  8
_________2
 62
     7
 10
103.55
 20
5.9087199999999989
 30
0.0
 11
183.55099999999999
 21
5.9087199999999989
 31
0.0
  0
TEXT
  5
23A
  8
_________2
 62
     7
 10
104.604
 20
11.679299999999991
 30
0.0
 40
3.0923400000000001
  1
品番
 41
0.5
  0
TEXT
  5
23B
  8
_________2
 62
     7
 10
104.604
 20
31.8184
 30
0.0
 40
3.0923400000000001
  1
名称
 41
0.5
  0
TEXT
  5
23C
  8
_________2
 62
     7
 10
91.844958333333338
 20
26.822299999999998
 30
0.0
 40
3.6545800000000002
  1
mm
 41
0.5
 72
     1
 11
93.367699999999985
 21
26.822299999999998
 31
0.0
  0
TEXT
  5
23D
  8
_________2
 62
     7
 10
85.642999999999986
 20
31.8184
 30
0.0
 40
3.0923400000000001
  1
単位
 41
0.5
  0
TEXT
  5
23E
  8
_________2
 62
     7
 10
85.642999999999986
 20
19.410799999999991
 30
0.0
 40
3.0923400000000001
  1
尺度
 41
0.5
  0
TEXT
  5
23F
  8
_________2
 62
     7
 10
90.548558666666679
 20
13.218199999999991
 30
0.0
 40
3.6545800000000002
  1
1 ： 4
 41
0.5
 72
     1
 11
93.959500000000006
 21
13.218199999999991
 31
0.0
  0
TEXT
  5
240
  8
_________2
 62
     7
 10
137.97442499999991
 20
9.1082000000000001
 30
0.0
 40
3.9357000000000002
  1
CET848
 41
0.5
 72
     1
 11
143.55000000000001
 21
9.1082000000000001
 31
0.0
  0
TEXT
  5
241
  8
_________2
 62
     7
 10
137.97442499999991
 20
-0.8926299999999999
 30
0.0
 40
3.9357000000000002
  1
CET848
 41
0.5
 72
     1
 11
143.55000000000001
 21
-0.8926299999999999
 31
0.0
  0
TEXT
  5
242
  8
_________2
 62
     7
 10
24.586600000000001
 20
0.707627
 30
0.0
 40
3.9357000000000002
  1
ヨーロッパ製洗面器用
 41
0.5
  0
TEXT
  5
243
  8
_________2
 62
     7
 10
109.179
 20
24.226099999999999
 30
0.0
 40
3.9357000000000002
  1
Pトラップ
 41
0.5
  0
TEXT
  5
244
  8
_________2
 62
     7
 10
39.425100333333333
 20
13.603400000000001
 30
0.0
 40
3.6545800000000002
  1
福田
 41
0.5
 72
     1
 11
41.313299999999998
 21
13.603400000000001
 31
0.0
  0
TEXT
  5
245
  8
_________2
 62
     7
 10
20.789890666666661
 20
13.603400000000001
 30
0.0
 40
3.6545800000000002
  1
石原
 41
0.5
 72
     1
 11
22.739000000000001
 21
13.603400000000001
 31
0.0
  0
TEXT
  5
246
  8
_________2
 62
     7
 10
67.785300000000007
 20
13.218199999999991
 30
0.0
 40
3.6545800000000002
  1
04.03.24
 41
0.5
  0
TEXT
  5
247
  8
_________2
 62
     7
 10
66.5929
 20
19.410799999999991
 30
0.0
 40
3.0923400000000001
  1
日付
 41
0.5
  0
TEXT
  5
248
  8
_________2
 62
     7
 10
29.639199999999992
 20
19.410799999999991
 30
0.0
 40
3.0923400000000001
  1
検図
 41
0.5
  0
TEXT
  5
249
  8
_________2
 62
     7
 10
18.020900000000001
 20
5.21143
 30
0.0
 40
3.0923400000000001
  1
備考
 41
0.5
  0
TEXT
  5
24A
  8
_________2
 62
     7
 10
18.020900000000001
 20
19.410799999999991
 30
0.0
 40
3.0923400000000001
  1
製図
 41
0.5
  0
TEXT
  5
24B
  8
_________2
 62
     7
 10
23.788265333333339
 20
27.936800000000002
 30
0.0
 40
4.4979399999999989
  1
セラトレーディング株式会社
 41
0.5
 72
     1
 11
41.180300000000003
 21
27.936800000000002
 31
0.0
  0
LINE
  5
24C
  8
_________2
 62
     7
 10
183.55099999999999
 20
-4.0910799999999998
 30
0.0
 11
17.049399999999991
 21
-4.0910799999999998
 31
0.0
  0
LINE
  5
24D
  8
_________2
 62
     7
 10
17.049399999999991
 20
-4.0910799999999998
 30
0.0
 11
17.049399999999991
 21
258.911
 31
0.0
  0
LINE
  5
24E
  8
_________2
 62
     7
 10
17.049399999999991
 20
258.911
 30
0.0
 11
183.55099999999999
 21
258.911
 31
0.0
  0
LINE
  5
24F
  8
_________2
 62
     7
 10
183.55099999999999
 20
258.911
 30
0.0
 11
183.55099999999999
 21
-4.0910799999999998
 31
0.0
  0
LINE
  5
250
  8
_________2
 62
     7
 10
65.549400000000006
 20
9.4092999999999982
 30
0.0
 11
65.549400000000006
 21
35.909100000000002
 31
0.0
  0
LINE
  5
251
  8
_________2
 62
     7
 10
84.549599999999984
 20
9.4092999999999982
 30
0.0
 11
84.549599999999984
 21
35.909100000000002
 31
0.0
  0
LINE
  5
252
  8
_________2
 62
     7
 10
103.55
 20
-4.0910799999999998
 30
0.0
 11
103.55
 21
35.909100000000002
 31
0.0
  0
LINE
  5
253
  8
_________2
 62
     7
 10
28.549199999999988
 20
9.4092999999999982
 30
0.0
 11
28.549199999999988
 21
23.409199999999998
 31
0.0
  0
LINE
  5
254
  8
_________2
 62
     7
 10
17.049399999999991
 20
9.4092999999999982
 30
0.0
 11
103.55
 21
9.4092999999999982
 31
0.0
  0
LINE
  5
255
  8
_________2
 62
     7
 10
17.049399999999991
 20
23.409199999999998
 30
0.0
 11
103.55
 21
23.409199999999998
 31
0.0
  0
LINE
  5
256
  8
_________2
 62
     7
 10
103.55
 20
15.9085
 30
0.0
 11
183.55099999999999
 21
15.9085
 31
0.0
  0
LINE
  5
257
  8
_________2
 62
     7
 10
17.049399999999991
 20
35.909100000000002
 30
0.0
 11
183.55099999999999
 21
35.909100000000002
 31
0.0
  0
ENDSEC
  0
EOF
