  0
SECTION
  2
HEADER
  9
$ACADVER
  1
AC1009
  9
$INSBASE
 10
0.0
 20
0.0
 30
0.0
  9
$EXTMIN
 10
-4.70052
 20
-21.071400000000001
 30
0.0
  9
$EXTMAX
 10
205.30099999999999
 20
275.93099999999993
 30
0.0
  9
$LIMMIN
 10
0.0
 20
0.0
  9
$LIMMAX
 10
12.0
 20
9.0
  9
$ORTHOMODE
 70
     0
  9
$REGENMODE
 70
     1
  9
$FILLMODE
 70
     1
  9
$QTEXTMODE
 70
     0
  9
$MIRRTEXT
 70
     1
  9
$DRAGMODE
 70
     2
  9
$LTSCALE
 40
1.0
  9
$OSMODE
 70
    37
  9
$ATTMODE
 70
     1
  9
$TEXTSIZE
 40
0.0
  9
$TRACEWID
 40
0.05
  9
$TEXTSTYLE
  7
STANDARD
  9
$CLAYER
  8
0
  9
$CELTYPE
  6
CONTINUOUS
  9
$CECOLOR
 62
   256
  9
$DIMSCALE
 40
1.0
  9
$DIMASZ
 40
0.18
  9
$DIMEXO
 40
0.0625
  9
$DIMDLI
 40
0.38
  9
$DIMRND
 40
0.0
  9
$DIMDLE
 40
0.0
  9
$DIMEXE
 40
0.18
  9
$DIMTP
 40
0.0
  9
$DIMTM
 40
0.0
  9
$DIMTXT
 40
0.18
  9
$DIMCEN
 40
0.09
  9
$DIMTSZ
 40
0.0
  9
$DIMTOL
 70
     0
  9
$DIMLIM
 70
     0
  9
$DIMTIH
 70
     1
  9
$DIMTOH
 70
     1
  9
$DIMSE1
 70
     0
  9
$DIMSE2
 70
     0
  9
$DIMTAD
 70
     0
  9
$DIMZIN
 70
     0
  9
$DIMBLK
  1

  9
$DIMASO
 70
     1
  9
$DIMSHO
 70
     1
  9
$DIMPOST
  1

  9
$DIMAPOST
  1

  9
$DIMALT
 70
     0
  9
$DIMALTD
 70
     2
  9
$DIMALTF
 40
25.399999999999999
  9
$DIMLFAC
 40
1.0
  9
$DIMTOFL
 70
     0
  9
$DIMTVP
 40
0.0
  9
$DIMTIX
 70
     0
  9
$DIMSOXD
 70
     0
  9
$DIMSAH
 70
     0
  9
$DIMBLK1
  1

  9
$DIMBLK2
  1

  9
$DIMSTYLE
  2
STANDARD
  9
$DIMCLRD
 70
     0
  9
$DIMCLRE
 70
     0
  9
$DIMCLRT
 70
     0
  9
$DIMTFAC
 40
1.0
  9
$DIMGAP
 40
0.09
  9
$LUNITS
 70
     2
  9
$LUPREC
 70
     4
  9
$SKETCHINC
 40
0.1
  9
$FILLETRAD
 40
0.0
  9
$AUNITS
 70
     0
  9
$AUPREC
 70
     0
  9
$MENU
  1
.
  9
$ELEVATION
 40
0.0
  9
$PELEVATION
 40
0.0
  9
$THICKNESS
 40
0.0
  9
$LIMCHECK
 70
     0
  9
$BLIPMODE
 70
     0
  9
$CHAMFERA
 40
0.0
  9
$CHAMFERB
 40
0.0
  9
$SKPOLY
 70
     0
  9
$TDCREATE
 40
2444972.375
  9
$TDUPDATE
 40
2454867.2878466779
  9
$TDINDWG
 40
0.0027446644
  9
$TDUSRTIMER
 40
0.0027446644
  9
$USRTIMER
 70
     1
  9
$ANGBASE
 50
0.0
  9
$ANGDIR
 70
     0
  9
$PDMODE
 70
     0
  9
$PDSIZE
 40
0.0
  9
$PLINEWID
 40
0.0
  9
$COORDS
 70
     1
  9
$SPLFRAME
 70
     0
  9
$SPLINETYPE
 70
     6
  9
$SPLINESEGS
 70
     8
  9
$ATTDIA
 70
     0
  9
$ATTREQ
 70
     1
  9
$HANDLING
 70
     1
  9
$HANDSEED
  5
3E0
  9
$SURFTAB1
 70
     6
  9
$SURFTAB2
 70
     6
  9
$SURFTYPE
 70
     6
  9
$SURFU
 70
     6
  9
$SURFV
 70
     6
  9
$UCSNAME
  2

  9
$UCSORG
 10
0.0
 20
0.0
 30
0.0
  9
$UCSXDIR
 10
1.0
 20
0.0
 30
0.0
  9
$UCSYDIR
 10
0.0
 20
1.0
 30
0.0
  9
$PUCSNAME
  2

  9
$PUCSORG
 10
0.0
 20
0.0
 30
0.0
  9
$PUCSXDIR
 10
1.0
 20
0.0
 30
0.0
  9
$PUCSYDIR
 10
0.0
 20
1.0
 30
0.0
  9
$USERI1
 70
     0
  9
$USERI2
 70
     0
  9
$USERI3
 70
     0
  9
$USERI4
 70
     0
  9
$USERI5
 70
     0
  9
$USERR1
 40
0.0
  9
$USERR2
 40
0.0
  9
$USERR3
 40
0.0
  9
$USERR4
 40
0.0
  9
$USERR5
 40
0.0
  9
$WORLDVIEW
 70
     1
  9
$SHADEDGE
 70
     3
  9
$SHADEDIF
 70
    70
  9
$TILEMODE
 70
     1
  9
$MAXACTVP
 70
    48
  9
$PLIMCHECK
 70
     0
  9
$PEXTMIN
 10
1.0000000000000000E+020
 20
1.0000000000000000E+020
 30
1.0000000000000000E+020
  9
$PEXTMAX
 10
-1.0000000000000000E+020
 20
-1.0000000000000000E+020
 30
-1.0000000000000000E+020
  9
$PLIMMIN
 10
0.0
 20
0.0
  9
$PLIMMAX
 10
12.0
 20
9.0
  9
$UNITMODE
 70
     0
  9
$VISRETAIN
 70
     1
  9
$PLINEGEN
 70
     0
  9
$PSLTSCALE
 70
     1
  0
ENDSEC
  0
SECTION
  2
TABLES
  0
TABLE
  2
VPORT
 70
     2
  0
VPORT
  2
*ACTIVE
 70
     0
 10
0.0
 20
0.0
 11
1.0
 21
1.0
 12
199.62076104631669
 22
127.0407202939103
 13
0.0
 23
0.0
 14
1.0
 24
1.0
 15
0.0
 25
0.0
 16
0.0
 26
0.0
 36
1.0
 17
0.0
 27
0.0
 37
0.0
 40
322.32385163793691
 41
2.2894736842105261
 42
50.0
 43
0.0
 44
0.0
 50
0.0
 51
0.0
 71
     0
 72
   100
 73
     1
 74
     1
 75
     0
 76
     0
 77
     0
 78
     0
  0
ENDTAB
  0
TABLE
  2
LTYPE
 70
     2
  0
LTYPE
  2
CONTINUOUS
 70
     0
  3
Solid line
 72
    65
 73
     0
 40
0.0
  0
LTYPE
  2
AIGENLINE001
 70
     0
  3
generate AI->DXF Converter
 72
    65
 73
     4
 40
5.8561449999999988
 49
3.5278
 49
-0.776115
 49
0.776115
 49
-0.776115
  0
ENDTAB
  0
TABLE
  2
LAYER
 70
     2
  0
LAYER
  2
0
 70
     0
 62
     7
  6
CONTINUOUS
  0
LAYER
  2
_________2
 70
     0
 62
     7
  6
CONTINUOUS
  0
ENDTAB
  0
TABLE
  2
STYLE
 70
     1
  0
STYLE
  2
STANDARD
 70
     0
 40
0.0
 41
0.0
 50
0.0
 71
     0
 42
0.0
  3
TXT
  4
EXTFONT.SHX
  0
ENDTAB
  0
TABLE
  2
VIEW
 70
     0
  0
ENDTAB
  0
TABLE
  2
UCS
 70
     0
  0
ENDTAB
  0
TABLE
  2
APPID
 70
     1
  0
APPID
  2
ACAD
 70
     0
  0
ENDTAB
  0
TABLE
  2
DIMSTYLE
 70
     1
  0
DIMSTYLE
  2
STANDARD
 70
     0
  3

  4

  5

  6

  7

 40
1.0
 41
0.18
 42
0.0625
 43
0.38
 44
0.18
 45
0.0
 46
0.0
 47
0.0
 48
0.0
140
0.18
141
0.09
142
0.0
143
25.399999999999999
144
1.0
145
0.0
146
1.0
147
0.09
 71
     0
 72
     0
 73
     1
 74
     1
 75
     0
 76
     0
 77
     0
 78
     0
170
     0
171
     2
172
     0
173
     0
174
     0
175
     0
176
     0
177
     0
178
     0
  0
ENDTAB
  0
ENDSEC
  0
SECTION
  2
BLOCKS
  0
BLOCK
  8
0
  2
$MODEL_SPACE
 70
     0
 10
0.0
 20
0.0
 30
0.0
  3
$MODEL_SPACE
  1

  0
ENDBLK
  5
1A
  8
0
  0
BLOCK
 67
     1
  8
0
  2
$PAPER_SPACE
 70
     0
 10
0.0
 20
0.0
 30
0.0
  3
$PAPER_SPACE
  1

  0
ENDBLK
  5
17
 67
     1
  8
0
  0
ENDSEC
  0
SECTION
  2
ENTITIES
  0
TEXT
  5
22
  8
0
 62
     7
 10
107.91526999999989
 20
61.652799999999999
 30
0.0
 40
3.0923400000000001
  1
%%c31.75
 41
0.5
 72
     1
 11
111.5229999999999
 21
61.652799999999999
 31
0.0
  0
TEXT
  5
23
  8
0
 62
     7
 10
133.6999999999999
 20
137.86199999999991
 30
0.0
 40
3.0923400000000001
  1
L＝600
 41
0.5
  0
TEXT
  5
24
  8
0
 62
     7
 10
156.031689
 20
121.10599999999999
 30
0.0
 40
3.0923400000000001
  1
R20以上
 41
0.5
 72
     2
 11
163.71100000000001
 21
121.10599999999999
 31
0.0
  0
TEXT
  5
25
  8
0
 62
     7
 10
133.6999999999999
 20
142.51400000000001
 30
0.0
 40
3.0923400000000001
  1
ワイヤー/グレー
 41
0.5
  0
TEXT
  5
26
  8
0
 62
     7
 10
130.905
 20
175.34099999999989
 30
0.0
 40
3.0923400000000001
  1
TOTOワンプッシュ式
 41
0.5
  0
TEXT
  5
27
  8
0
 62
     7
 10
130.905
 20
171.476
 30
0.0
 40
3.0923400000000001
  1
水栓接続部
 41
0.5
  0
TEXT
  5
28
  8
0
 62
     7
 10
109.4614399999999
 20
187.709
 30
0.0
 40
3.0923400000000001
  1
%%c63
 41
0.5
 72
     1
 11
111.5229999999999
 21
187.709
 31
0.0
  0
TEXT
  5
29
  8
0
 62
     7
 10
87.828400000000002
 20
166.363575
 30
0.0
 40
3.0923400000000001
  1
max.45
 50
90.0
 41
0.5
 72
     1
 11
87.828400000000002
 21
170.22900000000001
 31
0.0
  0
TEXT
  5
2A
  8
0
 62
     7
 10
87.898700000000005
 20
114.8222875
 30
0.0
 40
3.0923400000000001
  1
270
 50
90.0
 41
0.5
 72
     1
 11
87.898700000000005
 21
116.755
 31
0.0
  0
ARC
  5
2B
  8
0
 62
     7
 10
51.255018
 20
152.314232
 30
0.0
 40
0.357901
 50
180.45495199999991
 51
224.910281
  0
ARC
  5
2C
  8
0
 62
     7
 10
51.679471999999997
 20
152.65980400000001
 30
0.0
 40
0.9041469999999998
 50
221.427516
 51
236.87037599999991
  0
ARC
  5
2D
  8
0
 62
     7
 10
52.25139999999999
 20
153.51760300000001
 30
0.0
 40
1.935104999999999
 50
236.5702619999999
 51
247.11729500000001
  0
ARC
  5
2E
  8
0
 62
     7
 10
53.000519999999987
 20
155.25373400000001
 30
0.0
 40
3.8259300000000001
 50
246.89149499999999
 51
254.39346299999991
  0
ARC
  5
2F
  8
0
 62
     7
 10
54.008552000000002
 20
158.883126
 30
0.0
 40
7.5927049999999996
 50
254.43532300000001
 51
265.63588299999998
  0
ARC
  5
30
  8
0
 62
     7
 10
54.547749000000003
 20
163.48770400000001
 30
0.0
 40
12.226397
 50
264.75835199999989
 51
270.07668899999999
  0
ARC
  5
31
  8
0
 62
     7
 10
54.565963000000011
 20
162.752971
 30
0.0
 40
11.491652999999991
 50
269.99077899999997
 51
281.52759500000002
  0
ARC
  5
32
  8
0
 62
     7
 10
55.995032000000002
 20
155.4920679999999
 30
0.0
 40
4.0919419999999986
 50
282.23856299999989
 51
296.95568600000001
  0
ARC
  5
33
  8
0
 62
     7
 10
57.299514000000002
 20
152.84112999999991
 30
0.0
 40
1.1383509999999999
 50
298.91468199999991
 51
314.118538
  0
ARC
  5
34
  8
0
 62
     7
 10
57.783196999999987
 20
152.35073799999989
 30
0.0
 40
0.449623
 50
313.37264699999997
 51
354.97948599999989
  0
ARC
  5
35
  8
0
 62
     7
 10
58.871943999999992
 20
152.31282400000001
 30
0.0
 40
0.6418850000000002
 50
180.12795700000001
 51
211.79915099999991
  0
ARC
  5
36
  8
0
 62
     7
 10
59.246068999999991
 20
152.5387429999999
 30
0.0
 40
1.0789120000000001
 50
211.52652699999999
 51
240.89612299999999
  0
ARC
  5
37
  8
0
 62
     7
 10
59.836413
 20
153.45108999999991
 30
0.0
 40
2.1644060000000001
 50
238.988572
 51
259.83131700000001
  0
ARC
  5
38
  8
0
 62
     7
 10
60.055478999999998
 20
154.33459899999991
 30
0.0
 40
3.0732909999999989
 50
258.71929499999999
 51
270.15051799999998
  0
ARC
  5
39
  8
0
 62
     7
 10
60.062697999999997
 20
154.22996699999999
 30
0.0
 40
2.9686490000000001
 50
270.01649199999991
 51
292.79212799999988
  0
ARC
  5
3A
  8
0
 62
     7
 10
60.592923999999996
 20
152.88082799999989
 30
0.0
 40
1.5198279999999991
 50
294.06711999999999
 51
318.19112199999989
  0
ARC
  5
3B
  8
0
 62
     7
 10
61.162677000000002
 20
152.339912
 30
0.0
 40
0.73492
 50
320.0125569999999
 51
357.77583900000002
  0
ARC
  5
3C
  8
0
 62
     7
 10
47.872028999999991
 20
152.31282400000001
 30
0.0
 40
0.6418850000000002
 50
180.12795700000001
 51
211.79915099999991
  0
ARC
  5
3D
  8
0
 62
     7
 10
48.24615399999999
 20
152.5387429999999
 30
0.0
 40
1.0789120000000001
 50
211.52652699999999
 51
240.89612299999999
  0
ARC
  5
3E
  8
0
 62
     7
 10
48.836498999999989
 20
153.45108999999991
 30
0.0
 40
2.1644060000000001
 50
238.988572
 51
259.83131700000001
  0
ARC
  5
3F
  8
0
 62
     7
 10
49.055563999999997
 20
154.33459899999991
 30
0.0
 40
3.0732909999999989
 50
258.71929499999999
 51
270.15051799999998
  0
ARC
  5
40
  8
0
 62
     7
 10
49.062784000000001
 20
154.22996699999999
 30
0.0
 40
2.9686490000000001
 50
270.01649199999991
 51
292.79212799999988
  0
ARC
  5
41
  8
0
 62
     7
 10
49.593009000000002
 20
152.88082799999989
 30
0.0
 40
1.5198279999999991
 50
294.06711999999999
 51
318.19112199999989
  0
ARC
  5
42
  8
0
 62
     7
 10
50.162762000000001
 20
152.339912
 30
0.0
 40
0.73492
 50
320.0125569999999
 51
357.77583900000002
  0
LINE
  5
43
  8
0
 62
     7
 10
60.063600000000001
 20
151.261
 30
0.0
 11
49.063600000000001
 21
151.261
 31
0.0
  0
ARC
  5
44
  8
0
 62
     7
 10
51.255018
 20
156.87539599999999
 30
0.0
 40
0.357901
 50
135.08971899999989
 51
179.54504800000001
  0
ARC
  5
45
  8
0
 62
     7
 10
51.679471999999997
 20
156.5298249999999
 30
0.0
 40
0.9041469999999998
 50
123.12962400000001
 51
138.57248399999989
  0
ARC
  5
46
  8
0
 62
     7
 10
52.25139999999999
 20
155.6720259999999
 30
0.0
 40
1.935104999999999
 50
112.8827049999999
 51
123.4297379999999
  0
ARC
  5
47
  8
0
 62
     7
 10
53.000519999999987
 20
153.93589399999991
 30
0.0
 40
3.8259300000000001
 50
105.606537
 51
113.10850499999999
  0
ARC
  5
48
  8
0
 62
     7
 10
54.008552000000002
 20
150.30650199999999
 30
0.0
 40
7.5927049999999996
 50
94.364117000000022
 51
105.564677
  0
ARC
  5
49
  8
0
 62
     7
 10
54.547749000000003
 20
145.70192399999991
 30
0.0
 40
12.226397
 50
89.923310999999984
 51
95.241648000000012
  0
ARC
  5
4A
  8
0
 62
     7
 10
54.565963000000011
 20
146.43665699999991
 30
0.0
 40
11.491652999999991
 50
78.472405000000009
 51
90.009220999999997
  0
ARC
  5
4B
  8
0
 62
     7
 10
55.995032000000002
 20
153.69756000000001
 30
0.0
 40
4.0919419999999986
 50
63.044314000000007
 51
77.761437000000001
  0
ARC
  5
4C
  8
0
 62
     7
 10
57.299514000000002
 20
156.348499
 30
0.0
 40
1.1383509999999999
 50
45.881461999999992
 51
61.085318000000008
  0
ARC
  5
4D
  8
0
 62
     7
 10
57.783196999999987
 20
156.83888999999991
 30
0.0
 40
0.449623
 50
5.0205140000000004
 51
46.627352999999999
  0
ARC
  5
4E
  8
0
 62
     7
 10
58.871943999999992
 20
156.87680499999999
 30
0.0
 40
0.6418850000000002
 50
148.20084900000001
 51
179.87204299999991
  0
ARC
  5
4F
  8
0
 62
     7
 10
59.246068999999991
 20
156.65088499999999
 30
0.0
 40
1.0789120000000001
 50
119.103877
 51
148.4734729999999
  0
ARC
  5
50
  8
0
 62
     7
 10
59.836413
 20
155.73853799999989
 30
0.0
 40
2.1644060000000001
 50
100.168683
 51
121.0114279999999
  0
ARC
  5
51
  8
0
 62
     7
 10
60.055478999999998
 20
154.855029
 30
0.0
 40
3.0732909999999989
 50
89.849481999999995
 51
101.280705
  0
ARC
  5
52
  8
0
 62
     7
 10
60.062697999999997
 20
154.95966100000001
 30
0.0
 40
2.9686490000000001
 50
67.207871999999995
 51
89.983508
  0
ARC
  5
53
  8
0
 62
     7
 10
60.592923999999996
 20
156.30879999999999
 30
0.0
 40
1.5198279999999991
 50
41.808877999999993
 51
65.932880000000011
  0
ARC
  5
54
  8
0
 62
     7
 10
61.162677000000002
 20
156.84971599999989
 30
0.0
 40
0.73492
 50
2.2241610000000001
 51
39.987442999999999
  0
ARC
  5
55
  8
0
 62
     7
 10
50.531965
 20
146.97346899999991
 30
0.0
 40
0.135758
 50
180.26695699999999
 51
212.696731
  0
ARC
  5
56
  8
0
 62
     7
 10
50.691569000000001
 20
147.07870500000001
 30
0.0
 40
0.326927
 50
213.10743500000001
 51
237.27812299999999
  0
ARC
  5
57
  8
0
 62
     7
 10
51.126162999999998
 20
147.7298769999999
 30
0.0
 40
1.109769
 50
236.57456500000001
 51
249.84019699999999
  0
ARC
  5
58
  8
0
 62
     7
 10
51.895176999999997
 20
149.74764500000001
 30
0.0
 40
3.269058999999999
 50
249.37577899999999
 51
257.09253599999988
  0
ARC
  5
59
  8
0
 62
     7
 10
52.961066000000002
 20
154.264498
 30
0.0
 40
7.9099329999999997
 50
256.87528099999997
 51
262.101516
  0
ARC
  5
5A
  8
0
 62
     7
 10
54.328186000000002
 20
164.12299599999989
 30
0.0
 40
17.862771999999989
 50
262.103408
 51
270.7523569999999
  0
ARC
  5
5B
  8
0
 62
     7
 10
54.566701999999999
 20
169.04953
 30
0.0
 40
22.787766000000001
 50
269.99003299999993
 51
275.21157599999992
  0
ARC
  5
5C
  8
0
 62
     7
 10
55.495069999999998
 20
158.45131499999999
 30
0.0
 40
12.149096
 50
275.39146399999998
 51
279.87537500000002
  0
ARC
  5
5D
  8
0
 62
     7
 10
56.663200000000003
 20
151.86185900000001
 30
0.0
 40
5.4569739999999989
 50
279.65810800000003
 51
286.37941599999988
  0
ARC
  5
5E
  8
0
 62
     7
 10
57.702888000000002
 20
148.378221
 30
0.0
 40
1.8215909999999991
 50
285.90388200000001
 51
297.4264609999999
  0
ARC
  5
5F
  8
0
 62
     7
 10
58.340304000000003
 20
147.17631399999999
 30
0.0
 40
0.4613360000000001
 50
295.91575599999987
 51
320.40242699999999
  0
ARC
  5
60
  8
0
 62
     7
 10
58.579980000000013
 20
146.97653700000001
 30
0.0
 40
0.149325
 50
320.85079200000001
 51
358.57992599999989
  0
ARC
  5
61
  8
0
 62
     7
 10
59.026193000000013
 20
146.9755899999999
 30
0.0
 40
0.29488
 50
180.5349689999999
 51
228.99772599999989
  0
ARC
  5
62
  8
0
 62
     7
 10
59.408000999999999
 20
147.32091800000001
 30
0.0
 40
0.8083429999999999
 50
224.628772
 51
240.28326799999999
  0
ARC
  5
63
  8
0
 62
     7
 10
59.875758999999988
 20
148.12451399999989
 30
0.0
 40
1.7381470000000001
 50
240.023234
 51
250.88230999999999
  0
ARC
  5
64
  8
0
 62
     7
 10
60.377189000000001
 20
149.538433
 30
0.0
 40
3.2383259999999989
 50
250.692939
 51
258.936195
  0
ARC
  5
65
  8
0
 62
     7
 10
60.769987999999998
 20
151.52123299999991
 30
0.0
 40
5.2596550000000004
 50
258.88178299999993
 51
270.48210599999987
  0
ARC
  5
66
  8
0
 62
     7
 10
60.815886999999996
 20
151.99601100000001
 30
0.0
 40
5.7342459999999988
 50
269.98359199999987
 51
280.39986599999997
  0
ARC
  5
67
  8
0
 62
     7
 10
61.371341000000001
 20
149.00297699999999
 30
0.0
 40
2.6901199999999998
 50
280.27129699999989
 51
298.27724199999989
  0
ARC
  5
68
  8
0
 62
     7
 10
62.285958999999998
 20
147.2377139999999
 30
0.0
 40
0.7029
 50
300.78867500000001
 51
320.07641699999988
  0
ARC
  5
69
  8
0
 62
     7
 10
62.588101999999999
 20
146.98549199999991
 30
0.0
 40
0.309318
 50
319.98831799999999
 51
357.65525200000002
  0
ARC
  5
6A
  8
0
 62
     7
 10
46.525239999999997
 20
146.9755899999999
 30
0.0
 40
0.29488
 50
180.5349689999999
 51
228.99772599999989
  0
ARC
  5
6B
  8
0
 62
     7
 10
46.907049000000001
 20
147.32091800000001
 30
0.0
 40
0.8083429999999999
 50
224.628772
 51
240.28326799999999
  0
ARC
  5
6C
  8
0
 62
     7
 10
47.374806
 20
148.12451399999989
 30
0.0
 40
1.7381470000000001
 50
240.023234
 51
250.88230999999999
  0
ARC
  5
6D
  8
0
 62
     7
 10
47.876237000000003
 20
149.538433
 30
0.0
 40
3.2383259999999989
 50
250.692939
 51
258.936195
  0
ARC
  5
6E
  8
0
 62
     7
 10
48.269036
 20
151.52123299999991
 30
0.0
 40
5.2596550000000004
 50
258.88178299999993
 51
270.48210599999987
  0
ARC
  5
6F
  8
0
 62
     7
 10
48.314934000000001
 20
151.99601100000001
 30
0.0
 40
5.7342459999999988
 50
269.98359199999987
 51
280.39986599999997
  0
ARC
  5
70
  8
0
 62
     7
 10
48.870387999999998
 20
149.00297699999999
 30
0.0
 40
2.6901199999999998
 50
280.27129699999989
 51
298.27724199999989
  0
ARC
  5
71
  8
0
 62
     7
 10
49.785006000000003
 20
147.2377139999999
 30
0.0
 40
0.7029
 50
300.78867500000001
 51
320.07641699999988
  0
ARC
  5
72
  8
0
 62
     7
 10
50.087150000000001
 20
146.98549199999991
 30
0.0
 40
0.309318
 50
319.98831799999999
 51
357.65525200000002
  0
LINE
  5
73
  8
0
 62
     7
 10
48.313299999999998
 20
146.262
 30
0.0
 11
60.813600000000001
 21
146.262
 31
0.0
  0
ARC
  5
74
  8
0
 62
     7
 10
50.531965
 20
148.88286599999989
 30
0.0
 40
0.135758
 50
147.30326899999989
 51
179.7330429999999
  0
ARC
  5
75
  8
0
 62
     7
 10
50.691569000000001
 20
148.77763100000001
 30
0.0
 40
0.326927
 50
122.72187700000001
 51
146.89256499999991
  0
ARC
  5
76
  8
0
 62
     7
 10
51.126162999999998
 20
148.12645800000001
 30
0.0
 40
1.109769
 50
110.1598029999999
 51
123.42543499999999
  0
ARC
  5
77
  8
0
 62
     7
 10
51.895176999999997
 20
146.10869099999991
 30
0.0
 40
3.269058999999999
 50
102.907464
 51
110.62422099999991
  0
ARC
  5
78
  8
0
 62
     7
 10
52.961066000000002
 20
141.59183699999991
 30
0.0
 40
7.9099329999999997
 50
97.898483999999996
 51
103.1247189999999
  0
ARC
  5
79
  8
0
 62
     7
 10
54.328186000000002
 20
131.73333899999989
 30
0.0
 40
17.862771999999989
 50
89.247643000000011
 51
97.896592000000027
  0
ARC
  5
7A
  8
0
 62
     7
 10
54.566701999999999
 20
126.806805
 30
0.0
 40
22.787766000000001
 50
84.788423999999992
 51
90.009966999999989
  0
ARC
  5
7B
  8
0
 62
     7
 10
55.495069999999998
 20
137.40502000000001
 30
0.0
 40
12.149096
 50
80.124624999999995
 51
84.608536000000001
  0
ARC
  5
7C
  8
0
 62
     7
 10
56.663200000000003
 20
143.99447599999991
 30
0.0
 40
5.4569739999999989
 50
73.620583999999994
 51
80.341892000000001
  0
ARC
  5
7D
  8
0
 62
     7
 10
57.702888000000002
 20
147.478115
 30
0.0
 40
1.8215909999999991
 50
62.573538999999997
 51
74.096118000000004
  0
ARC
  5
7E
  8
0
 62
     7
 10
58.340304000000003
 20
148.68002200000001
 30
0.0
 40
0.4613360000000001
 50
39.59757299999999
 51
64.084243999999998
  0
ARC
  5
7F
  8
0
 62
     7
 10
58.579980000000013
 20
148.87979799999999
 30
0.0
 40
0.149325
 50
1.4200739999999989
 51
39.149208000000002
  0
ARC
  5
80
  8
0
 62
     7
 10
59.026193000000013
 20
148.8807459999999
 30
0.0
 40
0.29488
 50
131.00227399999989
 51
179.46503100000001
  0
ARC
  5
81
  8
0
 62
     7
 10
59.408000999999999
 20
148.53541699999991
 30
0.0
 40
0.8083429999999999
 50
119.71673199999999
 51
135.371228
  0
ARC
  5
82
  8
0
 62
     7
 10
59.875758999999988
 20
147.73182099999991
 30
0.0
 40
1.7381470000000001
 50
109.1176899999999
 51
119.976766
  0
ARC
  5
83
  8
0
 62
     7
 10
60.377189000000001
 20
146.317902
 30
0.0
 40
3.2383259999999989
 50
101.063805
 51
109.307061
  0
ARC
  5
84
  8
0
 62
     7
 10
60.769987999999998
 20
144.33510200000001
 30
0.0
 40
5.2596550000000004
 50
89.517893999999998
 51
101.118217
  0
ARC
  5
85
  8
0
 62
     7
 10
60.815886999999996
 20
143.8603249999999
 30
0.0
 40
5.7342459999999988
 50
79.600133999999997
 51
90.016408000000027
  0
ARC
  5
86
  8
0
 62
     7
 10
61.371341000000001
 20
146.85335799999999
 30
0.0
 40
2.6901199999999998
 50
61.722758000000013
 51
79.728702999999996
  0
ARC
  5
87
  8
0
 62
     7
 10
62.285958999999998
 20
148.61862099999991
 30
0.0
 40
0.7029
 50
39.923583000000001
 51
59.211325000000002
  0
ARC
  5
88
  8
0
 62
     7
 10
62.588101999999999
 20
148.87084400000001
 30
0.0
 40
0.309318
 50
2.3447480000000001
 51
40.011682
  0
ARC
  5
89
  8
0
 62
     7
 10
46.525239999999997
 20
148.8807459999999
 30
0.0
 40
0.29488
 50
131.00227399999989
 51
179.46503100000001
  0
ARC
  5
8A
  8
0
 62
     7
 10
46.907049000000001
 20
148.53541699999991
 30
0.0
 40
0.8083429999999999
 50
119.71673199999999
 51
135.371228
  0
ARC
  5
8B
  8
0
 62
     7
 10
47.374806
 20
147.73182099999991
 30
0.0
 40
1.7381470000000001
 50
109.1176899999999
 51
119.976766
  0
ARC
  5
8C
  8
0
 62
     7
 10
47.876237000000003
 20
146.317902
 30
0.0
 40
3.2383259999999989
 50
101.063805
 51
109.307061
  0
ARC
  5
8D
  8
0
 62
     7
 10
48.269036
 20
144.33510200000001
 30
0.0
 40
5.2596550000000004
 50
89.517893999999998
 51
101.118217
  0
ARC
  5
8E
  8
0
 62
     7
 10
48.314934000000001
 20
143.8603249999999
 30
0.0
 40
5.7342459999999988
 50
79.600133999999997
 51
90.016408000000027
  0
ARC
  5
8F
  8
0
 62
     7
 10
48.870387999999998
 20
146.85335799999999
 30
0.0
 40
2.6901199999999998
 50
61.722758000000013
 51
79.728702999999996
  0
ARC
  5
90
  8
0
 62
     7
 10
49.785006000000003
 20
148.61862099999991
 30
0.0
 40
0.7029
 50
39.923583000000001
 51
59.211325000000002
  0
ARC
  5
91
  8
0
 62
     7
 10
50.087150000000001
 20
148.87084400000001
 30
0.0
 40
0.309318
 50
2.3447480000000001
 51
40.011682
  0
ARC
  5
92
  8
0
 62
     7
 10
47.872028999999991
 20
156.87680499999999
 30
0.0
 40
0.6418850000000002
 50
148.20084900000001
 51
179.87204299999991
  0
ARC
  5
93
  8
0
 62
     7
 10
48.24615399999999
 20
156.65088499999999
 30
0.0
 40
1.0789120000000001
 50
119.103877
 51
148.4734729999999
  0
ARC
  5
94
  8
0
 62
     7
 10
48.836498999999989
 20
155.73853799999989
 30
0.0
 40
2.1644060000000001
 50
100.168683
 51
121.0114279999999
  0
ARC
  5
95
  8
0
 62
     7
 10
49.055563999999997
 20
154.855029
 30
0.0
 40
3.0732909999999989
 50
89.849481999999995
 51
101.280705
  0
ARC
  5
96
  8
0
 62
     7
 10
49.062784000000001
 20
154.95966100000001
 30
0.0
 40
2.9686490000000001
 50
67.207871999999995
 51
89.983508
  0
ARC
  5
97
  8
0
 62
     7
 10
49.593009000000002
 20
156.30879999999999
 30
0.0
 40
1.5198279999999991
 50
41.808877999999993
 51
65.932880000000011
  0
ARC
  5
98
  8
0
 62
     7
 10
50.162762000000001
 20
156.84971599999989
 30
0.0
 40
0.73492
 50
2.2241610000000001
 51
39.987442999999999
  0
LINE
  5
99
  8
0
  6
AIGENLINE001
 62
     7
 10
54.563800000000001
 20
66.443600000000004
 30
0.0
 11
54.563800000000001
 21
179.934
 31
0.0
  0
LINE
  5
9A
  8
0
 62
     7
 10
59.855499999999992
 20
128.261
 30
0.0
 11
59.855499999999992
 21
69.594499999999996
 31
0.0
  0
LINE
  5
9B
  8
0
 62
     7
 10
49.272100000000002
 20
128.261
 30
0.0
 11
49.272100000000002
 21
69.594499999999996
 31
0.0
  0
LINE
  5
9C
  8
0
 62
     7
 10
49.272100000000002
 20
69.594499999999996
 30
0.0
 11
59.855499999999992
 21
69.594499999999996
 31
0.0
  0
LINE
  5
9D
  8
0
 62
     7
 10
59.855499999999992
 20
128.261
 30
0.0
 11
60.563800000000001
 21
129.92799999999991
 31
0.0
  0
LINE
  5
9E
  8
0
 62
     7
 10
49.272100000000002
 20
128.261
 30
0.0
 11
48.563800000000001
 21
129.92799999999991
 31
0.0
  0
LINE
  5
9F
  8
0
 62
     7
 10
49.272100000000002
 20
128.261
 30
0.0
 11
59.855499999999992
 21
128.261
 31
0.0
  0
LINE
  5
A0
  8
0
 62
     7
 10
60.563800000000001
 20
129.92799999999991
 30
0.0
 11
60.563800000000001
 21
137.26099999999991
 31
0.0
  0
LINE
  5
A1
  8
0
 62
     7
 10
48.563800000000001
 20
129.92799999999991
 30
0.0
 11
48.563800000000001
 21
137.26099999999991
 31
0.0
  0
LINE
  5
A2
  8
0
 62
     7
 10
48.563800000000001
 20
129.92799999999991
 30
0.0
 11
60.563800000000001
 21
129.92799999999991
 31
0.0
  0
LINE
  5
A3
  8
0
 62
     7
 10
60.896900000000002
 20
137.26099999999991
 30
0.0
 11
60.896900000000002
 21
138.59399999999991
 31
0.0
  0
LINE
  5
A4
  8
0
 62
     7
 10
48.2303
 20
137.26099999999991
 30
0.0
 11
48.2303
 21
138.59399999999991
 31
0.0
  0
LINE
  5
A5
  8
0
 62
     7
 10
48.2303
 20
137.26099999999991
 30
0.0
 11
60.896900000000002
 21
137.26099999999991
 31
0.0
  0
LINE
  5
A6
  8
0
 62
     7
 10
63.427
 20
139.26099999999991
 30
0.0
 11
63.427
 21
144.92799999999991
 31
0.0
  0
LINE
  5
A7
  8
0
 62
     7
 10
63.020800000000001
 20
139.26099999999991
 30
0.0
 11
63.020800000000001
 21
144.92799999999991
 31
0.0
  0
LINE
  5
A8
  8
0
 62
     7
 10
62.358000000000011
 20
139.26099999999991
 30
0.0
 11
62.358000000000011
 21
144.92799999999991
 31
0.0
  0
LINE
  5
A9
  8
0
 62
     7
 10
61.458100000000002
 20
139.26099999999991
 30
0.0
 11
61.458100000000002
 21
144.92799999999991
 31
0.0
  0
LINE
  5
AA
  8
0
 62
     7
 10
60.348799999999997
 20
139.26099999999991
 30
0.0
 11
60.348799999999997
 21
144.92799999999991
 31
0.0
  0
LINE
  5
AB
  8
0
 62
     7
 10
59.063800000000001
 20
139.26099999999991
 30
0.0
 11
59.063800000000001
 21
144.92799999999991
 31
0.0
  0
LINE
  5
AC
  8
0
 62
     7
 10
57.641999999999989
 20
139.26099999999991
 30
0.0
 11
57.641999999999989
 21
144.92799999999991
 31
0.0
  0
LINE
  5
AD
  8
0
 62
     7
 10
56.1265
 20
139.26099999999991
 30
0.0
 11
56.1265
 21
144.92799999999991
 31
0.0
  0
LINE
  5
AE
  8
0
 62
     7
 10
45.700200000000002
 20
139.26099999999991
 30
0.0
 11
45.700200000000002
 21
144.92799999999991
 31
0.0
  0
LINE
  5
AF
  8
0
 62
     7
 10
46.10629999999999
 20
139.26099999999991
 30
0.0
 11
46.10629999999999
 21
144.92799999999991
 31
0.0
  0
LINE
  5
B0
  8
0
 62
     7
 10
46.769500000000001
 20
139.26099999999991
 30
0.0
 11
46.769500000000001
 21
144.92799999999991
 31
0.0
  0
LINE
  5
B1
  8
0
 62
     7
 10
47.6691
 20
139.26099999999991
 30
0.0
 11
47.6691
 21
144.92799999999991
 31
0.0
  0
LINE
  5
B2
  8
0
 62
     7
 10
48.778399999999991
 20
139.26099999999991
 30
0.0
 11
48.778399999999991
 21
144.92799999999991
 31
0.0
  0
LINE
  5
B3
  8
0
 62
     7
 10
50.063800000000001
 20
139.26099999999991
 30
0.0
 11
50.063800000000001
 21
144.92799999999991
 31
0.0
  0
LINE
  5
B4
  8
0
 62
     7
 10
51.485599999999991
 20
139.26099999999991
 30
0.0
 11
51.485599999999991
 21
144.92799999999991
 31
0.0
  0
LINE
  5
B5
  8
0
 62
     7
 10
53.000700000000002
 20
139.26099999999991
 30
0.0
 11
53.000700000000002
 21
144.92799999999991
 31
0.0
  0
LINE
  5
B6
  8
0
 62
     7
 10
54.563800000000001
 20
139.26099999999991
 30
0.0
 11
54.563800000000001
 21
144.92799999999991
 31
0.0
  0
LINE
  5
B7
  8
0
 62
     7
 10
46.396799999999999
 20
138.59399999999991
 30
0.0
 11
62.730400000000003
 21
138.59399999999991
 31
0.0
  0
LINE
  5
B8
  8
0
 62
     7
 10
63.2303
 20
139.09499999999991
 30
0.0
 11
63.2303
 21
139.26099999999991
 31
0.0
  0
ARC
  5
B9
  8
0
 62
     7
 10
62.711612000000002
 20
139.1131629999999
 30
0.0
 40
0.5190200000000002
 50
272.07648699999999
 51
357.96299599999992
  0
LINE
  5
BA
  8
0
 62
     7
 10
45.896900000000002
 20
139.09499999999991
 30
0.0
 11
45.896900000000002
 21
139.26099999999991
 31
0.0
  0
ARC
  5
BB
  8
0
 62
     7
 10
46.416150000000002
 20
139.11373499999999
 30
0.0
 40
0.5196130000000001
 50
182.09777700000001
 51
267.86277899999988
  0
LINE
  5
BC
  8
0
 62
     7
 10
45.563699999999997
 20
139.26099999999991
 30
0.0
 11
45.563699999999997
 21
145.26099999999991
 31
0.0
  0
LINE
  5
BD
  8
0
 62
     7
 10
63.563800000000001
 20
139.26099999999991
 30
0.0
 11
63.563800000000001
 21
145.26099999999991
 31
0.0
  0
LINE
  5
BE
  8
0
 62
     7
 10
45.563699999999997
 20
139.26099999999991
 30
0.0
 11
63.563800000000001
 21
139.26099999999991
 31
0.0
  0
LINE
  5
BF
  8
0
 62
     7
 10
45.563699999999997
 20
144.92799999999991
 30
0.0
 11
63.563800000000001
 21
144.92799999999991
 31
0.0
  0
LINE
  5
C0
  8
0
 62
     7
 10
47.06369999999999
 20
145.26099999999991
 30
0.0
 11
47.06369999999999
 21
145.92799999999991
 31
0.0
  0
LINE
  5
C1
  8
0
 62
     7
 10
62.063800000000001
 20
145.26099999999991
 30
0.0
 11
62.063800000000001
 21
145.92799999999991
 31
0.0
  0
LINE
  5
C2
  8
0
 62
     7
 10
62.396900000000002
 20
145.26099999999991
 30
0.0
 11
62.396900000000002
 21
146.51099999999991
 31
0.0
  0
LINE
  5
C3
  8
0
 62
     7
 10
46.730299999999993
 20
145.26099999999991
 30
0.0
 11
46.730299999999993
 21
146.51099999999991
 31
0.0
  0
LINE
  5
C4
  8
0
 62
     7
 10
45.563699999999997
 20
145.26099999999991
 30
0.0
 11
63.563800000000001
 21
145.26099999999991
 31
0.0
  0
LINE
  5
C5
  8
0
 62
     7
 10
46.730299999999993
 20
145.92799999999991
 30
0.0
 11
62.396900000000002
 21
145.92799999999991
 31
0.0
  0
LINE
  5
C6
  8
0
 62
     7
 10
58.730299999999993
 20
146.97300000000001
 30
0.0
 11
58.730299999999993
 21
148.8829999999999
 31
0.0
  0
LINE
  5
C7
  8
0
 62
     7
 10
50.396900000000002
 20
146.97300000000001
 30
0.0
 11
50.396900000000002
 21
148.8829999999999
 31
0.0
  0
LINE
  5
C8
  8
0
 62
     7
 10
62.897199999999991
 20
146.97300000000001
 30
0.0
 11
62.897199999999991
 21
148.8829999999999
 31
0.0
  0
LINE
  5
C9
  8
0
 62
     7
 10
46.230400000000003
 20
146.97300000000001
 30
0.0
 11
46.230400000000003
 21
148.8829999999999
 31
0.0
  0
LINE
  5
CA
  8
0
 62
     7
 10
61.896999999999998
 20
152.31100000000001
 30
0.0
 11
61.896999999999998
 21
156.8779999999999
 31
0.0
  0
LINE
  5
CB
  8
0
 62
     7
 10
58.230400000000003
 20
152.31100000000001
 30
0.0
 11
58.230400000000003
 21
156.8779999999999
 31
0.0
  0
LINE
  5
CC
  8
0
 62
     7
 10
50.896799999999999
 20
152.31100000000001
 30
0.0
 11
50.896799999999999
 21
156.8779999999999
 31
0.0
  0
LINE
  5
CD
  8
0
 62
     7
 10
54.563800000000001
 20
151.261
 30
0.0
 11
54.563800000000001
 21
157.92799999999991
 31
0.0
  0
LINE
  5
CE
  8
0
 62
     7
 10
61.563600000000001
 20
149.595
 30
0.0
 11
61.563600000000001
 21
151.261
 31
0.0
  0
LINE
  5
CF
  8
0
 62
     7
 10
47.563599999999987
 20
149.595
 30
0.0
 11
47.563599999999987
 21
151.261
 31
0.0
  0
LINE
  5
D0
  8
0
 62
     7
 10
48.313299999999998
 20
149.595
 30
0.0
 11
60.813600000000001
 21
149.595
 31
0.0
  0
LINE
  5
D1
  8
0
 62
     7
 10
47.2301
 20
152.31100000000001
 30
0.0
 11
47.2301
 21
156.8779999999999
 31
0.0
  0
LINE
  5
D2
  8
0
 62
     7
 10
47.563599999999987
 20
151.261
 30
0.0
 11
61.563600000000001
 21
151.261
 31
0.0
  0
LINE
  5
D3
  8
0
 62
     7
 10
61.563600000000001
 20
158.05699999999999
 30
0.0
 11
61.563600000000001
 21
157.48099999999999
 31
0.0
  0
LINE
  5
D4
  8
0
 62
     7
 10
61.764800000000001
 20
158.30199999999999
 30
0.0
 11
64.495000000000005
 21
158.8479999999999
 31
0.0
  0
ARC
  5
D5
  8
0
 62
     7
 10
61.821643000000002
 20
158.04993300000001
 30
0.0
 40
0.2581739999999999
 50
102.730322
 51
178.51127099999991
  0
LINE
  5
D6
  8
0
 62
     7
 10
64.897099999999995
 20
159.33799999999991
 30
0.0
 11
64.897099999999995
 21
159.595
 31
0.0
  0
ARC
  5
D7
  8
0
 62
     7
 10
64.381656999999976
 20
159.3507469999999
 30
0.0
 40
0.515551
 50
282.70085999999998
 51
358.5889029999999
  0
LINE
  5
D8
  8
0
 62
     7
 10
60.063600000000001
 20
157.92799999999991
 30
0.0
 11
49.063600000000001
 21
157.92799999999991
 31
0.0
  0
LINE
  5
D9
  8
0
 62
     7
 10
47.563599999999987
 20
158.05699999999999
 30
0.0
 11
47.563599999999987
 21
157.48099999999999
 31
0.0
  0
LINE
  5
DA
  8
0
 62
     7
 10
47.362799999999993
 20
158.30199999999999
 30
0.0
 11
44.63219999999999
 21
158.8479999999999
 31
0.0
  0
ARC
  5
DB
  8
0
 62
     7
 10
47.305776999999999
 20
158.05020200000001
 30
0.0
 40
0.257937
 50
1.4303360000000001
 51
77.231738000000007
  0
LINE
  5
DC
  8
0
 62
     7
 10
44.2301
 20
159.33799999999991
 30
0.0
 11
44.2301
 21
159.595
 31
0.0
  0
ARC
  5
DD
  8
0
 62
     7
 10
44.745964999999998
 20
159.351102
 30
0.0
 40
0.515992
 50
181.44931099999999
 51
257.26096599999988
  0
LINE
  5
DE
  8
0
 62
     7
 10
44.2301
 20
159.928
 30
0.0
 11
44.2301
 21
159.595
 31
0.0
  0
LINE
  5
DF
  8
0
 62
     7
 10
64.897099999999995
 20
159.928
 30
0.0
 11
64.897099999999995
 21
159.595
 31
0.0
  0
LINE
  5
E0
  8
0
 62
     7
 10
64.897099999999995
 20
159.928
 30
0.0
 11
61.397199999999998
 21
162.928
 31
0.0
  0
LINE
  5
E1
  8
0
 62
     7
 10
44.2301
 20
159.928
 30
0.0
 11
47.730400000000003
 21
162.928
 31
0.0
  0
LINE
  5
E2
  8
0
 62
     7
 10
44.2301
 20
159.595
 30
0.0
 11
64.897099999999995
 21
159.595
 31
0.0
  0
LINE
  5
E3
  8
0
 62
     7
 10
61.063699999999997
 20
164.595
 30
0.0
 11
61.063699999999997
 21
162.928
 31
0.0
  0
LINE
  5
E4
  8
0
 62
     7
 10
61.397199999999998
 20
164.595
 30
0.0
 11
61.397199999999998
 21
162.928
 31
0.0
  0
LINE
  5
E5
  8
0
 62
     7
 10
48.063499999999998
 20
162.928
 30
0.0
 11
48.063499999999998
 21
164.595
 31
0.0
  0
LINE
  5
E6
  8
0
 62
     7
 10
47.730400000000003
 20
162.928
 30
0.0
 11
47.730400000000003
 21
164.595
 31
0.0
  0
LINE
  5
E7
  8
0
 62
     7
 10
47.730400000000003
 20
162.928
 30
0.0
 11
61.397199999999998
 21
162.928
 31
0.0
  0
LINE
  5
E8
  8
0
 62
     7
 10
53.230200000000004
 20
166.26199999999989
 30
0.0
 11
55.896999999999998
 21
166.26199999999989
 31
0.0
  0
LINE
  5
E9
  8
0
 62
     7
 10
53.230200000000004
 20
170.262
 30
0.0
 11
55.896999999999998
 21
170.262
 31
0.0
  0
ARC
  5
EA
  8
0
 62
     7
 10
62.872469999999993
 20
167.261109
 30
0.0
 40
2.1422870000000001
 50
179.98553100000001
 51
197.00025600000001
  0
ARC
  5
EB
  8
0
 62
     7
 10
61.692082999999997
 20
166.91459800000001
 30
0.0
 40
0.9122709999999999
 50
197.863652
 51
214.33108100000001
  0
ARC
  5
EC
  8
0
 62
     7
 10
61.197535999999999
 20
166.5657379999999
 30
0.0
 40
0.307267
 50
212.620169
 51
261.906657
  0
LINE
  5
ED
  8
0
 62
     7
 10
61.397199999999998
 20
166.26199999999989
 30
0.0
 11
61.154299999999992
 21
166.26199999999989
 31
0.0
  0
LINE
  5
EE
  8
0
 62
     7
 10
60.730499999999999
 20
167.262
 30
0.0
 11
60.730499999999999
 21
169.26199999999989
 31
0.0
  0
ARC
  5
EF
  8
0
 62
     7
 10
61.154800999999999
 20
170.06953899999991
 30
0.0
 40
0.192119
 50
90.156540000000035
 51
116.594611
  0
ARC
  5
F0
  8
0
 62
     7
 10
61.218632999999997
 20
169.95084099999991
 30
0.0
 40
0.326858
 50
117.285319
 51
141.9651179999999
  0
ARC
  5
F1
  8
0
 62
     7
 10
61.551653000000002
 20
169.6851429999999
 30
0.0
 40
0.7528739999999999
 50
141.6541159999999
 51
158.574961
  0
ARC
  5
F2
  8
0
 62
     7
 10
62.485458999999992
 20
169.31819699999991
 30
0.0
 40
1.7561910000000001
 50
158.55914000000001
 51
181.8487879999999
  0
LINE
  5
F3
  8
0
 62
     7
 10
56.897100000000002
 20
167.262
 30
0.0
 11
56.897100000000002
 21
169.26199999999989
 31
0.0
  0
ARC
  5
F4
  8
0
 62
     7
 10
55.897027000000001
 20
167.26164900000001
 30
0.0
 40
1.0001180000000001
 50
270.00002000000001
 51
359.99998999999991
  0
LINE
  5
F5
  8
0
 62
     7
 10
61.397199999999998
 20
170.262
 30
0.0
 11
61.154299999999992
 21
170.262
 31
0.0
  0
ARC
  5
F6
  8
0
 62
     7
 10
55.897027000000001
 20
169.261539
 30
0.0
 40
1.0001180000000001
 50
0.00001
 51
89.999980000000008
  0
LINE
  5
F7
  8
0
 62
     7
 10
61.397199999999998
 20
170.262
 30
0.0
 11
61.397199999999998
 21
172.428
 31
0.0
  0
LINE
  5
F8
  8
0
 62
     7
 10
61.397199999999998
 20
164.595
 30
0.0
 11
61.397199999999998
 21
166.26199999999989
 31
0.0
  0
LINE
  5
F9
  8
0
 62
     7
 10
64.897099999999995
 20
172.428
 30
0.0
 11
64.897099999999995
 21
173.09499999999991
 31
0.0
  0
ARC
  5
FA
  8
0
 62
     7
 10
47.967498999999997
 20
166.475944
 30
0.0
 40
0.21449
 50
271.53853900000001
 51
306.220798
  0
ARC
  5
FB
  8
0
 62
     7
 10
47.831967999999989
 20
166.65364199999991
 30
0.0
 40
0.4379540000000001
 50
306.78827799999999
 51
328.62658999999991
  0
ARC
  5
FC
  8
0
 62
     7
 10
47.363700999999999
 20
166.94677899999991
 30
0.0
 40
0.9903879999999999
 50
328.25099299999988
 51
342.78408100000001
  0
ARC
  5
FD
  8
0
 62
     7
 10
46.469372999999997
 20
167.22813500000001
 30
0.0
 40
1.9279259999999989
 50
342.66364700000003
 51
0.996049
  0
LINE
  5
FE
  8
0
 62
     7
 10
47.730400000000003
 20
166.26199999999989
 30
0.0
 11
47.973300000000002
 21
166.26199999999989
 31
0.0
  0
LINE
  5
FF
  8
0
 62
     7
 10
48.396999999999998
 20
167.262
 30
0.0
 11
48.396999999999998
 21
169.26199999999989
 31
0.0
  0
ARC
  5
100
  8
0
 62
     7
 10
46.254564000000002
 20
169.262069
 30
0.0
 40
2.1424430000000001
 50
359.985837
 51
16.997149
  0
ARC
  5
101
  8
0
 62
     7
 10
47.434206000000003
 20
169.60837399999991
 30
0.0
 40
0.9131969999999999
 50
17.854216999999998
 51
34.304563999999999
  0
ARC
  5
102
  8
0
 62
     7
 10
47.929820999999997
 20
169.95767799999999
 30
0.0
 40
0.307067
 50
32.584148999999996
 51
81.867804000000007
  0
LINE
  5
103
  8
0
 62
     7
 10
52.23040000000001
 20
167.262
 30
0.0
 11
52.23040000000001
 21
169.26199999999989
 31
0.0
  0
ARC
  5
104
  8
0
 62
     7
 10
53.268737999999999
 20
167.29986700000001
 30
0.0
 40
1.0390520000000001
 50
182.10793699999999
 51
267.87235299999992
  0
LINE
  5
105
  8
0
 62
     7
 10
47.730400000000003
 20
170.262
 30
0.0
 11
47.973300000000002
 21
170.262
 31
0.0
  0
ARC
  5
106
  8
0
 62
     7
 10
53.268810999999999
 20
169.22324900000001
 30
0.0
 40
1.0391269999999999
 50
92.131505000000004
 51
177.88820499999991
  0
LINE
  5
107
  8
0
 62
     7
 10
47.730400000000003
 20
170.262
 30
0.0
 11
47.730400000000003
 21
172.428
 31
0.0
  0
LINE
  5
108
  8
0
 62
     7
 10
47.730400000000003
 20
164.595
 30
0.0
 11
47.730400000000003
 21
166.26199999999989
 31
0.0
  0
LINE
  5
109
  8
0
 62
     7
 10
47.730400000000003
 20
164.595
 30
0.0
 11
61.397199999999998
 21
164.595
 31
0.0
  0
LINE
  5
10A
  8
0
 62
     7
 10
61.563600000000001
 20
173.09499999999991
 30
0.0
 11
61.563600000000001
 21
173.63200000000001
 31
0.0
  0
LINE
  5
10B
  8
0
 62
     7
 10
65.063800000000001
 20
176.428
 30
0.0
 11
62.477499999999992
 21
175.119
 31
0.0
  0
ARC
  5
10C
  8
0
 62
     7
 10
63.268073999999991
 20
173.60897900000001
 30
0.0
 40
1.704675999999999
 50
117.6287649999999
 51
179.21990999999991
  0
LINE
  5
10D
  8
0
 62
     7
 10
47.563599999999987
 20
173.09499999999991
 30
0.0
 11
47.563599999999987
 21
173.63200000000001
 31
0.0
  0
LINE
  5
10E
  8
0
 62
     7
 10
44.06369999999999
 20
176.428
 30
0.0
 11
46.649599999999992
 21
175.119
 31
0.0
  0
ARC
  5
10F
  8
0
 62
     7
 10
45.859949
 20
173.60949099999999
 30
0.0
 40
1.7038359999999999
 50
0.7632370000000001
 51
62.388047999999998
  0
LINE
  5
110
  8
0
 62
     7
 10
44.2301
 20
172.428
 30
0.0
 11
44.2301
 21
173.09499999999991
 31
0.0
  0
LINE
  5
111
  8
0
 62
     7
 10
44.2301
 20
172.428
 30
0.0
 11
64.897099999999995
 21
172.428
 31
0.0
  0
LINE
  5
112
  8
0
 62
     7
 10
44.2301
 20
173.09499999999991
 30
0.0
 11
64.897099999999995
 21
173.09499999999991
 31
0.0
  0
LINE
  5
113
  8
0
 62
     7
 10
65.063800000000001
 20
176.428
 30
0.0
 11
65.063800000000001
 21
176.928
 31
0.0
  0
LINE
  5
114
  8
0
 62
     7
 10
44.06369999999999
 20
176.428
 30
0.0
 11
44.06369999999999
 21
176.928
 31
0.0
  0
LINE
  5
115
  8
0
 62
     7
 10
44.06369999999999
 20
176.428
 30
0.0
 11
65.063800000000001
 21
176.428
 31
0.0
  0
LINE
  5
116
  8
0
 62
     7
 10
44.06369999999999
 20
176.928
 30
0.0
 11
65.063800000000001
 21
176.928
 31
0.0
  0
ARC
  5
117
  8
0
 62
     7
 10
108.2138309999999
 20
152.314232
 30
0.0
 40
0.357901
 50
180.45495199999991
 51
224.910281
  0
ARC
  5
118
  8
0
 62
     7
 10
108.63802199999991
 20
152.65950000000001
 30
0.0
 40
0.903749
 50
221.424093
 51
236.87379899999999
  0
ARC
  5
119
  8
0
 62
     7
 10
109.21061999999991
 20
153.518339
 30
0.0
 40
1.9359429999999991
 50
236.57221399999989
 51
247.11452499999999
  0
ARC
  5
11A
  8
0
 62
     7
 10
109.959501
 20
155.25426100000001
 30
0.0
 40
3.8264819999999999
 50
246.89220299999991
 51
254.39316299999999
  0
ARC
  5
11B
  8
0
 62
     7
 10
110.967433
 20
158.8835159999999
 30
0.0
 40
7.5930989999999996
 50
254.43561500000001
 51
265.63559100000009
  0
ARC
  5
11C
  8
0
 62
     7
 10
111.506575
 20
163.48799600000001
 30
0.0
 40
12.226687999999999
 50
264.75841500000001
 51
270.07662599999992
  0
ARC
  5
11D
  8
0
 62
     7
 10
111.524776
 20
162.752917
 30
0.0
 40
11.491598
 50
269.99077899999997
 51
281.52762200000001
  0
ARC
  5
11E
  8
0
 62
     7
 10
112.953885
 20
155.4919679999999
 30
0.0
 40
4.0918349999999988
 50
282.23823399999992
 51
296.95581699999991
  0
ARC
  5
11F
  8
0
 62
     7
 10
114.25819199999999
 20
152.84133499999999
 30
0.0
 40
1.1385959999999991
 50
298.91560499999991
 51
314.11639500000001
  0
ARC
  5
120
  8
0
 62
     7
 10
114.7418969999999
 20
152.350787
 30
0.0
 40
0.4497390000000001
 50
313.37932999999992
 51
354.97454199999987
  0
ARC
  5
121
  8
0
 62
     7
 10
115.83075700000001
 20
152.31282400000001
 30
0.0
 40
0.6418850000000002
 50
180.12795700000001
 51
211.79915099999991
  0
ARC
  5
122
  8
0
 62
     7
 10
116.204747
 20
152.53860299999991
 30
0.0
 40
1.078724
 50
211.52391299999991
 51
240.8987369999999
  0
ARC
  5
123
  8
0
 62
     7
 10
116.795226
 20
153.45108999999991
 30
0.0
 40
2.1644060000000001
 50
238.988572
 51
259.83131700000001
  0
ARC
  5
124
  8
0
 62
     7
 10
117.0142919999999
 20
154.33459899999991
 30
0.0
 40
3.0732909999999989
 50
258.71929499999999
 51
270.15051799999998
  0
ARC
  5
125
  8
0
 62
     7
 10
117.021511
 20
154.229994
 30
0.0
 40
2.968675999999999
 50
270.01649399999991
 51
292.79202299999992
  0
ARC
  5
126
  8
0
 62
     7
 10
117.551653
 20
152.88095100000001
 30
0.0
 40
1.5199759999999991
 50
294.06831499999993
 51
318.18992700000001
  0
ARC
  5
127
  8
0
 62
     7
 10
118.12142299999989
 20
152.33993100000001
 30
0.0
 40
0.734988
 50
320.01504399999988
 51
357.77456199999989
  0
ARC
  5
128
  8
0
 62
     7
 10
104.830842
 20
152.31282400000001
 30
0.0
 40
0.6418850000000002
 50
180.12795700000001
 51
211.79915099999991
  0
ARC
  5
129
  8
0
 62
     7
 10
105.204832
 20
152.53860299999991
 30
0.0
 40
1.078724
 50
211.52391299999991
 51
240.8987369999999
  0
ARC
  5
12A
  8
0
 62
     7
 10
105.795311
 20
153.45108999999991
 30
0.0
 40
2.1644060000000001
 50
238.988572
 51
259.83131700000001
  0
ARC
  5
12B
  8
0
 62
     7
 10
106.014377
 20
154.33459899999991
 30
0.0
 40
3.0732909999999989
 50
258.71929499999999
 51
270.15051799999998
  0
ARC
  5
12C
  8
0
 62
     7
 10
106.021596
 20
154.229994
 30
0.0
 40
2.968675999999999
 50
270.01649399999991
 51
292.79202299999992
  0
ARC
  5
12D
  8
0
 62
     7
 10
106.5517379999999
 20
152.88095100000001
 30
0.0
 40
1.5199759999999991
 50
294.06831499999993
 51
318.18992700000001
  0
ARC
  5
12E
  8
0
 62
     7
 10
107.12150799999991
 20
152.33993100000001
 30
0.0
 40
0.734988
 50
320.01504399999988
 51
357.77456199999989
  0
LINE
  5
12F
  8
0
 62
     7
 10
117.02200000000001
 20
151.261
 30
0.0
 11
106.02200000000001
 21
151.261
 31
0.0
  0
ARC
  5
130
  8
0
 62
     7
 10
108.2138309999999
 20
156.87539599999999
 30
0.0
 40
0.357901
 50
135.08971899999989
 51
179.54504800000001
  0
ARC
  5
131
  8
0
 62
     7
 10
108.63802199999991
 20
156.53012899999999
 30
0.0
 40
0.903749
 50
123.12620099999999
 51
138.57590699999989
  0
ARC
  5
132
  8
0
 62
     7
 10
109.21061999999991
 20
155.67128999999991
 30
0.0
 40
1.9359429999999991
 50
112.885475
 51
123.427786
  0
ARC
  5
133
  8
0
 62
     7
 10
109.959501
 20
153.9353669999999
 30
0.0
 40
3.8264819999999999
 50
105.606837
 51
113.10779699999991
  0
ARC
  5
134
  8
0
 62
     7
 10
110.967433
 20
150.30611200000001
 30
0.0
 40
7.5930989999999996
 50
94.364408999999995
 51
105.564385
  0
ARC
  5
135
  8
0
 62
     7
 10
111.506575
 20
145.70163299999999
 30
0.0
 40
12.226687999999999
 50
89.923373999999995
 51
95.241585000000001
  0
ARC
  5
136
  8
0
 62
     7
 10
111.524776
 20
146.43671099999989
 30
0.0
 40
11.491598
 50
78.472378000000006
 51
90.009220999999997
  0
ARC
  5
137
  8
0
 62
     7
 10
112.953885
 20
153.69766000000001
 30
0.0
 40
4.0918349999999988
 50
63.044182999999997
 51
77.761766000000009
  0
ARC
  5
138
  8
0
 62
     7
 10
114.25819199999999
 20
156.3482929999999
 30
0.0
 40
1.1385959999999991
 50
45.883604999999989
 51
61.084394999999986
  0
ARC
  5
139
  8
0
 62
     7
 10
114.7418969999999
 20
156.838841
 30
0.0
 40
0.4497390000000001
 50
5.0254580000000004
 51
46.620669999999997
  0
ARC
  5
13A
  8
0
 62
     7
 10
115.83075700000001
 20
156.87680499999999
 30
0.0
 40
0.6418850000000002
 50
148.20084900000001
 51
179.87204299999991
  0
ARC
  5
13B
  8
0
 62
     7
 10
116.204747
 20
156.651026
 30
0.0
 40
1.078724
 50
119.101263
 51
148.47608700000001
  0
ARC
  5
13C
  8
0
 62
     7
 10
116.795226
 20
155.73853799999989
 30
0.0
 40
2.1644060000000001
 50
100.168683
 51
121.0114279999999
  0
ARC
  5
13D
  8
0
 62
     7
 10
117.0142919999999
 20
154.855029
 30
0.0
 40
3.0732909999999989
 50
89.849481999999995
 51
101.280705
  0
ARC
  5
13E
  8
0
 62
     7
 10
117.021511
 20
154.95963399999999
 30
0.0
 40
2.968675999999999
 50
67.207977
 51
89.983506000000006
  0
ARC
  5
13F
  8
0
 62
     7
 10
117.551653
 20
156.30867799999999
 30
0.0
 40
1.5199759999999991
 50
41.810073000000003
 51
65.931685000000002
  0
ARC
  5
140
  8
0
 62
     7
 10
118.12142299999989
 20
156.84969699999991
 30
0.0
 40
0.734988
 50
2.225438
 51
39.984955999999997
  0
ARC
  5
141
  8
0
 62
     7
 10
107.49108099999999
 20
146.97355899999991
 30
0.0
 40
0.136061
 50
180.30407600000001
 51
212.65961200000001
  0
ARC
  5
142
  8
0
 62
     7
 10
107.65033799999991
 20
147.0786709999999
 30
0.0
 40
0.326872
 50
213.10661899999991
 51
237.28211499999989
  0
ARC
  5
143
  8
0
 62
     7
 10
108.08487700000001
 20
147.72965300000001
 30
0.0
 40
1.109526
 50
236.5726839999999
 51
249.840993
  0
ARC
  5
144
  8
0
 62
     7
 10
108.8539899999999
 20
149.74764500000001
 30
0.0
 40
3.269058999999999
 50
249.37577899999999
 51
257.09253599999988
  0
ARC
  5
145
  8
0
 62
     7
 10
109.919633
 20
154.2632199999999
 30
0.0
 40
7.908633
 50
256.874909
 51
262.10204299999998
  0
ARC
  5
146
  8
0
 62
     7
 10
111.28695500000001
 20
164.122221
 30
0.0
 40
17.861996999999999
 50
262.10322200000002
 51
270.75252899999992
  0
ARC
  5
147
  8
0
 62
     7
 10
111.5255149999999
 20
169.04953
 30
0.0
 40
22.787766000000001
 50
269.99003299999993
 51
275.21157599999992
  0
ARC
  5
148
  8
0
 62
     7
 10
112.453883
 20
158.45131499999999
 30
0.0
 40
12.149096
 50
275.39146399999998
 51
279.87537500000002
  0
ARC
  5
149
  8
0
 62
     7
 10
113.622012
 20
151.86185900000001
 30
0.0
 40
5.4569739999999989
 50
279.65810800000003
 51
286.37941599999988
  0
ARC
  5
14A
  8
0
 62
     7
 10
114.661855
 20
148.37783200000001
 30
0.0
 40
1.821175
 50
285.90256199999999
 51
297.42778099999992
  0
ARC
  5
14B
  8
0
 62
     7
 10
115.299184
 20
147.1762129999999
 30
0.0
 40
0.461215
 50
295.91375199999999
 51
320.40637900000002
  0
ARC
  5
14C
  8
0
 62
     7
 10
115.5387289999999
 20
146.9765679999999
 30
0.0
 40
0.149389
 50
320.85582199999999
 51
358.56890399999997
  0
ARC
  5
14D
  8
0
 62
     7
 10
115.9849949999999
 20
146.9755899999999
 30
0.0
 40
0.29487
 50
180.534989
 51
229.00002000000001
  0
ARC
  5
14E
  8
0
 62
     7
 10
116.3665979999999
 20
147.32062999999999
 30
0.0
 40
0.8079829999999999
 50
224.62526800000001
 51
240.28677200000001
  0
ARC
  5
14F
  8
0
 62
     7
 10
116.8344529999999
 20
148.12422000000001
 30
0.0
 40
1.7378290000000001
 50
240.02193199999999
 51
250.88283300000001
  0
ARC
  5
150
  8
0
 62
     7
 10
117.3359469999999
 20
149.53825800000001
 30
0.0
 40
3.2381429999999991
 50
250.69283300000001
 51
258.93664799999988
  0
ARC
  5
151
  8
0
 62
     7
 10
117.72878799999989
 20
151.52103700000001
 30
0.0
 40
5.2594589999999988
 50
258.88156900000001
 51
270.48226599999998
  0
ARC
  5
152
  8
0
 62
     7
 10
117.774705
 20
151.99589399999991
 30
0.0
 40
5.7341300000000004
 50
269.98353999999989
 51
280.39997199999999
  0
ARC
  5
153
  8
0
 62
     7
 10
118.330223
 20
149.00278599999999
 30
0.0
 40
2.6899189999999988
 50
280.270443
 51
298.27785499999987
  0
ARC
  5
154
  8
0
 62
     7
 10
119.245034
 20
147.23738599999999
 30
0.0
 40
0.7024840000000001
 50
300.78392700000001
 51
320.08286299999992
  0
ARC
  5
155
  8
0
 62
     7
 10
119.54696
 20
146.98548099999999
 30
0.0
 40
0.309272
 50
319.98378999999989
 51
357.65690000000001
  0
ARC
  5
156
  8
0
 62
     7
 10
103.484042
 20
146.9755899999999
 30
0.0
 40
0.29487
 50
180.534989
 51
229.00002000000001
  0
ARC
  5
157
  8
0
 62
     7
 10
103.8656459999999
 20
147.32062999999999
 30
0.0
 40
0.8079829999999999
 50
224.62526800000001
 51
240.28677200000001
  0
ARC
  5
158
  8
0
 62
     7
 10
104.3335
 20
148.12422000000001
 30
0.0
 40
1.7378290000000001
 50
240.02193199999999
 51
250.88283300000001
  0
ARC
  5
159
  8
0
 62
     7
 10
104.83499499999991
 20
149.53825800000001
 30
0.0
 40
3.2381429999999991
 50
250.69283300000001
 51
258.93664799999988
  0
ARC
  5
15A
  8
0
 62
     7
 10
105.227836
 20
151.52103700000001
 30
0.0
 40
5.2594589999999988
 50
258.88156900000001
 51
270.48226599999998
  0
ARC
  5
15B
  8
0
 62
     7
 10
105.2737519999999
 20
151.99589399999991
 30
0.0
 40
5.7341300000000004
 50
269.98353999999989
 51
280.39997199999999
  0
ARC
  5
15C
  8
0
 62
     7
 10
105.82927099999991
 20
149.00278599999999
 30
0.0
 40
2.6899189999999988
 50
280.270443
 51
298.27785499999987
  0
ARC
  5
15D
  8
0
 62
     7
 10
106.74408200000001
 20
147.23738599999999
 30
0.0
 40
0.7024840000000001
 50
300.78392700000001
 51
320.08286299999992
  0
ARC
  5
15E
  8
0
 62
     7
 10
107.0460079999999
 20
146.98548099999999
 30
0.0
 40
0.309272
 50
319.98378999999989
 51
357.65690000000001
  0
LINE
  5
15F
  8
0
 62
     7
 10
105.27200000000001
 20
146.262
 30
0.0
 11
117.77200000000001
 21
146.262
 31
0.0
  0
ARC
  5
160
  8
0
 62
     7
 10
107.49108099999999
 20
148.882777
 30
0.0
 40
0.136061
 50
147.34038799999999
 51
179.69592399999991
  0
ARC
  5
161
  8
0
 62
     7
 10
107.65033799999991
 20
148.7776649999999
 30
0.0
 40
0.326872
 50
122.717885
 51
146.89338100000001
  0
ARC
  5
162
  8
0
 62
     7
 10
108.08487700000001
 20
148.12668199999999
 30
0.0
 40
1.109526
 50
110.159007
 51
123.427316
  0
ARC
  5
163
  8
0
 62
     7
 10
108.8539899999999
 20
146.10869099999991
 30
0.0
 40
3.269058999999999
 50
102.907464
 51
110.62422099999991
  0
ARC
  5
164
  8
0
 62
     7
 10
109.919633
 20
141.5931149999999
 30
0.0
 40
7.908633
 50
97.897957000000005
 51
103.125091
  0
ARC
  5
165
  8
0
 62
     7
 10
111.28695500000001
 20
131.734115
 30
0.0
 40
17.861996999999999
 50
89.24747099999999
 51
97.896777999999983
  0
ARC
  5
166
  8
0
 62
     7
 10
111.5255149999999
 20
126.806805
 30
0.0
 40
22.787766000000001
 50
84.788423999999992
 51
90.009966999999989
  0
ARC
  5
167
  8
0
 62
     7
 10
112.453883
 20
137.40502000000001
 30
0.0
 40
12.149096
 50
80.124624999999995
 51
84.608536000000001
  0
ARC
  5
168
  8
0
 62
     7
 10
113.622012
 20
143.99447599999991
 30
0.0
 40
5.4569739999999989
 50
73.620583999999994
 51
80.341892000000001
  0
ARC
  5
169
  8
0
 62
     7
 10
114.661855
 20
147.4785029999999
 30
0.0
 40
1.821175
 50
62.572218999999997
 51
74.097437999999997
  0
ARC
  5
16A
  8
0
 62
     7
 10
115.299184
 20
148.68012300000001
 30
0.0
 40
0.461215
 50
39.593620999999992
 51
64.086247999999998
  0
ARC
  5
16B
  8
0
 62
     7
 10
115.5387289999999
 20
148.8797679999999
 30
0.0
 40
0.149389
 50
1.4310959999999999
 51
39.144177999999997
  0
ARC
  5
16C
  8
0
 62
     7
 10
115.9849949999999
 20
148.8807459999999
 30
0.0
 40
0.29487
 50
130.99997999999991
 51
179.465011
  0
ARC
  5
16D
  8
0
 62
     7
 10
116.3665979999999
 20
148.53570500000001
 30
0.0
 40
0.8079829999999999
 50
119.7132279999999
 51
135.37473199999991
  0
ARC
  5
16E
  8
0
 62
     7
 10
116.8344529999999
 20
147.73211499999991
 30
0.0
 40
1.7378290000000001
 50
109.11716699999999
 51
119.97806799999989
  0
ARC
  5
16F
  8
0
 62
     7
 10
117.3359469999999
 20
146.3180769999999
 30
0.0
 40
3.2381429999999991
 50
101.06335199999999
 51
109.30716700000001
  0
ARC
  5
170
  8
0
 62
     7
 10
117.72878799999989
 20
144.33529799999999
 30
0.0
 40
5.2594589999999988
 50
89.517733999999976
 51
101.1184309999999
  0
ARC
  5
171
  8
0
 62
     7
 10
117.774705
 20
143.86044099999989
 30
0.0
 40
5.7341300000000004
 50
79.600028000000009
 51
90.016459999999995
  0
ARC
  5
172
  8
0
 62
     7
 10
118.330223
 20
146.8535489999999
 30
0.0
 40
2.6899189999999988
 50
61.72214499999999
 51
79.729556999999986
  0
ARC
  5
173
  8
0
 62
     7
 10
119.245034
 20
148.6189489999999
 30
0.0
 40
0.7024840000000001
 50
39.917136999999997
 51
59.216073000000002
  0
ARC
  5
174
  8
0
 62
     7
 10
119.54696
 20
148.87085500000001
 30
0.0
 40
0.309272
 50
2.3431000000000002
 51
40.016210000000001
  0
ARC
  5
175
  8
0
 62
     7
 10
103.484042
 20
148.8807459999999
 30
0.0
 40
0.29487
 50
130.99997999999991
 51
179.465011
  0
ARC
  5
176
  8
0
 62
     7
 10
103.8656459999999
 20
148.53570500000001
 30
0.0
 40
0.8079829999999999
 50
119.7132279999999
 51
135.37473199999991
  0
ARC
  5
177
  8
0
 62
     7
 10
104.3335
 20
147.73211499999991
 30
0.0
 40
1.7378290000000001
 50
109.11716699999999
 51
119.97806799999989
  0
ARC
  5
178
  8
0
 62
     7
 10
104.83499499999991
 20
146.3180769999999
 30
0.0
 40
3.2381429999999991
 50
101.06335199999999
 51
109.30716700000001
  0
ARC
  5
179
  8
0
 62
     7
 10
105.227836
 20
144.33529799999999
 30
0.0
 40
5.2594589999999988
 50
89.517733999999976
 51
101.1184309999999
  0
ARC
  5
17A
  8
0
 62
     7
 10
105.2737519999999
 20
143.86044099999989
 30
0.0
 40
5.7341300000000004
 50
79.600028000000009
 51
90.016459999999995
  0
ARC
  5
17B
  8
0
 62
     7
 10
105.82927099999991
 20
146.8535489999999
 30
0.0
 40
2.6899189999999988
 50
61.72214499999999
 51
79.729556999999986
  0
ARC
  5
17C
  8
0
 62
     7
 10
106.74408200000001
 20
148.6189489999999
 30
0.0
 40
0.7024840000000001
 50
39.917136999999997
 51
59.216073000000002
  0
ARC
  5
17D
  8
0
 62
     7
 10
107.0460079999999
 20
148.87085500000001
 30
0.0
 40
0.309272
 50
2.3431000000000002
 51
40.016210000000001
  0
ARC
  5
17E
  8
0
 62
     7
 10
104.830842
 20
156.87680499999999
 30
0.0
 40
0.6418850000000002
 50
148.20084900000001
 51
179.87204299999991
  0
ARC
  5
17F
  8
0
 62
     7
 10
105.204832
 20
156.651026
 30
0.0
 40
1.078724
 50
119.101263
 51
148.47608700000001
  0
ARC
  5
180
  8
0
 62
     7
 10
105.795311
 20
155.73853799999989
 30
0.0
 40
2.1644060000000001
 50
100.168683
 51
121.0114279999999
  0
ARC
  5
181
  8
0
 62
     7
 10
106.014377
 20
154.855029
 30
0.0
 40
3.0732909999999989
 50
89.849481999999995
 51
101.280705
  0
ARC
  5
182
  8
0
 62
     7
 10
106.021596
 20
154.95963399999999
 30
0.0
 40
2.968675999999999
 50
67.207977
 51
89.983506000000006
  0
ARC
  5
183
  8
0
 62
     7
 10
106.5517379999999
 20
156.30867799999999
 30
0.0
 40
1.5199759999999991
 50
41.810073000000003
 51
65.931685000000002
  0
ARC
  5
184
  8
0
 62
     7
 10
107.12150799999991
 20
156.84969699999991
 30
0.0
 40
0.734988
 50
2.225438
 51
39.984955999999997
  0
LINE
  5
185
  8
0
 62
     7
 10
122.98099999999999
 20
220.66200000000001
 30
0.0
 11
121.72
 21
220.66200000000001
 31
0.0
  0
LINE
  5
186
  8
0
 62
     7
 10
122.98099999999999
 20
215.66200000000001
 30
0.0
 11
121.72
 21
215.66200000000001
 31
0.0
  0
LINE
  5
187
  8
0
 62
     7
 10
122.98099999999999
 20
217.87899999999999
 30
0.0
 11
122.01899999999991
 21
217.87899999999999
 31
0.0
  0
LINE
  5
188
  8
0
 62
     7
 10
122.98099999999999
 20
218.44499999999999
 30
0.0
 11
122.01899999999991
 21
218.44499999999999
 31
0.0
  0
LINE
  5
189
  8
0
 62
     7
 10
122.98099999999999
 20
219.93100000000001
 30
0.0
 11
121.872
 21
219.93100000000001
 31
0.0
  0
LINE
  5
18A
  8
0
 62
     7
 10
122.98099999999999
 20
220.37700000000001
 30
0.0
 11
121.7859999999999
 21
220.37700000000001
 31
0.0
  0
LINE
  5
18B
  8
0
 62
     7
 10
122.98099999999999
 20
215.946
 30
0.0
 11
121.7859999999999
 21
215.946
 31
0.0
  0
LINE
  5
18C
  8
0
 62
     7
 10
122.98099999999999
 20
216.392
 30
0.0
 11
121.872
 21
216.392
 31
0.0
  0
LINE
  5
18D
  8
0
 62
     7
 10
122.98099999999999
 20
220.66200000000001
 30
0.0
 11
122.98099999999999
 21
215.66200000000001
 31
0.0
  0
ARC
  5
18E
  8
0
 62
     7
 10
154.8955729999999
 20
218.16187799999989
 30
0.0
 40
1.5833759999999999
 50
0.00001
 51
89.999980000000008
  0
ARC
  5
18F
  8
0
 62
     7
 10
154.8955729999999
 20
218.16187799999989
 30
0.0
 40
1.5833759999999999
 50
90.0
 51
179.99996999999991
  0
ARC
  5
190
  8
0
 62
     7
 10
154.8955729999999
 20
218.16187799999989
 30
0.0
 40
1.5833759999999999
 50
179.99996999999991
 51
270.00002000000001
  0
ARC
  5
191
  8
0
 62
     7
 10
154.8955729999999
 20
218.16187899999991
 30
0.0
 40
1.5833759999999999
 50
270.00002000000001
 51
359.99998999999991
  0
LINE
  5
192
  8
0
 62
     7
 10
154.096
 20
218.624
 30
0.0
 11
154.89599999999999
 21
219.0859999999999
 31
0.0
  0
LINE
  5
193
  8
0
 62
     7
 10
154.89599999999999
 20
219.0859999999999
 30
0.0
 11
155.696
 21
218.624
 31
0.0
  0
LINE
  5
194
  8
0
 62
     7
 10
155.696
 20
218.624
 30
0.0
 11
155.696
 21
217.69999999999999
 31
0.0
  0
LINE
  5
195
  8
0
 62
     7
 10
155.696
 20
217.69999999999999
 30
0.0
 11
154.89599999999999
 21
217.23799999999989
 31
0.0
  0
LINE
  5
196
  8
0
 62
     7
 10
154.89599999999999
 20
217.23799999999989
 30
0.0
 11
154.096
 21
217.69999999999999
 31
0.0
  0
LINE
  5
197
  8
0
 62
     7
 10
154.096
 20
217.69999999999999
 30
0.0
 11
154.096
 21
218.624
 31
0.0
  0
ARC
  5
198
  8
0
 62
     7
 10
154.89567199999991
 20
216.66202000000001
 30
0.0
 40
0.6667650000000001
 50
190.61220299999999
 51
280.590757
  0
ARC
  5
199
  8
0
 62
     7
 10
154.88104499999989
 20
216.676402
 30
0.0
 40
0.6836910000000001
 50
281.5742249999999
 51
348.42578500000002
  0
ARC
  5
19A
  8
0
 62
     7
 10
154.87555699999999
 20
219.63264899999999
 30
0.0
 40
0.6921460000000002
 50
12.675719000000001
 51
98.527201000000005
  0
ARC
  5
19B
  8
0
 62
     7
 10
154.910695
 20
219.64676
 30
0.0
 40
0.6843930000000001
 50
101.61297399999989
 51
168.3869959999999
  0
LINE
  5
19C
  8
0
 62
     7
 10
122.98099999999999
 20
217.56200000000001
 30
0.0
 11
151.95599999999999
 21
217.56200000000001
 31
0.0
  0
LINE
  5
19D
  8
0
 62
     7
 10
122.98099999999999
 20
218.76199999999989
 30
0.0
 11
151.95599999999999
 21
218.76199999999989
 31
0.0
  0
LINE
  5
19E
  8
0
 62
     7
 10
156.1999999999999
 20
216.995
 30
0.0
 11
157.54699999999991
 21
216.995
 31
0.0
  0
LINE
  5
19F
  8
0
 62
     7
 10
156.1999999999999
 20
219.32900000000001
 30
0.0
 11
157.54699999999991
 21
219.32900000000001
 31
0.0
  0
ARC
  5
1A0
  8
0
 62
     7
 10
154.89565899999991
 20
218.16179199999991
 30
0.0
 40
1.7500340000000001
 50
0.00283
 51
90.002800000000008
  0
ARC
  5
1A1
  8
0
 62
     7
 10
154.89565899999991
 20
218.16196400000001
 30
0.0
 40
1.7498610000000001
 50
90.002820000000014
 51
180.00282999999999
  0
ARC
  5
1A2
  8
0
 62
     7
 10
154.89565899999991
 20
218.16179199999991
 30
0.0
 40
1.7498610000000001
 50
179.99715
 51
269.99720000000002
  0
ARC
  5
1A3
  8
0
 62
     7
 10
154.89565899999991
 20
218.16196500000001
 30
0.0
 40
1.7500340000000001
 50
269.99720000000002
 51
359.99716999999998
  0
ARC
  5
1A4
  8
0
 62
     7
 10
152.2475739999999
 20
217.16590099999991
 30
0.0
 40
0.170739
 50
201.609644
 51
268.98689400000001
  0
ARC
  5
1A5
  8
0
 62
     7
 10
152.24750700000001
 20
219.15795299999991
 30
0.0
 40
0.17064
 50
90.991097999999994
 51
158.412364
  0
ARC
  5
1A6
  8
0
 62
     7
 10
157.54370099999991
 20
217.166222
 30
0.0
 40
0.171056
 50
270.96783399999993
 51
338.31718699999999
  0
ARC
  5
1A7
  8
0
 62
     7
 10
157.54391000000001
 20
219.157837
 30
0.0
 40
0.170752
 50
21.614614
 51
89.100364999999996
  0
ARC
  5
1A8
  8
0
 62
     7
 10
154.89565899999991
 20
218.16179199999991
 30
0.0
 40
1.0834029999999999
 50
0.004565
 51
90.004535000000004
  0
ARC
  5
1A9
  8
0
 62
     7
 10
154.936903
 20
218.1207269999999
 30
0.0
 40
1.1252279999999999
 50
92.104981999999993
 51
177.904099
  0
ARC
  5
1AA
  8
0
 62
     7
 10
154.93707499999999
 20
218.203202
 30
0.0
 40
1.125405999999999
 50
182.10433
 51
267.88658900000001
  0
ARC
  5
1AB
  8
0
 62
     7
 10
154.89565899999991
 20
218.16196500000001
 30
0.0
 40
1.0834029999999999
 50
269.99546499999991
 51
359.99543499999987
  0
ARC
  5
1AC
  8
0
 62
     7
 10
154.87967099999989
 20
218.16438099999999
 30
0.0
 40
3.015911
 50
339.39520399999992
 51
359.95245599999993
  0
ARC
  5
1AD
  8
0
 62
     7
 10
154.89006499999999
 20
218.16127
 30
0.0
 40
3.0055160000000001
 50
0.011606
 51
20.640733999999991
  0
ARC
  5
1AE
  8
0
 62
     7
 10
154.8870379999999
 20
218.16391999999999
 30
0.0
 40
2.3419140000000001
 50
330.06288499999988
 51
359.95006100000001
  0
ARC
  5
1AF
  8
0
 62
     7
 10
154.88008500000001
 20
218.15797499999999
 30
0.0
 40
2.3488689999999992
 50
0.095215
 51
29.891839000000001
  0
LINE
  5
1B0
  8
0
 62
     7
 10
152.245
 20
216.995
 30
0.0
 11
153.59100000000001
 21
216.995
 31
0.0
  0
LINE
  5
1B1
  8
0
 62
     7
 10
152.245
 20
219.32900000000001
 30
0.0
 11
153.59100000000001
 21
219.32900000000001
 31
0.0
  0
ARC
  5
1B2
  8
0
 62
     7
 10
154.95048600000001
 20
218.16187899999991
 30
0.0
 40
2.3809149999999999
 50
150.65828300000001
 51
209.3417169999999
  0
ARC
  5
1B3
  8
0
 62
     7
 10
154.92240200000001
 20
218.16187899999991
 30
0.0
 40
3.0249419999999989
 50
159.51010099999999
 51
200.48989900000001
  0
LINE
  5
1B4
  8
0
  6
AIGENLINE001
 62
     7
 10
154.89599999999999
 20
214.745
 30
0.0
 11
154.89599999999999
 21
221.57900000000001
 31
0.0
  0
LINE
  5
1B5
  8
0
  6
AIGENLINE001
 62
     7
 10
98.153099999999995
 20
218.16200000000001
 30
0.0
 11
159.7939999999999
 21
218.16200000000001
 31
0.0
  0
LINE
  5
1B6
  8
0
  6
AIGENLINE001
 62
     7
 10
111.5229999999999
 20
204.91800000000001
 30
0.0
 11
111.5229999999999
 21
231.72900000000001
 31
0.0
  0
ARC
  5
1B7
  8
0
 62
     7
 10
111.52257899999989
 20
218.16204999999999
 30
0.0
 40
6.6666479999999986
 50
0.00001
 51
89.999980000000008
  0
ARC
  5
1B8
  8
0
 62
     7
 10
111.522409
 20
218.161877
 30
0.0
 40
6.6668199999999986
 50
89.998519999999999
 51
179.99849
  0
ARC
  5
1B9
  8
0
 62
     7
 10
111.5224929999999
 20
218.16213599999989
 30
0.0
 40
6.6669039999999988
 50
180.00075000000001
 51
270.00076000000001
  0
ARC
  5
1BA
  8
0
 62
     7
 10
111.5224929999999
 20
218.16196599999989
 30
0.0
 40
6.666733999999999
 50
270.00076000000001
 51
0.00073
  0
ARC
  5
1BB
  8
0
 62
     7
 10
111.522578
 20
218.162049
 30
0.0
 40
10.500030000000001
 50
0.00001
 51
89.999980000000008
  0
ARC
  5
1BC
  8
0
 62
     7
 10
111.522582
 20
218.162049
 30
0.0
 40
10.500030000000001
 50
90.0
 51
179.99996999999991
  0
ARC
  5
1BD
  8
0
 62
     7
 10
111.52266399999991
 20
218.1619629999999
 30
0.0
 40
10.500113000000001
 50
179.99950000000001
 51
269.99954999999989
  0
ARC
  5
1BE
  8
0
 62
     7
 10
111.5224919999999
 20
218.16196599999989
 30
0.0
 40
10.500116
 50
270.00049000000001
 51
0.00046
  0
LINE
  5
1BF
  8
0
 62
     7
 10
108.44199999999999
 20
60.742899999999999
 30
0.0
 11
106.23099999999999
 21
60.150399999999991
 31
0.0
  0
LINE
  5
1C0
  8
0
 62
     7
 10
106.23099999999999
 20
60.150399999999991
 30
0.0
 11
108.44199999999999
 21
59.5578
 31
0.0
  0
LINE
  5
1C1
  8
0
 62
     7
 10
108.44199999999999
 20
59.5578
 30
0.0
 11
108.44199999999999
 21
60.742899999999999
 31
0.0
  0
LINE
  5
1C2
  8
0
 62
     7
 10
114.60299999999989
 20
59.572299999999998
 30
0.0
 11
116.815
 21
60.1648
 31
0.0
  0
LINE
  5
1C3
  8
0
 62
     7
 10
116.815
 20
60.1648
 30
0.0
 11
114.60299999999989
 21
60.75739999999999
 31
0.0
  0
LINE
  5
1C4
  8
0
 62
     7
 10
114.60299999999989
 20
60.75739999999999
 30
0.0
 11
114.60299999999989
 21
59.572299999999998
 31
0.0
  0
LINE
  5
1C5
  8
0
 62
     7
 10
106.23099999999999
 20
60.150399999999991
 30
0.0
 11
116.81399999999989
 21
60.150399999999991
 31
0.0
  0
LINE
  5
1C6
  8
0
 62
     7
 10
116.81399999999989
 20
68.894400000000005
 30
0.0
 11
116.81399999999989
 21
59.450299999999999
 31
0.0
  0
LINE
  5
1C7
  8
0
 62
     7
 10
106.23099999999999
 20
68.894400000000005
 30
0.0
 11
106.23099999999999
 21
59.450299999999999
 31
0.0
  0
LINE
  5
1C8
  8
0
 62
     7
 10
163.71100000000001
 20
120.267
 30
0.0
 11
154.2239999999999
 21
120.267
 31
0.0
  0
LINE
  5
1C9
  8
0
 62
     7
 10
153.39799999999991
 20
121.9309999999999
 30
0.0
 11
151.41499999999991
 21
123.07599999999999
 31
0.0
  0
LINE
  5
1CA
  8
0
 62
     7
 10
151.41499999999991
 20
123.07599999999999
 30
0.0
 11
152.56
 21
121.0929999999999
 31
0.0
  0
LINE
  5
1CB
  8
0
 62
     7
 10
152.56
 20
121.0929999999999
 30
0.0
 11
153.39799999999991
 21
121.9309999999999
 31
0.0
  0
LINE
  5
1CC
  8
0
 62
     7
 10
141.56200000000001
 20
132.928
 30
0.0
 11
154.2239999999999
 21
120.267
 31
0.0
  0
LINE
  5
1CD
  8
0
 62
     7
 10
147.99799999999991
 20
141.65399999999991
 30
0.0
 11
133.6999999999999
 21
141.65399999999991
 31
0.0
  0
LINE
  5
1CE
  8
0
 62
     7
 10
152.0079999999999
 20
139.81399999999991
 30
0.0
 11
154.29599999999991
 21
139.7359999999999
 31
0.0
  0
LINE
  5
1CF
  8
0
 62
     7
 10
154.29599999999991
 20
139.7359999999999
 30
0.0
 11
152.35299999999989
 21
140.94699999999989
 31
0.0
  0
LINE
  5
1D0
  8
0
 62
     7
 10
152.35299999999989
 20
140.94699999999989
 30
0.0
 11
152.0079999999999
 21
139.81399999999991
 31
0.0
  0
LINE
  5
1D1
  8
0
 62
     7
 10
154.29599999999991
 20
139.7359999999999
 30
0.0
 11
147.99799999999991
 21
141.65399999999991
 31
0.0
  0
LINE
  5
1D2
  8
0
 62
     7
 10
150.364
 20
169.935
 30
0.0
 11
130.905
 21
169.935
 31
0.0
  0
LINE
  5
1D3
  8
0
 62
     7
 10
152.80699999999999
 20
164.60299999999989
 30
0.0
 11
154.43700000000001
 21
162.995
 31
0.0
  0
LINE
  5
1D4
  8
0
 62
     7
 10
154.43700000000001
 20
162.995
 30
0.0
 11
153.82900000000001
 21
165.203
 31
0.0
  0
LINE
  5
1D5
  8
0
 62
     7
 10
153.82900000000001
 20
165.203
 30
0.0
 11
152.80699999999999
 21
164.60299999999989
 31
0.0
  0
LINE
  5
1D6
  8
0
 62
     7
 10
154.43700000000001
 20
162.995
 30
0.0
 11
150.364
 21
169.935
 31
0.0
  0
LINE
  5
1D7
  8
0
 62
     7
 10
119.98099999999999
 20
121.479
 30
0.0
 11
118.98099999999999
 21
121.479
 31
0.0
  0
LINE
  5
1D8
  8
0
 62
     7
 10
119.98099999999999
 20
117.711
 30
0.0
 11
118.98099999999999
 21
117.711
 31
0.0
  0
LINE
  5
1D9
  8
0
 62
     7
 10
122.98099999999999
 20
117.825
 30
0.0
 11
119.98099999999999
 21
117.825
 31
0.0
  0
LINE
  5
1DA
  8
0
 62
     7
 10
122.98099999999999
 20
117.3799999999999
 30
0.0
 11
119.98099999999999
 21
117.3799999999999
 31
0.0
  0
LINE
  5
1DB
  8
0
 62
     7
 10
122.98099999999999
 20
121.8099999999999
 30
0.0
 11
119.98099999999999
 21
121.8099999999999
 31
0.0
  0
LINE
  5
1DC
  8
0
 62
     7
 10
122.98099999999999
 20
121.3639999999999
 30
0.0
 11
119.98099999999999
 21
121.3639999999999
 31
0.0
  0
LINE
  5
1DD
  8
0
 62
     7
 10
122.98099999999999
 20
119.8779999999999
 30
0.0
 11
119.98099999999999
 21
119.8779999999999
 31
0.0
  0
LINE
  5
1DE
  8
0
 62
     7
 10
122.98099999999999
 20
119.312
 30
0.0
 11
119.98099999999999
 21
119.312
 31
0.0
  0
LINE
  5
1DF
  8
0
 62
     7
 10
122.98099999999999
 20
117.09399999999989
 30
0.0
 11
119.98099999999999
 21
117.09399999999989
 31
0.0
  0
LINE
  5
1E0
  8
0
 62
     7
 10
122.98099999999999
 20
122.0949999999999
 30
0.0
 11
119.98099999999999
 21
122.0949999999999
 31
0.0
  0
LINE
  5
1E1
  8
0
 62
     7
 10
122.98099999999999
 20
122.0949999999999
 30
0.0
 11
122.98099999999999
 21
117.09399999999989
 31
0.0
  0
LINE
  5
1E2
  8
0
 62
     7
 10
119.98099999999999
 20
122.0949999999999
 30
0.0
 11
119.98099999999999
 21
117.09399999999989
 31
0.0
  0
LINE
  5
1E3
  8
0
 62
     7
 10
118.98099999999999
 20
116.928
 30
0.0
 11
116.81399999999989
 21
116.928
 31
0.0
  0
LINE
  5
1E4
  8
0
 62
     7
 10
118.98099999999999
 20
122.261
 30
0.0
 11
116.81399999999989
 21
122.261
 31
0.0
  0
LINE
  5
1E5
  8
0
 62
     7
 10
118.98099999999999
 20
122.261
 30
0.0
 11
118.98099999999999
 21
116.928
 31
0.0
  0
LINE
  5
1E6
  8
0
 62
     7
 10
117.31399999999989
 20
122.261
 30
0.0
 11
117.31399999999989
 21
116.928
 31
0.0
  0
LINE
  5
1E7
  8
0
 62
     7
 10
89.328800000000001
 20
157.3839999999999
 30
0.0
 11
88.736199999999997
 21
159.595
 31
0.0
  0
LINE
  5
1E8
  8
0
 62
     7
 10
88.736199999999997
 20
159.595
 30
0.0
 11
88.143699999999995
 21
157.3839999999999
 31
0.0
  0
LINE
  5
1E9
  8
0
 62
     7
 10
88.143699999999995
 20
157.3839999999999
 30
0.0
 11
89.328800000000001
 21
157.3839999999999
 31
0.0
  0
LINE
  5
1EA
  8
0
 62
     7
 10
88.158100000000005
 20
71.805899999999994
 30
0.0
 11
88.750699999999995
 21
69.594099999999997
 31
0.0
  0
LINE
  5
1EB
  8
0
 62
     7
 10
88.750699999999995
 20
69.594099999999997
 30
0.0
 11
89.343299999999999
 21
71.805899999999994
 31
0.0
  0
LINE
  5
1EC
  8
0
 62
     7
 10
89.343299999999999
 20
71.805899999999994
 30
0.0
 11
88.158100000000005
 21
71.805899999999994
 31
0.0
  0
LINE
  5
1ED
  8
0
 62
     7
 10
88.736199999999997
 20
159.595
 30
0.0
 11
88.736199999999997
 21
69.594499999999996
 31
0.0
  0
LINE
  5
1EE
  8
0
 62
     7
 10
88.036199999999994
 20
69.594499999999996
 30
0.0
 11
105.53099999999991
 21
69.594499999999996
 31
0.0
  0
LINE
  5
1EF
  8
0
 62
     7
 10
88.036199999999994
 20
159.595
 30
0.0
 11
100.4889999999999
 21
159.595
 31
0.0
  0
LINE
  5
1F0
  8
0
 62
     7
 10
88.158100000000005
 20
165.1399999999999
 30
0.0
 11
88.750699999999995
 21
162.928
 31
0.0
  0
LINE
  5
1F1
  8
0
 62
     7
 10
88.750699999999995
 20
162.928
 30
0.0
 11
89.343299999999999
 21
165.1399999999999
 31
0.0
  0
LINE
  5
1F2
  8
0
 62
     7
 10
89.343299999999999
 20
165.1399999999999
 30
0.0
 11
88.158100000000005
 21
165.1399999999999
 31
0.0
  0
LINE
  5
1F3
  8
0
 62
     7
 10
89.328800000000001
 20
174.71700000000001
 30
0.0
 11
88.736199999999997
 21
176.928
 31
0.0
  0
LINE
  5
1F4
  8
0
 62
     7
 10
88.736199999999997
 20
176.928
 30
0.0
 11
88.143699999999995
 21
174.71700000000001
 31
0.0
  0
LINE
  5
1F5
  8
0
 62
     7
 10
88.143699999999995
 20
174.71700000000001
 30
0.0
 11
89.328800000000001
 21
174.71700000000001
 31
0.0
  0
LINE
  5
1F6
  8
0
 62
     7
 10
88.736199999999997
 20
162.928
 30
0.0
 11
88.736199999999997
 21
176.928
 31
0.0
  0
LINE
  5
1F7
  8
0
 62
     7
 10
100.32299999999989
 20
176.928
 30
0.0
 11
88.036199999999994
 21
176.928
 31
0.0
  0
LINE
  5
1F8
  8
0
 62
     7
 10
103.9889999999999
 20
162.928
 30
0.0
 11
88.036199999999994
 21
162.928
 31
0.0
  0
LINE
  5
1F9
  8
0
 62
     7
 10
103.23399999999999
 20
187.27799999999991
 30
0.0
 11
101.02200000000001
 21
186.68599999999989
 31
0.0
  0
LINE
  5
1FA
  8
0
 62
     7
 10
101.02200000000001
 20
186.68599999999989
 30
0.0
 11
103.23399999999999
 21
186.0929999999999
 31
0.0
  0
LINE
  5
1FB
  8
0
 62
     7
 10
103.23399999999999
 20
186.0929999999999
 30
0.0
 11
103.23399999999999
 21
187.27799999999991
 31
0.0
  0
LINE
  5
1FC
  8
0
 62
     7
 10
119.81099999999989
 20
186.108
 30
0.0
 11
122.0229999999999
 21
186.6999999999999
 31
0.0
  0
LINE
  5
1FD
  8
0
 62
     7
 10
122.0229999999999
 20
186.6999999999999
 30
0.0
 11
119.81099999999989
 21
187.29300000000001
 31
0.0
  0
LINE
  5
1FE
  8
0
 62
     7
 10
119.81099999999989
 20
187.29300000000001
 30
0.0
 11
119.81099999999989
 21
186.108
 31
0.0
  0
LINE
  5
1FF
  8
0
 62
     7
 10
101.0229999999999
 20
186.68599999999989
 30
0.0
 11
122.0229999999999
 21
186.68599999999989
 31
0.0
  0
LINE
  5
200
  8
0
 62
     7
 10
122.0229999999999
 20
177.6279999999999
 30
0.0
 11
122.0229999999999
 21
187.386
 31
0.0
  0
LINE
  5
201
  8
0
 62
     7
 10
101.0229999999999
 20
177.6279999999999
 30
0.0
 11
101.0229999999999
 21
187.386
 31
0.0
  0
LINE
  5
202
  8
0
  6
AIGENLINE001
 62
     7
 10
111.5229999999999
 20
66.443600000000004
 30
0.0
 11
111.5229999999999
 21
179.934
 31
0.0
  0
LINE
  5
203
  8
0
 62
     7
 10
116.81399999999989
 20
128.261
 30
0.0
 11
116.81399999999989
 21
69.594499999999996
 31
0.0
  0
LINE
  5
204
  8
0
 62
     7
 10
106.23099999999999
 20
128.261
 30
0.0
 11
106.23099999999999
 21
69.594499999999996
 31
0.0
  0
LINE
  5
205
  8
0
 62
     7
 10
106.23099999999999
 20
69.594499999999996
 30
0.0
 11
116.81399999999989
 21
69.594499999999996
 31
0.0
  0
LINE
  5
206
  8
0
 62
     7
 10
116.81399999999989
 20
128.261
 30
0.0
 11
117.5229999999999
 21
129.92799999999991
 31
0.0
  0
LINE
  5
207
  8
0
 62
     7
 10
106.23099999999999
 20
128.261
 30
0.0
 11
105.5229999999999
 21
129.92799999999991
 31
0.0
  0
LINE
  5
208
  8
0
 62
     7
 10
106.23099999999999
 20
128.261
 30
0.0
 11
116.81399999999989
 21
128.261
 31
0.0
  0
LINE
  5
209
  8
0
 62
     7
 10
117.5229999999999
 20
129.92799999999991
 30
0.0
 11
117.5229999999999
 21
137.26099999999991
 31
0.0
  0
LINE
  5
20A
  8
0
 62
     7
 10
105.5229999999999
 20
129.92799999999991
 30
0.0
 11
105.5229999999999
 21
137.26099999999991
 31
0.0
  0
LINE
  5
20B
  8
0
 62
     7
 10
105.5229999999999
 20
129.92799999999991
 30
0.0
 11
117.5229999999999
 21
129.92799999999991
 31
0.0
  0
LINE
  5
20C
  8
0
 62
     7
 10
117.85599999999999
 20
137.26099999999991
 30
0.0
 11
117.85599999999999
 21
138.59399999999991
 31
0.0
  0
LINE
  5
20D
  8
0
 62
     7
 10
105.18899999999989
 20
137.26099999999991
 30
0.0
 11
105.18899999999989
 21
138.59399999999991
 31
0.0
  0
LINE
  5
20E
  8
0
 62
     7
 10
105.18899999999989
 20
137.26099999999991
 30
0.0
 11
117.85599999999999
 21
137.26099999999991
 31
0.0
  0
LINE
  5
20F
  8
0
 62
     7
 10
120.386
 20
139.26099999999991
 30
0.0
 11
120.386
 21
144.92799999999991
 31
0.0
  0
LINE
  5
210
  8
0
 62
     7
 10
119.9799999999999
 20
139.26099999999991
 30
0.0
 11
119.9799999999999
 21
144.92799999999991
 31
0.0
  0
LINE
  5
211
  8
0
 62
     7
 10
119.31699999999999
 20
139.26099999999991
 30
0.0
 11
119.31699999999999
 21
144.92799999999991
 31
0.0
  0
LINE
  5
212
  8
0
 62
     7
 10
118.4169999999999
 20
139.26099999999991
 30
0.0
 11
118.4169999999999
 21
144.92799999999991
 31
0.0
  0
LINE
  5
213
  8
0
 62
     7
 10
117.30799999999989
 20
139.26099999999991
 30
0.0
 11
117.30799999999989
 21
144.92799999999991
 31
0.0
  0
LINE
  5
214
  8
0
 62
     7
 10
116.023
 20
139.26099999999991
 30
0.0
 11
116.023
 21
144.92799999999991
 31
0.0
  0
LINE
  5
215
  8
0
 62
     7
 10
114.6009999999999
 20
139.26099999999991
 30
0.0
 11
114.6009999999999
 21
144.92799999999991
 31
0.0
  0
LINE
  5
216
  8
0
 62
     7
 10
113.08499999999989
 20
139.26099999999991
 30
0.0
 11
113.08499999999989
 21
144.92799999999991
 31
0.0
  0
LINE
  5
217
  8
0
 62
     7
 10
102.65899999999991
 20
139.26099999999991
 30
0.0
 11
102.65899999999991
 21
144.92799999999991
 31
0.0
  0
LINE
  5
218
  8
0
 62
     7
 10
103.065
 20
139.26099999999991
 30
0.0
 11
103.065
 21
144.92799999999991
 31
0.0
  0
LINE
  5
219
  8
0
 62
     7
 10
103.72799999999989
 20
139.26099999999991
 30
0.0
 11
103.72799999999989
 21
144.92799999999991
 31
0.0
  0
LINE
  5
21A
  8
0
 62
     7
 10
104.6279999999999
 20
139.26099999999991
 30
0.0
 11
104.6279999999999
 21
144.92799999999991
 31
0.0
  0
LINE
  5
21B
  8
0
 62
     7
 10
105.73699999999999
 20
139.26099999999991
 30
0.0
 11
105.73699999999999
 21
144.92799999999991
 31
0.0
  0
LINE
  5
21C
  8
0
 62
     7
 10
107.023
 20
139.26099999999991
 30
0.0
 11
107.023
 21
144.92799999999991
 31
0.0
  0
LINE
  5
21D
  8
0
 62
     7
 10
108.444
 20
139.26099999999991
 30
0.0
 11
108.444
 21
144.92799999999991
 31
0.0
  0
LINE
  5
21E
  8
0
 62
     7
 10
109.95999999999989
 20
139.26099999999991
 30
0.0
 11
109.95999999999989
 21
144.92799999999991
 31
0.0
  0
LINE
  5
21F
  8
0
 62
     7
 10
111.5229999999999
 20
139.26099999999991
 30
0.0
 11
111.5229999999999
 21
144.92799999999991
 31
0.0
  0
LINE
  5
220
  8
0
 62
     7
 10
103.35599999999999
 20
138.59399999999991
 30
0.0
 11
119.68899999999999
 21
138.59399999999991
 31
0.0
  0
LINE
  5
221
  8
0
 62
     7
 10
120.18899999999989
 20
139.09499999999991
 30
0.0
 11
120.18899999999989
 21
139.26099999999991
 31
0.0
  0
ARC
  5
222
  8
0
 62
     7
 10
119.67042499999999
 20
139.1131629999999
 30
0.0
 40
0.5190200000000002
 50
272.07648699999999
 51
357.96299599999992
  0
LINE
  5
223
  8
0
 62
     7
 10
102.85599999999999
 20
139.09499999999991
 30
0.0
 11
102.85599999999999
 21
139.26099999999991
 31
0.0
  0
ARC
  5
224
  8
0
 62
     7
 10
103.37496299999989
 20
139.11373499999999
 30
0.0
 40
0.5196130000000001
 50
182.09777700000001
 51
267.86277899999988
  0
LINE
  5
225
  8
0
 62
     7
 10
102.523
 20
139.26099999999991
 30
0.0
 11
102.523
 21
145.26099999999991
 31
0.0
  0
LINE
  5
226
  8
0
 62
     7
 10
120.523
 20
139.26099999999991
 30
0.0
 11
120.523
 21
145.26099999999991
 31
0.0
  0
LINE
  5
227
  8
0
 62
     7
 10
102.523
 20
139.26099999999991
 30
0.0
 11
120.523
 21
139.26099999999991
 31
0.0
  0
LINE
  5
228
  8
0
 62
     7
 10
102.523
 20
144.92799999999991
 30
0.0
 11
120.523
 21
144.92799999999991
 31
0.0
  0
LINE
  5
229
  8
0
 62
     7
 10
104.0229999999999
 20
145.26099999999991
 30
0.0
 11
104.0229999999999
 21
145.92799999999991
 31
0.0
  0
LINE
  5
22A
  8
0
 62
     7
 10
119.0229999999999
 20
145.26099999999991
 30
0.0
 11
119.0229999999999
 21
145.92799999999991
 31
0.0
  0
LINE
  5
22B
  8
0
 62
     7
 10
119.35599999999999
 20
145.26099999999991
 30
0.0
 11
119.35599999999999
 21
146.51099999999991
 31
0.0
  0
LINE
  5
22C
  8
0
 62
     7
 10
103.68899999999989
 20
145.26099999999991
 30
0.0
 11
103.68899999999989
 21
146.51099999999991
 31
0.0
  0
LINE
  5
22D
  8
0
 62
     7
 10
102.523
 20
145.26099999999991
 30
0.0
 11
120.523
 21
145.26099999999991
 31
0.0
  0
LINE
  5
22E
  8
0
 62
     7
 10
103.68899999999989
 20
145.92799999999991
 30
0.0
 11
119.35599999999999
 21
145.92799999999991
 31
0.0
  0
LINE
  5
22F
  8
0
 62
     7
 10
115.68899999999989
 20
146.97300000000001
 30
0.0
 11
115.68899999999989
 21
148.8829999999999
 31
0.0
  0
LINE
  5
230
  8
0
 62
     7
 10
107.35599999999999
 20
146.97300000000001
 30
0.0
 11
107.35599999999999
 21
148.8829999999999
 31
0.0
  0
LINE
  5
231
  8
0
 62
     7
 10
119.85599999999999
 20
146.97300000000001
 30
0.0
 11
119.85599999999999
 21
148.8829999999999
 31
0.0
  0
LINE
  5
232
  8
0
 62
     7
 10
103.18899999999989
 20
146.97300000000001
 30
0.0
 11
103.18899999999989
 21
148.8829999999999
 31
0.0
  0
LINE
  5
233
  8
0
 62
     7
 10
118.85599999999999
 20
152.31100000000001
 30
0.0
 11
118.85599999999999
 21
156.8779999999999
 31
0.0
  0
LINE
  5
234
  8
0
 62
     7
 10
115.18899999999989
 20
152.31100000000001
 30
0.0
 11
115.18899999999989
 21
156.8779999999999
 31
0.0
  0
LINE
  5
235
  8
0
 62
     7
 10
107.85599999999999
 20
152.31100000000001
 30
0.0
 11
107.85599999999999
 21
156.8779999999999
 31
0.0
  0
LINE
  5
236
  8
0
 62
     7
 10
111.5229999999999
 20
151.261
 30
0.0
 11
111.5229999999999
 21
157.92799999999991
 31
0.0
  0
LINE
  5
237
  8
0
 62
     7
 10
118.52200000000001
 20
149.595
 30
0.0
 11
118.52200000000001
 21
151.261
 31
0.0
  0
LINE
  5
238
  8
0
 62
     7
 10
104.52200000000001
 20
149.595
 30
0.0
 11
104.52200000000001
 21
151.261
 31
0.0
  0
LINE
  5
239
  8
0
 62
     7
 10
105.27200000000001
 20
149.595
 30
0.0
 11
117.77200000000001
 21
149.595
 31
0.0
  0
LINE
  5
23A
  8
0
 62
     7
 10
104.18899999999989
 20
152.31100000000001
 30
0.0
 11
104.18899999999989
 21
156.8779999999999
 31
0.0
  0
LINE
  5
23B
  8
0
 62
     7
 10
104.52200000000001
 20
151.261
 30
0.0
 11
118.52200000000001
 21
151.261
 31
0.0
  0
LINE
  5
23C
  8
0
 62
     7
 10
118.52200000000001
 20
158.05699999999999
 30
0.0
 11
118.52200000000001
 21
157.48099999999999
 31
0.0
  0
LINE
  5
23D
  8
0
 62
     7
 10
118.7239999999999
 20
158.30199999999999
 30
0.0
 11
121.45399999999989
 21
158.8479999999999
 31
0.0
  0
ARC
  5
23E
  8
0
 62
     7
 10
118.78048099999999
 20
158.04991199999989
 30
0.0
 40
0.2582
 50
102.73481700000001
 51
178.506776
  0
LINE
  5
23F
  8
0
 62
     7
 10
121.85599999999999
 20
159.33799999999991
 30
0.0
 11
121.85599999999999
 21
159.595
 31
0.0
  0
ARC
  5
240
  8
0
 62
     7
 10
121.3404699999999
 20
159.3507469999999
 30
0.0
 40
0.515551
 50
282.70085999999998
 51
358.5889029999999
  0
LINE
  5
241
  8
0
 62
     7
 10
117.02200000000001
 20
157.92799999999991
 30
0.0
 11
106.02200000000001
 21
157.92799999999991
 31
0.0
  0
LINE
  5
242
  8
0
 62
     7
 10
104.52200000000001
 20
158.05699999999999
 30
0.0
 11
104.52200000000001
 21
157.48099999999999
 31
0.0
  0
LINE
  5
243
  8
0
 62
     7
 10
104.322
 20
158.30199999999999
 30
0.0
 11
101.59099999999999
 21
158.8479999999999
 31
0.0
  0
ARC
  5
244
  8
0
 62
     7
 10
104.2645899999999
 20
158.05020200000001
 30
0.0
 40
0.257937
 50
1.4303360000000001
 51
77.231738000000007
  0
LINE
  5
245
  8
0
 62
     7
 10
101.18899999999989
 20
159.33799999999991
 30
0.0
 11
101.18899999999989
 21
159.595
 31
0.0
  0
ARC
  5
246
  8
0
 62
     7
 10
101.70477799999991
 20
159.351102
 30
0.0
 40
0.515992
 50
181.44931099999999
 51
257.26096599999988
  0
LINE
  5
247
  8
0
 62
     7
 10
101.18899999999989
 20
159.928
 30
0.0
 11
101.18899999999989
 21
159.595
 31
0.0
  0
LINE
  5
248
  8
0
 62
     7
 10
121.85599999999999
 20
159.928
 30
0.0
 11
121.85599999999999
 21
159.595
 31
0.0
  0
LINE
  5
249
  8
0
 62
     7
 10
121.85599999999999
 20
159.928
 30
0.0
 11
118.35599999999999
 21
162.928
 31
0.0
  0
LINE
  5
24A
  8
0
 62
     7
 10
101.18899999999989
 20
159.928
 30
0.0
 11
104.68899999999989
 21
162.928
 31
0.0
  0
LINE
  5
24B
  8
0
 62
     7
 10
101.18899999999989
 20
159.595
 30
0.0
 11
121.85599999999999
 21
159.595
 31
0.0
  0
LINE
  5
24C
  8
0
 62
     7
 10
118.02200000000001
 20
164.595
 30
0.0
 11
118.02200000000001
 21
162.928
 31
0.0
  0
LINE
  5
24D
  8
0
 62
     7
 10
118.35599999999999
 20
164.595
 30
0.0
 11
118.35599999999999
 21
162.928
 31
0.0
  0
LINE
  5
24E
  8
0
 62
     7
 10
105.02200000000001
 20
162.928
 30
0.0
 11
105.02200000000001
 21
164.595
 31
0.0
  0
LINE
  5
24F
  8
0
 62
     7
 10
104.68899999999989
 20
162.928
 30
0.0
 11
104.68899999999989
 21
164.595
 31
0.0
  0
LINE
  5
250
  8
0
 62
     7
 10
104.68899999999989
 20
162.928
 30
0.0
 11
118.35599999999999
 21
162.928
 31
0.0
  0
LINE
  5
251
  8
0
 62
     7
 10
110.18899999999999
 20
166.26199999999989
 30
0.0
 11
112.85599999999999
 21
166.26199999999989
 31
0.0
  0
LINE
  5
252
  8
0
 62
     7
 10
110.18899999999999
 20
170.262
 30
0.0
 11
112.85599999999999
 21
170.262
 31
0.0
  0
ARC
  5
253
  8
0
 62
     7
 10
119.831283
 20
167.261109
 30
0.0
 40
2.1422870000000001
 50
179.98553100000001
 51
197.00025600000001
  0
ARC
  5
254
  8
0
 62
     7
 10
118.6506819999999
 20
166.91451000000001
 30
0.0
 40
0.9120409999999999
 50
197.86254899999989
 51
214.33430399999989
  0
ARC
  5
255
  8
0
 62
     7
 10
118.156334
 20
166.56570600000001
 30
0.0
 40
0.307233
 50
212.61708999999991
 51
261.908434
  0
LINE
  5
256
  8
0
 62
     7
 10
118.35599999999999
 20
166.26199999999989
 30
0.0
 11
118.113
 21
166.26199999999989
 31
0.0
  0
LINE
  5
257
  8
0
 62
     7
 10
117.68899999999989
 20
167.262
 30
0.0
 11
117.68899999999989
 21
169.26199999999989
 31
0.0
  0
ARC
  5
258
  8
0
 62
     7
 10
118.1136139999999
 20
170.06953899999991
 30
0.0
 40
0.192119
 50
90.156540000000035
 51
116.594611
  0
ARC
  5
259
  8
0
 62
     7
 10
118.1774459999999
 20
169.95084099999991
 30
0.0
 40
0.326858
 50
117.285319
 51
141.9651179999999
  0
ARC
  5
25A
  8
0
 62
     7
 10
118.5104649999999
 20
169.6851429999999
 30
0.0
 40
0.7528739999999999
 50
141.6541159999999
 51
158.574961
  0
ARC
  5
25B
  8
0
 62
     7
 10
119.443899
 20
169.31826100000001
 30
0.0
 40
1.7558199999999999
 50
158.55664799999991
 51
181.85128
  0
LINE
  5
25C
  8
0
 62
     7
 10
113.85599999999999
 20
167.262
 30
0.0
 11
113.85599999999999
 21
169.26199999999989
 31
0.0
  0
ARC
  5
25D
  8
0
 62
     7
 10
112.8558399999999
 20
167.26164900000001
 30
0.0
 40
1.0001180000000001
 50
270.00002000000001
 51
359.99998999999991
  0
LINE
  5
25E
  8
0
 62
     7
 10
118.35599999999999
 20
170.262
 30
0.0
 11
118.113
 21
170.262
 31
0.0
  0
ARC
  5
25F
  8
0
 62
     7
 10
112.8558399999999
 20
169.261539
 30
0.0
 40
1.0001180000000001
 50
0.00001
 51
89.999980000000008
  0
LINE
  5
260
  8
0
 62
     7
 10
118.35599999999999
 20
170.262
 30
0.0
 11
118.35599999999999
 21
172.428
 31
0.0
  0
LINE
  5
261
  8
0
 62
     7
 10
118.35599999999999
 20
164.595
 30
0.0
 11
118.35599999999999
 21
166.26199999999989
 31
0.0
  0
LINE
  5
262
  8
0
 62
     7
 10
121.85599999999999
 20
172.428
 30
0.0
 11
121.85599999999999
 21
173.09499999999991
 31
0.0
  0
ARC
  5
263
  8
0
 62
     7
 10
104.9263199999999
 20
166.47590199999991
 30
0.0
 40
0.214448
 50
271.53652699999992
 51
306.22437200000002
  0
ARC
  5
264
  8
0
 62
     7
 10
104.7906959999999
 20
166.65372999999991
 30
0.0
 40
0.4380720000000001
 50
306.78964799999989
 51
328.62247100000002
  0
ARC
  5
265
  8
0
 62
     7
 10
104.3219609999999
 20
166.94703100000001
 30
0.0
 40
0.9909919999999999
 50
328.25543900000002
 51
342.77963499999993
  0
ARC
  5
266
  8
0
 62
     7
 10
103.4281859999999
 20
167.22813500000001
 30
0.0
 40
1.9279259999999989
 50
342.66364700000003
 51
0.996049
  0
LINE
  5
267
  8
0
 62
     7
 10
104.68899999999989
 20
166.26199999999989
 30
0.0
 11
104.932
 21
166.26199999999989
 31
0.0
  0
LINE
  5
268
  8
0
 62
     7
 10
105.35599999999999
 20
167.262
 30
0.0
 11
105.35599999999999
 21
169.26199999999989
 31
0.0
  0
ARC
  5
269
  8
0
 62
     7
 10
103.2132569999999
 20
169.262069
 30
0.0
 40
2.1425629999999991
 50
359.98584399999987
 51
16.996179000000001
  0
ARC
  5
26A
  8
0
 62
     7
 10
104.3928189999999
 20
169.60825600000001
 30
0.0
 40
0.9134299999999999
 50
17.857309000000001
 51
34.303592999999999
  0
ARC
  5
26B
  8
0
 62
     7
 10
104.888634
 20
169.95767799999999
 30
0.0
 40
0.307067
 50
32.584148999999996
 51
81.867804000000007
  0
LINE
  5
26C
  8
0
 62
     7
 10
109.18899999999999
 20
167.262
 30
0.0
 11
109.18899999999999
 21
169.26199999999989
 31
0.0
  0
ARC
  5
26D
  8
0
 62
     7
 10
110.22794399999989
 20
167.30026000000001
 30
0.0
 40
1.039458999999999
 50
182.12875399999999
 51
267.85153500000001
  0
LINE
  5
26E
  8
0
 62
     7
 10
104.68899999999989
 20
170.262
 30
0.0
 11
104.932
 21
170.262
 31
0.0
  0
ARC
  5
26F
  8
0
 62
     7
 10
110.22762899999999
 20
169.22324399999991
 30
0.0
 40
1.0391330000000001
 50
92.131778999999995
 51
177.88793200000001
  0
LINE
  5
270
  8
0
 62
     7
 10
104.68899999999989
 20
170.262
 30
0.0
 11
104.68899999999989
 21
172.428
 31
0.0
  0
LINE
  5
271
  8
0
 62
     7
 10
104.68899999999989
 20
164.595
 30
0.0
 11
104.68899999999989
 21
166.26199999999989
 31
0.0
  0
LINE
  5
272
  8
0
 62
     7
 10
104.68899999999989
 20
164.595
 30
0.0
 11
118.35599999999999
 21
164.595
 31
0.0
  0
LINE
  5
273
  8
0
 62
     7
 10
118.52200000000001
 20
173.09499999999991
 30
0.0
 11
118.52200000000001
 21
173.63200000000001
 31
0.0
  0
LINE
  5
274
  8
0
 62
     7
 10
122.0229999999999
 20
176.428
 30
0.0
 11
119.43600000000001
 21
175.119
 31
0.0
  0
ARC
  5
275
  8
0
 62
     7
 10
120.22644099999989
 20
173.60925399999999
 30
0.0
 40
1.7042259999999989
 50
117.61974600000001
 51
179.22892999999999
  0
LINE
  5
276
  8
0
 62
     7
 10
104.52200000000001
 20
173.09499999999991
 30
0.0
 11
104.52200000000001
 21
173.63200000000001
 31
0.0
  0
LINE
  5
277
  8
0
 62
     7
 10
101.0229999999999
 20
176.428
 30
0.0
 11
103.6079999999999
 21
175.119
 31
0.0
  0
ARC
  5
278
  8
0
 62
     7
 10
102.81876099999999
 20
173.60949099999999
 30
0.0
 40
1.7038359999999999
 50
0.7632370000000001
 51
62.388047999999998
  0
LINE
  5
279
  8
0
 62
     7
 10
101.18899999999989
 20
172.428
 30
0.0
 11
101.18899999999989
 21
173.09499999999991
 31
0.0
  0
LINE
  5
27A
  8
0
 62
     7
 10
101.18899999999989
 20
172.428
 30
0.0
 11
121.85599999999999
 21
172.428
 31
0.0
  0
LINE
  5
27B
  8
0
 62
     7
 10
101.18899999999989
 20
173.09499999999991
 30
0.0
 11
121.85599999999999
 21
173.09499999999991
 31
0.0
  0
LINE
  5
27C
  8
0
 62
     7
 10
122.0229999999999
 20
176.428
 30
0.0
 11
122.0229999999999
 21
176.928
 31
0.0
  0
LINE
  5
27D
  8
0
 62
     7
 10
101.0229999999999
 20
176.428
 30
0.0
 11
101.0229999999999
 21
176.928
 31
0.0
  0
LINE
  5
27E
  8
0
 62
     7
 10
101.0229999999999
 20
176.428
 30
0.0
 11
122.0229999999999
 21
176.428
 31
0.0
  0
LINE
  5
27F
  8
0
 62
     7
 10
101.0229999999999
 20
176.928
 30
0.0
 11
122.0229999999999
 21
176.928
 31
0.0
  0
LINE
  5
280
  8
0
 62
     7
 10
152.46899999999991
 20
159.00499999999991
 30
0.0
 11
152.31200000000001
 21
156.495
 31
0.0
  0
ARC
  5
281
  8
0
 62
     7
 10
152.641099
 20
158.98887699999989
 30
0.0
 40
0.172701
 50
91.832775999999981
 51
174.5587229999999
  0
ARC
  5
282
  8
0
 62
     7
 10
157.15005699999989
 20
158.988901
 30
0.0
 40
0.172688
 50
5.4335849999999999
 51
88.056355999999994
  0
LINE
  5
283
  8
0
 62
     7
 10
157.322
 20
159.00499999999991
 30
0.0
 11
157.4789999999999
 21
156.495
 31
0.0
  0
LINE
  5
284
  8
0
 62
     7
 10
153.2289999999999
 20
144.495
 30
0.0
 11
153.2289999999999
 21
159.161
 31
0.0
  0
LINE
  5
285
  8
0
 62
     7
 10
156.06200000000001
 20
161.48599999999999
 30
0.0
 11
156.06200000000001
 21
160.99499999999989
 31
0.0
  0
LINE
  5
286
  8
0
 62
     7
 10
153.7289999999999
 20
161.48599999999999
 30
0.0
 11
153.7289999999999
 21
160.99499999999989
 31
0.0
  0
ARC
  5
287
  8
0
 62
     7
 10
155.38869099999991
 20
144.5011879999999
 30
0.0
 40
0.173287
 50
272.12453699999998
 51
357.87547299999989
  0
ARC
  5
288
  8
0
 62
     7
 10
154.402682
 20
144.50107
 30
0.0
 40
0.173165
 50
182.0870909999999
 51
267.91293899999988
  0
LINE
  5
289
  8
0
 62
     7
 10
154.22999999999999
 20
145.161
 30
0.0
 11
154.22999999999999
 21
144.495
 31
0.0
  0
ARC
  5
28A
  8
0
 62
     7
 10
154.40262899999991
 20
145.1551399999999
 30
0.0
 40
0.17311
 50
92.070297999999994
 51
177.92967200000001
  0
LINE
  5
28B
  8
0
 62
     7
 10
154.39599999999999
 20
145.328
 30
0.0
 11
155.39500000000001
 21
145.328
 31
0.0
  0
ARC
  5
28C
  8
0
 62
     7
 10
155.3888399999999
 20
145.1551189999999
 30
0.0
 40
0.173132
 50
2.077024999999999
 51
87.922966000000002
  0
LINE
  5
28D
  8
0
 62
     7
 10
155.56200000000001
 20
145.161
 30
0.0
 11
155.56200000000001
 21
144.495
 31
0.0
  0
LINE
  5
28E
  8
0
 62
     7
 10
154.44599999999991
 20
147.00399999999999
 30
0.0
 11
154.44599999999991
 21
146.64099999999991
 31
0.0
  0
LINE
  5
28F
  8
0
 62
     7
 10
154.696
 20
146.68499999999989
 30
0.0
 11
154.696
 21
146.1279999999999
 31
0.0
  0
ARC
  5
290
  8
0
 62
     7
 10
154.560318
 20
147.53917799999991
 30
0.0
 40
0.168512
 50
330.36069399999991
 51
0.012381
  0
ARC
  5
291
  8
0
 62
     7
 10
154.8894479999999
 20
147.988527
 30
0.0
 40
0.172983
 50
2.0882849999999991
 51
87.970926000000006
  0
ARC
  5
292
  8
0
 62
     7
 10
154.9018669999999
 20
147.98835800000001
 30
0.0
 40
0.173159
 50
92.083118000000013
 51
177.85763199999991
  0
LINE
  5
293
  8
0
 62
     7
 10
154.4789999999999
 20
146.995
 30
0.0
 11
154.4789999999999
 21
146.661
 31
0.0
  0
LINE
  5
294
  8
0
 62
     7
 10
154.4789999999999
 20
146.995
 30
0.0
 11
154.4789999999999
 21
146.661
 31
0.0
  0
LINE
  5
295
  8
0
 62
     7
 10
154.7289999999999
 20
147.49499999999989
 30
0.0
 11
154.7289999999999
 21
147.428
 31
0.0
  0
LINE
  5
296
  8
0
 62
     7
 10
154.7289999999999
 20
145.995
 30
0.0
 11
154.7289999999999
 21
146.70500000000001
 31
0.0
  0
LINE
  5
297
  8
0
 62
     7
 10
154.44599999999991
 20
146.64099999999991
 30
0.0
 11
154.696
 21
146.68499999999989
 31
0.0
  0
LINE
  5
298
  8
0
 62
     7
 10
154.4789999999999
 20
146.995
 30
0.0
 11
154.7289999999999
 21
147.428
 31
0.0
  0
LINE
  5
299
  8
0
 62
     7
 10
154.4789999999999
 20
146.661
 30
0.0
 11
154.7289999999999
 21
146.70500000000001
 31
0.0
  0
LINE
  5
29A
  8
0
 62
     7
 10
154.696
 20
146.1279999999999
 30
0.0
 11
154.56200000000001
 21
145.995
 31
0.0
  0
LINE
  5
29B
  8
0
 62
     7
 10
154.44599999999991
 20
147.00399999999999
 30
0.0
 11
154.70699999999991
 21
147.45599999999999
 31
0.0
  0
LINE
  5
29C
  8
0
 62
     7
 10
154.7289999999999
 20
147.995
 30
0.0
 11
154.7289999999999
 21
147.5389999999999
 31
0.0
  0
LINE
  5
29D
  8
0
 62
     7
 10
154.7289999999999
 20
147.161
 30
0.0
 11
155.06200000000001
 21
147.161
 31
0.0
  0
LINE
  5
29E
  8
0
 62
     7
 10
155.346
 20
146.995
 30
0.0
 11
155.346
 21
146.64699999999999
 31
0.0
  0
LINE
  5
29F
  8
0
 62
     7
 10
155.096
 20
146.68499999999989
 30
0.0
 11
155.096
 21
146.1279999999999
 31
0.0
  0
ARC
  5
2A0
  8
0
 62
     7
 10
155.22888499999999
 20
147.53926000000001
 30
0.0
 40
0.166569
 50
180.01594700000001
 51
210.0531289999999
  0
LINE
  5
2A1
  8
0
 62
     7
 10
155.346
 20
147.00399999999999
 30
0.0
 11
155.08500000000001
 21
147.45599999999999
 31
0.0
  0
LINE
  5
2A2
  8
0
 62
     7
 10
155.096
 20
146.1279999999999
 30
0.0
 11
155.2289999999999
 21
145.995
 31
0.0
  0
LINE
  5
2A3
  8
0
 62
     7
 10
155.31200000000001
 20
146.661
 30
0.0
 11
155.06200000000001
 21
146.70500000000001
 31
0.0
  0
LINE
  5
2A4
  8
0
 62
     7
 10
155.31200000000001
 20
146.995
 30
0.0
 11
155.06200000000001
 21
147.428
 31
0.0
  0
LINE
  5
2A5
  8
0
 62
     7
 10
155.346
 20
146.64099999999991
 30
0.0
 11
155.06200000000001
 21
146.691
 31
0.0
  0
LINE
  5
2A6
  8
0
 62
     7
 10
155.06200000000001
 20
146.70500000000001
 30
0.0
 11
155.06200000000001
 21
146.16200000000001
 31
0.0
  0
LINE
  5
2A7
  8
0
 62
     7
 10
155.06200000000001
 20
147.49499999999989
 30
0.0
 11
155.06200000000001
 21
147.428
 31
0.0
  0
ARC
  5
2A8
  8
0
 62
     7
 10
154.88926599999991
 20
147.4884659999999
 30
0.0
 40
0.173165
 50
2.0870880000000001
 51
87.912902000000003
  0
ARC
  5
2A9
  8
0
 62
     7
 10
154.90187900000001
 20
147.4884659999999
 30
0.0
 40
0.173165
 50
92.08706100000002
 51
177.91290900000001
  0
LINE
  5
2AA
  8
0
 62
     7
 10
155.06200000000001
 20
146.691
 30
0.0
 11
155.06200000000001
 21
145.995
 31
0.0
  0
LINE
  5
2AB
  8
0
 62
     7
 10
155.31200000000001
 20
146.995
 30
0.0
 11
155.31200000000001
 21
146.661
 31
0.0
  0
LINE
  5
2AC
  8
0
 62
     7
 10
155.31200000000001
 20
146.995
 30
0.0
 11
155.31200000000001
 21
146.64699999999999
 31
0.0
  0
LINE
  5
2AD
  8
0
 62
     7
 10
155.06200000000001
 20
147.995
 30
0.0
 11
155.06200000000001
 21
147.5389999999999
 31
0.0
  0
ARC
  5
2AE
  8
0
 62
     7
 10
153.57176100000001
 20
159.9018639999999
 30
0.0
 40
0.259743
 50
92.084684999999993
 51
177.875812
  0
ARC
  5
2AF
  8
0
 62
     7
 10
153.57161499999989
 20
159.920973
 30
0.0
 40
0.259592
 50
182.09322
 51
267.94628299999988
  0
ARC
  5
2B0
  8
0
 62
     7
 10
156.219459
 20
159.92104399999999
 30
0.0
 40
0.259665
 50
272.06880799999988
 51
357.891729
  0
ARC
  5
2B1
  8
0
 62
     7
 10
156.219551
 20
159.90203
 30
0.0
 40
0.25957
 50
2.0888419999999992
 51
87.950621999999996
  0
LINE
  5
2B2
  8
0
 62
     7
 10
156.2289999999999
 20
160.16099999999989
 30
0.0
 11
153.56200000000001
 21
160.16099999999989
 31
0.0
  0
ARC
  5
2B3
  8
0
 62
     7
 10
142.23003299999999
 20
153.93504799999991
 30
0.0
 40
22.543793999999998
 50
305.783706
 51
306.04641900000001
  0
ARC
  5
2B4
  8
0
 62
     7
 10
167.31588300000001
 20
119.0291769999999
 30
0.0
 40
20.441362999999988
 50
125.6154999999999
 51
125.9046679999999
  0
ARC
  5
2B5
  8
0
 62
     7
 10
156.125214
 20
133.81080700000001
 30
0.0
 40
1.946374
 50
114.170006
 51
115.308987
  0
ARC
  5
2B6
  8
0
 62
     7
 10
156.11794499999999
 20
133.694559
 30
0.0
 40
2.049129999999999
 50
113.7354939999999
 51
114.813363
  0
ARC
  5
2B7
  8
0
 62
     7
 10
154.67705000000001
 20
138.09557599999991
 30
0.0
 40
2.606627
 50
282.17973199999989
 51
282.87790000000001
  0
ARC
  5
2B8
  8
0
 62
     7
 10
154.91192899999999
 20
136.90639399999989
 30
0.0
 40
1.394822
 50
281.73613199999988
 51
283.05469900000003
  0
ARC
  5
2B9
  8
0
 62
     7
 10
155.2851179999999
 20
136.7836969999999
 30
0.0
 40
1.246181999999999
 50
264.38832100000002
 51
265.88267100000002
  0
ARC
  5
2BA
  8
0
 62
     7
 10
155.018261
 20
134.0173429999999
 30
0.0
 40
1.533018
 50
84.572655000000012
 51
85.800224
  0
ARC
  5
2BB
  8
0
 62
     7
 10
154.223412
 20
133.37205299999991
 30
0.0
 40
2.3558369999999988
 50
67.353065999999998
 51
68.239960999999994
  0
ARC
  5
2BC
  8
0
 62
     7
 10
153.69037199999991
 20
132.1282929999999
 30
0.0
 40
3.7087370000000002
 50
67.715147000000002
 51
68.283441999999994
  0
ARC
  5
2BD
  8
0
 62
     7
 10
147.9698909999999
 20
126.81153999999989
 30
0.0
 40
11.273184000000001
 50
51.010942999999997
 51
51.55402999999999
  0
ARC
  5
2BE
  8
0
 62
     7
 10
182.83857699999999
 20
170.62240099999991
 30
0.0
 40
44.719833000000001
 50
231.32913699999989
 51
231.46638499999989
  0
ARC
  5
2BF
  8
0
 62
     7
 10
165.17620099999991
 20
148.68372600000001
 30
0.0
 40
16.555192000000002
 50
231.2423959999999
 51
231.61146400000001
  0
ARC
  5
2C0
  8
0
 62
     7
 10
128.03368
 20
102.1439519999999
 30
0.0
 40
42.989151
 50
51.470789000000011
 51
51.613275999999999
  0
ARC
  5
2C1
  8
0
 62
     7
 10
153.8213659999999
 20
133.66626599999989
 30
0.0
 40
2.3558369999999988
 50
67.353065999999998
 51
68.239960999999994
  0
ARC
  5
2C2
  8
0
 62
     7
 10
154.25402199999999
 20
134.82276999999999
 30
0.0
 40
1.121669
 50
66.865110999999999
 51
68.727917000000005
  0
ARC
  5
2C3
  8
0
 62
     7
 10
154.5572929999999
 20
134.94803899999991
 30
0.0
 40
0.925802
 50
83.570784000000003
 51
85.605459999999994
  0
ARC
  5
2C4
  8
0
 62
     7
 10
154.69936200000001
 20
136.79622399999991
 30
0.0
 40
0.9278360000000001
 50
263.57303400000001
 51
265.60324900000001
  0
ARC
  5
2C5
  8
0
 62
     7
 10
154.44125399999999
 20
136.49513300000001
 30
0.0
 40
0.6397870000000001
 50
281.10643700000003
 51
283.95119599999992
  0
ARC
  5
2C6
  8
0
 62
     7
 10
154.3314
 20
136.85315299999999
 30
0.0
 40
1.0130069999999991
 50
281.48762199999999
 51
283.30320899999992
  0
LINE
  5
2C7
  8
0
 62
     7
 10
154.5329999999999
 20
135.86000000000001
 30
0.0
 11
154.49799999999991
 21
135.84399999999991
 31
0.0
  0
ARC
  5
2C8
  8
0
 62
     7
 10
155.32281199999991
 20
133.9681009999999
 30
0.0
 40
2.049129999999999
 50
113.7354939999999
 51
114.813363
  0
ARC
  5
2C9
  8
0
 62
     7
 10
163.593084
 20
123.11447699999989
 30
0.0
 40
15.652347000000001
 50
125.6838909999999
 51
126.060512
  0
ARC
  5
2CA
  8
0
 62
     7
 10
128.69915599999999
 20
171.33848099999989
 30
0.0
 40
43.872036999999992
 50
305.69273799999991
 51
305.82747000000001
  0
LINE
  5
2CB
  8
0
 62
     7
 10
154.29599999999991
 20
132.928
 30
0.0
 11
154.29599999999991
 21
135.70699999999991
 31
0.0
  0
LINE
  5
2CC
  8
0
 62
     7
 10
155.49600000000001
 20
132.928
 30
0.0
 11
155.49600000000001
 21
135.70699999999991
 31
0.0
  0
ARC
  5
2CD
  8
0
 62
     7
 10
141.56236399999989
 20
132.928043
 30
0.0
 40
13.933349
 50
269.99966599999999
 51
359.99963600000001
  0
ARC
  5
2CE
  8
0
 62
     7
 10
141.56253599999999
 20
132.92821499999999
 30
0.0
 40
12.733242000000001
 50
269.99885699999987
 51
359.99882700000001
  0
LINE
  5
2CF
  8
0
 62
     7
 10
122.98099999999999
 20
118.995
 30
0.0
 11
141.56200000000001
 21
118.995
 31
0.0
  0
LINE
  5
2D0
  8
0
 62
     7
 10
122.98099999999999
 20
120.19499999999989
 30
0.0
 11
141.56200000000001
 21
120.19499999999989
 31
0.0
  0
ARC
  5
2D1
  8
0
 62
     7
 10
162.85046299999991
 20
124.60700799999999
 30
0.0
 40
14.567054999999989
 50
125.55719499999989
 51
125.962974
  0
ARC
  5
2D2
  8
0
 62
     7
 10
105.281503
 20
204.055195
 30
0.0
 40
83.546498999999997
 50
305.99202999999989
 51
306.06272799999988
  0
LINE
  5
2D3
  8
0
 62
     7
 10
154.46299999999991
 20
136.518
 30
0.0
 11
154.49799999999991
 21
136.53399999999991
 31
0.0
  0
LINE
  5
2D4
  8
0
 62
     7
 10
154.49799999999991
 20
136.53399999999991
 30
0.0
 11
154.5329999999999
 21
136.55000000000001
 31
0.0
  0
LINE
  5
2D5
  8
0
 62
     7
 10
154.5329999999999
 20
136.55000000000001
 30
0.0
 11
154.56399999999991
 21
136.55699999999999
 31
0.0
  0
LINE
  5
2D6
  8
0
 62
     7
 10
154.56399999999991
 20
136.55699999999999
 30
0.0
 11
154.596
 21
136.56399999999991
 31
0.0
  0
LINE
  5
2D7
  8
0
 62
     7
 10
154.596
 20
136.56399999999991
 30
0.0
 11
154.6279999999999
 21
136.56099999999989
 31
0.0
  0
LINE
  5
2D8
  8
0
 62
     7
 10
154.6279999999999
 20
136.56099999999989
 30
0.0
 11
154.661
 21
136.55799999999999
 31
0.0
  0
LINE
  5
2D9
  8
0
 62
     7
 10
154.661
 20
136.55799999999999
 30
0.0
 11
154.69499999999999
 21
136.5449999999999
 31
0.0
  0
LINE
  5
2DA
  8
0
 62
     7
 10
154.69499999999999
 20
136.5449999999999
 30
0.0
 11
154.72799999999989
 21
136.53100000000001
 31
0.0
  0
ARC
  5
2DB
  8
0
 62
     7
 10
144.8110199999999
 20
124.02261799999999
 30
0.0
 40
15.962837
 50
51.205491000000002
 51
51.589990999999991
  0
ARC
  5
2DC
  8
0
 62
     7
 10
134.47158699999989
 20
110.87369799999991
 30
0.0
 40
32.689529
 50
51.333456000000012
 51
51.520364999999998
  0
ARC
  5
2DD
  8
0
 62
     7
 10
165.06307899999999
 20
149.11315899999991
 30
0.0
 40
16.280828
 50
231.35393500000001
 51
231.7301699999999
  0
ARC
  5
2DE
  8
0
 62
     7
 10
219.300085
 20
216.48084399999991
 30
0.0
 40
102.767483
 50
231.25271900000001
 51
231.31229300000001
  0
LINE
  5
2DF
  8
0
 62
     7
 10
155.0629999999999
 20
136.26400000000001
 30
0.0
 11
155.09700000000001
 21
136.25
 31
0.0
  0
LINE
  5
2E0
  8
0
 62
     7
 10
155.09700000000001
 20
136.25
 30
0.0
 11
155.13099999999989
 21
136.23699999999999
 31
0.0
  0
LINE
  5
2E1
  8
0
 62
     7
 10
155.13099999999989
 20
136.23699999999999
 30
0.0
 11
155.1629999999999
 21
136.23400000000001
 31
0.0
  0
LINE
  5
2E2
  8
0
 62
     7
 10
155.1629999999999
 20
136.23400000000001
 30
0.0
 11
155.196
 21
136.23099999999991
 31
0.0
  0
LINE
  5
2E3
  8
0
 62
     7
 10
155.196
 20
136.23099999999991
 30
0.0
 11
155.227
 21
136.23799999999989
 31
0.0
  0
LINE
  5
2E4
  8
0
 62
     7
 10
155.227
 20
136.23799999999989
 30
0.0
 11
155.2579999999999
 21
136.245
 31
0.0
  0
LINE
  5
2E5
  8
0
 62
     7
 10
155.2579999999999
 20
136.245
 30
0.0
 11
155.29300000000001
 21
136.26099999999991
 31
0.0
  0
LINE
  5
2E6
  8
0
 62
     7
 10
155.29300000000001
 20
136.26099999999991
 30
0.0
 11
155.32799999999989
 21
136.27699999999999
 31
0.0
  0
ARC
  5
2E7
  8
0
 62
     7
 10
146.908006
 20
147.9904379999999
 30
0.0
 40
14.426185
 50
305.70979099999988
 51
306.12033300000002
  0
ARC
  5
2E8
  8
0
 62
     7
 10
145.31625500000001
 20
150.44416799999999
 30
0.0
 40
17.347314000000001
 50
305.58973199999991
 51
305.93047599999989
  0
ARC
  5
2E9
  8
0
 62
     7
 10
153.4018749999999
 20
144.50107
 30
0.0
 40
0.173165
 50
182.0870909999999
 51
267.91293899999988
  0
LINE
  5
2EA
  8
0
 62
     7
 10
154.29599999999991
 20
143.22799999999989
 30
0.0
 11
154.29599999999991
 21
136.39799999999991
 31
0.0
  0
LINE
  5
2EB
  8
0
 62
     7
 10
154.89599999999999
 20
143.22799999999989
 30
0.0
 11
153.64599999999999
 21
143.22799999999989
 31
0.0
  0
ARC
  5
2EC
  8
0
 62
     7
 10
153.6519909999999
 20
143.4010439999999
 30
0.0
 40
0.173165
 50
182.0870909999999
 51
267.91293899999988
  0
LINE
  5
2ED
  8
0
 62
     7
 10
153.4789999999999
 20
144.328
 30
0.0
 11
153.4789999999999
 21
143.39500000000001
 31
0.0
  0
ARC
  5
2EE
  8
0
 62
     7
 10
152.72966099999999
 20
159.832336
 30
0.0
 40
0.172767
 50
165.77139199999991
 51
251.74373999999989
  0
LINE
  5
2EF
  8
0
 62
     7
 10
152.67599999999999
 20
159.66800000000001
 30
0.0
 11
152.72199999999989
 21
159.66200000000001
 31
0.0
  0
LINE
  5
2F0
  8
0
 62
     7
 10
152.83699999999999
 20
161.547
 30
0.0
 11
152.2229999999999
 21
159.66200000000001
 31
0.0
  0
LINE
  5
2F1
  8
0
 62
     7
 10
152.52699999999999
 20
161.542
 30
0.0
 11
151.9789999999999
 21
159.66200000000001
 31
0.0
  0
LINE
  5
2F2
  8
0
 62
     7
 10
152.88900000000001
 20
160.99499999999989
 30
0.0
 11
152.56200000000001
 21
159.875
 31
0.0
  0
LINE
  5
2F3
  8
0
 62
     7
 10
153.59100000000001
 20
159.161
 30
0.0
 11
152.63599999999991
 21
159.161
 31
0.0
  0
LINE
  5
2F4
  8
0
 62
     7
 10
152.31200000000001
 20
156.495
 30
0.0
 11
151.9789999999999
 21
156.495
 31
0.0
  0
LINE
  5
2F5
  8
0
 62
     7
 10
151.9789999999999
 20
159.66200000000001
 30
0.0
 11
152.2229999999999
 21
159.66200000000001
 31
0.0
  0
LINE
  5
2F6
  8
0
 62
     7
 10
151.9789999999999
 20
157.661
 30
0.0
 11
151.9789999999999
 21
157.828
 31
0.0
  0
LINE
  5
2F7
  8
0
 62
     7
 10
151.9789999999999
 20
156.828
 30
0.0
 11
152.2229999999999
 21
156.828
 31
0.0
  0
LINE
  5
2F8
  8
0
 62
     7
 10
151.9789999999999
 20
156.995
 30
0.0
 11
152.2229999999999
 21
156.995
 31
0.0
  0
LINE
  5
2F9
  8
0
 62
     7
 10
151.9789999999999
 20
156.66200000000001
 30
0.0
 11
152.2229999999999
 21
156.66200000000001
 31
0.0
  0
LINE
  5
2FA
  8
0
 62
     7
 10
151.9789999999999
 20
157.16099999999989
 30
0.0
 11
152.2229999999999
 21
157.16099999999989
 31
0.0
  0
LINE
  5
2FB
  8
0
 62
     7
 10
151.9789999999999
 20
157.328
 30
0.0
 11
152.2229999999999
 21
157.328
 31
0.0
  0
LINE
  5
2FC
  8
0
 62
     7
 10
151.9789999999999
 20
157.495
 30
0.0
 11
152.2229999999999
 21
157.495
 31
0.0
  0
LINE
  5
2FD
  8
0
 62
     7
 10
151.9789999999999
 20
157.661
 30
0.0
 11
152.2229999999999
 21
157.661
 31
0.0
  0
ARC
  5
2FE
  8
0
 62
     7
 10
152.22562599999989
 20
156.90836399999989
 30
0.0
 40
0.086547
 50
92.065542000000008
 51
177.934428
  0
ARC
  5
2FF
  8
0
 62
     7
 10
152.22562699999989
 20
156.91460399999991
 30
0.0
 40
0.086549
 50
182.066428
 51
267.93360200000001
  0
ARC
  5
300
  8
0
 62
     7
 10
152.22557199999989
 20
157.24173300000001
 30
0.0
 40
0.086491
 50
92.030934000000002
 51
177.96903599999999
  0
ARC
  5
301
  8
0
 62
     7
 10
152.22543599999989
 20
157.24790699999991
 30
0.0
 40
0.086358
 50
182.06276
 51
268.05577199999999
  0
ARC
  5
302
  8
0
 62
     7
 10
152.22557199999989
 20
157.57504800000001
 30
0.0
 40
0.086491
 50
92.030934000000002
 51
177.96903599999999
  0
ARC
  5
303
  8
0
 62
     7
 10
152.22543599999989
 20
157.58122199999991
 30
0.0
 40
0.086358
 50
182.06276
 51
268.05577199999999
  0
ARC
  5
304
  8
0
 62
     7
 10
152.22562599999989
 20
156.57504900000001
 30
0.0
 40
0.086547
 50
92.065542000000008
 51
177.934428
  0
ARC
  5
305
  8
0
 62
     7
 10
152.22562699999989
 20
156.581289
 30
0.0
 40
0.086549
 50
182.066428
 51
267.93360200000001
  0
LINE
  5
306
  8
0
 62
     7
 10
151.9789999999999
 20
157.328
 30
0.0
 11
151.9789999999999
 21
157.495
 31
0.0
  0
ARC
  5
307
  8
0
 62
     7
 10
151.98200199999999
 20
157.24173300000001
 30
0.0
 40
0.086491
 50
92.030934000000002
 51
177.96903599999999
  0
ARC
  5
308
  8
0
 62
     7
 10
151.982057
 20
157.24791899999991
 30
0.0
 40
0.086549
 50
182.066428
 51
267.93360200000001
  0
ARC
  5
309
  8
0
 62
     7
 10
151.98200199999999
 20
157.57504800000001
 30
0.0
 40
0.086491
 50
92.030934000000002
 51
177.96903599999999
  0
ARC
  5
30A
  8
0
 62
     7
 10
151.981866
 20
157.58122199999991
 30
0.0
 40
0.086358
 50
182.06276
 51
268.05577199999999
  0
ARC
  5
30B
  8
0
 62
     7
 10
151.982056
 20
156.90836399999989
 30
0.0
 40
0.086547
 50
92.065542000000008
 51
177.934428
  0
ARC
  5
30C
  8
0
 62
     7
 10
151.982057
 20
156.91460399999991
 30
0.0
 40
0.086549
 50
182.066428
 51
267.93360200000001
  0
LINE
  5
30D
  8
0
 62
     7
 10
151.9789999999999
 20
156.66200000000001
 30
0.0
 11
151.9789999999999
 21
156.828
 31
0.0
  0
ARC
  5
30E
  8
0
 62
     7
 10
151.982056
 20
156.57504900000001
 30
0.0
 40
0.086547
 50
92.065542000000008
 51
177.934428
  0
ARC
  5
30F
  8
0
 62
     7
 10
151.982057
 20
156.581289
 30
0.0
 40
0.086549
 50
182.066428
 51
267.93360200000001
  0
LINE
  5
310
  8
0
 62
     7
 10
151.9789999999999
 20
156.995
 30
0.0
 11
151.9789999999999
 21
157.16099999999989
 31
0.0
  0
LINE
  5
311
  8
0
 62
     7
 10
151.9789999999999
 20
157.995
 30
0.0
 11
152.2229999999999
 21
157.995
 31
0.0
  0
LINE
  5
312
  8
0
 62
     7
 10
151.9789999999999
 20
157.828
 30
0.0
 11
152.2229999999999
 21
157.828
 31
0.0
  0
LINE
  5
313
  8
0
 62
     7
 10
151.9789999999999
 20
158.328
 30
0.0
 11
152.2229999999999
 21
158.328
 31
0.0
  0
LINE
  5
314
  8
0
 62
     7
 10
151.9789999999999
 20
158.16200000000001
 30
0.0
 11
152.2229999999999
 21
158.16200000000001
 31
0.0
  0
LINE
  5
315
  8
0
 62
     7
 10
151.9789999999999
 20
158.495
 30
0.0
 11
152.2229999999999
 21
158.495
 31
0.0
  0
LINE
  5
316
  8
0
 62
     7
 10
151.9789999999999
 20
158.661
 30
0.0
 11
152.2229999999999
 21
158.661
 31
0.0
  0
ARC
  5
317
  8
0
 62
     7
 10
152.22557199999989
 20
157.90836299999989
 30
0.0
 40
0.086491
 50
92.030934000000002
 51
177.96903599999999
  0
ARC
  5
318
  8
0
 62
     7
 10
152.22543599999989
 20
157.914537
 30
0.0
 40
0.086358
 50
182.06276
 51
268.05577199999999
  0
ARC
  5
319
  8
0
 62
     7
 10
152.225559
 20
158.24168399999999
 30
0.0
 40
0.086485
 50
92.023004
 51
177.85846499999991
  0
ARC
  5
31A
  8
0
 62
     7
 10
152.22557199999989
 20
158.24798100000001
 30
0.0
 40
0.086491
 50
182.0309639999999
 51
267.96906599999988
  0
ARC
  5
31B
  8
0
 62
     7
 10
152.225559
 20
158.57499899999999
 30
0.0
 40
0.086485
 50
92.023004
 51
177.85846499999991
  0
ARC
  5
31C
  8
0
 62
     7
 10
152.22562699999989
 20
158.58135200000001
 30
0.0
 40
0.086549
 50
182.066428
 51
267.93360200000001
  0
ARC
  5
31D
  8
0
 62
     7
 10
151.982056
 20
158.57511099999999
 30
0.0
 40
0.086547
 50
92.065542000000008
 51
177.934428
  0
ARC
  5
31E
  8
0
 62
     7
 10
151.982057
 20
158.58135200000001
 30
0.0
 40
0.086549
 50
182.066428
 51
267.93360200000001
  0
LINE
  5
31F
  8
0
 62
     7
 10
151.9789999999999
 20
157.995
 30
0.0
 11
151.9789999999999
 21
158.16200000000001
 31
0.0
  0
ARC
  5
320
  8
0
 62
     7
 10
151.98200199999999
 20
157.90836299999989
 30
0.0
 40
0.086491
 50
92.030934000000002
 51
177.96903599999999
  0
ARC
  5
321
  8
0
 62
     7
 10
151.981866
 20
157.914537
 30
0.0
 40
0.086358
 50
182.06276
 51
268.05577199999999
  0
ARC
  5
322
  8
0
 62
     7
 10
151.982056
 20
158.24179599999991
 30
0.0
 40
0.086547
 50
92.065542000000008
 51
177.934428
  0
ARC
  5
323
  8
0
 62
     7
 10
151.98200199999999
 20
158.24798100000001
 30
0.0
 40
0.086491
 50
182.0309639999999
 51
267.96906599999988
  0
LINE
  5
324
  8
0
 62
     7
 10
151.9789999999999
 20
158.328
 30
0.0
 11
151.9789999999999
 21
158.495
 31
0.0
  0
LINE
  5
325
  8
0
 62
     7
 10
152.2229999999999
 20
159.66200000000001
 30
0.0
 11
152.2229999999999
 21
156.495
 31
0.0
  0
LINE
  5
326
  8
0
 62
     7
 10
151.9789999999999
 20
159.66200000000001
 30
0.0
 11
151.9789999999999
 21
158.661
 31
0.0
  0
ARC
  5
327
  8
0
 62
     7
 10
153.98511499999989
 20
162.82218999999989
 30
0.0
 40
0.172795
 50
92.085484999999991
 51
177.9737669999999
  0
LINE
  5
328
  8
0
 62
     7
 10
153.81200000000001
 20
160.16099999999989
 30
0.0
 11
153.81200000000001
 21
162.828
 31
0.0
  0
LINE
  5
329
  8
0
 62
     7
 10
153.9789999999999
 20
162.995
 30
0.0
 11
154.89599999999999
 21
162.995
 31
0.0
  0
LINE
  5
32A
  8
0
 62
     7
 10
153.59100000000001
 20
159.161
 30
0.0
 11
153.59100000000001
 21
159.66200000000001
 31
0.0
  0
LINE
  5
32B
  8
0
 62
     7
 10
152.72199999999989
 20
159.66200000000001
 30
0.0
 11
154.89599999999999
 21
159.66200000000001
 31
0.0
  0
LINE
  5
32C
  8
0
 62
     7
 10
153.48099999999999
 20
161.66200000000001
 30
0.0
 11
153.7289999999999
 21
161.48599999999999
 31
0.0
  0
ARC
  5
32D
  8
0
 62
     7
 10
152.69078300000001
 20
161.49046399999989
 30
0.0
 40
0.171184
 50
91.181577000000004
 51
162.63717800000001
  0
LINE
  5
32E
  8
0
 62
     7
 10
152.88900000000001
 20
160.99499999999989
 30
0.0
 11
153.7289999999999
 21
160.99499999999989
 31
0.0
  0
ARC
  5
32F
  8
0
 62
     7
 10
152.99919800000001
 20
161.49045399999989
 30
0.0
 40
0.171188
 50
91.092193000000009
 51
160.873604
  0
LINE
  5
330
  8
0
 62
     7
 10
153.48099999999999
 20
161.66200000000001
 30
0.0
 11
152.68700000000001
 21
161.66200000000001
 31
0.0
  0
LINE
  5
331
  8
0
 62
     7
 10
153.06200000000001
 20
161.66200000000001
 30
0.0
 11
152.99600000000001
 21
161.66200000000001
 31
0.0
  0
LINE
  5
332
  8
0
 62
     7
 10
153.02899999999991
 20
160.99499999999989
 30
0.0
 11
153.39599999999999
 21
160.99499999999989
 31
0.0
  0
ARC
  5
333
  8
0
 62
     7
 10
155.80619399999989
 20
162.8219959999999
 30
0.0
 40
0.172983
 50
2.0882849999999991
 51
87.970926000000006
  0
LINE
  5
334
  8
0
 62
     7
 10
156.95400000000001
 20
161.547
 30
0.0
 11
157.5689999999999
 21
159.66200000000001
 31
0.0
  0
LINE
  5
335
  8
0
 62
     7
 10
157.2639999999999
 20
161.542
 30
0.0
 11
157.81200000000001
 21
159.66200000000001
 31
0.0
  0
LINE
  5
336
  8
0
 62
     7
 10
157.81200000000001
 20
159.66200000000001
 30
0.0
 11
157.5689999999999
 21
159.66200000000001
 31
0.0
  0
ARC
  5
337
  8
0
 62
     7
 10
157.063106
 20
159.834271
 30
0.0
 40
0.172839
 50
272.10087599999991
 51
358.01763599999992
  0
ARC
  5
338
  8
0
 62
     7
 10
157.07006100000001
 20
159.82867499999989
 30
0.0
 40
0.165781
 50
359.86757699999993
 51
16.154883999999999
  0
ARC
  5
339
  8
0
 62
     7
 10
157.10055600000001
 20
161.490252
 30
0.0
 40
0.171392
 50
17.415289000000001
 51
88.884343000000001
  0
LINE
  5
33A
  8
0
 62
     7
 10
156.1999999999999
 20
159.161
 30
0.0
 11
156.1999999999999
 21
159.66200000000001
 31
0.0
  0
LINE
  5
33B
  8
0
 62
     7
 10
155.9789999999999
 20
159.66200000000001
 30
0.0
 11
156.596
 21
159.66200000000001
 31
0.0
  0
LINE
  5
33C
  8
0
 62
     7
 10
156.7289999999999
 20
161.66200000000001
 30
0.0
 11
156.79599999999999
 21
161.66200000000001
 31
0.0
  0
LINE
  5
33D
  8
0
 62
     7
 10
156.31
 20
161.66200000000001
 30
0.0
 11
156.06200000000001
 21
161.48599999999999
 31
0.0
  0
LINE
  5
33E
  8
0
 62
     7
 10
156.06200000000001
 20
160.99499999999989
 30
0.0
 11
156.90299999999991
 21
160.99499999999989
 31
0.0
  0
LINE
  5
33F
  8
0
 62
     7
 10
156.39599999999999
 20
160.99499999999989
 30
0.0
 11
156.76199999999989
 21
160.99499999999989
 31
0.0
  0
LINE
  5
340
  8
0
 62
     7
 10
156.90299999999991
 20
160.99499999999989
 30
0.0
 11
157.2289999999999
 21
159.875
 31
0.0
  0
LINE
  5
341
  8
0
 62
     7
 10
156.1999999999999
 20
159.161
 30
0.0
 11
157.15600000000001
 21
159.161
 31
0.0
  0
LINE
  5
342
  8
0
 62
     7
 10
154.89599999999999
 20
159.66200000000001
 30
0.0
 11
157.0689999999999
 21
159.66200000000001
 31
0.0
  0
ARC
  5
343
  8
0
 62
     7
 10
156.79208199999991
 20
161.49016499999999
 30
0.0
 40
0.171481
 50
19.194586999999991
 51
88.839577000000006
  0
LINE
  5
344
  8
0
 62
     7
 10
156.31
 20
161.66200000000001
 30
0.0
 11
157.1039999999999
 21
161.66200000000001
 31
0.0
  0
LINE
  5
345
  8
0
 62
     7
 10
155.9789999999999
 20
160.16099999999989
 30
0.0
 11
155.9789999999999
 21
162.828
 31
0.0
  0
LINE
  5
346
  8
0
 62
     7
 10
154.89599999999999
 20
162.995
 30
0.0
 11
155.81200000000001
 21
162.995
 31
0.0
  0
LINE
  5
347
  8
0
 62
     7
 10
157.81200000000001
 20
157.661
 30
0.0
 11
157.81200000000001
 21
157.828
 31
0.0
  0
LINE
  5
348
  8
0
 62
     7
 10
157.81200000000001
 20
156.828
 30
0.0
 11
157.5689999999999
 21
156.828
 31
0.0
  0
LINE
  5
349
  8
0
 62
     7
 10
157.81200000000001
 20
156.995
 30
0.0
 11
157.5689999999999
 21
156.995
 31
0.0
  0
LINE
  5
34A
  8
0
 62
     7
 10
157.81200000000001
 20
156.66200000000001
 30
0.0
 11
157.5689999999999
 21
156.66200000000001
 31
0.0
  0
LINE
  5
34B
  8
0
 62
     7
 10
157.81200000000001
 20
157.16099999999989
 30
0.0
 11
157.5689999999999
 21
157.16099999999989
 31
0.0
  0
LINE
  5
34C
  8
0
 62
     7
 10
157.81200000000001
 20
157.328
 30
0.0
 11
157.5689999999999
 21
157.328
 31
0.0
  0
LINE
  5
34D
  8
0
 62
     7
 10
157.81200000000001
 20
157.495
 30
0.0
 11
157.5689999999999
 21
157.495
 31
0.0
  0
LINE
  5
34E
  8
0
 62
     7
 10
157.81200000000001
 20
157.661
 30
0.0
 11
157.5689999999999
 21
157.661
 31
0.0
  0
ARC
  5
34F
  8
0
 62
     7
 10
157.56560200000001
 20
156.91450699999999
 30
0.0
 40
0.086462
 50
272.24156099999999
 51
357.99569899999989
  0
ARC
  5
350
  8
0
 62
     7
 10
157.565529
 20
156.908387
 30
0.0
 40
0.086537
 50
2.0505969999999998
 51
87.712143999999995
  0
ARC
  5
351
  8
0
 62
     7
 10
157.56560200000001
 20
157.2478219999999
 30
0.0
 40
0.086462
 50
272.24156099999999
 51
357.99569899999989
  0
ARC
  5
352
  8
0
 62
     7
 10
157.56558499999991
 20
157.24175699999989
 30
0.0
 40
0.08648
 50
2.0150920000000001
 51
87.747648999999996
  0
ARC
  5
353
  8
0
 62
     7
 10
157.56573399999999
 20
157.58118400000001
 30
0.0
 40
0.086332
 50
272.15737200000001
 51
357.961386
  0
ARC
  5
354
  8
0
 62
     7
 10
157.56558499999991
 20
157.575073
 30
0.0
 40
0.08648
 50
2.0150920000000001
 51
87.747648999999996
  0
ARC
  5
355
  8
0
 62
     7
 10
157.56560200000001
 20
156.5811919999999
 30
0.0
 40
0.086462
 50
272.24156099999999
 51
357.99569899999989
  0
ARC
  5
356
  8
0
 62
     7
 10
157.565529
 20
156.57507200000001
 30
0.0
 40
0.086537
 50
2.0505969999999998
 51
87.712143999999995
  0
LINE
  5
357
  8
0
 62
     7
 10
157.81200000000001
 20
157.328
 30
0.0
 11
157.81200000000001
 21
157.495
 31
0.0
  0
ARC
  5
358
  8
0
 62
     7
 10
157.80918600000001
 20
157.24799999999991
 30
0.0
 40
0.086455
 50
272.00411600000001
 51
357.87739199999987
  0
ARC
  5
359
  8
0
 62
     7
 10
157.809144
 20
157.24173300000001
 30
0.0
 40
0.086491
 50
2.030961
 51
87.969029000000006
  0
ARC
  5
35A
  8
0
 62
     7
 10
157.80918600000001
 20
157.5813149999999
 30
0.0
 40
0.086455
 50
272.00411600000001
 51
357.87739199999987
  0
ARC
  5
35B
  8
0
 62
     7
 10
157.809144
 20
157.57504800000001
 30
0.0
 40
0.086491
 50
2.030961
 51
87.969029000000006
  0
ARC
  5
35C
  8
0
 62
     7
 10
157.80905399999989
 20
156.914638
 30
0.0
 40
0.086584
 50
272.08801399999987
 51
357.91199599999987
  0
ARC
  5
35D
  8
0
 62
     7
 10
157.80908799999989
 20
156.90836200000001
 30
0.0
 40
0.086549
 50
2.0664250000000002
 51
87.933564999999987
  0
LINE
  5
35E
  8
0
 62
     7
 10
157.81200000000001
 20
156.66200000000001
 30
0.0
 11
157.81200000000001
 21
156.828
 31
0.0
  0
ARC
  5
35F
  8
0
 62
     7
 10
157.80905399999989
 20
156.581323
 30
0.0
 40
0.086584
 50
272.08801399999987
 51
357.91199599999987
  0
ARC
  5
360
  8
0
 62
     7
 10
157.80908799999989
 20
156.5750469999999
 30
0.0
 40
0.086549
 50
2.0664250000000002
 51
87.933564999999987
  0
LINE
  5
361
  8
0
 62
     7
 10
157.81200000000001
 20
156.995
 30
0.0
 11
157.81200000000001
 21
157.16099999999989
 31
0.0
  0
LINE
  5
362
  8
0
 62
     7
 10
157.81200000000001
 20
157.995
 30
0.0
 11
157.5689999999999
 21
157.995
 31
0.0
  0
LINE
  5
363
  8
0
 62
     7
 10
157.81200000000001
 20
157.828
 30
0.0
 11
157.5689999999999
 21
157.828
 31
0.0
  0
LINE
  5
364
  8
0
 62
     7
 10
157.81200000000001
 20
158.328
 30
0.0
 11
157.5689999999999
 21
158.328
 31
0.0
  0
LINE
  5
365
  8
0
 62
     7
 10
157.81200000000001
 20
158.16200000000001
 30
0.0
 11
157.5689999999999
 21
158.16200000000001
 31
0.0
  0
LINE
  5
366
  8
0
 62
     7
 10
157.81200000000001
 20
158.495
 30
0.0
 11
157.5689999999999
 21
158.495
 31
0.0
  0
LINE
  5
367
  8
0
 62
     7
 10
157.81200000000001
 20
158.661
 30
0.0
 11
157.5689999999999
 21
158.661
 31
0.0
  0
ARC
  5
368
  8
0
 62
     7
 10
157.56573399999999
 20
157.9145
 30
0.0
 40
0.086332
 50
272.15737200000001
 51
357.961386
  0
ARC
  5
369
  8
0
 62
     7
 10
157.56558499999991
 20
157.90838799999989
 30
0.0
 40
0.08648
 50
2.0150920000000001
 51
87.747648999999996
  0
ARC
  5
36A
  8
0
 62
     7
 10
157.56570199999999
 20
158.24784099999999
 30
0.0
 40
0.086359
 50
272.17812299999991
 51
358.05913700000002
  0
ARC
  5
36B
  8
0
 62
     7
 10
157.565529
 20
158.24181899999999
 30
0.0
 40
0.086537
 50
2.0505969999999998
 51
87.712143999999995
  0
ARC
  5
36C
  8
0
 62
     7
 10
157.56560200000001
 20
158.58125499999991
 30
0.0
 40
0.086462
 50
272.24156099999999
 51
357.99569899999989
  0
ARC
  5
36D
  8
0
 62
     7
 10
157.565529
 20
158.57513399999999
 30
0.0
 40
0.086537
 50
2.0505969999999998
 51
87.712143999999995
  0
ARC
  5
36E
  8
0
 62
     7
 10
157.80905399999989
 20
158.58138600000001
 30
0.0
 40
0.086584
 50
272.08801399999987
 51
357.91199599999987
  0
ARC
  5
36F
  8
0
 62
     7
 10
157.809279
 20
158.57512299999991
 30
0.0
 40
0.086358
 50
2.0627580000000001
 51
88.055734999999984
  0
LINE
  5
370
  8
0
 62
     7
 10
157.81200000000001
 20
157.995
 30
0.0
 11
157.81200000000001
 21
158.16200000000001
 31
0.0
  0
ARC
  5
371
  8
0
 62
     7
 10
157.80918600000001
 20
157.91463100000001
 30
0.0
 40
0.086455
 50
272.00411600000001
 51
357.87739199999987
  0
ARC
  5
372
  8
0
 62
     7
 10
157.809144
 20
157.90836299999989
 30
0.0
 40
0.086491
 50
2.030961
 51
87.969029000000006
  0
ARC
  5
373
  8
0
 62
     7
 10
157.80915400000001
 20
158.24797100000001
 30
0.0
 40
0.086481
 50
272.02476899999988
 51
357.97524099999998
  0
ARC
  5
374
  8
0
 62
     7
 10
157.809279
 20
158.24180699999991
 30
0.0
 40
0.086358
 50
2.0627580000000001
 51
88.055734999999984
  0
LINE
  5
375
  8
0
 62
     7
 10
157.81200000000001
 20
158.328
 30
0.0
 11
157.81200000000001
 21
158.495
 31
0.0
  0
LINE
  5
376
  8
0
 62
     7
 10
157.4789999999999
 20
156.495
 30
0.0
 11
157.81200000000001
 21
156.495
 31
0.0
  0
LINE
  5
377
  8
0
 62
     7
 10
157.5689999999999
 20
159.66200000000001
 30
0.0
 11
157.5689999999999
 21
156.495
 31
0.0
  0
LINE
  5
378
  8
0
 62
     7
 10
157.81200000000001
 20
159.66200000000001
 30
0.0
 11
157.81200000000001
 21
158.661
 31
0.0
  0
LINE
  5
379
  8
0
 62
     7
 10
156.31200000000001
 20
144.328
 30
0.0
 11
156.31200000000001
 21
143.39500000000001
 31
0.0
  0
LINE
  5
37A
  8
0
 62
     7
 10
156.56200000000001
 20
144.495
 30
0.0
 11
156.56200000000001
 21
159.161
 31
0.0
  0
ARC
  5
37B
  8
0
 62
     7
 10
156.38915299999999
 20
144.5011879999999
 30
0.0
 40
0.173287
 50
272.12453699999998
 51
357.87547299999989
  0
ARC
  5
37C
  8
0
 62
     7
 10
156.13938999999991
 20
143.4007959999999
 30
0.0
 40
0.172921
 50
272.12620600000002
 51
357.99230599999999
  0
LINE
  5
37D
  8
0
 62
     7
 10
154.89599999999999
 20
143.22799999999989
 30
0.0
 11
156.14599999999999
 21
143.22799999999989
 31
0.0
  0
LINE
  5
37E
  8
0
 62
     7
 10
153.39599999999999
 20
144.328
 30
0.0
 11
156.39599999999999
 21
144.328
 31
0.0
  0
LINE
  5
37F
  8
0
 62
     7
 10
153.2289999999999
 20
145.995
 30
0.0
 11
156.56200000000001
 21
145.995
 31
0.0
  0
LINE
  5
380
  8
0
 62
     7
 10
155.49600000000001
 20
143.22799999999989
 30
0.0
 11
155.49600000000001
 21
136.39799999999991
 31
0.0
  0
LINE
  5
381
  8
0
  6
AIGENLINE001
 62
     7
 10
154.89599999999999
 20
164.66200000000001
 30
0.0
 11
154.89599999999999
 21
132.928
 31
0.0
  0
ARC
  5
382
  8
0
  6
AIGENLINE001
 62
     7
 10
141.56236399999989
 20
132.928043
 30
0.0
 40
13.333209
 50
269.99964999999992
 51
359.99961999999999
  0
LINE
  5
383
  8
0
  6
AIGENLINE001
 62
     7
 10
114.80200000000001
 20
119.595
 30
0.0
 11
141.56200000000001
 21
119.595
 31
0.0
  0
TEXT
  5
384
  8
_________2
 62
     7
 10
24.5868
 20
0.707283
 30
0.0
 40
3.9357000000000002
  1
ヨーロッパ製洗面器用
 41
0.5
  0
LINE
  5
385
  8
_________2
 62
     7
 10
205.30099999999999
 20
127.411
 30
0.0
 11
183.55000000000001
 21
127.411
 31
0.0
  0
LINE
  5
386
  8
_________2
 62
     7
 10
100.2999999999999
 20
-4.0910799999999998
 30
0.0
 11
100.2999999999999
 21
-21.071400000000001
 31
0.0
  0
LINE
  5
387
  8
_________2
 62
     7
 10
100.2999999999999
 20
275.93099999999993
 30
0.0
 11
100.2999999999999
 21
258.911
 31
0.0
  0
LINE
  5
388
  8
_________2
 62
     7
 10
17.049499999999998
 20
127.411
 30
0.0
 11
-4.70052
 21
127.411
 31
0.0
  0
LINE
  5
389
  8
_________2
 62
     7
 10
76.741
 20
29.8047
 30
0.0
 11
74.554699999999997
 21
29.8047
 31
0.0
  0
LINE
  5
38A
  8
_________2
 62
     7
 10
77.233699999999999
 20
29.8047
 30
0.0
 11
76.981499999999997
 21
29.8047
 31
0.0
  0
LINE
  5
38B
  8
_________2
 62
     7
 10
77.726299999999995
 20
29.8047
 30
0.0
 11
80.651200000000003
 21
29.8047
 31
0.0
  0
LINE
  5
38C
  8
_________2
 62
     7
 10
77.233699999999999
 20
29.8047
 30
0.0
 11
77.485500000000002
 21
29.8047
 31
0.0
  0
LINE
  5
38D
  8
_________2
 62
     7
 10
70.837100000000007
 20
29.8047
 30
0.0
 11
68.650499999999994
 21
29.8047
 31
0.0
  0
LINE
  5
38E
  8
_________2
 62
     7
 10
71.329400000000007
 20
29.8047
 30
0.0
 11
71.077600000000004
 21
29.8047
 31
0.0
  0
LINE
  5
38F
  8
_________2
 62
     7
 10
71.329400000000007
 20
30.2974
 30
0.0
 11
71.329400000000007
 21
32.484400000000001
 31
0.0
  0
LINE
  5
390
  8
_________2
 62
     7
 10
71.329400000000007
 20
29.8047
 30
0.0
 11
71.329400000000007
 21
30.056899999999992
 31
0.0
  0
LINE
  5
391
  8
_________2
 62
     7
 10
71.822100000000006
 20
29.8047
 30
0.0
 11
74.009
 21
29.8047
 31
0.0
  0
LINE
  5
392
  8
_________2
 62
     7
 10
71.329400000000007
 20
29.8047
 30
0.0
 11
71.581599999999995
 21
29.8047
 31
0.0
  0
LINE
  5
393
  8
_________2
 62
     7
 10
71.329400000000007
 20
29.312799999999999
 30
0.0
 11
71.329400000000007
 21
27.125800000000002
 31
0.0
  0
LINE
  5
394
  8
_________2
 62
     7
 10
71.329400000000007
 20
29.8047
 30
0.0
 11
71.329400000000007
 21
29.5532
 31
0.0
  0
LINE
  5
395
  8
_________2
 62
     7
 10
75.040499999999994
 20
28.5852
 30
0.0
 11
80.218500000000006
 21
27.720400000000001
 31
0.0
  0
LINE
  5
396
  8
_________2
 62
     7
 10
75.040499999999994
 20
31.0243
 30
0.0
 11
80.218500000000006
 21
31.889700000000001
 31
0.0
  0
LINE
  5
397
  8
_________2
 62
     7
 10
80.218500000000006
 20
27.720400000000001
 30
0.0
 11
80.218500000000006
 21
31.889700000000001
 31
0.0
  0
LINE
  5
398
  8
_________2
 62
     7
 10
75.040499999999994
 20
28.5852
 30
0.0
 11
75.040499999999994
 21
31.0243
 31
0.0
  0
ARC
  5
399
  8
_________2
 62
     7
 10
71.28285600000001
 20
29.757811
 30
0.0
 40
1.2673589999999999
 50
2.122214
 51
87.893958999999995
  0
ARC
  5
39A
  8
_________2
 62
     7
 10
71.375959999999992
 20
29.758213000000001
 30
0.0
 40
1.2669559999999991
 50
92.104701000000006
 51
177.8952689999999
  0
ARC
  5
39B
  8
_________2
 62
     7
 10
71.376357999999996
 20
29.851671
 30
0.0
 40
1.2673680000000001
 50
182.12203600000001
 51
267.877993
  0
ARC
  5
39C
  8
_________2
 62
     7
 10
71.282531999999989
 20
29.851998999999989
 30
0.0
 40
1.267695999999999
 50
272.12015300000002
 51
357.863674
  0
ARC
  5
39D
  8
_________2
 62
     7
 10
71.329430000000002
 20
29.804742999999998
 30
0.0
 40
2.0849849999999992
 50
0.00001
 51
89.999980000000008
  0
ARC
  5
39E
  8
_________2
 62
     7
 10
71.329603000000006
 20
29.804915000000001
 30
0.0
 40
2.084813
 50
90.004733999999999
 51
180.00474399999999
  0
ARC
  5
39F
  8
_________2
 62
     7
 10
71.409106000000008
 20
29.884775999999999
 30
0.0
 40
2.1657950000000001
 50
182.11776599999999
 51
267.89173399999999
  0
ARC
  5
3A0
  8
_________2
 62
     7
 10
71.249459000000002
 20
29.885429999999989
 30
0.0
 40
2.1664590000000001
 50
272.11546800000002
 51
357.86560400000002
  0
TEXT
  5
3A1
  8
_________2
 62
     7
 10
104.605
 20
1.6794899999999999
 30
0.0
 40
3.0923400000000001
  1
図番
 41
0.5
  0
LINE
  5
3A2
  8
_________2
 62
     7
 10
103.55
 20
5.9087199999999989
 30
0.0
 11
183.55099999999999
 21
5.9087199999999989
 31
0.0
  0
TEXT
  5
3A3
  8
_________2
 62
     7
 10
104.605
 20
11.679299999999991
 30
0.0
 40
3.0923400000000001
  1
品番
 41
0.5
  0
TEXT
  5
3A4
  8
_________2
 62
     7
 10
104.605
 20
31.818100000000001
 30
0.0
 40
3.0923400000000001
  1
名称
 41
0.5
  0
TEXT
  5
3A5
  8
_________2
 62
     7
 10
91.845058333333341
 20
26.821999999999989
 30
0.0
 40
3.6545800000000002
  1
mm
 41
0.5
 72
     1
 11
93.367800000000003
 21
26.821999999999989
 31
0.0
  0
TEXT
  5
3A6
  8
_________2
 62
     7
 10
85.643199999999993
 20
31.818100000000001
 30
0.0
 40
3.0923400000000001
  1
単位
 41
0.5
  0
TEXT
  5
3A7
  8
_________2
 62
     7
 10
85.643199999999993
 20
19.410799999999991
 30
0.0
 40
3.0923400000000001
  1
尺度
 41
0.5
  0
TEXT
  5
3A8
  8
_________2
 62
     7
 10
90.548758666666686
 20
13.2179
 30
0.0
 40
3.6545800000000002
  1
1 ： 3
 41
0.5
 72
     1
 11
93.959699999999998
 21
13.2179
 31
0.0
  0
TEXT
  5
3A9
  8
_________2
 62
     7
 10
138.13841249999999
 20
9.1078600000000005
 30
0.0
 40
3.9357000000000002
  1
CET860
 41
0.5
 72
     1
 11
143.55000000000001
 21
9.1078600000000005
 31
0.0
  0
TEXT
  5
3AA
  8
_________2
 62
     7
 10
138.13841249999999
 20
-0.8926299999999999
 30
0.0
 40
3.9357000000000002
  1
CET860
 41
0.5
 72
     1
 11
143.55000000000001
 21
-0.8926299999999999
 31
0.0
  0
TEXT
  5
3AB
  8
_________2
 62
     7
 10
109.179
 20
24.2257
 30
0.0
 40
3.9357000000000002
  1
ワンプッシュ式排水栓
 41
0.5
  0
TEXT
  5
3AC
  8
_________2
 62
     7
 10
39.364390666666658
 20
13.603
 30
0.0
 40
3.6545800000000002
  1
高橋
 41
0.5
 72
     1
 11
41.313499999999998
 21
13.603
 31
0.0
  0
TEXT
  5
3AD
  8
_________2
 62
     7
 10
20.790090666666661
 20
13.603
 30
0.0
 40
3.6545800000000002
  1
石原
 41
0.5
 72
     1
 11
22.73919999999999
 21
13.603
 31
0.0
  0
TEXT
  5
3AE
  8
_________2
 62
     7
 10
67.785399999999996
 20
13.2179
 30
0.0
 40
3.6545800000000002
  1
09.01.30
 41
0.5
  0
TEXT
  5
3AF
  8
_________2
 62
     7
 10
66.593100000000007
 20
19.410799999999991
 30
0.0
 40
3.0923400000000001
  1
日付
 41
0.5
  0
TEXT
  5
3B0
  8
_________2
 62
     7
 10
29.639399999999998
 20
19.410799999999991
 30
0.0
 40
3.0923400000000001
  1
検図
 41
0.5
  0
TEXT
  5
3B1
  8
_________2
 62
     7
 10
18.021100000000001
 20
5.21143
 30
0.0
 40
3.0923400000000001
  1
備考
 41
0.5
  0
TEXT
  5
3B2
  8
_________2
 62
     7
 10
18.021100000000001
 20
19.410799999999991
 30
0.0
 40
3.0923400000000001
  1
製図
 41
0.5
  0
TEXT
  5
3B3
  8
_________2
 62
     7
 10
23.788465333333338
 20
27.936800000000002
 30
0.0
 40
4.4979399999999989
  1
セラトレーディング株式会社
 41
0.5
 72
     1
 11
41.180500000000002
 21
27.936800000000002
 31
0.0
  0
LINE
  5
3B4
  8
_________2
 62
     7
 10
183.55099999999999
 20
-4.0910799999999998
 30
0.0
 11
17.049499999999998
 21
-4.0910799999999998
 31
0.0
  0
LINE
  5
3B5
  8
_________2
 62
     7
 10
17.049499999999998
 20
-4.0910799999999998
 30
0.0
 11
17.049499999999998
 21
258.911
 31
0.0
  0
LINE
  5
3B6
  8
_________2
 62
     7
 10
17.049499999999998
 20
258.911
 30
0.0
 11
183.55099999999999
 21
258.911
 31
0.0
  0
LINE
  5
3B7
  8
_________2
 62
     7
 10
183.55099999999999
 20
258.911
 30
0.0
 11
183.55099999999999
 21
-4.0910799999999998
 31
0.0
  0
LINE
  5
3B8
  8
_________2
 62
     7
 10
65.549599999999998
 20
9.4089600000000004
 30
0.0
 11
65.549599999999998
 21
35.908799999999999
 31
0.0
  0
LINE
  5
3B9
  8
_________2
 62
     7
 10
84.549700000000016
 20
9.4089600000000004
 30
0.0
 11
84.549700000000016
 21
35.908799999999999
 31
0.0
  0
LINE
  5
3BA
  8
_________2
 62
     7
 10
103.55
 20
-4.0910799999999998
 30
0.0
 11
103.55
 21
35.908799999999999
 31
0.0
  0
LINE
  5
3BB
  8
_________2
 62
     7
 10
28.549299999999992
 20
9.4089600000000004
 30
0.0
 11
28.549299999999992
 21
23.409199999999998
 31
0.0
  0
LINE
  5
3BC
  8
_________2
 62
     7
 10
17.049499999999998
 20
9.4089600000000004
 30
0.0
 11
103.55
 21
9.4089600000000004
 31
0.0
  0
LINE
  5
3BD
  8
_________2
 62
     7
 10
17.049499999999998
 20
23.409199999999998
 30
0.0
 11
103.55
 21
23.409199999999998
 31
0.0
  0
LINE
  5
3BE
  8
_________2
 62
     7
 10
103.55
 20
15.9085
 30
0.0
 11
183.55099999999999
 21
15.9085
 31
0.0
  0
LINE
  5
3BF
  8
_________2
 62
     7
 10
17.049499999999998
 20
35.908799999999999
 30
0.0
 11
183.55099999999999
 21
35.908799999999999
 31
0.0
  0
ENDSEC
  0
EOF
