  0
SECTION
  2
HEADER
  9
$ACADVER
  1
AC1009
  9
$LUNITS
 70
2
  9
$LUPREC
 70
4
  9
$LTSCALE
 40
1.0
  9
$EXTMIN
 10
-104.7936
 20
0.176
 30
0
  9
$EXTMAX
 10
315.2069
 20
297.1763
 30
0
  0
ENDSEC
  0
SECTION
  2
TABLES
  0
TABLE
  2
LTYPE
 70
256
  0
LTYPE
  2
AIGENLINE001
 70
64
  3
generate AI->DXF Converter
 72
65
 73
2
 40
1.5684
 49
0.7842
 49
-0.7842
  0
LTYPE
  2
AIGENLINE002
 70
64
  3
generate AI->DXF Converter
 72
65
 73
4
 40
5.8813
 49
3.5288
 49
-0.7842
 49
0.7842
 49
-0.7842
  0
LTYPE
  2
AIGENLINE003
 70
64
  3
generate AI->DXF Converter
 72
65
 73
2
 40
1.7767
 49
0.8884
 49
-0.8884
  0
LTYPE
  2
AIGENLINE004
 70
64
  3
generate AI->DXF Converter
 72
65
 73
4
 40
6.6627
 49
3.9976
 49
-0.8884
 49
0.8884
 49
-0.8884
  0
LTYPE
  2
AIGENLINE005
 70
64
  3
generate AI->DXF Converter
 72
65
 73
2
 40
1.555
 49
0.7775
 49
-0.7775
  0
LTYPE
  2
AIGENLINE006
 70
64
  3
generate AI->DXF Converter
 72
65
 73
4
 40
5.8313
 49
3.4988
 49
-0.7775
 49
0.7775
 49
-0.7775
  0
LTYPE
  2
AIGENLINE007
 70
64
  3
generate AI->DXF Converter
 72
65
 73
2
 40
1.087
 49
0.5435
 49
-0.5435
  0
LTYPE
  2
AIGENLINE008
 70
64
  3
generate AI->DXF Converter
 72
65
 73
4
 40
4.0761
 49
2.4456
 49
-0.5435
 49
0.5435
 49
-0.5435
  0
LTYPE
  2
AIGENLINE009
 70
64
  3
generate AI->DXF Converter
 72
65
 73
4
 40
2.7961
 49
0.699
 49
-0.699
 49
0.699
 49
-0.699
  0
LTYPE
  2
AIGENLINE010
 70
64
  3
generate AI->DXF Converter
 72
65
 73
4
 40
3.7002
 49
0.925
 49
-0.925
 49
0.925
 49
-0.925
  0
LTYPE
  2
AIGENLINE011
 70
64
  3
generate AI->DXF Converter
 72
65
 73
6
 40
8.7879
 49
4.1627
 49
-0.925
 49
0.925
 49
-0.925
 49
0.925
 49
-0.925
  0
LTYPE
  2
AIGENLINE012
 70
64
  3
generate AI->DXF Converter
 72
65
 73
4
 40
3.4014
 49
0.8503
 49
-0.8503
 49
0.8503
 49
-0.8503
  0
LTYPE
  2
AIGENLINE013
 70
64
  3
generate AI->DXF Converter
 72
65
 73
6
 40
8.0782
 49
3.8265
 49
-0.8503
 49
0.8503
 49
-0.8503
 49
0.8503
 49
-0.8503
  0
LTYPE
  2
AIGENLINE014
 70
64
  3
generate AI->DXF Converter
 72
65
 73
4
 40
3.3506
 49
0.8377
 49
-0.8377
 49
0.8377
 49
-0.8377
  0
LTYPE
  2
AIGENLINE015
 70
64
  3
generate AI->DXF Converter
 72
65
 73
6
 40
7.9578
 49
3.7695
 49
-0.8377
 49
0.8377
 49
-0.8377
 49
0.8377
 49
-0.8377
  0
LTYPE
  2
AIGENLINE016
 70
64
  3
generate AI->DXF Converter
 72
65
 73
2
 40
1.5942
 49
0.7971
 49
-0.7971
  0
LTYPE
  2
AIGENLINE017
 70
64
  3
generate AI->DXF Converter
 72
65
 73
4
 40
5.9783
 49
3.587
 49
-0.7971
 49
0.7971
 49
-0.7971
  0
LTYPE
  2
AIGENLINE018
 70
64
  3
generate AI->DXF Converter
 72
65
 73
2
 40
1.4283
 49
0.7141
 49
-0.7141
  0
LTYPE
  2
AIGENLINE019
 70
64
  3
generate AI->DXF Converter
 72
65
 73
4
 40
5.356
 49
3.2136
 49
-0.7141
 49
0.7141
 49
-0.7141
  0
LTYPE
  2
AIGENLINE020
 70
64
  3
generate AI->DXF Converter
 72
65
 73
2
 40
2.629
 49
1.3145
 49
-1.3145
  0
ENDTAB
  0
TABLE
  2
LAYER
 70
3
  0
LAYER
  2
LAYER_1
 70
64
 62
7
  6
CONTINUOUS
  0
LAYER
  2
LAYER_2
 70
64
 62
7
  6
CONTINUOUS
  0
LAYER
  2
LAYER_3
 70
64
 62
7
  6
CONTINUOUS
  0
ENDTAB
  0
TABLE
  2
STYLE
 70
6
  0
STYLE
  2
STANDARD
 70
0
 40
0
 50
0
 71
0
 41
0
 42
0
  3
TXT
  4
BIGFONT
  0
ENDTAB
  0
ENDSEC
  0
SECTION
  2
BLOCKS
  0
BLOCK
  8
LAYER_2
  2
AIGNBL0202034C
 70
64
 10
0
 20
0
 30
0
  3
AIGNBL0202034C
  0
LINE
  8
LAYER_2
 10
-42.2171
 20
106.0893
 11
-42.2171
 21
104.2893
  0
LINE
  8
LAYER_2
  6
AIGENLINE001
 10
-42.2171
 20
103.5051
 11
-42.2171
 21
102.3288
  0
LINE
  8
LAYER_2
  6
AIGENLINE002
 10
-42.2171
 20
101.9367
 11
-42.2171
 21
84.6849
  0
LINE
  8
LAYER_2
 10
-42.2171
 20
84.2928
 11
-42.2171
 21
82.4928
  0
ENDBLK
  0
BLOCK
  8
LAYER_2
  2
AIGNBL0202034E
 70
64
 10
0
 20
0
 30
0
  3
AIGNBL0202034E
  0
LINE
  8
LAYER_2
 10
-55.0603
 20
95.0932
 11
-53.2603
 21
95.0932
  0
LINE
  8
LAYER_2
  6
AIGENLINE003
 10
-52.372
 20
95.0932
 11
-51.0395
 21
95.0932
  0
LINE
  8
LAYER_2
  6
AIGENLINE004
 10
-50.5953
 20
95.0932
 11
-31.0515
 21
95.0932
  0
LINE
  8
LAYER_2
 10
-30.6073
 20
95.0932
 11
-28.8073
 21
95.0932
  0
ENDBLK
  0
BLOCK
  8
LAYER_2
  2
AIGNBL0202035C
 70
64
 10
0
 20
0
 30
0
  3
AIGNBL0202035C
  0
LINE
  8
LAYER_2
 10
-42.2171
 20
210.5548
 11
-42.2171
 21
212.3548
  0
LINE
  8
LAYER_2
  6
AIGENLINE005
 10
-42.2171
 20
213.1323
 11
-42.2171
 21
214.2986
  0
LINE
  8
LAYER_2
  6
AIGENLINE006
 10
-42.2171
 20
214.6873
 11
-42.2171
 21
237.6238
  0
LINE
  8
LAYER_2
 10
-42.2171
 20
238.0126
 11
-42.2171
 21
239.8126
  0
ENDBLK
  0
BLOCK
  8
LAYER_2
  2
AIGNBL0202035E
 70
64
 10
0
 20
0
 30
0
  3
AIGNBL0202035E
  0
LINE
  8
LAYER_2
 10
-47.2172
 20
216.9387
 11
-45.4172
 21
216.9387
  0
LINE
  8
LAYER_2
  6
AIGENLINE007
 10
-44.8737
 20
216.9387
 11
-44.0585
 21
216.9387
  0
LINE
  8
LAYER_2
  6
AIGENLINE008
 10
-43.7868
 20
216.9387
 11
-39.9824
 21
216.9387
  0
LINE
  8
LAYER_2
 10
-39.7107
 20
216.9387
 11
-37.9107
 21
216.9387
  0
ENDBLK
  0
BLOCK
  8
LAYER_2
  2
AIGNBL02020360
 70
64
 10
0
 20
0
 30
0
  3
AIGNBL02020360
  0
LINE
  8
LAYER_2
 10
-51.3837
 20
235.2387
 11
-53.1837
 21
235.2387
  0
LINE
  8
LAYER_2
  6
AIGENLINE009
 10
-53.8827
 20
235.2387
 11
-56.3294
 21
235.2387
  0
LINE
  8
LAYER_2
 10
-56.6789
 20
235.2387
 11
-58.4789
 21
235.2387
  0
ENDBLK
  0
BLOCK
  8
LAYER_2
  2
AIGNBL02020362
 70
64
 10
0
 20
0
 30
0
  3
AIGNBL02020362
  0
LINE
  8
LAYER_2
 10
-33.0504
 20
235.2387
 11
-31.2504
 21
235.2387
  0
LINE
  8
LAYER_2
  6
AIGENLINE010
 10
-30.3253
 20
235.2387
 11
-27.0877
 21
235.2387
  0
LINE
  8
LAYER_2
  6
AIGENLINE011
 10
-26.6252
 20
235.2387
 11
-9.5119
 21
235.2387
  0
LINE
  8
LAYER_2
 10
-9.0494
 20
235.2387
 11
-7.2494
 21
235.2387
  0
ENDBLK
  0
BLOCK
  8
LAYER_2
  2
AIGNBL02020368
 70
64
 10
0
 20
0
 30
0
  3
AIGNBL02020368
  0
LINE
  8
LAYER_2
 10
104.3052
 20
104.1599
 11
104.3052
 21
105.9599
  0
LINE
  8
LAYER_2
  6
AIGENLINE012
 10
104.3052
 20
106.8102
 11
104.3052
 21
109.7864
  0
LINE
  8
LAYER_2
  6
AIGENLINE013
 10
104.3052
 20
110.2116
 11
104.3052
 21
142.0992
  0
LINE
  8
LAYER_2
 10
104.3052
 20
142.5244
 11
104.3052
 21
144.3244
  0
ENDBLK
  0
BLOCK
  8
LAYER_2
  2
AIGNBL0202036A
 70
64
 10
0
 20
0
 30
0
  3
AIGNBL0202036A
  0
LINE
  8
LAYER_2
 10
104.3052
 20
85.9266
 11
104.3052
 21
84.1266
  0
LINE
  8
LAYER_2
  6
AIGENLINE014
 10
104.3052
 20
83.2889
 11
104.3052
 21
80.3571
  0
LINE
  8
LAYER_2
  6
AIGENLINE015
 10
104.3052
 20
79.9383
 11
104.3052
 21
64.4416
  0
LINE
  8
LAYER_2
 10
104.3052
 20
64.0227
 11
104.3052
 21
62.2227
  0
ENDBLK
  0
BLOCK
  8
LAYER_2
  2
AIGNBL0202036C
 70
64
 10
0
 20
0
 30
0
  3
AIGNBL0202036C
  0
LINE
  8
LAYER_2
 10
110.2166
 20
95.0932
 11
108.4166
 21
95.0932
  0
LINE
  8
LAYER_2
  6
AIGENLINE016
 10
107.6195
 20
95.0932
 11
106.4238
 21
95.0932
  0
LINE
  8
LAYER_2
  6
AIGENLINE017
 10
106.0253
 20
95.0932
 11
64.5754
 21
95.0932
  0
LINE
  8
LAYER_2
 10
64.1769
 20
95.0932
 11
62.3769
 21
95.0932
  0
ENDBLK
  0
BLOCK
  8
LAYER_2
  2
AIGNBL02020373
 70
64
 10
0
 20
0
 30
0
  3
AIGNBL02020373
  0
LINE
  8
LAYER_2
 10
76.5085
 20
106.8877
 11
76.5085
 21
105.0877
  0
LINE
  8
LAYER_2
  6
AIGENLINE018
 10
76.5085
 20
104.3736
 11
76.5085
 21
103.3023
  0
LINE
  8
LAYER_2
  6
AIGENLINE019
 10
76.5085
 20
102.9453
 11
76.5085
 21
87.2343
  0
LINE
  8
LAYER_2
 10
76.5085
 20
86.8773
 11
76.5085
 21
85.0773
  0
ENDBLK
  0
BLOCK
  8
LAYER_2
  2
AIGNBL02020375
 70
64
 10
0
 20
0
 30
0
  3
AIGNBL02020375
  0
LINE
  8
LAYER_2
 10
-42.2171
 20
144.2009
 11
-42.2171
 21
142.4009
  0
LINE
  8
LAYER_2
  6
AIGENLINE020
 10
-42.2171
 20
141.0864
 11
-42.2171
 21
139.1147
  0
LINE
  8
LAYER_2
 10
-42.2171
 20
138.4574
 11
-42.2171
 21
136.6574
  0
ENDBLK
  0
BLOCK
  8
LAYER_2
  2
AIGNBL02010002
 70
64
 10
0
 20
0
 30
0
  3
AIGNBL02010002
  0
ARC
  8
LAYER_2
 10
-42.217
 20
95.0933
 40
4.6667
 50
141.6861782
 51
158.3012853
  0
ENDBLK
  0
BLOCK
  8
LAYER_2
  2
AIGNBL02010003
 70
64
 10
0
 20
0
 30
0
  3
AIGNBL02010003
  0
ARC
  8
LAYER_2
 10
-42.217
 20
95.0932
 40
4.6666
 50
81.68650957
 51
98.30499459
  0
ENDBLK
  0
BLOCK
  8
LAYER_2
  2
AIGNBL02010004
 70
64
 10
0
 20
0
 30
0
  3
AIGNBL02010004
  0
ARC
  8
LAYER_2
 10
-42.2171
 20
95.0934
 40
4.6667
 50
21.65697184
 51
38.32859581
  0
ENDBLK
  0
BLOCK
  8
LAYER_2
  2
AIGNBL02010005
 70
64
 10
0
 20
0
 30
0
  3
AIGNBL02010005
  0
ARC
  8
LAYER_2
 10
-42.217
 20
95.0934
 40
4.6667
 50
321.681367
 51
338.2998798
  0
ENDBLK
  0
BLOCK
  8
LAYER_2
  2
AIGNBL02010006
 70
64
 10
0
 20
0
 30
0
  3
AIGNBL02010006
  0
ARC
  8
LAYER_2
 10
-42.2171
 20
95.0932
 40
4.6667
 50
261.6915275
 51
278.3084726
  0
ENDBLK
  0
BLOCK
  8
LAYER_2
  2
AIGNBL02010007
 70
64
 10
0
 20
0
 30
0
  3
AIGNBL02010007
  0
ARC
  8
LAYER_2
 10
-42.2169
 20
95.093
 40
4.6667
 50
201.6522224
 51
218.3198047
  0
ENDBLK
  0
BLOCK
  8
LAYER_2
  2
AIGNBL02010008
 70
64
 10
0
 20
0
 30
0
  3
AIGNBL02010008
  0
LINE
  8
LAYER_2
 10
-38.4141
 20
97.7454
 11
-38.5426
 21
98.4265
  0
LINE
  8
LAYER_2
 10
-38.5426
 20
98.4265
 11
-38.6435
 21
99.2249
  0
LINE
  8
LAYER_2
 10
-38.6435
 20
99.2249
 11
-38.6962
 21
99.918
  0
LINE
  8
LAYER_2
 10
-38.6962
 20
99.918
 11
-38.7165
 21
100.5808
  0
LINE
  8
LAYER_2
 10
-38.7165
 20
100.5808
 11
-38.7173
 21
100.7075
  0
ENDBLK
  0
BLOCK
  8
LAYER_2
  2
AIGNBL02010009
 70
64
 10
0
 20
0
 30
0
  3
AIGNBL02010009
  0
LINE
  8
LAYER_2
 10
-38.7171
 20
100.7075
 11
-38.7171
 21
103.407
  0
ENDBLK
  0
BLOCK
  8
LAYER_2
  2
AIGNBL0201000A
 70
64
 10
0
 20
0
 30
0
  3
AIGNBL0201000A
  0
LINE
  8
LAYER_2
 10
-45.7171
 20
103.407
 11
-45.7171
 21
101.4266
  0
ENDBLK
  0
BLOCK
  8
LAYER_2
  2
AIGNBL0201000B
 70
64
 10
0
 20
0
 30
0
  3
AIGNBL0201000B
  0
ARC
  8
LAYER_2
 10
-46.0504
 20
101.4265
 40
0.3333
 50
270.0034598
 51
0.01372812621
  0
ENDBLK
  0
BLOCK
  8
LAYER_2
  2
AIGNBL0201000C
 70
64
 10
0
 20
0
 30
0
  3
AIGNBL0201000C
  0
LINE
  8
LAYER_2
 10
-46.6837
 20
96.2266
 11
-46.5839
 21
96.1268
  0
ENDBLK
  0
BLOCK
  8
LAYER_2
  2
AIGNBL0201000D
 70
64
 10
0
 20
0
 30
0
  3
AIGNBL0201000D
  0
LINE
  8
LAYER_2
 10
27.451
 20
107.8547
 11
27.376
 21
107.8821
  0
LINE
  8
LAYER_2
 10
27.376
 20
107.8821
 11
27.193
 21
107.9044
  0
LINE
  8
LAYER_2
 10
27.193
 20
107.9044
 11
26.6849
 21
107.9045
  0
LINE
  8
LAYER_2
 10
26.6849
 20
107.9045
 11
26.4618
 21
107.8961
  0
ENDBLK
  0
BLOCK
  8
LAYER_2
  2
AIGNBL0201000E
 70
64
 10
0
 20
0
 30
0
  3
AIGNBL0201000E
  0
LINE
  8
LAYER_2
 10
24.3195
 20
107.9713
 11
24.0285
 21
107.9774
  0
ENDBLK
  0
BLOCK
  8
LAYER_2
  2
AIGNBL0201000F
 70
64
 10
0
 20
0
 30
0
  3
AIGNBL0201000F
  0
LINE
  8
LAYER_2
 10
8.3179
 20
104.9989
 11
8.91
 21
104.9917
  0
ENDBLK
  0
BLOCK
  8
LAYER_2
  2
AIGNBL02010010
 70
64
 10
0
 20
0
 30
0
  3
AIGNBL02010010
  0
LINE
  8
LAYER_2
 10
8.91
 20
104.9917
 11
9.5722
 21
104.9925
  0
ENDBLK
  0
BLOCK
  8
LAYER_2
  2
AIGNBL02010011
 70
64
 10
0
 20
0
 30
0
  3
AIGNBL02010011
  0
LINE
  8
LAYER_2
 10
-0.1612
 20
105.1901
 11
-0.0035
 21
105.1834
  0
LINE
  8
LAYER_2
 10
-0.0035
 20
105.1834
 11
2.9482
 21
105.0792
  0
LINE
  8
LAYER_2
 10
2.9482
 20
105.0792
 11
5.9164
 21
105.0084
  0
LINE
  8
LAYER_2
 10
5.9164
 20
105.0084
 11
6.4657
 21
105.0038
  0
ENDBLK
  0
BLOCK
  8
LAYER_2
  2
AIGNBL02010012
 70
64
 10
0
 20
0
 30
0
  3
AIGNBL02010012
  0
LINE
  8
LAYER_2
 10
8.3215
 20
104.9882
 11
8.91
 21
104.9832
  0
ENDBLK
  0
BLOCK
  8
LAYER_2
  2
AIGNBL02010013
 70
64
 10
0
 20
0
 30
0
  3
AIGNBL02010013
  0
LINE
  8
LAYER_2
 10
8.91
 20
104.9832
 11
11.2333
 21
104.9833
  0
ENDBLK
  0
BLOCK
  8
LAYER_2
  2
AIGNBL02010014
 70
64
 10
0
 20
0
 30
0
  3
AIGNBL02010014
  0
LINE
  8
LAYER_2
 10
26.4618
 20
107.8961
 11
26.0452
 21
107.918
  0
LINE
  8
LAYER_2
 10
26.0452
 20
107.918
 11
25.5438
 21
107.9212
  0
LINE
  8
LAYER_2
 10
25.5438
 20
107.9212
 11
24.5371
 21
107.9076
  0
LINE
  8
LAYER_2
 10
24.5371
 20
107.9076
 11
23.5367
 21
107.8987
  0
LINE
  8
LAYER_2
 10
23.5367
 20
107.8987
 11
22.2517
 21
107.8908
  0
LINE
  8
LAYER_2
 10
22.2517
 20
107.8908
 11
21.076
 21
107.8859
  0
LINE
  8
LAYER_2
 10
21.076
 20
107.8859
 11
19.9648
 21
107.8791
  0
LINE
  8
LAYER_2
 10
19.9648
 20
107.8791
 11
18.9631
 21
107.8727
  0
LINE
  8
LAYER_2
 10
18.9631
 20
107.8727
 11
17.9119
 21
107.8665
  0
LINE
  8
LAYER_2
 10
17.9119
 20
107.8665
 11
16.7217
 21
107.8602
  0
LINE
  8
LAYER_2
 10
16.7217
 20
107.8602
 11
15.2327
 21
107.8534
  0
LINE
  8
LAYER_2
 10
15.2327
 20
107.8534
 11
13.4379
 21
107.847
  0
LINE
  8
LAYER_2
 10
13.4379
 20
107.847
 11
11.33
 21
107.8421
  0
LINE
  8
LAYER_2
 10
11.33
 20
107.8421
 11
8.8967
 21
107.8399
  0
ENDBLK
  0
BLOCK
  8
LAYER_2
  2
AIGNBL02010015
 70
64
 10
0
 20
0
 30
0
  3
AIGNBL02010015
  0
LINE
  8
LAYER_2
 10
28.1825
 20
106.916
 11
28.561
 21
106.9149
  0
ENDBLK
  0
BLOCK
  8
LAYER_2
  2
AIGNBL02010016
 70
64
 10
0
 20
0
 30
0
  3
AIGNBL02010016
  0
LINE
  8
LAYER_2
 10
18.1149
 20
108.8462
 11
17.0301
 21
108.8622
  0
LINE
  8
LAYER_2
 10
17.0301
 20
108.8622
 11
16.0101
 21
108.8721
  0
LINE
  8
LAYER_2
 10
16.0101
 20
108.8721
 11
15.2297
 21
108.8807
  0
LINE
  8
LAYER_2
 10
15.2297
 20
108.8807
 11
14.5045
 21
108.8916
  0
LINE
  8
LAYER_2
 10
14.5045
 20
108.8916
 11
13.5378
 21
108.9046
  0
LINE
  8
LAYER_2
 10
13.5378
 20
108.9046
 11
12.3231
 21
108.9179
  0
LINE
  8
LAYER_2
 10
12.3231
 20
108.9179
 11
10.8571
 21
108.9285
  0
LINE
  8
LAYER_2
 10
10.8571
 20
108.9285
 11
9.1363
 21
108.9315
  0
ENDBLK
  0
BLOCK
  8
LAYER_2
  2
AIGNBL02010017
 70
64
 10
0
 20
0
 30
0
  3
AIGNBL02010017
  0
LINE
  8
LAYER_2
 10
9.1363
 20
108.9316
 11
8.7669
 21
108.9439
  0
LINE
  8
LAYER_2
 10
8.7669
 20
108.9439
 11
8.607
 21
108.9453
  0
ENDBLK
  0
BLOCK
  8
LAYER_2
  2
AIGNBL02010018
 70
64
 10
0
 20
0
 30
0
  3
AIGNBL02010018
  0
LINE
  8
LAYER_2
 10
-12.8557
 20
108.968
 11
-12.8701
 21
108.968
  0
ENDBLK
  0
BLOCK
  8
LAYER_2
  2
AIGNBL02010019
 70
64
 10
0
 20
0
 30
0
  3
AIGNBL02010019
  0
LINE
  8
LAYER_2
 10
-13.4266
 20
107.2164
 11
-13.8178
 21
107.4012
  0
ARC
  8
LAYER_2
 10
-17.6669
 20
99.3372
 40
8.9356
 50
64.4838708
 51
73.15866757
  0
ARC
  8
LAYER_2
 10
-16.3086
 20
103.9537
 40
4.1237
 50
72.63849762
 51
82.05605233
  0
LINE
  8
LAYER_2
 10
-15.7387
 20
108.0378
 11
-16.2811
 21
108.0833
  0
ENDBLK
  0
BLOCK
  8
LAYER_2
  2
AIGNBL0201001A
 70
64
 10
0
 20
0
 30
0
  3
AIGNBL0201001A
  0
LINE
  8
LAYER_2
 10
-16.2804
 20
106.2764
 11
-15.8731
 21
106.2313
  0
ARC
  8
LAYER_2
 10
-16.6604
 20
102.366
 40
3.9446
 50
65.2355545
 51
78.48766243
  0
LINE
  8
LAYER_2
 10
-15.008
 20
105.9479
 11
-14.1536
 21
105.5629
  0
LINE
  8
LAYER_2
 10
-14.1536
 20
105.5629
 11
-13.5812
 21
105.3004
  0
LINE
  8
LAYER_2
 10
-13.5812
 20
105.3004
 11
-12.9673
 21
105.0552
  0
ARC
  8
LAYER_2
 10
-11.7661
 20
107.8283
 40
3.0221
 50
246.5794882
 51
259.733476
  0
LINE
  8
LAYER_2
 10
-12.3047
 20
104.8546
 11
-12.0034
 21
104.8249
  0
ENDBLK
  0
BLOCK
  8
LAYER_2
  2
AIGNBL0201001B
 70
64
 10
0
 20
0
 30
0
  3
AIGNBL0201001B
  0
ARC
  8
LAYER_2
 10
-34.8837
 20
113.7265
 40
0.9167
 50
89.99769974
 51
179.9960497
  0
ARC
  8
LAYER_2
 10
-34.8837
 20
113.7266
 40
0.9166
 50
0.002041522766
 51
89.99795847
  0
ARC
  8
LAYER_2
 10
-34.8837
 20
113.7265
 40
0.9166
 50
270.0023002
 51
0.003950391809
  0
ARC
  8
LAYER_2
 10
-34.8837
 20
113.7266
 40
0.9167
 50
179.9979586
 51
270.0020414
  0
ENDBLK
  0
BLOCK
  8
LAYER_2
  2
AIGNBL0201001C
 70
64
 10
0
 20
0
 30
0
  3
AIGNBL0201001C
  0
LINE
  8
LAYER_2
 10
-33.9833
 20
106.4553
 11
-34.1225
 21
106.4553
  0
ENDBLK
  0
BLOCK
  8
LAYER_2
  2
AIGNBL0201001D
 70
64
 10
0
 20
0
 30
0
  3
AIGNBL0201001D
  0
LINE
  8
LAYER_2
 10
-33.9833
 20
106.3327
 11
-33.9833
 21
106.4553
  0
ENDBLK
  0
BLOCK
  8
LAYER_2
  2
AIGNBL0201001E
 70
64
 10
0
 20
0
 30
0
  3
AIGNBL0201001E
  0
LINE
  8
LAYER_2
 10
-34.6376
 20
106.3327
 11
-33.9833
 21
106.3327
  0
ENDBLK
  0
BLOCK
  8
LAYER_2
  2
AIGNBL0201001F
 70
64
 10
0
 20
0
 30
0
  3
AIGNBL0201001F
  0
LINE
  8
LAYER_2
 10
-34.6376
 20
106.4553
 11
-34.6376
 21
106.3327
  0
ENDBLK
  0
BLOCK
  8
LAYER_2
  2
AIGNBL02010020
 70
64
 10
0
 20
0
 30
0
  3
AIGNBL02010020
  0
LINE
  8
LAYER_2
 10
-34.4994
 20
106.4553
 11
-34.6376
 21
106.4553
  0
ENDBLK
  0
BLOCK
  8
LAYER_2
  2
AIGNBL02010021
 70
64
 10
0
 20
0
 30
0
  3
AIGNBL02010021
  0
LINE
  8
LAYER_2
 10
-34.4337
 20
106.5208
 11
-34.4401
 21
106.4926
  0
LINE
  8
LAYER_2
 10
-34.4401
 20
106.4926
 11
-34.4573
 21
106.4705
  0
LINE
  8
LAYER_2
 10
-34.4573
 20
106.4705
 11
-34.4766
 21
106.4593
  0
LINE
  8
LAYER_2
 10
-34.4766
 20
106.4593
 11
-34.4994
 21
106.4553
  0
ENDBLK
  0
BLOCK
  8
LAYER_2
  2
AIGNBL02010022
 70
64
 10
0
 20
0
 30
0
  3
AIGNBL02010022
  0
LINE
  8
LAYER_2
 10
-34.4337
 20
107.1924
 11
-34.4337
 21
106.5208
  0
ENDBLK
  0
BLOCK
  8
LAYER_2
  2
AIGNBL02010023
 70
64
 10
0
 20
0
 30
0
  3
AIGNBL02010023
  0
LINE
  8
LAYER_2
 10
-34.5451
 20
107.1924
 11
-34.4337
 21
107.1924
  0
ENDBLK
  0
BLOCK
  8
LAYER_2
  2
AIGNBL02010024
 70
64
 10
0
 20
0
 30
0
  3
AIGNBL02010024
  0
LINE
  8
LAYER_2
 10
-34.7123
 20
106.9872
 11
-34.7063
 21
107.0467
  0
LINE
  8
LAYER_2
 10
-34.7063
 20
107.0467
 11
-34.6902
 21
107.0946
  0
LINE
  8
LAYER_2
 10
-34.6902
 20
107.0946
 11
-34.6665
 21
107.1317
  0
LINE
  8
LAYER_2
 10
-34.6665
 20
107.1317
 11
-34.6378
 21
107.1591
  0
LINE
  8
LAYER_2
 10
-34.6378
 20
107.1591
 11
-34.5892
 21
107.1847
  0
LINE
  8
LAYER_2
 10
-34.5892
 20
107.1847
 11
-34.5451
 21
107.1924
  0
ENDBLK
  0
BLOCK
  8
LAYER_2
  2
AIGNBL02010025
 70
64
 10
0
 20
0
 30
0
  3
AIGNBL02010025
  0
LINE
  8
LAYER_2
 10
-34.7123
 20
106.947
 11
-34.7123
 21
106.9872
  0
ENDBLK
  0
BLOCK
  8
LAYER_2
  2
AIGNBL02010026
 70
64
 10
0
 20
0
 30
0
  3
AIGNBL02010026
  0
LINE
  8
LAYER_2
 10
-34.8427
 20
106.947
 11
-34.7123
 21
106.947
  0
ENDBLK
  0
BLOCK
  8
LAYER_2
  2
AIGNBL02010027
 70
64
 10
0
 20
0
 30
0
  3
AIGNBL02010027
  0
LINE
  8
LAYER_2
 10
-34.8427
 20
107.3147
 11
-34.8427
 21
106.947
  0
ENDBLK
  0
BLOCK
  8
LAYER_2
  2
AIGNBL02010028
 70
64
 10
0
 20
0
 30
0
  3
AIGNBL02010028
  0
LINE
  8
LAYER_2
 10
-33.7786
 20
107.3147
 11
-34.8427
 21
107.3147
  0
ENDBLK
  0
BLOCK
  8
LAYER_2
  2
AIGNBL02010029
 70
64
 10
0
 20
0
 30
0
  3
AIGNBL02010029
  0
LINE
  8
LAYER_2
 10
-33.7786
 20
106.947
 11
-33.7786
 21
107.3147
  0
ENDBLK
  0
BLOCK
  8
LAYER_2
  2
AIGNBL0201002A
 70
64
 10
0
 20
0
 30
0
  3
AIGNBL0201002A
  0
LINE
  8
LAYER_2
 10
-33.9093
 20
106.947
 11
-33.7786
 21
106.947
  0
ENDBLK
  0
BLOCK
  8
LAYER_2
  2
AIGNBL0201002B
 70
64
 10
0
 20
0
 30
0
  3
AIGNBL0201002B
  0
LINE
  8
LAYER_2
 10
-33.9093
 20
106.9872
 11
-33.9093
 21
106.947
  0
ENDBLK
  0
BLOCK
  8
LAYER_2
  2
AIGNBL0201002C
 70
64
 10
0
 20
0
 30
0
  3
AIGNBL0201002C
  0
LINE
  8
LAYER_2
 10
-34.0763
 20
107.1924
 11
-34.0392
 21
107.1869
  0
LINE
  8
LAYER_2
 10
-34.0392
 20
107.1869
 11
-33.9979
 21
107.1689
  0
LINE
  8
LAYER_2
 10
-33.9979
 20
107.1689
 11
-33.9587
 21
107.1362
  0
LINE
  8
LAYER_2
 10
-33.9587
 20
107.1362
 11
-33.9332
 21
107.0985
  0
LINE
  8
LAYER_2
 10
-33.9332
 20
107.0985
 11
-33.9158
 21
107.0493
  0
LINE
  8
LAYER_2
 10
-33.9158
 20
107.0493
 11
-33.9093
 21
106.9872
  0
ENDBLK
  0
BLOCK
  8
LAYER_2
  2
AIGNBL0201002D
 70
64
 10
0
 20
0
 30
0
  3
AIGNBL0201002D
  0
LINE
  8
LAYER_2
 10
-34.1875
 20
107.1924
 11
-34.0763
 21
107.1924
  0
ENDBLK
  0
BLOCK
  8
LAYER_2
  2
AIGNBL0201002E
 70
64
 10
0
 20
0
 30
0
  3
AIGNBL0201002E
  0
LINE
  8
LAYER_2
 10
-34.1875
 20
106.5208
 11
-34.1875
 21
107.1924
  0
ENDBLK
  0
BLOCK
  8
LAYER_2
  2
AIGNBL0201002F
 70
64
 10
0
 20
0
 30
0
  3
AIGNBL0201002F
  0
LINE
  8
LAYER_2
 10
-34.1225
 20
106.4553
 11
-34.1505
 21
106.4617
  0
LINE
  8
LAYER_2
 10
-34.1505
 20
106.4617
 11
-34.1724
 21
106.479
  0
LINE
  8
LAYER_2
 10
-34.1724
 20
106.479
 11
-34.1835
 21
106.4982
  0
LINE
  8
LAYER_2
 10
-34.1835
 20
106.4982
 11
-34.1875
 21
106.5208
  0
ENDBLK
  0
BLOCK
  8
LAYER_2
  2
AIGNBL02010030
 70
64
 10
0
 20
0
 30
0
  3
AIGNBL02010030
  0
LINE
  8
LAYER_2
 10
-33.4174
 20
106.8369
 11
-33.4174
 21
106.8114
  0
ENDBLK
  0
BLOCK
  8
LAYER_2
  2
AIGNBL02010031
 70
64
 10
0
 20
0
 30
0
  3
AIGNBL02010031
  0
LINE
  8
LAYER_2
 10
-33.4174
 20
106.8114
 11
-33.3881
 21
106.6159
  0
LINE
  8
LAYER_2
 10
-33.3881
 20
106.6159
 11
-33.3349
 21
106.5208
  0
ENDBLK
  0
BLOCK
  8
LAYER_2
  2
AIGNBL02010032
 70
64
 10
0
 20
0
 30
0
  3
AIGNBL02010032
  0
LINE
  8
LAYER_2
 10
-33.3349
 20
106.5208
 11
-33.2621
 21
106.4593
  0
LINE
  8
LAYER_2
 10
-33.2621
 20
106.4593
 11
-33.1915
 21
106.4312
  0
LINE
  8
LAYER_2
 10
-33.1915
 20
106.4312
 11
-33.1227
 21
106.4231
  0
ENDBLK
  0
BLOCK
  8
LAYER_2
  2
AIGNBL02010033
 70
64
 10
0
 20
0
 30
0
  3
AIGNBL02010033
  0
LINE
  8
LAYER_2
 10
-33.1227
 20
106.4231
 11
-33.0869
 21
106.4251
  0
LINE
  8
LAYER_2
 10
-33.0869
 20
106.4251
 11
-33.0248
 21
106.44
  0
LINE
  8
LAYER_2
 10
-33.0248
 20
106.44
 11
-32.9674
 21
106.4692
  0
LINE
  8
LAYER_2
 10
-32.9674
 20
106.4692
 11
-32.9103
 21
106.5208
  0
ENDBLK
  0
BLOCK
  8
LAYER_2
  2
AIGNBL02010034
 70
64
 10
0
 20
0
 30
0
  3
AIGNBL02010034
  0
LINE
  8
LAYER_2
 10
-32.9103
 20
106.5208
 11
-32.8746
 21
106.5759
  0
LINE
  8
LAYER_2
 10
-32.8746
 20
106.5759
 11
-32.847
 21
106.6502
  0
LINE
  8
LAYER_2
 10
-32.847
 20
106.6502
 11
-32.8283
 21
106.8114
  0
ENDBLK
  0
BLOCK
  8
LAYER_2
  2
AIGNBL02010035
 70
64
 10
0
 20
0
 30
0
  3
AIGNBL02010035
  0
LINE
  8
LAYER_2
 10
-32.8283
 20
106.8369
 11
-32.8576
 21
107.0326
  0
LINE
  8
LAYER_2
 10
-32.8576
 20
107.0326
 11
-32.9103
 21
107.128
  0
ENDBLK
  0
BLOCK
  8
LAYER_2
  2
AIGNBL02010036
 70
64
 10
0
 20
0
 30
0
  3
AIGNBL02010036
  0
LINE
  8
LAYER_2
 10
-32.9103
 20
107.128
 11
-32.9832
 21
107.1891
  0
LINE
  8
LAYER_2
 10
-32.9832
 20
107.1891
 11
-33.0533
 21
107.217
  0
LINE
  8
LAYER_2
 10
-33.0533
 20
107.217
 11
-33.1227
 21
107.2251
  0
ENDBLK
  0
BLOCK
  8
LAYER_2
  2
AIGNBL02010037
 70
64
 10
0
 20
0
 30
0
  3
AIGNBL02010037
  0
LINE
  8
LAYER_2
 10
-33.1227
 20
107.2251
 11
-33.1582
 21
107.2231
  0
LINE
  8
LAYER_2
 10
-33.1582
 20
107.2231
 11
-33.2205
 21
107.2083
  0
LINE
  8
LAYER_2
 10
-33.2205
 20
107.2083
 11
-33.2781
 21
107.1792
  0
LINE
  8
LAYER_2
 10
-33.2781
 20
107.1792
 11
-33.3349
 21
107.128
  0
ENDBLK
  0
BLOCK
  8
LAYER_2
  2
AIGNBL02010038
 70
64
 10
0
 20
0
 30
0
  3
AIGNBL02010038
  0
LINE
  8
LAYER_2
 10
-33.3349
 20
107.128
 11
-33.371
 21
107.0728
  0
LINE
  8
LAYER_2
 10
-33.371
 20
107.0728
 11
-33.3987
 21
106.9982
  0
LINE
  8
LAYER_2
 10
-33.3987
 20
106.9982
 11
-33.4174
 21
106.8369
  0
ENDBLK
  0
BLOCK
  8
LAYER_2
  2
AIGNBL02010039
 70
64
 10
0
 20
0
 30
0
  3
AIGNBL02010039
  0
LINE
  8
LAYER_2
 10
-32.5504
 20
106.7953
 11
-32.5504
 21
106.8527
  0
ENDBLK
  0
BLOCK
  8
LAYER_2
  2
AIGNBL0201003A
 70
64
 10
0
 20
0
 30
0
  3
AIGNBL0201003A
  0
LINE
  8
LAYER_2
 10
-32.7219
 20
106.4224
 11
-32.5879
 21
106.6071
  0
LINE
  8
LAYER_2
 10
-32.5879
 20
106.6071
 11
-32.5504
 21
106.7953
  0
ENDBLK
  0
BLOCK
  8
LAYER_2
  2
AIGNBL0201003B
 70
64
 10
0
 20
0
 30
0
  3
AIGNBL0201003B
  0
LINE
  8
LAYER_2
 10
-33.1232
 20
106.2927
 11
-32.8787
 21
106.3336
  0
LINE
  8
LAYER_2
 10
-32.8787
 20
106.3336
 11
-32.7219
 21
106.4224
  0
ENDBLK
  0
BLOCK
  8
LAYER_2
  2
AIGNBL0201003C
 70
64
 10
0
 20
0
 30
0
  3
AIGNBL0201003C
  0
LINE
  8
LAYER_2
 10
-33.5239
 20
106.4224
 11
-33.3184
 21
106.3179
  0
LINE
  8
LAYER_2
 10
-33.3184
 20
106.3179
 11
-33.1232
 21
106.2927
  0
ENDBLK
  0
BLOCK
  8
LAYER_2
  2
AIGNBL0201003D
 70
64
 10
0
 20
0
 30
0
  3
AIGNBL0201003D
  0
LINE
  8
LAYER_2
 10
-33.6962
 20
106.7953
 11
-33.6806
 21
106.6722
  0
LINE
  8
LAYER_2
 10
-33.6806
 20
106.6722
 11
-33.6369
 21
106.5615
  0
LINE
  8
LAYER_2
 10
-33.6369
 20
106.5615
 11
-33.5239
 21
106.4224
  0
ENDBLK
  0
BLOCK
  8
LAYER_2
  2
AIGNBL0201003E
 70
64
 10
0
 20
0
 30
0
  3
AIGNBL0201003E
  0
LINE
  8
LAYER_2
 10
-33.6962
 20
106.8527
 11
-33.6962
 21
106.7953
  0
ENDBLK
  0
BLOCK
  8
LAYER_2
  2
AIGNBL0201003F
 70
64
 10
0
 20
0
 30
0
  3
AIGNBL0201003F
  0
ARC
  8
LAYER_2
 10
-33.2047
 20
106.8508
 40
0.4923
 50
130.4170373
 51
157.2478972
  0
LINE
  8
LAYER_2
 10
-33.6587
 20
107.0412
 11
-33.6962
 21
106.8527
  0
ENDBLK
  0
BLOCK
  8
LAYER_2
  2
AIGNBL02010040
 70
64
 10
0
 20
0
 30
0
  3
AIGNBL02010040
  0
LINE
  8
LAYER_2
 10
-33.1232
 20
107.3559
 11
-33.3674
 21
107.315
  0
LINE
  8
LAYER_2
 10
-33.3674
 20
107.315
 11
-33.5239
 21
107.2256
  0
ENDBLK
  0
BLOCK
  8
LAYER_2
  2
AIGNBL02010041
 70
64
 10
0
 20
0
 30
0
  3
AIGNBL02010041
  0
LINE
  8
LAYER_2
 10
-32.7219
 20
107.2256
 11
-32.9277
 21
107.3307
  0
LINE
  8
LAYER_2
 10
-32.9277
 20
107.3307
 11
-33.1232
 21
107.3559
  0
ENDBLK
  0
BLOCK
  8
LAYER_2
  2
AIGNBL02010042
 70
64
 10
0
 20
0
 30
0
  3
AIGNBL02010042
  0
LINE
  8
LAYER_2
 10
-32.5504
 20
106.8527
 11
-32.5661
 21
106.9762
  0
LINE
  8
LAYER_2
 10
-32.5661
 20
106.9762
 11
-32.6097
 21
107.0868
  0
LINE
  8
LAYER_2
 10
-32.6097
 20
107.0868
 11
-32.7219
 21
107.2256
  0
ENDBLK
  0
BLOCK
  8
LAYER_2
  2
AIGNBL02010043
 70
64
 10
0
 20
0
 30
0
  3
AIGNBL02010043
  0
LINE
  8
LAYER_2
 10
-32.8283
 20
106.8114
 11
-32.8283
 21
106.8369
  0
ENDBLK
  0
BLOCK
  8
LAYER_2
  2
AIGNBL02010044
 70
64
 10
0
 20
0
 30
0
  3
AIGNBL02010044
  0
LINE
  8
LAYER_2
 10
-36.2832
 20
106.947
 11
-36.1525
 21
106.947
  0
ENDBLK
  0
BLOCK
  8
LAYER_2
  2
AIGNBL02010045
 70
64
 10
0
 20
0
 30
0
  3
AIGNBL02010045
  0
LINE
  8
LAYER_2
 10
-36.2832
 20
106.9872
 11
-36.2832
 21
106.947
  0
ENDBLK
  0
BLOCK
  8
LAYER_2
  2
AIGNBL02010046
 70
64
 10
0
 20
0
 30
0
  3
AIGNBL02010046
  0
LINE
  8
LAYER_2
 10
-36.4504
 20
107.1924
 11
-36.4134
 21
107.1869
  0
LINE
  8
LAYER_2
 10
-36.4134
 20
107.1869
 11
-36.3721
 21
107.1689
  0
LINE
  8
LAYER_2
 10
-36.3721
 20
107.1689
 11
-36.3327
 21
107.1362
  0
LINE
  8
LAYER_2
 10
-36.3327
 20
107.1362
 11
-36.3072
 21
107.0985
  0
LINE
  8
LAYER_2
 10
-36.3072
 20
107.0985
 11
-36.2897
 21
107.0493
  0
LINE
  8
LAYER_2
 10
-36.2897
 20
107.0493
 11
-36.2832
 21
106.9872
  0
ENDBLK
  0
BLOCK
  8
LAYER_2
  2
AIGNBL02010047
 70
64
 10
0
 20
0
 30
0
  3
AIGNBL02010047
  0
LINE
  8
LAYER_2
 10
-36.5618
 20
107.1924
 11
-36.4504
 21
107.1924
  0
ENDBLK
  0
BLOCK
  8
LAYER_2
  2
AIGNBL02010048
 70
64
 10
0
 20
0
 30
0
  3
AIGNBL02010048
  0
LINE
  8
LAYER_2
 10
-36.4964
 20
106.4553
 11
-36.5246
 21
106.4617
  0
LINE
  8
LAYER_2
 10
-36.5246
 20
106.4617
 11
-36.5467
 21
106.479
  0
LINE
  8
LAYER_2
 10
-36.5467
 20
106.479
 11
-36.5578
 21
106.4982
  0
LINE
  8
LAYER_2
 10
-36.5578
 20
106.4982
 11
-36.5618
 21
106.5208
  0
ENDBLK
  0
BLOCK
  8
LAYER_2
  2
AIGNBL02010049
 70
64
 10
0
 20
0
 30
0
  3
AIGNBL02010049
  0
LINE
  8
LAYER_2
 10
-36.3574
 20
106.4553
 11
-36.4964
 21
106.4553
  0
ENDBLK
  0
BLOCK
  8
LAYER_2
  2
AIGNBL0201004A
 70
64
 10
0
 20
0
 30
0
  3
AIGNBL0201004A
  0
LINE
  8
LAYER_2
 10
-36.3574
 20
106.3327
 11
-36.3574
 21
106.4553
  0
ENDBLK
  0
BLOCK
  8
LAYER_2
  2
AIGNBL0201004B
 70
64
 10
0
 20
0
 30
0
  3
AIGNBL0201004B
  0
LINE
  8
LAYER_2
 10
-37.0124
 20
106.3327
 11
-36.3574
 21
106.3327
  0
ENDBLK
  0
BLOCK
  8
LAYER_2
  2
AIGNBL0201004C
 70
64
 10
0
 20
0
 30
0
  3
AIGNBL0201004C
  0
LINE
  8
LAYER_2
 10
-37.0124
 20
106.4553
 11
-37.0124
 21
106.3327
  0
ENDBLK
  0
BLOCK
  8
LAYER_2
  2
AIGNBL0201004D
 70
64
 10
0
 20
0
 30
0
  3
AIGNBL0201004D
  0
LINE
  8
LAYER_2
 10
-36.8733
 20
106.4553
 11
-37.0124
 21
106.4553
  0
ENDBLK
  0
BLOCK
  8
LAYER_2
  2
AIGNBL0201004E
 70
64
 10
0
 20
0
 30
0
  3
AIGNBL0201004E
  0
LINE
  8
LAYER_2
 10
-36.8078
 20
106.5208
 11
-36.8143
 21
106.4926
  0
LINE
  8
LAYER_2
 10
-36.8143
 20
106.4926
 11
-36.8316
 21
106.4705
  0
LINE
  8
LAYER_2
 10
-36.8316
 20
106.4705
 11
-36.8508
 21
106.4593
  0
LINE
  8
LAYER_2
 10
-36.8508
 20
106.4593
 11
-36.8733
 21
106.4553
  0
ENDBLK
  0
BLOCK
  8
LAYER_2
  2
AIGNBL0201004F
 70
64
 10
0
 20
0
 30
0
  3
AIGNBL0201004F
  0
LINE
  8
LAYER_2
 10
-36.8078
 20
107.1924
 11
-36.8078
 21
106.5208
  0
ENDBLK
  0
BLOCK
  8
LAYER_2
  2
AIGNBL02010050
 70
64
 10
0
 20
0
 30
0
  3
AIGNBL02010050
  0
LINE
  8
LAYER_2
 10
-36.9194
 20
107.1924
 11
-36.8078
 21
107.1924
  0
ENDBLK
  0
BLOCK
  8
LAYER_2
  2
AIGNBL02010051
 70
64
 10
0
 20
0
 30
0
  3
AIGNBL02010051
  0
LINE
  8
LAYER_2
 10
-37.0862
 20
106.9872
 11
-37.0802
 21
107.0467
  0
LINE
  8
LAYER_2
 10
-37.0802
 20
107.0467
 11
-37.0642
 21
107.0946
  0
LINE
  8
LAYER_2
 10
-37.0642
 20
107.0946
 11
-37.0405
 21
107.1317
  0
LINE
  8
LAYER_2
 10
-37.0405
 20
107.1317
 11
-37.012
 21
107.1591
  0
LINE
  8
LAYER_2
 10
-37.012
 20
107.1591
 11
-36.9635
 21
107.1847
  0
LINE
  8
LAYER_2
 10
-36.9635
 20
107.1847
 11
-36.9194
 21
107.1924
  0
ENDBLK
  0
BLOCK
  8
LAYER_2
  2
AIGNBL02010052
 70
64
 10
0
 20
0
 30
0
  3
AIGNBL02010052
  0
LINE
  8
LAYER_2
 10
-37.0862
 20
106.947
 11
-37.0862
 21
106.9872
  0
ENDBLK
  0
BLOCK
  8
LAYER_2
  2
AIGNBL02010053
 70
64
 10
0
 20
0
 30
0
  3
AIGNBL02010053
  0
LINE
  8
LAYER_2
 10
-37.2171
 20
106.947
 11
-37.0862
 21
106.947
  0
ENDBLK
  0
BLOCK
  8
LAYER_2
  2
AIGNBL02010054
 70
64
 10
0
 20
0
 30
0
  3
AIGNBL02010054
  0
LINE
  8
LAYER_2
 10
-37.2171
 20
107.3147
 11
-37.2171
 21
106.947
  0
ENDBLK
  0
BLOCK
  8
LAYER_2
  2
AIGNBL02010055
 70
64
 10
0
 20
0
 30
0
  3
AIGNBL02010055
  0
LINE
  8
LAYER_2
 10
-36.1525
 20
107.3147
 11
-37.2171
 21
107.3147
  0
ENDBLK
  0
BLOCK
  8
LAYER_2
  2
AIGNBL02010056
 70
64
 10
0
 20
0
 30
0
  3
AIGNBL02010056
  0
LINE
  8
LAYER_2
 10
-36.1525
 20
106.947
 11
-36.1525
 21
107.3147
  0
ENDBLK
  0
BLOCK
  8
LAYER_2
  2
AIGNBL02010057
 70
64
 10
0
 20
0
 30
0
  3
AIGNBL02010057
  0
LINE
  8
LAYER_2
 10
-36.5618
 20
106.5208
 11
-36.5618
 21
107.1924
  0
ENDBLK
  0
BLOCK
  8
LAYER_2
  2
AIGNBL02010058
 70
64
 10
0
 20
0
 30
0
  3
AIGNBL02010058
  0
LINE
  8
LAYER_2
 10
-35.0958
 20
107.2256
 11
-35.302
 21
107.3307
  0
LINE
  8
LAYER_2
 10
-35.302
 20
107.3307
 11
-35.4971
 21
107.3559
  0
ENDBLK
  0
BLOCK
  8
LAYER_2
  2
AIGNBL02010059
 70
64
 10
0
 20
0
 30
0
  3
AIGNBL02010059
  0
LINE
  8
LAYER_2
 10
-34.9245
 20
106.8527
 11
-34.9401
 21
106.9762
  0
LINE
  8
LAYER_2
 10
-34.9401
 20
106.9762
 11
-34.9837
 21
107.0868
  0
LINE
  8
LAYER_2
 10
-34.9837
 20
107.0868
 11
-35.0958
 21
107.2256
  0
ENDBLK
  0
BLOCK
  8
LAYER_2
  2
AIGNBL0201005A
 70
64
 10
0
 20
0
 30
0
  3
AIGNBL0201005A
  0
LINE
  8
LAYER_2
 10
-35.4971
 20
107.2251
 11
-35.5327
 21
107.2231
  0
LINE
  8
LAYER_2
 10
-35.5327
 20
107.2231
 11
-35.595
 21
107.2083
  0
LINE
  8
LAYER_2
 10
-35.595
 20
107.2083
 11
-35.6525
 21
107.1792
  0
LINE
  8
LAYER_2
 10
-35.6525
 20
107.1792
 11
-35.7093
 21
107.128
  0
ENDBLK
  0
BLOCK
  8
LAYER_2
  2
AIGNBL0201005B
 70
64
 10
0
 20
0
 30
0
  3
AIGNBL0201005B
  0
LINE
  8
LAYER_2
 10
-35.2844
 20
107.128
 11
-35.3574
 21
107.1891
  0
LINE
  8
LAYER_2
 10
-35.3574
 20
107.1891
 11
-35.4276
 21
107.217
  0
LINE
  8
LAYER_2
 10
-35.4276
 20
107.217
 11
-35.4971
 21
107.2251
  0
ENDBLK
  0
BLOCK
  8
LAYER_2
  2
AIGNBL0201005C
 70
64
 10
0
 20
0
 30
0
  3
AIGNBL0201005C
  0
LINE
  8
LAYER_2
 10
-35.2026
 20
106.8369
 11
-35.2319
 21
107.0326
  0
LINE
  8
LAYER_2
 10
-35.2319
 20
107.0326
 11
-35.2844
 21
107.128
  0
ENDBLK
  0
BLOCK
  8
LAYER_2
  2
AIGNBL0201005D
 70
64
 10
0
 20
0
 30
0
  3
AIGNBL0201005D
  0
LINE
  8
LAYER_2
 10
-35.2026
 20
106.8114
 11
-35.2026
 21
106.8369
  0
ENDBLK
  0
BLOCK
  8
LAYER_2
  2
AIGNBL0201005E
 70
64
 10
0
 20
0
 30
0
  3
AIGNBL0201005E
  0
LINE
  8
LAYER_2
 10
-35.2844
 20
106.5208
 11
-35.2488
 21
106.5759
  0
LINE
  8
LAYER_2
 10
-35.2488
 20
106.5759
 11
-35.2213
 21
106.6502
  0
LINE
  8
LAYER_2
 10
-35.2213
 20
106.6502
 11
-35.2026
 21
106.8114
  0
ENDBLK
  0
BLOCK
  8
LAYER_2
  2
AIGNBL0201005F
 70
64
 10
0
 20
0
 30
0
  3
AIGNBL0201005F
  0
LINE
  8
LAYER_2
 10
-35.4971
 20
106.4231
 11
-35.4612
 21
106.4251
  0
LINE
  8
LAYER_2
 10
-35.4612
 20
106.4251
 11
-35.3991
 21
106.44
  0
LINE
  8
LAYER_2
 10
-35.3991
 20
106.44
 11
-35.3416
 21
106.4692
  0
LINE
  8
LAYER_2
 10
-35.3416
 20
106.4692
 11
-35.2844
 21
106.5208
  0
ENDBLK
  0
BLOCK
  8
LAYER_2
  2
AIGNBL02010060
 70
64
 10
0
 20
0
 30
0
  3
AIGNBL02010060
  0
LINE
  8
LAYER_2
 10
-35.7093
 20
106.5208
 11
-35.6366
 21
106.4593
  0
LINE
  8
LAYER_2
 10
-35.6366
 20
106.4593
 11
-35.566
 21
106.4312
  0
LINE
  8
LAYER_2
 10
-35.566
 20
106.4312
 11
-35.4971
 21
106.4231
  0
ENDBLK
  0
BLOCK
  8
LAYER_2
  2
AIGNBL02010061
 70
64
 10
0
 20
0
 30
0
  3
AIGNBL02010061
  0
LINE
  8
LAYER_2
 10
-35.7917
 20
106.8114
 11
-35.7623
 21
106.6159
  0
LINE
  8
LAYER_2
 10
-35.7623
 20
106.6159
 11
-35.7093
 21
106.5208
  0
ENDBLK
  0
BLOCK
  8
LAYER_2
  2
AIGNBL02010062
 70
64
 10
0
 20
0
 30
0
  3
AIGNBL02010062
  0
LINE
  8
LAYER_2
 10
-35.7917
 20
106.8369
 11
-35.7917
 21
106.8114
  0
ENDBLK
  0
BLOCK
  8
LAYER_2
  2
AIGNBL02010063
 70
64
 10
0
 20
0
 30
0
  3
AIGNBL02010063
  0
LINE
  8
LAYER_2
 10
-35.7093
 20
107.128
 11
-35.7453
 21
107.0728
  0
LINE
  8
LAYER_2
 10
-35.7453
 20
107.0728
 11
-35.773
 21
106.9982
  0
LINE
  8
LAYER_2
 10
-35.773
 20
106.9982
 11
-35.7917
 21
106.8369
  0
ENDBLK
  0
BLOCK
  8
LAYER_2
  2
AIGNBL02010064
 70
64
 10
0
 20
0
 30
0
  3
AIGNBL02010064
  0
LINE
  8
LAYER_2
 10
-34.9245
 20
106.7953
 11
-34.9245
 21
106.8527
  0
ENDBLK
  0
BLOCK
  8
LAYER_2
  2
AIGNBL02010065
 70
64
 10
0
 20
0
 30
0
  3
AIGNBL02010065
  0
LINE
  8
LAYER_2
 10
-35.0958
 20
106.4224
 11
-34.9619
 21
106.6071
  0
LINE
  8
LAYER_2
 10
-34.9619
 20
106.6071
 11
-34.9245
 21
106.7953
  0
ENDBLK
  0
BLOCK
  8
LAYER_2
  2
AIGNBL02010066
 70
64
 10
0
 20
0
 30
0
  3
AIGNBL02010066
  0
LINE
  8
LAYER_2
 10
-35.4971
 20
106.2927
 11
-35.253
 21
106.3336
  0
LINE
  8
LAYER_2
 10
-35.253
 20
106.3336
 11
-35.0958
 21
106.4224
  0
ENDBLK
  0
BLOCK
  8
LAYER_2
  2
AIGNBL02010067
 70
64
 10
0
 20
0
 30
0
  3
AIGNBL02010067
  0
LINE
  8
LAYER_2
 10
-35.8981
 20
106.4224
 11
-35.6926
 21
106.3179
  0
LINE
  8
LAYER_2
 10
-35.6926
 20
106.3179
 11
-35.4971
 21
106.2927
  0
ENDBLK
  0
BLOCK
  8
LAYER_2
  2
AIGNBL02010068
 70
64
 10
0
 20
0
 30
0
  3
AIGNBL02010068
  0
LINE
  8
LAYER_2
 10
-36.0708
 20
106.7953
 11
-36.0551
 21
106.6722
  0
LINE
  8
LAYER_2
 10
-36.0551
 20
106.6722
 11
-36.0113
 21
106.5615
  0
LINE
  8
LAYER_2
 10
-36.0113
 20
106.5615
 11
-35.8981
 21
106.4224
  0
ENDBLK
  0
BLOCK
  8
LAYER_2
  2
AIGNBL02010069
 70
64
 10
0
 20
0
 30
0
  3
AIGNBL02010069
  0
LINE
  8
LAYER_2
 10
-36.0708
 20
106.8527
 11
-36.0708
 21
106.7953
  0
ENDBLK
  0
BLOCK
  8
LAYER_2
  2
AIGNBL0201006A
 70
64
 10
0
 20
0
 30
0
  3
AIGNBL0201006A
  0
ARC
  8
LAYER_2
 10
-35.5811
 20
106.8519
 40
0.49
 50
130.3076352
 51
157.276341
  0
LINE
  8
LAYER_2
 10
-36.0331
 20
107.0412
 11
-36.0708
 21
106.8527
  0
ENDBLK
  0
BLOCK
  8
LAYER_2
  2
AIGNBL0201006B
 70
64
 10
0
 20
0
 30
0
  3
AIGNBL0201006B
  0
LINE
  8
LAYER_2
 10
-35.4971
 20
107.3559
 11
-35.7416
 21
107.315
  0
LINE
  8
LAYER_2
 10
-35.7416
 20
107.315
 11
-35.8981
 21
107.2256
  0
ENDBLK
  0
BLOCK
  8
LAYER_2
  2
AIGNBL0201006C
 70
64
 10
0
 20
0
 30
0
  3
AIGNBL0201006C
  0
ARC
  8
LAYER_2
 10
-34.8837
 20
113.7266
 40
1.15
 50
90.00065769
 51
179.9993423
  0
ARC
  8
LAYER_2
 10
-34.8837
 20
113.7266
 40
1.15
 50
0.001627194636
 51
89.99837279
  0
ARC
  8
LAYER_2
 10
-34.8837
 20
113.7266
 40
1.15
 50
269.9993424
 51
0.000657603637
  0
ARC
  8
LAYER_2
 10
-34.8837
 20
113.7266
 40
1.15
 50
179.9983727
 51
270.0016273
  0
ENDBLK
  0
BLOCK
  8
LAYER_2
  2
AIGNBL0201006D
 70
64
 10
0
 20
0
 30
0
  3
AIGNBL0201006D
  0
ARC
  8
LAYER_2
 10
-42.8443
 20
191.8577
 40
50.385
 50
267.3028556
 51
270.8322602
  0
ARC
  8
LAYER_2
 10
-41.0462
 20
163.3061
 40
21.8541
 50
267.203521
 51
274.7962324
  0
ENDBLK
  0
BLOCK
  8
LAYER_2
  2
AIGNBL0201006E
 70
64
 10
0
 20
0
 30
0
  3
AIGNBL0201006E
  0
LINE
  8
LAYER_2
 10
-39.2189
 20
141.5285
 11
-38.9005
 21
141.6876
  0
ENDBLK
  0
BLOCK
  8
LAYER_2
  2
AIGNBL0201006F
 70
64
 10
0
 20
0
 30
0
  3
AIGNBL0201006F
  0
LINE
  8
LAYER_2
 10
-38.5674
 20
141.6932
 11
-38.9005
 21
141.6876
  0
ENDBLK
  0
BLOCK
  8
LAYER_2
  2
AIGNBL02010070
 70
64
 10
0
 20
0
 30
0
  3
AIGNBL02010070
  0
LINE
  8
LAYER_2
 10
-16.717
 20
141.6932
 11
-38.5674
 21
141.6932
  0
ENDBLK
  0
BLOCK
  8
LAYER_2
  2
AIGNBL02010071
 70
64
 10
0
 20
0
 30
0
  3
AIGNBL02010071
  0
LINE
  8
LAYER_2
 10
-45.8667
 20
141.6932
 11
-53.0505
 21
141.6932
  0
ENDBLK
  0
BLOCK
  8
LAYER_2
  2
AIGNBL02010072
 70
64
 10
0
 20
0
 30
0
  3
AIGNBL02010072
  0
LINE
  8
LAYER_2
 10
-45.5336
 20
141.6876
 11
-45.8667
 21
141.6932
  0
ENDBLK
  0
BLOCK
  8
LAYER_2
  2
AIGNBL02010073
 70
64
 10
0
 20
0
 30
0
  3
AIGNBL02010073
  0
LINE
  8
LAYER_2
 10
-45.5336
 20
141.6876
 11
-45.2152
 21
141.5285
  0
ENDBLK
  0
BLOCK
  8
LAYER_2
  2
AIGNBL02010074
 70
64
 10
0
 20
0
 30
0
  3
AIGNBL02010074
  0
LINE
  8
LAYER_2
 10
-37.3594
 20
103.0266
 11
-16.717
 21
103.0266
  0
ENDBLK
  0
BLOCK
  8
LAYER_2
  2
AIGNBL02010075
 70
64
 10
0
 20
0
 30
0
  3
AIGNBL02010075
  0
LINE
  8
LAYER_2
 10
-37.6926
 20
103.0322
 11
-37.3594
 21
103.0266
  0
ENDBLK
  0
BLOCK
  8
LAYER_2
  2
AIGNBL02010076
 70
64
 10
0
 20
0
 30
0
  3
AIGNBL02010076
  0
LINE
  8
LAYER_2
 10
-37.6926
 20
103.0322
 11
-38.4109
 21
103.3912
  0
ENDBLK
  0
BLOCK
  8
LAYER_2
  2
AIGNBL02010077
 70
64
 10
0
 20
0
 30
0
  3
AIGNBL02010077
  0
ARC
  8
LAYER_2
 10
-39.9999
 20
58.5834
 40
44.836
 50
87.96902039
 51
90.097912
  0
ENDBLK
  0
BLOCK
  8
LAYER_2
  2
AIGNBL02010078
 70
64
 10
0
 20
0
 30
0
  3
AIGNBL02010078
  0
LINE
  8
LAYER_2
 10
-40.0765
 20
103.4193
 11
-44.3576
 21
103.4193
  0
ENDBLK
  0
BLOCK
  8
LAYER_2
  2
AIGNBL02010079
 70
64
 10
0
 20
0
 30
0
  3
AIGNBL02010079
  0
ARC
  8
LAYER_2
 10
-45.1281
 20
99.7119
 40
3.7866
 50
78.25958961
 51
103.6734779
  0
ENDBLK
  0
BLOCK
  8
LAYER_2
  2
AIGNBL0201007A
 70
64
 10
0
 20
0
 30
0
  3
AIGNBL0201007A
  0
LINE
  8
LAYER_2
 10
-46.0232
 20
103.3912
 11
-46.7415
 21
103.0322
  0
ENDBLK
  0
BLOCK
  8
LAYER_2
  2
AIGNBL0201007B
 70
64
 10
0
 20
0
 30
0
  3
AIGNBL0201007B
  0
LINE
  8
LAYER_2
 10
-47.0747
 20
103.0266
 11
-46.7415
 21
103.0322
  0
ENDBLK
  0
BLOCK
  8
LAYER_2
  2
AIGNBL0201007C
 70
64
 10
0
 20
0
 30
0
  3
AIGNBL0201007C
  0
LINE
  8
LAYER_2
 10
-53.0505
 20
103.0266
 11
-47.0747
 21
103.0266
  0
ENDBLK
  0
BLOCK
  8
LAYER_2
  2
AIGNBL0201007D
 70
64
 10
0
 20
0
 30
0
  3
AIGNBL0201007D
  0
ARC
  8
LAYER_2
 10
-16.717
 20
141.1933
 40
0.4999
 50
359.9988351
 51
90.00116494
  0
ENDBLK
  0
BLOCK
  8
LAYER_2
  2
AIGNBL0201007E
 70
64
 10
0
 20
0
 30
0
  3
AIGNBL0201007E
  0
ARC
  8
LAYER_2
 10
-53.0505
 20
103.5265
 40
0.4999
 50
180.0009
 51
269.9991001
  0
ENDBLK
  0
BLOCK
  8
LAYER_2
  2
AIGNBL0201007F
 70
64
 10
0
 20
0
 30
0
  3
AIGNBL0201007F
  0
ARC
  8
LAYER_2
 10
-53.0505
 20
141.1933
 40
0.4999
 50
90.00233526
 51
179.9976647
  0
ENDBLK
  0
BLOCK
  8
LAYER_2
  2
AIGNBL02010080
 70
64
 10
0
 20
0
 30
0
  3
AIGNBL02010080
  0
ARC
  8
LAYER_2
 10
-16.717
 20
103.5265
 40
0.4999
 50
269.9973994
 51
0.00260062234
  0
ENDBLK
  0
BLOCK
  8
LAYER_2
  2
AIGNBL02010081
 70
64
 10
0
 20
0
 30
0
  3
AIGNBL02010081
  0
LINE
  8
LAYER_2
 10
-16.2753
 20
108.8016
 11
-16.2811
 21
108.4683
  0
ENDBLK
  0
BLOCK
  8
LAYER_2
  2
AIGNBL02010082
 70
64
 10
0
 20
0
 30
0
  3
AIGNBL02010082
  0
LINE
  8
LAYER_2
 10
-16.2811
 20
108.4683
 11
-16.2811
 21
106.4181
  0
ENDBLK
  0
BLOCK
  8
LAYER_2
  2
AIGNBL02010083
 70
64
 10
0
 20
0
 30
0
  3
AIGNBL02010083
  0
LINE
  8
LAYER_2
 10
-16.2811
 20
106.4181
 11
-16.2753
 21
106.0848
  0
ENDBLK
  0
BLOCK
  8
LAYER_2
  2
AIGNBL02010084
 70
64
 10
0
 20
0
 30
0
  3
AIGNBL02010084
  0
LINE
  8
LAYER_2
 10
-16.2753
 20
106.0848
 11
-16.2228
 21
106.0323
  0
ENDBLK
  0
BLOCK
  8
LAYER_2
  2
AIGNBL02010085
 70
64
 10
0
 20
0
 30
0
  3
AIGNBL02010085
  0
LINE
  8
LAYER_2
 10
-16.2171
 20
105.699
 11
-16.2228
 21
106.0323
  0
ENDBLK
  0
BLOCK
  8
LAYER_2
  2
AIGNBL02010086
 70
64
 10
0
 20
0
 30
0
  3
AIGNBL02010086
  0
LINE
  8
LAYER_2
 10
-16.2171
 20
103.5265
 11
-16.2171
 21
105.699
  0
ENDBLK
  0
BLOCK
  8
LAYER_2
  2
AIGNBL02010087
 70
64
 10
0
 20
0
 30
0
  3
AIGNBL02010087
  0
LINE
  8
LAYER_2
 10
-16.2171
 20
109.1875
 11
-16.2171
 21
141.1933
  0
ENDBLK
  0
BLOCK
  8
LAYER_2
  2
AIGNBL02010088
 70
64
 10
0
 20
0
 30
0
  3
AIGNBL02010088
  0
LINE
  8
LAYER_2
 10
-16.2228
 20
108.8542
 11
-16.2171
 21
109.1875
  0
ENDBLK
  0
BLOCK
  8
LAYER_2
  2
AIGNBL02010089
 70
64
 10
0
 20
0
 30
0
  3
AIGNBL02010089
  0
LINE
  8
LAYER_2
 10
-16.2228
 20
108.8542
 11
-16.2753
 21
108.8016
  0
ENDBLK
  0
BLOCK
  8
LAYER_2
  2
AIGNBL0201008A
 70
64
 10
0
 20
0
 30
0
  3
AIGNBL0201008A
  0
LINE
  8
LAYER_2
 10
-53.5504
 20
141.1933
 11
-53.5504
 21
103.5265
  0
ENDBLK
  0
BLOCK
  8
LAYER_2
  2
AIGNBL0201008B
 70
64
 10
0
 20
0
 30
0
  3
AIGNBL0201008B
  0
ARC
  8
LAYER_2
 10
-42.217
 20
95.0932
 40
9.1666
 50
4.555289285e-06
 51
59.96448258
  0
ENDBLK
  0
BLOCK
  8
LAYER_2
  2
AIGNBL0201008C
 70
64
 10
0
 20
0
 30
0
  3
AIGNBL0201008C
  0
ARC
  8
LAYER_2
 10
-42.2171
 20
95.0932
 40
9.1666
 50
120.035479
 51
210.0351234
  0
ARC
  8
LAYER_2
 10
-42.2171
 20
95.0932
 40
9.1667
 50
210.0352875
 51
300.0355432
  0
ARC
  8
LAYER_2
 10
-42.2171
 20
95.0932
 40
9.1667
 50
300.0355824
 51
359.9999305
  0
ENDBLK
  0
BLOCK
  8
LAYER_2
  2
AIGNBL0201008D
 70
64
 10
0
 20
0
 30
0
  3
AIGNBL0201008D
  0
ARC
  8
LAYER_2
 10
-42.217
 20
95.0932
 40
1.9167
 50
90.00188929
 51
180.0011001
  0
ARC
  8
LAYER_2
 10
-42.2171
 20
95.0932
 40
1.9167
 50
359.9989835
 51
90.00101644
  0
ARC
  8
LAYER_2
 10
-42.217
 20
95.0932
 40
1.9166
 50
269.9981107
 51
359.9989
  0
ARC
  8
LAYER_2
 10
-42.2171
 20
95.0932
 40
1.9166
 50
180.0010165
 51
269.9989835
  0
ENDBLK
  0
BLOCK
  8
LAYER_2
  2
AIGNBL0201008E
 70
64
 10
0
 20
0
 30
0
  3
AIGNBL0201008E
  0
ARC
  8
LAYER_2
 10
-42.217
 20
95.0932
 40
1.7167
 50
90.0021094
 51
180.0012283
  0
ARC
  8
LAYER_2
 10
-42.2171
 20
95.0932
 40
1.7167
 50
359.9988651
 51
90.00113486
  0
ARC
  8
LAYER_2
 10
-42.217
 20
95.0932
 40
1.7166
 50
269.9978906
 51
359.9987718
  0
ARC
  8
LAYER_2
 10
-42.2171
 20
95.0932
 40
1.7166
 50
180.0011349
 51
269.9988651
  0
ENDBLK
  0
BLOCK
  8
LAYER_2
  2
AIGNBL0201008F
 70
64
 10
0
 20
0
 30
0
  3
AIGNBL0201008F
  0
LINE
  8
LAYER_2
 10
-39.8561
 20
91.4526
 11
-40.6478
 21
90.9955
  0
LINE
  8
LAYER_2
 10
-40.6478
 20
90.9955
 11
-41.0744
 21
90.7492
  0
LINE
  8
LAYER_2
 10
-41.0744
 20
90.7492
 11
-41.3527
 21
90.5885
  0
LINE
  8
LAYER_2
 10
-41.3527
 20
90.5885
 11
-41.4916
 21
90.5084
  0
LINE
  8
LAYER_2
 10
-41.4916
 20
90.5084
 11
-41.5473
 21
90.4762
  0
LINE
  8
LAYER_2
 10
-41.5473
 20
90.4762
 11
-41.5427
 21
90.4788
  0
ENDBLK
  0
BLOCK
  8
LAYER_2
  2
AIGNBL02010090
 70
64
 10
0
 20
0
 30
0
  3
AIGNBL02010090
  0
LINE
  8
LAYER_2
 10
-38.5589
 20
92.2015
 11
-38.5663
 21
92.1973
  0
LINE
  8
LAYER_2
 10
-38.5663
 20
92.1973
 11
-38.6408
 21
92.1543
  0
LINE
  8
LAYER_2
 10
-38.6408
 20
92.1543
 11
-38.8218
 21
92.0498
  0
LINE
  8
LAYER_2
 10
-38.8218
 20
92.0498
 11
-39.1762
 21
91.8452
  0
LINE
  8
LAYER_2
 10
-39.1762
 20
91.8452
 11
-39.8561
 21
91.4526
  0
ENDBLK
  0
BLOCK
  8
LAYER_2
  2
AIGNBL02010091
 70
64
 10
0
 20
0
 30
0
  3
AIGNBL02010091
  0
LINE
  8
LAYER_2
 10
-44.5781
 20
91.4526
 11
-44.9671
 21
91.6773
  0
LINE
  8
LAYER_2
 10
-44.9671
 20
91.6773
 11
-45.3505
 21
91.8986
  0
LINE
  8
LAYER_2
 10
-45.3505
 20
91.8986
 11
-45.6158
 21
92.0518
  0
LINE
  8
LAYER_2
 10
-45.6158
 20
92.0518
 11
-45.8156
 21
92.1672
  0
LINE
  8
LAYER_2
 10
-45.8156
 20
92.1672
 11
-45.8782
 21
92.2033
  0
LINE
  8
LAYER_2
 10
-45.8782
 20
92.2033
 11
-45.8749
 21
92.2014
  0
ENDBLK
  0
BLOCK
  8
LAYER_2
  2
AIGNBL02010092
 70
64
 10
0
 20
0
 30
0
  3
AIGNBL02010092
  0
LINE
  8
LAYER_2
 10
-42.891
 20
90.4786
 11
-42.9035
 21
90.4858
  0
LINE
  8
LAYER_2
 10
-42.9035
 20
90.4858
 11
-42.9825
 21
90.5314
  0
LINE
  8
LAYER_2
 10
-42.9825
 20
90.5314
 11
-43.1723
 21
90.641
  0
LINE
  8
LAYER_2
 10
-43.1723
 20
90.641
 11
-43.5423
 21
90.8546
  0
LINE
  8
LAYER_2
 10
-43.5423
 20
90.8546
 11
-44.2213
 21
91.2466
  0
LINE
  8
LAYER_2
 10
-44.2213
 20
91.2466
 11
-44.5781
 21
91.4526
  0
ENDBLK
  0
BLOCK
  8
LAYER_2
  2
AIGNBL02010093
 70
64
 10
0
 20
0
 30
0
  3
AIGNBL02010093
  0
LINE
  8
LAYER_2
 10
-46.5504
 20
95.0932
 11
-46.5504
 21
95.9996
  0
LINE
  8
LAYER_2
 10
-46.5504
 20
95.9996
 11
-46.5504
 21
96.391
  0
LINE
  8
LAYER_2
 10
-46.5504
 20
96.391
 11
-46.5504
 21
96.6616
  0
LINE
  8
LAYER_2
 10
-46.5504
 20
96.6616
 11
-46.5504
 21
96.7874
  0
LINE
  8
LAYER_2
 10
-46.5504
 20
96.7874
 11
-46.5504
 21
96.8184
  0
ENDBLK
  0
BLOCK
  8
LAYER_2
  2
AIGNBL02010094
 70
64
 10
0
 20
0
 30
0
  3
AIGNBL02010094
  0
LINE
  8
LAYER_2
 10
-46.5504
 20
93.3718
 11
-46.5504
 21
93.3758
  0
LINE
  8
LAYER_2
 10
-46.5504
 20
93.3758
 11
-46.5504
 21
93.4568
  0
LINE
  8
LAYER_2
 10
-46.5504
 20
93.4568
 11
-46.5504
 21
93.6564
  0
LINE
  8
LAYER_2
 10
-46.5504
 20
93.6564
 11
-46.5504
 21
94.049
  0
LINE
  8
LAYER_2
 10
-46.5504
 20
94.049
 11
-46.5504
 21
94.7787
  0
LINE
  8
LAYER_2
 10
-46.5504
 20
94.7787
 11
-46.5504
 21
95.0932
  0
ENDBLK
  0
BLOCK
  8
LAYER_2
  2
AIGNBL02010095
 70
64
 10
0
 20
0
 30
0
  3
AIGNBL02010095
  0
LINE
  8
LAYER_2
 10
-44.5781
 20
98.7338
 11
-43.7863
 21
99.1909
  0
LINE
  8
LAYER_2
 10
-43.7863
 20
99.1909
 11
-43.3597
 21
99.4372
  0
LINE
  8
LAYER_2
 10
-43.3597
 20
99.4372
 11
-43.0814
 21
99.5979
  0
LINE
  8
LAYER_2
 10
-43.0814
 20
99.5979
 11
-42.9425
 21
99.6781
  0
LINE
  8
LAYER_2
 10
-42.9425
 20
99.6781
 11
-42.8868
 21
99.7103
  0
LINE
  8
LAYER_2
 10
-42.8868
 20
99.7103
 11
-42.8914
 21
99.7076
  0
ENDBLK
  0
BLOCK
  8
LAYER_2
  2
AIGNBL02010096
 70
64
 10
0
 20
0
 30
0
  3
AIGNBL02010096
  0
LINE
  8
LAYER_2
 10
-45.8752
 20
97.9849
 11
-45.8678
 21
97.9892
  0
LINE
  8
LAYER_2
 10
-45.8678
 20
97.9892
 11
-45.7933
 21
98.0322
  0
LINE
  8
LAYER_2
 10
-45.7933
 20
98.0322
 11
-45.6123
 21
98.1367
  0
LINE
  8
LAYER_2
 10
-45.6123
 20
98.1367
 11
-45.2579
 21
98.3413
  0
LINE
  8
LAYER_2
 10
-45.2579
 20
98.3413
 11
-44.5781
 21
98.7338
  0
ENDBLK
  0
BLOCK
  8
LAYER_2
  2
AIGNBL02010097
 70
64
 10
0
 20
0
 30
0
  3
AIGNBL02010097
  0
LINE
  8
LAYER_2
 10
-39.8561
 20
98.7338
 11
-39.467
 21
98.5092
  0
LINE
  8
LAYER_2
 10
-39.467
 20
98.5092
 11
-39.0836
 21
98.2878
  0
LINE
  8
LAYER_2
 10
-39.0836
 20
98.2878
 11
-38.8183
 21
98.1346
  0
LINE
  8
LAYER_2
 10
-38.8183
 20
98.1346
 11
-38.6185
 21
98.0193
  0
LINE
  8
LAYER_2
 10
-38.6185
 20
98.0193
 11
-38.5559
 21
97.9831
  0
LINE
  8
LAYER_2
 10
-38.5559
 20
97.9831
 11
-38.5592
 21
97.9851
  0
ENDBLK
  0
BLOCK
  8
LAYER_2
  2
AIGNBL02010098
 70
64
 10
0
 20
0
 30
0
  3
AIGNBL02010098
  0
LINE
  8
LAYER_2
 10
-41.5431
 20
99.7078
 11
-41.5306
 21
99.7006
  0
LINE
  8
LAYER_2
 10
-41.5306
 20
99.7006
 11
-41.4517
 21
99.655
  0
LINE
  8
LAYER_2
 10
-41.4517
 20
99.655
 11
-41.2618
 21
99.5454
  0
LINE
  8
LAYER_2
 10
-41.2618
 20
99.5454
 11
-40.8918
 21
99.3318
  0
LINE
  8
LAYER_2
 10
-40.8918
 20
99.3318
 11
-40.2128
 21
98.9398
  0
LINE
  8
LAYER_2
 10
-40.2128
 20
98.9398
 11
-39.8561
 21
98.7338
  0
ENDBLK
  0
BLOCK
  8
LAYER_2
  2
AIGNBL02010099
 70
64
 10
0
 20
0
 30
0
  3
AIGNBL02010099
  0
LINE
  8
LAYER_2
 10
-37.8837
 20
95.0932
 11
-37.8837
 21
94.1869
  0
LINE
  8
LAYER_2
 10
-37.8837
 20
94.1869
 11
-37.8837
 21
93.7955
  0
LINE
  8
LAYER_2
 10
-37.8837
 20
93.7955
 11
-37.8837
 21
93.5248
  0
LINE
  8
LAYER_2
 10
-37.8837
 20
93.5248
 11
-37.8837
 21
93.3991
  0
LINE
  8
LAYER_2
 10
-37.8837
 20
93.3991
 11
-37.8837
 21
93.368
  0
ENDBLK
  0
BLOCK
  8
LAYER_2
  2
AIGNBL0201009A
 70
64
 10
0
 20
0
 30
0
  3
AIGNBL0201009A
  0
LINE
  8
LAYER_2
 10
-37.8837
 20
96.8147
 11
-37.8837
 21
96.8106
  0
LINE
  8
LAYER_2
 10
-37.8837
 20
96.8106
 11
-37.8837
 21
96.7297
  0
LINE
  8
LAYER_2
 10
-37.8837
 20
96.7297
 11
-37.8837
 21
96.53
  0
LINE
  8
LAYER_2
 10
-37.8837
 20
96.53
 11
-37.8837
 21
96.1375
  0
LINE
  8
LAYER_2
 10
-37.8837
 20
96.1375
 11
-37.8837
 21
95.4078
  0
LINE
  8
LAYER_2
 10
-37.8837
 20
95.4078
 11
-37.8837
 21
95.0932
  0
ENDBLK
  0
BLOCK
  8
LAYER_2
  2
AIGNBL0201009B
 70
64
 10
0
 20
0
 30
0
  3
AIGNBL0201009B
  0
ARC
  8
LAYER_2
 10
-42.2171
 20
95.0932
 40
1.6667
 50
10.36834733
 51
100.3704836
  0
ARC
  8
LAYER_2
 10
-42.217
 20
95.0932
 40
1.6667
 50
100.3722283
 51
169.6320492
  0
ENDBLK
  0
BLOCK
  8
LAYER_2
  2
AIGNBL0201009C
 70
64
 10
0
 20
0
 30
0
  3
AIGNBL0201009C
  0
LINE
  8
LAYER_2
 10
-43.5162
 20
95.3932
 11
-43.5665
 21
95.3932
  0
LINE
  8
LAYER_2
 10
-43.5665
 20
95.3932
 11
-43.6787
 21
95.3932
  0
LINE
  8
LAYER_2
 10
-43.6787
 20
95.3932
 11
-43.7703
 21
95.3932
  0
LINE
  8
LAYER_2
 10
-43.7703
 20
95.3932
 11
-43.8312
 21
95.3932
  0
LINE
  8
LAYER_2
 10
-43.8312
 20
95.3932
 11
-43.8511
 21
95.3932
  0
LINE
  8
LAYER_2
 10
-43.8511
 20
95.3932
 11
-43.8565
 21
95.3932
  0
ENDBLK
  0
BLOCK
  8
LAYER_2
  2
AIGNBL0201009D
 70
64
 10
0
 20
0
 30
0
  3
AIGNBL0201009D
  0
LINE
  8
LAYER_2
 10
-40.5776
 20
95.3932
 11
-40.5888
 21
95.3932
  0
LINE
  8
LAYER_2
 10
-40.5888
 20
95.3932
 11
-40.6348
 21
95.3932
  0
LINE
  8
LAYER_2
 10
-40.6348
 20
95.3932
 11
-40.7115
 21
95.3932
  0
LINE
  8
LAYER_2
 10
-40.7115
 20
95.3932
 11
-40.8115
 21
95.3932
  0
LINE
  8
LAYER_2
 10
-40.8115
 20
95.3932
 11
-40.9179
 21
95.3932
  0
ENDBLK
  0
BLOCK
  8
LAYER_2
  2
AIGNBL0201009E
 70
64
 10
0
 20
0
 30
0
  3
AIGNBL0201009E
  0
ARC
  8
LAYER_2
 10
-42.2171
 20
95.0932
 40
1.6667
 50
190.3711025
 51
280.3689661
  0
ARC
  8
LAYER_2
 10
-42.217
 20
95.0932
 40
1.6667
 50
280.3672213
 51
349.6285011
  0
ENDBLK
  0
BLOCK
  8
LAYER_2
  2
AIGNBL0201009F
 70
64
 10
0
 20
0
 30
0
  3
AIGNBL0201009F
  0
LINE
  8
LAYER_2
 10
-40.9179
 20
94.7932
 11
-40.8963
 21
94.7932
  0
LINE
  8
LAYER_2
 10
-40.8963
 20
94.7932
 11
-40.7812
 21
94.7932
  0
LINE
  8
LAYER_2
 10
-40.7812
 20
94.7932
 11
-40.6835
 21
94.7932
  0
LINE
  8
LAYER_2
 10
-40.6835
 20
94.7932
 11
-40.6145
 21
94.7932
  0
LINE
  8
LAYER_2
 10
-40.6145
 20
94.7932
 11
-40.5806
 21
94.7932
  0
LINE
  8
LAYER_2
 10
-40.5806
 20
94.7932
 11
-40.5776
 21
94.7932
  0
ENDBLK
  0
BLOCK
  8
LAYER_2
  2
AIGNBL020100A0
 70
64
 10
0
 20
0
 30
0
  3
AIGNBL020100A0
  0
LINE
  8
LAYER_2
 10
-43.8565
 20
94.7932
 11
-43.8511
 21
94.7932
  0
LINE
  8
LAYER_2
 10
-43.8511
 20
94.7932
 11
-43.8129
 21
94.7932
  0
LINE
  8
LAYER_2
 10
-43.8129
 20
94.7932
 11
-43.7424
 21
94.7932
  0
LINE
  8
LAYER_2
 10
-43.7424
 20
94.7932
 11
-43.6469
 21
94.7932
  0
LINE
  8
LAYER_2
 10
-43.6469
 20
94.7932
 11
-43.5356
 21
94.7932
  0
LINE
  8
LAYER_2
 10
-43.5356
 20
94.7932
 11
-43.5162
 21
94.7932
  0
ENDBLK
  0
BLOCK
  8
LAYER_2
  2
AIGNBL020100A1
 70
64
 10
0
 20
0
 30
0
  3
AIGNBL020100A1
  0
LINE
  8
LAYER_2
 10
-43.5162
 20
94.7932
 11
-40.9179
 21
94.7932
  0
ENDBLK
  0
BLOCK
  8
LAYER_2
  2
AIGNBL020100A2
 70
64
 10
0
 20
0
 30
0
  3
AIGNBL020100A2
  0
LINE
  8
LAYER_2
 10
-43.5162
 20
95.3932
 11
-40.9179
 21
95.3932
  0
ENDBLK
  0
BLOCK
  8
LAYER_2
  2
AIGNBL020100A3
 70
64
 10
0
 20
0
 30
0
  3
AIGNBL020100A3
  0
ARC
  8
LAYER_2
 10
-42.2171
 20
95.0932
 40
1.6667
 50
349.6302925
 51
10.36970753
  0
ENDBLK
  0
BLOCK
  8
LAYER_2
  2
AIGNBL020100A4
 70
64
 10
0
 20
0
 30
0
  3
AIGNBL020100A4
  0
ARC
  8
LAYER_2
 10
-42.2171
 20
95.0932
 40
1.6667
 50
169.6302578
 51
190.3697422
  0
ENDBLK
  0
BLOCK
  8
LAYER_2
  2
AIGNBL020100A5
 70
64
 10
0
 20
0
 30
0
  3
AIGNBL020100A5
  0
LINE
  8
LAYER_2
 10
-45.9165
 20
98.4266
 11
-46.2171
 21
98.4266
  0
ENDBLK
  0
BLOCK
  8
LAYER_2
  2
AIGNBL020100A6
 70
64
 10
0
 20
0
 30
0
  3
AIGNBL020100A6
  0
LINE
  8
LAYER_2
 10
-46.2171
 20
101.0932
 11
-46.2171
 21
98.4266
  0
ENDBLK
  0
BLOCK
  8
LAYER_2
  2
AIGNBL020100A7
 70
64
 10
0
 20
0
 30
0
  3
AIGNBL020100A7
  0
LINE
  8
LAYER_2
 10
-45.4873
 20
101.0932
 11
-46.2171
 21
101.0932
  0
ENDBLK
  0
BLOCK
  8
LAYER_2
  2
AIGNBL020100A8
 70
64
 10
0
 20
0
 30
0
  3
AIGNBL020100A8
  0
LINE
  8
LAYER_2
 10
-46.6837
 20
98.8932
 11
-46.6837
 21
100.6266
  0
ENDBLK
  0
BLOCK
  8
LAYER_2
  2
AIGNBL020100A9
 70
64
 10
0
 20
0
 30
0
  3
AIGNBL020100A9
  0
LINE
  8
LAYER_2
 10
-46.6837
 20
100.6266
 11
-46.2171
 21
101.0932
  0
ENDBLK
  0
BLOCK
  8
LAYER_2
  2
AIGNBL020100AA
 70
64
 10
0
 20
0
 30
0
  3
AIGNBL020100AA
  0
LINE
  8
LAYER_2
 10
-46.2171
 20
98.4266
 11
-46.6837
 21
98.8932
  0
ENDBLK
  0
BLOCK
  8
LAYER_2
  2
AIGNBL020100AB
 70
64
 10
0
 20
0
 30
0
  3
AIGNBL020100AB
  0
LINE
  8
LAYER_2
 10
-46.2171
 20
98.4266
 11
-46.2171
 21
97.7599
  0
ENDBLK
  0
BLOCK
  8
LAYER_2
  2
AIGNBL020100AC
 70
64
 10
0
 20
0
 30
0
  3
AIGNBL020100AC
  0
LINE
  8
LAYER_2
 10
-46.6837
 20
97.7599
 11
-46.6837
 21
98.8932
  0
ENDBLK
  0
BLOCK
  8
LAYER_2
  2
AIGNBL020100AD
 70
64
 10
0
 20
0
 30
0
  3
AIGNBL020100AD
  0
LINE
  8
LAYER_2
 10
-46.2171
 20
97.7599
 11
-46.2171
 21
97.5308
  0
ENDBLK
  0
BLOCK
  8
LAYER_2
  2
AIGNBL020100AE
 70
64
 10
0
 20
0
 30
0
  3
AIGNBL020100AE
  0
LINE
  8
LAYER_2
 10
-46.6837
 20
97.0932
 11
-46.6837
 21
97.7599
  0
ENDBLK
  0
BLOCK
  8
LAYER_2
  2
AIGNBL020100AF
 70
64
 10
0
 20
0
 30
0
  3
AIGNBL020100AF
  0
LINE
  8
LAYER_2
 10
-46.6837
 20
96.2266
 11
-46.6837
 21
97.0932
  0
ENDBLK
  0
BLOCK
  8
LAYER_2
  2
AIGNBL020100B0
 70
64
 10
0
 20
0
 30
0
  3
AIGNBL020100B0
  0
LINE
  8
LAYER_2
 10
6.8824
 20
105.4546
 11
7.8824
 21
105.4546
  0
ENDBLK
  0
BLOCK
  8
LAYER_2
  2
AIGNBL020100B1
 70
64
 10
0
 20
0
 30
0
  3
AIGNBL020100B1
  0
LINE
  8
LAYER_2
 10
7.8824
 20
105.4546
 11
7.8936
 21
105.5425
  0
LINE
  8
LAYER_2
 10
7.8936
 20
105.5425
 11
7.905
 21
105.6316
  0
LINE
  8
LAYER_2
 10
7.905
 20
105.6316
 11
7.9165
 21
105.7213
  0
ENDBLK
  0
BLOCK
  8
LAYER_2
  2
AIGNBL020100B2
 70
64
 10
0
 20
0
 30
0
  3
AIGNBL020100B2
  0
LINE
  8
LAYER_2
 10
8.4202
 20
105.7213
 11
8.377
 21
105.4833
  0
LINE
  8
LAYER_2
 10
8.377
 20
105.4833
 11
8.3359
 21
105.2572
  0
LINE
  8
LAYER_2
 10
8.3359
 20
105.2572
 11
8.299
 21
105.0546
  0
ENDBLK
  0
BLOCK
  8
LAYER_2
  2
AIGNBL020100B3
 70
64
 10
0
 20
0
 30
0
  3
AIGNBL020100B3
  0
LINE
  8
LAYER_2
 10
8.299
 20
105.0546
 11
8.299
 21
104.6546
  0
ENDBLK
  0
BLOCK
  8
LAYER_2
  2
AIGNBL020100B4
 70
64
 10
0
 20
0
 30
0
  3
AIGNBL020100B4
  0
LINE
  8
LAYER_2
 10
8.299
 20
104.6546
 11
7.7157
 21
104.6546
  0
ENDBLK
  0
BLOCK
  8
LAYER_2
  2
AIGNBL020100B5
 70
64
 10
0
 20
0
 30
0
  3
AIGNBL020100B5
  0
LINE
  8
LAYER_2
 10
7.7157
 20
104.6546
 11
7.7157
 21
104.8176
  0
ENDBLK
  0
BLOCK
  8
LAYER_2
  2
AIGNBL020100B6
 70
64
 10
0
 20
0
 30
0
  3
AIGNBL020100B6
  0
LINE
  8
LAYER_2
 10
7.7157
 20
104.8176
 11
7.049
 21
104.8176
  0
ENDBLK
  0
BLOCK
  8
LAYER_2
  2
AIGNBL020100B7
 70
64
 10
0
 20
0
 30
0
  3
AIGNBL020100B7
  0
LINE
  8
LAYER_2
 10
7.049
 20
104.8176
 11
7.049
 21
104.6546
  0
ENDBLK
  0
BLOCK
  8
LAYER_2
  2
AIGNBL020100B8
 70
64
 10
0
 20
0
 30
0
  3
AIGNBL020100B8
  0
LINE
  8
LAYER_2
 10
7.049
 20
104.6546
 11
6.4657
 21
104.6546
  0
ENDBLK
  0
BLOCK
  8
LAYER_2
  2
AIGNBL020100B9
 70
64
 10
0
 20
0
 30
0
  3
AIGNBL020100B9
  0
LINE
  8
LAYER_2
 10
6.4657
 20
104.6546
 11
6.4657
 21
105.0546
  0
ENDBLK
  0
BLOCK
  8
LAYER_2
  2
AIGNBL020100BA
 70
64
 10
0
 20
0
 30
0
  3
AIGNBL020100BA
  0
LINE
  8
LAYER_2
 10
6.8483
 20
105.7213
 11
6.8597
 21
105.6316
  0
LINE
  8
LAYER_2
 10
6.8597
 20
105.6316
 11
6.8711
 21
105.5425
  0
LINE
  8
LAYER_2
 10
6.8711
 20
105.5425
 11
6.8824
 21
105.4546
  0
ENDBLK
  0
BLOCK
  8
LAYER_2
  2
AIGNBL020100BB
 70
64
 10
0
 20
0
 30
0
  3
AIGNBL020100BB
  0
LINE
  8
LAYER_2
 10
6.4657
 20
105.0546
 11
6.4289
 21
105.2572
  0
LINE
  8
LAYER_2
 10
6.4289
 20
105.2572
 11
6.3878
 21
105.4833
  0
LINE
  8
LAYER_2
 10
6.3878
 20
105.4833
 11
6.3445
 21
105.7213
  0
ENDBLK
  0
BLOCK
  8
LAYER_2
  2
AIGNBL020100BC
 70
64
 10
0
 20
0
 30
0
  3
AIGNBL020100BC
  0
LINE
  8
LAYER_2
 10
8.0657
 20
106.888
 11
8.0657
 21
108.888
  0
ENDBLK
  0
BLOCK
  8
LAYER_2
  2
AIGNBL020100BD
 70
64
 10
0
 20
0
 30
0
  3
AIGNBL020100BD
  0
LINE
  8
LAYER_2
 10
8.6324
 20
106.888
 11
8.6324
 21
108.888
  0
ENDBLK
  0
BLOCK
  8
LAYER_2
  2
AIGNBL020100BE
 70
64
 10
0
 20
0
 30
0
  3
AIGNBL020100BE
  0
LINE
  8
LAYER_2
 10
8.4202
 20
105.7213
 11
8.6324
 21
106.888
  0
ENDBLK
  0
BLOCK
  8
LAYER_2
  2
AIGNBL020100BF
 70
64
 10
0
 20
0
 30
0
  3
AIGNBL020100BF
  0
LINE
  8
LAYER_2
 10
7.9165
 20
105.7213
 11
8.0657
 21
106.888
  0
ENDBLK
  0
BLOCK
  8
LAYER_2
  2
AIGNBL020100C0
 70
64
 10
0
 20
0
 30
0
  3
AIGNBL020100C0
  0
LINE
  8
LAYER_2
 10
6.1324
 20
109.0546
 11
6.159
 21
109.2158
  0
LINE
  8
LAYER_2
 10
6.159
 20
109.2158
 11
6.2327
 21
109.355
  0
LINE
  8
LAYER_2
 10
6.2327
 20
109.355
 11
6.3566
 21
109.4717
  0
LINE
  8
LAYER_2
 10
6.3566
 20
109.4717
 11
6.4967
 21
109.5359
  0
LINE
  8
LAYER_2
 10
6.4967
 20
109.5359
 11
6.6324
 21
109.5546
  0
ENDBLK
  0
BLOCK
  8
LAYER_2
  2
AIGNBL020100C1
 70
64
 10
0
 20
0
 30
0
  3
AIGNBL020100C1
  0
LINE
  8
LAYER_2
 10
6.6324
 20
109.5546
 11
6.6324
 21
109.9546
  0
ENDBLK
  0
BLOCK
  8
LAYER_2
  2
AIGNBL020100C2
 70
64
 10
0
 20
0
 30
0
  3
AIGNBL020100C2
  0
LINE
  8
LAYER_2
 10
6.6324
 20
109.9546
 11
8.1324
 21
109.9546
  0
ENDBLK
  0
BLOCK
  8
LAYER_2
  2
AIGNBL020100C3
 70
64
 10
0
 20
0
 30
0
  3
AIGNBL020100C3
  0
LINE
  8
LAYER_2
 10
8.1324
 20
109.9546
 11
8.1324
 21
109.5546
  0
ENDBLK
  0
BLOCK
  8
LAYER_2
  2
AIGNBL020100C4
 70
64
 10
0
 20
0
 30
0
  3
AIGNBL020100C4
  0
LINE
  8
LAYER_2
 10
8.1324
 20
109.5546
 11
8.2768
 21
109.5333
  0
LINE
  8
LAYER_2
 10
8.2768
 20
109.5333
 11
8.404
 21
109.4744
  0
LINE
  8
LAYER_2
 10
8.404
 20
109.4744
 11
8.5183
 21
109.3725
  0
LINE
  8
LAYER_2
 10
8.5183
 20
109.3725
 11
8.6058
 21
109.2155
  0
LINE
  8
LAYER_2
 10
8.6058
 20
109.2155
 11
8.6324
 21
109.0546
  0
ENDBLK
  0
BLOCK
  8
LAYER_2
  2
AIGNBL020100C5
 70
64
 10
0
 20
0
 30
0
  3
AIGNBL020100C5
  0
LINE
  8
LAYER_2
 10
8.6324
 20
109.0546
 11
8.6324
 21
108.888
  0
ENDBLK
  0
BLOCK
  8
LAYER_2
  2
AIGNBL020100C6
 70
64
 10
0
 20
0
 30
0
  3
AIGNBL020100C6
  0
LINE
  8
LAYER_2
 10
8.0657
 20
108.888
 11
6.699
 21
108.888
  0
ENDBLK
  0
BLOCK
  8
LAYER_2
  2
AIGNBL020100C7
 70
64
 10
0
 20
0
 30
0
  3
AIGNBL020100C7
  0
LINE
  8
LAYER_2
 10
6.1324
 20
108.888
 11
6.1324
 21
109.0546
  0
ENDBLK
  0
BLOCK
  8
LAYER_2
  2
AIGNBL020100C8
 70
64
 10
0
 20
0
 30
0
  3
AIGNBL020100C8
  0
LINE
  8
LAYER_2
 10
6.699
 20
108.888
 11
6.699
 21
106.888
  0
ENDBLK
  0
BLOCK
  8
LAYER_2
  2
AIGNBL020100C9
 70
64
 10
0
 20
0
 30
0
  3
AIGNBL020100C9
  0
LINE
  8
LAYER_2
 10
6.1324
 20
108.888
 11
6.1324
 21
106.888
  0
ENDBLK
  0
BLOCK
  8
LAYER_2
  2
AIGNBL020100CA
 70
64
 10
0
 20
0
 30
0
  3
AIGNBL020100CA
  0
LINE
  8
LAYER_2
 10
6.699
 20
106.888
 11
6.8483
 21
105.7213
  0
ENDBLK
  0
BLOCK
  8
LAYER_2
  2
AIGNBL020100CB
 70
64
 10
0
 20
0
 30
0
  3
AIGNBL020100CB
  0
LINE
  8
LAYER_2
 10
6.1324
 20
106.888
 11
6.3445
 21
105.7213
  0
ENDBLK
  0
BLOCK
  8
LAYER_2
  2
AIGNBL020100CC
 70
64
 10
0
 20
0
 30
0
  3
AIGNBL020100CC
  0
LINE
  8
LAYER_2
 10
7.9661
 20
104.6546
 11
7.7824
 21
103.9546
  0
ENDBLK
  0
BLOCK
  8
LAYER_2
  2
AIGNBL020100CD
 70
64
 10
0
 20
0
 30
0
  3
AIGNBL020100CD
  0
LINE
  8
LAYER_2
 10
7.7824
 20
103.9546
 11
7.7824
 21
103.288
  0
ENDBLK
  0
BLOCK
  8
LAYER_2
  2
AIGNBL020100CE
 70
64
 10
0
 20
0
 30
0
  3
AIGNBL020100CE
  0
LINE
  8
LAYER_2
 10
7.7824
 20
103.288
 11
8.1324
 21
103.288
  0
ENDBLK
  0
BLOCK
  8
LAYER_2
  2
AIGNBL020100CF
 70
64
 10
0
 20
0
 30
0
  3
AIGNBL020100CF
  0
LINE
  8
LAYER_2
 10
8.1324
 20
103.288
 11
7.7824
 21
101.9546
  0
ENDBLK
  0
BLOCK
  8
LAYER_2
  2
AIGNBL020100D0
 70
64
 10
0
 20
0
 30
0
  3
AIGNBL020100D0
  0
LINE
  8
LAYER_2
 10
7.7824
 20
101.9546
 11
7.7824
 21
101.288
  0
ENDBLK
  0
BLOCK
  8
LAYER_2
  2
AIGNBL020100D1
 70
64
 10
0
 20
0
 30
0
  3
AIGNBL020100D1
  0
LINE
  8
LAYER_2
 10
7.7824
 20
101.288
 11
8.1324
 21
101.288
  0
ENDBLK
  0
BLOCK
  8
LAYER_2
  2
AIGNBL020100D2
 70
64
 10
0
 20
0
 30
0
  3
AIGNBL020100D2
  0
LINE
  8
LAYER_2
 10
8.1324
 20
101.288
 11
7.7824
 21
99.9546
  0
ENDBLK
  0
BLOCK
  8
LAYER_2
  2
AIGNBL020100D3
 70
64
 10
0
 20
0
 30
0
  3
AIGNBL020100D3
  0
LINE
  8
LAYER_2
 10
7.7824
 20
99.9546
 11
7.7824
 21
99.288
  0
ENDBLK
  0
BLOCK
  8
LAYER_2
  2
AIGNBL020100D4
 70
64
 10
0
 20
0
 30
0
  3
AIGNBL020100D4
  0
LINE
  8
LAYER_2
 10
7.7824
 20
99.288
 11
8.1324
 21
99.288
  0
ENDBLK
  0
BLOCK
  8
LAYER_2
  2
AIGNBL020100D5
 70
64
 10
0
 20
0
 30
0
  3
AIGNBL020100D5
  0
LINE
  8
LAYER_2
 10
8.1324
 20
99.288
 11
7.7824
 21
97.9546
  0
ENDBLK
  0
BLOCK
  8
LAYER_2
  2
AIGNBL020100D6
 70
64
 10
0
 20
0
 30
0
  3
AIGNBL020100D6
  0
LINE
  8
LAYER_2
 10
7.7824
 20
97.9546
 11
7.7824
 21
97.288
  0
ENDBLK
  0
BLOCK
  8
LAYER_2
  2
AIGNBL020100D7
 70
64
 10
0
 20
0
 30
0
  3
AIGNBL020100D7
  0
LINE
  8
LAYER_2
 10
7.7824
 20
97.288
 11
8.1324
 21
97.288
  0
ENDBLK
  0
BLOCK
  8
LAYER_2
  2
AIGNBL020100D8
 70
64
 10
0
 20
0
 30
0
  3
AIGNBL020100D8
  0
LINE
  8
LAYER_2
 10
8.1324
 20
97.288
 11
7.7824
 21
95.9546
  0
ENDBLK
  0
BLOCK
  8
LAYER_2
  2
AIGNBL020100D9
 70
64
 10
0
 20
0
 30
0
  3
AIGNBL020100D9
  0
LINE
  8
LAYER_2
 10
7.7824
 20
95.9546
 11
7.7824
 21
95.288
  0
ENDBLK
  0
BLOCK
  8
LAYER_2
  2
AIGNBL020100DA
 70
64
 10
0
 20
0
 30
0
  3
AIGNBL020100DA
  0
LINE
  8
LAYER_2
 10
7.7824
 20
95.288
 11
8.1324
 21
95.288
  0
ENDBLK
  0
BLOCK
  8
LAYER_2
  2
AIGNBL020100DB
 70
64
 10
0
 20
0
 30
0
  3
AIGNBL020100DB
  0
LINE
  8
LAYER_2
 10
8.1324
 20
95.288
 11
7.7824
 21
93.9546
  0
ENDBLK
  0
BLOCK
  8
LAYER_2
  2
AIGNBL020100DC
 70
64
 10
0
 20
0
 30
0
  3
AIGNBL020100DC
  0
LINE
  8
LAYER_2
 10
7.7824
 20
93.9546
 11
7.7824
 21
93.288
  0
ENDBLK
  0
BLOCK
  8
LAYER_2
  2
AIGNBL020100DD
 70
64
 10
0
 20
0
 30
0
  3
AIGNBL020100DD
  0
LINE
  8
LAYER_2
 10
7.7824
 20
93.288
 11
8.1324
 21
93.288
  0
ENDBLK
  0
BLOCK
  8
LAYER_2
  2
AIGNBL020100DE
 70
64
 10
0
 20
0
 30
0
  3
AIGNBL020100DE
  0
LINE
  8
LAYER_2
 10
8.1324
 20
93.288
 11
7.7824
 21
91.9546
  0
ENDBLK
  0
BLOCK
  8
LAYER_2
  2
AIGNBL020100DF
 70
64
 10
0
 20
0
 30
0
  3
AIGNBL020100DF
  0
LINE
  8
LAYER_2
 10
7.7824
 20
91.9546
 11
7.7824
 21
91.288
  0
ENDBLK
  0
BLOCK
  8
LAYER_2
  2
AIGNBL020100E0
 70
64
 10
0
 20
0
 30
0
  3
AIGNBL020100E0
  0
LINE
  8
LAYER_2
 10
7.7824
 20
91.288
 11
8.1324
 21
91.288
  0
ENDBLK
  0
BLOCK
  8
LAYER_2
  2
AIGNBL020100E1
 70
64
 10
0
 20
0
 30
0
  3
AIGNBL020100E1
  0
LINE
  8
LAYER_2
 10
8.1324
 20
91.288
 11
7.7824
 21
89.9546
  0
ENDBLK
  0
BLOCK
  8
LAYER_2
  2
AIGNBL020100E2
 70
64
 10
0
 20
0
 30
0
  3
AIGNBL020100E2
  0
LINE
  8
LAYER_2
 10
7.7824
 20
89.9546
 11
7.7824
 21
89.288
  0
ENDBLK
  0
BLOCK
  8
LAYER_2
  2
AIGNBL020100E3
 70
64
 10
0
 20
0
 30
0
  3
AIGNBL020100E3
  0
LINE
  8
LAYER_2
 10
7.7824
 20
89.288
 11
8.1324
 21
89.288
  0
ENDBLK
  0
BLOCK
  8
LAYER_2
  2
AIGNBL020100E4
 70
64
 10
0
 20
0
 30
0
  3
AIGNBL020100E4
  0
ARC
  8
LAYER_2
 10
7.3824
 20
87.7437
 40
0.3333
 50
194.7180737
 51
284.7095503
  0
ARC
  8
LAYER_2
 10
7.3824
 20
87.7437
 40
0.3333
 50
284.7006279
 51
345.2752729
  0
ENDBLK
  0
BLOCK
  8
LAYER_2
  2
AIGNBL020100E5
 70
64
 10
0
 20
0
 30
0
  3
AIGNBL020100E5
  0
LINE
  8
LAYER_2
 10
7.06
 20
87.659
 11
6.6324
 21
89.288
  0
ENDBLK
  0
BLOCK
  8
LAYER_2
  2
AIGNBL020100E6
 70
64
 10
0
 20
0
 30
0
  3
AIGNBL020100E6
  0
LINE
  8
LAYER_2
 10
6.6324
 20
89.288
 11
6.9824
 21
89.288
  0
ENDBLK
  0
BLOCK
  8
LAYER_2
  2
AIGNBL020100E7
 70
64
 10
0
 20
0
 30
0
  3
AIGNBL020100E7
  0
LINE
  8
LAYER_2
 10
6.9824
 20
89.288
 11
6.9824
 21
89.9546
  0
ENDBLK
  0
BLOCK
  8
LAYER_2
  2
AIGNBL020100E8
 70
64
 10
0
 20
0
 30
0
  3
AIGNBL020100E8
  0
LINE
  8
LAYER_2
 10
6.9824
 20
89.9546
 11
6.6324
 21
91.288
  0
ENDBLK
  0
BLOCK
  8
LAYER_2
  2
AIGNBL020100E9
 70
64
 10
0
 20
0
 30
0
  3
AIGNBL020100E9
  0
LINE
  8
LAYER_2
 10
6.6324
 20
91.288
 11
6.9824
 21
91.288
  0
ENDBLK
  0
BLOCK
  8
LAYER_2
  2
AIGNBL020100EA
 70
64
 10
0
 20
0
 30
0
  3
AIGNBL020100EA
  0
LINE
  8
LAYER_2
 10
6.9824
 20
91.288
 11
6.9824
 21
91.9546
  0
ENDBLK
  0
BLOCK
  8
LAYER_2
  2
AIGNBL020100EB
 70
64
 10
0
 20
0
 30
0
  3
AIGNBL020100EB
  0
LINE
  8
LAYER_2
 10
6.9824
 20
91.9546
 11
6.6324
 21
93.288
  0
ENDBLK
  0
BLOCK
  8
LAYER_2
  2
AIGNBL020100EC
 70
64
 10
0
 20
0
 30
0
  3
AIGNBL020100EC
  0
LINE
  8
LAYER_2
 10
6.6324
 20
93.288
 11
6.9824
 21
93.288
  0
ENDBLK
  0
BLOCK
  8
LAYER_2
  2
AIGNBL020100ED
 70
64
 10
0
 20
0
 30
0
  3
AIGNBL020100ED
  0
LINE
  8
LAYER_2
 10
6.9824
 20
93.288
 11
6.9824
 21
93.9546
  0
ENDBLK
  0
BLOCK
  8
LAYER_2
  2
AIGNBL020100EE
 70
64
 10
0
 20
0
 30
0
  3
AIGNBL020100EE
  0
LINE
  8
LAYER_2
 10
6.9824
 20
93.9546
 11
6.6324
 21
95.288
  0
ENDBLK
  0
BLOCK
  8
LAYER_2
  2
AIGNBL020100EF
 70
64
 10
0
 20
0
 30
0
  3
AIGNBL020100EF
  0
LINE
  8
LAYER_2
 10
6.6324
 20
95.288
 11
6.9824
 21
95.288
  0
ENDBLK
  0
BLOCK
  8
LAYER_2
  2
AIGNBL020100F0
 70
64
 10
0
 20
0
 30
0
  3
AIGNBL020100F0
  0
LINE
  8
LAYER_2
 10
6.9824
 20
95.288
 11
6.9824
 21
95.9546
  0
ENDBLK
  0
BLOCK
  8
LAYER_2
  2
AIGNBL020100F1
 70
64
 10
0
 20
0
 30
0
  3
AIGNBL020100F1
  0
LINE
  8
LAYER_2
 10
6.9824
 20
95.9546
 11
6.6324
 21
97.288
  0
ENDBLK
  0
BLOCK
  8
LAYER_2
  2
AIGNBL020100F2
 70
64
 10
0
 20
0
 30
0
  3
AIGNBL020100F2
  0
LINE
  8
LAYER_2
 10
6.6324
 20
97.288
 11
6.9824
 21
97.288
  0
ENDBLK
  0
BLOCK
  8
LAYER_2
  2
AIGNBL020100F3
 70
64
 10
0
 20
0
 30
0
  3
AIGNBL020100F3
  0
LINE
  8
LAYER_2
 10
6.9824
 20
97.288
 11
6.9824
 21
97.9546
  0
ENDBLK
  0
BLOCK
  8
LAYER_2
  2
AIGNBL020100F4
 70
64
 10
0
 20
0
 30
0
  3
AIGNBL020100F4
  0
LINE
  8
LAYER_2
 10
6.9824
 20
97.9546
 11
6.6324
 21
99.288
  0
ENDBLK
  0
BLOCK
  8
LAYER_2
  2
AIGNBL020100F5
 70
64
 10
0
 20
0
 30
0
  3
AIGNBL020100F5
  0
LINE
  8
LAYER_2
 10
6.6324
 20
99.288
 11
6.9824
 21
99.288
  0
ENDBLK
  0
BLOCK
  8
LAYER_2
  2
AIGNBL020100F6
 70
64
 10
0
 20
0
 30
0
  3
AIGNBL020100F6
  0
LINE
  8
LAYER_2
 10
6.9824
 20
99.288
 11
6.9824
 21
99.9546
  0
ENDBLK
  0
BLOCK
  8
LAYER_2
  2
AIGNBL020100F7
 70
64
 10
0
 20
0
 30
0
  3
AIGNBL020100F7
  0
LINE
  8
LAYER_2
 10
6.9824
 20
99.9546
 11
6.6324
 21
101.288
  0
ENDBLK
  0
BLOCK
  8
LAYER_2
  2
AIGNBL020100F8
 70
64
 10
0
 20
0
 30
0
  3
AIGNBL020100F8
  0
LINE
  8
LAYER_2
 10
6.6324
 20
101.288
 11
6.9824
 21
101.288
  0
ENDBLK
  0
BLOCK
  8
LAYER_2
  2
AIGNBL020100F9
 70
64
 10
0
 20
0
 30
0
  3
AIGNBL020100F9
  0
LINE
  8
LAYER_2
 10
6.9824
 20
101.288
 11
6.9824
 21
101.9546
  0
ENDBLK
  0
BLOCK
  8
LAYER_2
  2
AIGNBL020100FA
 70
64
 10
0
 20
0
 30
0
  3
AIGNBL020100FA
  0
LINE
  8
LAYER_2
 10
6.9824
 20
101.9546
 11
6.6324
 21
103.288
  0
ENDBLK
  0
BLOCK
  8
LAYER_2
  2
AIGNBL020100FB
 70
64
 10
0
 20
0
 30
0
  3
AIGNBL020100FB
  0
LINE
  8
LAYER_2
 10
6.6324
 20
103.288
 11
6.9824
 21
103.288
  0
ENDBLK
  0
BLOCK
  8
LAYER_2
  2
AIGNBL020100FC
 70
64
 10
0
 20
0
 30
0
  3
AIGNBL020100FC
  0
LINE
  8
LAYER_2
 10
6.9824
 20
103.288
 11
6.9824
 21
103.9546
  0
ENDBLK
  0
BLOCK
  8
LAYER_2
  2
AIGNBL020100FD
 70
64
 10
0
 20
0
 30
0
  3
AIGNBL020100FD
  0
LINE
  8
LAYER_2
 10
6.9824
 20
103.9546
 11
6.7986
 21
104.6546
  0
ENDBLK
  0
BLOCK
  8
LAYER_2
  2
AIGNBL020100FE
 70
64
 10
0
 20
0
 30
0
  3
AIGNBL020100FE
  0
LINE
  8
LAYER_2
 10
8.1324
 20
89.288
 11
7.7048
 21
87.659
  0
ENDBLK
  0
BLOCK
  8
LAYER_2
  2
AIGNBL020100FF
 70
64
 10
0
 20
0
 30
0
  3
AIGNBL020100FF
  0
LINE
  8
LAYER_2
 10
27.7981
 20
105.1774
 11
27.8783
 21
105.2118
  0
LINE
  8
LAYER_2
 10
27.8783
 20
105.2118
 11
27.9816
 21
105.3023
  0
LINE
  8
LAYER_2
 10
27.9816
 20
105.3023
 11
28.0589
 21
105.436
  0
LINE
  8
LAYER_2
 10
28.0589
 20
105.436
 11
28.0841
 21
105.5444
  0
LINE
  8
LAYER_2
 10
28.0841
 20
105.5444
 11
28.0836
 21
105.6445
  0
LINE
  8
LAYER_2
 10
28.0836
 20
105.6445
 11
28.0602
 21
105.7435
  0
LINE
  8
LAYER_2
 10
28.0602
 20
105.7435
 11
28.0133
 21
105.8375
  0
ENDBLK
  0
BLOCK
  8
LAYER_2
  2
AIGNBL02010100
 70
64
 10
0
 20
0
 30
0
  3
AIGNBL02010100
  0
LINE
  8
LAYER_2
 10
-11.3147
 20
105.0238
 11
-11.3564
 21
104.9493
  0
LINE
  8
LAYER_2
 10
-11.3564
 20
104.9493
 11
-11.4059
 21
104.8918
  0
LINE
  8
LAYER_2
 10
-11.4059
 20
104.8918
 11
-11.4613
 21
104.8521
  0
LINE
  8
LAYER_2
 10
-11.4613
 20
104.8521
 11
-11.5004
 21
104.8208
  0
LINE
  8
LAYER_2
 10
-11.5004
 20
104.8208
 11
-11.6127
 21
104.7977
  0
ENDBLK
  0
BLOCK
  8
LAYER_2
  2
AIGNBL02010101
 70
64
 10
0
 20
0
 30
0
  3
AIGNBL02010101
  0
LINE
  8
LAYER_2
 10
42.9943
 20
109.5599
 11
42.9943
 21
110.3932
  0
ENDBLK
  0
BLOCK
  8
LAYER_2
  2
AIGNBL02010102
 70
64
 10
0
 20
0
 30
0
  3
AIGNBL02010102
  0
ARC
  8
LAYER_2
 10
43.161
 20
110.3932
 40
0.1667
 50
89.99748797
 51
180.002512
  0
ENDBLK
  0
BLOCK
  8
LAYER_2
  2
AIGNBL02010103
 70
64
 10
0
 20
0
 30
0
  3
AIGNBL02010103
  0
LINE
  8
LAYER_2
 10
43.161
 20
110.5599
 11
43.7277
 21
110.5599
  0
ENDBLK
  0
BLOCK
  8
LAYER_2
  2
AIGNBL02010104
 70
64
 10
0
 20
0
 30
0
  3
AIGNBL02010104
  0
LINE
  8
LAYER_2
 10
43.7277
 20
110.5599
 11
43.7277
 21
109.5599
  0
ENDBLK
  0
BLOCK
  8
LAYER_2
  2
AIGNBL02010105
 70
64
 10
0
 20
0
 30
0
  3
AIGNBL02010105
  0
ARC
  8
LAYER_2
 10
43.161
 20
105.1933
 40
0.1667
 50
180.0218293
 51
270.0125516
  0
ENDBLK
  0
BLOCK
  8
LAYER_2
  2
AIGNBL02010106
 70
64
 10
0
 20
0
 30
0
  3
AIGNBL02010106
  0
LINE
  8
LAYER_2
 10
42.9943
 20
105.1932
 11
42.9943
 21
106.0266
  0
ENDBLK
  0
BLOCK
  8
LAYER_2
  2
AIGNBL02010107
 70
64
 10
0
 20
0
 30
0
  3
AIGNBL02010107
  0
LINE
  8
LAYER_2
 10
43.7277
 20
106.0266
 11
43.7277
 21
109.5599
  0
ENDBLK
  0
BLOCK
  8
LAYER_2
  2
AIGNBL02010108
 70
64
 10
0
 20
0
 30
0
  3
AIGNBL02010108
  0
LINE
  8
LAYER_2
 10
43.7277
 20
105.0266
 11
43.161
 21
105.0266
  0
ENDBLK
  0
BLOCK
  8
LAYER_2
  2
AIGNBL02010109
 70
64
 10
0
 20
0
 30
0
  3
AIGNBL02010109
  0
LINE
  8
LAYER_2
 10
43.7277
 20
106.0266
 11
43.7277
 21
105.0266
  0
ENDBLK
  0
BLOCK
  8
LAYER_2
  2
AIGNBL0201010A
 70
64
 10
0
 20
0
 30
0
  3
AIGNBL0201010A
  0
LINE
  8
LAYER_2
 10
42.9943
 20
106.0266
 11
42.9943
 21
109.5599
  0
ENDBLK
  0
BLOCK
  8
LAYER_2
  2
AIGNBL0201010B
 70
64
 10
0
 20
0
 30
0
  3
AIGNBL0201010B
  0
ARC
  8
LAYER_2
 10
42.8276
 20
105.2932
 40
0.1667
 50
359.9838985
 51
89.98172054
  0
ENDBLK
  0
BLOCK
  8
LAYER_2
  2
AIGNBL0201010C
 70
64
 10
0
 20
0
 30
0
  3
AIGNBL0201010C
  0
ARC
  8
LAYER_2
 10
42.8277
 20
110.2932
 40
0.1666
 50
270.0082445
 51
359.9917555
  0
ENDBLK
  0
BLOCK
  8
LAYER_2
  2
AIGNBL0201010D
 70
64
 10
0
 20
0
 30
0
  3
AIGNBL0201010D
  0
LINE
  8
LAYER_2
 10
42.2277
 20
105.4599
 11
40.164
 21
105.4599
  0
ENDBLK
  0
BLOCK
  8
LAYER_2
  2
AIGNBL0201010E
 70
64
 10
0
 20
0
 30
0
  3
AIGNBL0201010E
  0
LINE
  8
LAYER_2
 10
42.2277
 20
110.1266
 11
42.8277
 21
110.1266
  0
ENDBLK
  0
BLOCK
  8
LAYER_2
  2
AIGNBL0201010F
 70
64
 10
0
 20
0
 30
0
  3
AIGNBL0201010F
  0
LINE
  8
LAYER_2
 10
40.164
 20
110.1266
 11
42.2277
 21
110.1266
  0
ENDBLK
  0
BLOCK
  8
LAYER_2
  2
AIGNBL02010110
 70
64
 10
0
 20
0
 30
0
  3
AIGNBL02010110
  0
LINE
  8
LAYER_2
 10
42.8277
 20
105.4599
 11
42.2277
 21
105.4599
  0
ENDBLK
  0
BLOCK
  8
LAYER_2
  2
AIGNBL02010111
 70
64
 10
0
 20
0
 30
0
  3
AIGNBL02010111
  0
LINE
  8
LAYER_2
 10
39.7716
 20
106.0387
 11
39.7679
 21
106.0457
  0
LINE
  8
LAYER_2
 10
39.7679
 20
106.0457
 11
39.7325
 21
106.0893
  0
LINE
  8
LAYER_2
 10
39.7325
 20
106.0893
 11
39.6844
 21
106.1189
  0
LINE
  8
LAYER_2
 10
39.6844
 20
106.1189
 11
39.6295
 21
106.1306
  0
ENDBLK
  0
BLOCK
  8
LAYER_2
  2
AIGNBL02010112
 70
64
 10
0
 20
0
 30
0
  3
AIGNBL02010112
  0
LINE
  8
LAYER_2
 10
39.6295
 20
109.4558
 11
39.6395
 21
109.4565
  0
LINE
  8
LAYER_2
 10
39.6395
 20
109.4565
 11
39.693
 21
109.4713
  0
LINE
  8
LAYER_2
 10
39.693
 20
109.4713
 11
39.7387
 21
109.5028
  0
LINE
  8
LAYER_2
 10
39.7387
 20
109.5028
 11
39.7716
 21
109.5478
  0
ENDBLK
  0
BLOCK
  8
LAYER_2
  2
AIGNBL02010113
 70
64
 10
0
 20
0
 30
0
  3
AIGNBL02010113
  0
LINE
  8
LAYER_2
 10
39.7716
 20
109.5478
 11
40.0125
 21
110.0296
  0
ENDBLK
  0
BLOCK
  8
LAYER_2
  2
AIGNBL02010114
 70
64
 10
0
 20
0
 30
0
  3
AIGNBL02010114
  0
LINE
  8
LAYER_2
 10
40.0125
 20
105.5569
 11
39.7716
 21
106.0387
  0
ENDBLK
  0
BLOCK
  8
LAYER_2
  2
AIGNBL02010115
 70
64
 10
0
 20
0
 30
0
  3
AIGNBL02010115
  0
LINE
  8
LAYER_2
 10
39.6295
 20
106.1306
 11
38.6085
 21
106.1731
  0
LINE
  8
LAYER_2
 10
38.6085
 20
106.1731
 11
37.6076
 21
106.2147
  0
LINE
  8
LAYER_2
 10
37.6076
 20
106.2147
 11
36.6322
 21
106.2553
  0
ENDBLK
  0
BLOCK
  8
LAYER_2
  2
AIGNBL02010116
 70
64
 10
0
 20
0
 30
0
  3
AIGNBL02010116
  0
LINE
  8
LAYER_2
 10
36.6322
 20
109.3311
 11
37.6076
 21
109.3717
  0
LINE
  8
LAYER_2
 10
37.6076
 20
109.3717
 11
38.6085
 21
109.4133
  0
LINE
  8
LAYER_2
 10
38.6085
 20
109.4133
 11
39.6295
 21
109.4558
  0
ENDBLK
  0
BLOCK
  8
LAYER_2
  2
AIGNBL02010117
 70
64
 10
0
 20
0
 30
0
  3
AIGNBL02010117
  0
LINE
  8
LAYER_2
 10
34.3928
 20
106.2783
 11
34.3943
 21
106.2934
  0
ENDBLK
  0
BLOCK
  8
LAYER_2
  2
AIGNBL02010118
 70
64
 10
0
 20
0
 30
0
  3
AIGNBL02010118
  0
LINE
  8
LAYER_2
 10
34.3943
 20
106.2934
 11
34.3943
 21
109.2931
  0
ENDBLK
  0
BLOCK
  8
LAYER_2
  2
AIGNBL02010119
 70
64
 10
0
 20
0
 30
0
  3
AIGNBL02010119
  0
LINE
  8
LAYER_2
 10
34.3943
 20
109.2931
 11
34.3928
 21
109.3081
  0
ENDBLK
  0
BLOCK
  8
LAYER_2
  2
AIGNBL0201011A
 70
64
 10
0
 20
0
 30
0
  3
AIGNBL0201011A
  0
LINE
  8
LAYER_2
 10
35.0956
 20
109.6929
 11
35.1988
 21
109.5278
  0
ARC
  8
LAYER_2
 10
35.6837
 20
109.9324
 40
0.6316
 50
219.8417995
 51
241.0272848
  0
LINE
  8
LAYER_2
 10
35.3778
 20
109.3799
 11
35.5451
 21
109.313
  0
LINE
  8
LAYER_2
 10
35.5451
 20
109.313
 11
35.6544
 21
109.2953
  0
LINE
  8
LAYER_2
 10
35.6544
 20
109.2953
 11
35.7342
 21
109.2938
  0
ENDBLK
  0
BLOCK
  8
LAYER_2
  2
AIGNBL0201011B
 70
64
 10
0
 20
0
 30
0
  3
AIGNBL0201011B
  0
LINE
  8
LAYER_2
 10
35.7342
 20
106.2926
 11
35.6197
 21
106.2875
  0
LINE
  8
LAYER_2
 10
35.6197
 20
106.2875
 11
35.5451
 21
106.2734
  0
LINE
  8
LAYER_2
 10
35.5451
 20
106.2734
 11
35.3778
 21
106.2065
  0
ARC
  8
LAYER_2
 10
35.6447
 20
105.7012
 40
0.5715
 50
117.844875
 51
141.2860406
  0
LINE
  8
LAYER_2
 10
35.1988
 20
106.0586
 11
35.0956
 21
105.8935
  0
ENDBLK
  0
BLOCK
  8
LAYER_2
  2
AIGNBL0201011C
 70
64
 10
0
 20
0
 30
0
  3
AIGNBL0201011C
  0
LINE
  8
LAYER_2
 10
40.0149
 20
105.552
 11
40.0125
 21
105.5569
  0
ENDBLK
  0
BLOCK
  8
LAYER_2
  2
AIGNBL0201011D
 70
64
 10
0
 20
0
 30
0
  3
AIGNBL0201011D
  0
ARC
  8
LAYER_2
 10
40.164
 20
105.6266
 40
0.1667
 50
206.580404
 51
270.0118281
  0
ENDBLK
  0
BLOCK
  8
LAYER_2
  2
AIGNBL0201011E
 70
64
 10
0
 20
0
 30
0
  3
AIGNBL0201011E
  0
LINE
  8
LAYER_2
 10
40.0125
 20
110.0296
 11
40.0149
 21
110.0344
  0
ENDBLK
  0
BLOCK
  8
LAYER_2
  2
AIGNBL0201011F
 70
64
 10
0
 20
0
 30
0
  3
AIGNBL0201011F
  0
ARC
  8
LAYER_2
 10
40.164
 20
109.9599
 40
0.1667
 50
90.0095815
 51
153.4537992
  0
ENDBLK
  0
BLOCK
  8
LAYER_2
  2
AIGNBL02010120
 70
64
 10
0
 20
0
 30
0
  3
AIGNBL02010120
  0
LINE
  8
LAYER_2
 10
34.3924
 20
106.1275
 11
34.3899
 21
106.1292
  0
LINE
  8
LAYER_2
 10
34.3899
 20
106.1292
 11
34.3815
 21
106.1472
  0
LINE
  8
LAYER_2
 10
34.3815
 20
106.1472
 11
34.3794
 21
106.1803
  0
LINE
  8
LAYER_2
 10
34.3794
 20
106.1803
 11
34.3834
 21
106.2259
  0
LINE
  8
LAYER_2
 10
34.3834
 20
106.2259
 11
34.3928
 21
106.2783
  0
ENDBLK
  0
BLOCK
  8
LAYER_2
  2
AIGNBL02010121
 70
64
 10
0
 20
0
 30
0
  3
AIGNBL02010121
  0
LINE
  8
LAYER_2
 10
34.9281
 20
105.8597
 11
34.3924
 21
106.1275
  0
ENDBLK
  0
BLOCK
  8
LAYER_2
  2
AIGNBL02010122
 70
64
 10
0
 20
0
 30
0
  3
AIGNBL02010122
  0
LINE
  8
LAYER_2
 10
34.3928
 20
109.3081
 11
34.3906
 21
109.3185
  0
LINE
  8
LAYER_2
 10
34.3906
 20
109.3185
 11
34.3823
 21
109.3693
  0
LINE
  8
LAYER_2
 10
34.3823
 20
109.3693
 11
34.3793
 21
109.4126
  0
LINE
  8
LAYER_2
 10
34.3793
 20
109.4126
 11
34.3826
 21
109.4439
  0
LINE
  8
LAYER_2
 10
34.3826
 20
109.4439
 11
34.3924
 21
109.4589
  0
ENDBLK
  0
BLOCK
  8
LAYER_2
  2
AIGNBL02010123
 70
64
 10
0
 20
0
 30
0
  3
AIGNBL02010123
  0
LINE
  8
LAYER_2
 10
34.3924
 20
109.4589
 11
34.9281
 21
109.7268
  0
ENDBLK
  0
BLOCK
  8
LAYER_2
  2
AIGNBL02010124
 70
64
 10
0
 20
0
 30
0
  3
AIGNBL02010124
  0
LINE
  8
LAYER_2
 10
34.9281
 20
109.7268
 11
34.9593
 21
109.7423
  0
ENDBLK
  0
BLOCK
  8
LAYER_2
  2
AIGNBL02010125
 70
64
 10
0
 20
0
 30
0
  3
AIGNBL02010125
  0
ARC
  8
LAYER_2
 10
35.004
 20
109.6529
 40
0.1
 50
23.57984409
 51
113.6297093
  0
LINE
  8
LAYER_2
 10
34.9639
 20
109.7445
 11
34.9593
 21
109.7423
  0
ENDBLK
  0
BLOCK
  8
LAYER_2
  2
AIGNBL02010126
 70
64
 10
0
 20
0
 30
0
  3
AIGNBL02010126
  0
ARC
  8
LAYER_2
 10
35.004
 20
105.9335
 40
0.1
 50
243.451845
 51
333.4180527
  0
LINE
  8
LAYER_2
 10
35.0934
 20
105.8888
 11
35.0956
 21
105.8935
  0
ENDBLK
  0
BLOCK
  8
LAYER_2
  2
AIGNBL02010127
 70
64
 10
0
 20
0
 30
0
  3
AIGNBL02010127
  0
LINE
  8
LAYER_2
 10
34.9593
 20
105.8441
 11
34.9281
 21
105.8597
  0
ENDBLK
  0
BLOCK
  8
LAYER_2
  2
AIGNBL02010128
 70
64
 10
0
 20
0
 30
0
  3
AIGNBL02010128
  0
LINE
  8
LAYER_2
 10
36.6322
 20
106.2553
 11
36.3423
 21
106.2674
  0
LINE
  8
LAYER_2
 10
36.3423
 20
106.2674
 11
36.0409
 21
106.2799
  0
LINE
  8
LAYER_2
 10
36.0409
 20
106.2799
 11
35.7342
 21
106.2926
  0
ENDBLK
  0
BLOCK
  8
LAYER_2
  2
AIGNBL02010129
 70
64
 10
0
 20
0
 30
0
  3
AIGNBL02010129
  0
LINE
  8
LAYER_2
 10
35.7342
 20
109.2938
 11
36.0409
 21
109.3066
  0
LINE
  8
LAYER_2
 10
36.0409
 20
109.3066
 11
36.3423
 21
109.3191
  0
LINE
  8
LAYER_2
 10
36.3423
 20
109.3191
 11
36.6322
 21
109.3311
  0
ENDBLK
  0
BLOCK
  8
LAYER_2
  2
AIGNBL0201012A
 70
64
 10
0
 20
0
 30
0
  3
AIGNBL0201012A
  0
LINE
  8
LAYER_2
 10
33.8943
 20
109.417
 11
33.8943
 21
109.2502
  0
ENDBLK
  0
BLOCK
  8
LAYER_2
  2
AIGNBL0201012B
 70
64
 10
0
 20
0
 30
0
  3
AIGNBL0201012B
  0
LINE
  8
LAYER_2
 10
33.8943
 20
109.417
 11
34.3943
 21
109.4599
  0
ENDBLK
  0
BLOCK
  8
LAYER_2
  2
AIGNBL0201012C
 70
64
 10
0
 20
0
 30
0
  3
AIGNBL0201012C
  0
LINE
  8
LAYER_2
 10
34.3943
 20
106.1266
 11
33.8943
 21
106.1694
  0
ENDBLK
  0
BLOCK
  8
LAYER_2
  2
AIGNBL0201012D
 70
64
 10
0
 20
0
 30
0
  3
AIGNBL0201012D
  0
LINE
  8
LAYER_2
 10
33.8943
 20
106.3362
 11
33.8943
 21
106.1694
  0
ENDBLK
  0
BLOCK
  8
LAYER_2
  2
AIGNBL0201012E
 70
64
 10
0
 20
0
 30
0
  3
AIGNBL0201012E
  0
LINE
  8
LAYER_2
 10
33.8943
 20
109.2502
 11
33.8943
 21
106.3362
  0
ENDBLK
  0
BLOCK
  8
LAYER_2
  2
AIGNBL0201012F
 70
64
 10
0
 20
0
 30
0
  3
AIGNBL0201012F
  0
LINE
  8
LAYER_2
 10
32.561
 20
109.3027
 11
32.561
 21
109.1359
  0
ENDBLK
  0
BLOCK
  8
LAYER_2
  2
AIGNBL02010130
 70
64
 10
0
 20
0
 30
0
  3
AIGNBL02010130
  0
LINE
  8
LAYER_2
 10
32.561
 20
109.3027
 11
33.2277
 21
109.3599
  0
ENDBLK
  0
BLOCK
  8
LAYER_2
  2
AIGNBL02010131
 70
64
 10
0
 20
0
 30
0
  3
AIGNBL02010131
  0
LINE
  8
LAYER_2
 10
33.2277
 20
109.3599
 11
33.2277
 21
109.1931
  0
ENDBLK
  0
BLOCK
  8
LAYER_2
  2
AIGNBL02010132
 70
64
 10
0
 20
0
 30
0
  3
AIGNBL02010132
  0
LINE
  8
LAYER_2
 10
33.2277
 20
106.2266
 11
32.561
 21
106.2837
  0
ENDBLK
  0
BLOCK
  8
LAYER_2
  2
AIGNBL02010133
 70
64
 10
0
 20
0
 30
0
  3
AIGNBL02010133
  0
LINE
  8
LAYER_2
 10
32.561
 20
106.4505
 11
32.561
 21
106.2837
  0
ENDBLK
  0
BLOCK
  8
LAYER_2
  2
AIGNBL02010134
 70
64
 10
0
 20
0
 30
0
  3
AIGNBL02010134
  0
LINE
  8
LAYER_2
 10
33.2277
 20
106.3934
 11
33.2277
 21
106.2266
  0
ENDBLK
  0
BLOCK
  8
LAYER_2
  2
AIGNBL02010135
 70
64
 10
0
 20
0
 30
0
  3
AIGNBL02010135
  0
LINE
  8
LAYER_2
 10
32.561
 20
109.1359
 11
32.561
 21
106.4505
  0
ENDBLK
  0
BLOCK
  8
LAYER_2
  2
AIGNBL02010136
 70
64
 10
0
 20
0
 30
0
  3
AIGNBL02010136
  0
LINE
  8
LAYER_2
 10
33.2277
 20
109.1931
 11
33.2277
 21
106.3934
  0
ENDBLK
  0
BLOCK
  8
LAYER_2
  2
AIGNBL02010137
 70
64
 10
0
 20
0
 30
0
  3
AIGNBL02010137
  0
LINE
  8
LAYER_2
 10
31.2277
 20
109.0216
 11
31.2277
 21
106.5648
  0
ENDBLK
  0
BLOCK
  8
LAYER_2
  2
AIGNBL02010138
 70
64
 10
0
 20
0
 30
0
  3
AIGNBL02010138
  0
LINE
  8
LAYER_2
 10
31.8943
 20
109.0788
 11
31.8943
 21
106.5077
  0
ENDBLK
  0
BLOCK
  8
LAYER_2
  2
AIGNBL02010139
 70
64
 10
0
 20
0
 30
0
  3
AIGNBL02010139
  0
LINE
  8
LAYER_2
 10
31.2277
 20
109.1885
 11
31.2277
 21
109.0216
  0
ENDBLK
  0
BLOCK
  8
LAYER_2
  2
AIGNBL0201013A
 70
64
 10
0
 20
0
 30
0
  3
AIGNBL0201013A
  0
LINE
  8
LAYER_2
 10
31.2277
 20
109.1885
 11
31.8943
 21
109.2456
  0
ENDBLK
  0
BLOCK
  8
LAYER_2
  2
AIGNBL0201013B
 70
64
 10
0
 20
0
 30
0
  3
AIGNBL0201013B
  0
LINE
  8
LAYER_2
 10
31.8943
 20
109.2456
 11
31.8943
 21
109.0788
  0
ENDBLK
  0
BLOCK
  8
LAYER_2
  2
AIGNBL0201013C
 70
64
 10
0
 20
0
 30
0
  3
AIGNBL0201013C
  0
LINE
  8
LAYER_2
 10
31.8943
 20
106.3408
 11
31.2277
 21
106.398
  0
ENDBLK
  0
BLOCK
  8
LAYER_2
  2
AIGNBL0201013D
 70
64
 10
0
 20
0
 30
0
  3
AIGNBL0201013D
  0
LINE
  8
LAYER_2
 10
31.2277
 20
106.5648
 11
31.2277
 21
106.398
  0
ENDBLK
  0
BLOCK
  8
LAYER_2
  2
AIGNBL0201013E
 70
64
 10
0
 20
0
 30
0
  3
AIGNBL0201013E
  0
LINE
  8
LAYER_2
 10
31.8943
 20
106.5077
 11
31.8943
 21
106.3408
  0
ENDBLK
  0
BLOCK
  8
LAYER_2
  2
AIGNBL0201013F
 70
64
 10
0
 20
0
 30
0
  3
AIGNBL0201013F
  0
LINE
  8
LAYER_2
 10
29.8943
 20
109.0742
 11
29.8943
 21
108.9074
  0
ENDBLK
  0
BLOCK
  8
LAYER_2
  2
AIGNBL02010140
 70
64
 10
0
 20
0
 30
0
  3
AIGNBL02010140
  0
LINE
  8
LAYER_2
 10
29.8943
 20
109.0742
 11
30.561
 21
109.1313
  0
ENDBLK
  0
BLOCK
  8
LAYER_2
  2
AIGNBL02010141
 70
64
 10
0
 20
0
 30
0
  3
AIGNBL02010141
  0
LINE
  8
LAYER_2
 10
30.561
 20
109.1313
 11
30.561
 21
108.9645
  0
ENDBLK
  0
BLOCK
  8
LAYER_2
  2
AIGNBL02010142
 70
64
 10
0
 20
0
 30
0
  3
AIGNBL02010142
  0
LINE
  8
LAYER_2
 10
30.561
 20
106.4551
 11
29.8943
 21
106.5123
  0
ENDBLK
  0
BLOCK
  8
LAYER_2
  2
AIGNBL02010143
 70
64
 10
0
 20
0
 30
0
  3
AIGNBL02010143
  0
LINE
  8
LAYER_2
 10
29.8943
 20
106.6791
 11
29.8943
 21
106.5123
  0
ENDBLK
  0
BLOCK
  8
LAYER_2
  2
AIGNBL02010144
 70
64
 10
0
 20
0
 30
0
  3
AIGNBL02010144
  0
LINE
  8
LAYER_2
 10
30.561
 20
106.6219
 11
30.561
 21
106.4551
  0
ENDBLK
  0
BLOCK
  8
LAYER_2
  2
AIGNBL02010145
 70
64
 10
0
 20
0
 30
0
  3
AIGNBL02010145
  0
LINE
  8
LAYER_2
 10
29.8943
 20
108.9074
 11
29.8943
 21
106.6791
  0
ENDBLK
  0
BLOCK
  8
LAYER_2
  2
AIGNBL02010146
 70
64
 10
0
 20
0
 30
0
  3
AIGNBL02010146
  0
LINE
  8
LAYER_2
 10
30.561
 20
108.9645
 11
30.561
 21
106.6219
  0
ENDBLK
  0
BLOCK
  8
LAYER_2
  2
AIGNBL02010147
 70
64
 10
0
 20
0
 30
0
  3
AIGNBL02010147
  0
LINE
  8
LAYER_2
 10
28.7134
 20
108.973
 11
29.2277
 21
109.017
  0
ENDBLK
  0
BLOCK
  8
LAYER_2
  2
AIGNBL02010148
 70
64
 10
0
 20
0
 30
0
  3
AIGNBL02010148
  0
LINE
  8
LAYER_2
 10
29.2277
 20
109.017
 11
29.2277
 21
108.8502
  0
ENDBLK
  0
BLOCK
  8
LAYER_2
  2
AIGNBL02010149
 70
64
 10
0
 20
0
 30
0
  3
AIGNBL02010149
  0
LINE
  8
LAYER_2
 10
29.2277
 20
108.8502
 11
29.2277
 21
106.7362
  0
ENDBLK
  0
BLOCK
  8
LAYER_2
  2
AIGNBL0201014A
 70
64
 10
0
 20
0
 30
0
  3
AIGNBL0201014A
  0
LINE
  8
LAYER_2
 10
29.2277
 20
106.5694
 11
28.7134
 21
106.6135
  0
ENDBLK
  0
BLOCK
  8
LAYER_2
  2
AIGNBL0201014B
 70
64
 10
0
 20
0
 30
0
  3
AIGNBL0201014B
  0
LINE
  8
LAYER_2
 10
29.2277
 20
106.7362
 11
29.2277
 21
106.5694
  0
ENDBLK
  0
BLOCK
  8
LAYER_2
  2
AIGNBL0201014C
 70
64
 10
0
 20
0
 30
0
  3
AIGNBL0201014C
  0
ARC
  8
LAYER_2
 10
28.7277
 20
108.8069
 40
0.1667
 50
94.91939325
 51
180.0066263
  0
ENDBLK
  0
BLOCK
  8
LAYER_2
  2
AIGNBL0201014D
 70
64
 10
0
 20
0
 30
0
  3
AIGNBL0201014D
  0
LINE
  8
LAYER_2
 10
28.561
 20
106.7795
 11
28.561
 21
108.8069
  0
ENDBLK
  0
BLOCK
  8
LAYER_2
  2
AIGNBL0201014E
 70
64
 10
0
 20
0
 30
0
  3
AIGNBL0201014E
  0
ARC
  8
LAYER_2
 10
28.7277
 20
106.7796
 40
0.1667
 50
180.0185743
 51
265.0897848
  0
ENDBLK
  0
BLOCK
  8
LAYER_2
  2
AIGNBL0201014F
 70
64
 10
0
 20
0
 30
0
  3
AIGNBL0201014F
  0
LINE
  8
LAYER_2
 10
33.8943
 20
107.4599
 11
33.2277
 21
107.4599
  0
ENDBLK
  0
BLOCK
  8
LAYER_2
  2
AIGNBL02010150
 70
64
 10
0
 20
0
 30
0
  3
AIGNBL02010150
  0
LINE
  8
LAYER_2
 10
33.8943
 20
108.1266
 11
33.2277
 21
108.1266
  0
ENDBLK
  0
BLOCK
  8
LAYER_2
  2
AIGNBL02010151
 70
64
 10
0
 20
0
 30
0
  3
AIGNBL02010151
  0
LINE
  8
LAYER_2
 10
32.561
 20
107.4599
 11
31.8943
 21
107.4599
  0
ENDBLK
  0
BLOCK
  8
LAYER_2
  2
AIGNBL02010152
 70
64
 10
0
 20
0
 30
0
  3
AIGNBL02010152
  0
LINE
  8
LAYER_2
 10
32.561
 20
108.1266
 11
31.8943
 21
108.1266
  0
ENDBLK
  0
BLOCK
  8
LAYER_2
  2
AIGNBL02010153
 70
64
 10
0
 20
0
 30
0
  3
AIGNBL02010153
  0
LINE
  8
LAYER_2
 10
31.2277
 20
107.4599
 11
30.561
 21
107.4599
  0
ENDBLK
  0
BLOCK
  8
LAYER_2
  2
AIGNBL02010154
 70
64
 10
0
 20
0
 30
0
  3
AIGNBL02010154
  0
LINE
  8
LAYER_2
 10
31.2277
 20
108.1266
 11
30.561
 21
108.1266
  0
ENDBLK
  0
BLOCK
  8
LAYER_2
  2
AIGNBL02010155
 70
64
 10
0
 20
0
 30
0
  3
AIGNBL02010155
  0
LINE
  8
LAYER_2
 10
29.8943
 20
108.1266
 11
29.2277
 21
108.1266
  0
ENDBLK
  0
BLOCK
  8
LAYER_2
  2
AIGNBL02010156
 70
64
 10
0
 20
0
 30
0
  3
AIGNBL02010156
  0
LINE
  8
LAYER_2
 10
29.8943
 20
107.4599
 11
29.2277
 21
107.4599
  0
ENDBLK
  0
BLOCK
  8
LAYER_2
  2
AIGNBL02010157
 70
64
 10
0
 20
0
 30
0
  3
AIGNBL02010157
  0
LINE
  8
LAYER_2
 10
33.8943
 20
108.5099
 11
33.2277
 21
108.5099
  0
ENDBLK
  0
BLOCK
  8
LAYER_2
  2
AIGNBL02010158
 70
64
 10
0
 20
0
 30
0
  3
AIGNBL02010158
  0
LINE
  8
LAYER_2
 10
31.2277
 20
108.5099
 11
30.561
 21
108.5099
  0
ENDBLK
  0
BLOCK
  8
LAYER_2
  2
AIGNBL02010159
 70
64
 10
0
 20
0
 30
0
  3
AIGNBL02010159
  0
LINE
  8
LAYER_2
 10
32.561
 20
108.5099
 11
31.8943
 21
108.5099
  0
ENDBLK
  0
BLOCK
  8
LAYER_2
  2
AIGNBL0201015A
 70
64
 10
0
 20
0
 30
0
  3
AIGNBL0201015A
  0
LINE
  8
LAYER_2
 10
32.561
 20
107.0766
 11
31.8943
 21
107.0766
  0
ENDBLK
  0
BLOCK
  8
LAYER_2
  2
AIGNBL0201015B
 70
64
 10
0
 20
0
 30
0
  3
AIGNBL0201015B
  0
LINE
  8
LAYER_2
 10
31.2277
 20
107.0766
 11
30.561
 21
107.0766
  0
ENDBLK
  0
BLOCK
  8
LAYER_2
  2
AIGNBL0201015C
 70
64
 10
0
 20
0
 30
0
  3
AIGNBL0201015C
  0
LINE
  8
LAYER_2
 10
29.8943
 20
107.0766
 11
29.2277
 21
107.0766
  0
ENDBLK
  0
BLOCK
  8
LAYER_2
  2
AIGNBL0201015D
 70
64
 10
0
 20
0
 30
0
  3
AIGNBL0201015D
  0
LINE
  8
LAYER_2
 10
29.8943
 20
108.5099
 11
29.2277
 21
108.5099
  0
ENDBLK
  0
BLOCK
  8
LAYER_2
  2
AIGNBL0201015E
 70
64
 10
0
 20
0
 30
0
  3
AIGNBL0201015E
  0
LINE
  8
LAYER_2
 10
33.8943
 20
107.0766
 11
33.2277
 21
107.0766
  0
ENDBLK
  0
BLOCK
  8
LAYER_2
  2
AIGNBL0201015F
 70
64
 10
0
 20
0
 30
0
  3
AIGNBL0201015F
  0
LINE
  8
LAYER_2
 10
33.2277
 20
109.1926
 11
33.8943
 21
109.2498
  0
ENDBLK
  0
BLOCK
  8
LAYER_2
  2
AIGNBL02010160
 70
64
 10
0
 20
0
 30
0
  3
AIGNBL02010160
  0
LINE
  8
LAYER_2
 10
32.561
 20
106.451
 11
31.8943
 21
106.5081
  0
ENDBLK
  0
BLOCK
  8
LAYER_2
  2
AIGNBL02010161
 70
64
 10
0
 20
0
 30
0
  3
AIGNBL02010161
  0
LINE
  8
LAYER_2
 10
30.561
 20
108.964
 11
31.2277
 21
109.0212
  0
ENDBLK
  0
BLOCK
  8
LAYER_2
  2
AIGNBL02010162
 70
64
 10
0
 20
0
 30
0
  3
AIGNBL02010162
  0
LINE
  8
LAYER_2
 10
33.8943
 20
106.3367
 11
33.2277
 21
106.3938
  0
ENDBLK
  0
BLOCK
  8
LAYER_2
  2
AIGNBL02010163
 70
64
 10
0
 20
0
 30
0
  3
AIGNBL02010163
  0
LINE
  8
LAYER_2
 10
31.8943
 20
109.0783
 11
32.561
 21
109.1355
  0
ENDBLK
  0
BLOCK
  8
LAYER_2
  2
AIGNBL02010164
 70
64
 10
0
 20
0
 30
0
  3
AIGNBL02010164
  0
LINE
  8
LAYER_2
 10
29.8943
 20
106.6795
 11
29.2277
 21
106.7367
  0
ENDBLK
  0
BLOCK
  8
LAYER_2
  2
AIGNBL02010165
 70
64
 10
0
 20
0
 30
0
  3
AIGNBL02010165
  0
LINE
  8
LAYER_2
 10
29.2277
 20
108.8498
 11
29.8943
 21
108.9069
  0
ENDBLK
  0
BLOCK
  8
LAYER_2
  2
AIGNBL02010166
 70
64
 10
0
 20
0
 30
0
  3
AIGNBL02010166
  0
LINE
  8
LAYER_2
 10
31.2277
 20
106.5653
 11
30.561
 21
106.6224
  0
ENDBLK
  0
BLOCK
  8
LAYER_2
  2
AIGNBL02010167
 70
64
 10
0
 20
0
 30
0
  3
AIGNBL02010167
  0
LINE
  8
LAYER_2
 10
45.2789
 20
108.9099
 11
45.2789
 21
106.6766
  0
ENDBLK
  0
BLOCK
  8
LAYER_2
  2
AIGNBL02010168
 70
64
 10
0
 20
0
 30
0
  3
AIGNBL02010168
  0
LINE
  8
LAYER_2
 10
45.2789
 20
106.6766
 11
43.7277
 21
106.6766
  0
ENDBLK
  0
BLOCK
  8
LAYER_2
  2
AIGNBL02010169
 70
64
 10
0
 20
0
 30
0
  3
AIGNBL02010169
  0
LINE
  8
LAYER_2
 10
45.2789
 20
108.9099
 11
43.7277
 21
108.9099
  0
ENDBLK
  0
BLOCK
  8
LAYER_2
  2
AIGNBL0201016A
 70
64
 10
0
 20
0
 30
0
  3
AIGNBL0201016A
  0
LINE
  8
LAYER_2
 10
45.3943
 20
108.8432
 11
45.2789
 21
108.9099
  0
ENDBLK
  0
BLOCK
  8
LAYER_2
  2
AIGNBL0201016B
 70
64
 10
0
 20
0
 30
0
  3
AIGNBL0201016B
  0
LINE
  8
LAYER_2
 10
45.3943
 20
106.7432
 11
45.3943
 21
108.8432
  0
ENDBLK
  0
BLOCK
  8
LAYER_2
  2
AIGNBL0201016C
 70
64
 10
0
 20
0
 30
0
  3
AIGNBL0201016C
  0
LINE
  8
LAYER_2
 10
45.3943
 20
106.7432
 11
45.2789
 21
106.6766
  0
ENDBLK
  0
BLOCK
  8
LAYER_2
  2
AIGNBL0201016D
 70
64
 10
0
 20
0
 30
0
  3
AIGNBL0201016D
  0
ARC
  8
LAYER_2
 10
48.0418
 20
107.7932
 40
1.3525
 50
309.0721967
 51
39.07442306
  0
LINE
  8
LAYER_2
 10
49.0918
 20
108.6457
 11
48.8943
 21
108.8432
  0
ENDBLK
  0
BLOCK
  8
LAYER_2
  2
AIGNBL0201016E
 70
64
 10
0
 20
0
 30
0
  3
AIGNBL0201016E
  0
LINE
  8
LAYER_2
 10
48.8943
 20
108.8432
 11
48.8943
 21
106.7432
  0
ENDBLK
  0
BLOCK
  8
LAYER_2
  2
AIGNBL0201016F
 70
64
 10
0
 20
0
 30
0
  3
AIGNBL0201016F
  0
ARC
  8
LAYER_2
 10
47.7277
 20
107.7932
 40
0.5
 50
89.9972525
 51
180.0027475
  0
ARC
  8
LAYER_2
 10
47.7277
 20
107.7932
 40
0.5
 50
0.0003634302868
 51
89.99963656
  0
ARC
  8
LAYER_2
 10
47.7277
 20
107.7932
 40
0.5
 50
270.0027472
 51
359.9972528
  0
ARC
  8
LAYER_2
 10
47.7277
 20
107.7932
 40
0.5
 50
179.9996368
 51
270.0003632
  0
ENDBLK
  0
BLOCK
  8
LAYER_2
  2
AIGNBL02010170
 70
64
 10
0
 20
0
 30
0
  3
AIGNBL02010170
  0
LINE
  8
LAYER_2
 10
48.8943
 20
106.7432
 11
45.3943
 21
106.7432
  0
ENDBLK
  0
BLOCK
  8
LAYER_2
  2
AIGNBL02010171
 70
64
 10
0
 20
0
 30
0
  3
AIGNBL02010171
  0
LINE
  8
LAYER_2
 10
48.8943
 20
108.8432
 11
45.3943
 21
108.8432
  0
ENDBLK
  0
BLOCK
  8
LAYER_2
  2
AIGNBL02010172
 70
64
 10
0
 20
0
 30
0
  3
AIGNBL02010172
  0
LINE
  8
LAYER_2
 10
8.8967
 20
107.8465
 11
8.6324
 21
107.848
  0
ENDBLK
  0
BLOCK
  8
LAYER_2
  2
AIGNBL02010173
 70
64
 10
0
 20
0
 30
0
  3
AIGNBL02010173
  0
LINE
  8
LAYER_2
 10
8.0657
 20
107.8513
 11
7.7635
 21
107.853
  0
LINE
  8
LAYER_2
 10
7.7635
 20
107.853
 11
6.8745
 21
107.8658
  0
LINE
  8
LAYER_2
 10
6.8745
 20
107.8658
 11
6.699
 21
107.8695
  0
ENDBLK
  0
BLOCK
  8
LAYER_2
  2
AIGNBL02010174
 70
64
 10
0
 20
0
 30
0
  3
AIGNBL02010174
  0
LINE
  8
LAYER_2
 10
6.1324
 20
107.8813
 11
5.4976
 21
107.8978
  0
LINE
  8
LAYER_2
 10
5.4976
 20
107.8978
 11
4.8459
 21
107.9176
  0
LINE
  8
LAYER_2
 10
4.8459
 20
107.9176
 11
4.1104
 21
107.9433
  0
LINE
  8
LAYER_2
 10
4.1104
 20
107.9433
 11
3.0257
 21
107.9871
  0
LINE
  8
LAYER_2
 10
3.0257
 20
107.9871
 11
1.619
 21
108.053
  0
LINE
  8
LAYER_2
 10
1.619
 20
108.053
 11
0.1964
 21
108.1281
  0
LINE
  8
LAYER_2
 10
0.1964
 20
108.1281
 11
-1.184
 21
108.2072
  0
LINE
  8
LAYER_2
 10
-1.184
 20
108.2072
 11
-2.4402
 21
108.2828
  0
LINE
  8
LAYER_2
 10
-2.4402
 20
108.2828
 11
-3.7332
 21
108.3626
  0
LINE
  8
LAYER_2
 10
-3.7332
 20
108.3626
 11
-5.0905
 21
108.4476
  0
LINE
  8
LAYER_2
 10
-5.0905
 20
108.4476
 11
-6.4679
 21
108.539
  0
LINE
  8
LAYER_2
 10
-6.4679
 20
108.539
 11
-7.6528
 21
108.6211
  0
LINE
  8
LAYER_2
 10
-7.6528
 20
108.6211
 11
-8.5812
 21
108.6866
  0
LINE
  8
LAYER_2
 10
-8.5812
 20
108.6866
 11
-9.6986
 21
108.7638
  0
LINE
  8
LAYER_2
 10
-9.6986
 20
108.7638
 11
-10.7874
 21
108.8434
  0
LINE
  8
LAYER_2
 10
-10.7874
 20
108.8434
 11
-11.5501
 21
108.8951
  0
LINE
  8
LAYER_2
 10
-11.5501
 20
108.8951
 11
-12.1174
 21
108.9342
  0
LINE
  8
LAYER_2
 10
-12.1174
 20
108.9342
 11
-12.5286
 21
108.9668
  0
LINE
  8
LAYER_2
 10
-12.5286
 20
108.9668
 11
-12.654
 21
108.9795
  0
LINE
  8
LAYER_2
 10
-12.654
 20
108.9795
 11
-12.7035
 21
108.983
  0
ENDBLK
  0
BLOCK
  8
LAYER_2
  2
AIGNBL02010175
 70
64
 10
0
 20
0
 30
0
  3
AIGNBL02010175
  0
LINE
  8
LAYER_2
 10
-12.8699
 20
108.9666
 11
-12.8854
 21
108.9651
  0
LINE
  8
LAYER_2
 10
-12.8854
 20
108.9651
 11
-13.0549
 21
108.9129
  0
ARC
  8
LAYER_2
 10
-12.6735
 20
108.0337
 40
0.9584
 50
113.4529549
 51
134.2487302
  0
ARC
  8
LAYER_2
 10
-12.7051
 20
108.0793
 40
0.9037
 50
134.8308518
 51
156.8977327
  0
LINE
  8
LAYER_2
 10
-13.5363
 20
108.4339
 11
-13.5893
 21
108.2646
  0
LINE
  8
LAYER_2
 10
-13.5893
 20
108.2646
 11
-13.608
 21
108.0828
  0
LINE
  8
LAYER_2
 10
-13.608
 20
108.0828
 11
-13.5901
 21
107.9009
  0
LINE
  8
LAYER_2
 10
-13.5901
 20
107.9009
 11
-13.538
 21
107.7314
  0
ARC
  8
LAYER_2
 10
-12.9262
 20
107.9334
 40
0.6443
 50
198.2769089
 51
229.4247762
  0
LINE
  8
LAYER_2
 10
-13.3453
 20
107.4441
 11
-13.2562
 21
107.3837
  0
ENDBLK
  0
BLOCK
  8
LAYER_2
  2
AIGNBL02010176
 70
64
 10
0
 20
0
 30
0
  3
AIGNBL02010176
  0
LINE
  8
LAYER_2
 10
-12.6262
 20
105.7909
 11
-12.5911
 21
105.7909
  0
LINE
  8
LAYER_2
 10
-12.5911
 20
105.7909
 11
-12.4674
 21
105.783
  0
LINE
  8
LAYER_2
 10
-12.4674
 20
105.783
 11
-12.075
 21
105.7584
  0
LINE
  8
LAYER_2
 10
-12.075
 20
105.7584
 11
-11.8326
 21
105.7443
  0
LINE
  8
LAYER_2
 10
-11.8326
 20
105.7443
 11
-11.5949
 21
105.7364
  0
LINE
  8
LAYER_2
 10
-11.5949
 20
105.7364
 11
-11.2712
 21
105.719
  0
LINE
  8
LAYER_2
 10
-11.2712
 20
105.719
 11
-10.8725
 21
105.6988
  0
LINE
  8
LAYER_2
 10
-10.8725
 20
105.6988
 11
-9.802
 21
105.6443
  0
LINE
  8
LAYER_2
 10
-9.802
 20
105.6443
 11
-8.7183
 21
105.5932
  0
LINE
  8
LAYER_2
 10
-8.7183
 20
105.5932
 11
-7.7326
 21
105.5416
  0
LINE
  8
LAYER_2
 10
-7.7326
 20
105.5416
 11
-6.1547
 21
105.4641
  0
LINE
  8
LAYER_2
 10
-6.1547
 20
105.4641
 11
-4.4564
 21
105.3854
  0
LINE
  8
LAYER_2
 10
-4.4564
 20
105.3854
 11
-2.8248
 21
105.3119
  0
LINE
  8
LAYER_2
 10
-2.8248
 20
105.3119
 11
-1.2531
 21
105.2437
  0
LINE
  8
LAYER_2
 10
-1.2531
 20
105.2437
 11
-0.1847
 21
105.2002
  0
ENDBLK
  0
BLOCK
  8
LAYER_2
  2
AIGNBL02010177
 70
64
 10
0
 20
0
 30
0
  3
AIGNBL02010177
  0
LINE
  8
LAYER_2
 10
-13.213
 20
107.4188
 11
-13.3975
 21
107.2691
  0
ARC
  8
LAYER_2
 10
-12.7811
 20
106.7308
 40
0.8183
 50
138.8713785
 51
163.2704278
  0
LINE
  8
LAYER_2
 10
-13.5648
 20
106.9664
 11
-13.6023
 21
106.793
  0
LINE
  8
LAYER_2
 10
-13.6023
 20
106.793
 11
-13.6045
 21
106.6103
  0
LINE
  8
LAYER_2
 10
-13.6045
 20
106.6103
 11
-13.5702
 21
106.4307
  0
LINE
  8
LAYER_2
 10
-13.5702
 20
106.4307
 11
-13.5029
 21
106.2666
  0
ARC
  8
LAYER_2
 10
-12.702
 20
106.6934
 40
0.9076
 50
208.0527841
 51
230.0272817
  0
ARC
  8
LAYER_2
 10
-12.6935
 20
106.7106
 40
0.9262
 50
230.3102782
 51
251.8315282
  0
LINE
  8
LAYER_2
 10
-12.9823
 20
105.8306
 11
-12.8089
 21
105.7931
  0
LINE
  8
LAYER_2
 10
-12.8089
 20
105.7931
 11
-12.6262
 21
105.7909
  0
ENDBLK
  0
BLOCK
  8
LAYER_2
  2
AIGNBL02010178
 70
64
 10
0
 20
0
 30
0
  3
AIGNBL02010178
  0
LINE
  8
LAYER_2
 10
27.355
 20
107.9349
 11
27.3095
 21
107.9298
  0
LINE
  8
LAYER_2
 10
27.3095
 20
107.9298
 11
27.2553
 21
107.9298
  0
LINE
  8
LAYER_2
 10
27.2553
 20
107.9298
 11
27.1751
 21
107.9298
  0
LINE
  8
LAYER_2
 10
27.1751
 20
107.9298
 11
27.0249
 21
107.9298
  0
LINE
  8
LAYER_2
 10
27.0249
 20
107.9298
 11
26.908
 21
107.9298
  0
LINE
  8
LAYER_2
 10
26.908
 20
107.9298
 11
26.8413
 21
107.9298
  0
LINE
  8
LAYER_2
 10
26.8413
 20
107.9298
 11
26.7548
 21
107.9298
  0
LINE
  8
LAYER_2
 10
26.7548
 20
107.9298
 11
26.6704
 21
107.9298
  0
LINE
  8
LAYER_2
 10
26.6704
 20
107.9298
 11
26.571
 21
107.9299
  0
LINE
  8
LAYER_2
 10
26.571
 20
107.9299
 11
26.4054
 21
107.9299
  0
LINE
  8
LAYER_2
 10
26.4054
 20
107.9299
 11
25.8996
 21
107.9294
  0
LINE
  8
LAYER_2
 10
25.8996
 20
107.9294
 11
25.513
 21
107.9267
  0
LINE
  8
LAYER_2
 10
25.513
 20
107.9267
 11
24.9137
 21
107.9168
  0
LINE
  8
LAYER_2
 10
24.9137
 20
107.9168
 11
24.5247
 21
107.9132
  0
LINE
  8
LAYER_2
 10
24.5247
 20
107.9132
 11
24.1034
 21
107.9101
  0
LINE
  8
LAYER_2
 10
24.1034
 20
107.9101
 11
23.7541
 21
107.9068
  0
LINE
  8
LAYER_2
 10
23.7541
 20
107.9068
 11
23.2286
 21
107.9026
  0
LINE
  8
LAYER_2
 10
23.2286
 20
107.9026
 11
22.5636
 21
107.8988
  0
LINE
  8
LAYER_2
 10
22.5636
 20
107.8988
 11
21.9546
 21
107.8962
  0
LINE
  8
LAYER_2
 10
21.9546
 20
107.8962
 11
21.6403
 21
107.8949
  0
LINE
  8
LAYER_2
 10
21.6403
 20
107.8949
 11
21.2996
 21
107.8935
  0
LINE
  8
LAYER_2
 10
21.2996
 20
107.8935
 11
20.7738
 21
107.8909
  0
LINE
  8
LAYER_2
 10
20.7738
 20
107.8909
 11
19.9872
 21
107.886
  0
LINE
  8
LAYER_2
 10
19.9872
 20
107.886
 11
19.098
 21
107.8804
  0
LINE
  8
LAYER_2
 10
19.098
 20
107.8804
 11
18.2627
 21
107.8754
  0
LINE
  8
LAYER_2
 10
18.2627
 20
107.8754
 11
17.5298
 21
107.8713
  0
LINE
  8
LAYER_2
 10
17.5298
 20
107.8713
 11
17.0604
 21
107.8689
  0
LINE
  8
LAYER_2
 10
17.0604
 20
107.8689
 11
16.5542
 21
107.8663
  0
LINE
  8
LAYER_2
 10
16.5542
 20
107.8663
 11
16.0207
 21
107.8638
  0
LINE
  8
LAYER_2
 10
16.0207
 20
107.8638
 11
15.4695
 21
107.8613
  0
LINE
  8
LAYER_2
 10
15.4695
 20
107.8613
 11
14.9102
 21
107.859
  0
LINE
  8
LAYER_2
 10
14.9102
 20
107.859
 11
13.6157
 21
107.8543
  0
LINE
  8
LAYER_2
 10
13.6157
 20
107.8543
 11
12.4571
 21
107.851
  0
LINE
  8
LAYER_2
 10
12.4571
 20
107.851
 11
11.2852
 21
107.8486
  0
LINE
  8
LAYER_2
 10
11.2852
 20
107.8486
 11
10.1477
 21
107.8471
  0
LINE
  8
LAYER_2
 10
10.1477
 20
107.8471
 11
8.8967
 21
107.8465
  0
ENDBLK
  0
BLOCK
  8
LAYER_2
  2
AIGNBL02010179
 70
64
 10
0
 20
0
 30
0
  3
AIGNBL02010179
  0
LINE
  8
LAYER_2
 10
27.355
 20
107.9349
 11
27.6491
 21
107.8646
  0
LINE
  8
LAYER_2
 10
27.6491
 20
107.8646
 11
27.8325
 21
107.7591
  0
LINE
  8
LAYER_2
 10
27.8325
 20
107.7591
 11
27.9884
 21
107.6113
  0
LINE
  8
LAYER_2
 10
27.9884
 20
107.6113
 11
28.127
 21
107.3828
  0
LINE
  8
LAYER_2
 10
28.127
 20
107.3828
 11
28.1854
 21
107.1782
  0
LINE
  8
LAYER_2
 10
28.1854
 20
107.1782
 11
28.1929
 21
106.9512
  0
ARC
  8
LAYER_2
 10
27.4755
 20
106.9809
 40
0.718
 50
329.569436
 51
357.631052
  0
LINE
  8
LAYER_2
 10
28.0946
 20
106.6172
 11
27.9761
 21
106.467
  0
ENDBLK
  0
BLOCK
  8
LAYER_2
  2
AIGNBL0201017A
 70
64
 10
0
 20
0
 30
0
  3
AIGNBL0201017A
  0
LINE
  8
LAYER_2
 10
27.9761
 20
106.467
 11
28.0322
 21
106.4034
  0
ARC
  8
LAYER_2
 10
27.3741
 20
105.9243
 40
0.814
 50
18.95636805
 51
36.05801544
  0
ARC
  8
LAYER_2
 10
27.2766
 20
105.8806
 40
0.9204
 50
2.04674048
 51
19.55438141
  0
ARC
  8
LAYER_2
 10
27.2887
 20
105.8848
 40
0.9083
 50
339.3681058
 51
1.80851676
  0
LINE
  8
LAYER_2
 10
28.1387
 20
105.5648
 11
28.0456
 21
105.3835
  0
LINE
  8
LAYER_2
 10
28.0456
 20
105.3835
 11
27.9165
 21
105.2302
  0
LINE
  8
LAYER_2
 10
27.9165
 20
105.2302
 11
27.7578
 21
105.1096
  0
LINE
  8
LAYER_2
 10
27.7578
 20
105.1096
 11
27.5756
 21
105.0263
  0
LINE
  8
LAYER_2
 10
27.5756
 20
105.0263
 11
27.3764
 21
104.9851
  0
LINE
  8
LAYER_2
 10
27.3764
 20
104.9851
 11
27.1663
 21
104.9907
  0
ENDBLK
  0
BLOCK
  8
LAYER_2
  2
AIGNBL0201017B
 70
64
 10
0
 20
0
 30
0
  3
AIGNBL0201017B
  0
LINE
  8
LAYER_2
 10
11.2467
 20
104.9925
 11
12.3027
 21
104.9925
  0
LINE
  8
LAYER_2
 10
12.3027
 20
104.9925
 11
13.9138
 21
104.9925
  0
LINE
  8
LAYER_2
 10
13.9138
 20
104.9925
 11
14.5715
 21
104.9925
  0
LINE
  8
LAYER_2
 10
14.5715
 20
104.9925
 11
15.5868
 21
104.9924
  0
LINE
  8
LAYER_2
 10
15.5868
 20
104.9924
 11
17.2101
 21
104.9925
  0
LINE
  8
LAYER_2
 10
17.2101
 20
104.9925
 11
18.828
 21
104.9925
  0
LINE
  8
LAYER_2
 10
18.828
 20
104.9925
 11
19.8818
 21
104.9925
  0
LINE
  8
LAYER_2
 10
19.8818
 20
104.9925
 11
21.4435
 21
104.9925
  0
LINE
  8
LAYER_2
 10
21.4435
 20
104.9925
 11
21.9236
 21
104.9926
  0
LINE
  8
LAYER_2
 10
21.9236
 20
104.9926
 11
22.2464
 21
104.9926
  0
LINE
  8
LAYER_2
 10
22.2464
 20
104.9926
 11
22.5298
 21
104.9926
  0
LINE
  8
LAYER_2
 10
22.5298
 20
104.9926
 11
22.8029
 21
104.9926
  0
LINE
  8
LAYER_2
 10
22.8029
 20
104.9926
 11
23.0944
 21
104.9925
  0
LINE
  8
LAYER_2
 10
23.0944
 20
104.9925
 11
23.4321
 21
104.9925
  0
LINE
  8
LAYER_2
 10
23.4321
 20
104.9925
 11
23.898
 21
104.9925
  0
LINE
  8
LAYER_2
 10
23.898
 20
104.9925
 11
24.233
 21
104.9925
  0
LINE
  8
LAYER_2
 10
24.233
 20
104.9925
 11
24.5952
 21
104.9925
  0
LINE
  8
LAYER_2
 10
24.5952
 20
104.9925
 11
25.0706
 21
104.9925
  0
LINE
  8
LAYER_2
 10
25.0706
 20
104.9925
 11
25.3945
 21
104.9925
  0
LINE
  8
LAYER_2
 10
25.3945
 20
104.9925
 11
25.706
 21
104.9925
  0
LINE
  8
LAYER_2
 10
25.706
 20
104.9925
 11
26.1222
 21
104.9925
  0
LINE
  8
LAYER_2
 10
26.1222
 20
104.9925
 11
26.4231
 21
104.9925
  0
LINE
  8
LAYER_2
 10
26.4231
 20
104.9925
 11
26.7128
 21
104.9925
  0
LINE
  8
LAYER_2
 10
26.7128
 20
104.9925
 11
26.9598
 21
104.9925
  0
LINE
  8
LAYER_2
 10
26.9598
 20
104.9925
 11
27.0873
 21
104.9925
  0
LINE
  8
LAYER_2
 10
27.0873
 20
104.9925
 11
27.1063
 21
104.9921
  0
ENDBLK
  0
BLOCK
  8
LAYER_2
  2
AIGNBL0201017C
 70
64
 10
0
 20
0
 30
0
  3
AIGNBL0201017C
  0
LINE
  8
LAYER_2
 10
27.1663
 20
104.9907
 11
27.1044
 21
104.9907
  0
LINE
  8
LAYER_2
 10
27.1044
 20
104.9907
 11
27.0619
 21
104.9925
  0
ENDBLK
  0
BLOCK
  8
LAYER_2
  2
AIGNBL0201017D
 70
64
 10
0
 20
0
 30
0
  3
AIGNBL0201017D
  0
LINE
  8
LAYER_2
 10
9.1363
 20
108.947
 11
11.6842
 21
108.9388
  0
LINE
  8
LAYER_2
 10
11.6842
 20
108.9388
 11
14.2126
 21
108.9111
  0
LINE
  8
LAYER_2
 10
14.2126
 20
108.9111
 11
16.7167
 21
108.8714
  0
LINE
  8
LAYER_2
 10
16.7167
 20
108.8714
 11
19.1934
 21
108.8274
  0
LINE
  8
LAYER_2
 10
19.1934
 20
108.8274
 11
21.6704
 21
108.7833
  0
LINE
  8
LAYER_2
 10
21.6704
 20
108.7833
 11
24.1725
 21
108.743
  0
LINE
  8
LAYER_2
 10
24.1725
 20
108.743
 11
26.6938
 21
108.7137
  0
LINE
  8
LAYER_2
 10
26.6938
 20
108.7137
 11
28.561
 21
108.7054
  0
ENDBLK
  0
BLOCK
  8
LAYER_2
  2
AIGNBL0201017E
 70
64
 10
0
 20
0
 30
0
  3
AIGNBL0201017E
  0
LINE
  8
LAYER_2
 10
28.561
 20
106.9006
 11
28.1785
 21
106.9023
  0
ENDBLK
  0
BLOCK
  8
LAYER_2
  2
AIGNBL0201017F
 70
64
 10
0
 20
0
 30
0
  3
AIGNBL0201017F
  0
LINE
  8
LAYER_2
 10
-12.7035
 20
108.983
 11
-12.6326
 21
108.9828
  0
LINE
  8
LAYER_2
 10
-12.6326
 20
108.9828
 11
-12.8557
 21
108.968
  0
ENDBLK
  0
BLOCK
  8
LAYER_2
  2
AIGNBL02010180
 70
64
 10
0
 20
0
 30
0
  3
AIGNBL02010180
  0
LINE
  8
LAYER_2
 10
23.992
 20
107.9783
 11
24.2262
 21
107.9738
  0
LINE
  8
LAYER_2
 10
24.2262
 20
107.9738
 11
24.6223
 21
107.9688
  0
LINE
  8
LAYER_2
 10
24.6223
 20
107.9688
 11
25.2304
 21
107.9607
  0
LINE
  8
LAYER_2
 10
25.2304
 20
107.9607
 11
25.6434
 21
107.9539
  0
LINE
  8
LAYER_2
 10
25.6434
 20
107.9539
 11
26.0018
 21
107.9518
  0
LINE
  8
LAYER_2
 10
26.0018
 20
107.9518
 11
26.3486
 21
107.9516
  0
LINE
  8
LAYER_2
 10
26.3486
 20
107.9516
 11
26.5539
 21
107.9505
  0
LINE
  8
LAYER_2
 10
26.5539
 20
107.9505
 11
26.767
 21
107.9425
  0
LINE
  8
LAYER_2
 10
26.767
 20
107.9425
 11
26.9263
 21
107.9362
  0
LINE
  8
LAYER_2
 10
26.9263
 20
107.9362
 11
26.9952
 21
107.9352
  0
LINE
  8
LAYER_2
 10
26.9952
 20
107.9352
 11
27.0441
 21
107.9349
  0
LINE
  8
LAYER_2
 10
27.0441
 20
107.9349
 11
27.119
 21
107.9349
  0
LINE
  8
LAYER_2
 10
27.119
 20
107.9349
 11
27.1987
 21
107.9349
  0
LINE
  8
LAYER_2
 10
27.1987
 20
107.9349
 11
27.2656
 21
107.9349
  0
LINE
  8
LAYER_2
 10
27.2656
 20
107.9349
 11
27.3353
 21
107.9349
  0
LINE
  8
LAYER_2
 10
27.3353
 20
107.9349
 11
27.3507
 21
107.9349
  0
LINE
  8
LAYER_2
 10
27.3507
 20
107.9349
 11
27.355
 21
107.9349
  0
ENDBLK
  0
BLOCK
  8
LAYER_2
  2
AIGNBL02010181
 70
64
 10
0
 20
0
 30
0
  3
AIGNBL02010181
  0
LINE
  8
LAYER_2
 10
-11.6127
 20
104.7977
 11
-11.858
 21
104.8042
  0
LINE
  8
LAYER_2
 10
-11.858
 20
104.8042
 11
-12.1161
 21
104.8409
  0
LINE
  8
LAYER_2
 10
-12.1161
 20
104.8409
 11
-12.246
 21
104.8648
  0
LINE
  8
LAYER_2
 10
-12.246
 20
104.8648
 11
-12.6836
 21
104.9897
  0
LINE
  8
LAYER_2
 10
-12.6836
 20
104.9897
 11
-12.8972
 21
105.0636
  0
LINE
  8
LAYER_2
 10
-12.8972
 20
105.0636
 11
-13.1473
 21
105.157
  0
LINE
  8
LAYER_2
 10
-13.1473
 20
105.157
 11
-13.5232
 21
105.3083
  0
LINE
  8
LAYER_2
 10
-13.5232
 20
105.3083
 11
-13.7939
 21
105.4273
  0
LINE
  8
LAYER_2
 10
-13.7939
 20
105.4273
 11
-14.2471
 21
105.6409
  0
LINE
  8
LAYER_2
 10
-14.2471
 20
105.6409
 11
-14.5944
 21
105.8021
  0
LINE
  8
LAYER_2
 10
-14.5944
 20
105.8021
 11
-14.97
 21
105.9668
  0
LINE
  8
LAYER_2
 10
-14.97
 20
105.9668
 11
-15.3926
 21
106.1309
  0
LINE
  8
LAYER_2
 10
-15.3926
 20
106.1309
 11
-15.755
 21
106.2482
  0
LINE
  8
LAYER_2
 10
-15.755
 20
106.2482
 11
-15.8912
 21
106.2831
  0
LINE
  8
LAYER_2
 10
-15.8912
 20
106.2831
 11
-16.1752
 21
106.3299
  0
LINE
  8
LAYER_2
 10
-16.1752
 20
106.3299
 11
-16.2807
 21
106.3378
  0
ENDBLK
  0
BLOCK
  8
LAYER_2
  2
AIGNBL02010182
 70
64
 10
0
 20
0
 30
0
  3
AIGNBL02010182
  0
LINE
  8
LAYER_2
 10
-33.0504
 20
234.572
 11
-33.0504
 21
235.2387
  0
ENDBLK
  0
BLOCK
  8
LAYER_2
  2
AIGNBL02010183
 70
64
 10
0
 20
0
 30
0
  3
AIGNBL02010183
  0
LINE
  8
LAYER_2
 10
-51.3837
 20
235.2387
 11
-51.3837
 21
234.572
  0
ENDBLK
  0
BLOCK
  8
LAYER_2
  2
AIGNBL02010184
 70
64
 10
0
 20
0
 30
0
  3
AIGNBL02010184
  0
ARC
  8
LAYER_2
 10
-37.3837
 20
234.572
 40
4.3333
 50
296.0633741
 51
359.9994517
  0
ENDBLK
  0
BLOCK
  8
LAYER_2
  2
AIGNBL02010185
 70
64
 10
0
 20
0
 30
0
  3
AIGNBL02010185
  0
ARC
  8
LAYER_2
 10
-47.0504
 20
234.572
 40
4.3333
 50
180.0005151
 51
243.9366591
  0
ENDBLK
  0
BLOCK
  8
LAYER_2
  2
AIGNBL02010186
 70
64
 10
0
 20
0
 30
0
  3
AIGNBL02010186
  0
ARC
  8
LAYER_2
 10
-39.1855
 20
238.255
 40
8.4333
 50
278.381471
 51
296.0660768
  0
ENDBLK
  0
BLOCK
  8
LAYER_2
  2
AIGNBL02010187
 70
64
 10
0
 20
0
 30
0
  3
AIGNBL02010187
  0
ARC
  8
LAYER_2
 10
-45.2486
 20
238.255
 40
8.4333
 50
243.9339215
 51
261.6185307
  0
ENDBLK
  0
BLOCK
  8
LAYER_2
  2
AIGNBL02010188
 70
64
 10
0
 20
0
 30
0
  3
AIGNBL02010188
  0
LINE
  8
LAYER_2
 10
-46.4779
 20
229.9117
 11
-46.3905
 21
229.9053
  0
ENDBLK
  0
BLOCK
  8
LAYER_2
  2
AIGNBL02010189
 70
64
 10
0
 20
0
 30
0
  3
AIGNBL02010189
  0
LINE
  8
LAYER_2
 10
-38.0436
 20
229.9053
 11
-37.9562
 21
229.9117
  0
ENDBLK
  0
BLOCK
  8
LAYER_2
  2
AIGNBL0201018A
 70
64
 10
0
 20
0
 30
0
  3
AIGNBL0201018A
  0
LINE
  8
LAYER_2
 10
-46.3905
 20
229.9053
 11
-38.0436
 21
229.9053
  0
ENDBLK
  0
BLOCK
  8
LAYER_2
  2
AIGNBL0201018B
 70
64
 10
0
 20
0
 30
0
  3
AIGNBL0201018B
  0
LINE
  8
LAYER_2
 10
-38.7837
 20
225.7387
 11
-38.7837
 21
229.9053
  0
ENDBLK
  0
BLOCK
  8
LAYER_2
  2
AIGNBL0201018C
 70
64
 10
0
 20
0
 30
0
  3
AIGNBL0201018C
  0
LINE
  8
LAYER_2
 10
-45.6504
 20
229.9053
 11
-45.6504
 21
225.7387
  0
ENDBLK
  0
BLOCK
  8
LAYER_2
  2
AIGNBL0201018D
 70
64
 10
0
 20
0
 30
0
  3
AIGNBL0201018D
  0
LINE
  8
LAYER_2
 10
-38.7246
 20
235.2387
 11
-38.7957
 21
237.5165
  0
ENDBLK
  0
BLOCK
  8
LAYER_2
  2
AIGNBL0201018E
 70
64
 10
0
 20
0
 30
0
  3
AIGNBL0201018E
  0
LINE
  8
LAYER_2
 10
-45.6384
 20
237.5165
 11
-45.7096
 21
235.2387
  0
ENDBLK
  0
BLOCK
  8
LAYER_2
  2
AIGNBL0201018F
 70
64
 10
0
 20
0
 30
0
  3
AIGNBL0201018F
  0
LINE
  8
LAYER_2
 10
-38.7957
 20
237.5165
 11
-39.1846
 21
237.9053
  0
ENDBLK
  0
BLOCK
  8
LAYER_2
  2
AIGNBL02010190
 70
64
 10
0
 20
0
 30
0
  3
AIGNBL02010190
  0
LINE
  8
LAYER_2
 10
-45.2496
 20
237.9053
 11
-45.6384
 21
237.5165
  0
ENDBLK
  0
BLOCK
  8
LAYER_2
  2
AIGNBL02010191
 70
64
 10
0
 20
0
 30
0
  3
AIGNBL02010191
  0
ARC
  8
LAYER_2
 10
-42.2171
 20
216.9387
 40
1.4666
 50
90.00134712
 51
179.9986528
  0
ARC
  8
LAYER_2
 10
-42.217
 20
216.9387
 40
1.4666
 50
0.001456309396
 51
90.00245025
  0
ARC
  8
LAYER_2
 10
-42.2171
 20
216.9387
 40
1.4667
 50
269.9986529
 51
0.001347069772
  0
ARC
  8
LAYER_2
 10
-42.217
 20
216.9387
 40
1.4667
 50
179.9985436
 51
269.9975498
  0
ENDBLK
  0
BLOCK
  8
LAYER_2
  2
AIGNBL02010192
 70
64
 10
0
 20
0
 30
0
  3
AIGNBL02010192
  0
LINE
  8
LAYER_2
 10
-42.5461
 20
213.6094
 11
-42.521
 21
213.6054
  0
LINE
  8
LAYER_2
 10
-42.521
 20
213.6054
 11
-42.5109
 21
213.6067
  0
ENDBLK
  0
BLOCK
  8
LAYER_2
  2
AIGNBL02010193
 70
64
 10
0
 20
0
 30
0
  3
AIGNBL02010193
  0
LINE
  8
LAYER_2
 10
-41.9211
 20
213.6063
 11
-41.9083
 21
213.6057
  0
LINE
  8
LAYER_2
 10
-41.9083
 20
213.6057
 11
-41.888
 21
213.6094
  0
ENDBLK
  0
BLOCK
  8
LAYER_2
  2
AIGNBL02010194
 70
64
 10
0
 20
0
 30
0
  3
AIGNBL02010194
  0
LINE
  8
LAYER_2
 10
-39.7171
 20
214.747
 11
-39.7171
 21
219.0387
  0
ENDBLK
  0
BLOCK
  8
LAYER_2
  2
AIGNBL02010195
 70
64
 10
0
 20
0
 30
0
  3
AIGNBL02010195
  0
LINE
  8
LAYER_2
 10
-44.7171
 20
219.0387
 11
-44.7171
 21
214.747
  0
ENDBLK
  0
BLOCK
  8
LAYER_2
  2
AIGNBL02010196
 70
64
 10
0
 20
0
 30
0
  3
AIGNBL02010196
  0
LINE
  8
LAYER_2
 10
-21.4317
 20
225.7387
 11
-21.6504
 21
225.8306
  0
LINE
  8
LAYER_2
 10
-21.6504
 20
225.8306
 11
-22.0015
 21
225.9694
  0
LINE
  8
LAYER_2
 10
-22.0015
 20
225.9694
 11
-22.0164
 21
225.9743
  0
ENDBLK
  0
BLOCK
  8
LAYER_2
  2
AIGNBL02010197
 70
64
 10
0
 20
0
 30
0
  3
AIGNBL02010197
  0
LINE
  8
LAYER_2
 10
12.6141
 20
221.1163
 11
13.341
 21
221.1769
  0
LINE
  8
LAYER_2
 10
13.341
 20
221.1769
 11
15.0541
 21
221.37
  0
LINE
  8
LAYER_2
 10
15.0541
 20
221.37
 11
16.4591
 21
221.5486
  0
LINE
  8
LAYER_2
 10
16.4591
 20
221.5486
 11
17.5718
 21
221.6955
  0
LINE
  8
LAYER_2
 10
17.5718
 20
221.6955
 11
18.5725
 21
221.8269
  0
LINE
  8
LAYER_2
 10
18.5725
 20
221.8269
 11
19.5187
 21
221.9468
  0
LINE
  8
LAYER_2
 10
19.5187
 20
221.9468
 11
21.1284
 21
222.1314
  0
LINE
  8
LAYER_2
 10
21.1284
 20
222.1314
 11
22.9825
 21
222.2947
  0
ARC
  8
LAYER_2
 10
25.6877
 20
183.576
 40
38.8131
 50
91.03130188
 51
93.99662441
  0
LINE
  8
LAYER_2
 10
24.9891
 20
222.3828
 11
25.4816
 21
222.3867
  0
LINE
  8
LAYER_2
 10
25.4816
 20
222.3867
 11
25.6617
 21
222.3729
  0
ENDBLK
  0
BLOCK
  8
LAYER_2
  2
AIGNBL02010198
 70
64
 10
0
 20
0
 30
0
  3
AIGNBL02010198
  0
LINE
  8
LAYER_2
 10
21.9841
 20
223.1146
 11
21.3943
 21
223.0513
  0
ENDBLK
  0
BLOCK
  8
LAYER_2
  2
AIGNBL02010199
 70
64
 10
0
 20
0
 30
0
  3
AIGNBL02010199
  0
LINE
  8
LAYER_2
 10
25.13
 20
224.0007
 11
23.2737
 21
223.63
  0
ENDBLK
  0
BLOCK
  8
LAYER_2
  2
AIGNBL0201019A
 70
64
 10
0
 20
0
 30
0
  3
AIGNBL0201019A
  0
LINE
  8
LAYER_2
 10
8.5585
 20
219.2636
 11
8.8967
 21
219.2774
  0
ENDBLK
  0
BLOCK
  8
LAYER_2
  2
AIGNBL0201019B
 70
64
 10
0
 20
0
 30
0
  3
AIGNBL0201019B
  0
ARC
  8
LAYER_2
 10
28.3616
 20
217.585
 40
8.5918
 50
88.93416391
 51
96.86433077
  0
LINE
  8
LAYER_2
 10
27.3347
 20
226.1152
 11
27.2827
 21
226.1085
  0
ENDBLK
  0
BLOCK
  8
LAYER_2
  2
AIGNBL0201019C
 70
64
 10
0
 20
0
 30
0
  3
AIGNBL0201019C
  0
LINE
  8
LAYER_2
 10
-16.2853
 20
222.3807
 11
-16.1817
 21
222.3754
  0
ENDBLK
  0
BLOCK
  8
LAYER_2
  2
AIGNBL0201019D
 70
64
 10
0
 20
0
 30
0
  3
AIGNBL0201019D
  0
LINE
  8
LAYER_2
 10
49.3943
 20
222.9053
 11
49.3943
 21
223.2053
  0
ENDBLK
  0
BLOCK
  8
LAYER_2
  2
AIGNBL0201019E
 70
64
 10
0
 20
0
 30
0
  3
AIGNBL0201019E
  0
LINE
  8
LAYER_2
 10
49.3943
 20
227.2053
 11
49.3943
 21
227.5053
  0
ENDBLK
  0
BLOCK
  8
LAYER_2
  2
AIGNBL0201019F
 70
64
 10
0
 20
0
 30
0
  3
AIGNBL0201019F
  0
LINE
  8
LAYER_2
 10
-21.7761
 20
225.7387
 11
-22.0275
 21
225.9058
  0
LINE
  8
LAYER_2
 10
-22.0275
 20
225.9058
 11
-22.2469
 21
226.027
  0
LINE
  8
LAYER_2
 10
-22.2469
 20
226.027
 11
-22.4375
 21
226.1131
  0
LINE
  8
LAYER_2
 10
-22.4375
 20
226.1131
 11
-22.6227
 21
226.183
  0
ARC
  8
LAYER_2
 10
-23.378
 20
224.1805
 40
2.1402
 50
69.33393703
 51
84.42779407
  0
LINE
  8
LAYER_2
 10
-23.1702
 20
226.3106
 11
-23.3284
 21
226.3162
  0
LINE
  8
LAYER_2
 10
-23.3284
 20
226.3162
 11
-23.4348
 21
226.3091
  0
LINE
  8
LAYER_2
 10
-23.4348
 20
226.3091
 11
-23.5963
 21
226.2775
  0
LINE
  8
LAYER_2
 10
-23.5963
 20
226.2775
 11
-23.7984
 21
226.1945
  0
LINE
  8
LAYER_2
 10
-23.7984
 20
226.1945
 11
-24.0142
 21
226.0296
  0
ARC
  8
LAYER_2
 10
-23.5875
 20
225.547
 40
0.6442
 50
131.4836413
 51
161.0879461
  0
LINE
  8
LAYER_2
 10
-24.1969
 20
225.7558
 11
-24.2021
 21
225.7387
  0
ENDBLK
  0
BLOCK
  8
LAYER_2
  2
AIGNBL020101A0
 70
64
 10
0
 20
0
 30
0
  3
AIGNBL020101A0
  0
LINE
  8
LAYER_2
 10
-21.4118
 20
225.7387
 11
-21.4381
 21
225.75
  0
LINE
  8
LAYER_2
 10
-21.4381
 20
225.75
 11
-22.1874
 21
226.0407
  0
LINE
  8
LAYER_2
 10
-22.1874
 20
226.0407
 11
-22.5301
 21
226.1481
  0
ENDBLK
  0
BLOCK
  8
LAYER_2
  2
AIGNBL020101A1
 70
64
 10
0
 20
0
 30
0
  3
AIGNBL020101A1
  0
ARC
  8
LAYER_2
 10
-10.3966
 20
221.2975
 40
3.2118
 50
180.9785057
 51
191.5348411
  0
ARC
  8
LAYER_2
 10
-10.5149
 20
221.3357
 40
3.1042
 50
192.6622384
 51
202.4905499
  0
ARC
  8
LAYER_2
 10
-9.7412
 20
221.634
 40
3.9332
 50
202.1935838
 51
215.9286404
  0
ARC
  8
LAYER_2
 10
-9.9372
 20
221.5059
 40
3.6994
 50
216.1034759
 51
229.7728616
  0
ARC
  8
LAYER_2
 10
-8.9555
 20
222.7812
 40
5.3075
 50
230.5725464
 51
238.9403593
  0
ARC
  8
LAYER_2
 10
-7.5855
 20
225.0179
 40
7.9304
 50
238.7989119
 51
248.4511896
  0
ARC
  8
LAYER_2
 10
-7.1923
 20
226.0282
 40
9.0145
 50
248.485319
 51
256.6608905
  0
ARC
  8
LAYER_2
 10
-6.7696
 20
227.8511
 40
10.8858
 50
256.7096007
 51
265.4075714
  0
ARC
  8
LAYER_2
 10
-6.5791
 20
229.9742
 40
13.0173
 50
265.3200981
 51
272.1067476
  0
ARC
  8
LAYER_2
 10
-6.7151
 20
232.9645
 40
16.0106
 50
272.1996458
 51
277.2921834
  0
LINE
  8
LAYER_2
 10
-4.6829
 20
217.0834
 11
-3.7138
 21
217.2274
  0
LINE
  8
LAYER_2
 10
-3.7138
 20
217.2274
 11
-2.6991
 21
217.403
  0
LINE
  8
LAYER_2
 10
-2.6991
 20
217.403
 11
-1.6391
 21
217.6071
  0
LINE
  8
LAYER_2
 10
-1.6391
 20
217.6071
 11
-0.4706
 21
217.8489
  0
LINE
  8
LAYER_2
 10
-0.4706
 20
217.8489
 11
0.9459
 21
218.1532
  0
LINE
  8
LAYER_2
 10
0.9459
 20
218.1532
 11
2.5792
 21
218.4982
  0
ARC
  8
LAYER_2
 10
10.3162
 20
182.7219
 40
36.6033
 50
99.22326327
 51
102.2028229
  0
LINE
  8
LAYER_2
 10
4.4493
 20
218.852
 11
6.1471
 21
219.0902
  0
ENDBLK
  0
BLOCK
  8
LAYER_2
  2
AIGNBL020101A2
 70
64
 10
0
 20
0
 30
0
  3
AIGNBL020101A2
  0
LINE
  8
LAYER_2
 10
8.5629
 20
219.257
 11
8.8967
 21
219.2753
  0
ENDBLK
  0
BLOCK
  8
LAYER_2
  2
AIGNBL020101A3
 70
64
 10
0
 20
0
 30
0
  3
AIGNBL020101A3
  0
LINE
  8
LAYER_2
 10
9.1363
 20
222.6467
 11
8.1666
 21
222.6944
  0
ENDBLK
  0
BLOCK
  8
LAYER_2
  2
AIGNBL020101A4
 70
64
 10
0
 20
0
 30
0
  3
AIGNBL020101A4
  0
LINE
  8
LAYER_2
 10
6.6324
 20
222.8147
 11
5.6115
 21
222.9464
  0
LINE
  8
LAYER_2
 10
5.6115
 20
222.9464
 11
4.3913
 21
223.1627
  0
LINE
  8
LAYER_2
 10
4.3913
 20
223.1627
 11
3.4629
 21
223.3532
  0
LINE
  8
LAYER_2
 10
3.4629
 20
223.3532
 11
2.5473
 21
223.5573
  0
LINE
  8
LAYER_2
 10
2.5473
 20
223.5573
 11
1.616
 21
223.776
  0
LINE
  8
LAYER_2
 10
1.616
 20
223.776
 11
0.1105
 21
224.1403
  0
LINE
  8
LAYER_2
 10
0.1105
 20
224.1403
 11
-1.4735
 21
224.5174
  0
LINE
  8
LAYER_2
 10
-1.4735
 20
224.5174
 11
-3.0505
 21
224.8635
  0
LINE
  8
LAYER_2
 10
-3.0505
 20
224.8635
 11
-4.1902
 21
225.0832
  0
LINE
  8
LAYER_2
 10
-4.1902
 20
225.0832
 11
-5.2874
 21
225.2471
  0
ARC
  8
LAYER_2
 10
-6.8915
 20
211.4785
 40
13.8617
 50
83.3548694
 51
88.65417745
  0
ARC
  8
LAYER_2
 10
-6.8877
 20
212.7655
 40
12.5751
 50
88.53367821
 51
94.59500063
  0
LINE
  8
LAYER_2
 10
-7.8951
 20
225.3001
 11
-8.7541
 21
225.1974
  0
LINE
  8
LAYER_2
 10
-8.7541
 20
225.1974
 11
-9.5925
 21
225.0271
  0
ARC
  8
LAYER_2
 10
-7.5231
 20
216.6941
 40
8.5861
 50
103.9464528
 51
110.8677723
  0
LINE
  8
LAYER_2
 10
-10.5816
 20
224.717
 11
-11.1536
 21
224.4728
  0
LINE
  8
LAYER_2
 10
-11.1536
 20
224.4728
 11
-11.7665
 21
224.1446
  0
ARC
  8
LAYER_2
 10
-9.6262
 20
220.4851
 40
4.2394
 50
120.3220078
 51
130.8712701
  0
ARC
  8
LAYER_2
 10
-9.948
 20
220.8933
 40
3.7203
 50
131.2376285
 51
140.7789747
  0
ARC
  8
LAYER_2
 10
-9.7815
 20
220.7581
 40
3.9348
 50
140.7867755
 51
150.379156
  0
ARC
  8
LAYER_2
 10
-10.7588
 20
221.2636
 40
2.8356
 50
149.4965365
 51
164.0286672
  0
ARC
  8
LAYER_2
 10
-8.5874
 20
220.8818
 40
5.0336
 50
166.6532816
 51
175.8887918
  0
ENDBLK
  0
BLOCK
  8
LAYER_2
  2
AIGNBL020101A5
 70
64
 10
0
 20
0
 30
0
  3
AIGNBL020101A5
  0
LINE
  8
LAYER_2
 10
6.6594
 20
220.9579
 11
6.4116
 21
220.9443
  0
ARC
  8
LAYER_2
 10
7.9134
 20
201.7665
 40
19.2365
 50
94.47777039
 51
101.0605056
  0
LINE
  8
LAYER_2
 10
4.223
 20
220.6457
 11
2.3157
 21
220.291
  0
LINE
  8
LAYER_2
 10
2.3157
 20
220.291
 11
0.6773
 21
219.9464
  0
LINE
  8
LAYER_2
 10
0.6773
 20
219.9464
 11
-0.7016
 21
219.6481
  0
LINE
  8
LAYER_2
 10
-0.7016
 20
219.6481
 11
-1.8327
 21
219.4101
  0
LINE
  8
LAYER_2
 10
-1.8327
 20
219.4101
 11
-2.8572
 21
219.2083
  0
LINE
  8
LAYER_2
 10
-2.8572
 20
219.2083
 11
-3.8406
 21
219.034
  0
LINE
  8
LAYER_2
 10
-3.8406
 20
219.034
 11
-5.089
 21
218.8527
  0
ARC
  8
LAYER_2
 10
-6.6423
 20
232.0363
 40
13.2748
 50
271.2351806
 51
276.7194365
  0
ARC
  8
LAYER_2
 10
-6.6017
 20
229.5136
 40
10.7518
 50
263.8386915
 51
271.3090524
  0
ARC
  8
LAYER_2
 10
-6.8161
 20
227.5716
 40
8.798
 50
256.4631451
 51
263.8695945
  0
ARC
  8
LAYER_2
 10
-7.3051
 20
225.6754
 40
6.8401
 50
246.7002919
 51
256.7268676
  0
LINE
  8
LAYER_2
 10
-10.0106
 20
219.3931
 11
-10.5861
 21
219.6784
  0
ARC
  8
LAYER_2
 10
-9.3274
 20
222.2074
 40
2.8249
 50
229.6853566
 51
243.5408073
  0
ARC
  8
LAYER_2
 10
-9.6992
 20
221.6983
 40
2.1967
 50
210.6850289
 51
228.4879852
  0
ARC
  8
LAYER_2
 10
-10.4822
 20
221.2946
 40
1.3183
 50
195.8531346
 51
212.9646619
  0
LINE
  8
LAYER_2
 10
-11.7504
 20
220.9345
 11
-11.8033
 21
221.2427
  0
ENDBLK
  0
BLOCK
  8
LAYER_2
  2
AIGNBL020101A6
 70
64
 10
0
 20
0
 30
0
  3
AIGNBL020101A6
  0
LINE
  8
LAYER_2
 10
-11.8033
 20
221.2427
 11
-11.7338
 21
221.592
  0
ARC
  8
LAYER_2
 10
-10.2471
 20
221.0463
 40
1.5837
 50
145.1527999
 51
159.8441089
  0
LINE
  8
LAYER_2
 10
-11.5468
 20
221.9512
 11
-11.2912
 21
222.2591
  0
LINE
  8
LAYER_2
 10
-11.2912
 20
222.2591
 11
-11.0203
 21
222.482
  0
ARC
  8
LAYER_2
 10
-8.5305
 20
218.8033
 40
4.442
 50
114.0258499
 51
124.0904994
  0
LINE
  8
LAYER_2
 10
-10.3391
 20
222.8605
 11
-9.6922
 21
223.1189
  0
ARC
  8
LAYER_2
 10
-7.3086
 20
215.9634
 40
7.5421
 50
98.31853792
 51
108.4233005
  0
ARC
  8
LAYER_2
 10
-6.9247
 20
213.5192
 40
10.0161
 50
91.33403619
 51
98.46885944
  0
ARC
  8
LAYER_2
 10
-6.897
 20
211.5835
 40
11.952
 50
83.42761542
 51
91.25079076
  0
ARC
  8
LAYER_2
 10
-8.2478
 20
201.3808
 40
22.2429
 50
78.76714584
 51
82.97892795
  0
LINE
  8
LAYER_2
 10
-3.915
 20
223.1976
 11
-2.3187
 21
222.8596
  0
LINE
  8
LAYER_2
 10
-2.3187
 20
222.8596
 11
0.3386
 21
222.2231
  0
LINE
  8
LAYER_2
 10
0.3386
 20
222.2231
 11
2.9509
 21
221.6133
  0
LINE
  8
LAYER_2
 10
2.9509
 20
221.6133
 11
3.7462
 21
221.4479
  0
LINE
  8
LAYER_2
 10
3.7462
 20
221.4479
 11
4.6697
 21
221.2743
  0
LINE
  8
LAYER_2
 10
4.6697
 20
221.2743
 11
5.87
 21
221.0849
  0
LINE
  8
LAYER_2
 10
5.87
 20
221.0849
 11
6.6447
 21
220.9986
  0
ENDBLK
  0
BLOCK
  8
LAYER_2
  2
AIGNBL020101A7
 70
64
 10
0
 20
0
 30
0
  3
AIGNBL020101A7
  0
LINE
  8
LAYER_2
 10
8.1324
 20
220.8857
 11
9.1363
 21
220.842
  0
ENDBLK
  0
BLOCK
  8
LAYER_2
  2
AIGNBL020101A8
 70
64
 10
0
 20
0
 30
0
  3
AIGNBL020101A8
  0
ARC
  8
LAYER_2
 10
29.0053
 20
202.0966
 40
24.0835
 50
91.15120545
 51
95.02494288
  0
ARC
  8
LAYER_2
 10
29.1308
 20
202.7865
 40
23.408
 50
95.47896448
 51
100.5999246
  0
LINE
  8
LAYER_2
 10
24.8249
 20
225.7951
 11
23.0066
 21
225.4298
  0
LINE
  8
LAYER_2
 10
23.0066
 20
225.4298
 11
21.4052
 21
225.0475
  0
LINE
  8
LAYER_2
 10
21.4052
 20
225.0475
 11
19.9481
 21
224.6685
  0
LINE
  8
LAYER_2
 10
19.9481
 20
224.6685
 11
18.6276
 21
224.3142
  0
LINE
  8
LAYER_2
 10
18.6276
 20
224.3142
 11
16.5258
 21
223.7635
  0
ARC
  8
LAYER_2
 10
4.0062
 20
272.6794
 40
50.4927
 50
281.8248443
 51
284.356149
  0
LINE
  8
LAYER_2
 10
14.3532
 20
223.2583
 11
13.6634
 21
223.1204
  0
LINE
  8
LAYER_2
 10
13.6634
 20
223.1204
 11
12.9049
 21
222.9849
  0
LINE
  8
LAYER_2
 10
12.9049
 20
222.9849
 11
11.9011
 21
222.8356
  0
LINE
  8
LAYER_2
 10
11.9011
 20
222.8356
 11
10.644
 21
222.7052
  0
LINE
  8
LAYER_2
 10
10.644
 20
222.7052
 11
9.1363
 21
222.6467
  0
ENDBLK
  0
BLOCK
  8
LAYER_2
  2
AIGNBL020101A9
 70
64
 10
0
 20
0
 30
0
  3
AIGNBL020101A9
  0
ARC
  8
LAYER_2
 10
8.9109
 20
247.6701
 40
26.8291
 50
270.4814281
 51
274.0454447
  0
ARC
  8
LAYER_2
 10
8.8921
 20
245.9042
 40
25.0693
 50
274.3730611
 51
277.5194575
  0
LINE
  8
LAYER_2
 10
12.1727
 20
221.0505
 11
13.2517
 21
221.2115
  0
LINE
  8
LAYER_2
 10
13.2517
 20
221.2115
 11
14.0625
 21
221.3571
  0
LINE
  8
LAYER_2
 10
14.0625
 20
221.3571
 11
14.8091
 21
221.5075
  0
LINE
  8
LAYER_2
 10
14.8091
 20
221.5075
 11
16.2701
 21
221.8396
  0
LINE
  8
LAYER_2
 10
16.2701
 20
221.8396
 11
17.6257
 21
222.1808
  0
LINE
  8
LAYER_2
 10
17.6257
 20
222.1808
 11
18.3116
 21
222.3614
  0
LINE
  8
LAYER_2
 10
18.3116
 20
222.3614
 11
19.0018
 21
222.546
  0
LINE
  8
LAYER_2
 10
19.0018
 20
222.546
 11
19.9603
 21
222.8035
  0
LINE
  8
LAYER_2
 10
19.9603
 20
222.8035
 11
21.2194
 21
223.1359
  0
LINE
  8
LAYER_2
 10
21.2194
 20
223.1359
 11
22.7791
 21
223.5234
  0
LINE
  8
LAYER_2
 10
22.7791
 20
223.5234
 11
23.2737
 21
223.63
  0
ENDBLK
  0
BLOCK
  8
LAYER_2
  2
AIGNBL020101AA
 70
64
 10
0
 20
0
 30
0
  3
AIGNBL020101AA
  0
ARC
  8
LAYER_2
 10
28.9778
 20
204.8303
 40
19.5528
 50
96.42576865
 51
101.3492413
  0
ARC
  8
LAYER_2
 10
29.3622
 20
196.6184
 40
27.7613
 50
91.65373894
 51
95.31728726
  0
ENDBLK
  0
BLOCK
  8
LAYER_2
  2
AIGNBL020101AB
 70
64
 10
0
 20
0
 30
0
  3
AIGNBL020101AB
  0
LINE
  8
LAYER_2
 10
-16.2906
 20
222.3714
 11
-15.9368
 21
222.3401
  0
LINE
  8
LAYER_2
 10
-15.9368
 20
222.3401
 11
-15.4446
 21
222.2449
  0
LINE
  8
LAYER_2
 10
-15.4446
 20
222.2449
 11
-14.1877
 21
221.9252
  0
LINE
  8
LAYER_2
 10
-14.1877
 20
221.9252
 11
-13.5543
 21
221.8242
  0
ENDBLK
  0
BLOCK
  8
LAYER_2
  2
AIGNBL020101AC
 70
64
 10
0
 20
0
 30
0
  3
AIGNBL020101AC
  0
LINE
  8
LAYER_2
 10
20.2421
 20
222.8779
 11
21.2117
 21
223.0445
  0
ARC
  8
LAYER_2
 10
22.4026
 20
213.9671
 40
9.1552
 50
86.80936571
 51
97.4744495
  0
ARC
  8
LAYER_2
 10
22.5485
 20
215.542
 40
7.5748
 50
80.15546141
 51
87.24788331
  0
ARC
  8
LAYER_2
 10
22.8778
 20
217.3301
 40
5.7568
 50
70.56585717
 51
80.34178167
  0
LINE
  8
LAYER_2
 10
24.7932
 20
222.7589
 11
25.2905
 21
222.5549
  0
ARC
  8
LAYER_2
 10
24.3284
 20
220.2008
 40
2.5432
 50
54.20248692
 51
67.76981721
  0
LINE
  8
LAYER_2
 10
25.8159
 20
222.2635
 11
26.0197
 21
222.0882
  0
LINE
  8
LAYER_2
 10
26.0197
 20
222.0882
 11
26.2219
 21
221.8407
  0
ARC
  8
LAYER_2
 10
25.5363
 20
221.3291
 40
0.8555
 50
14.79289143
 51
36.73155437
  0
LINE
  8
LAYER_2
 10
26.3634
 20
221.5475
 11
26.3923
 21
221.2853
  0
ENDBLK
  0
BLOCK
  8
LAYER_2
  2
AIGNBL020101AD
 70
64
 10
0
 20
0
 30
0
  3
AIGNBL020101AD
  0
LINE
  8
LAYER_2
 10
28.1967
 20
221.3593
 11
28.1408
 21
221.8833
  0
ARC
  8
LAYER_2
 10
25.6572
 20
221.3304
 40
2.5444
 50
12.54998363
 51
23.61056083
  0
ARC
  8
LAYER_2
 10
24.9819
 20
221.0419
 40
3.2787
 50
23.50361505
 51
38.45384574
  0
ARC
  8
LAYER_2
 10
24.8579
 20
220.9388
 40
3.4399
 50
38.51392769
 51
51.58951293
  0
ARC
  8
LAYER_2
 10
24.8052
 20
220.8844
 40
3.5153
 50
51.46773646
 51
63.87898813
  0
LINE
  8
LAYER_2
 10
26.3529
 20
224.0407
 11
26.1065
 21
224.1534
  0
ENDBLK
  0
BLOCK
  8
LAYER_2
  2
AIGNBL020101AE
 70
64
 10
0
 20
0
 30
0
  3
AIGNBL020101AE
  0
LINE
  8
LAYER_2
 10
19.9552
 20
224.6704
 11
19.5081
 21
224.5862
  0
LINE
  8
LAYER_2
 10
19.5081
 20
224.5862
 11
18.5087
 21
224.3759
  0
LINE
  8
LAYER_2
 10
18.5087
 20
224.3759
 11
17.2032
 21
224.0739
  0
LINE
  8
LAYER_2
 10
17.2032
 20
224.0739
 11
15.9449
 21
223.7691
  0
LINE
  8
LAYER_2
 10
15.9449
 20
223.7691
 11
14.5014
 21
223.4258
  0
LINE
  8
LAYER_2
 10
14.5014
 20
223.4258
 11
12.8758
 21
223.081
  0
ARC
  8
LAYER_2
 10
8.9202
 20
242.4847
 40
19.8028
 50
276.2307771
 51
281.5222195
  0
ARC
  8
LAYER_2
 10
8.1415
 20
255.1089
 40
32.4424
 50
271.6588804
 51
275.1780665
  0
ENDBLK
  0
BLOCK
  8
LAYER_2
  2
AIGNBL020101AF
 70
64
 10
0
 20
0
 30
0
  3
AIGNBL020101AF
  0
LINE
  8
LAYER_2
 10
9.0807
 20
222.6801
 11
8.1324
 21
222.7228
  0
ENDBLK
  0
BLOCK
  8
LAYER_2
  2
AIGNBL020101B0
 70
64
 10
0
 20
0
 30
0
  3
AIGNBL020101B0
  0
LINE
  8
LAYER_2
 10
6.6324
 20
222.8437
 11
5.8764
 21
222.935
  0
LINE
  8
LAYER_2
 10
5.8764
 20
222.935
 11
4.7062
 21
223.1336
  0
LINE
  8
LAYER_2
 10
4.7062
 20
223.1336
 11
3.8184
 21
223.3108
  0
LINE
  8
LAYER_2
 10
3.8184
 20
223.3108
 11
3.01
 21
223.4876
  0
LINE
  8
LAYER_2
 10
3.01
 20
223.4876
 11
2.1896
 21
223.6783
  0
LINE
  8
LAYER_2
 10
2.1896
 20
223.6783
 11
1.3568
 21
223.8797
  0
ARC
  8
LAYER_2
 10
-26.6726
 20
115.7763
 40
111.678
 50
75.46424748
 51
77.90696809
  0
ARC
  8
LAYER_2
 10
-8.108
 20
203.2965
 40
22.2115
 50
77.43529908
 51
82.06357407
  0
ARC
  8
LAYER_2
 10
-7.0166
 20
211.0748
 40
14.357
 50
82.09136022
 51
89.30582289
  0
ARC
  8
LAYER_2
 10
-6.991
 20
213.5322
 40
11.8995
 50
89.28587215
 51
97.99028137
  0
ARC
  8
LAYER_2
 10
-7.3188
 20
215.8252
 40
9.5832
 50
97.9551913
 51
106.2963337
  0
ARC
  8
LAYER_2
 10
-7.7326
 20
217.2734
 40
8.0771
 50
106.3614279
 51
116.6912059
  0
ARC
  8
LAYER_2
 10
-9.0136
 20
219.718
 40
5.3178
 50
116.1912794
 51
125.2470392
  0
ARC
  8
LAYER_2
 10
-10.0549
 20
221.14
 40
3.5557
 50
124.7670324
 51
140.2861199
  0
LINE
  8
LAYER_2
 10
-12.7901
 20
223.4119
 11
-12.9955
 21
223.1395
  0
ENDBLK
  0
BLOCK
  8
LAYER_2
  2
AIGNBL020101B1
 70
64
 10
0
 20
0
 30
0
  3
AIGNBL020101B1
  0
LINE
  8
LAYER_2
 10
-12.5342
 20
223.6466
 11
-12.8702
 21
223.5709
  0
ARC
  8
LAYER_2
 10
-13.0683
 20
225.7409
 40
2.179
 50
253.098308
 51
275.2158889
  0
LINE
  8
LAYER_2
 10
-13.7018
 20
223.656
 11
-14.8169
 21
223.9494
  0
ARC
  8
LAYER_2
 10
-16.3167
 20
218.877
 40
5.2895
 50
73.52874704
 51
81.77790648
  0
LINE
  8
LAYER_2
 10
-15.5602
 20
224.1121
 11
-16.2444
 21
224.1692
  0
ENDBLK
  0
BLOCK
  8
LAYER_2
  2
AIGNBL020101B2
 70
64
 10
0
 20
0
 30
0
  3
AIGNBL020101B2
  0
LINE
  8
LAYER_2
 10
26.3923
 20
221.2853
 11
26.3484
 21
221.1054
  0
LINE
  8
LAYER_2
 10
26.3484
 20
221.1054
 11
26.2238
 21
220.8433
  0
LINE
  8
LAYER_2
 10
26.2238
 20
220.8433
 11
26.0357
 21
220.5827
  0
LINE
  8
LAYER_2
 10
26.0357
 20
220.5827
 11
25.8508
 21
220.389
  0
ARC
  8
LAYER_2
 10
23.9847
 20
222.712
 40
2.9798
 50
299.0643667
 51
308.7756946
  0
LINE
  8
LAYER_2
 10
25.4322
 20
220.1075
 11
24.9941
 21
219.8749
  0
ARC
  8
LAYER_2
 10
22.6477
 20
224.9848
 40
5.6229
 50
284.0400986
 51
294.6641377
  0
ARC
  8
LAYER_2
 10
21.9707
 20
227.4192
 40
8.149
 50
276.4922177
 51
284.505395
  0
ARC
  8
LAYER_2
 10
21.8658
 20
228.6348
 40
9.3688
 50
266.4302159
 51
276.2888299
  0
ARC
  8
LAYER_2
 10
22.5536
 20
237.2893
 40
18.0499
 50
261.0818397
 51
265.9619468
  0
LINE
  8
LAYER_2
 10
19.7554
 20
219.4576
 11
18.3815
 21
219.6882
  0
LINE
  8
LAYER_2
 10
18.3815
 20
219.6882
 11
14.112
 21
220.5227
  0
LINE
  8
LAYER_2
 10
14.112
 20
220.5227
 11
13.4481
 21
220.6399
  0
LINE
  8
LAYER_2
 10
13.4481
 20
220.6399
 11
12.6606
 21
220.7661
  0
LINE
  8
LAYER_2
 10
12.6606
 20
220.7661
 11
11.644
 21
220.9035
  0
LINE
  8
LAYER_2
 10
11.644
 20
220.9035
 11
11.1844
 21
220.9476
  0
ENDBLK
  0
BLOCK
  8
LAYER_2
  2
AIGNBL020101B3
 70
64
 10
0
 20
0
 30
0
  3
AIGNBL020101B3
  0
ARC
  8
LAYER_2
 10
8.5604
 20
193.1011
 40
26.1764
 50
85.13102049
 51
89.26390685
  0
ARC
  8
LAYER_2
 10
8.208
 20
192.2671
 40
27.0388
 50
81.37304306
 51
84.53687378
  0
LINE
  8
LAYER_2
 10
12.2638
 20
218.9999
 11
13.3371
 21
218.8246
  0
LINE
  8
LAYER_2
 10
13.3371
 20
218.8246
 11
14.2244
 21
218.6614
  0
LINE
  8
LAYER_2
 10
14.2244
 20
218.6614
 11
15.1088
 21
218.4887
  0
ARC
  8
LAYER_2
 10
34.4812
 20
309.7836
 40
93.3276
 50
258.019744
 51
260.196015
  0
LINE
  8
LAYER_2
 10
18.5896
 20
217.8189
 11
19.9623
 21
217.6068
  0
ARC
  8
LAYER_2
 10
22.0499
 20
232.0993
 40
14.6421
 50
261.8032195
 51
267.5321509
  0
ARC
  8
LAYER_2
 10
21.8659
 20
228.4468
 40
10.9851
 50
267.6704093
 51
275.843343
  0
LINE
  8
LAYER_2
 10
22.9843
 20
217.5188
 11
23.8744
 21
217.6493
  0
ARC
  8
LAYER_2
 10
22.2425
 20
226.2311
 40
8.7356
 50
280.7668271
 51
287.3527394
  0
ARC
  8
LAYER_2
 10
22.5896
 20
225.1589
 40
7.6087
 50
287.2658051
 51
295.8055013
  0
ARC
  8
LAYER_2
 10
23.5746
 20
223.2007
 40
5.417
 50
295.4421082
 51
305.0771121
  0
ARC
  8
LAYER_2
 10
24.4327
 20
222.0075
 40
3.9475
 50
304.8373911
 51
319.4575357
  0
LINE
  8
LAYER_2
 10
27.4325
 20
219.4416
 11
27.732
 21
219.8529
  0
ARC
  8
LAYER_2
 10
25.0046
 20
221.5922
 40
3.2348
 50
327.4736132
 51
337.4002454
  0
ARC
  8
LAYER_2
 10
25.7835
 20
221.2933
 40
2.401
 50
336.8425242
 51
351.248384
  0
LINE
  8
LAYER_2
 10
28.1565
 20
220.928
 11
28.1908
 21
221.3593
  0
ENDBLK
  0
BLOCK
  8
LAYER_2
  2
AIGNBL020101B4
 70
64
 10
0
 20
0
 30
0
  3
AIGNBL020101B4
  0
LINE
  8
LAYER_2
 10
6.4859
 20
221.0163
 11
6.4222
 21
221.0129
  0
ARC
  8
LAYER_2
 10
7.7465
 20
202.9036
 40
18.1576
 50
94.18234442
 51
101.1698173
  0
LINE
  8
LAYER_2
 10
4.229
 20
220.7173
 11
2.3155
 21
220.3662
  0
LINE
  8
LAYER_2
 10
2.3155
 20
220.3662
 11
0.6699
 21
220.0254
  0
LINE
  8
LAYER_2
 10
0.6699
 20
220.0254
 11
-0.7169
 21
219.7307
  0
LINE
  8
LAYER_2
 10
-0.7169
 20
219.7307
 11
-1.8555
 21
219.4961
  0
LINE
  8
LAYER_2
 10
-1.8555
 20
219.4961
 11
-2.8845
 21
219.2984
  0
LINE
  8
LAYER_2
 10
-2.8845
 20
219.2984
 11
-3.873
 21
219.1284
  0
LINE
  8
LAYER_2
 10
-3.873
 20
219.1284
 11
-5.1281
 21
218.9536
  0
ARC
  8
LAYER_2
 10
-6.6014
 20
232.0943
 40
13.223
 50
270.8999197
 51
276.3970432
  0
ARC
  8
LAYER_2
 10
-6.5761
 20
229.4392
 40
10.5678
 50
263.3981541
 51
270.9891054
  0
ARC
  8
LAYER_2
 10
-6.7869
 20
227.6139
 40
8.7304
 50
255.8994489
 51
263.3947658
  0
ARC
  8
LAYER_2
 10
-7.202
 20
226.0561
 40
7.1185
 50
246.3796087
 51
256.0855831
  0
LINE
  8
LAYER_2
 10
-10.0542
 20
219.534
 11
-10.6289
 21
219.824
  0
ARC
  8
LAYER_2
 10
-9.3262
 20
222.2903
 40
2.7892
 50
228.6588928
 51
242.1575222
  0
ARC
  8
LAYER_2
 10
-9.6543
 20
221.8627
 40
2.2517
 50
210.1020703
 51
227.7410995
  0
ARC
  8
LAYER_2
 10
-10.5324
 20
221.4107
 40
1.2663
 50
195.7994375
 51
212.3332205
  0
LINE
  8
LAYER_2
 10
-11.7509
 20
221.0659
 11
-11.8032
 21
221.3775
  0
ENDBLK
  0
BLOCK
  8
LAYER_2
  2
AIGNBL020101B5
 70
64
 10
0
 20
0
 30
0
  3
AIGNBL020101B5
  0
LINE
  8
LAYER_2
 10
6.6324
 20
222.847
 11
5.9333
 21
222.9525
  0
LINE
  8
LAYER_2
 10
5.9333
 20
222.9525
 11
4.8609
 21
223.1753
  0
LINE
  8
LAYER_2
 10
4.8609
 20
223.1753
 11
4.0546
 21
223.3703
  0
LINE
  8
LAYER_2
 10
4.0546
 20
223.3703
 11
3.2796
 21
223.5754
  0
LINE
  8
LAYER_2
 10
3.2796
 20
223.5754
 11
2.4948
 21
223.7965
  0
ARC
  8
LAYER_2
 10
-23.2419
 20
141.2354
 40
86.4796
 50
72.68620022
 51
75.28749255
  0
ARC
  8
LAYER_2
 10
-8.3903
 20
198.0431
 40
27.7626
 50
75.15799568
 51
79.77549819
  0
ARC
  8
LAYER_2
 10
-6.7088
 20
207.1644
 40
18.4878
 50
79.88637886
 51
86.33196232
  0
LINE
  8
LAYER_2
 10
-5.526
 20
225.6143
 11
-6.1733
 21
225.6405
  0
LINE
  8
LAYER_2
 10
-6.1733
 20
225.6405
 11
-7.0014
 21
225.6293
  0
ARC
  8
LAYER_2
 10
-6.4726
 20
213.5776
 40
12.0633
 50
92.5123409
 51
97.58294228
  0
ARC
  8
LAYER_2
 10
-6.6137
 20
214.5613
 40
11.0696
 50
97.53107217
 51
102.5117993
  0
ARC
  8
LAYER_2
 10
-7.5602
 20
218.4563
 40
7.0625
 50
101.8612144
 51
110.8981073
  0
ARC
  8
LAYER_2
 10
-4.3539
 20
211.3567
 40
14.846
 50
112.6846686
 51
116.5894927
  0
ENDBLK
  0
BLOCK
  8
LAYER_2
  2
AIGNBL020101B6
 70
64
 10
0
 20
0
 30
0
  3
AIGNBL020101B6
  0
LINE
  8
LAYER_2
 10
-52.971
 20
192.5429
 11
-53.5504
 21
225.7387
  0
ENDBLK
  0
BLOCK
  8
LAYER_2
  2
AIGNBL020101B7
 70
64
 10
0
 20
0
 30
0
  3
AIGNBL020101B7
  0
LINE
  8
LAYER_2
 10
-53.5504
 20
225.7387
 11
-53.0505
 21
225.7387
  0
ENDBLK
  0
BLOCK
  8
LAYER_2
  2
AIGNBL020101B8
 70
64
 10
0
 20
0
 30
0
  3
AIGNBL020101B8
  0
LINE
  8
LAYER_2
 10
-16.2171
 20
225.7387
 11
-16.7965
 21
192.5429
  0
ENDBLK
  0
BLOCK
  8
LAYER_2
  2
AIGNBL020101B9
 70
64
 10
0
 20
0
 30
0
  3
AIGNBL020101B9
  0
LINE
  8
LAYER_2
 10
-16.717
 20
225.7387
 11
-16.2171
 21
225.7387
  0
ENDBLK
  0
BLOCK
  8
LAYER_2
  2
AIGNBL020101BA
 70
64
 10
0
 20
0
 30
0
  3
AIGNBL020101BA
  0
ARC
  8
LAYER_2
 10
-42.2171
 20
216.4053
 40
3
 50
182.0009555
 51
271.9991988
  0
ARC
  8
LAYER_2
 10
-42.217
 20
216.4054
 40
3
 50
271.9990326
 51
357.9989873
  0
ENDBLK
  0
BLOCK
  8
LAYER_2
  2
AIGNBL020101BB
 70
64
 10
0
 20
0
 30
0
  3
AIGNBL020101BB
  0
LINE
  8
LAYER_2
 10
-39.2189
 20
216.3006
 11
-38.9005
 21
225.417
  0
ENDBLK
  0
BLOCK
  8
LAYER_2
  2
AIGNBL020101BC
 70
64
 10
0
 20
0
 30
0
  3
AIGNBL020101BC
  0
LINE
  8
LAYER_2
 10
-16.717
 20
225.7387
 11
-38.5674
 21
225.7387
  0
ENDBLK
  0
BLOCK
  8
LAYER_2
  2
AIGNBL020101BD
 70
64
 10
0
 20
0
 30
0
  3
AIGNBL020101BD
  0
LINE
  8
LAYER_2
 10
-45.8667
 20
225.7387
 11
-53.0505
 21
225.7387
  0
ENDBLK
  0
BLOCK
  8
LAYER_2
  2
AIGNBL020101BE
 70
64
 10
0
 20
0
 30
0
  3
AIGNBL020101BE
  0
LINE
  8
LAYER_2
 10
-45.5336
 20
225.417
 11
-45.2152
 21
216.3006
  0
ENDBLK
  0
BLOCK
  8
LAYER_2
  2
AIGNBL020101BF
 70
64
 10
0
 20
0
 30
0
  3
AIGNBL020101BF
  0
ARC
  8
LAYER_2
 10
-45.8667
 20
225.4054
 40
0.3333
 50
1.999791015
 51
89.99503459
  0
ENDBLK
  0
BLOCK
  8
LAYER_2
  2
AIGNBL020101C0
 70
64
 10
0
 20
0
 30
0
  3
AIGNBL020101C0
  0
ARC
  8
LAYER_2
 10
-38.5674
 20
225.4054
 40
0.3333
 50
90.00450168
 51
178.0006727
  0
ENDBLK
  0
BLOCK
  8
LAYER_2
  2
AIGNBL020101C1
 70
64
 10
0
 20
0
 30
0
  3
AIGNBL020101C1
  0
ARC
  8
LAYER_2
 10
-18.4629
 20
192.572
 40
1.6667
 50
270.0009965
 51
359.0001678
  0
ENDBLK
  0
BLOCK
  8
LAYER_2
  2
AIGNBL020101C2
 70
64
 10
0
 20
0
 30
0
  3
AIGNBL020101C2
  0
ARC
  8
LAYER_2
 10
-51.3045
 20
192.572
 40
1.6667
 50
181.0008637
 51
270.0014097
  0
ENDBLK
  0
BLOCK
  8
LAYER_2
  2
AIGNBL020101C3
 70
64
 10
0
 20
0
 30
0
  3
AIGNBL020101C3
  0
LINE
  8
LAYER_2
 10
-18.4629
 20
190.9053
 11
-51.3045
 21
190.9053
  0
ENDBLK
  0
BLOCK
  8
LAYER_2
  2
AIGNBL020101C4
 70
64
 10
0
 20
0
 30
0
  3
AIGNBL020101C4
  0
LINE
  8
LAYER_2
 10
-35.4971
 20
190.8053
 11
-35.7416
 21
190.8053
  0
LINE
  8
LAYER_2
 10
-35.7416
 20
190.8053
 11
-35.8981
 21
190.8053
  0
ENDBLK
  0
BLOCK
  8
LAYER_2
  2
AIGNBL020101C5
 70
64
 10
0
 20
0
 30
0
  3
AIGNBL020101C5
  0
LINE
  8
LAYER_2
 10
-33.1232
 20
190.8053
 11
-33.3674
 21
190.8053
  0
LINE
  8
LAYER_2
 10
-33.3674
 20
190.8053
 11
-33.5239
 21
190.8053
  0
ENDBLK
  0
BLOCK
  8
LAYER_2
  2
AIGNBL020101C6
 70
64
 10
0
 20
0
 30
0
  3
AIGNBL020101C6
  0
LINE
  8
LAYER_2
 10
-32.7219
 20
190.8053
 11
-32.9277
 21
190.8053
  0
LINE
  8
LAYER_2
 10
-32.9277
 20
190.8053
 11
-33.1232
 21
190.8053
  0
ENDBLK
  0
BLOCK
  8
LAYER_2
  2
AIGNBL020101C7
 70
64
 10
0
 20
0
 30
0
  3
AIGNBL020101C7
  0
LINE
  8
LAYER_2
 10
-35.0958
 20
190.8053
 11
-35.302
 21
190.8053
  0
LINE
  8
LAYER_2
 10
-35.302
 20
190.8053
 11
-35.4971
 21
190.8053
  0
ENDBLK
  0
BLOCK
  8
LAYER_2
  2
AIGNBL020101C8
 70
64
 10
0
 20
0
 30
0
  3
AIGNBL020101C8
  0
LINE
  8
LAYER_2
 10
-33.7786
 20
190.8053
 11
-33.7786
 21
190.9053
  0
ENDBLK
  0
BLOCK
  8
LAYER_2
  2
AIGNBL020101C9
 70
64
 10
0
 20
0
 30
0
  3
AIGNBL020101C9
  0
LINE
  8
LAYER_2
 10
-34.8427
 20
190.8053
 11
-34.8427
 21
190.9053
  0
ENDBLK
  0
BLOCK
  8
LAYER_2
  2
AIGNBL020101CA
 70
64
 10
0
 20
0
 30
0
  3
AIGNBL020101CA
  0
LINE
  8
LAYER_2
 10
-33.7786
 20
190.8053
 11
-34.8427
 21
190.8053
  0
ENDBLK
  0
BLOCK
  8
LAYER_2
  2
AIGNBL020101CB
 70
64
 10
0
 20
0
 30
0
  3
AIGNBL020101CB
  0
LINE
  8
LAYER_2
 10
-36.1525
 20
190.8053
 11
-36.1525
 21
190.9053
  0
ENDBLK
  0
BLOCK
  8
LAYER_2
  2
AIGNBL020101CC
 70
64
 10
0
 20
0
 30
0
  3
AIGNBL020101CC
  0
LINE
  8
LAYER_2
 10
-37.2171
 20
190.8053
 11
-37.2171
 21
190.9053
  0
ENDBLK
  0
BLOCK
  8
LAYER_2
  2
AIGNBL020101CD
 70
64
 10
0
 20
0
 30
0
  3
AIGNBL020101CD
  0
LINE
  8
LAYER_2
 10
-36.1525
 20
190.8053
 11
-37.2171
 21
190.8053
  0
ENDBLK
  0
BLOCK
  8
LAYER_2
  2
AIGNBL020101CE
 70
64
 10
0
 20
0
 30
0
  3
AIGNBL020101CE
  0
LINE
  8
LAYER_2
 10
-33.6962
 20
190.8053
 11
-33.6962
 21
190.9053
  0
ENDBLK
  0
BLOCK
  8
LAYER_2
  2
AIGNBL020101CF
 70
64
 10
0
 20
0
 30
0
  3
AIGNBL020101CF
  0
LINE
  8
LAYER_2
 10
-33.5239
 20
190.8053
 11
-33.6587
 21
190.8053
  0
LINE
  8
LAYER_2
 10
-33.6587
 20
190.8053
 11
-33.6962
 21
190.8053
  0
ENDBLK
  0
BLOCK
  8
LAYER_2
  2
AIGNBL020101D0
 70
64
 10
0
 20
0
 30
0
  3
AIGNBL020101D0
  0
LINE
  8
LAYER_2
 10
-32.5504
 20
190.8053
 11
-32.5504
 21
190.9053
  0
ENDBLK
  0
BLOCK
  8
LAYER_2
  2
AIGNBL020101D1
 70
64
 10
0
 20
0
 30
0
  3
AIGNBL020101D1
  0
LINE
  8
LAYER_2
 10
-32.5504
 20
190.8053
 11
-32.5661
 21
190.8053
  0
LINE
  8
LAYER_2
 10
-32.5661
 20
190.8053
 11
-32.6097
 21
190.8053
  0
LINE
  8
LAYER_2
 10
-32.6097
 20
190.8053
 11
-32.7219
 21
190.8053
  0
ENDBLK
  0
BLOCK
  8
LAYER_2
  2
AIGNBL020101D2
 70
64
 10
0
 20
0
 30
0
  3
AIGNBL020101D2
  0
LINE
  8
LAYER_2
 10
-34.9245
 20
190.8053
 11
-34.9245
 21
190.9053
  0
ENDBLK
  0
BLOCK
  8
LAYER_2
  2
AIGNBL020101D3
 70
64
 10
0
 20
0
 30
0
  3
AIGNBL020101D3
  0
LINE
  8
LAYER_2
 10
-34.9245
 20
190.8053
 11
-34.9401
 21
190.8053
  0
LINE
  8
LAYER_2
 10
-34.9401
 20
190.8053
 11
-34.9837
 21
190.8053
  0
LINE
  8
LAYER_2
 10
-34.9837
 20
190.8053
 11
-35.0958
 21
190.8053
  0
ENDBLK
  0
BLOCK
  8
LAYER_2
  2
AIGNBL020101D4
 70
64
 10
0
 20
0
 30
0
  3
AIGNBL020101D4
  0
LINE
  8
LAYER_2
 10
-36.0708
 20
190.8053
 11
-36.0708
 21
190.9053
  0
ENDBLK
  0
BLOCK
  8
LAYER_2
  2
AIGNBL020101D5
 70
64
 10
0
 20
0
 30
0
  3
AIGNBL020101D5
  0
LINE
  8
LAYER_2
 10
-35.8981
 20
190.8053
 11
-36.0331
 21
190.8053
  0
LINE
  8
LAYER_2
 10
-36.0331
 20
190.8053
 11
-36.0708
 21
190.8053
  0
ENDBLK
  0
BLOCK
  8
LAYER_2
  2
AIGNBL020101D6
 70
64
 10
0
 20
0
 30
0
  3
AIGNBL020101D6
  0
LINE
  8
LAYER_2
 10
-33.0504
 20
235.2387
 11
-51.3837
 21
235.2387
  0
ENDBLK
  0
BLOCK
  8
LAYER_2
  2
AIGNBL020101D7
 70
64
 10
0
 20
0
 30
0
  3
AIGNBL020101D7
  0
LINE
  8
LAYER_2
 10
-45.2496
 20
237.9053
 11
-39.1846
 21
237.9053
  0
ENDBLK
  0
BLOCK
  8
LAYER_2
  2
AIGNBL020101D8
 70
64
 10
0
 20
0
 30
0
  3
AIGNBL020101D8
  0
LINE
  8
LAYER_2
 10
-45.6384
 20
237.5165
 11
-38.7957
 21
237.5165
  0
ENDBLK
  0
BLOCK
  8
LAYER_2
  2
AIGNBL020101D9
 70
64
 10
0
 20
0
 30
0
  3
AIGNBL020101D9
  0
LINE
  8
LAYER_2
 10
-41.6099
 20
216.4859
 11
-41.4972
 21
216.7039
  0
ARC
  8
LAYER_2
 10
-42.196
 20
216.9352
 40
0.7361
 50
341.6883487
 51
1.241053016
  0
LINE
  8
LAYER_2
 10
-41.4601
 20
216.9511
 11
-41.5001
 21
217.1821
  0
LINE
  8
LAYER_2
 10
-41.5001
 20
217.1821
 11
-41.6063
 21
217.3865
  0
ARC
  8
LAYER_2
 10
-42.2181
 20
216.9388
 40
0.7581
 50
36.20014161
 51
55.0712346
  0
ARC
  8
LAYER_2
 10
-42.2174
 20
216.9389
 40
0.7576
 50
55.10117573
 51
75.04968354
  0
ARC
  8
LAYER_2
 10
-42.2176
 20
216.9355
 40
0.761
 50
75.10378864
 51
94.12785802
  0
LINE
  8
LAYER_2
 10
-42.2724
 20
217.6945
 11
-42.5009
 21
217.6412
  0
LINE
  8
LAYER_2
 10
-42.5009
 20
217.6412
 11
-42.7026
 21
217.5201
  0
ARC
  8
LAYER_2
 10
-42.2153
 20
216.9379
 40
0.7592
 50
129.9327215
 51
148.9784842
  0
ARC
  8
LAYER_2
 10
-42.2158
 20
216.9389
 40
0.7583
 50
149.0187642
 51
168.9813311
  0
ARC
  8
LAYER_2
 10
-42.2123
 20
216.9386
 40
0.7618
 50
169.0131582
 51
187.696484
  0
LINE
  8
LAYER_2
 10
-42.9672
 20
216.8366
 11
-42.9026
 21
216.617
  0
LINE
  8
LAYER_2
 10
-42.9026
 20
216.617
 11
-42.7701
 21
216.4211
  0
ARC
  8
LAYER_2
 10
-42.2197
 20
216.9342
 40
0.7524
 50
222.9943708
 51
242.6961299
  0
ARC
  8
LAYER_2
 10
-42.2159
 20
216.94
 40
0.7593
 50
242.6391126
 51
262.4724821
  0
LINE
  8
LAYER_2
 10
-42.3154
 20
216.1872
 11
-42.0723
 21
216.1948
  0
LINE
  8
LAYER_2
 10
-42.0723
 20
216.1948
 11
-41.8549
 21
216.2732
  0
LINE
  8
LAYER_2
 10
-41.8549
 20
216.2732
 11
-41.6658
 21
216.4192
  0
LINE
  8
LAYER_2
 10
-41.6658
 20
216.4192
 11
-41.6099
 21
216.4859
  0
ENDBLK
  0
BLOCK
  8
LAYER_2
  2
AIGNBL020101DA
 70
64
 10
0
 20
0
 30
0
  3
AIGNBL020101DA
  0
ARC
  8
LAYER_2
 10
-42.2171
 20
216.9387
 40
0.8333
 50
90.00237088
 51
179.9976291
  0
ARC
  8
LAYER_2
 10
-42.217
 20
216.9387
 40
0.8333
 50
0.002562990388
 51
90.00431235
  0
ARC
  8
LAYER_2
 10
-42.2171
 20
216.9387
 40
0.8334
 50
269.9976293
 51
0.002370752545
  0
ARC
  8
LAYER_2
 10
-42.217
 20
216.9387
 40
0.8334
 50
179.9974369
 51
269.9956878
  0
ENDBLK
  0
BLOCK
  8
LAYER_2
  2
AIGNBL020101DB
 70
64
 10
0
 20
0
 30
0
  3
AIGNBL020101DB
  0
LINE
  8
LAYER_2
 10
-41.3351
 20
215.272
 11
-41.5595
 21
215.272
  0
LINE
  8
LAYER_2
 10
-41.5595
 20
215.272
 11
-42.3181
 21
215.272
  0
LINE
  8
LAYER_2
 10
-42.3181
 20
215.272
 11
-43.099
 21
215.272
  0
ENDBLK
  0
BLOCK
  8
LAYER_2
  2
AIGNBL020101DC
 70
64
 10
0
 20
0
 30
0
  3
AIGNBL020101DC
  0
LINE
  8
LAYER_2
 10
-40.8942
 20
215.4387
 11
-41.0834
 21
215.3214
  0
ARC
  8
LAYER_2
 10
-41.328
 20
215.906
 40
0.6337
 50
272.4942028
 51
292.7031584
  0
LINE
  8
LAYER_2
 10
-41.3004
 20
215.2729
 11
-41.3351
 21
215.272
  0
ENDBLK
  0
BLOCK
  8
LAYER_2
  2
AIGNBL020101DD
 70
64
 10
0
 20
0
 30
0
  3
AIGNBL020101DD
  0
LINE
  8
LAYER_2
 10
-43.099
 20
215.272
 11
-43.1337
 21
215.2729
  0
ARC
  8
LAYER_2
 10
-43.1171
 20
215.8567
 40
0.5841
 50
246.4283288
 51
268.3743101
  0
LINE
  8
LAYER_2
 10
-43.3507
 20
215.3214
 11
-43.5399
 21
215.4387
  0
ENDBLK
  0
BLOCK
  8
LAYER_2
  2
AIGNBL020101DE
 70
64
 10
0
 20
0
 30
0
  3
AIGNBL020101DE
  0
LINE
  8
LAYER_2
 10
-40.4671
 20
217.9324
 11
-40.4614
 21
217.8994
  0
LINE
  8
LAYER_2
 10
-40.4614
 20
217.8994
 11
-40.4551
 21
217.8851
  0
ENDBLK
  0
BLOCK
  8
LAYER_2
  2
AIGNBL020101DF
 70
64
 10
0
 20
0
 30
0
  3
AIGNBL020101DF
  0
LINE
  8
LAYER_2
 10
-43.979
 20
217.8851
 11
-43.9735
 21
217.897
  0
LINE
  8
LAYER_2
 10
-43.9735
 20
217.897
 11
-43.9671
 21
217.9324
  0
ENDBLK
  0
BLOCK
  8
LAYER_2
  2
AIGNBL020101E0
 70
64
 10
0
 20
0
 30
0
  3
AIGNBL020101E0
  0
ARC
  8
LAYER_2
 10
-42.2171
 20
216.9387
 40
2
 50
151.7591494
 51
228.5919887
  0
ENDBLK
  0
BLOCK
  8
LAYER_2
  2
AIGNBL020101E1
 70
64
 10
0
 20
0
 30
0
  3
AIGNBL020101E1
  0
ARC
  8
LAYER_2
 10
-42.217
 20
216.9387
 40
2
 50
311.4081094
 51
28.2407526
  0
ENDBLK
  0
BLOCK
  8
LAYER_2
  2
AIGNBL020101E2
 70
64
 10
0
 20
0
 30
0
  3
AIGNBL020101E2
  0
LINE
  8
LAYER_2
 10
-40.4671
 20
218.0089
 11
-40.4671
 21
217.9324
  0
ENDBLK
  0
BLOCK
  8
LAYER_2
  2
AIGNBL020101E3
 70
64
 10
0
 20
0
 30
0
  3
AIGNBL020101E3
  0
LINE
  8
LAYER_2
 10
-43.9671
 20
217.9324
 11
-43.9671
 21
218.0089
  0
ENDBLK
  0
BLOCK
  8
LAYER_2
  2
AIGNBL020101E4
 70
64
 10
0
 20
0
 30
0
  3
AIGNBL020101E4
  0
LINE
  8
LAYER_2
 10
-40.4671
 20
219.0387
 11
-40.4671
 21
218.0089
  0
ENDBLK
  0
BLOCK
  8
LAYER_2
  2
AIGNBL020101E5
 70
64
 10
0
 20
0
 30
0
  3
AIGNBL020101E5
  0
LINE
  8
LAYER_2
 10
-43.9671
 20
218.0089
 11
-43.9671
 21
219.0387
  0
ENDBLK
  0
BLOCK
  8
LAYER_2
  2
AIGNBL020101E6
 70
64
 10
0
 20
0
 30
0
  3
AIGNBL020101E6
  0
LINE
  8
LAYER_2
 10
-42.0171
 20
215.2666
 11
-42.0171
 21
213.7178
  0
ENDBLK
  0
BLOCK
  8
LAYER_2
  2
AIGNBL020101E7
 70
64
 10
0
 20
0
 30
0
  3
AIGNBL020101E7
  0
LINE
  8
LAYER_2
 10
-42.4171
 20
213.7178
 11
-42.4171
 21
215.2664
  0
ENDBLK
  0
BLOCK
  8
LAYER_2
  2
AIGNBL020101E8
 70
64
 10
0
 20
0
 30
0
  3
AIGNBL020101E8
  0
LINE
  8
LAYER_2
 10
-42.0171
 20
213.7178
 11
-42.0171
 21
213.6854
  0
ENDBLK
  0
BLOCK
  8
LAYER_2
  2
AIGNBL020101E9
 70
64
 10
0
 20
0
 30
0
  3
AIGNBL020101E9
  0
LINE
  8
LAYER_2
 10
-42.4171
 20
213.6854
 11
-42.4171
 21
213.7178
  0
ENDBLK
  0
BLOCK
  8
LAYER_2
  2
AIGNBL020101EA
 70
64
 10
0
 20
0
 30
0
  3
AIGNBL020101EA
  0
LINE
  8
LAYER_2
 10
-42.0171
 20
213.6854
 11
-42.0154
 21
213.6761
  0
LINE
  8
LAYER_2
 10
-42.0154
 20
213.6761
 11
-42.0073
 21
213.6585
  0
LINE
  8
LAYER_2
 10
-42.0073
 20
213.6585
 11
-41.9899
 21
213.6363
  0
LINE
  8
LAYER_2
 10
-41.9899
 20
213.6363
 11
-41.9726
 21
213.6222
  0
LINE
  8
LAYER_2
 10
-41.9726
 20
213.6222
 11
-41.965
 21
213.6176
  0
LINE
  8
LAYER_2
 10
-41.965
 20
213.6176
 11
-41.9551
 21
213.6129
  0
ENDBLK
  0
BLOCK
  8
LAYER_2
  2
AIGNBL020101EB
 70
64
 10
0
 20
0
 30
0
  3
AIGNBL020101EB
  0
LINE
  8
LAYER_2
 10
-42.479
 20
213.6129
 11
-42.4634
 21
213.6209
  0
LINE
  8
LAYER_2
 10
-42.4634
 20
213.6209
 11
-42.4426
 21
213.6379
  0
LINE
  8
LAYER_2
 10
-42.4426
 20
213.6379
 11
-42.4282
 21
213.6562
  0
LINE
  8
LAYER_2
 10
-42.4282
 20
213.6562
 11
-42.4197
 21
213.6734
  0
LINE
  8
LAYER_2
 10
-42.4197
 20
213.6734
 11
-42.4171
 21
213.6854
  0
ENDBLK
  0
BLOCK
  8
LAYER_2
  2
AIGNBL020101EC
 70
64
 10
0
 20
0
 30
0
  3
AIGNBL020101EC
  0
ARC
  8
LAYER_2
 10
-41.4837
 20
213.5053
 40
0.1
 50
10.18202369
 51
90.00096069
  0
ENDBLK
  0
BLOCK
  8
LAYER_2
  2
AIGNBL020101ED
 70
64
 10
0
 20
0
 30
0
  3
AIGNBL020101ED
  0
LINE
  8
LAYER_2
 10
-42.5171
 20
213.6053
 11
-42.479
 21
213.6129
  0
ENDBLK
  0
BLOCK
  8
LAYER_2
  2
AIGNBL020101EE
 70
64
 10
0
 20
0
 30
0
  3
AIGNBL020101EE
  0
ARC
  8
LAYER_2
 10
-42.9504
 20
213.5053
 40
0.1
 50
89.99771965
 51
169.8192959
  0
ENDBLK
  0
BLOCK
  8
LAYER_2
  2
AIGNBL020101EF
 70
64
 10
0
 20
0
 30
0
  3
AIGNBL020101EF
  0
LINE
  8
LAYER_2
 10
-41.9171
 20
213.6053
 11
-41.4837
 21
213.6053
  0
ENDBLK
  0
BLOCK
  8
LAYER_2
  2
AIGNBL020101F0
 70
64
 10
0
 20
0
 30
0
  3
AIGNBL020101F0
  0
LINE
  8
LAYER_2
 10
-42.9504
 20
213.6053
 11
-42.5171
 21
213.6053
  0
ENDBLK
  0
BLOCK
  8
LAYER_2
  2
AIGNBL020101F1
 70
64
 10
0
 20
0
 30
0
  3
AIGNBL020101F1
  0
LINE
  8
LAYER_2
 10
-41.9551
 20
213.6129
 11
-41.9171
 21
213.6053
  0
ENDBLK
  0
BLOCK
  8
LAYER_2
  2
AIGNBL020101F2
 70
64
 10
0
 20
0
 30
0
  3
AIGNBL020101F2
  0
ARC
  8
LAYER_2
 10
-41.9147
 20
213.707
 40
0.1024
 50
180.9624408
 51
246.7604397
  0
ENDBLK
  0
BLOCK
  8
LAYER_2
  2
AIGNBL020101F3
 70
64
 10
0
 20
0
 30
0
  3
AIGNBL020101F3
  0
LINE
  8
LAYER_2
 10
-42.4466
 20
213.6343
 11
-42.4171
 21
213.7053
  0
ENDBLK
  0
BLOCK
  8
LAYER_2
  2
AIGNBL020101F4
 70
64
 10
0
 20
0
 30
0
  3
AIGNBL020101F4
  0
ARC
  8
LAYER_2
 10
-42.5167
 20
213.7062
 40
0.0996
 50
270.6070284
 51
359.7987063
  0
ENDBLK
  0
BLOCK
  8
LAYER_2
  2
AIGNBL020101F5
 70
64
 10
0
 20
0
 30
0
  3
AIGNBL020101F5
  0
ARC
  8
LAYER_2
 10
-41.9175
 20
213.7063
 40
0.0996
 50
180.2286577
 51
269.4237451
  0
ENDBLK
  0
BLOCK
  8
LAYER_2
  2
AIGNBL020101F6
 70
64
 10
0
 20
0
 30
0
  3
AIGNBL020101F6
  0
LINE
  8
LAYER_2
 10
-45.3737
 20
220.8387
 11
-39.0604
 21
220.8387
  0
ENDBLK
  0
BLOCK
  8
LAYER_2
  2
AIGNBL020101F7
 70
64
 10
0
 20
0
 30
0
  3
AIGNBL020101F7
  0
LINE
  8
LAYER_2
 10
-45.0504
 20
223.7387
 11
-45.475
 21
223.7387
  0
ENDBLK
  0
BLOCK
  8
LAYER_2
  2
AIGNBL020101F8
 70
64
 10
0
 20
0
 30
0
  3
AIGNBL020101F8
  0
ARC
  8
LAYER_2
 10
-45.0504
 20
223.9054
 40
0.1667
 50
269.9881432
 51
359.977476
  0
ENDBLK
  0
BLOCK
  8
LAYER_2
  2
AIGNBL020101F9
 70
64
 10
0
 20
0
 30
0
  3
AIGNBL020101F9
  0
LINE
  8
LAYER_2
 10
-44.8837
 20
223.9053
 11
-44.8837
 21
225.572
  0
ENDBLK
  0
BLOCK
  8
LAYER_2
  2
AIGNBL020101FA
 70
64
 10
0
 20
0
 30
0
  3
AIGNBL020101FA
  0
LINE
  8
LAYER_2
 10
-38.5674
 20
225.7387
 11
-44.7171
 21
225.7387
  0
ENDBLK
  0
BLOCK
  8
LAYER_2
  2
AIGNBL020101FB
 70
64
 10
0
 20
0
 30
0
  3
AIGNBL020101FB
  0
ARC
  8
LAYER_2
 10
-44.717
 20
225.572
 40
0.1667
 50
90.02331343
 51
180.0110675
  0
ENDBLK
  0
BLOCK
  8
LAYER_2
  2
AIGNBL020101FC
 70
64
 10
0
 20
0
 30
0
  3
AIGNBL020101FC
  0
LINE
  8
LAYER_2
 10
-39.1233
 20
219.0387
 11
-45.3108
 21
219.0387
  0
ENDBLK
  0
BLOCK
  8
LAYER_2
  2
AIGNBL020101FD
 70
64
 10
0
 20
0
 30
0
  3
AIGNBL020101FD
  0
LINE
  8
LAYER_2
 10
-44.7171
 20
225.7387
 11
-45.8667
 21
225.7387
  0
ENDBLK
  0
BLOCK
  8
LAYER_2
  2
AIGNBL020101FE
 70
64
 10
0
 20
0
 30
0
  3
AIGNBL020101FE
  0
LINE
  8
LAYER_2
 10
-44.7453
 20
217.1378
 11
-44.7619
 21
219.0387
  0
ENDBLK
  0
BLOCK
  8
LAYER_2
  2
AIGNBL020101FF
 70
64
 10
0
 20
0
 30
0
  3
AIGNBL020101FF
  0
ARC
  8
LAYER_2
 10
-39.3435
 20
216.9387
 40
0.1
 50
0.5310271128
 51
89.98696233
  0
ENDBLK
  0
BLOCK
  8
LAYER_2
  2
AIGNBL02010200
 70
64
 10
0
 20
0
 30
0
  3
AIGNBL02010200
  0
LINE
  8
LAYER_2
 10
-44.7453
 20
217.1378
 11
-44.7171
 21
217.0691
  0
ENDBLK
  0
BLOCK
  8
LAYER_2
  2
AIGNBL02010201
 70
64
 10
0
 20
0
 30
0
  3
AIGNBL02010201
  0
LINE
  8
LAYER_2
 10
-39.3435
 20
217.0387
 11
-39.7171
 21
217.0387
  0
ENDBLK
  0
BLOCK
  8
LAYER_2
  2
AIGNBL02010202
 70
64
 10
0
 20
0
 30
0
  3
AIGNBL02010202
  0
LINE
  8
LAYER_2
 10
-39.2359
 20
216.0693
 11
-39.2435
 21
216.9396
  0
ENDBLK
  0
BLOCK
  8
LAYER_2
  2
AIGNBL02010203
 70
64
 10
0
 20
0
 30
0
  3
AIGNBL02010203
  0
LINE
  8
LAYER_2
 10
-44.7453
 20
217.1378
 11
-44.7452
 21
217.134
  0
LINE
  8
LAYER_2
 10
-44.7452
 20
217.134
 11
-44.7451
 21
217.1227
  0
LINE
  8
LAYER_2
 10
-44.7451
 20
217.1227
 11
-44.745
 21
217.1045
  0
LINE
  8
LAYER_2
 10
-44.745
 20
217.1045
 11
-44.7448
 21
217.0798
  0
LINE
  8
LAYER_2
 10
-44.7448
 20
217.0798
 11
-44.7445
 21
217.0498
  0
LINE
  8
LAYER_2
 10
-44.7445
 20
217.0498
 11
-44.7442
 21
217.0155
  0
LINE
  8
LAYER_2
 10
-44.7442
 20
217.0155
 11
-44.7439
 21
216.9783
  0
LINE
  8
LAYER_2
 10
-44.7439
 20
216.9783
 11
-44.7435
 21
216.9396
  0
ENDBLK
  0
BLOCK
  8
LAYER_2
  2
AIGNBL02010204
 70
64
 10
0
 20
0
 30
0
  3
AIGNBL02010204
  0
LINE
  8
LAYER_2
 10
-44.7245
 20
214.7583
 11
-44.7435
 21
216.9396
  0
ENDBLK
  0
BLOCK
  8
LAYER_2
  2
AIGNBL02010205
 70
64
 10
0
 20
0
 30
0
  3
AIGNBL02010205
  0
LINE
  8
LAYER_2
 10
6.699
 20
218.7087
 11
6.1324
 21
218.7087
  0
ENDBLK
  0
BLOCK
  8
LAYER_2
  2
AIGNBL02010206
 70
64
 10
0
 20
0
 30
0
  3
AIGNBL02010206
  0
LINE
  8
LAYER_2
 10
6.1324
 20
218.7087
 11
6.1324
 21
218.7218
  0
ENDBLK
  0
BLOCK
  8
LAYER_2
  2
AIGNBL02010207
 70
64
 10
0
 20
0
 30
0
  3
AIGNBL02010207
  0
LINE
  8
LAYER_2
 10
6.1324
 20
218.7218
 11
6.159
 21
218.7603
  0
LINE
  8
LAYER_2
 10
6.159
 20
218.7603
 11
6.2327
 21
218.8164
  0
LINE
  8
LAYER_2
 10
6.2327
 20
218.8164
 11
6.3566
 21
218.8826
  0
LINE
  8
LAYER_2
 10
6.3566
 20
218.8826
 11
6.4967
 21
218.928
  0
LINE
  8
LAYER_2
 10
6.4967
 20
218.928
 11
6.6324
 21
218.9427
  0
ENDBLK
  0
BLOCK
  8
LAYER_2
  2
AIGNBL02010208
 70
64
 10
0
 20
0
 30
0
  3
AIGNBL02010208
  0
LINE
  8
LAYER_2
 10
8.1324
 20
218.9427
 11
8.2768
 21
218.9261
  0
LINE
  8
LAYER_2
 10
8.2768
 20
218.9261
 11
8.404
 21
218.8844
  0
LINE
  8
LAYER_2
 10
8.404
 20
218.8844
 11
8.5183
 21
218.8251
  0
LINE
  8
LAYER_2
 10
8.5183
 20
218.8251
 11
8.6058
 21
218.7602
  0
LINE
  8
LAYER_2
 10
8.6058
 20
218.7602
 11
8.6324
 21
218.7218
  0
ENDBLK
  0
BLOCK
  8
LAYER_2
  2
AIGNBL02010209
 70
64
 10
0
 20
0
 30
0
  3
AIGNBL02010209
  0
LINE
  8
LAYER_2
 10
8.6324
 20
218.7218
 11
8.6324
 21
218.7087
  0
ENDBLK
  0
BLOCK
  8
LAYER_2
  2
AIGNBL0201020A
 70
64
 10
0
 20
0
 30
0
  3
AIGNBL0201020A
  0
LINE
  8
LAYER_2
 10
8.6324
 20
218.7087
 11
8.0657
 21
218.7087
  0
ENDBLK
  0
BLOCK
  8
LAYER_2
  2
AIGNBL0201020B
 70
64
 10
0
 20
0
 30
0
  3
AIGNBL0201020B
  0
LINE
  8
LAYER_2
 10
8.0657
 20
218.7087
 11
6.699
 21
218.7087
  0
ENDBLK
  0
BLOCK
  8
LAYER_2
  2
AIGNBL0201020C
 70
64
 10
0
 20
0
 30
0
  3
AIGNBL0201020C
  0
LINE
  8
LAYER_2
 10
6.6324
 20
218.9427
 11
6.6324
 21
219.7754
  0
ENDBLK
  0
BLOCK
  8
LAYER_2
  2
AIGNBL0201020D
 70
64
 10
0
 20
0
 30
0
  3
AIGNBL0201020D
  0
LINE
  8
LAYER_2
 10
8.1324
 20
219.7754
 11
8.1324
 21
218.9427
  0
ENDBLK
  0
BLOCK
  8
LAYER_2
  2
AIGNBL0201020E
 70
64
 10
0
 20
0
 30
0
  3
AIGNBL0201020E
  0
LINE
  8
LAYER_2
 10
6.8424
 20
222.042
 11
6.6324
 21
221.042
  0
ENDBLK
  0
BLOCK
  8
LAYER_2
  2
AIGNBL0201020F
 70
64
 10
0
 20
0
 30
0
  3
AIGNBL0201020F
  0
LINE
  8
LAYER_2
 10
8.1324
 20
221.042
 11
7.9224
 21
222.042
  0
ENDBLK
  0
BLOCK
  8
LAYER_2
  2
AIGNBL02010210
 70
64
 10
0
 20
0
 30
0
  3
AIGNBL02010210
  0
LINE
  8
LAYER_2
 10
6.6324
 20
221.042
 11
6.6324
 21
219.7754
  0
ENDBLK
  0
BLOCK
  8
LAYER_2
  2
AIGNBL02010211
 70
64
 10
0
 20
0
 30
0
  3
AIGNBL02010211
  0
LINE
  8
LAYER_2
 10
8.1324
 20
219.7754
 11
8.1324
 21
221.042
  0
ENDBLK
  0
BLOCK
  8
LAYER_2
  2
AIGNBL02010212
 70
64
 10
0
 20
0
 30
0
  3
AIGNBL02010212
  0
LINE
  8
LAYER_2
 10
6.9824
 20
222.7087
 11
6.9824
 21
223.0309
  0
ENDBLK
  0
BLOCK
  8
LAYER_2
  2
AIGNBL02010213
 70
64
 10
0
 20
0
 30
0
  3
AIGNBL02010213
  0
LINE
  8
LAYER_2
 10
6.9824
 20
223.0309
 11
6.6324
 21
223.0309
  0
ENDBLK
  0
BLOCK
  8
LAYER_2
  2
AIGNBL02010214
 70
64
 10
0
 20
0
 30
0
  3
AIGNBL02010214
  0
ARC
  8
LAYER_2
 10
6.7729
 20
222.9511
 40
0.1615
 50
102.6775857
 51
150.3957831
  0
ENDBLK
  0
BLOCK
  8
LAYER_2
  2
AIGNBL02010215
 70
64
 10
0
 20
0
 30
0
  3
AIGNBL02010215
  0
LINE
  8
LAYER_2
 10
6.7374
 20
223.1087
 11
8.0274
 21
223.1087
  0
ENDBLK
  0
BLOCK
  8
LAYER_2
  2
AIGNBL02010216
 70
64
 10
0
 20
0
 30
0
  3
AIGNBL02010216
  0
ARC
  8
LAYER_2
 10
8.0194
 20
222.9882
 40
0.1208
 50
20.71072195
 51
86.21590915
  0
ENDBLK
  0
BLOCK
  8
LAYER_2
  2
AIGNBL02010217
 70
64
 10
0
 20
0
 30
0
  3
AIGNBL02010217
  0
LINE
  8
LAYER_2
 10
8.1324
 20
223.0309
 11
7.7824
 21
223.0309
  0
ENDBLK
  0
BLOCK
  8
LAYER_2
  2
AIGNBL02010218
 70
64
 10
0
 20
0
 30
0
  3
AIGNBL02010218
  0
LINE
  8
LAYER_2
 10
7.7824
 20
223.0309
 11
7.7824
 21
222.7087
  0
ENDBLK
  0
BLOCK
  8
LAYER_2
  2
AIGNBL02010219
 70
64
 10
0
 20
0
 30
0
  3
AIGNBL02010219
  0
LINE
  8
LAYER_2
 10
6.8424
 20
222.042
 11
6.8924
 21
222.2801
  0
LINE
  8
LAYER_2
 10
6.8924
 20
222.2801
 11
6.9398
 21
222.5061
  0
LINE
  8
LAYER_2
 10
6.9398
 20
222.5061
 11
6.9824
 21
222.7087
  0
ENDBLK
  0
BLOCK
  8
LAYER_2
  2
AIGNBL0201021A
 70
64
 10
0
 20
0
 30
0
  3
AIGNBL0201021A
  0
LINE
  8
LAYER_2
 10
7.7824
 20
222.7087
 11
7.8249
 21
222.5061
  0
LINE
  8
LAYER_2
 10
7.8249
 20
222.5061
 11
7.8724
 21
222.2801
  0
LINE
  8
LAYER_2
 10
7.8724
 20
222.2801
 11
7.9224
 21
222.042
  0
ENDBLK
  0
BLOCK
  8
LAYER_2
  2
AIGNBL0201021B
 70
64
 10
0
 20
0
 30
0
  3
AIGNBL0201021B
  0
LINE
  8
LAYER_2
 10
8.6324
 20
219.1299
 11
8.6093
 21
219.1887
  0
LINE
  8
LAYER_2
 10
8.6093
 20
219.1887
 11
8.5508
 21
219.2749
  0
LINE
  8
LAYER_2
 10
8.5508
 20
219.2749
 11
8.4177
 21
219.4418
  0
LINE
  8
LAYER_2
 10
8.4177
 20
219.4418
 11
8.2002
 21
219.697
  0
LINE
  8
LAYER_2
 10
8.2002
 20
219.697
 11
8.1343
 21
219.7731
  0
LINE
  8
LAYER_2
 10
8.1343
 20
219.7731
 11
8.1324
 21
219.7754
  0
ENDBLK
  0
BLOCK
  8
LAYER_2
  2
AIGNBL0201021C
 70
64
 10
0
 20
0
 30
0
  3
AIGNBL0201021C
  0
LINE
  8
LAYER_2
 10
8.6324
 20
218.7218
 11
8.6324
 21
219.1299
  0
ENDBLK
  0
BLOCK
  8
LAYER_2
  2
AIGNBL0201021D
 70
64
 10
0
 20
0
 30
0
  3
AIGNBL0201021D
  0
LINE
  8
LAYER_2
 10
6.6324
 20
219.7754
 11
6.6304
 21
219.7731
  0
LINE
  8
LAYER_2
 10
6.6304
 20
219.7731
 11
6.5646
 21
219.697
  0
LINE
  8
LAYER_2
 10
6.5646
 20
219.697
 11
6.347
 21
219.4418
  0
LINE
  8
LAYER_2
 10
6.347
 20
219.4418
 11
6.2139
 21
219.2749
  0
LINE
  8
LAYER_2
 10
6.2139
 20
219.2749
 11
6.1554
 21
219.1887
  0
LINE
  8
LAYER_2
 10
6.1554
 20
219.1887
 11
6.1324
 21
219.1299
  0
ENDBLK
  0
BLOCK
  8
LAYER_2
  2
AIGNBL0201021E
 70
64
 10
0
 20
0
 30
0
  3
AIGNBL0201021E
  0
LINE
  8
LAYER_2
 10
6.1324
 20
218.7218
 11
6.1324
 21
219.1299
  0
ENDBLK
  0
BLOCK
  8
LAYER_2
  2
AIGNBL0201021F
 70
64
 10
0
 20
0
 30
0
  3
AIGNBL0201021F
  0
LINE
  8
LAYER_2
 10
7.8104
 20
222.5754
 11
8.1324
 21
222.5754
  0
ENDBLK
  0
BLOCK
  8
LAYER_2
  2
AIGNBL02010220
 70
64
 10
0
 20
0
 30
0
  3
AIGNBL02010220
  0
LINE
  8
LAYER_2
 10
6.6324
 20
222.5754
 11
6.9544
 21
222.5754
  0
ENDBLK
  0
BLOCK
  8
LAYER_2
  2
AIGNBL02010221
 70
64
 10
0
 20
0
 30
0
  3
AIGNBL02010221
  0
LINE
  8
LAYER_2
 10
6.6324
 20
223.0309
 11
6.6324
 21
222.5754
  0
ENDBLK
  0
BLOCK
  8
LAYER_2
  2
AIGNBL02010222
 70
64
 10
0
 20
0
 30
0
  3
AIGNBL02010222
  0
LINE
  8
LAYER_2
 10
8.1324
 20
223.0309
 11
8.1324
 21
222.5754
  0
ENDBLK
  0
BLOCK
  8
LAYER_2
  2
AIGNBL02010223
 70
64
 10
0
 20
0
 30
0
  3
AIGNBL02010223
  0
LINE
  8
LAYER_2
 10
6.6324
 20
223.1087
 11
6.6324
 21
223.0309
  0
ENDBLK
  0
BLOCK
  8
LAYER_2
  2
AIGNBL02010224
 70
64
 10
0
 20
0
 30
0
  3
AIGNBL02010224
  0
LINE
  8
LAYER_2
 10
6.6324
 20
223.1087
 11
6.7374
 21
223.1087
  0
ENDBLK
  0
BLOCK
  8
LAYER_2
  2
AIGNBL02010225
 70
64
 10
0
 20
0
 30
0
  3
AIGNBL02010225
  0
LINE
  8
LAYER_2
 10
8.1324
 20
223.1087
 11
8.1324
 21
223.0309
  0
ENDBLK
  0
BLOCK
  8
LAYER_2
  2
AIGNBL02010226
 70
64
 10
0
 20
0
 30
0
  3
AIGNBL02010226
  0
LINE
  8
LAYER_2
 10
8.0274
 20
223.1087
 11
8.1324
 21
223.1087
  0
ENDBLK
  0
BLOCK
  8
LAYER_2
  2
AIGNBL02010227
 70
64
 10
0
 20
0
 30
0
  3
AIGNBL02010227
  0
LINE
  8
LAYER_2
 10
6.4657
 20
224.2087
 11
8.299
 21
224.2087
  0
ENDBLK
  0
BLOCK
  8
LAYER_2
  2
AIGNBL02010228
 70
64
 10
0
 20
0
 30
0
  3
AIGNBL02010228
  0
LINE
  8
LAYER_2
 10
7.8824
 20
223.2087
 11
7.8824
 21
223.1087
  0
ENDBLK
  0
BLOCK
  8
LAYER_2
  2
AIGNBL02010229
 70
64
 10
0
 20
0
 30
0
  3
AIGNBL02010229
  0
LINE
  8
LAYER_2
 10
6.8824
 20
223.2087
 11
7.8824
 21
223.2087
  0
ENDBLK
  0
BLOCK
  8
LAYER_2
  2
AIGNBL0201022A
 70
64
 10
0
 20
0
 30
0
  3
AIGNBL0201022A
  0
LINE
  8
LAYER_2
 10
6.8824
 20
223.1087
 11
6.8824
 21
223.2087
  0
ENDBLK
  0
BLOCK
  8
LAYER_2
  2
AIGNBL0201022B
 70
64
 10
0
 20
0
 30
0
  3
AIGNBL0201022B
  0
LINE
  8
LAYER_2
 10
8.299
 20
224.2087
 11
8.299
 21
222.6866
  0
ENDBLK
  0
BLOCK
  8
LAYER_2
  2
AIGNBL0201022C
 70
64
 10
0
 20
0
 30
0
  3
AIGNBL0201022C
  0
LINE
  8
LAYER_2
 10
6.4657
 20
221.0185
 11
6.4657
 21
221.0483
  0
ENDBLK
  0
BLOCK
  8
LAYER_2
  2
AIGNBL0201022D
 70
64
 10
0
 20
0
 30
0
  3
AIGNBL0201022D
  0
LINE
  8
LAYER_2
 10
6.4657
 20
222.8362
 11
6.4657
 21
224.2087
  0
ENDBLK
  0
BLOCK
  8
LAYER_2
  2
AIGNBL0201022E
 70
64
 10
0
 20
0
 30
0
  3
AIGNBL0201022E
  0
LINE
  8
LAYER_2
 10
19.9353
 20
222.7968
 11
20.008
 21
222.8058
  0
LINE
  8
LAYER_2
 10
20.008
 20
222.8058
 11
21.0882
 21
222.9259
  0
LINE
  8
LAYER_2
 10
21.0882
 20
222.9259
 11
21.7342
 21
222.9898
  0
LINE
  8
LAYER_2
 10
21.7342
 20
222.9898
 11
22.3529
 21
223.0444
  0
LINE
  8
LAYER_2
 10
22.3529
 20
223.0444
 11
22.9858
 21
223.0926
  0
LINE
  8
LAYER_2
 10
22.9858
 20
223.0926
 11
23.0286
 21
223.0952
  0
ENDBLK
  0
BLOCK
  8
LAYER_2
  2
AIGNBL0201022F
 70
64
 10
0
 20
0
 30
0
  3
AIGNBL0201022F
  0
LINE
  8
LAYER_2
 10
32.0277
 20
226.2025
 11
32.0277
 21
226.2339
  0
ENDBLK
  0
BLOCK
  8
LAYER_2
  2
AIGNBL02010230
 70
64
 10
0
 20
0
 30
0
  3
AIGNBL02010230
  0
LINE
  8
LAYER_2
 10
42.9943
 20
227.9053
 11
42.9943
 21
228.7387
  0
ENDBLK
  0
BLOCK
  8
LAYER_2
  2
AIGNBL02010231
 70
64
 10
0
 20
0
 30
0
  3
AIGNBL02010231
  0
ARC
  8
LAYER_2
 10
43.161
 20
228.7386
 40
0.1667
 50
89.98761239
 51
179.9780067
  0
ENDBLK
  0
BLOCK
  8
LAYER_2
  2
AIGNBL02010232
 70
64
 10
0
 20
0
 30
0
  3
AIGNBL02010232
  0
LINE
  8
LAYER_2
 10
43.161
 20
228.9053
 11
43.7277
 21
228.9053
  0
ENDBLK
  0
BLOCK
  8
LAYER_2
  2
AIGNBL02010233
 70
64
 10
0
 20
0
 30
0
  3
AIGNBL02010233
  0
LINE
  8
LAYER_2
 10
43.7277
 20
228.9053
 11
43.7277
 21
227.9053
  0
ENDBLK
  0
BLOCK
  8
LAYER_2
  2
AIGNBL02010234
 70
64
 10
0
 20
0
 30
0
  3
AIGNBL02010234
  0
LINE
  8
LAYER_2
 10
42.9943
 20
222.5053
 11
42.9943
 21
227.9053
  0
ENDBLK
  0
BLOCK
  8
LAYER_2
  2
AIGNBL02010235
 70
64
 10
0
 20
0
 30
0
  3
AIGNBL02010235
  0
LINE
  8
LAYER_2
 10
43.7277
 20
222.5053
 11
43.7277
 21
227.9053
  0
ENDBLK
  0
BLOCK
  8
LAYER_2
  2
AIGNBL02010236
 70
64
 10
0
 20
0
 30
0
  3
AIGNBL02010236
  0
LINE
  8
LAYER_2
 10
43.7277
 20
221.5053
 11
43.161
 21
221.5053
  0
ENDBLK
  0
BLOCK
  8
LAYER_2
  2
AIGNBL02010237
 70
64
 10
0
 20
0
 30
0
  3
AIGNBL02010237
  0
LINE
  8
LAYER_2
 10
43.7277
 20
222.5053
 11
43.7277
 21
221.5053
  0
ENDBLK
  0
BLOCK
  8
LAYER_2
  2
AIGNBL02010238
 70
64
 10
0
 20
0
 30
0
  3
AIGNBL02010238
  0
LINE
  8
LAYER_2
 10
42.9943
 20
221.672
 11
42.9943
 21
222.5053
  0
ENDBLK
  0
BLOCK
  8
LAYER_2
  2
AIGNBL02010239
 70
64
 10
0
 20
0
 30
0
  3
AIGNBL02010239
  0
ARC
  8
LAYER_2
 10
43.161
 20
221.672
 40
0.1667
 50
180.003052
 51
269.9969481
  0
ENDBLK
  0
BLOCK
  8
LAYER_2
  2
AIGNBL0201023A
 70
64
 10
0
 20
0
 30
0
  3
AIGNBL0201023A
  0
ARC
  8
LAYER_2
 10
42.8277
 20
228.7053
 40
0.1666
 50
270.0123878
 51
359.9876123
  0
ENDBLK
  0
BLOCK
  8
LAYER_2
  2
AIGNBL0201023B
 70
64
 10
0
 20
0
 30
0
  3
AIGNBL0201023B
  0
ARC
  8
LAYER_2
 10
42.8277
 20
221.7054
 40
0.1666
 50
359.9797554
 51
89.98586369
  0
ENDBLK
  0
BLOCK
  8
LAYER_2
  2
AIGNBL0201023C
 70
64
 10
0
 20
0
 30
0
  3
AIGNBL0201023C
  0
ARC
  8
LAYER_2
 10
42.2281
 20
213.5387
 40
15
 50
90.00142841
 51
96.35249449
  0
ENDBLK
  0
BLOCK
  8
LAYER_2
  2
AIGNBL0201023D
 70
64
 10
0
 20
0
 30
0
  3
AIGNBL0201023D
  0
LINE
  8
LAYER_2
 10
40.0125
 20
227.4762
 11
40.0295
 21
227.7775
  0
LINE
  8
LAYER_2
 10
40.0295
 20
227.7775
 11
40.1036
 21
228.038
  0
LINE
  8
LAYER_2
 10
40.1036
 20
228.038
 11
40.2329
 21
228.2537
  0
ARC
  8
LAYER_2
 10
40.6626
 20
227.9082
 40
0.5513
 50
115.7793268
 51
141.2009787
  0
LINE
  8
LAYER_2
 10
40.4228
 20
228.4047
 11
40.5229
 21
228.4391
  0
LINE
  8
LAYER_2
 10
40.5229
 20
228.4391
 11
40.554
 21
228.4448
  0
LINE
  8
LAYER_2
 10
40.554
 20
228.4448
 11
40.5661
 21
228.4464
  0
LINE
  8
LAYER_2
 10
40.5661
 20
228.4464
 11
40.5684
 21
228.4466
  0
ENDBLK
  0
BLOCK
  8
LAYER_2
  2
AIGNBL0201023E
 70
64
 10
0
 20
0
 30
0
  3
AIGNBL0201023E
  0
ARC
  8
LAYER_2
 10
42.2281
 20
236.872
 40
15
 50
263.6475034
 51
269.9985737
  0
ENDBLK
  0
BLOCK
  8
LAYER_2
  2
AIGNBL0201023F
 70
64
 10
0
 20
0
 30
0
  3
AIGNBL0201023F
  0
LINE
  8
LAYER_2
 10
40.5684
 20
221.9641
 11
40.5661
 21
221.9643
  0
LINE
  8
LAYER_2
 10
40.5661
 20
221.9643
 11
40.554
 21
221.9659
  0
LINE
  8
LAYER_2
 10
40.554
 20
221.9659
 11
40.5229
 21
221.9716
  0
LINE
  8
LAYER_2
 10
40.5229
 20
221.9716
 11
40.4228
 21
222.006
  0
ARC
  8
LAYER_2
 10
40.6935
 20
222.5414
 40
0.5999
 50
219.8438713
 51
243.1758232
  0
LINE
  8
LAYER_2
 10
40.2329
 20
222.157
 11
40.1036
 21
222.3727
  0
LINE
  8
LAYER_2
 10
40.1036
 20
222.3727
 11
40.0295
 21
222.6332
  0
LINE
  8
LAYER_2
 10
40.0295
 20
222.6332
 11
40.0125
 21
222.9344
  0
ENDBLK
  0
BLOCK
  8
LAYER_2
  2
AIGNBL02010240
 70
64
 10
0
 20
0
 30
0
  3
AIGNBL02010240
  0
LINE
  8
LAYER_2
 10
42.2277
 20
228.5387
 11
42.8277
 21
228.5387
  0
ENDBLK
  0
BLOCK
  8
LAYER_2
  2
AIGNBL02010241
 70
64
 10
0
 20
0
 30
0
  3
AIGNBL02010241
  0
LINE
  8
LAYER_2
 10
42.8277
 20
221.872
 11
42.2277
 21
221.872
  0
ENDBLK
  0
BLOCK
  8
LAYER_2
  2
AIGNBL02010242
 70
64
 10
0
 20
0
 30
0
  3
AIGNBL02010242
  0
LINE
  8
LAYER_2
 10
40.5684
 20
228.4466
 11
40.5545
 21
228.4451
  0
ENDBLK
  0
BLOCK
  8
LAYER_2
  2
AIGNBL02010243
 70
64
 10
0
 20
0
 30
0
  3
AIGNBL02010243
  0
LINE
  8
LAYER_2
 10
40.5545
 20
221.9656
 11
40.5684
 21
221.9641
  0
ENDBLK
  0
BLOCK
  8
LAYER_2
  2
AIGNBL02010244
 70
64
 10
0
 20
0
 30
0
  3
AIGNBL02010244
  0
LINE
  8
LAYER_2
 10
34.3924
 20
223.3346
 11
34.3943
 21
223.3508
  0
ENDBLK
  0
BLOCK
  8
LAYER_2
  2
AIGNBL02010245
 70
64
 10
0
 20
0
 30
0
  3
AIGNBL02010245
  0
LINE
  8
LAYER_2
 10
34.3943
 20
223.3508
 11
34.3943
 21
227.0599
  0
ENDBLK
  0
BLOCK
  8
LAYER_2
  2
AIGNBL02010246
 70
64
 10
0
 20
0
 30
0
  3
AIGNBL02010246
  0
LINE
  8
LAYER_2
 10
34.3943
 20
227.0599
 11
34.3924
 21
227.0761
  0
ENDBLK
  0
BLOCK
  8
LAYER_2
  2
AIGNBL02010247
 70
64
 10
0
 20
0
 30
0
  3
AIGNBL02010247
  0
LINE
  8
LAYER_2
 10
35.806
 20
223.1929
 11
35.6532
 21
223.1775
  0
LINE
  8
LAYER_2
 10
35.6532
 20
223.1775
 11
35.5581
 21
223.1569
  0
LINE
  8
LAYER_2
 10
35.5581
 20
223.1569
 11
35.3386
 21
223.0732
  0
LINE
  8
LAYER_2
 10
35.3386
 20
223.0732
 11
35.1083
 21
222.9164
  0
ENDBLK
  0
BLOCK
  8
LAYER_2
  2
AIGNBL02010248
 70
64
 10
0
 20
0
 30
0
  3
AIGNBL02010248
  0
LINE
  8
LAYER_2
 10
35.1083
 20
227.4943
 11
35.3386
 21
227.3375
  0
LINE
  8
LAYER_2
 10
35.3386
 20
227.3375
 11
35.5581
 21
227.2538
  0
LINE
  8
LAYER_2
 10
35.5581
 20
227.2538
 11
35.705
 21
227.2255
  0
LINE
  8
LAYER_2
 10
35.705
 20
227.2255
 11
35.806
 21
227.2178
  0
ENDBLK
  0
BLOCK
  8
LAYER_2
  2
AIGNBL02010249
 70
64
 10
0
 20
0
 30
0
  3
AIGNBL02010249
  0
LINE
  8
LAYER_2
 10
34.3924
 20
227.0761
 11
34.3899
 21
227.087
  0
LINE
  8
LAYER_2
 10
34.3899
 20
227.087
 11
34.3815
 21
227.1376
  0
LINE
  8
LAYER_2
 10
34.3815
 20
227.1376
 11
34.3794
 21
227.1806
  0
LINE
  8
LAYER_2
 10
34.3794
 20
227.1806
 11
34.3834
 21
227.2112
  0
LINE
  8
LAYER_2
 10
34.3834
 20
227.2112
 11
34.3928
 21
227.2254
  0
ENDBLK
  0
BLOCK
  8
LAYER_2
  2
AIGNBL0201024A
 70
64
 10
0
 20
0
 30
0
  3
AIGNBL0201024A
  0
LINE
  8
LAYER_2
 10
34.3928
 20
227.2254
 11
34.9255
 21
227.4751
  0
ENDBLK
  0
BLOCK
  8
LAYER_2
  2
AIGNBL0201024B
 70
64
 10
0
 20
0
 30
0
  3
AIGNBL0201024B
  0
LINE
  8
LAYER_2
 10
34.3928
 20
223.1853
 11
34.3906
 21
223.1866
  0
LINE
  8
LAYER_2
 10
34.3906
 20
223.1866
 11
34.3823
 21
223.2038
  0
LINE
  8
LAYER_2
 10
34.3823
 20
223.2038
 11
34.3793
 21
223.2366
  0
LINE
  8
LAYER_2
 10
34.3793
 20
223.2366
 11
34.3826
 21
223.2822
  0
LINE
  8
LAYER_2
 10
34.3826
 20
223.2822
 11
34.3924
 21
223.3346
  0
ENDBLK
  0
BLOCK
  8
LAYER_2
  2
AIGNBL0201024C
 70
64
 10
0
 20
0
 30
0
  3
AIGNBL0201024C
  0
LINE
  8
LAYER_2
 10
34.9255
 20
222.9355
 11
34.3928
 21
223.1853
  0
ENDBLK
  0
BLOCK
  8
LAYER_2
  2
AIGNBL0201024D
 70
64
 10
0
 20
0
 30
0
  3
AIGNBL0201024D
  0
LINE
  8
LAYER_2
 10
34.9255
 20
227.4751
 11
34.9996
 21
227.5099
  0
ENDBLK
  0
BLOCK
  8
LAYER_2
  2
AIGNBL0201024E
 70
64
 10
0
 20
0
 30
0
  3
AIGNBL0201024E
  0
ARC
  8
LAYER_2
 10
35.0416
 20
227.4164
 40
0.1025
 50
49.45778429
 51
114.2082238
  0
ENDBLK
  0
BLOCK
  8
LAYER_2
  2
AIGNBL0201024F
 70
64
 10
0
 20
0
 30
0
  3
AIGNBL0201024F
  0
ARC
  8
LAYER_2
 10
35.0417
 20
222.9941
 40
0.1024
 50
245.7279398
 51
310.6060521
  0
ENDBLK
  0
BLOCK
  8
LAYER_2
  2
AIGNBL02010250
 70
64
 10
0
 20
0
 30
0
  3
AIGNBL02010250
  0
LINE
  8
LAYER_2
 10
34.9996
 20
222.9008
 11
34.9255
 21
222.9355
  0
ENDBLK
  0
BLOCK
  8
LAYER_2
  2
AIGNBL02010251
 70
64
 10
0
 20
0
 30
0
  3
AIGNBL02010251
  0
LINE
  8
LAYER_2
 10
39.4884
 20
228.2864
 11
39.5636
 21
228.3002
  0
LINE
  8
LAYER_2
 10
39.5636
 20
228.3002
 11
39.9647
 21
228.367
  0
LINE
  8
LAYER_2
 10
39.9647
 20
228.367
 11
40.3075
 21
228.4153
  0
LINE
  8
LAYER_2
 10
40.3075
 20
228.4153
 11
40.5545
 21
228.4451
  0
ENDBLK
  0
BLOCK
  8
LAYER_2
  2
AIGNBL02010252
 70
64
 10
0
 20
0
 30
0
  3
AIGNBL02010252
  0
LINE
  8
LAYER_2
 10
40.5545
 20
221.9656
 11
40.3075
 21
221.9954
  0
LINE
  8
LAYER_2
 10
40.3075
 20
221.9954
 11
39.9647
 21
222.0437
  0
LINE
  8
LAYER_2
 10
39.9647
 20
222.0437
 11
39.5636
 21
222.1105
  0
LINE
  8
LAYER_2
 10
39.5636
 20
222.1105
 11
39.4884
 21
222.1242
  0
ENDBLK
  0
BLOCK
  8
LAYER_2
  2
AIGNBL02010253
 70
64
 10
0
 20
0
 30
0
  3
AIGNBL02010253
  0
LINE
  8
LAYER_2
 10
34.3943
 20
223.1845
 11
33.8943
 21
223.2006
  0
ENDBLK
  0
BLOCK
  8
LAYER_2
  2
AIGNBL02010254
 70
64
 10
0
 20
0
 30
0
  3
AIGNBL02010254
  0
LINE
  8
LAYER_2
 10
33.8943
 20
223.3669
 11
33.8943
 21
223.2006
  0
ENDBLK
  0
BLOCK
  8
LAYER_2
  2
AIGNBL02010255
 70
64
 10
0
 20
0
 30
0
  3
AIGNBL02010255
  0
LINE
  8
LAYER_2
 10
33.8943
 20
227.2101
 11
33.8943
 21
227.0438
  0
ENDBLK
  0
BLOCK
  8
LAYER_2
  2
AIGNBL02010256
 70
64
 10
0
 20
0
 30
0
  3
AIGNBL02010256
  0
LINE
  8
LAYER_2
 10
33.8943
 20
227.2101
 11
34.3943
 21
227.2262
  0
ENDBLK
  0
BLOCK
  8
LAYER_2
  2
AIGNBL02010257
 70
64
 10
0
 20
0
 30
0
  3
AIGNBL02010257
  0
LINE
  8
LAYER_2
 10
33.8943
 20
227.0438
 11
33.8943
 21
223.3669
  0
ENDBLK
  0
BLOCK
  8
LAYER_2
  2
AIGNBL02010258
 70
64
 10
0
 20
0
 30
0
  3
AIGNBL02010258
  0
ARC
  8
LAYER_2
 10
42.2274
 20
213.5386
 40
15
 50
100.5212665
 51
113.3712424
  0
ENDBLK
  0
BLOCK
  8
LAYER_2
  2
AIGNBL02010259
 70
64
 10
0
 20
0
 30
0
  3
AIGNBL02010259
  0
ARC
  8
LAYER_2
 10
42.2278
 20
236.872
 40
15
 50
246.6270859
 51
259.4771399
  0
ENDBLK
  0
BLOCK
  8
LAYER_2
  2
AIGNBL0201025A
 70
64
 10
0
 20
0
 30
0
  3
AIGNBL0201025A
  0
LINE
  8
LAYER_2
 10
32.561
 20
227.1672
 11
32.561
 21
227.001
  0
ENDBLK
  0
BLOCK
  8
LAYER_2
  2
AIGNBL0201025B
 70
64
 10
0
 20
0
 30
0
  3
AIGNBL0201025B
  0
LINE
  8
LAYER_2
 10
32.561
 20
227.1672
 11
33.2277
 21
227.1887
  0
ENDBLK
  0
BLOCK
  8
LAYER_2
  2
AIGNBL0201025C
 70
64
 10
0
 20
0
 30
0
  3
AIGNBL0201025C
  0
LINE
  8
LAYER_2
 10
33.2277
 20
227.1887
 11
33.2277
 21
227.0224
  0
ENDBLK
  0
BLOCK
  8
LAYER_2
  2
AIGNBL0201025D
 70
64
 10
0
 20
0
 30
0
  3
AIGNBL0201025D
  0
LINE
  8
LAYER_2
 10
32.561
 20
227.001
 11
32.561
 21
223.4097
  0
ENDBLK
  0
BLOCK
  8
LAYER_2
  2
AIGNBL0201025E
 70
64
 10
0
 20
0
 30
0
  3
AIGNBL0201025E
  0
LINE
  8
LAYER_2
 10
33.2277
 20
227.0224
 11
33.2277
 21
223.3883
  0
ENDBLK
  0
BLOCK
  8
LAYER_2
  2
AIGNBL0201025F
 70
64
 10
0
 20
0
 30
0
  3
AIGNBL0201025F
  0
LINE
  8
LAYER_2
 10
33.2277
 20
223.222
 11
32.561
 21
223.2434
  0
ENDBLK
  0
BLOCK
  8
LAYER_2
  2
AIGNBL02010260
 70
64
 10
0
 20
0
 30
0
  3
AIGNBL02010260
  0
LINE
  8
LAYER_2
 10
32.561
 20
223.4097
 11
32.561
 21
223.2434
  0
ENDBLK
  0
BLOCK
  8
LAYER_2
  2
AIGNBL02010261
 70
64
 10
0
 20
0
 30
0
  3
AIGNBL02010261
  0
LINE
  8
LAYER_2
 10
33.2277
 20
223.3883
 11
33.2277
 21
223.222
  0
ENDBLK
  0
BLOCK
  8
LAYER_2
  2
AIGNBL02010262
 70
64
 10
0
 20
0
 30
0
  3
AIGNBL02010262
  0
ARC
  8
LAYER_2
 10
35.8392
 20
228.3206
 40
1.1033
 50
268.2733911
 51
293.3812587
  0
ENDBLK
  0
BLOCK
  8
LAYER_2
  2
AIGNBL02010263
 70
64
 10
0
 20
0
 30
0
  3
AIGNBL02010263
  0
ARC
  8
LAYER_2
 10
35.8392
 20
222.0901
 40
1.1033
 50
66.61885424
 51
91.72649599
  0
ENDBLK
  0
BLOCK
  8
LAYER_2
  2
AIGNBL02010264
 70
64
 10
0
 20
0
 30
0
  3
AIGNBL02010264
  0
LINE
  8
LAYER_2
 10
33.2277
 20
224.872
 11
33.8943
 21
224.872
  0
ENDBLK
  0
BLOCK
  8
LAYER_2
  2
AIGNBL02010265
 70
64
 10
0
 20
0
 30
0
  3
AIGNBL02010265
  0
LINE
  8
LAYER_2
 10
33.2277
 20
225.5387
 11
33.8943
 21
225.5387
  0
ENDBLK
  0
BLOCK
  8
LAYER_2
  2
AIGNBL02010266
 70
64
 10
0
 20
0
 30
0
  3
AIGNBL02010266
  0
LINE
  8
LAYER_2
 10
31.2277
 20
226.9581
 11
31.2277
 21
223.4526
  0
ENDBLK
  0
BLOCK
  8
LAYER_2
  2
AIGNBL02010267
 70
64
 10
0
 20
0
 30
0
  3
AIGNBL02010267
  0
LINE
  8
LAYER_2
 10
31.8943
 20
226.9795
 11
31.8943
 21
223.4312
  0
ENDBLK
  0
BLOCK
  8
LAYER_2
  2
AIGNBL02010268
 70
64
 10
0
 20
0
 30
0
  3
AIGNBL02010268
  0
LINE
  8
LAYER_2
 10
31.2277
 20
227.1244
 11
31.2277
 21
226.9581
  0
ENDBLK
  0
BLOCK
  8
LAYER_2
  2
AIGNBL02010269
 70
64
 10
0
 20
0
 30
0
  3
AIGNBL02010269
  0
LINE
  8
LAYER_2
 10
31.2277
 20
227.1244
 11
31.8943
 21
227.1458
  0
ENDBLK
  0
BLOCK
  8
LAYER_2
  2
AIGNBL0201026A
 70
64
 10
0
 20
0
 30
0
  3
AIGNBL0201026A
  0
LINE
  8
LAYER_2
 10
31.8943
 20
227.1458
 11
31.8943
 21
226.9795
  0
ENDBLK
  0
BLOCK
  8
LAYER_2
  2
AIGNBL0201026B
 70
64
 10
0
 20
0
 30
0
  3
AIGNBL0201026B
  0
LINE
  8
LAYER_2
 10
31.8943
 20
223.2649
 11
31.2277
 21
223.2863
  0
ENDBLK
  0
BLOCK
  8
LAYER_2
  2
AIGNBL0201026C
 70
64
 10
0
 20
0
 30
0
  3
AIGNBL0201026C
  0
LINE
  8
LAYER_2
 10
31.2277
 20
223.4526
 11
31.2277
 21
223.2863
  0
ENDBLK
  0
BLOCK
  8
LAYER_2
  2
AIGNBL0201026D
 70
64
 10
0
 20
0
 30
0
  3
AIGNBL0201026D
  0
LINE
  8
LAYER_2
 10
31.8943
 20
223.4312
 11
31.8943
 21
223.2649
  0
ENDBLK
  0
BLOCK
  8
LAYER_2
  2
AIGNBL0201026E
 70
64
 10
0
 20
0
 30
0
  3
AIGNBL0201026E
  0
LINE
  8
LAYER_2
 10
31.8943
 20
224.872
 11
32.561
 21
224.872
  0
ENDBLK
  0
BLOCK
  8
LAYER_2
  2
AIGNBL0201026F
 70
64
 10
0
 20
0
 30
0
  3
AIGNBL0201026F
  0
LINE
  8
LAYER_2
 10
31.8943
 20
225.5387
 11
32.561
 21
225.5387
  0
ENDBLK
  0
BLOCK
  8
LAYER_2
  2
AIGNBL02010270
 70
64
 10
0
 20
0
 30
0
  3
AIGNBL02010270
  0
LINE
  8
LAYER_2
 10
29.8943
 20
227.0815
 11
29.8943
 21
226.9152
  0
ENDBLK
  0
BLOCK
  8
LAYER_2
  2
AIGNBL02010271
 70
64
 10
0
 20
0
 30
0
  3
AIGNBL02010271
  0
LINE
  8
LAYER_2
 10
29.8943
 20
227.0815
 11
30.561
 21
227.103
  0
ENDBLK
  0
BLOCK
  8
LAYER_2
  2
AIGNBL02010272
 70
64
 10
0
 20
0
 30
0
  3
AIGNBL02010272
  0
LINE
  8
LAYER_2
 10
30.561
 20
227.103
 11
30.561
 21
226.9367
  0
ENDBLK
  0
BLOCK
  8
LAYER_2
  2
AIGNBL02010273
 70
64
 10
0
 20
0
 30
0
  3
AIGNBL02010273
  0
LINE
  8
LAYER_2
 10
29.8943
 20
226.9152
 11
29.8943
 21
223.4954
  0
ENDBLK
  0
BLOCK
  8
LAYER_2
  2
AIGNBL02010274
 70
64
 10
0
 20
0
 30
0
  3
AIGNBL02010274
  0
LINE
  8
LAYER_2
 10
30.561
 20
226.9367
 11
30.561
 21
223.474
  0
ENDBLK
  0
BLOCK
  8
LAYER_2
  2
AIGNBL02010275
 70
64
 10
0
 20
0
 30
0
  3
AIGNBL02010275
  0
LINE
  8
LAYER_2
 10
30.561
 20
223.3077
 11
29.8943
 21
223.3292
  0
ENDBLK
  0
BLOCK
  8
LAYER_2
  2
AIGNBL02010276
 70
64
 10
0
 20
0
 30
0
  3
AIGNBL02010276
  0
LINE
  8
LAYER_2
 10
29.8943
 20
223.4954
 11
29.8943
 21
223.3292
  0
ENDBLK
  0
BLOCK
  8
LAYER_2
  2
AIGNBL02010277
 70
64
 10
0
 20
0
 30
0
  3
AIGNBL02010277
  0
LINE
  8
LAYER_2
 10
30.561
 20
223.474
 11
30.561
 21
223.3077
  0
ENDBLK
  0
BLOCK
  8
LAYER_2
  2
AIGNBL02010278
 70
64
 10
0
 20
0
 30
0
  3
AIGNBL02010278
  0
LINE
  8
LAYER_2
 10
30.561
 20
224.872
 11
31.2277
 21
224.872
  0
ENDBLK
  0
BLOCK
  8
LAYER_2
  2
AIGNBL02010279
 70
64
 10
0
 20
0
 30
0
  3
AIGNBL02010279
  0
LINE
  8
LAYER_2
 10
30.561
 20
225.5387
 11
31.2277
 21
225.5387
  0
ENDBLK
  0
BLOCK
  8
LAYER_2
  2
AIGNBL0201027A
 70
64
 10
0
 20
0
 30
0
  3
AIGNBL0201027A
  0
LINE
  8
LAYER_2
 10
28.7223
 20
227.0439
 11
29.2277
 21
227.0601
  0
ENDBLK
  0
BLOCK
  8
LAYER_2
  2
AIGNBL0201027B
 70
64
 10
0
 20
0
 30
0
  3
AIGNBL0201027B
  0
LINE
  8
LAYER_2
 10
29.2277
 20
227.0601
 11
29.2277
 21
226.8938
  0
ENDBLK
  0
BLOCK
  8
LAYER_2
  2
AIGNBL0201027C
 70
64
 10
0
 20
0
 30
0
  3
AIGNBL0201027C
  0
LINE
  8
LAYER_2
 10
29.2277
 20
226.8938
 11
29.2277
 21
223.5169
  0
ENDBLK
  0
BLOCK
  8
LAYER_2
  2
AIGNBL0201027D
 70
64
 10
0
 20
0
 30
0
  3
AIGNBL0201027D
  0
LINE
  8
LAYER_2
 10
29.2277
 20
223.3506
 11
28.7223
 21
223.3668
  0
ENDBLK
  0
BLOCK
  8
LAYER_2
  2
AIGNBL0201027E
 70
64
 10
0
 20
0
 30
0
  3
AIGNBL0201027E
  0
LINE
  8
LAYER_2
 10
29.2277
 20
223.5169
 11
29.2277
 21
223.3506
  0
ENDBLK
  0
BLOCK
  8
LAYER_2
  2
AIGNBL0201027F
 70
64
 10
0
 20
0
 30
0
  3
AIGNBL0201027F
  0
ARC
  8
LAYER_2
 10
28.7277
 20
226.8773
 40
0.1667
 50
91.85247927
 51
179.999556
  0
ENDBLK
  0
BLOCK
  8
LAYER_2
  2
AIGNBL02010280
 70
64
 10
0
 20
0
 30
0
  3
AIGNBL02010280
  0
LINE
  8
LAYER_2
 10
28.561
 20
223.5334
 11
28.561
 21
226.8773
  0
ENDBLK
  0
BLOCK
  8
LAYER_2
  2
AIGNBL02010281
 70
64
 10
0
 20
0
 30
0
  3
AIGNBL02010281
  0
ARC
  8
LAYER_2
 10
28.7277
 20
223.5334
 40
0.1667
 50
179.9987496
 51
268.149215
  0
ENDBLK
  0
BLOCK
  8
LAYER_2
  2
AIGNBL02010282
 70
64
 10
0
 20
0
 30
0
  3
AIGNBL02010282
  0
LINE
  8
LAYER_2
 10
29.2277
 20
224.872
 11
29.8943
 21
224.872
  0
ENDBLK
  0
BLOCK
  8
LAYER_2
  2
AIGNBL02010283
 70
64
 10
0
 20
0
 30
0
  3
AIGNBL02010283
  0
LINE
  8
LAYER_2
 10
29.2277
 20
225.5387
 11
29.8943
 21
225.5387
  0
ENDBLK
  0
BLOCK
  8
LAYER_2
  2
AIGNBL02010284
 70
64
 10
0
 20
0
 30
0
  3
AIGNBL02010284
  0
LINE
  8
LAYER_2
 10
31.2277
 20
226.2114
 11
30.561
 21
226.2114
  0
ENDBLK
  0
BLOCK
  8
LAYER_2
  2
AIGNBL02010285
 70
64
 10
0
 20
0
 30
0
  3
AIGNBL02010285
  0
LINE
  8
LAYER_2
 10
32.561
 20
226.2114
 11
32.0277
 21
226.2114
  0
ENDBLK
  0
BLOCK
  8
LAYER_2
  2
AIGNBL02010286
 70
64
 10
0
 20
0
 30
0
  3
AIGNBL02010286
  0
LINE
  8
LAYER_2
 10
33.8943
 20
226.2114
 11
33.2277
 21
226.2114
  0
ENDBLK
  0
BLOCK
  8
LAYER_2
  2
AIGNBL02010287
 70
64
 10
0
 20
0
 30
0
  3
AIGNBL02010287
  0
LINE
  8
LAYER_2
 10
29.8943
 20
226.2114
 11
29.2277
 21
226.2114
  0
ENDBLK
  0
BLOCK
  8
LAYER_2
  2
AIGNBL02010288
 70
64
 10
0
 20
0
 30
0
  3
AIGNBL02010288
  0
LINE
  8
LAYER_2
 10
33.2277
 20
224.1726
 11
33.8943
 21
224.1726
  0
ENDBLK
  0
BLOCK
  8
LAYER_2
  2
AIGNBL02010289
 70
64
 10
0
 20
0
 30
0
  3
AIGNBL02010289
  0
LINE
  8
LAYER_2
 10
29.2277
 20
224.1726
 11
29.8943
 21
224.1726
  0
ENDBLK
  0
BLOCK
  8
LAYER_2
  2
AIGNBL0201028A
 70
64
 10
0
 20
0
 30
0
  3
AIGNBL0201028A
  0
LINE
  8
LAYER_2
 10
31.8943
 20
224.1726
 11
32.561
 21
224.1726
  0
ENDBLK
  0
BLOCK
  8
LAYER_2
  2
AIGNBL0201028B
 70
64
 10
0
 20
0
 30
0
  3
AIGNBL0201028B
  0
LINE
  8
LAYER_2
 10
30.561
 20
224.1726
 11
31.2277
 21
224.1726
  0
ENDBLK
  0
BLOCK
  8
LAYER_2
  2
AIGNBL0201028C
 70
64
 10
0
 20
0
 30
0
  3
AIGNBL0201028C
  0
LINE
  8
LAYER_2
 10
30.561
 20
226.9362
 11
31.2277
 21
226.9576
  0
ENDBLK
  0
BLOCK
  8
LAYER_2
  2
AIGNBL0201028D
 70
64
 10
0
 20
0
 30
0
  3
AIGNBL0201028D
  0
LINE
  8
LAYER_2
 10
29.2277
 20
226.8934
 11
29.8943
 21
226.9148
  0
ENDBLK
  0
BLOCK
  8
LAYER_2
  2
AIGNBL0201028E
 70
64
 10
0
 20
0
 30
0
  3
AIGNBL0201028E
  0
LINE
  8
LAYER_2
 10
31.8943
 20
226.9791
 11
32.561
 21
227.0005
  0
ENDBLK
  0
BLOCK
  8
LAYER_2
  2
AIGNBL0201028F
 70
64
 10
0
 20
0
 30
0
  3
AIGNBL0201028F
  0
LINE
  8
LAYER_2
 10
33.2277
 20
227.0219
 11
33.8943
 21
227.0434
  0
ENDBLK
  0
BLOCK
  8
LAYER_2
  2
AIGNBL02010290
 70
64
 10
0
 20
0
 30
0
  3
AIGNBL02010290
  0
LINE
  8
LAYER_2
 10
33.8943
 20
223.3673
 11
33.2277
 21
223.3888
  0
ENDBLK
  0
BLOCK
  8
LAYER_2
  2
AIGNBL02010291
 70
64
 10
0
 20
0
 30
0
  3
AIGNBL02010291
  0
LINE
  8
LAYER_2
 10
32.561
 20
223.4102
 11
31.8943
 21
223.4316
  0
ENDBLK
  0
BLOCK
  8
LAYER_2
  2
AIGNBL02010292
 70
64
 10
0
 20
0
 30
0
  3
AIGNBL02010292
  0
LINE
  8
LAYER_2
 10
31.2277
 20
223.453
 11
30.561
 21
223.4745
  0
ENDBLK
  0
BLOCK
  8
LAYER_2
  2
AIGNBL02010293
 70
64
 10
0
 20
0
 30
0
  3
AIGNBL02010293
  0
LINE
  8
LAYER_2
 10
29.8943
 20
223.4959
 11
29.2277
 21
223.5173
  0
ENDBLK
  0
BLOCK
  8
LAYER_2
  2
AIGNBL02010294
 70
64
 10
0
 20
0
 30
0
  3
AIGNBL02010294
  0
LINE
  8
LAYER_2
 10
45.2789
 20
223.372
 11
45.2789
 21
222.7387
  0
ENDBLK
  0
BLOCK
  8
LAYER_2
  2
AIGNBL02010295
 70
64
 10
0
 20
0
 30
0
  3
AIGNBL02010295
  0
LINE
  8
LAYER_2
 10
45.2789
 20
223.372
 11
45.3943
 21
223.3053
  0
ENDBLK
  0
BLOCK
  8
LAYER_2
  2
AIGNBL02010296
 70
64
 10
0
 20
0
 30
0
  3
AIGNBL02010296
  0
LINE
  8
LAYER_2
 10
45.3943
 20
222.8053
 11
45.3943
 21
223.3053
  0
ENDBLK
  0
BLOCK
  8
LAYER_2
  2
AIGNBL02010297
 70
64
 10
0
 20
0
 30
0
  3
AIGNBL02010297
  0
LINE
  8
LAYER_2
 10
45.3943
 20
222.8053
 11
45.2789
 21
222.7387
  0
ENDBLK
  0
BLOCK
  8
LAYER_2
  2
AIGNBL02010298
 70
64
 10
0
 20
0
 30
0
  3
AIGNBL02010298
  0
LINE
  8
LAYER_2
 10
45.2789
 20
222.7387
 11
43.7277
 21
222.7387
  0
ENDBLK
  0
BLOCK
  8
LAYER_2
  2
AIGNBL02010299
 70
64
 10
0
 20
0
 30
0
  3
AIGNBL02010299
  0
LINE
  8
LAYER_2
 10
45.2789
 20
223.372
 11
43.7277
 21
223.372
  0
ENDBLK
  0
BLOCK
  8
LAYER_2
  2
AIGNBL0201029A
 70
64
 10
0
 20
0
 30
0
  3
AIGNBL0201029A
  0
LINE
  8
LAYER_2
 10
48.8943
 20
222.8053
 11
48.8943
 21
223.3053
  0
ENDBLK
  0
BLOCK
  8
LAYER_2
  2
AIGNBL0201029B
 70
64
 10
0
 20
0
 30
0
  3
AIGNBL0201029B
  0
LINE
  8
LAYER_2
 10
48.8943
 20
222.8053
 11
45.3943
 21
222.8053
  0
ENDBLK
  0
BLOCK
  8
LAYER_2
  2
AIGNBL0201029C
 70
64
 10
0
 20
0
 30
0
  3
AIGNBL0201029C
  0
LINE
  8
LAYER_2
 10
48.8943
 20
223.3053
 11
45.3943
 21
223.3053
  0
ENDBLK
  0
BLOCK
  8
LAYER_2
  2
AIGNBL0201029D
 70
64
 10
0
 20
0
 30
0
  3
AIGNBL0201029D
  0
LINE
  8
LAYER_2
 10
48.8943
 20
223.3053
 11
49.0666
 21
223.2709
  0
LINE
  8
LAYER_2
 10
49.0666
 20
223.2709
 11
49.2065
 21
223.2429
  0
LINE
  8
LAYER_2
 10
49.2065
 20
223.2429
 11
49.3098
 21
223.2223
  0
LINE
  8
LAYER_2
 10
49.3098
 20
223.2223
 11
49.373
 21
223.2096
  0
LINE
  8
LAYER_2
 10
49.373
 20
223.2096
 11
49.3943
 21
223.2053
  0
ENDBLK
  0
BLOCK
  8
LAYER_2
  2
AIGNBL0201029E
 70
64
 10
0
 20
0
 30
0
  3
AIGNBL0201029E
  0
LINE
  8
LAYER_2
 10
49.3943
 20
222.9053
 11
49.373
 21
222.9011
  0
LINE
  8
LAYER_2
 10
49.373
 20
222.9011
 11
49.3098
 21
222.8884
  0
LINE
  8
LAYER_2
 10
49.3098
 20
222.8884
 11
49.2065
 21
222.8678
  0
LINE
  8
LAYER_2
 10
49.2065
 20
222.8678
 11
49.0666
 21
222.8398
  0
LINE
  8
LAYER_2
 10
49.0666
 20
222.8398
 11
48.8943
 21
222.8053
  0
ENDBLK
  0
BLOCK
  8
LAYER_2
  2
AIGNBL0201029F
 70
64
 10
0
 20
0
 30
0
  3
AIGNBL0201029F
  0
LINE
  8
LAYER_2
 10
45.3943
 20
227.6053
 11
45.3943
 21
227.1053
  0
ENDBLK
  0
BLOCK
  8
LAYER_2
  2
AIGNBL020102A0
 70
64
 10
0
 20
0
 30
0
  3
AIGNBL020102A0
  0
LINE
  8
LAYER_2
 10
45.2789
 20
227.0387
 11
45.3943
 21
227.1053
  0
ENDBLK
  0
BLOCK
  8
LAYER_2
  2
AIGNBL020102A1
 70
64
 10
0
 20
0
 30
0
  3
AIGNBL020102A1
  0
LINE
  8
LAYER_2
 10
45.2789
 20
227.0387
 11
45.2789
 21
227.672
  0
ENDBLK
  0
BLOCK
  8
LAYER_2
  2
AIGNBL020102A2
 70
64
 10
0
 20
0
 30
0
  3
AIGNBL020102A2
  0
LINE
  8
LAYER_2
 10
45.3943
 20
227.6053
 11
45.2789
 21
227.672
  0
ENDBLK
  0
BLOCK
  8
LAYER_2
  2
AIGNBL020102A3
 70
64
 10
0
 20
0
 30
0
  3
AIGNBL020102A3
  0
LINE
  8
LAYER_2
 10
45.2789
 20
227.0387
 11
43.7277
 21
227.0387
  0
ENDBLK
  0
BLOCK
  8
LAYER_2
  2
AIGNBL020102A4
 70
64
 10
0
 20
0
 30
0
  3
AIGNBL020102A4
  0
LINE
  8
LAYER_2
 10
45.2789
 20
227.672
 11
43.7277
 21
227.672
  0
ENDBLK
  0
BLOCK
  8
LAYER_2
  2
AIGNBL020102A5
 70
64
 10
0
 20
0
 30
0
  3
AIGNBL020102A5
  0
LINE
  8
LAYER_2
 10
48.8943
 20
227.1053
 11
48.8943
 21
227.6053
  0
ENDBLK
  0
BLOCK
  8
LAYER_2
  2
AIGNBL020102A6
 70
64
 10
0
 20
0
 30
0
  3
AIGNBL020102A6
  0
LINE
  8
LAYER_2
 10
48.8943
 20
227.6053
 11
49.0666
 21
227.5709
  0
LINE
  8
LAYER_2
 10
49.0666
 20
227.5709
 11
49.2065
 21
227.5429
  0
LINE
  8
LAYER_2
 10
49.2065
 20
227.5429
 11
49.3098
 21
227.5223
  0
LINE
  8
LAYER_2
 10
49.3098
 20
227.5223
 11
49.373
 21
227.5096
  0
LINE
  8
LAYER_2
 10
49.373
 20
227.5096
 11
49.3943
 21
227.5053
  0
ENDBLK
  0
BLOCK
  8
LAYER_2
  2
AIGNBL020102A7
 70
64
 10
0
 20
0
 30
0
  3
AIGNBL020102A7
  0
LINE
  8
LAYER_2
 10
49.3943
 20
227.2053
 11
49.373
 21
227.2011
  0
LINE
  8
LAYER_2
 10
49.373
 20
227.2011
 11
49.3098
 21
227.1884
  0
LINE
  8
LAYER_2
 10
49.3098
 20
227.1884
 11
49.2065
 21
227.1678
  0
LINE
  8
LAYER_2
 10
49.2065
 20
227.1678
 11
49.0666
 21
227.1398
  0
LINE
  8
LAYER_2
 10
49.0666
 20
227.1398
 11
48.8943
 21
227.1053
  0
ENDBLK
  0
BLOCK
  8
LAYER_2
  2
AIGNBL020102A8
 70
64
 10
0
 20
0
 30
0
  3
AIGNBL020102A8
  0
LINE
  8
LAYER_2
 10
48.8943
 20
227.6053
 11
45.3943
 21
227.6053
  0
ENDBLK
  0
BLOCK
  8
LAYER_2
  2
AIGNBL020102A9
 70
64
 10
0
 20
0
 30
0
  3
AIGNBL020102A9
  0
LINE
  8
LAYER_2
 10
48.8943
 20
227.1053
 11
45.3943
 21
227.1053
  0
ENDBLK
  0
BLOCK
  8
LAYER_2
  2
AIGNBL020102AA
 70
64
 10
0
 20
0
 30
0
  3
AIGNBL020102AA
  0
LINE
  8
LAYER_2
 10
-16.2549
 20
223.5684
 11
-15.6095
 21
223.5153
  0
LINE
  8
LAYER_2
 10
-15.6095
 20
223.5153
 11
-14.882
 21
223.3674
  0
LINE
  8
LAYER_2
 10
-14.882
 20
223.3674
 11
-13.6468
 21
223.0559
  0
ARC
  8
LAYER_2
 10
-12.9042
 20
225.4274
 40
2.485
 50
252.6125859
 51
265.3582431
  0
LINE
  8
LAYER_2
 10
-13.1053
 20
222.9505
 11
-13.0354
 21
222.9461
  0
ENDBLK
  0
BLOCK
  8
LAYER_2
  2
AIGNBL020102AB
 70
64
 10
0
 20
0
 30
0
  3
AIGNBL020102AB
  0
LINE
  8
LAYER_2
 10
103.6386
 20
85.9266
 11
104.3052
 21
85.9266
  0
ENDBLK
  0
BLOCK
  8
LAYER_2
  2
AIGNBL020102AC
 70
64
 10
0
 20
0
 30
0
  3
AIGNBL020102AC
  0
LINE
  8
LAYER_2
 10
104.3052
 20
104.2599
 11
103.6386
 21
104.2599
  0
ENDBLK
  0
BLOCK
  8
LAYER_2
  2
AIGNBL020102AD
 70
64
 10
0
 20
0
 30
0
  3
AIGNBL020102AD
  0
ARC
  8
LAYER_2
 10
103.6385
 20
90.2599
 40
4.3333
 50
206.065091
 51
270.0011757
  0
ENDBLK
  0
BLOCK
  8
LAYER_2
  2
AIGNBL020102AE
 70
64
 10
0
 20
0
 30
0
  3
AIGNBL020102AE
  0
ARC
  8
LAYER_2
 10
103.6386
 20
99.9265
 40
4.3334
 50
89.99963655
 51
153.9362154
  0
ENDBLK
  0
BLOCK
  8
LAYER_2
  2
AIGNBL020102AF
 70
64
 10
0
 20
0
 30
0
  3
AIGNBL020102AF
  0
ARC
  8
LAYER_2
 10
107.3217
 20
92.0612
 40
8.4334
 50
188.3785087
 51
206.063509
  0
ENDBLK
  0
BLOCK
  8
LAYER_2
  2
AIGNBL020102B0
 70
64
 10
0
 20
0
 30
0
  3
AIGNBL020102B0
  0
ARC
  8
LAYER_2
 10
107.3216
 20
98.1251
 40
8.4334
 50
153.9361599
 51
171.6205139
  0
ENDBLK
  0
BLOCK
  8
LAYER_2
  2
AIGNBL020102B1
 70
64
 10
0
 20
0
 30
0
  3
AIGNBL020102B1
  0
LINE
  8
LAYER_2
 10
98.9783
 20
99.3541
 11
98.9719
 21
99.2666
  0
ENDBLK
  0
BLOCK
  8
LAYER_2
  2
AIGNBL020102B2
 70
64
 10
0
 20
0
 30
0
  3
AIGNBL020102B2
  0
LINE
  8
LAYER_2
 10
98.9719
 20
90.9198
 11
98.9783
 21
90.8324
  0
ENDBLK
  0
BLOCK
  8
LAYER_2
  2
AIGNBL020102B3
 70
64
 10
0
 20
0
 30
0
  3
AIGNBL020102B3
  0
LINE
  8
LAYER_2
 10
98.9719
 20
99.2666
 11
98.9719
 21
90.9198
  0
ENDBLK
  0
BLOCK
  8
LAYER_2
  2
AIGNBL020102B4
 70
64
 10
0
 20
0
 30
0
  3
AIGNBL020102B4
  0
LINE
  8
LAYER_2
 10
87.9719
 20
91.6599
 11
98.9719
 21
91.6599
  0
ENDBLK
  0
BLOCK
  8
LAYER_2
  2
AIGNBL020102B5
 70
64
 10
0
 20
0
 30
0
  3
AIGNBL020102B5
  0
LINE
  8
LAYER_2
 10
98.9719
 20
98.5266
 11
87.9719
 21
98.5266
  0
ENDBLK
  0
BLOCK
  8
LAYER_2
  2
AIGNBL020102B6
 70
64
 10
0
 20
0
 30
0
  3
AIGNBL020102B6
  0
LINE
  8
LAYER_2
 10
104.3052
 20
91.6007
 11
106.5831
 21
91.6719
  0
ENDBLK
  0
BLOCK
  8
LAYER_2
  2
AIGNBL020102B7
 70
64
 10
0
 20
0
 30
0
  3
AIGNBL020102B7
  0
LINE
  8
LAYER_2
 10
106.5831
 20
98.5145
 11
104.3052
 21
98.5857
  0
ENDBLK
  0
BLOCK
  8
LAYER_2
  2
AIGNBL020102B8
 70
64
 10
0
 20
0
 30
0
  3
AIGNBL020102B8
  0
LINE
  8
LAYER_2
 10
106.5831
 20
91.6719
 11
106.9719
 21
92.0607
  0
ENDBLK
  0
BLOCK
  8
LAYER_2
  2
AIGNBL020102B9
 70
64
 10
0
 20
0
 30
0
  3
AIGNBL020102B9
  0
LINE
  8
LAYER_2
 10
106.9719
 20
98.1257
 11
106.5831
 21
98.5145
  0
ENDBLK
  0
BLOCK
  8
LAYER_2
  2
AIGNBL020102BA
 70
64
 10
0
 20
0
 30
0
  3
AIGNBL020102BA
  0
LINE
  8
LAYER_2
 10
87.3052
 20
98.6378
 11
85.9719
 21
98.5961
  0
ENDBLK
  0
BLOCK
  8
LAYER_2
  2
AIGNBL020102BB
 70
64
 10
0
 20
0
 30
0
  3
AIGNBL020102BB
  0
LINE
  8
LAYER_2
 10
85.9719
 20
91.5903
 11
87.3052
 21
91.5486
  0
ENDBLK
  0
BLOCK
  8
LAYER_2
  2
AIGNBL020102BC
 70
64
 10
0
 20
0
 30
0
  3
AIGNBL020102BC
  0
LINE
  8
LAYER_2
 10
87.3052
 20
91.5486
 11
87.9719
 21
91.6599
  0
ENDBLK
  0
BLOCK
  8
LAYER_2
  2
AIGNBL020102BD
 70
64
 10
0
 20
0
 30
0
  3
AIGNBL020102BD
  0
LINE
  8
LAYER_2
 10
87.9719
 20
98.5266
 11
87.3052
 21
98.6378
  0
ENDBLK
  0
BLOCK
  8
LAYER_2
  2
AIGNBL020102BE
 70
64
 10
0
 20
0
 30
0
  3
AIGNBL020102BE
  0
ARC
  8
LAYER_2
 10
70.1935
 20
97.9472
 40
1.8127
 50
50.36537571
 51
140.3650501
  0
LINE
  8
LAYER_2
 10
68.7975
 20
99.1035
 11
68.6996
 21
98.9739
  0
ENDBLK
  0
BLOCK
  8
LAYER_2
  2
AIGNBL020102BF
 70
64
 10
0
 20
0
 30
0
  3
AIGNBL020102BF
  0
ARC
  8
LAYER_2
 10
70.1935
 20
92.2393
 40
1.8127
 50
214.50164
 51
304.5012431
  0
LINE
  8
LAYER_2
 10
71.2202
 20
90.7454
 11
71.3498
 21
90.8432
  0
ENDBLK
  0
BLOCK
  8
LAYER_2
  2
AIGNBL020102C0
 70
64
 10
0
 20
0
 30
0
  3
AIGNBL020102C0
  0
LINE
  8
LAYER_2
 10
68.6996
 20
98.9739
 11
67.3498
 21
97.0099
  0
ENDBLK
  0
BLOCK
  8
LAYER_2
  2
AIGNBL020102C1
 70
64
 10
0
 20
0
 30
0
  3
AIGNBL020102C1
  0
LINE
  8
LAYER_2
 10
67.3498
 20
93.1766
 11
68.6996
 21
91.2125
  0
ENDBLK
  0
BLOCK
  8
LAYER_2
  2
AIGNBL020102C2
 70
64
 10
0
 20
0
 30
0
  3
AIGNBL020102C2
  0
LINE
  8
LAYER_2
 10
67.3498
 20
96.7599
 11
66.6386
 21
96.7599
  0
ENDBLK
  0
BLOCK
  8
LAYER_2
  2
AIGNBL020102C3
 70
64
 10
0
 20
0
 30
0
  3
AIGNBL020102C3
  0
LINE
  8
LAYER_2
 10
66.6386
 20
93.4266
 11
67.3498
 21
93.4266
  0
ENDBLK
  0
BLOCK
  8
LAYER_2
  2
AIGNBL020102C4
 70
64
 10
0
 20
0
 30
0
  3
AIGNBL020102C4
  0
ARC
  8
LAYER_2
 10
66.6385
 20
93.7599
 40
0.3333
 50
180.0057987
 51
270.0113892
  0
ENDBLK
  0
BLOCK
  8
LAYER_2
  2
AIGNBL020102C5
 70
64
 10
0
 20
0
 30
0
  3
AIGNBL020102C5
  0
ARC
  8
LAYER_2
 10
66.6386
 20
96.4265
 40
0.3334
 50
89.99362925
 51
179.9891828
  0
ENDBLK
  0
BLOCK
  8
LAYER_2
  2
AIGNBL020102C6
 70
64
 10
0
 20
0
 30
0
  3
AIGNBL020102C6
  0
LINE
  8
LAYER_2
 10
71.3498
 20
91.0932
 11
71.6386
 21
91.0932
  0
ENDBLK
  0
BLOCK
  8
LAYER_2
  2
AIGNBL020102C7
 70
64
 10
0
 20
0
 30
0
  3
AIGNBL020102C7
  0
LINE
  8
LAYER_2
 10
71.6386
 20
99.0932
 11
71.3498
 21
99.0932
  0
ENDBLK
  0
BLOCK
  8
LAYER_2
  2
AIGNBL020102C8
 70
64
 10
0
 20
0
 30
0
  3
AIGNBL020102C8
  0
LINE
  8
LAYER_2
 10
71.6386
 20
91.0932
 11
72.3052
 21
91.0932
  0
ENDBLK
  0
BLOCK
  8
LAYER_2
  2
AIGNBL020102C9
 70
64
 10
0
 20
0
 30
0
  3
AIGNBL020102C9
  0
LINE
  8
LAYER_2
 10
72.3052
 20
99.0932
 11
71.6386
 21
99.0932
  0
ENDBLK
  0
BLOCK
  8
LAYER_2
  2
AIGNBL020102CA
 70
64
 10
0
 20
0
 30
0
  3
AIGNBL020102CA
  0
LINE
  8
LAYER_2
 10
73.1369
 20
100.1491
 11
73.1371
 21
99.9858
  0
LINE
  8
LAYER_2
 10
73.1371
 20
99.9858
 11
73.1269
 21
99.8959
  0
LINE
  8
LAYER_2
 10
73.1269
 20
99.8959
 11
73.1074
 21
99.806
  0
LINE
  8
LAYER_2
 10
73.1074
 20
99.806
 11
73.0787
 21
99.7193
  0
LINE
  8
LAYER_2
 10
73.0787
 20
99.7193
 11
73.0415
 21
99.6379
  0
LINE
  8
LAYER_2
 10
73.0415
 20
99.6379
 11
72.9449
 21
99.4904
  0
LINE
  8
LAYER_2
 10
72.9449
 20
99.4904
 11
72.794
 21
99.3345
  0
ARC
  8
LAYER_2
 10
72.2669
 20
99.9038
 40
0.7758
 50
291.7881546
 51
312.7937826
  0
LINE
  8
LAYER_2
 10
72.5549
 20
99.1834
 11
72.3014
 21
99.1218
  0
ENDBLK
  0
BLOCK
  8
LAYER_2
  2
AIGNBL020102CB
 70
64
 10
0
 20
0
 30
0
  3
AIGNBL020102CB
  0
ARC
  8
LAYER_2
 10
76.6387
 20
104.0932
 40
13.3333
 50
258.5213171
 51
280.3602983
  0
ENDBLK
  0
BLOCK
  8
LAYER_2
  2
AIGNBL020102CC
 70
64
 10
0
 20
0
 30
0
  3
AIGNBL020102CC
  0
ARC
  8
LAYER_2
 10
84.1706
 20
96.9932
 40
2.7667
 50
49.37819394
 51
89.99853383
  0
ENDBLK
  0
BLOCK
  8
LAYER_2
  2
AIGNBL020102CD
 70
64
 10
0
 20
0
 30
0
  3
AIGNBL020102CD
  0
ARC
  8
LAYER_2
 10
84.1707
 20
93.1932
 40
2.7667
 50
241.3578338
 51
310.6203131
  0
ENDBLK
  0
BLOCK
  8
LAYER_2
  2
AIGNBL020102CE
 70
64
 10
0
 20
0
 30
0
  3
AIGNBL020102CE
  0
ARC
  8
LAYER_2
 10
81.8857
 20
89.0099
 40
2
 50
61.35418887
 51
89.99750615
  0
ENDBLK
  0
BLOCK
  8
LAYER_2
  2
AIGNBL020102CF
 70
64
 10
0
 20
0
 30
0
  3
AIGNBL020102CF
  0
LINE
  8
LAYER_2
 10
79.3961
 20
91.0099
 11
79.0365
 21
90.9773
  0
ENDBLK
  0
BLOCK
  8
LAYER_2
  2
AIGNBL020102D0
 70
64
 10
0
 20
0
 30
0
  3
AIGNBL020102D0
  0
LINE
  8
LAYER_2
 10
79.3961
 20
91.0099
 11
81.8858
 21
91.0099
  0
ENDBLK
  0
BLOCK
  8
LAYER_2
  2
AIGNBL020102D1
 70
64
 10
0
 20
0
 30
0
  3
AIGNBL020102D1
  0
ARC
  8
LAYER_2
 10
73.3217
 20
87.7541
 40
3.3391
 50
78.53731179
 51
89.99532047
  0
ENDBLK
  0
BLOCK
  8
LAYER_2
  2
AIGNBL020102D2
 70
64
 10
0
 20
0
 30
0
  3
AIGNBL020102D2
  0
LINE
  8
LAYER_2
 10
72.3052
 20
91.0932
 11
73.322
 21
91.0932
  0
ENDBLK
  0
BLOCK
  8
LAYER_2
  2
AIGNBL020102D3
 70
64
 10
0
 20
0
 30
0
  3
AIGNBL020102D3
  0
LINE
  8
LAYER_2
 10
80.1386
 20
100.4266
 11
80.1386
 21
103.2826
  0
ENDBLK
  0
BLOCK
  8
LAYER_2
  2
AIGNBL020102D4
 70
64
 10
0
 20
0
 30
0
  3
AIGNBL020102D4
  0
LINE
  8
LAYER_2
 10
73.1386
 20
103.4047
 11
73.1386
 21
100.0932
  0
ENDBLK
  0
BLOCK
  8
LAYER_2
  2
AIGNBL020102D5
 70
64
 10
0
 20
0
 30
0
  3
AIGNBL020102D5
  0
LINE
  8
LAYER_2
 10
72.5696
 20
99.1927
 11
72.4307
 21
99.1396
  0
ENDBLK
  0
BLOCK
  8
LAYER_2
  2
AIGNBL020102D6
 70
64
 10
0
 20
0
 30
0
  3
AIGNBL020102D6
  0
LINE
  8
LAYER_2
 10
84.1707
 20
99.7599
 11
80.8015
 21
99.7599
  0
ENDBLK
  0
BLOCK
  8
LAYER_2
  2
AIGNBL020102D7
 70
64
 10
0
 20
0
 30
0
  3
AIGNBL020102D7
  0
LINE
  8
LAYER_2
 10
92.5056
 20
104.8321
 11
92.7628
 21
104.8345
  0
LINE
  8
LAYER_2
 10
92.7628
 20
104.8345
 11
93.2638
 21
104.8697
  0
LINE
  8
LAYER_2
 10
93.2638
 20
104.8697
 11
93.5561
 21
104.9105
  0
LINE
  8
LAYER_2
 10
93.5561
 20
104.9105
 11
93.7111
 21
104.9448
  0
ENDBLK
  0
BLOCK
  8
LAYER_2
  2
AIGNBL020102D8
 70
64
 10
0
 20
0
 30
0
  3
AIGNBL020102D8
  0
LINE
  8
LAYER_2
 10
91.4477
 20
105.0042
 11
91.4663
 21
104.983
  0
ARC
  8
LAYER_2
 10
91.7797
 20
105.3424
 40
0.4769
 50
228.9087252
 51
263.7128992
  0
LINE
  8
LAYER_2
 10
91.7275
 20
104.8684
 11
91.8234
 21
104.8565
  0
ENDBLK
  0
BLOCK
  8
LAYER_2
  2
AIGNBL020102D9
 70
64
 10
0
 20
0
 30
0
  3
AIGNBL020102D9
  0
LINE
  8
LAYER_2
 10
90.5942
 20
108.8705
 11
90.3358
 21
108.8032
  0
ARC
  8
LAYER_2
 10
90.7369
 20
108.0936
 40
0.8151
 50
119.4752488
 51
156.775784
  0
ENDBLK
  0
BLOCK
  8
LAYER_2
  2
AIGNBL020102DA
 70
64
 10
0
 20
0
 30
0
  3
AIGNBL020102DA
  0
LINE
  8
LAYER_2
 10
87.6532
 20
104.9952
 11
87.4758
 21
104.9831
  0
LINE
  8
LAYER_2
 10
87.4758
 20
104.9831
 11
87.3216
 21
105.0075
  0
ENDBLK
  0
BLOCK
  8
LAYER_2
  2
AIGNBL020102DB
 70
64
 10
0
 20
0
 30
0
  3
AIGNBL020102DB
  0
LINE
  8
LAYER_2
 10
86.8274
 20
106.4651
 11
86.7582
 21
106.3963
  0
ARC
  8
LAYER_2
 10
87.3334
 20
105.9676
 40
0.7174
 50
143.3058751
 51
165.3397691
  0
LINE
  8
LAYER_2
 10
86.6394
 20
106.1492
 11
86.6019
 21
105.9394
  0
LINE
  8
LAYER_2
 10
86.6019
 20
105.9394
 11
86.6159
 21
105.72
  0
ARC
  8
LAYER_2
 10
87.4943
 20
105.8816
 40
0.8931
 50
190.4220985
 51
208.7418732
  0
ARC
  8
LAYER_2
 10
87.5251
 20
105.9046
 40
0.9312
 50
209.0733857
 51
230.1676356
  0
LINE
  8
LAYER_2
 10
86.9286
 20
105.1895
 11
87.0913
 21
105.0823
  0
LINE
  8
LAYER_2
 10
87.0913
 20
105.0823
 11
87.2909
 21
105.0079
  0
ENDBLK
  0
BLOCK
  8
LAYER_2
  2
AIGNBL020102DC
 70
64
 10
0
 20
0
 30
0
  3
AIGNBL020102DC
  0
LINE
  8
LAYER_2
 10
87.2699
 20
105.0164
 11
87.4125
 21
105.008
  0
LINE
  8
LAYER_2
 10
87.4125
 20
105.008
 11
87.6371
 21
105.0028
  0
LINE
  8
LAYER_2
 10
87.6371
 20
105.0028
 11
87.9732
 21
104.9997
  0
LINE
  8
LAYER_2
 10
87.9732
 20
104.9997
 11
88.4437
 21
104.997
  0
LINE
  8
LAYER_2
 10
88.4437
 20
104.997
 11
89.0678
 21
104.9919
  0
LINE
  8
LAYER_2
 10
89.0678
 20
104.9919
 11
89.4566
 21
104.991
  0
LINE
  8
LAYER_2
 10
89.4566
 20
104.991
 11
89.8477
 21
104.9898
  0
LINE
  8
LAYER_2
 10
89.8477
 20
104.9898
 11
90.5879
 21
104.9859
  0
ENDBLK
  0
BLOCK
  8
LAYER_2
  2
AIGNBL020102DD
 70
64
 10
0
 20
0
 30
0
  3
AIGNBL020102DD
  0
LINE
  8
LAYER_2
 10
90.3972
 20
104.9865
 11
90.9788
 21
104.9867
  0
LINE
  8
LAYER_2
 10
90.9788
 20
104.9867
 11
91.4849
 21
104.9997
  0
LINE
  8
LAYER_2
 10
91.4849
 20
104.9997
 11
91.919
 21
105.019
  0
LINE
  8
LAYER_2
 10
91.919
 20
105.019
 11
92.0829
 21
105.0266
  0
ENDBLK
  0
BLOCK
  8
LAYER_2
  2
AIGNBL020102DE
 70
64
 10
0
 20
0
 30
0
  3
AIGNBL020102DE
  0
ARC
  8
LAYER_2
 10
87.5167
 20
106.7319
 40
1.1735
 50
95.43670803
 51
116.5965378
  0
ARC
  8
LAYER_2
 10
87.4075
 20
107.0197
 40
0.8678
 50
118.6617527
 51
141.4876749
  0
ARC
  8
LAYER_2
 10
87.4167
 20
107.0008
 40
0.8868
 50
140.8988795
 51
158.7649554
  0
LINE
  8
LAYER_2
 10
86.5901
 20
107.322
 11
86.537
 21
107.1155
  0
LINE
  8
LAYER_2
 10
86.537
 20
107.1155
 11
86.5348
 21
106.8958
  0
ARC
  8
LAYER_2
 10
87.2944
 20
106.9573
 40
0.7621
 50
184.6316799
 51
206.1295676
  0
LINE
  8
LAYER_2
 10
86.6102
 20
106.6217
 11
86.7858
 21
106.3746
  0
ENDBLK
  0
BLOCK
  8
LAYER_2
  2
AIGNBL020102DF
 70
64
 10
0
 20
0
 30
0
  3
AIGNBL020102DF
  0
LINE
  8
LAYER_2
 10
92.6165
 20
104.7998
 11
92.9456
 21
104.8069
  0
LINE
  8
LAYER_2
 10
92.9456
 20
104.8069
 11
93.4368
 21
104.8335
  0
LINE
  8
LAYER_2
 10
93.4368
 20
104.8335
 11
93.7392
 21
104.8656
  0
LINE
  8
LAYER_2
 10
93.7392
 20
104.8656
 11
93.9306
 21
104.903
  0
LINE
  8
LAYER_2
 10
93.9306
 20
104.903
 11
94.0636
 21
104.9451
  0
LINE
  8
LAYER_2
 10
94.0636
 20
104.9451
 11
94.2294
 21
105.0266
  0
ENDBLK
  0
BLOCK
  8
LAYER_2
  2
AIGNBL020102E0
 70
64
 10
0
 20
0
 30
0
  3
AIGNBL020102E0
  0
LINE
  8
LAYER_2
 10
86.3239
 20
106.9383
 11
86.3088
 21
106.9193
  0
LINE
  8
LAYER_2
 10
86.3088
 20
106.9193
 11
86.2445
 21
106.8164
  0
LINE
  8
LAYER_2
 10
86.2445
 20
106.8164
 11
86.1677
 21
106.6264
  0
ARC
  8
LAYER_2
 10
87.0628
 20
106.3757
 40
0.9296
 50
164.3544223
 51
182.7134576
  0
ARC
  8
LAYER_2
 10
87.1313
 20
106.3906
 40
0.9987
 50
183.3819933
 51
200.791636
  0
LINE
  8
LAYER_2
 10
86.1976
 20
106.0361
 11
86.3009
 21
105.8448
  0
ARC
  8
LAYER_2
 10
87.0735
 20
106.3842
 40
0.9423
 50
214.9198412
 51
236.1091166
  0
LINE
  8
LAYER_2
 10
86.5481
 20
105.602
 11
86.684
 21
105.5285
  0
ENDBLK
  0
BLOCK
  8
LAYER_2
  2
AIGNBL020102E1
 70
64
 10
0
 20
0
 30
0
  3
AIGNBL020102E1
  0
LINE
  8
LAYER_2
 10
88.9019
 20
107.9298
 11
88.6112
 21
107.9974
  0
LINE
  8
LAYER_2
 10
88.6112
 20
107.9974
 11
88.2095
 21
108.0968
  0
LINE
  8
LAYER_2
 10
88.2095
 20
108.0968
 11
87.8918
 21
108.1831
  0
LINE
  8
LAYER_2
 10
87.8918
 20
108.1831
 11
87.6798
 21
108.2457
  0
LINE
  8
LAYER_2
 10
87.6798
 20
108.2457
 11
87.585
 21
108.2652
  0
LINE
  8
LAYER_2
 10
87.585
 20
108.2652
 11
87.587
 21
108.2559
  0
ENDBLK
  0
BLOCK
  8
LAYER_2
  2
AIGNBL020102E2
 70
64
 10
0
 20
0
 30
0
  3
AIGNBL020102E2
  0
LINE
  8
LAYER_2
 10
87.0419
 20
108.6858
 11
86.8298
 21
108.6309
  0
LINE
  8
LAYER_2
 10
86.8298
 20
108.6309
 11
86.5764
 21
108.5259
  0
LINE
  8
LAYER_2
 10
86.5764
 20
108.5259
 11
86.3894
 21
108.4038
  0
ARC
  8
LAYER_2
 10
86.9432
 20
107.6941
 40
0.9002
 50
127.9668341
 51
149.7721084
  0
LINE
  8
LAYER_2
 10
86.1654
 20
108.1473
 11
86.0826
 21
107.9751
  0
LINE
  8
LAYER_2
 10
86.0826
 20
107.9751
 11
86.0287
 21
107.7404
  0
ARC
  8
LAYER_2
 10
86.9794
 20
107.6409
 40
0.9559
 50
174.0250396
 51
193.5206922
  0
ARC
  8
LAYER_2
 10
87.0401
 20
107.6582
 40
1.019
 50
193.6692035
 51
211.65079
  0
LINE
  8
LAYER_2
 10
86.1727
 20
107.1235
 11
86.2967
 21
106.9634
  0
LINE
  8
LAYER_2
 10
86.2967
 20
106.9634
 11
86.3859
 21
106.8811
  0
LINE
  8
LAYER_2
 10
86.3859
 20
106.8811
 11
86.5695
 21
106.7696
  0
ENDBLK
  0
BLOCK
  8
LAYER_2
  2
AIGNBL020102E3
 70
64
 10
0
 20
0
 30
0
  3
AIGNBL020102E3
  0
LINE
  8
LAYER_2
 10
91.3933
 20
105.0019
 11
91.4067
 21
104.9898
  0
ARC
  8
LAYER_2
 10
91.8697
 20
105.6358
 40
0.7948
 50
234.3695897
 51
253.1331855
  0
LINE
  8
LAYER_2
 10
91.6391
 20
104.8752
 11
91.8955
 21
104.8107
  0
ENDBLK
  0
BLOCK
  8
LAYER_2
  2
AIGNBL020102E4
 70
64
 10
0
 20
0
 30
0
  3
AIGNBL020102E4
  0
LINE
  8
LAYER_2
 10
91.7379
 20
104.8461
 11
91.765
 21
104.8411
  0
ENDBLK
  0
BLOCK
  8
LAYER_2
  2
AIGNBL020102E5
 70
64
 10
0
 20
0
 30
0
  3
AIGNBL020102E5
  0
LINE
  8
LAYER_2
 10
95.3394
 20
110.5599
 11
95.3585
 21
111.0534
  0
LINE
  8
LAYER_2
 10
95.3585
 20
111.0534
 11
95.3824
 21
112.1296
  0
LINE
  8
LAYER_2
 10
95.3824
 20
112.1296
 11
95.3757
 21
113.0051
  0
LINE
  8
LAYER_2
 10
95.3757
 20
113.0051
 11
95.3421
 21
113.6881
  0
LINE
  8
LAYER_2
 10
95.3421
 20
113.6881
 11
95.2804
 21
114.3191
  0
LINE
  8
LAYER_2
 10
95.2804
 20
114.3191
 11
95.1972
 21
114.8716
  0
LINE
  8
LAYER_2
 10
95.1972
 20
114.8716
 11
95.075
 21
115.417
  0
ARC
  8
LAYER_2
 10
92.6604
 20
114.9006
 40
2.4693
 50
12.07178865
 51
26.65924889
  0
LINE
  8
LAYER_2
 10
94.8671
 20
116.0085
 11
94.8052
 21
116.1209
  0
ENDBLK
  0
BLOCK
  8
LAYER_2
  2
AIGNBL020102E6
 70
64
 10
0
 20
0
 30
0
  3
AIGNBL020102E6
  0
LINE
  8
LAYER_2
 10
61.6095
 20
141.1138
 11
94.8052
 21
141.6932
  0
ENDBLK
  0
BLOCK
  8
LAYER_2
  2
AIGNBL020102E7
 70
64
 10
0
 20
0
 30
0
  3
AIGNBL020102E7
  0
LINE
  8
LAYER_2
 10
94.8052
 20
141.6932
 11
94.8052
 21
141.1933
  0
ENDBLK
  0
BLOCK
  8
LAYER_2
  2
AIGNBL020102E8
 70
64
 10
0
 20
0
 30
0
  3
AIGNBL020102E8
  0
LINE
  8
LAYER_2
 10
94.8052
 20
103.0266
 11
61.6095
 21
103.606
  0
ENDBLK
  0
BLOCK
  8
LAYER_2
  2
AIGNBL020102E9
 70
64
 10
0
 20
0
 30
0
  3
AIGNBL020102E9
  0
LINE
  8
LAYER_2
 10
94.8052
 20
103.5265
 11
94.8052
 21
103.0266
  0
ENDBLK
  0
BLOCK
  8
LAYER_2
  2
AIGNBL020102EA
 70
64
 10
0
 20
0
 30
0
  3
AIGNBL020102EA
  0
LINE
  8
LAYER_2
 10
94.8052
 20
103.5265
 11
94.8052
 21
105.0266
  0
ENDBLK
  0
BLOCK
  8
LAYER_2
  2
AIGNBL020102EB
 70
64
 10
0
 20
0
 30
0
  3
AIGNBL020102EB
  0
LINE
  8
LAYER_2
 10
94.8052
 20
110.5599
 11
94.8052
 21
141.1933
  0
ENDBLK
  0
BLOCK
  8
LAYER_2
  2
AIGNBL020102EC
 70
64
 10
0
 20
0
 30
0
  3
AIGNBL020102EC
  0
LINE
  8
LAYER_2
 10
59.9719
 20
104.1259
 11
59.9719
 21
140.5939
  0
ENDBLK
  0
BLOCK
  8
LAYER_2
  2
AIGNBL020102ED
 70
64
 10
0
 20
0
 30
0
  3
AIGNBL020102ED
  0
ARC
  8
LAYER_2
 10
60.4719
 20
140.5939
 40
0.5
 50
90.99897757
 51
179.9952341
  0
ENDBLK
  0
BLOCK
  8
LAYER_2
  2
AIGNBL020102EE
 70
64
 10
0
 20
0
 30
0
  3
AIGNBL020102EE
  0
LINE
  8
LAYER_2
 10
60.4632
 20
141.0938
 11
60.4851
 21
141.0942
  0
LINE
  8
LAYER_2
 10
60.4851
 20
141.0942
 11
60.5501
 21
141.0953
  0
LINE
  8
LAYER_2
 10
60.5501
 20
141.0953
 11
60.6556
 21
141.0971
  0
LINE
  8
LAYER_2
 10
60.6556
 20
141.0971
 11
60.7977
 21
141.0996
  0
LINE
  8
LAYER_2
 10
60.7977
 20
141.0996
 11
60.9711
 21
141.1026
  0
LINE
  8
LAYER_2
 10
60.9711
 20
141.1026
 11
61.1693
 21
141.1061
  0
LINE
  8
LAYER_2
 10
61.1693
 20
141.1061
 11
61.3848
 21
141.1099
  0
LINE
  8
LAYER_2
 10
61.3848
 20
141.1099
 11
61.6095
 21
141.1138
  0
ENDBLK
  0
BLOCK
  8
LAYER_2
  2
AIGNBL020102EF
 70
64
 10
0
 20
0
 30
0
  3
AIGNBL020102EF
  0
ARC
  8
LAYER_2
 10
60.4719
 20
104.1259
 40
0.5
 50
180.0033557
 51
269.0024326
  0
ENDBLK
  0
BLOCK
  8
LAYER_2
  2
AIGNBL020102F0
 70
64
 10
0
 20
0
 30
0
  3
AIGNBL020102F0
  0
LINE
  8
LAYER_2
 10
61.6095
 20
103.606
 11
61.3848
 21
103.6099
  0
LINE
  8
LAYER_2
 10
61.3848
 20
103.6099
 11
61.1693
 21
103.6137
  0
LINE
  8
LAYER_2
 10
61.1693
 20
103.6137
 11
60.9711
 21
103.6171
  0
LINE
  8
LAYER_2
 10
60.9711
 20
103.6171
 11
60.7977
 21
103.6202
  0
LINE
  8
LAYER_2
 10
60.7977
 20
103.6202
 11
60.6556
 21
103.6226
  0
LINE
  8
LAYER_2
 10
60.6556
 20
103.6226
 11
60.5501
 21
103.6245
  0
LINE
  8
LAYER_2
 10
60.5501
 20
103.6245
 11
60.4851
 21
103.6256
  0
LINE
  8
LAYER_2
 10
60.4851
 20
103.6256
 11
60.4632
 21
103.626
  0
ENDBLK
  0
BLOCK
  8
LAYER_2
  2
AIGNBL020102F1
 70
64
 10
0
 20
0
 30
0
  3
AIGNBL020102F1
  0
LINE
  8
LAYER_2
 10
59.8719
 20
106.4224
 11
59.8719
 21
106.6071
  0
LINE
  8
LAYER_2
 10
59.8719
 20
106.6071
 11
59.8719
 21
106.7953
  0
ENDBLK
  0
BLOCK
  8
LAYER_2
  2
AIGNBL020102F2
 70
64
 10
0
 20
0
 30
0
  3
AIGNBL020102F2
  0
LINE
  8
LAYER_2
 10
59.8719
 20
106.8527
 11
59.8719
 21
106.9762
  0
LINE
  8
LAYER_2
 10
59.8719
 20
106.9762
 11
59.8719
 21
107.0868
  0
LINE
  8
LAYER_2
 10
59.8719
 20
107.0868
 11
59.8719
 21
107.2256
  0
ENDBLK
  0
BLOCK
  8
LAYER_2
  2
AIGNBL020102F3
 70
64
 10
0
 20
0
 30
0
  3
AIGNBL020102F3
  0
LINE
  8
LAYER_2
 10
59.8719
 20
106.7953
 11
59.8719
 21
106.8527
  0
ENDBLK
  0
BLOCK
  8
LAYER_2
  2
AIGNBL020102F4
 70
64
 10
0
 20
0
 30
0
  3
AIGNBL020102F4
  0
LINE
  8
LAYER_2
 10
59.8719
 20
106.2927
 11
59.9719
 21
106.2927
  0
ENDBLK
  0
BLOCK
  8
LAYER_2
  2
AIGNBL020102F5
 70
64
 10
0
 20
0
 30
0
  3
AIGNBL020102F5
  0
LINE
  8
LAYER_2
 10
59.8719
 20
106.2927
 11
59.8719
 21
106.3336
  0
LINE
  8
LAYER_2
 10
59.8719
 20
106.3336
 11
59.8719
 21
106.4224
  0
ENDBLK
  0
BLOCK
  8
LAYER_2
  2
AIGNBL020102F6
 70
64
 10
0
 20
0
 30
0
  3
AIGNBL020102F6
  0
LINE
  8
LAYER_2
 10
59.8719
 20
107.3559
 11
59.9719
 21
107.3559
  0
ENDBLK
  0
BLOCK
  8
LAYER_2
  2
AIGNBL020102F7
 70
64
 10
0
 20
0
 30
0
  3
AIGNBL020102F7
  0
LINE
  8
LAYER_2
 10
59.8719
 20
107.2256
 11
59.8719
 21
107.3307
  0
LINE
  8
LAYER_2
 10
59.8719
 20
107.3307
 11
59.8719
 21
107.3559
  0
ENDBLK
  0
BLOCK
  8
LAYER_2
  2
AIGNBL020102F8
 70
64
 10
0
 20
0
 30
0
  3
AIGNBL020102F8
  0
LINE
  8
LAYER_2
 10
59.8719
 20
107.2545
 11
59.8719
 21
107.3147
  0
ENDBLK
  0
BLOCK
  8
LAYER_2
  2
AIGNBL020102F9
 70
64
 10
0
 20
0
 30
0
  3
AIGNBL020102F9
  0
LINE
  8
LAYER_2
 10
104.3052
 20
95.0932
 11
104.3052
 21
104.2599
  0
ENDBLK
  0
BLOCK
  8
LAYER_2
  2
AIGNBL020102FA
 70
64
 10
0
 20
0
 30
0
  3
AIGNBL020102FA
  0
LINE
  8
LAYER_2
 10
104.3052
 20
85.9266
 11
104.3052
 21
95.0932
  0
ENDBLK
  0
BLOCK
  8
LAYER_2
  2
AIGNBL020102FB
 70
64
 10
0
 20
0
 30
0
  3
AIGNBL020102FB
  0
LINE
  8
LAYER_2
 10
87.9719
 20
98.5266
 11
87.9719
 21
91.6599
  0
ENDBLK
  0
BLOCK
  8
LAYER_2
  2
AIGNBL020102FC
 70
64
 10
0
 20
0
 30
0
  3
AIGNBL020102FC
  0
LINE
  8
LAYER_2
 10
106.9719
 20
98.1257
 11
106.9719
 21
92.0607
  0
ENDBLK
  0
BLOCK
  8
LAYER_2
  2
AIGNBL020102FD
 70
64
 10
0
 20
0
 30
0
  3
AIGNBL020102FD
  0
LINE
  8
LAYER_2
 10
106.5831
 20
98.5145
 11
106.5831
 21
91.6719
  0
ENDBLK
  0
BLOCK
  8
LAYER_2
  2
AIGNBL020102FE
 70
64
 10
0
 20
0
 30
0
  3
AIGNBL020102FE
  0
LINE
  8
LAYER_2
 10
87.3052
 20
98.6378
 11
87.3052
 21
91.5486
  0
ENDBLK
  0
BLOCK
  8
LAYER_2
  2
AIGNBL020102FF
 70
64
 10
0
 20
0
 30
0
  3
AIGNBL020102FF
  0
LINE
  8
LAYER_2
 10
71.3498
 20
95.0932
 11
71.3498
 21
90.8432
  0
ENDBLK
  0
BLOCK
  8
LAYER_2
  2
AIGNBL02010300
 70
64
 10
0
 20
0
 30
0
  3
AIGNBL02010300
  0
LINE
  8
LAYER_2
 10
71.3498
 20
99.3432
 11
71.3498
 21
95.0932
  0
ENDBLK
  0
BLOCK
  8
LAYER_2
  2
AIGNBL02010301
 70
64
 10
0
 20
0
 30
0
  3
AIGNBL02010301
  0
ARC
  8
LAYER_2
 10
70.0988
 20
91.3698
 40
0.9483
 50
174.9933843
 51
203.2516945
  0
ARC
  8
LAYER_2
 10
69.9548
 20
91.358
 40
0.8125
 50
206.4996843
 51
228.5317486
  0
ARC
  8
LAYER_2
 10
70.0969
 20
91.5189
 40
1.0272
 50
228.5305648
 51
244.9247697
  0
LINE
  8
LAYER_2
 10
69.6616
 20
90.5885
 11
69.8949
 21
90.5084
  0
LINE
  8
LAYER_2
 10
69.8949
 20
90.5084
 11
70.1248
 21
90.4762
  0
LINE
  8
LAYER_2
 10
70.1248
 20
90.4762
 11
70.3633
 21
90.4852
  0
LINE
  8
LAYER_2
 10
70.3633
 20
90.4852
 11
70.5731
 21
90.5301
  0
LINE
  8
LAYER_2
 10
70.5731
 20
90.5301
 11
70.8194
 21
90.6383
  0
ARC
  8
LAYER_2
 10
70.3633
 20
91.4187
 40
0.9039
 50
300.3013518
 51
320.9702247
  0
ARC
  8
LAYER_2
 10
70.4644
 20
91.3414
 40
0.7767
 50
320.7042866
 51
352.3406629
  0
ARC
  8
LAYER_2
 10
70.4771
 20
91.3412
 40
0.7641
 50
352.228349
 51
24.55750139
  0
ARC
  8
LAYER_2
 10
70.415
 20
91.3098
 40
0.8337
 50
24.74714047
 51
46.96671707
  0
ARC
  8
LAYER_2
 10
70.2991
 20
91.1761
 40
1.0105
 50
47.33552143
 51
64.01585407
  0
LINE
  8
LAYER_2
 10
70.7418
 20
92.0845
 11
70.5077
 21
92.1688
  0
LINE
  8
LAYER_2
 10
70.5077
 20
92.1688
 11
70.2775
 21
92.2038
  0
LINE
  8
LAYER_2
 10
70.2775
 20
92.2038
 11
70.0366
 21
92.1973
  0
LINE
  8
LAYER_2
 10
70.0366
 20
92.1973
 11
69.8256
 21
92.1543
  0
LINE
  8
LAYER_2
 10
69.8256
 20
92.1543
 11
69.5799
 21
92.0498
  0
ARC
  8
LAYER_2
 10
69.9837
 20
91.311
 40
0.842
 50
118.6560719
 51
140.6165572
  0
ARC
  8
LAYER_2
 10
70.1995
 20
91.2138
 40
1.0723
 50
143.9227205
 51
167.1300086
  0
ENDBLK
  0
BLOCK
  8
LAYER_2
  2
AIGNBL02010302
 70
64
 10
0
 20
0
 30
0
  3
AIGNBL02010302
  0
LINE
  8
LAYER_2
 10
69.1542
 20
98.7338
 11
69.2252
 21
98.5049
  0
ARC
  8
LAYER_2
 10
69.9628
 20
98.8722
 40
0.824
 50
206.4707724
 51
225.171765
  0
LINE
  8
LAYER_2
 10
69.3819
 20
98.2878
 11
69.5834
 21
98.1346
  0
ARC
  8
LAYER_2
 10
70.1614
 20
99.1645
 40
1.181
 50
240.6983442
 51
255.8559425
  0
LINE
  8
LAYER_2
 10
69.8728
 20
98.0193
 11
70.1013
 21
97.9831
  0
LINE
  8
LAYER_2
 10
70.1013
 20
97.9831
 11
70.3416
 21
97.9882
  0
LINE
  8
LAYER_2
 10
70.3416
 20
97.9882
 11
70.5534
 21
98.0298
  0
LINE
  8
LAYER_2
 10
70.5534
 20
98.0298
 11
70.7987
 21
98.1319
  0
ARC
  8
LAYER_2
 10
70.3562
 20
98.932
 40
0.9143
 50
298.9435536
 51
318.9944679
  0
ARC
  8
LAYER_2
 10
70.4588
 20
98.8491
 40
0.7825
 50
318.6465872
 51
349.2530683
  0
ARC
  8
LAYER_2
 10
70.4822
 20
98.8476
 40
0.7593
 50
349.0331041
 51
27.69137086
  0
ARC
  8
LAYER_2
 10
70.4027
 20
98.8058
 40
0.8491
 50
27.70155627
 51
48.47837762
  0
ARC
  8
LAYER_2
 10
70.2889
 20
98.6648
 40
1.0301
 50
48.93227184
 51
65.28235466
  0
LINE
  8
LAYER_2
 10
70.7196
 20
99.6006
 11
70.4865
 21
99.6794
  0
LINE
  8
LAYER_2
 10
70.4865
 20
99.6794
 11
70.2568
 21
99.7105
  0
LINE
  8
LAYER_2
 10
70.2568
 20
99.7105
 11
70.019
 21
99.7006
  0
LINE
  8
LAYER_2
 10
70.019
 20
99.7006
 11
69.8097
 21
99.655
  0
LINE
  8
LAYER_2
 10
69.8097
 20
99.655
 11
69.5631
 21
99.5454
  0
ARC
  8
LAYER_2
 10
70.0289
 20
98.7619
 40
0.9115
 50
120.7287799
 51
141.2986344
  0
ARC
  8
LAYER_2
 10
69.8818
 20
98.8621
 40
0.7342
 50
140.2247619
 51
173.9224812
  0
LINE
  8
LAYER_2
 10
69.1517
 20
98.9398
 11
69.1542
 21
98.7338
  0
ENDBLK
  0
BLOCK
  8
LAYER_2
  2
AIGNBL02010303
 70
64
 10
0
 20
0
 30
0
  3
AIGNBL02010303
  0
ARC
  8
LAYER_2
 10
72.3533
 20
95.148
 40
3.2078
 50
180.9789824
 51
197.4347464
  0
ARC
  8
LAYER_2
 10
70.8198
 20
94.7017
 40
1.6114
 50
198.6298845
 51
214.2188107
  0
ARC
  8
LAYER_2
 10
70.411
 20
94.3984
 40
1.103
 50
213.1365435
 51
232.3788611
  0
ARC
  8
LAYER_2
 10
70.2241
 20
94.1445
 40
0.7878
 50
231.8739982
 51
251.1238016
  0
ARC
  8
LAYER_2
 10
70.1941
 20
94.0487
 40
0.6875
 50
250.9043005
 51
273.1350719
  0
LINE
  8
LAYER_2
 10
70.2317
 20
93.3623
 11
70.4575
 21
93.4139
  0
LINE
  8
LAYER_2
 10
70.4575
 20
93.4139
 11
70.6606
 21
93.5336
  0
ARC
  8
LAYER_2
 10
69.8826
 20
94.4839
 40
1.2281
 50
309.3062587
 51
326.8104754
  0
ARC
  8
LAYER_2
 10
69.2935
 20
94.8377
 40
1.915
 50
327.599731
 51
345.0500363
  0
ARC
  8
LAYER_2
 10
68.3845
 20
95.0862
 40
2.8573
 50
344.9381243
 51
3.575381726
  0
ARC
  8
LAYER_2
 10
68.5357
 20
95.132
 40
2.7039
 50
2.807373032
 51
13.03246834
  0
ARC
  8
LAYER_2
 10
69.1625
 20
95.2976
 40
2.0559
 50
12.47451651
 51
25.88937844
  0
ARC
  8
LAYER_2
 10
69.7626
 20
95.6107
 40
1.3795
 50
25.07132929
 51
40.45877237
  0
ARC
  8
LAYER_2
 10
70.0793
 20
95.9039
 40
0.9485
 50
39.39803958
 51
62.05776257
  0
LINE
  8
LAYER_2
 10
70.5237
 20
96.7418
 11
70.295
 21
96.8176
  0
ARC
  8
LAYER_2
 10
70.1938
 20
96.1396
 40
0.6856
 50
81.51128388
 51
101.8092808
  0
LINE
  8
LAYER_2
 10
70.0535
 20
96.8106
 11
69.8409
 21
96.7297
  0
ARC
  8
LAYER_2
 10
70.3575
 20
95.8458
 40
1.0238
 50
120.3039733
 51
138.0631206
  0
ARC
  8
LAYER_2
 10
70.7683
 20
95.515
 40
1.5508
 50
139.1156503
 51
156.3319626
  0
ARC
  8
LAYER_2
 10
71.475
 20
95.2077
 40
2.3213
 50
156.3883677
 51
175.0556083
  0
LINE
  8
LAYER_2
 10
69.1623
 20
95.4078
 11
69.146
 21
95.0932
  0
ENDBLK
  0
BLOCK
  8
LAYER_2
  2
AIGNBL02010304
 70
64
 10
0
 20
0
 30
0
  3
AIGNBL02010304
  0
LINE
  8
LAYER_2
 10
67.3498
 20
95.0932
 11
67.3498
 21
93.1766
  0
ENDBLK
  0
BLOCK
  8
LAYER_2
  2
AIGNBL02010305
 70
64
 10
0
 20
0
 30
0
  3
AIGNBL02010305
  0
LINE
  8
LAYER_2
 10
67.3498
 20
97.0099
 11
67.3498
 21
95.0932
  0
ENDBLK
  0
BLOCK
  8
LAYER_2
  2
AIGNBL02010306
 70
64
 10
0
 20
0
 30
0
  3
AIGNBL02010306
  0
LINE
  8
LAYER_2
 10
67.1386
 20
94.7932
 11
67.1386
 21
95.3932
  0
ENDBLK
  0
BLOCK
  8
LAYER_2
  2
AIGNBL02010307
 70
64
 10
0
 20
0
 30
0
  3
AIGNBL02010307
  0
LINE
  8
LAYER_2
 10
67.1386
 20
95.3932
 11
66.6386
 21
95.3932
  0
ENDBLK
  0
BLOCK
  8
LAYER_2
  2
AIGNBL02010308
 70
64
 10
0
 20
0
 30
0
  3
AIGNBL02010308
  0
LINE
  8
LAYER_2
 10
66.6386
 20
94.7932
 11
67.1386
 21
94.7932
  0
ENDBLK
  0
BLOCK
  8
LAYER_2
  2
AIGNBL02010309
 70
64
 10
0
 20
0
 30
0
  3
AIGNBL02010309
  0
LINE
  8
LAYER_2
 10
66.3052
 20
93.7599
 11
66.3052
 21
94.7932
  0
ENDBLK
  0
BLOCK
  8
LAYER_2
  2
AIGNBL0201030A
 70
64
 10
0
 20
0
 30
0
  3
AIGNBL0201030A
  0
LINE
  8
LAYER_2
 10
66.3052
 20
94.7932
 11
66.3331
 21
94.7932
  0
LINE
  8
LAYER_2
 10
66.3331
 20
94.7932
 11
66.3966
 21
94.7932
  0
LINE
  8
LAYER_2
 10
66.3966
 20
94.7932
 11
66.4874
 21
94.7932
  0
LINE
  8
LAYER_2
 10
66.4874
 20
94.7932
 11
66.5941
 21
94.7932
  0
LINE
  8
LAYER_2
 10
66.5941
 20
94.7932
 11
66.6386
 21
94.7932
  0
ENDBLK
  0
BLOCK
  8
LAYER_2
  2
AIGNBL0201030B
 70
64
 10
0
 20
0
 30
0
  3
AIGNBL0201030B
  0
LINE
  8
LAYER_2
 10
66.3052
 20
95.3932
 11
66.3052
 21
96.4266
  0
ENDBLK
  0
BLOCK
  8
LAYER_2
  2
AIGNBL0201030C
 70
64
 10
0
 20
0
 30
0
  3
AIGNBL0201030C
  0
LINE
  8
LAYER_2
 10
66.6386
 20
95.3932
 11
66.5535
 21
95.3932
  0
LINE
  8
LAYER_2
 10
66.5535
 20
95.3932
 11
66.4533
 21
95.3932
  0
LINE
  8
LAYER_2
 10
66.4533
 20
95.3932
 11
66.3733
 21
95.3932
  0
LINE
  8
LAYER_2
 10
66.3733
 20
95.3932
 11
66.3218
 21
95.3932
  0
LINE
  8
LAYER_2
 10
66.3218
 20
95.3932
 11
66.3052
 21
95.3932
  0
ENDBLK
  0
BLOCK
  8
LAYER_2
  2
AIGNBL0201030D
 70
64
 10
0
 20
0
 30
0
  3
AIGNBL0201030D
  0
LINE
  8
LAYER_2
 10
71.6386
 20
95.0932
 11
71.6386
 21
99.0932
  0
ENDBLK
  0
BLOCK
  8
LAYER_2
  2
AIGNBL0201030E
 70
64
 10
0
 20
0
 30
0
  3
AIGNBL0201030E
  0
LINE
  8
LAYER_2
 10
71.6386
 20
91.0932
 11
71.6386
 21
95.0932
  0
ENDBLK
  0
BLOCK
  8
LAYER_2
  2
AIGNBL0201030F
 70
64
 10
0
 20
0
 30
0
  3
AIGNBL0201030F
  0
LINE
  8
LAYER_2
 10
72.3052
 20
95.0932
 11
72.3052
 21
99.0932
  0
ENDBLK
  0
BLOCK
  8
LAYER_2
  2
AIGNBL02010310
 70
64
 10
0
 20
0
 30
0
  3
AIGNBL02010310
  0
LINE
  8
LAYER_2
 10
72.3052
 20
91.0932
 11
72.3052
 21
95.0932
  0
ENDBLK
  0
BLOCK
  8
LAYER_2
  2
AIGNBL02010311
 70
64
 10
0
 20
0
 30
0
  3
AIGNBL02010311
  0
LINE
  8
LAYER_2
 10
72.3052
 20
99.1072
 11
72.4699
 21
99.1497
  0
ARC
  8
LAYER_2
 10
72.1559
 20
100.0619
 40
0.9648
 50
288.995899
 51
309.060328
  0
ARC
  8
LAYER_2
 10
72.1107
 20
100.1183
 40
1.037
 50
309.0338915
 51
327.6933695
  0
ARC
  8
LAYER_2
 10
72.2212
 20
100.0592
 40
0.912
 50
327.1258281
 51
348.2998846
  0
LINE
  8
LAYER_2
 10
73.1143
 20
99.8742
 11
73.1386
 21
100.0932
  0
ENDBLK
  0
BLOCK
  8
LAYER_2
  2
AIGNBL02010312
 70
64
 10
0
 20
0
 30
0
  3
AIGNBL02010312
  0
LINE
  8
LAYER_2
 10
80.1386
 20
100.4266
 11
80.1762
 21
100.2056
  0
ARC
  8
LAYER_2
 10
80.7853
 20
100.4156
 40
0.6443
 50
199.0203007
 51
219.0690596
  0
LINE
  8
LAYER_2
 10
80.2851
 20
100.0095
 11
80.4525
 21
99.8608
  0
ARC
  8
LAYER_2
 10
80.7788
 20
100.3622
 40
0.5982
 50
236.9470536
 51
258.4988663
  0
LINE
  8
LAYER_2
 10
80.6595
 20
99.776
 11
80.8052
 21
99.7599
  0
ENDBLK
  0
BLOCK
  8
LAYER_2
  2
AIGNBL02010313
 70
64
 10
0
 20
0
 30
0
  3
AIGNBL02010313
  0
LINE
  8
LAYER_2
 10
72.3052
 20
98.2876
 11
72.3052
 21
98.7325
  0
LINE
  8
LAYER_2
 10
72.3052
 20
98.7325
 11
72.3052
 21
98.9754
  0
LINE
  8
LAYER_2
 10
72.3052
 20
98.9754
 11
72.3052
 21
99.097
  0
LINE
  8
LAYER_2
 10
72.3052
 20
99.097
 11
72.3052
 21
99.1072
  0
ENDBLK
  0
BLOCK
  8
LAYER_2
  2
AIGNBL02010314
 70
64
 10
0
 20
0
 30
0
  3
AIGNBL02010314
  0
LINE
  8
LAYER_2
 10
85.9719
 20
99.0932
 11
85.9719
 21
91.0932
  0
ENDBLK
  0
BLOCK
  8
LAYER_2
  2
AIGNBL02010315
 70
64
 10
0
 20
0
 30
0
  3
AIGNBL02010315
  0
LINE
  8
LAYER_2
 10
82.8445
 20
91.0034
 11
82.8877
 21
90.9461
  0
ARC
  8
LAYER_2
 10
83.7905
 20
91.7147
 40
1.1856
 50
220.4102519
 51
243.3843285
  0
ARC
  8
LAYER_2
 10
84.0766
 20
92.2664
 40
1.8071
 50
243.1085461
 51
255.4938312
  0
ARC
  8
LAYER_2
 10
84.1683
 20
92.6604
 40
2.2115
 50
255.7507994
 51
267.3085358
  0
LINE
  8
LAYER_2
 10
84.0645
 20
90.4513
 11
84.4665
 21
90.4682
  0
LINE
  8
LAYER_2
 10
84.4665
 20
90.4682
 11
84.8197
 21
90.5465
  0
LINE
  8
LAYER_2
 10
84.8197
 20
90.5465
 11
85.1354
 21
90.6838
  0
ARC
  8
LAYER_2
 10
84.6003
 20
91.6572
 40
1.1108
 50
298.7987931
 51
320.2079126
  0
ARC
  8
LAYER_2
 10
84.8852
 20
91.431
 40
0.7472
 50
319.5519044
 51
352.7466308
  0
ARC
  8
LAYER_2
 10
84.9424
 20
91.4113
 40
0.6881
 50
353.7783566
 51
28.63431027
  0
ARC
  8
LAYER_2
 10
84.6896
 20
91.2609
 40
0.9821
 50
29.26478825
 51
53.38548964
  0
ARC
  8
LAYER_2
 10
84.3785
 20
90.8306
 40
1.513
 50
53.649578
 51
68.74525434
  0
LINE
  8
LAYER_2
 10
84.927
 20
92.2407
 11
84.5501
 21
92.3443
  0
ARC
  8
LAYER_2
 10
84.1686
 20
90.0898
 40
2.2865
 50
80.39464859
 51
91.14441854
  0
LINE
  8
LAYER_2
 10
84.1229
 20
92.3759
 11
83.7413
 21
92.335
  0
LINE
  8
LAYER_2
 10
83.7413
 20
92.335
 11
83.402
 21
92.2358
  0
ARC
  8
LAYER_2
 10
83.8364
 20
91.062
 40
1.2516
 50
110.3099108
 51
125.9753582
  0
ARC
  8
LAYER_2
 10
84.3275
 20
90.5744
 40
1.9379
 50
129.2584718
 51
139.9323427
  0
ENDBLK
  0
BLOCK
  8
LAYER_2
  2
AIGNBL02010316
 70
64
 10
0
 20
0
 30
0
  3
AIGNBL02010316
  0
LINE
  8
LAYER_2
 10
82.8445
 20
94.2748
 11
83.0015
 21
93.9255
  0
ARC
  8
LAYER_2
 10
84.4069
 20
94.6946
 40
1.6021
 50
208.6898867
 51
228.1776228
  0
ARC
  8
LAYER_2
 10
84.2379
 20
94.4878
 40
1.3353
 50
227.6659814
 51
246.8077457
  0
ARC
  8
LAYER_2
 10
84.175
 20
94.3436
 40
1.178
 50
246.8560442
 51
268.6962198
  0
ARC
  8
LAYER_2
 10
84.1674
 20
94.3396
 40
1.1738
 50
269.0608445
 51
288.4535135
  0
ARC
  8
LAYER_2
 10
84.1161
 20
94.4654
 40
1.3095
 50
288.8436536
 51
305.9327659
  0
ARC
  8
LAYER_2
 10
83.9547
 20
94.6691
 40
1.5691
 50
306.3384083
 51
322.0774775
  0
ARC
  8
LAYER_2
 10
83.6065
 20
94.9176
 40
1.9966
 50
322.5927796
 51
341.1101195
  0
ARC
  8
LAYER_2
 10
83.1223
 20
95.0837
 40
2.5085
 50
341.10198
 51
0.2176104224
  0
ARC
  8
LAYER_2
 10
83.1232
 20
95.104
 40
2.5076
 50
359.7530864
 51
17.08195886
  0
ARC
  8
LAYER_2
 10
83.6182
 20
95.2714
 40
1.9853
 50
16.66035811
 51
38.72890837
  0
ARC
  8
LAYER_2
 10
84.0321
 20
95.599
 40
1.4575
 50
38.86146126
 51
57.72403193
  0
ARC
  8
LAYER_2
 10
84.1516
 20
95.7934
 40
1.2293
 50
57.59364028
 51
80.14479302
  0
ARC
  8
LAYER_2
 10
84.1707
 20
95.8649
 40
1.1557
 50
80.47240191
 51
101.1313327
  0
ARC
  8
LAYER_2
 10
84.193
 20
95.7881
 40
1.2354
 50
101.4564238
 51
119.4015837
  0
ARC
  8
LAYER_2
 10
84.3173
 20
95.5902
 40
1.4688
 50
119.8362686
 51
135.8424368
  0
ARC
  8
LAYER_2
 10
84.514
 20
95.4054
 40
1.7387
 50
135.9905701
 51
155.4503218
  0
LINE
  8
LAYER_2
 10
82.9325
 20
96.1278
 11
82.8445
 21
95.9117
  0
ENDBLK
  0
BLOCK
  8
LAYER_2
  2
AIGNBL02010317
 70
64
 10
0
 20
0
 30
0
  3
AIGNBL02010317
  0
LINE
  8
LAYER_2
 10
82.8445
 20
98.3646
 11
82.8877
 21
98.3073
  0
ARC
  8
LAYER_2
 10
83.7905
 20
99.0759
 40
1.1856
 50
220.4102519
 51
243.3843285
  0
ARC
  8
LAYER_2
 10
84.0766
 20
99.6276
 40
1.8071
 50
243.1085461
 51
255.4938312
  0
ARC
  8
LAYER_2
 10
84.1683
 20
100.0216
 40
2.2115
 50
255.7507994
 51
267.3085358
  0
LINE
  8
LAYER_2
 10
84.0645
 20
97.8125
 11
84.4665
 21
97.8294
  0
LINE
  8
LAYER_2
 10
84.4665
 20
97.8294
 11
84.8197
 21
97.9077
  0
LINE
  8
LAYER_2
 10
84.8197
 20
97.9077
 11
85.1354
 21
98.045
  0
ARC
  8
LAYER_2
 10
84.5988
 20
99.0202
 40
1.1131
 50
298.8211082
 51
320.1855975
  0
ARC
  8
LAYER_2
 10
84.8852
 20
98.7922
 40
0.7472
 50
319.5519044
 51
352.7466308
  0
ARC
  8
LAYER_2
 10
84.9426
 20
98.7725
 40
0.6879
 50
353.7735175
 51
28.63914935
  0
ARC
  8
LAYER_2
 10
84.6896
 20
98.6221
 40
0.9821
 50
29.26478825
 51
53.38548964
  0
ARC
  8
LAYER_2
 10
84.3807
 20
98.1959
 40
1.5084
 50
53.6265783
 51
68.76825405
  0
LINE
  8
LAYER_2
 10
84.927
 20
99.6019
 11
84.5501
 21
99.7055
  0
ARC
  8
LAYER_2
 10
84.1821
 20
97.6344
 40
2.1036
 50
79.92556161
 51
91.61350552
  0
LINE
  8
LAYER_2
 10
84.1229
 20
99.7371
 11
83.9548
 21
99.7273
  0
ENDBLK
  0
BLOCK
  8
LAYER_2
  2
AIGNBL02010318
 70
64
 10
0
 20
0
 30
0
  3
AIGNBL02010318
  0
ARC
  8
LAYER_2
 10
85.3104
 20
95.1798
 40
2.6267
 50
181.8894953
 51
200.1535624
  0
ARC
  8
LAYER_2
 10
85.5827
 20
94.9537
 40
2.901
 50
160.7163913
 51
177.2431782
  0
ENDBLK
  0
BLOCK
  8
LAYER_2
  2
AIGNBL02010319
 70
64
 10
0
 20
0
 30
0
  3
AIGNBL02010319
  0
LINE
  8
LAYER_2
 10
82.8445
 20
98.3646
 11
82.7094
 21
98.6223
  0
ENDBLK
  0
BLOCK
  8
LAYER_2
  2
AIGNBL0201031A
 70
64
 10
0
 20
0
 30
0
  3
AIGNBL0201031A
  0
ARC
  8
LAYER_2
 10
83.4239
 20
91.467
 40
0.7421
 50
185.6945257
 51
218.6661629
  0
ARC
  8
LAYER_2
 10
83.5168
 20
91.3286
 40
0.8338
 50
143.7344425
 51
175.5408967
  0
ENDBLK
  0
BLOCK
  8
LAYER_2
  2
AIGNBL0201031B
 70
64
 10
0
 20
0
 30
0
  3
AIGNBL0201031B
  0
LINE
  8
LAYER_2
 10
72.3052
 20
91.0932
 11
72.3052
 21
98.2878
  0
ENDBLK
  0
BLOCK
  8
LAYER_2
  2
AIGNBL0201031C
 70
64
 10
0
 20
0
 30
0
  3
AIGNBL0201031C
  0
ARC
  8
LAYER_2
 10
83.5374
 20
98.8438
 40
0.8571
 50
161.9874181
 51
194.9747919
  0
ARC
  8
LAYER_2
 10
84.1069
 20
98.4173
 40
1.5476
 50
135.3054707
 51
153.4609659
  0
ENDBLK
  0
BLOCK
  8
LAYER_2
  2
AIGNBL0201031D
 70
64
 10
0
 20
0
 30
0
  3
AIGNBL0201031D
  0
LINE
  8
LAYER_2
 10
83.0067
 20
99.5058
 11
83.1389
 21
99.5881
  0
LINE
  8
LAYER_2
 10
83.1389
 20
99.5881
 11
83.3193
 21
99.6427
  0
ARC
  8
LAYER_2
 10
84.6343
 20
92.1935
 40
7.5644
 50
95.15410417
 51
100.0115596
  0
ENDBLK
  0
BLOCK
  8
LAYER_2
  2
AIGNBL0201031E
 70
64
 10
0
 20
0
 30
0
  3
AIGNBL0201031E
  0
LINE
  8
LAYER_2
 10
90.4259
 20
107.9252
 11
90.4259
 21
107.9048
  0
LINE
  8
LAYER_2
 10
90.4259
 20
107.9048
 11
90.4259
 21
107.8588
  0
LINE
  8
LAYER_2
 10
90.4259
 20
107.8588
 11
90.4259
 21
107.7875
  0
ENDBLK
  0
BLOCK
  8
LAYER_2
  2
AIGNBL0201031F
 70
64
 10
0
 20
0
 30
0
  3
AIGNBL0201031F
  0
LINE
  8
LAYER_2
 10
91.7524
 20
105.0238
 11
91.8003
 21
104.9493
  0
LINE
  8
LAYER_2
 10
91.8003
 20
104.9493
 11
91.8573
 21
104.8918
  0
LINE
  8
LAYER_2
 10
91.8573
 20
104.8918
 11
91.921
 21
104.8521
  0
LINE
  8
LAYER_2
 10
91.921
 20
104.8521
 11
91.9892
 21
104.8307
  0
LINE
  8
LAYER_2
 10
91.9892
 20
104.8307
 11
92.0248
 21
104.8294
  0
ENDBLK
  0
BLOCK
  8
LAYER_2
  2
AIGNBL02010320
 70
64
 10
0
 20
0
 30
0
  3
AIGNBL02010320
  0
ARC
  8
LAYER_2
 10
91.5719
 20
109.5599
 40
1
 50
90.0007413
 51
179.9992587
  0
ENDBLK
  0
BLOCK
  8
LAYER_2
  2
AIGNBL02010321
 70
64
 10
0
 20
0
 30
0
  3
AIGNBL02010321
  0
LINE
  8
LAYER_2
 10
97.9719
 20
106.0266
 11
97.9719
 21
109.5599
  0
ENDBLK
  0
BLOCK
  8
LAYER_2
  2
AIGNBL02010322
 70
64
 10
0
 20
0
 30
0
  3
AIGNBL02010322
  0
ARC
  8
LAYER_2
 10
96.9719
 20
106.0266
 40
1
 50
269.9983037
 51
0.001696325938
  0
ENDBLK
  0
BLOCK
  8
LAYER_2
  2
AIGNBL02010323
 70
64
 10
0
 20
0
 30
0
  3
AIGNBL02010323
  0
LINE
  8
LAYER_2
 10
91.5719
 20
105.0266
 11
96.9719
 21
105.0266
  0
ENDBLK
  0
BLOCK
  8
LAYER_2
  2
AIGNBL02010324
 70
64
 10
0
 20
0
 30
0
  3
AIGNBL02010324
  0
ARC
  8
LAYER_2
 10
91.5719
 20
106.0266
 40
1
 50
179.9990685
 51
270.0009314
  0
ENDBLK
  0
BLOCK
  8
LAYER_2
  2
AIGNBL02010325
 70
64
 10
0
 20
0
 30
0
  3
AIGNBL02010325
  0
LINE
  8
LAYER_2
 10
90.5719
 20
106.0266
 11
90.5719
 21
109.5599
  0
ENDBLK
  0
BLOCK
  8
LAYER_2
  2
AIGNBL02010326
 70
64
 10
0
 20
0
 30
0
  3
AIGNBL02010326
  0
LINE
  8
LAYER_2
 10
91.5719
 20
110.5599
 11
96.9719
 21
110.5599
  0
ENDBLK
  0
BLOCK
  8
LAYER_2
  2
AIGNBL02010327
 70
64
 10
0
 20
0
 30
0
  3
AIGNBL02010327
  0
ARC
  8
LAYER_2
 10
96.9719
 20
109.5599
 40
1
 50
359.9999765
 51
90.00002351
  0
ENDBLK
  0
BLOCK
  8
LAYER_2
  2
AIGNBL02010328
 70
64
 10
0
 20
0
 30
0
  3
AIGNBL02010328
  0
LINE
  8
LAYER_2
 10
92.4386
 20
108.9099
 11
92.3719
 21
108.8432
  0
ENDBLK
  0
BLOCK
  8
LAYER_2
  2
AIGNBL02010329
 70
64
 10
0
 20
0
 30
0
  3
AIGNBL02010329
  0
LINE
  8
LAYER_2
 10
92.4386
 20
106.6766
 11
92.4386
 21
108.9099
  0
ENDBLK
  0
BLOCK
  8
LAYER_2
  2
AIGNBL0201032A
 70
64
 10
0
 20
0
 30
0
  3
AIGNBL0201032A
  0
LINE
  8
LAYER_2
 10
92.4386
 20
106.6766
 11
92.3719
 21
106.7432
  0
ENDBLK
  0
BLOCK
  8
LAYER_2
  2
AIGNBL0201032B
 70
64
 10
0
 20
0
 30
0
  3
AIGNBL0201032B
  0
LINE
  8
LAYER_2
 10
92.4386
 20
108.9099
 11
91.8052
 21
108.9099
  0
ENDBLK
  0
BLOCK
  8
LAYER_2
  2
AIGNBL0201032C
 70
64
 10
0
 20
0
 30
0
  3
AIGNBL0201032C
  0
LINE
  8
LAYER_2
 10
91.8719
 20
108.8432
 11
91.8052
 21
108.9099
  0
ENDBLK
  0
BLOCK
  8
LAYER_2
  2
AIGNBL0201032D
 70
64
 10
0
 20
0
 30
0
  3
AIGNBL0201032D
  0
LINE
  8
LAYER_2
 10
91.8052
 20
106.6766
 11
92.4386
 21
106.6766
  0
ENDBLK
  0
BLOCK
  8
LAYER_2
  2
AIGNBL0201032E
 70
64
 10
0
 20
0
 30
0
  3
AIGNBL0201032E
  0
LINE
  8
LAYER_2
 10
91.8719
 20
106.7432
 11
91.8052
 21
106.6766
  0
ENDBLK
  0
BLOCK
  8
LAYER_2
  2
AIGNBL0201032F
 70
64
 10
0
 20
0
 30
0
  3
AIGNBL0201032F
  0
LINE
  8
LAYER_2
 10
91.8052
 20
108.9099
 11
91.8052
 21
106.6766
  0
ENDBLK
  0
BLOCK
  8
LAYER_2
  2
AIGNBL02010330
 70
64
 10
0
 20
0
 30
0
  3
AIGNBL02010330
  0
LINE
  8
LAYER_2
 10
91.8719
 20
108.8432
 11
92.3719
 21
108.8432
  0
ENDBLK
  0
BLOCK
  8
LAYER_2
  2
AIGNBL02010331
 70
64
 10
0
 20
0
 30
0
  3
AIGNBL02010331
  0
ARC
  8
LAYER_2
 10
97.655
 20
107.7819
 40
5.3886
 50
168.6407148
 51
188.9804592
  0
LINE
  8
LAYER_2
 10
92.3324
 20
106.9407
 11
92.3719
 21
106.7432
  0
ENDBLK
  0
BLOCK
  8
LAYER_2
  2
AIGNBL02010332
 70
64
 10
0
 20
0
 30
0
  3
AIGNBL02010332
  0
LINE
  8
LAYER_2
 10
92.3719
 20
106.7432
 11
91.8719
 21
106.7432
  0
ENDBLK
  0
BLOCK
  8
LAYER_2
  2
AIGNBL02010333
 70
64
 10
0
 20
0
 30
0
  3
AIGNBL02010333
  0
ARC
  8
LAYER_2
 10
86.5888
 20
107.8045
 40
5.3886
 50
348.6407149
 51
8.980459169
  0
LINE
  8
LAYER_2
 10
91.9114
 20
108.6457
 11
91.8719
 21
108.8432
  0
ENDBLK
  0
BLOCK
  8
LAYER_2
  2
AIGNBL02010334
 70
64
 10
0
 20
0
 30
0
  3
AIGNBL02010334
  0
LINE
  8
LAYER_2
 10
92.3719
 20
108.8432
 11
92.3719
 21
106.7432
  0
ENDBLK
  0
BLOCK
  8
LAYER_2
  2
AIGNBL02010335
 70
64
 10
0
 20
0
 30
0
  3
AIGNBL02010335
  0
LINE
  8
LAYER_2
 10
91.8719
 20
108.8432
 11
91.8719
 21
106.7432
  0
ENDBLK
  0
BLOCK
  8
LAYER_2
  2
AIGNBL02010336
 70
64
 10
0
 20
0
 30
0
  3
AIGNBL02010336
  0
LINE
  8
LAYER_2
 10
96.1052
 20
108.9099
 11
96.1719
 21
108.8432
  0
ENDBLK
  0
BLOCK
  8
LAYER_2
  2
AIGNBL02010337
 70
64
 10
0
 20
0
 30
0
  3
AIGNBL02010337
  0
LINE
  8
LAYER_2
 10
96.1052
 20
108.9099
 11
96.7386
 21
108.9099
  0
ENDBLK
  0
BLOCK
  8
LAYER_2
  2
AIGNBL02010338
 70
64
 10
0
 20
0
 30
0
  3
AIGNBL02010338
  0
LINE
  8
LAYER_2
 10
96.6719
 20
108.8432
 11
96.7386
 21
108.9099
  0
ENDBLK
  0
BLOCK
  8
LAYER_2
  2
AIGNBL02010339
 70
64
 10
0
 20
0
 30
0
  3
AIGNBL02010339
  0
LINE
  8
LAYER_2
 10
96.6719
 20
106.7432
 11
96.7386
 21
106.6766
  0
ENDBLK
  0
BLOCK
  8
LAYER_2
  2
AIGNBL0201033A
 70
64
 10
0
 20
0
 30
0
  3
AIGNBL0201033A
  0
LINE
  8
LAYER_2
 10
96.7386
 20
106.6766
 11
96.1052
 21
106.6766
  0
ENDBLK
  0
BLOCK
  8
LAYER_2
  2
AIGNBL0201033B
 70
64
 10
0
 20
0
 30
0
  3
AIGNBL0201033B
  0
LINE
  8
LAYER_2
 10
96.1052
 20
106.6766
 11
96.1719
 21
106.7432
  0
ENDBLK
  0
BLOCK
  8
LAYER_2
  2
AIGNBL0201033C
 70
64
 10
0
 20
0
 30
0
  3
AIGNBL0201033C
  0
LINE
  8
LAYER_2
 10
96.1052
 20
106.6766
 11
96.1052
 21
108.9099
  0
ENDBLK
  0
BLOCK
  8
LAYER_2
  2
AIGNBL0201033D
 70
64
 10
0
 20
0
 30
0
  3
AIGNBL0201033D
  0
LINE
  8
LAYER_2
 10
96.7386
 20
108.9099
 11
96.7386
 21
106.6766
  0
ENDBLK
  0
BLOCK
  8
LAYER_2
  2
AIGNBL0201033E
 70
64
 10
0
 20
0
 30
0
  3
AIGNBL0201033E
  0
ARC
  8
LAYER_2
 10
90.8888
 20
107.8045
 40
5.3886
 50
348.6407149
 51
8.980459169
  0
LINE
  8
LAYER_2
 10
96.2114
 20
108.6457
 11
96.1719
 21
108.8432
  0
ENDBLK
  0
BLOCK
  8
LAYER_2
  2
AIGNBL0201033F
 70
64
 10
0
 20
0
 30
0
  3
AIGNBL0201033F
  0
LINE
  8
LAYER_2
 10
96.1719
 20
108.8432
 11
96.1719
 21
106.7432
  0
ENDBLK
  0
BLOCK
  8
LAYER_2
  2
AIGNBL02010340
 70
64
 10
0
 20
0
 30
0
  3
AIGNBL02010340
  0
LINE
  8
LAYER_2
 10
96.1719
 20
108.8432
 11
96.6719
 21
108.8432
  0
ENDBLK
  0
BLOCK
  8
LAYER_2
  2
AIGNBL02010341
 70
64
 10
0
 20
0
 30
0
  3
AIGNBL02010341
  0
ARC
  8
LAYER_2
 10
101.955
 20
107.7819
 40
5.3886
 50
168.6407148
 51
188.9804592
  0
LINE
  8
LAYER_2
 10
96.6324
 20
106.9407
 11
96.6719
 21
106.7432
  0
ENDBLK
  0
BLOCK
  8
LAYER_2
  2
AIGNBL02010342
 70
64
 10
0
 20
0
 30
0
  3
AIGNBL02010342
  0
LINE
  8
LAYER_2
 10
96.6719
 20
106.7432
 11
96.1719
 21
106.7432
  0
ENDBLK
  0
BLOCK
  8
LAYER_2
  2
AIGNBL02010343
 70
64
 10
0
 20
0
 30
0
  3
AIGNBL02010343
  0
LINE
  8
LAYER_2
 10
96.6719
 20
108.8432
 11
96.6719
 21
106.7432
  0
ENDBLK
  0
BLOCK
  8
LAYER_2
  2
AIGNBL02010344
 70
64
 10
0
 20
0
 30
0
  3
AIGNBL02010344
  0
LINE
  8
LAYER_2
 10
89.9204
 20
107.9268
 11
89.9085
 21
108.0446
  0
LINE
  8
LAYER_2
 10
89.9085
 20
108.0446
 11
89.9269
 21
108.2264
  0
LINE
  8
LAYER_2
 10
89.9269
 20
108.2264
 11
89.9795
 21
108.3958
  0
LINE
  8
LAYER_2
 10
89.9795
 20
108.3958
 11
89.9911
 21
108.4131
  0
ENDBLK
  0
BLOCK
  8
LAYER_2
  2
AIGNBL02010345
 70
64
 10
0
 20
0
 30
0
  3
AIGNBL02010345
  0
LINE
  8
LAYER_2
 10
90.4259
 20
107.9349
 11
90.0405
 21
107.9298
  0
LINE
  8
LAYER_2
 10
90.0405
 20
107.9298
 11
89.8422
 21
107.9298
  0
LINE
  8
LAYER_2
 10
89.8422
 20
107.9298
 11
89.639
 21
107.9298
  0
LINE
  8
LAYER_2
 10
89.639
 20
107.9298
 11
89.3721
 21
107.9298
  0
LINE
  8
LAYER_2
 10
89.3721
 20
107.9298
 11
89.2005
 21
107.9298
  0
LINE
  8
LAYER_2
 10
89.2005
 20
107.9298
 11
89.1121
 21
107.9298
  0
LINE
  8
LAYER_2
 10
89.1121
 20
107.9298
 11
89.007
 21
107.9298
  0
LINE
  8
LAYER_2
 10
89.007
 20
107.9298
 11
88.9137
 21
107.9298
  0
LINE
  8
LAYER_2
 10
88.9137
 20
107.9298
 11
88.8135
 21
107.9299
  0
LINE
  8
LAYER_2
 10
88.8135
 20
107.9299
 11
88.6687
 21
107.9299
  0
LINE
  8
LAYER_2
 10
88.6687
 20
107.9299
 11
88.3292
 21
107.9294
  0
LINE
  8
LAYER_2
 10
88.3292
 20
107.9294
 11
88.1184
 21
107.9267
  0
LINE
  8
LAYER_2
 10
88.1184
 20
107.9267
 11
87.8631
 21
107.9168
  0
LINE
  8
LAYER_2
 10
87.8631
 20
107.9168
 11
87.7331
 21
107.9132
  0
LINE
  8
LAYER_2
 10
87.7331
 20
107.9132
 11
87.6188
 21
107.9101
  0
LINE
  8
LAYER_2
 10
87.6188
 20
107.9101
 11
87.5426
 21
107.9068
  0
LINE
  8
LAYER_2
 10
87.5426
 20
107.9068
 11
87.4552
 21
107.9026
  0
LINE
  8
LAYER_2
 10
87.4552
 20
107.9026
 11
87.3879
 21
107.8988
  0
LINE
  8
LAYER_2
 10
87.3879
 20
107.8988
 11
87.3654
 21
107.8962
  0
LINE
  8
LAYER_2
 10
87.3654
 20
107.8962
 11
87.3674
 21
107.8949
  0
LINE
  8
LAYER_2
 10
87.3674
 20
107.8949
 11
87.3797
 21
107.8935
  0
ENDBLK
  0
BLOCK
  8
LAYER_2
  2
AIGNBL02010346
 70
64
 10
0
 20
0
 30
0
  3
AIGNBL02010346
  0
LINE
  8
LAYER_2
 10
90.4259
 20
107.9349
 11
90.4259
 21
107.8646
  0
LINE
  8
LAYER_2
 10
90.4259
 20
107.8646
 11
90.4259
 21
107.7591
  0
LINE
  8
LAYER_2
 10
90.4259
 20
107.7591
 11
90.4259
 21
107.6113
  0
LINE
  8
LAYER_2
 10
90.4259
 20
107.6113
 11
90.4259
 21
107.3828
  0
LINE
  8
LAYER_2
 10
90.4259
 20
107.3828
 11
90.4259
 21
107.1782
  0
LINE
  8
LAYER_2
 10
90.4259
 20
107.1782
 11
90.4259
 21
106.9512
  0
LINE
  8
LAYER_2
 10
90.4259
 20
106.9512
 11
90.4259
 21
106.6172
  0
LINE
  8
LAYER_2
 10
90.4259
 20
106.6172
 11
90.4259
 21
106.354
  0
LINE
  8
LAYER_2
 10
90.4259
 20
106.354
 11
90.4259
 21
106.2326
  0
LINE
  8
LAYER_2
 10
90.4259
 20
106.2326
 11
90.4259
 21
106.1596
  0
LINE
  8
LAYER_2
 10
90.4259
 20
106.1596
 11
90.4259
 21
106.1514
  0
ENDBLK
  0
BLOCK
  8
LAYER_2
  2
AIGNBL02010347
 70
64
 10
0
 20
0
 30
0
  3
AIGNBL02010347
  0
LINE
  8
LAYER_2
 10
90.3093
 20
108.983
 11
90.5719
 21
108.9829
  0
ENDBLK
  0
BLOCK
  8
LAYER_2
  2
AIGNBL02010348
 70
64
 10
0
 20
0
 30
0
  3
AIGNBL02010348
  0
LINE
  8
LAYER_2
 10
92.0942
 20
104.7906
 11
92.2321
 21
104.7866
  0
LINE
  8
LAYER_2
 10
92.2321
 20
104.7866
 11
92.2491
 21
104.7906
  0
ENDBLK
  0
BLOCK
  8
LAYER_2
  2
AIGNBL02010349
 70
64
 10
0
 20
0
 30
0
  3
AIGNBL02010349
  0
LINE
  8
LAYER_2
 10
88.7686
 20
107.9299
 11
88.7045
 21
107.9433
  0
LINE
  8
LAYER_2
 10
88.7045
 20
107.9433
 11
88.5024
 21
107.9871
  0
LINE
  8
LAYER_2
 10
88.5024
 20
107.9871
 11
88.2136
 21
108.053
  0
LINE
  8
LAYER_2
 10
88.2136
 20
108.053
 11
87.9071
 21
108.1281
  0
LINE
  8
LAYER_2
 10
87.9071
 20
108.1281
 11
87.6124
 21
108.2072
  0
LINE
  8
LAYER_2
 10
87.6124
 20
108.2072
 11
87.3603
 21
108.2828
  0
LINE
  8
LAYER_2
 10
87.3603
 20
108.2828
 11
87.1299
 21
108.3626
  0
LINE
  8
LAYER_2
 10
87.1299
 20
108.3626
 11
86.9385
 21
108.4476
  0
ARC
  8
LAYER_2
 10
86.9705
 20
108.5545
 40
0.1116
 50
187.979543
 51
253.3365237
  0
ARC
  8
LAYER_2
 10
86.9828
 20
108.5186
 40
0.1244
 50
124.5417468
 51
170.5610367
  0
LINE
  8
LAYER_2
 10
86.9122
 20
108.6211
 11
87.0435
 21
108.6866
  0
LINE
  8
LAYER_2
 10
87.0435
 20
108.6866
 11
87.3292
 21
108.7638
  0
LINE
  8
LAYER_2
 10
87.3292
 20
108.7638
 11
87.7909
 21
108.8434
  0
LINE
  8
LAYER_2
 10
87.7909
 20
108.8434
 11
88.2536
 21
108.8951
  0
LINE
  8
LAYER_2
 10
88.2536
 20
108.8951
 11
88.8017
 21
108.9342
  0
LINE
  8
LAYER_2
 10
88.8017
 20
108.9342
 11
89.5102
 21
108.9668
  0
LINE
  8
LAYER_2
 10
89.5102
 20
108.9668
 11
89.9085
 21
108.9795
  0
LINE
  8
LAYER_2
 10
89.9085
 20
108.9795
 11
90.3093
 21
108.983
  0
ENDBLK
  0
BLOCK
  8
LAYER_2
  2
AIGNBL0201034A
 70
64
 10
0
 20
0
 30
0
  3
AIGNBL0201034A
  0
LINE
  8
LAYER_2
 10
92.0946
 20
104.7977
 11
91.9126
 21
104.8042
  0
LINE
  8
LAYER_2
 10
91.9126
 20
104.8042
 11
91.7654
 21
104.8409
  0
LINE
  8
LAYER_2
 10
91.7654
 20
104.8409
 11
91.7628
 21
104.8419
  0
ENDBLK
  0
BLOCK
  8
LAYER_2
  2
AIGNBL0201034B
 70
64
 10
0
 20
0
 30
0
  3
AIGNBL0201034B
  0
INSERT
  8
LAYER_2
  2
AIGNBL0202034C
 10
0
 20
0
 30
0
  0
ENDBLK
  0
BLOCK
  8
LAYER_2
  2
AIGNBL0201034D
 70
64
 10
0
 20
0
 30
0
  3
AIGNBL0201034D
  0
INSERT
  8
LAYER_2
  2
AIGNBL0202034E
 10
0
 20
0
 30
0
  0
ENDBLK
  0
BLOCK
  8
LAYER_2
  2
AIGNBL0201034F
 70
64
 10
0
 20
0
 30
0
  3
AIGNBL0201034F
  0
LINE
  8
LAYER_2
 10
-55.7603
 20
95.0932
 11
-68.9505
 21
95.0932
  0
ENDBLK
  0
BLOCK
  8
LAYER_2
  2
AIGNBL02010350
 70
64
 10
0
 20
0
 30
0
  3
AIGNBL02010350
  0
LINE
  8
LAYER_2
 10
-54.4505
 20
141.6932
 11
-68.9505
 21
141.6932
  0
ENDBLK
  0
BLOCK
  8
LAYER_2
  2
AIGNBL02010351
 70
64
 10
0
 20
0
 30
0
  3
AIGNBL02010351
  0
LINE
  8
LAYER_2
 10
-54.4505
 20
103.0266
 11
-62.4762
 21
103.0266
  0
ENDBLK
  0
BLOCK
  8
LAYER_2
  2
AIGNBL02010352
 70
64
 10
0
 20
0
 30
0
  3
AIGNBL02010352
  0
LINE
  8
LAYER_2
 10
-53.5504
 20
142.5933
 11
-53.5504
 21
150.7999
  0
ENDBLK
  0
BLOCK
  8
LAYER_2
  2
AIGNBL02010353
 70
64
 10
0
 20
0
 30
0
  3
AIGNBL02010353
  0
LINE
  8
LAYER_2
 10
-16.2171
 20
142.5933
 11
-16.2171
 21
150.7999
  0
ENDBLK
  0
BLOCK
  8
LAYER_2
  2
AIGNBL02010354
 70
64
 10
0
 20
0
 30
0
  3
AIGNBL02010354
  0
LINE
  8
LAYER_2
 10
2.3426
 20
149.6192
 11
-7.6503
 21
149.6192
  0
ENDBLK
  0
BLOCK
  8
LAYER_2
  2
AIGNBL02010355
 70
64
 10
0
 20
0
 30
0
  3
AIGNBL02010355
  0
LINE
  8
LAYER_2
 10
3.9329
 20
128.8614
 11
-10.4509
 21
128.8614
  0
ENDBLK
  0
BLOCK
  8
LAYER_2
  2
AIGNBL02010356
 70
64
 10
0
 20
0
 30
0
  3
AIGNBL02010356
  0
LINE
  8
LAYER_2
 10
7.9342
 20
135.7403
 11
-10.4509
 21
135.7403
  0
ENDBLK
  0
BLOCK
  8
LAYER_2
  2
AIGNBL02010357
 70
64
 10
0
 20
0
 30
0
  3
AIGNBL02010357
  0
LINE
  8
LAYER_2
 10
-1.2942
 20
117.8235
 11
-9.2977
 21
117.8235
  0
ENDBLK
  0
BLOCK
  8
LAYER_2
  2
AIGNBL02010358
 70
64
 10
0
 20
0
 30
0
  3
AIGNBL02010358
  0
LINE
  8
LAYER_2
 10
-14.6135
 20
73.1777
 11
-25.2779
 21
73.1777
  0
ENDBLK
  0
BLOCK
  8
LAYER_2
  2
AIGNBL02010359
 70
64
 10
0
 20
0
 30
0
  3
AIGNBL02010359
  0
LINE
  8
LAYER_2
 10
41.1886
 20
92.2881
 11
21.1801
 21
92.2881
  0
ENDBLK
  0
BLOCK
  8
LAYER_2
  2
AIGNBL0201035A
 70
64
 10
0
 20
0
 30
0
  3
AIGNBL0201035A
  0
LINE
  8
LAYER_2
 10
28.6468
 20
117.8235
 11
39.6407
 21
117.8235
  0
ENDBLK
  0
BLOCK
  8
LAYER_2
  2
AIGNBL0201035B
 70
64
 10
0
 20
0
 30
0
  3
AIGNBL0201035B
  0
INSERT
  8
LAYER_2
  2
AIGNBL0202035C
 10
0
 20
0
 30
0
  0
ENDBLK
  0
BLOCK
  8
LAYER_2
  2
AIGNBL0201035D
 70
64
 10
0
 20
0
 30
0
  3
AIGNBL0201035D
  0
INSERT
  8
LAYER_2
  2
AIGNBL0202035E
 10
0
 20
0
 30
0
  0
ENDBLK
  0
BLOCK
  8
LAYER_2
  2
AIGNBL0201035F
 70
64
 10
0
 20
0
 30
0
  3
AIGNBL0201035F
  0
INSERT
  8
LAYER_2
  2
AIGNBL02020360
 10
0
 20
0
 30
0
  0
ENDBLK
  0
BLOCK
  8
LAYER_2
  2
AIGNBL02010361
 70
64
 10
0
 20
0
 30
0
  3
AIGNBL02010361
  0
INSERT
  8
LAYER_2
  2
AIGNBL02020362
 10
0
 20
0
 30
0
  0
ENDBLK
  0
BLOCK
  8
LAYER_2
  2
AIGNBL02010363
 70
64
 10
0
 20
0
 30
0
  3
AIGNBL02010363
  0
LINE
  8
LAYER_2
 10
-53.5504
 20
226.4387
 11
-53.5504
 21
246.0515
  0
ENDBLK
  0
BLOCK
  8
LAYER_2
  2
AIGNBL02010364
 70
64
 10
0
 20
0
 30
0
  3
AIGNBL02010364
  0
LINE
  8
LAYER_2
 10
-42.2171
 20
240.5126
 11
-42.2171
 21
246.0515
  0
ENDBLK
  0
BLOCK
  8
LAYER_2
  2
AIGNBL02010365
 70
64
 10
0
 20
0
 30
0
  3
AIGNBL02010365
  0
LINE
  8
LAYER_2
 10
-58.4789
 20
235.2387
 11
-62.471
 21
235.2387
  0
ENDBLK
  0
BLOCK
  8
LAYER_2
  2
AIGNBL02010366
 70
64
 10
0
 20
0
 30
0
  3
AIGNBL02010366
  0
LINE
  8
LAYER_2
 10
-47.9172
 20
216.9387
 11
-62.471
 21
216.9387
  0
ENDBLK
  0
BLOCK
  8
LAYER_2
  2
AIGNBL02010367
 70
64
 10
0
 20
0
 30
0
  3
AIGNBL02010367
  0
INSERT
  8
LAYER_2
  2
AIGNBL02020368
 10
0
 20
0
 30
0
  0
ENDBLK
  0
BLOCK
  8
LAYER_2
  2
AIGNBL02010369
 70
64
 10
0
 20
0
 30
0
  3
AIGNBL02010369
  0
INSERT
  8
LAYER_2
  2
AIGNBL0202036A
 10
0
 20
0
 30
0
  0
ENDBLK
  0
BLOCK
  8
LAYER_2
  2
AIGNBL0201036B
 70
64
 10
0
 20
0
 30
0
  3
AIGNBL0201036B
  0
INSERT
  8
LAYER_2
  2
AIGNBL0202036C
 10
0
 20
0
 30
0
  0
ENDBLK
  0
BLOCK
  8
LAYER_2
  2
AIGNBL0201036D
 70
64
 10
0
 20
0
 30
0
  3
AIGNBL0201036D
  0
LINE
  8
LAYER_2
 10
76.5085
 20
84.3773
 11
76.5085
 21
77.6691
  0
ENDBLK
  0
BLOCK
  8
LAYER_2
  2
AIGNBL0201036E
 70
64
 10
0
 20
0
 30
0
  3
AIGNBL0201036E
  0
LINE
  8
LAYER_2
 10
59.9719
 20
102.7259
 11
59.9719
 21
69.7725
  0
ENDBLK
  0
BLOCK
  8
LAYER_2
  2
AIGNBL0201036F
 70
64
 10
0
 20
0
 30
0
  3
AIGNBL0201036F
  0
LINE
  8
LAYER_2
 10
104.3052
 20
145.0244
 11
104.3052
 21
150.7999
  0
ENDBLK
  0
BLOCK
  8
LAYER_2
  2
AIGNBL02010370
 70
64
 10
0
 20
0
 30
0
  3
AIGNBL02010370
  0
LINE
  8
LAYER_2
 10
94.8052
 20
142.3833
 11
94.8052
 21
150.7999
  0
ENDBLK
  0
BLOCK
  8
LAYER_2
  2
AIGNBL02010371
 70
64
 10
0
 20
0
 30
0
  3
AIGNBL02010371
  0
LINE
  8
LAYER_2
 10
59.9719
 20
141.9939
 11
59.9719
 21
150.7999
  0
ENDBLK
  0
BLOCK
  8
LAYER_2
  2
AIGNBL02010372
 70
64
 10
0
 20
0
 30
0
  3
AIGNBL02010372
  0
INSERT
  8
LAYER_2
  2
AIGNBL02020373
 10
0
 20
0
 30
0
  0
ENDBLK
  0
BLOCK
  8
LAYER_2
  2
AIGNBL02010374
 70
64
 10
0
 20
0
 30
0
  3
AIGNBL02010374
  0
INSERT
  8
LAYER_2
  2
AIGNBL02020375
 10
0
 20
0
 30
0
  0
ENDBLK
  0
BLOCK
  8
LAYER_2
  2
AIGNBL02010376
 70
64
 10
0
 20
0
 30
0
  3
AIGNBL02010376
  0
LINE
  8
LAYER_2
 10
-26.2968
 20
241.5404
 11
-34.026
 21
241.5404
  0
ENDBLK
  0
BLOCK
  8
LAYER_3
  2
AIGNBL03010002
 70
64
 10
0
 20
0
 30
0
  3
AIGNBL03010002
  0
ARC
  8
LAYER_3
 10
181.2361
 20
51.0518
 40
2.085
 50
359.9990616
 51
90.00093841
  0
ARC
  8
LAYER_3
 10
181.2364
 20
51.0522
 40
2.0846
 50
90.00927268
 51
180.0099666
  0
ARC
  8
LAYER_3
 10
181.2361
 20
51.0519
 40
2.0843
 50
180.0023133
 51
270.0004358
  0
ARC
  8
LAYER_3
 10
181.2365
 20
51.0522
 40
2.0846
 50
269.9893525
 51
359.9886593
  0
ARC
  8
LAYER_3
 10
181.2365
 20
51.0515
 40
1.2199
 50
0.01483428533
 51
90.01804168
  0
ARC
  8
LAYER_3
 10
181.2361
 20
51.0519
 40
1.2195
 50
90.00175626
 51
180.0029419
  0
ARC
  8
LAYER_3
 10
181.2361
 20
51.0518
 40
1.2195
 50
180.0016044
 51
269.9983956
  0
ARC
  8
LAYER_3
 10
181.2365
 20
51.0522
 40
1.2199
 50
269.9818051
 51
359.9806209
  0
LINE
  8
LAYER_3
 10
184.9472
 20
49.8323
 11
184.9472
 21
52.2714
  0
LINE
  8
LAYER_3
 10
190.1252
 20
48.9676
 11
190.1252
 21
53.1368
  0
LINE
  8
LAYER_3
 10
184.9472
 20
52.2714
 11
190.1252
 21
53.1368
  0
LINE
  8
LAYER_3
 10
184.9472
 20
49.8323
 11
190.1252
 21
48.9676
  0
LINE
  8
LAYER_3
 10
181.2361
 20
51.0518
 11
181.2361
 21
50.8004
  0
LINE
  8
LAYER_3
 10
181.2361
 20
50.5599
 11
181.2361
 21
48.3729
  0
LINE
  8
LAYER_3
 10
181.2361
 20
51.0518
 11
181.4883
 21
51.0518
  0
LINE
  8
LAYER_3
 10
181.7288
 20
51.0518
 11
183.9157
 21
51.0518
  0
LINE
  8
LAYER_3
 10
181.2361
 20
51.0518
 11
181.2361
 21
51.304
  0
LINE
  8
LAYER_3
 10
181.2361
 20
51.5445
 11
181.2361
 21
53.7314
  0
LINE
  8
LAYER_3
 10
181.2361
 20
51.0518
 11
180.9846
 21
51.0518
  0
LINE
  8
LAYER_3
 10
180.7442
 20
51.0518
 11
178.5572
 21
51.0518
  0
LINE
  8
LAYER_3
 10
187.1404
 20
51.0518
 11
187.3925
 21
51.0518
  0
LINE
  8
LAYER_3
 10
187.633
 20
51.0518
 11
190.5579
 21
51.0518
  0
LINE
  8
LAYER_3
 10
187.1404
 20
51.0518
 11
186.8882
 21
51.0518
  0
LINE
  8
LAYER_3
 10
186.6477
 20
51.0518
 11
184.4614
 21
51.0518
  0
ENDBLK
  0
ENDSEC
  0
SECTION
  2
ENTITIES
  0
TEXT
  8
LAYER_1
 10
126.9566
 20
62.2815
 11
126.9566
 21
62.2815
 40
3.9357
 41
0.5
  1
吐水流量は定流量弁（4L／min用）により上限カット。必要に応じて止水栓にて流量調節可能
  0
TEXT
  8
LAYER_1
 10
-68.6505
 20
118.2567
 11
-68.6505
 21
118.2567
 40
3.0923
 41
0.5
 50
89.99999999
 72
1
  1
140
  0
TEXT
  8
LAYER_1
 10
-62.1762
 20
122.2613
 11
-62.1762
 21
122.2613
 40
3.0923
 41
0.5
 50
89.99999999
 72
1
  1
116
  0
TEXT
  8
LAYER_1
 10
-34.9899
 20
150.5
 11
-34.9899
 21
150.5
 40
3.0923
 41
0.5
 72
1
  1
112
  0
TEXT
  8
LAYER_1
 10
2.3426
 20
150.3193
 11
2.3426
 21
150.3193
 40
3.0923
 41
0.5
 72
2
  1
駆動部
  0
TEXT
  8
LAYER_1
 10
6.4674
 20
129.5615
 11
6.4674
 21
129.5615
 40
3.0923
 41
0.5
 72
2
  1
フィルター
  0
TEXT
  8
LAYER_1
 10
10.1511
 20
136.4404
 11
10.1511
 21
136.4404
 40
3.0923
 41
0.5
 72
2
  1
カバー（ホワイト)
  0
TEXT
  8
LAYER_1
 10
-1.2941
 20
118.5236
 11
-1.2941
 21
118.5236
 40
3.0923
 41
0.5
 72
2
  1
TOTO
  0
TEXT
  8
LAYER_1
 10
-14.6135
 20
73.8779
 11
-14.6135
 21
73.8779
 40
3.0923
 41
0.5
 72
2
  1
止水栓
  0
TEXT
  8
LAYER_1
 10
42.5386
 20
92.988
 11
42.5386
 21
92.988
 40
3.0923
 41
0.5
 72
2
  1
電源コード(L=750)
  0
TEXT
  8
LAYER_1
 10
28.6468
 20
118.5236
 11
28.6468
 21
118.5236
 40
3.0923
 41
0.5
  1
AC100V
  0
TEXT
  8
LAYER_1
 10
-47.9217
 20
245.7515
 11
-47.9217
 21
245.7515
 40
3.0923
 41
0.5
 72
1
  1
34
  0
TEXT
  8
LAYER_1
 10
-62.171
 20
226.0885
 11
-62.171
 21
226.0885
 40
3.0923
 41
0.5
 50
89.99999999
 72
1
  1
55
  0
TEXT
  8
LAYER_1
 10
90.4143
 20
79.3692
 11
90.4143
 21
79.3692
 40
3.0923
 41
0.5
 72
1
  1
83
  0
TEXT
  8
LAYER_1
 10
82.0326
 20
71.4726
 11
82.0326
 21
71.4726
 40
3.0923
 41
0.5
 72
1
  1
133
  0
TEXT
  8
LAYER_1
 10
99.5477
 20
150.4999
 11
99.5477
 21
150.4999
 40
3.0923
 41
0.5
 72
1
  1
28
  0
TEXT
  8
LAYER_1
 10
77.2824
 20
150.4999
 11
77.2824
 21
150.4999
 40
3.0923
 41
0.5
 72
1
  1
105
  0
TEXT
  8
LAYER_1
 10
104.3053
 20
58.8051
 11
104.3053
 21
58.8051
 40
3.0923
 41
0.5
 72
1
  1
W.L
  0
TEXT
  8
LAYER_1
 10
-26.2968
 20
242.2403
 11
-26.2968
 21
242.2403
 40
3.0923
 41
0.5
 72
2
  1
R 1/2
  0
INSERT
  8
LAYER_2
  2
AIGNBL02010002
 10
0
 20
0
 30
0
  0
INSERT
  8
LAYER_2
  2
AIGNBL02010003
 10
0
 20
0
 30
0
  0
INSERT
  8
LAYER_2
  2
AIGNBL02010004
 10
0
 20
0
 30
0
  0
INSERT
  8
LAYER_2
  2
AIGNBL02010005
 10
0
 20
0
 30
0
  0
INSERT
  8
LAYER_2
  2
AIGNBL02010006
 10
0
 20
0
 30
0
  0
INSERT
  8
LAYER_2
  2
AIGNBL02010007
 10
0
 20
0
 30
0
  0
INSERT
  8
LAYER_2
  2
AIGNBL02010008
 10
0
 20
0
 30
0
  0
INSERT
  8
LAYER_2
  2
AIGNBL02010009
 10
0
 20
0
 30
0
  0
INSERT
  8
LAYER_2
  2
AIGNBL0201000A
 10
0
 20
0
 30
0
  0
INSERT
  8
LAYER_2
  2
AIGNBL0201000B
 10
0
 20
0
 30
0
  0
INSERT
  8
LAYER_2
  2
AIGNBL0201000C
 10
0
 20
0
 30
0
  0
INSERT
  8
LAYER_2
  2
AIGNBL0201000D
 10
0
 20
0
 30
0
  0
INSERT
  8
LAYER_2
  2
AIGNBL0201000E
 10
0
 20
0
 30
0
  0
INSERT
  8
LAYER_2
  2
AIGNBL0201000F
 10
0
 20
0
 30
0
  0
INSERT
  8
LAYER_2
  2
AIGNBL02010010
 10
0
 20
0
 30
0
  0
INSERT
  8
LAYER_2
  2
AIGNBL02010011
 10
0
 20
0
 30
0
  0
INSERT
  8
LAYER_2
  2
AIGNBL02010012
 10
0
 20
0
 30
0
  0
INSERT
  8
LAYER_2
  2
AIGNBL02010013
 10
0
 20
0
 30
0
  0
INSERT
  8
LAYER_2
  2
AIGNBL02010014
 10
0
 20
0
 30
0
  0
INSERT
  8
LAYER_2
  2
AIGNBL02010015
 10
0
 20
0
 30
0
  0
INSERT
  8
LAYER_2
  2
AIGNBL02010016
 10
0
 20
0
 30
0
  0
INSERT
  8
LAYER_2
  2
AIGNBL02010017
 10
0
 20
0
 30
0
  0
INSERT
  8
LAYER_2
  2
AIGNBL02010018
 10
0
 20
0
 30
0
  0
INSERT
  8
LAYER_2
  2
AIGNBL02010019
 10
0
 20
0
 30
0
  0
INSERT
  8
LAYER_2
  2
AIGNBL0201001A
 10
0
 20
0
 30
0
  0
INSERT
  8
LAYER_2
  2
AIGNBL0201001B
 10
0
 20
0
 30
0
  0
INSERT
  8
LAYER_2
  2
AIGNBL0201001C
 10
0
 20
0
 30
0
  0
INSERT
  8
LAYER_2
  2
AIGNBL0201001D
 10
0
 20
0
 30
0
  0
INSERT
  8
LAYER_2
  2
AIGNBL0201001E
 10
0
 20
0
 30
0
  0
INSERT
  8
LAYER_2
  2
AIGNBL0201001F
 10
0
 20
0
 30
0
  0
INSERT
  8
LAYER_2
  2
AIGNBL02010020
 10
0
 20
0
 30
0
  0
INSERT
  8
LAYER_2
  2
AIGNBL02010021
 10
0
 20
0
 30
0
  0
INSERT
  8
LAYER_2
  2
AIGNBL02010022
 10
0
 20
0
 30
0
  0
INSERT
  8
LAYER_2
  2
AIGNBL02010023
 10
0
 20
0
 30
0
  0
INSERT
  8
LAYER_2
  2
AIGNBL02010024
 10
0
 20
0
 30
0
  0
INSERT
  8
LAYER_2
  2
AIGNBL02010025
 10
0
 20
0
 30
0
  0
INSERT
  8
LAYER_2
  2
AIGNBL02010026
 10
0
 20
0
 30
0
  0
INSERT
  8
LAYER_2
  2
AIGNBL02010027
 10
0
 20
0
 30
0
  0
INSERT
  8
LAYER_2
  2
AIGNBL02010028
 10
0
 20
0
 30
0
  0
INSERT
  8
LAYER_2
  2
AIGNBL02010029
 10
0
 20
0
 30
0
  0
INSERT
  8
LAYER_2
  2
AIGNBL0201002A
 10
0
 20
0
 30
0
  0
INSERT
  8
LAYER_2
  2
AIGNBL0201002B
 10
0
 20
0
 30
0
  0
INSERT
  8
LAYER_2
  2
AIGNBL0201002C
 10
0
 20
0
 30
0
  0
INSERT
  8
LAYER_2
  2
AIGNBL0201002D
 10
0
 20
0
 30
0
  0
INSERT
  8
LAYER_2
  2
AIGNBL0201002E
 10
0
 20
0
 30
0
  0
INSERT
  8
LAYER_2
  2
AIGNBL0201002F
 10
0
 20
0
 30
0
  0
INSERT
  8
LAYER_2
  2
AIGNBL02010030
 10
0
 20
0
 30
0
  0
INSERT
  8
LAYER_2
  2
AIGNBL02010031
 10
0
 20
0
 30
0
  0
INSERT
  8
LAYER_2
  2
AIGNBL02010032
 10
0
 20
0
 30
0
  0
INSERT
  8
LAYER_2
  2
AIGNBL02010033
 10
0
 20
0
 30
0
  0
INSERT
  8
LAYER_2
  2
AIGNBL02010034
 10
0
 20
0
 30
0
  0
INSERT
  8
LAYER_2
  2
AIGNBL02010035
 10
0
 20
0
 30
0
  0
INSERT
  8
LAYER_2
  2
AIGNBL02010036
 10
0
 20
0
 30
0
  0
INSERT
  8
LAYER_2
  2
AIGNBL02010037
 10
0
 20
0
 30
0
  0
INSERT
  8
LAYER_2
  2
AIGNBL02010038
 10
0
 20
0
 30
0
  0
INSERT
  8
LAYER_2
  2
AIGNBL02010039
 10
0
 20
0
 30
0
  0
INSERT
  8
LAYER_2
  2
AIGNBL0201003A
 10
0
 20
0
 30
0
  0
INSERT
  8
LAYER_2
  2
AIGNBL0201003B
 10
0
 20
0
 30
0
  0
INSERT
  8
LAYER_2
  2
AIGNBL0201003C
 10
0
 20
0
 30
0
  0
INSERT
  8
LAYER_2
  2
AIGNBL0201003D
 10
0
 20
0
 30
0
  0
INSERT
  8
LAYER_2
  2
AIGNBL0201003E
 10
0
 20
0
 30
0
  0
INSERT
  8
LAYER_2
  2
AIGNBL0201003F
 10
0
 20
0
 30
0
  0
INSERT
  8
LAYER_2
  2
AIGNBL02010040
 10
0
 20
0
 30
0
  0
INSERT
  8
LAYER_2
  2
AIGNBL02010041
 10
0
 20
0
 30
0
  0
INSERT
  8
LAYER_2
  2
AIGNBL02010042
 10
0
 20
0
 30
0
  0
INSERT
  8
LAYER_2
  2
AIGNBL02010043
 10
0
 20
0
 30
0
  0
INSERT
  8
LAYER_2
  2
AIGNBL02010044
 10
0
 20
0
 30
0
  0
INSERT
  8
LAYER_2
  2
AIGNBL02010045
 10
0
 20
0
 30
0
  0
INSERT
  8
LAYER_2
  2
AIGNBL02010046
 10
0
 20
0
 30
0
  0
INSERT
  8
LAYER_2
  2
AIGNBL02010047
 10
0
 20
0
 30
0
  0
INSERT
  8
LAYER_2
  2
AIGNBL02010048
 10
0
 20
0
 30
0
  0
INSERT
  8
LAYER_2
  2
AIGNBL02010049
 10
0
 20
0
 30
0
  0
INSERT
  8
LAYER_2
  2
AIGNBL0201004A
 10
0
 20
0
 30
0
  0
INSERT
  8
LAYER_2
  2
AIGNBL0201004B
 10
0
 20
0
 30
0
  0
INSERT
  8
LAYER_2
  2
AIGNBL0201004C
 10
0
 20
0
 30
0
  0
INSERT
  8
LAYER_2
  2
AIGNBL0201004D
 10
0
 20
0
 30
0
  0
INSERT
  8
LAYER_2
  2
AIGNBL0201004E
 10
0
 20
0
 30
0
  0
INSERT
  8
LAYER_2
  2
AIGNBL0201004F
 10
0
 20
0
 30
0
  0
INSERT
  8
LAYER_2
  2
AIGNBL02010050
 10
0
 20
0
 30
0
  0
INSERT
  8
LAYER_2
  2
AIGNBL02010051
 10
0
 20
0
 30
0
  0
INSERT
  8
LAYER_2
  2
AIGNBL02010052
 10
0
 20
0
 30
0
  0
INSERT
  8
LAYER_2
  2
AIGNBL02010053
 10
0
 20
0
 30
0
  0
INSERT
  8
LAYER_2
  2
AIGNBL02010054
 10
0
 20
0
 30
0
  0
INSERT
  8
LAYER_2
  2
AIGNBL02010055
 10
0
 20
0
 30
0
  0
INSERT
  8
LAYER_2
  2
AIGNBL02010056
 10
0
 20
0
 30
0
  0
INSERT
  8
LAYER_2
  2
AIGNBL02010057
 10
0
 20
0
 30
0
  0
INSERT
  8
LAYER_2
  2
AIGNBL02010058
 10
0
 20
0
 30
0
  0
INSERT
  8
LAYER_2
  2
AIGNBL02010059
 10
0
 20
0
 30
0
  0
INSERT
  8
LAYER_2
  2
AIGNBL0201005A
 10
0
 20
0
 30
0
  0
INSERT
  8
LAYER_2
  2
AIGNBL0201005B
 10
0
 20
0
 30
0
  0
INSERT
  8
LAYER_2
  2
AIGNBL0201005C
 10
0
 20
0
 30
0
  0
INSERT
  8
LAYER_2
  2
AIGNBL0201005D
 10
0
 20
0
 30
0
  0
INSERT
  8
LAYER_2
  2
AIGNBL0201005E
 10
0
 20
0
 30
0
  0
INSERT
  8
LAYER_2
  2
AIGNBL0201005F
 10
0
 20
0
 30
0
  0
INSERT
  8
LAYER_2
  2
AIGNBL02010060
 10
0
 20
0
 30
0
  0
INSERT
  8
LAYER_2
  2
AIGNBL02010061
 10
0
 20
0
 30
0
  0
INSERT
  8
LAYER_2
  2
AIGNBL02010062
 10
0
 20
0
 30
0
  0
INSERT
  8
LAYER_2
  2
AIGNBL02010063
 10
0
 20
0
 30
0
  0
INSERT
  8
LAYER_2
  2
AIGNBL02010064
 10
0
 20
0
 30
0
  0
INSERT
  8
LAYER_2
  2
AIGNBL02010065
 10
0
 20
0
 30
0
  0
INSERT
  8
LAYER_2
  2
AIGNBL02010066
 10
0
 20
0
 30
0
  0
INSERT
  8
LAYER_2
  2
AIGNBL02010067
 10
0
 20
0
 30
0
  0
INSERT
  8
LAYER_2
  2
AIGNBL02010068
 10
0
 20
0
 30
0
  0
INSERT
  8
LAYER_2
  2
AIGNBL02010069
 10
0
 20
0
 30
0
  0
INSERT
  8
LAYER_2
  2
AIGNBL0201006A
 10
0
 20
0
 30
0
  0
INSERT
  8
LAYER_2
  2
AIGNBL0201006B
 10
0
 20
0
 30
0
  0
INSERT
  8
LAYER_2
  2
AIGNBL0201006C
 10
0
 20
0
 30
0
  0
INSERT
  8
LAYER_2
  2
AIGNBL0201006D
 10
0
 20
0
 30
0
  0
INSERT
  8
LAYER_2
  2
AIGNBL0201006E
 10
0
 20
0
 30
0
  0
INSERT
  8
LAYER_2
  2
AIGNBL0201006F
 10
0
 20
0
 30
0
  0
INSERT
  8
LAYER_2
  2
AIGNBL02010070
 10
0
 20
0
 30
0
  0
INSERT
  8
LAYER_2
  2
AIGNBL02010071
 10
0
 20
0
 30
0
  0
INSERT
  8
LAYER_2
  2
AIGNBL02010072
 10
0
 20
0
 30
0
  0
INSERT
  8
LAYER_2
  2
AIGNBL02010073
 10
0
 20
0
 30
0
  0
INSERT
  8
LAYER_2
  2
AIGNBL02010074
 10
0
 20
0
 30
0
  0
INSERT
  8
LAYER_2
  2
AIGNBL02010075
 10
0
 20
0
 30
0
  0
INSERT
  8
LAYER_2
  2
AIGNBL02010076
 10
0
 20
0
 30
0
  0
INSERT
  8
LAYER_2
  2
AIGNBL02010077
 10
0
 20
0
 30
0
  0
INSERT
  8
LAYER_2
  2
AIGNBL02010078
 10
0
 20
0
 30
0
  0
INSERT
  8
LAYER_2
  2
AIGNBL02010079
 10
0
 20
0
 30
0
  0
INSERT
  8
LAYER_2
  2
AIGNBL0201007A
 10
0
 20
0
 30
0
  0
INSERT
  8
LAYER_2
  2
AIGNBL0201007B
 10
0
 20
0
 30
0
  0
INSERT
  8
LAYER_2
  2
AIGNBL0201007C
 10
0
 20
0
 30
0
  0
INSERT
  8
LAYER_2
  2
AIGNBL0201007D
 10
0
 20
0
 30
0
  0
INSERT
  8
LAYER_2
  2
AIGNBL0201007E
 10
0
 20
0
 30
0
  0
INSERT
  8
LAYER_2
  2
AIGNBL0201007F
 10
0
 20
0
 30
0
  0
INSERT
  8
LAYER_2
  2
AIGNBL02010080
 10
0
 20
0
 30
0
  0
INSERT
  8
LAYER_2
  2
AIGNBL02010081
 10
0
 20
0
 30
0
  0
INSERT
  8
LAYER_2
  2
AIGNBL02010082
 10
0
 20
0
 30
0
  0
INSERT
  8
LAYER_2
  2
AIGNBL02010083
 10
0
 20
0
 30
0
  0
INSERT
  8
LAYER_2
  2
AIGNBL02010084
 10
0
 20
0
 30
0
  0
INSERT
  8
LAYER_2
  2
AIGNBL02010085
 10
0
 20
0
 30
0
  0
INSERT
  8
LAYER_2
  2
AIGNBL02010086
 10
0
 20
0
 30
0
  0
INSERT
  8
LAYER_2
  2
AIGNBL02010087
 10
0
 20
0
 30
0
  0
INSERT
  8
LAYER_2
  2
AIGNBL02010088
 10
0
 20
0
 30
0
  0
INSERT
  8
LAYER_2
  2
AIGNBL02010089
 10
0
 20
0
 30
0
  0
INSERT
  8
LAYER_2
  2
AIGNBL0201008A
 10
0
 20
0
 30
0
  0
INSERT
  8
LAYER_2
  2
AIGNBL0201008B
 10
0
 20
0
 30
0
  0
INSERT
  8
LAYER_2
  2
AIGNBL0201008C
 10
0
 20
0
 30
0
  0
INSERT
  8
LAYER_2
  2
AIGNBL0201008D
 10
0
 20
0
 30
0
  0
INSERT
  8
LAYER_2
  2
AIGNBL0201008E
 10
0
 20
0
 30
0
  0
INSERT
  8
LAYER_2
  2
AIGNBL0201008F
 10
0
 20
0
 30
0
  0
INSERT
  8
LAYER_2
  2
AIGNBL02010090
 10
0
 20
0
 30
0
  0
INSERT
  8
LAYER_2
  2
AIGNBL02010091
 10
0
 20
0
 30
0
  0
INSERT
  8
LAYER_2
  2
AIGNBL02010092
 10
0
 20
0
 30
0
  0
INSERT
  8
LAYER_2
  2
AIGNBL02010093
 10
0
 20
0
 30
0
  0
INSERT
  8
LAYER_2
  2
AIGNBL02010094
 10
0
 20
0
 30
0
  0
INSERT
  8
LAYER_2
  2
AIGNBL02010095
 10
0
 20
0
 30
0
  0
INSERT
  8
LAYER_2
  2
AIGNBL02010096
 10
0
 20
0
 30
0
  0
INSERT
  8
LAYER_2
  2
AIGNBL02010097
 10
0
 20
0
 30
0
  0
INSERT
  8
LAYER_2
  2
AIGNBL02010098
 10
0
 20
0
 30
0
  0
INSERT
  8
LAYER_2
  2
AIGNBL02010099
 10
0
 20
0
 30
0
  0
INSERT
  8
LAYER_2
  2
AIGNBL0201009A
 10
0
 20
0
 30
0
  0
INSERT
  8
LAYER_2
  2
AIGNBL0201009B
 10
0
 20
0
 30
0
  0
INSERT
  8
LAYER_2
  2
AIGNBL0201009C
 10
0
 20
0
 30
0
  0
INSERT
  8
LAYER_2
  2
AIGNBL0201009D
 10
0
 20
0
 30
0
  0
INSERT
  8
LAYER_2
  2
AIGNBL0201009E
 10
0
 20
0
 30
0
  0
INSERT
  8
LAYER_2
  2
AIGNBL0201009F
 10
0
 20
0
 30
0
  0
INSERT
  8
LAYER_2
  2
AIGNBL020100A0
 10
0
 20
0
 30
0
  0
INSERT
  8
LAYER_2
  2
AIGNBL020100A1
 10
0
 20
0
 30
0
  0
INSERT
  8
LAYER_2
  2
AIGNBL020100A2
 10
0
 20
0
 30
0
  0
INSERT
  8
LAYER_2
  2
AIGNBL020100A3
 10
0
 20
0
 30
0
  0
INSERT
  8
LAYER_2
  2
AIGNBL020100A4
 10
0
 20
0
 30
0
  0
INSERT
  8
LAYER_2
  2
AIGNBL020100A5
 10
0
 20
0
 30
0
  0
INSERT
  8
LAYER_2
  2
AIGNBL020100A6
 10
0
 20
0
 30
0
  0
INSERT
  8
LAYER_2
  2
AIGNBL020100A7
 10
0
 20
0
 30
0
  0
INSERT
  8
LAYER_2
  2
AIGNBL020100A8
 10
0
 20
0
 30
0
  0
INSERT
  8
LAYER_2
  2
AIGNBL020100A9
 10
0
 20
0
 30
0
  0
INSERT
  8
LAYER_2
  2
AIGNBL020100AA
 10
0
 20
0
 30
0
  0
INSERT
  8
LAYER_2
  2
AIGNBL020100AB
 10
0
 20
0
 30
0
  0
INSERT
  8
LAYER_2
  2
AIGNBL020100AC
 10
0
 20
0
 30
0
  0
INSERT
  8
LAYER_2
  2
AIGNBL020100AD
 10
0
 20
0
 30
0
  0
INSERT
  8
LAYER_2
  2
AIGNBL020100AE
 10
0
 20
0
 30
0
  0
INSERT
  8
LAYER_2
  2
AIGNBL020100AF
 10
0
 20
0
 30
0
  0
INSERT
  8
LAYER_2
  2
AIGNBL020100B0
 10
0
 20
0
 30
0
  0
INSERT
  8
LAYER_2
  2
AIGNBL020100B1
 10
0
 20
0
 30
0
  0
INSERT
  8
LAYER_2
  2
AIGNBL020100B2
 10
0
 20
0
 30
0
  0
INSERT
  8
LAYER_2
  2
AIGNBL020100B3
 10
0
 20
0
 30
0
  0
INSERT
  8
LAYER_2
  2
AIGNBL020100B4
 10
0
 20
0
 30
0
  0
INSERT
  8
LAYER_2
  2
AIGNBL020100B5
 10
0
 20
0
 30
0
  0
INSERT
  8
LAYER_2
  2
AIGNBL020100B6
 10
0
 20
0
 30
0
  0
INSERT
  8
LAYER_2
  2
AIGNBL020100B7
 10
0
 20
0
 30
0
  0
INSERT
  8
LAYER_2
  2
AIGNBL020100B8
 10
0
 20
0
 30
0
  0
INSERT
  8
LAYER_2
  2
AIGNBL020100B9
 10
0
 20
0
 30
0
  0
INSERT
  8
LAYER_2
  2
AIGNBL020100BA
 10
0
 20
0
 30
0
  0
INSERT
  8
LAYER_2
  2
AIGNBL020100BB
 10
0
 20
0
 30
0
  0
INSERT
  8
LAYER_2
  2
AIGNBL020100BC
 10
0
 20
0
 30
0
  0
INSERT
  8
LAYER_2
  2
AIGNBL020100BD
 10
0
 20
0
 30
0
  0
INSERT
  8
LAYER_2
  2
AIGNBL020100BE
 10
0
 20
0
 30
0
  0
INSERT
  8
LAYER_2
  2
AIGNBL020100BF
 10
0
 20
0
 30
0
  0
INSERT
  8
LAYER_2
  2
AIGNBL020100C0
 10
0
 20
0
 30
0
  0
INSERT
  8
LAYER_2
  2
AIGNBL020100C1
 10
0
 20
0
 30
0
  0
INSERT
  8
LAYER_2
  2
AIGNBL020100C2
 10
0
 20
0
 30
0
  0
INSERT
  8
LAYER_2
  2
AIGNBL020100C3
 10
0
 20
0
 30
0
  0
INSERT
  8
LAYER_2
  2
AIGNBL020100C4
 10
0
 20
0
 30
0
  0
INSERT
  8
LAYER_2
  2
AIGNBL020100C5
 10
0
 20
0
 30
0
  0
INSERT
  8
LAYER_2
  2
AIGNBL020100C6
 10
0
 20
0
 30
0
  0
INSERT
  8
LAYER_2
  2
AIGNBL020100C7
 10
0
 20
0
 30
0
  0
INSERT
  8
LAYER_2
  2
AIGNBL020100C8
 10
0
 20
0
 30
0
  0
INSERT
  8
LAYER_2
  2
AIGNBL020100C9
 10
0
 20
0
 30
0
  0
INSERT
  8
LAYER_2
  2
AIGNBL020100CA
 10
0
 20
0
 30
0
  0
INSERT
  8
LAYER_2
  2
AIGNBL020100CB
 10
0
 20
0
 30
0
  0
INSERT
  8
LAYER_2
  2
AIGNBL020100CC
 10
0
 20
0
 30
0
  0
INSERT
  8
LAYER_2
  2
AIGNBL020100CD
 10
0
 20
0
 30
0
  0
INSERT
  8
LAYER_2
  2
AIGNBL020100CE
 10
0
 20
0
 30
0
  0
INSERT
  8
LAYER_2
  2
AIGNBL020100CF
 10
0
 20
0
 30
0
  0
INSERT
  8
LAYER_2
  2
AIGNBL020100D0
 10
0
 20
0
 30
0
  0
INSERT
  8
LAYER_2
  2
AIGNBL020100D1
 10
0
 20
0
 30
0
  0
INSERT
  8
LAYER_2
  2
AIGNBL020100D2
 10
0
 20
0
 30
0
  0
INSERT
  8
LAYER_2
  2
AIGNBL020100D3
 10
0
 20
0
 30
0
  0
INSERT
  8
LAYER_2
  2
AIGNBL020100D4
 10
0
 20
0
 30
0
  0
INSERT
  8
LAYER_2
  2
AIGNBL020100D5
 10
0
 20
0
 30
0
  0
INSERT
  8
LAYER_2
  2
AIGNBL020100D6
 10
0
 20
0
 30
0
  0
INSERT
  8
LAYER_2
  2
AIGNBL020100D7
 10
0
 20
0
 30
0
  0
INSERT
  8
LAYER_2
  2
AIGNBL020100D8
 10
0
 20
0
 30
0
  0
INSERT
  8
LAYER_2
  2
AIGNBL020100D9
 10
0
 20
0
 30
0
  0
INSERT
  8
LAYER_2
  2
AIGNBL020100DA
 10
0
 20
0
 30
0
  0
INSERT
  8
LAYER_2
  2
AIGNBL020100DB
 10
0
 20
0
 30
0
  0
INSERT
  8
LAYER_2
  2
AIGNBL020100DC
 10
0
 20
0
 30
0
  0
INSERT
  8
LAYER_2
  2
AIGNBL020100DD
 10
0
 20
0
 30
0
  0
INSERT
  8
LAYER_2
  2
AIGNBL020100DE
 10
0
 20
0
 30
0
  0
INSERT
  8
LAYER_2
  2
AIGNBL020100DF
 10
0
 20
0
 30
0
  0
INSERT
  8
LAYER_2
  2
AIGNBL020100E0
 10
0
 20
0
 30
0
  0
INSERT
  8
LAYER_2
  2
AIGNBL020100E1
 10
0
 20
0
 30
0
  0
INSERT
  8
LAYER_2
  2
AIGNBL020100E2
 10
0
 20
0
 30
0
  0
INSERT
  8
LAYER_2
  2
AIGNBL020100E3
 10
0
 20
0
 30
0
  0
INSERT
  8
LAYER_2
  2
AIGNBL020100E4
 10
0
 20
0
 30
0
  0
INSERT
  8
LAYER_2
  2
AIGNBL020100E5
 10
0
 20
0
 30
0
  0
INSERT
  8
LAYER_2
  2
AIGNBL020100E6
 10
0
 20
0
 30
0
  0
INSERT
  8
LAYER_2
  2
AIGNBL020100E7
 10
0
 20
0
 30
0
  0
INSERT
  8
LAYER_2
  2
AIGNBL020100E8
 10
0
 20
0
 30
0
  0
INSERT
  8
LAYER_2
  2
AIGNBL020100E9
 10
0
 20
0
 30
0
  0
INSERT
  8
LAYER_2
  2
AIGNBL020100EA
 10
0
 20
0
 30
0
  0
INSERT
  8
LAYER_2
  2
AIGNBL020100EB
 10
0
 20
0
 30
0
  0
INSERT
  8
LAYER_2
  2
AIGNBL020100EC
 10
0
 20
0
 30
0
  0
INSERT
  8
LAYER_2
  2
AIGNBL020100ED
 10
0
 20
0
 30
0
  0
INSERT
  8
LAYER_2
  2
AIGNBL020100EE
 10
0
 20
0
 30
0
  0
INSERT
  8
LAYER_2
  2
AIGNBL020100EF
 10
0
 20
0
 30
0
  0
INSERT
  8
LAYER_2
  2
AIGNBL020100F0
 10
0
 20
0
 30
0
  0
INSERT
  8
LAYER_2
  2
AIGNBL020100F1
 10
0
 20
0
 30
0
  0
INSERT
  8
LAYER_2
  2
AIGNBL020100F2
 10
0
 20
0
 30
0
  0
INSERT
  8
LAYER_2
  2
AIGNBL020100F3
 10
0
 20
0
 30
0
  0
INSERT
  8
LAYER_2
  2
AIGNBL020100F4
 10
0
 20
0
 30
0
  0
INSERT
  8
LAYER_2
  2
AIGNBL020100F5
 10
0
 20
0
 30
0
  0
INSERT
  8
LAYER_2
  2
AIGNBL020100F6
 10
0
 20
0
 30
0
  0
INSERT
  8
LAYER_2
  2
AIGNBL020100F7
 10
0
 20
0
 30
0
  0
INSERT
  8
LAYER_2
  2
AIGNBL020100F8
 10
0
 20
0
 30
0
  0
INSERT
  8
LAYER_2
  2
AIGNBL020100F9
 10
0
 20
0
 30
0
  0
INSERT
  8
LAYER_2
  2
AIGNBL020100FA
 10
0
 20
0
 30
0
  0
INSERT
  8
LAYER_2
  2
AIGNBL020100FB
 10
0
 20
0
 30
0
  0
INSERT
  8
LAYER_2
  2
AIGNBL020100FC
 10
0
 20
0
 30
0
  0
INSERT
  8
LAYER_2
  2
AIGNBL020100FD
 10
0
 20
0
 30
0
  0
INSERT
  8
LAYER_2
  2
AIGNBL020100FE
 10
0
 20
0
 30
0
  0
INSERT
  8
LAYER_2
  2
AIGNBL020100FF
 10
0
 20
0
 30
0
  0
INSERT
  8
LAYER_2
  2
AIGNBL02010100
 10
0
 20
0
 30
0
  0
INSERT
  8
LAYER_2
  2
AIGNBL02010101
 10
0
 20
0
 30
0
  0
INSERT
  8
LAYER_2
  2
AIGNBL02010102
 10
0
 20
0
 30
0
  0
INSERT
  8
LAYER_2
  2
AIGNBL02010103
 10
0
 20
0
 30
0
  0
INSERT
  8
LAYER_2
  2
AIGNBL02010104
 10
0
 20
0
 30
0
  0
INSERT
  8
LAYER_2
  2
AIGNBL02010105
 10
0
 20
0
 30
0
  0
INSERT
  8
LAYER_2
  2
AIGNBL02010106
 10
0
 20
0
 30
0
  0
INSERT
  8
LAYER_2
  2
AIGNBL02010107
 10
0
 20
0
 30
0
  0
INSERT
  8
LAYER_2
  2
AIGNBL02010108
 10
0
 20
0
 30
0
  0
INSERT
  8
LAYER_2
  2
AIGNBL02010109
 10
0
 20
0
 30
0
  0
INSERT
  8
LAYER_2
  2
AIGNBL0201010A
 10
0
 20
0
 30
0
  0
INSERT
  8
LAYER_2
  2
AIGNBL0201010B
 10
0
 20
0
 30
0
  0
INSERT
  8
LAYER_2
  2
AIGNBL0201010C
 10
0
 20
0
 30
0
  0
INSERT
  8
LAYER_2
  2
AIGNBL0201010D
 10
0
 20
0
 30
0
  0
INSERT
  8
LAYER_2
  2
AIGNBL0201010E
 10
0
 20
0
 30
0
  0
INSERT
  8
LAYER_2
  2
AIGNBL0201010F
 10
0
 20
0
 30
0
  0
INSERT
  8
LAYER_2
  2
AIGNBL02010110
 10
0
 20
0
 30
0
  0
INSERT
  8
LAYER_2
  2
AIGNBL02010111
 10
0
 20
0
 30
0
  0
INSERT
  8
LAYER_2
  2
AIGNBL02010112
 10
0
 20
0
 30
0
  0
INSERT
  8
LAYER_2
  2
AIGNBL02010113
 10
0
 20
0
 30
0
  0
INSERT
  8
LAYER_2
  2
AIGNBL02010114
 10
0
 20
0
 30
0
  0
INSERT
  8
LAYER_2
  2
AIGNBL02010115
 10
0
 20
0
 30
0
  0
INSERT
  8
LAYER_2
  2
AIGNBL02010116
 10
0
 20
0
 30
0
  0
INSERT
  8
LAYER_2
  2
AIGNBL02010117
 10
0
 20
0
 30
0
  0
INSERT
  8
LAYER_2
  2
AIGNBL02010118
 10
0
 20
0
 30
0
  0
INSERT
  8
LAYER_2
  2
AIGNBL02010119
 10
0
 20
0
 30
0
  0
INSERT
  8
LAYER_2
  2
AIGNBL0201011A
 10
0
 20
0
 30
0
  0
INSERT
  8
LAYER_2
  2
AIGNBL0201011B
 10
0
 20
0
 30
0
  0
INSERT
  8
LAYER_2
  2
AIGNBL0201011C
 10
0
 20
0
 30
0
  0
INSERT
  8
LAYER_2
  2
AIGNBL0201011D
 10
0
 20
0
 30
0
  0
INSERT
  8
LAYER_2
  2
AIGNBL0201011E
 10
0
 20
0
 30
0
  0
INSERT
  8
LAYER_2
  2
AIGNBL0201011F
 10
0
 20
0
 30
0
  0
INSERT
  8
LAYER_2
  2
AIGNBL02010120
 10
0
 20
0
 30
0
  0
INSERT
  8
LAYER_2
  2
AIGNBL02010121
 10
0
 20
0
 30
0
  0
INSERT
  8
LAYER_2
  2
AIGNBL02010122
 10
0
 20
0
 30
0
  0
INSERT
  8
LAYER_2
  2
AIGNBL02010123
 10
0
 20
0
 30
0
  0
INSERT
  8
LAYER_2
  2
AIGNBL02010124
 10
0
 20
0
 30
0
  0
INSERT
  8
LAYER_2
  2
AIGNBL02010125
 10
0
 20
0
 30
0
  0
INSERT
  8
LAYER_2
  2
AIGNBL02010126
 10
0
 20
0
 30
0
  0
INSERT
  8
LAYER_2
  2
AIGNBL02010127
 10
0
 20
0
 30
0
  0
INSERT
  8
LAYER_2
  2
AIGNBL02010128
 10
0
 20
0
 30
0
  0
INSERT
  8
LAYER_2
  2
AIGNBL02010129
 10
0
 20
0
 30
0
  0
INSERT
  8
LAYER_2
  2
AIGNBL0201012A
 10
0
 20
0
 30
0
  0
INSERT
  8
LAYER_2
  2
AIGNBL0201012B
 10
0
 20
0
 30
0
  0
INSERT
  8
LAYER_2
  2
AIGNBL0201012C
 10
0
 20
0
 30
0
  0
INSERT
  8
LAYER_2
  2
AIGNBL0201012D
 10
0
 20
0
 30
0
  0
INSERT
  8
LAYER_2
  2
AIGNBL0201012E
 10
0
 20
0
 30
0
  0
INSERT
  8
LAYER_2
  2
AIGNBL0201012F
 10
0
 20
0
 30
0
  0
INSERT
  8
LAYER_2
  2
AIGNBL02010130
 10
0
 20
0
 30
0
  0
INSERT
  8
LAYER_2
  2
AIGNBL02010131
 10
0
 20
0
 30
0
  0
INSERT
  8
LAYER_2
  2
AIGNBL02010132
 10
0
 20
0
 30
0
  0
INSERT
  8
LAYER_2
  2
AIGNBL02010133
 10
0
 20
0
 30
0
  0
INSERT
  8
LAYER_2
  2
AIGNBL02010134
 10
0
 20
0
 30
0
  0
INSERT
  8
LAYER_2
  2
AIGNBL02010135
 10
0
 20
0
 30
0
  0
INSERT
  8
LAYER_2
  2
AIGNBL02010136
 10
0
 20
0
 30
0
  0
INSERT
  8
LAYER_2
  2
AIGNBL02010137
 10
0
 20
0
 30
0
  0
INSERT
  8
LAYER_2
  2
AIGNBL02010138
 10
0
 20
0
 30
0
  0
INSERT
  8
LAYER_2
  2
AIGNBL02010139
 10
0
 20
0
 30
0
  0
INSERT
  8
LAYER_2
  2
AIGNBL0201013A
 10
0
 20
0
 30
0
  0
INSERT
  8
LAYER_2
  2
AIGNBL0201013B
 10
0
 20
0
 30
0
  0
INSERT
  8
LAYER_2
  2
AIGNBL0201013C
 10
0
 20
0
 30
0
  0
INSERT
  8
LAYER_2
  2
AIGNBL0201013D
 10
0
 20
0
 30
0
  0
INSERT
  8
LAYER_2
  2
AIGNBL0201013E
 10
0
 20
0
 30
0
  0
INSERT
  8
LAYER_2
  2
AIGNBL0201013F
 10
0
 20
0
 30
0
  0
INSERT
  8
LAYER_2
  2
AIGNBL02010140
 10
0
 20
0
 30
0
  0
INSERT
  8
LAYER_2
  2
AIGNBL02010141
 10
0
 20
0
 30
0
  0
INSERT
  8
LAYER_2
  2
AIGNBL02010142
 10
0
 20
0
 30
0
  0
INSERT
  8
LAYER_2
  2
AIGNBL02010143
 10
0
 20
0
 30
0
  0
INSERT
  8
LAYER_2
  2
AIGNBL02010144
 10
0
 20
0
 30
0
  0
INSERT
  8
LAYER_2
  2
AIGNBL02010145
 10
0
 20
0
 30
0
  0
INSERT
  8
LAYER_2
  2
AIGNBL02010146
 10
0
 20
0
 30
0
  0
INSERT
  8
LAYER_2
  2
AIGNBL02010147
 10
0
 20
0
 30
0
  0
INSERT
  8
LAYER_2
  2
AIGNBL02010148
 10
0
 20
0
 30
0
  0
INSERT
  8
LAYER_2
  2
AIGNBL02010149
 10
0
 20
0
 30
0
  0
INSERT
  8
LAYER_2
  2
AIGNBL0201014A
 10
0
 20
0
 30
0
  0
INSERT
  8
LAYER_2
  2
AIGNBL0201014B
 10
0
 20
0
 30
0
  0
INSERT
  8
LAYER_2
  2
AIGNBL0201014C
 10
0
 20
0
 30
0
  0
INSERT
  8
LAYER_2
  2
AIGNBL0201014D
 10
0
 20
0
 30
0
  0
INSERT
  8
LAYER_2
  2
AIGNBL0201014E
 10
0
 20
0
 30
0
  0
INSERT
  8
LAYER_2
  2
AIGNBL0201014F
 10
0
 20
0
 30
0
  0
INSERT
  8
LAYER_2
  2
AIGNBL02010150
 10
0
 20
0
 30
0
  0
INSERT
  8
LAYER_2
  2
AIGNBL02010151
 10
0
 20
0
 30
0
  0
INSERT
  8
LAYER_2
  2
AIGNBL02010152
 10
0
 20
0
 30
0
  0
INSERT
  8
LAYER_2
  2
AIGNBL02010153
 10
0
 20
0
 30
0
  0
INSERT
  8
LAYER_2
  2
AIGNBL02010154
 10
0
 20
0
 30
0
  0
INSERT
  8
LAYER_2
  2
AIGNBL02010155
 10
0
 20
0
 30
0
  0
INSERT
  8
LAYER_2
  2
AIGNBL02010156
 10
0
 20
0
 30
0
  0
INSERT
  8
LAYER_2
  2
AIGNBL02010157
 10
0
 20
0
 30
0
  0
INSERT
  8
LAYER_2
  2
AIGNBL02010158
 10
0
 20
0
 30
0
  0
INSERT
  8
LAYER_2
  2
AIGNBL02010159
 10
0
 20
0
 30
0
  0
INSERT
  8
LAYER_2
  2
AIGNBL0201015A
 10
0
 20
0
 30
0
  0
INSERT
  8
LAYER_2
  2
AIGNBL0201015B
 10
0
 20
0
 30
0
  0
INSERT
  8
LAYER_2
  2
AIGNBL0201015C
 10
0
 20
0
 30
0
  0
INSERT
  8
LAYER_2
  2
AIGNBL0201015D
 10
0
 20
0
 30
0
  0
INSERT
  8
LAYER_2
  2
AIGNBL0201015E
 10
0
 20
0
 30
0
  0
INSERT
  8
LAYER_2
  2
AIGNBL0201015F
 10
0
 20
0
 30
0
  0
INSERT
  8
LAYER_2
  2
AIGNBL02010160
 10
0
 20
0
 30
0
  0
INSERT
  8
LAYER_2
  2
AIGNBL02010161
 10
0
 20
0
 30
0
  0
INSERT
  8
LAYER_2
  2
AIGNBL02010162
 10
0
 20
0
 30
0
  0
INSERT
  8
LAYER_2
  2
AIGNBL02010163
 10
0
 20
0
 30
0
  0
INSERT
  8
LAYER_2
  2
AIGNBL02010164
 10
0
 20
0
 30
0
  0
INSERT
  8
LAYER_2
  2
AIGNBL02010165
 10
0
 20
0
 30
0
  0
INSERT
  8
LAYER_2
  2
AIGNBL02010166
 10
0
 20
0
 30
0
  0
INSERT
  8
LAYER_2
  2
AIGNBL02010167
 10
0
 20
0
 30
0
  0
INSERT
  8
LAYER_2
  2
AIGNBL02010168
 10
0
 20
0
 30
0
  0
INSERT
  8
LAYER_2
  2
AIGNBL02010169
 10
0
 20
0
 30
0
  0
INSERT
  8
LAYER_2
  2
AIGNBL0201016A
 10
0
 20
0
 30
0
  0
INSERT
  8
LAYER_2
  2
AIGNBL0201016B
 10
0
 20
0
 30
0
  0
INSERT
  8
LAYER_2
  2
AIGNBL0201016C
 10
0
 20
0
 30
0
  0
INSERT
  8
LAYER_2
  2
AIGNBL0201016D
 10
0
 20
0
 30
0
  0
INSERT
  8
LAYER_2
  2
AIGNBL0201016E
 10
0
 20
0
 30
0
  0
INSERT
  8
LAYER_2
  2
AIGNBL0201016F
 10
0
 20
0
 30
0
  0
INSERT
  8
LAYER_2
  2
AIGNBL02010170
 10
0
 20
0
 30
0
  0
INSERT
  8
LAYER_2
  2
AIGNBL02010171
 10
0
 20
0
 30
0
  0
INSERT
  8
LAYER_2
  2
AIGNBL02010172
 10
0
 20
0
 30
0
  0
INSERT
  8
LAYER_2
  2
AIGNBL02010173
 10
0
 20
0
 30
0
  0
INSERT
  8
LAYER_2
  2
AIGNBL02010174
 10
0
 20
0
 30
0
  0
INSERT
  8
LAYER_2
  2
AIGNBL02010175
 10
0
 20
0
 30
0
  0
INSERT
  8
LAYER_2
  2
AIGNBL02010176
 10
0
 20
0
 30
0
  0
INSERT
  8
LAYER_2
  2
AIGNBL02010177
 10
0
 20
0
 30
0
  0
INSERT
  8
LAYER_2
  2
AIGNBL02010178
 10
0
 20
0
 30
0
  0
INSERT
  8
LAYER_2
  2
AIGNBL02010179
 10
0
 20
0
 30
0
  0
INSERT
  8
LAYER_2
  2
AIGNBL0201017A
 10
0
 20
0
 30
0
  0
INSERT
  8
LAYER_2
  2
AIGNBL0201017B
 10
0
 20
0
 30
0
  0
INSERT
  8
LAYER_2
  2
AIGNBL0201017C
 10
0
 20
0
 30
0
  0
INSERT
  8
LAYER_2
  2
AIGNBL0201017D
 10
0
 20
0
 30
0
  0
INSERT
  8
LAYER_2
  2
AIGNBL0201017E
 10
0
 20
0
 30
0
  0
INSERT
  8
LAYER_2
  2
AIGNBL0201017F
 10
0
 20
0
 30
0
  0
INSERT
  8
LAYER_2
  2
AIGNBL02010180
 10
0
 20
0
 30
0
  0
INSERT
  8
LAYER_2
  2
AIGNBL02010181
 10
0
 20
0
 30
0
  0
INSERT
  8
LAYER_2
  2
AIGNBL02010182
 10
0
 20
0
 30
0
  0
INSERT
  8
LAYER_2
  2
AIGNBL02010183
 10
0
 20
0
 30
0
  0
INSERT
  8
LAYER_2
  2
AIGNBL02010184
 10
0
 20
0
 30
0
  0
INSERT
  8
LAYER_2
  2
AIGNBL02010185
 10
0
 20
0
 30
0
  0
INSERT
  8
LAYER_2
  2
AIGNBL02010186
 10
0
 20
0
 30
0
  0
INSERT
  8
LAYER_2
  2
AIGNBL02010187
 10
0
 20
0
 30
0
  0
INSERT
  8
LAYER_2
  2
AIGNBL02010188
 10
0
 20
0
 30
0
  0
INSERT
  8
LAYER_2
  2
AIGNBL02010189
 10
0
 20
0
 30
0
  0
INSERT
  8
LAYER_2
  2
AIGNBL0201018A
 10
0
 20
0
 30
0
  0
INSERT
  8
LAYER_2
  2
AIGNBL0201018B
 10
0
 20
0
 30
0
  0
INSERT
  8
LAYER_2
  2
AIGNBL0201018C
 10
0
 20
0
 30
0
  0
INSERT
  8
LAYER_2
  2
AIGNBL0201018D
 10
0
 20
0
 30
0
  0
INSERT
  8
LAYER_2
  2
AIGNBL0201018E
 10
0
 20
0
 30
0
  0
INSERT
  8
LAYER_2
  2
AIGNBL0201018F
 10
0
 20
0
 30
0
  0
INSERT
  8
LAYER_2
  2
AIGNBL02010190
 10
0
 20
0
 30
0
  0
INSERT
  8
LAYER_2
  2
AIGNBL02010191
 10
0
 20
0
 30
0
  0
INSERT
  8
LAYER_2
  2
AIGNBL02010192
 10
0
 20
0
 30
0
  0
INSERT
  8
LAYER_2
  2
AIGNBL02010193
 10
0
 20
0
 30
0
  0
INSERT
  8
LAYER_2
  2
AIGNBL02010194
 10
0
 20
0
 30
0
  0
INSERT
  8
LAYER_2
  2
AIGNBL02010195
 10
0
 20
0
 30
0
  0
INSERT
  8
LAYER_2
  2
AIGNBL02010196
 10
0
 20
0
 30
0
  0
INSERT
  8
LAYER_2
  2
AIGNBL02010197
 10
0
 20
0
 30
0
  0
INSERT
  8
LAYER_2
  2
AIGNBL02010198
 10
0
 20
0
 30
0
  0
INSERT
  8
LAYER_2
  2
AIGNBL02010199
 10
0
 20
0
 30
0
  0
INSERT
  8
LAYER_2
  2
AIGNBL0201019A
 10
0
 20
0
 30
0
  0
INSERT
  8
LAYER_2
  2
AIGNBL0201019B
 10
0
 20
0
 30
0
  0
INSERT
  8
LAYER_2
  2
AIGNBL0201019C
 10
0
 20
0
 30
0
  0
INSERT
  8
LAYER_2
  2
AIGNBL0201019D
 10
0
 20
0
 30
0
  0
INSERT
  8
LAYER_2
  2
AIGNBL0201019E
 10
0
 20
0
 30
0
  0
INSERT
  8
LAYER_2
  2
AIGNBL0201019F
 10
0
 20
0
 30
0
  0
INSERT
  8
LAYER_2
  2
AIGNBL020101A0
 10
0
 20
0
 30
0
  0
INSERT
  8
LAYER_2
  2
AIGNBL020101A1
 10
0
 20
0
 30
0
  0
INSERT
  8
LAYER_2
  2
AIGNBL020101A2
 10
0
 20
0
 30
0
  0
INSERT
  8
LAYER_2
  2
AIGNBL020101A3
 10
0
 20
0
 30
0
  0
INSERT
  8
LAYER_2
  2
AIGNBL020101A4
 10
0
 20
0
 30
0
  0
INSERT
  8
LAYER_2
  2
AIGNBL020101A5
 10
0
 20
0
 30
0
  0
INSERT
  8
LAYER_2
  2
AIGNBL020101A6
 10
0
 20
0
 30
0
  0
INSERT
  8
LAYER_2
  2
AIGNBL020101A7
 10
0
 20
0
 30
0
  0
INSERT
  8
LAYER_2
  2
AIGNBL020101A8
 10
0
 20
0
 30
0
  0
INSERT
  8
LAYER_2
  2
AIGNBL020101A9
 10
0
 20
0
 30
0
  0
INSERT
  8
LAYER_2
  2
AIGNBL020101AA
 10
0
 20
0
 30
0
  0
INSERT
  8
LAYER_2
  2
AIGNBL020101AB
 10
0
 20
0
 30
0
  0
INSERT
  8
LAYER_2
  2
AIGNBL020101AC
 10
0
 20
0
 30
0
  0
INSERT
  8
LAYER_2
  2
AIGNBL020101AD
 10
0
 20
0
 30
0
  0
INSERT
  8
LAYER_2
  2
AIGNBL020101AE
 10
0
 20
0
 30
0
  0
INSERT
  8
LAYER_2
  2
AIGNBL020101AF
 10
0
 20
0
 30
0
  0
INSERT
  8
LAYER_2
  2
AIGNBL020101B0
 10
0
 20
0
 30
0
  0
INSERT
  8
LAYER_2
  2
AIGNBL020101B1
 10
0
 20
0
 30
0
  0
INSERT
  8
LAYER_2
  2
AIGNBL020101B2
 10
0
 20
0
 30
0
  0
INSERT
  8
LAYER_2
  2
AIGNBL020101B3
 10
0
 20
0
 30
0
  0
INSERT
  8
LAYER_2
  2
AIGNBL020101B4
 10
0
 20
0
 30
0
  0
INSERT
  8
LAYER_2
  2
AIGNBL020101B5
 10
0
 20
0
 30
0
  0
INSERT
  8
LAYER_2
  2
AIGNBL020101B6
 10
0
 20
0
 30
0
  0
INSERT
  8
LAYER_2
  2
AIGNBL020101B7
 10
0
 20
0
 30
0
  0
INSERT
  8
LAYER_2
  2
AIGNBL020101B8
 10
0
 20
0
 30
0
  0
INSERT
  8
LAYER_2
  2
AIGNBL020101B9
 10
0
 20
0
 30
0
  0
INSERT
  8
LAYER_2
  2
AIGNBL020101BA
 10
0
 20
0
 30
0
  0
INSERT
  8
LAYER_2
  2
AIGNBL020101BB
 10
0
 20
0
 30
0
  0
INSERT
  8
LAYER_2
  2
AIGNBL020101BC
 10
0
 20
0
 30
0
  0
INSERT
  8
LAYER_2
  2
AIGNBL020101BD
 10
0
 20
0
 30
0
  0
INSERT
  8
LAYER_2
  2
AIGNBL020101BE
 10
0
 20
0
 30
0
  0
INSERT
  8
LAYER_2
  2
AIGNBL020101BF
 10
0
 20
0
 30
0
  0
INSERT
  8
LAYER_2
  2
AIGNBL020101C0
 10
0
 20
0
 30
0
  0
INSERT
  8
LAYER_2
  2
AIGNBL020101C1
 10
0
 20
0
 30
0
  0
INSERT
  8
LAYER_2
  2
AIGNBL020101C2
 10
0
 20
0
 30
0
  0
INSERT
  8
LAYER_2
  2
AIGNBL020101C3
 10
0
 20
0
 30
0
  0
INSERT
  8
LAYER_2
  2
AIGNBL020101C4
 10
0
 20
0
 30
0
  0
INSERT
  8
LAYER_2
  2
AIGNBL020101C5
 10
0
 20
0
 30
0
  0
INSERT
  8
LAYER_2
  2
AIGNBL020101C6
 10
0
 20
0
 30
0
  0
INSERT
  8
LAYER_2
  2
AIGNBL020101C7
 10
0
 20
0
 30
0
  0
INSERT
  8
LAYER_2
  2
AIGNBL020101C8
 10
0
 20
0
 30
0
  0
INSERT
  8
LAYER_2
  2
AIGNBL020101C9
 10
0
 20
0
 30
0
  0
INSERT
  8
LAYER_2
  2
AIGNBL020101CA
 10
0
 20
0
 30
0
  0
INSERT
  8
LAYER_2
  2
AIGNBL020101CB
 10
0
 20
0
 30
0
  0
INSERT
  8
LAYER_2
  2
AIGNBL020101CC
 10
0
 20
0
 30
0
  0
INSERT
  8
LAYER_2
  2
AIGNBL020101CD
 10
0
 20
0
 30
0
  0
INSERT
  8
LAYER_2
  2
AIGNBL020101CE
 10
0
 20
0
 30
0
  0
INSERT
  8
LAYER_2
  2
AIGNBL020101CF
 10
0
 20
0
 30
0
  0
INSERT
  8
LAYER_2
  2
AIGNBL020101D0
 10
0
 20
0
 30
0
  0
INSERT
  8
LAYER_2
  2
AIGNBL020101D1
 10
0
 20
0
 30
0
  0
INSERT
  8
LAYER_2
  2
AIGNBL020101D2
 10
0
 20
0
 30
0
  0
INSERT
  8
LAYER_2
  2
AIGNBL020101D3
 10
0
 20
0
 30
0
  0
INSERT
  8
LAYER_2
  2
AIGNBL020101D4
 10
0
 20
0
 30
0
  0
INSERT
  8
LAYER_2
  2
AIGNBL020101D5
 10
0
 20
0
 30
0
  0
INSERT
  8
LAYER_2
  2
AIGNBL020101D6
 10
0
 20
0
 30
0
  0
INSERT
  8
LAYER_2
  2
AIGNBL020101D7
 10
0
 20
0
 30
0
  0
INSERT
  8
LAYER_2
  2
AIGNBL020101D8
 10
0
 20
0
 30
0
  0
INSERT
  8
LAYER_2
  2
AIGNBL020101D9
 10
0
 20
0
 30
0
  0
INSERT
  8
LAYER_2
  2
AIGNBL020101DA
 10
0
 20
0
 30
0
  0
INSERT
  8
LAYER_2
  2
AIGNBL020101DB
 10
0
 20
0
 30
0
  0
INSERT
  8
LAYER_2
  2
AIGNBL020101DC
 10
0
 20
0
 30
0
  0
INSERT
  8
LAYER_2
  2
AIGNBL020101DD
 10
0
 20
0
 30
0
  0
INSERT
  8
LAYER_2
  2
AIGNBL020101DE
 10
0
 20
0
 30
0
  0
INSERT
  8
LAYER_2
  2
AIGNBL020101DF
 10
0
 20
0
 30
0
  0
INSERT
  8
LAYER_2
  2
AIGNBL020101E0
 10
0
 20
0
 30
0
  0
INSERT
  8
LAYER_2
  2
AIGNBL020101E1
 10
0
 20
0
 30
0
  0
INSERT
  8
LAYER_2
  2
AIGNBL020101E2
 10
0
 20
0
 30
0
  0
INSERT
  8
LAYER_2
  2
AIGNBL020101E3
 10
0
 20
0
 30
0
  0
INSERT
  8
LAYER_2
  2
AIGNBL020101E4
 10
0
 20
0
 30
0
  0
INSERT
  8
LAYER_2
  2
AIGNBL020101E5
 10
0
 20
0
 30
0
  0
INSERT
  8
LAYER_2
  2
AIGNBL020101E6
 10
0
 20
0
 30
0
  0
INSERT
  8
LAYER_2
  2
AIGNBL020101E7
 10
0
 20
0
 30
0
  0
INSERT
  8
LAYER_2
  2
AIGNBL020101E8
 10
0
 20
0
 30
0
  0
INSERT
  8
LAYER_2
  2
AIGNBL020101E9
 10
0
 20
0
 30
0
  0
INSERT
  8
LAYER_2
  2
AIGNBL020101EA
 10
0
 20
0
 30
0
  0
INSERT
  8
LAYER_2
  2
AIGNBL020101EB
 10
0
 20
0
 30
0
  0
INSERT
  8
LAYER_2
  2
AIGNBL020101EC
 10
0
 20
0
 30
0
  0
INSERT
  8
LAYER_2
  2
AIGNBL020101ED
 10
0
 20
0
 30
0
  0
INSERT
  8
LAYER_2
  2
AIGNBL020101EE
 10
0
 20
0
 30
0
  0
INSERT
  8
LAYER_2
  2
AIGNBL020101EF
 10
0
 20
0
 30
0
  0
INSERT
  8
LAYER_2
  2
AIGNBL020101F0
 10
0
 20
0
 30
0
  0
INSERT
  8
LAYER_2
  2
AIGNBL020101F1
 10
0
 20
0
 30
0
  0
INSERT
  8
LAYER_2
  2
AIGNBL020101F2
 10
0
 20
0
 30
0
  0
INSERT
  8
LAYER_2
  2
AIGNBL020101F3
 10
0
 20
0
 30
0
  0
INSERT
  8
LAYER_2
  2
AIGNBL020101F4
 10
0
 20
0
 30
0
  0
INSERT
  8
LAYER_2
  2
AIGNBL020101F5
 10
0
 20
0
 30
0
  0
INSERT
  8
LAYER_2
  2
AIGNBL020101F6
 10
0
 20
0
 30
0
  0
INSERT
  8
LAYER_2
  2
AIGNBL020101F7
 10
0
 20
0
 30
0
  0
INSERT
  8
LAYER_2
  2
AIGNBL020101F8
 10
0
 20
0
 30
0
  0
INSERT
  8
LAYER_2
  2
AIGNBL020101F9
 10
0
 20
0
 30
0
  0
INSERT
  8
LAYER_2
  2
AIGNBL020101FA
 10
0
 20
0
 30
0
  0
INSERT
  8
LAYER_2
  2
AIGNBL020101FB
 10
0
 20
0
 30
0
  0
INSERT
  8
LAYER_2
  2
AIGNBL020101FC
 10
0
 20
0
 30
0
  0
INSERT
  8
LAYER_2
  2
AIGNBL020101FD
 10
0
 20
0
 30
0
  0
INSERT
  8
LAYER_2
  2
AIGNBL020101FE
 10
0
 20
0
 30
0
  0
INSERT
  8
LAYER_2
  2
AIGNBL020101FF
 10
0
 20
0
 30
0
  0
INSERT
  8
LAYER_2
  2
AIGNBL02010200
 10
0
 20
0
 30
0
  0
INSERT
  8
LAYER_2
  2
AIGNBL02010201
 10
0
 20
0
 30
0
  0
INSERT
  8
LAYER_2
  2
AIGNBL02010202
 10
0
 20
0
 30
0
  0
INSERT
  8
LAYER_2
  2
AIGNBL02010203
 10
0
 20
0
 30
0
  0
INSERT
  8
LAYER_2
  2
AIGNBL02010204
 10
0
 20
0
 30
0
  0
INSERT
  8
LAYER_2
  2
AIGNBL02010205
 10
0
 20
0
 30
0
  0
INSERT
  8
LAYER_2
  2
AIGNBL02010206
 10
0
 20
0
 30
0
  0
INSERT
  8
LAYER_2
  2
AIGNBL02010207
 10
0
 20
0
 30
0
  0
INSERT
  8
LAYER_2
  2
AIGNBL02010208
 10
0
 20
0
 30
0
  0
INSERT
  8
LAYER_2
  2
AIGNBL02010209
 10
0
 20
0
 30
0
  0
INSERT
  8
LAYER_2
  2
AIGNBL0201020A
 10
0
 20
0
 30
0
  0
INSERT
  8
LAYER_2
  2
AIGNBL0201020B
 10
0
 20
0
 30
0
  0
INSERT
  8
LAYER_2
  2
AIGNBL0201020C
 10
0
 20
0
 30
0
  0
INSERT
  8
LAYER_2
  2
AIGNBL0201020D
 10
0
 20
0
 30
0
  0
INSERT
  8
LAYER_2
  2
AIGNBL0201020E
 10
0
 20
0
 30
0
  0
INSERT
  8
LAYER_2
  2
AIGNBL0201020F
 10
0
 20
0
 30
0
  0
INSERT
  8
LAYER_2
  2
AIGNBL02010210
 10
0
 20
0
 30
0
  0
INSERT
  8
LAYER_2
  2
AIGNBL02010211
 10
0
 20
0
 30
0
  0
INSERT
  8
LAYER_2
  2
AIGNBL02010212
 10
0
 20
0
 30
0
  0
INSERT
  8
LAYER_2
  2
AIGNBL02010213
 10
0
 20
0
 30
0
  0
INSERT
  8
LAYER_2
  2
AIGNBL02010214
 10
0
 20
0
 30
0
  0
INSERT
  8
LAYER_2
  2
AIGNBL02010215
 10
0
 20
0
 30
0
  0
INSERT
  8
LAYER_2
  2
AIGNBL02010216
 10
0
 20
0
 30
0
  0
INSERT
  8
LAYER_2
  2
AIGNBL02010217
 10
0
 20
0
 30
0
  0
INSERT
  8
LAYER_2
  2
AIGNBL02010218
 10
0
 20
0
 30
0
  0
INSERT
  8
LAYER_2
  2
AIGNBL02010219
 10
0
 20
0
 30
0
  0
INSERT
  8
LAYER_2
  2
AIGNBL0201021A
 10
0
 20
0
 30
0
  0
INSERT
  8
LAYER_2
  2
AIGNBL0201021B
 10
0
 20
0
 30
0
  0
INSERT
  8
LAYER_2
  2
AIGNBL0201021C
 10
0
 20
0
 30
0
  0
INSERT
  8
LAYER_2
  2
AIGNBL0201021D
 10
0
 20
0
 30
0
  0
INSERT
  8
LAYER_2
  2
AIGNBL0201021E
 10
0
 20
0
 30
0
  0
INSERT
  8
LAYER_2
  2
AIGNBL0201021F
 10
0
 20
0
 30
0
  0
INSERT
  8
LAYER_2
  2
AIGNBL02010220
 10
0
 20
0
 30
0
  0
INSERT
  8
LAYER_2
  2
AIGNBL02010221
 10
0
 20
0
 30
0
  0
INSERT
  8
LAYER_2
  2
AIGNBL02010222
 10
0
 20
0
 30
0
  0
INSERT
  8
LAYER_2
  2
AIGNBL02010223
 10
0
 20
0
 30
0
  0
INSERT
  8
LAYER_2
  2
AIGNBL02010224
 10
0
 20
0
 30
0
  0
INSERT
  8
LAYER_2
  2
AIGNBL02010225
 10
0
 20
0
 30
0
  0
INSERT
  8
LAYER_2
  2
AIGNBL02010226
 10
0
 20
0
 30
0
  0
INSERT
  8
LAYER_2
  2
AIGNBL02010227
 10
0
 20
0
 30
0
  0
INSERT
  8
LAYER_2
  2
AIGNBL02010228
 10
0
 20
0
 30
0
  0
INSERT
  8
LAYER_2
  2
AIGNBL02010229
 10
0
 20
0
 30
0
  0
INSERT
  8
LAYER_2
  2
AIGNBL0201022A
 10
0
 20
0
 30
0
  0
INSERT
  8
LAYER_2
  2
AIGNBL0201022B
 10
0
 20
0
 30
0
  0
INSERT
  8
LAYER_2
  2
AIGNBL0201022C
 10
0
 20
0
 30
0
  0
INSERT
  8
LAYER_2
  2
AIGNBL0201022D
 10
0
 20
0
 30
0
  0
INSERT
  8
LAYER_2
  2
AIGNBL0201022E
 10
0
 20
0
 30
0
  0
INSERT
  8
LAYER_2
  2
AIGNBL0201022F
 10
0
 20
0
 30
0
  0
INSERT
  8
LAYER_2
  2
AIGNBL02010230
 10
0
 20
0
 30
0
  0
INSERT
  8
LAYER_2
  2
AIGNBL02010231
 10
0
 20
0
 30
0
  0
INSERT
  8
LAYER_2
  2
AIGNBL02010232
 10
0
 20
0
 30
0
  0
INSERT
  8
LAYER_2
  2
AIGNBL02010233
 10
0
 20
0
 30
0
  0
INSERT
  8
LAYER_2
  2
AIGNBL02010234
 10
0
 20
0
 30
0
  0
INSERT
  8
LAYER_2
  2
AIGNBL02010235
 10
0
 20
0
 30
0
  0
INSERT
  8
LAYER_2
  2
AIGNBL02010236
 10
0
 20
0
 30
0
  0
INSERT
  8
LAYER_2
  2
AIGNBL02010237
 10
0
 20
0
 30
0
  0
INSERT
  8
LAYER_2
  2
AIGNBL02010238
 10
0
 20
0
 30
0
  0
INSERT
  8
LAYER_2
  2
AIGNBL02010239
 10
0
 20
0
 30
0
  0
INSERT
  8
LAYER_2
  2
AIGNBL0201023A
 10
0
 20
0
 30
0
  0
INSERT
  8
LAYER_2
  2
AIGNBL0201023B
 10
0
 20
0
 30
0
  0
INSERT
  8
LAYER_2
  2
AIGNBL0201023C
 10
0
 20
0
 30
0
  0
INSERT
  8
LAYER_2
  2
AIGNBL0201023D
 10
0
 20
0
 30
0
  0
INSERT
  8
LAYER_2
  2
AIGNBL0201023E
 10
0
 20
0
 30
0
  0
INSERT
  8
LAYER_2
  2
AIGNBL0201023F
 10
0
 20
0
 30
0
  0
INSERT
  8
LAYER_2
  2
AIGNBL02010240
 10
0
 20
0
 30
0
  0
INSERT
  8
LAYER_2
  2
AIGNBL02010241
 10
0
 20
0
 30
0
  0
INSERT
  8
LAYER_2
  2
AIGNBL02010242
 10
0
 20
0
 30
0
  0
INSERT
  8
LAYER_2
  2
AIGNBL02010243
 10
0
 20
0
 30
0
  0
INSERT
  8
LAYER_2
  2
AIGNBL02010244
 10
0
 20
0
 30
0
  0
INSERT
  8
LAYER_2
  2
AIGNBL02010245
 10
0
 20
0
 30
0
  0
INSERT
  8
LAYER_2
  2
AIGNBL02010246
 10
0
 20
0
 30
0
  0
INSERT
  8
LAYER_2
  2
AIGNBL02010247
 10
0
 20
0
 30
0
  0
INSERT
  8
LAYER_2
  2
AIGNBL02010248
 10
0
 20
0
 30
0
  0
INSERT
  8
LAYER_2
  2
AIGNBL02010249
 10
0
 20
0
 30
0
  0
INSERT
  8
LAYER_2
  2
AIGNBL0201024A
 10
0
 20
0
 30
0
  0
INSERT
  8
LAYER_2
  2
AIGNBL0201024B
 10
0
 20
0
 30
0
  0
INSERT
  8
LAYER_2
  2
AIGNBL0201024C
 10
0
 20
0
 30
0
  0
INSERT
  8
LAYER_2
  2
AIGNBL0201024D
 10
0
 20
0
 30
0
  0
INSERT
  8
LAYER_2
  2
AIGNBL0201024E
 10
0
 20
0
 30
0
  0
INSERT
  8
LAYER_2
  2
AIGNBL0201024F
 10
0
 20
0
 30
0
  0
INSERT
  8
LAYER_2
  2
AIGNBL02010250
 10
0
 20
0
 30
0
  0
INSERT
  8
LAYER_2
  2
AIGNBL02010251
 10
0
 20
0
 30
0
  0
INSERT
  8
LAYER_2
  2
AIGNBL02010252
 10
0
 20
0
 30
0
  0
INSERT
  8
LAYER_2
  2
AIGNBL02010253
 10
0
 20
0
 30
0
  0
INSERT
  8
LAYER_2
  2
AIGNBL02010254
 10
0
 20
0
 30
0
  0
INSERT
  8
LAYER_2
  2
AIGNBL02010255
 10
0
 20
0
 30
0
  0
INSERT
  8
LAYER_2
  2
AIGNBL02010256
 10
0
 20
0
 30
0
  0
INSERT
  8
LAYER_2
  2
AIGNBL02010257
 10
0
 20
0
 30
0
  0
INSERT
  8
LAYER_2
  2
AIGNBL02010258
 10
0
 20
0
 30
0
  0
INSERT
  8
LAYER_2
  2
AIGNBL02010259
 10
0
 20
0
 30
0
  0
INSERT
  8
LAYER_2
  2
AIGNBL0201025A
 10
0
 20
0
 30
0
  0
INSERT
  8
LAYER_2
  2
AIGNBL0201025B
 10
0
 20
0
 30
0
  0
INSERT
  8
LAYER_2
  2
AIGNBL0201025C
 10
0
 20
0
 30
0
  0
INSERT
  8
LAYER_2
  2
AIGNBL0201025D
 10
0
 20
0
 30
0
  0
INSERT
  8
LAYER_2
  2
AIGNBL0201025E
 10
0
 20
0
 30
0
  0
INSERT
  8
LAYER_2
  2
AIGNBL0201025F
 10
0
 20
0
 30
0
  0
INSERT
  8
LAYER_2
  2
AIGNBL02010260
 10
0
 20
0
 30
0
  0
INSERT
  8
LAYER_2
  2
AIGNBL02010261
 10
0
 20
0
 30
0
  0
INSERT
  8
LAYER_2
  2
AIGNBL02010262
 10
0
 20
0
 30
0
  0
INSERT
  8
LAYER_2
  2
AIGNBL02010263
 10
0
 20
0
 30
0
  0
INSERT
  8
LAYER_2
  2
AIGNBL02010264
 10
0
 20
0
 30
0
  0
INSERT
  8
LAYER_2
  2
AIGNBL02010265
 10
0
 20
0
 30
0
  0
INSERT
  8
LAYER_2
  2
AIGNBL02010266
 10
0
 20
0
 30
0
  0
INSERT
  8
LAYER_2
  2
AIGNBL02010267
 10
0
 20
0
 30
0
  0
INSERT
  8
LAYER_2
  2
AIGNBL02010268
 10
0
 20
0
 30
0
  0
INSERT
  8
LAYER_2
  2
AIGNBL02010269
 10
0
 20
0
 30
0
  0
INSERT
  8
LAYER_2
  2
AIGNBL0201026A
 10
0
 20
0
 30
0
  0
INSERT
  8
LAYER_2
  2
AIGNBL0201026B
 10
0
 20
0
 30
0
  0
INSERT
  8
LAYER_2
  2
AIGNBL0201026C
 10
0
 20
0
 30
0
  0
INSERT
  8
LAYER_2
  2
AIGNBL0201026D
 10
0
 20
0
 30
0
  0
INSERT
  8
LAYER_2
  2
AIGNBL0201026E
 10
0
 20
0
 30
0
  0
INSERT
  8
LAYER_2
  2
AIGNBL0201026F
 10
0
 20
0
 30
0
  0
INSERT
  8
LAYER_2
  2
AIGNBL02010270
 10
0
 20
0
 30
0
  0
INSERT
  8
LAYER_2
  2
AIGNBL02010271
 10
0
 20
0
 30
0
  0
INSERT
  8
LAYER_2
  2
AIGNBL02010272
 10
0
 20
0
 30
0
  0
INSERT
  8
LAYER_2
  2
AIGNBL02010273
 10
0
 20
0
 30
0
  0
INSERT
  8
LAYER_2
  2
AIGNBL02010274
 10
0
 20
0
 30
0
  0
INSERT
  8
LAYER_2
  2
AIGNBL02010275
 10
0
 20
0
 30
0
  0
INSERT
  8
LAYER_2
  2
AIGNBL02010276
 10
0
 20
0
 30
0
  0
INSERT
  8
LAYER_2
  2
AIGNBL02010277
 10
0
 20
0
 30
0
  0
INSERT
  8
LAYER_2
  2
AIGNBL02010278
 10
0
 20
0
 30
0
  0
INSERT
  8
LAYER_2
  2
AIGNBL02010279
 10
0
 20
0
 30
0
  0
INSERT
  8
LAYER_2
  2
AIGNBL0201027A
 10
0
 20
0
 30
0
  0
INSERT
  8
LAYER_2
  2
AIGNBL0201027B
 10
0
 20
0
 30
0
  0
INSERT
  8
LAYER_2
  2
AIGNBL0201027C
 10
0
 20
0
 30
0
  0
INSERT
  8
LAYER_2
  2
AIGNBL0201027D
 10
0
 20
0
 30
0
  0
INSERT
  8
LAYER_2
  2
AIGNBL0201027E
 10
0
 20
0
 30
0
  0
INSERT
  8
LAYER_2
  2
AIGNBL0201027F
 10
0
 20
0
 30
0
  0
INSERT
  8
LAYER_2
  2
AIGNBL02010280
 10
0
 20
0
 30
0
  0
INSERT
  8
LAYER_2
  2
AIGNBL02010281
 10
0
 20
0
 30
0
  0
INSERT
  8
LAYER_2
  2
AIGNBL02010282
 10
0
 20
0
 30
0
  0
INSERT
  8
LAYER_2
  2
AIGNBL02010283
 10
0
 20
0
 30
0
  0
INSERT
  8
LAYER_2
  2
AIGNBL02010284
 10
0
 20
0
 30
0
  0
INSERT
  8
LAYER_2
  2
AIGNBL02010285
 10
0
 20
0
 30
0
  0
INSERT
  8
LAYER_2
  2
AIGNBL02010286
 10
0
 20
0
 30
0
  0
INSERT
  8
LAYER_2
  2
AIGNBL02010287
 10
0
 20
0
 30
0
  0
INSERT
  8
LAYER_2
  2
AIGNBL02010288
 10
0
 20
0
 30
0
  0
INSERT
  8
LAYER_2
  2
AIGNBL02010289
 10
0
 20
0
 30
0
  0
INSERT
  8
LAYER_2
  2
AIGNBL0201028A
 10
0
 20
0
 30
0
  0
INSERT
  8
LAYER_2
  2
AIGNBL0201028B
 10
0
 20
0
 30
0
  0
INSERT
  8
LAYER_2
  2
AIGNBL0201028C
 10
0
 20
0
 30
0
  0
INSERT
  8
LAYER_2
  2
AIGNBL0201028D
 10
0
 20
0
 30
0
  0
INSERT
  8
LAYER_2
  2
AIGNBL0201028E
 10
0
 20
0
 30
0
  0
INSERT
  8
LAYER_2
  2
AIGNBL0201028F
 10
0
 20
0
 30
0
  0
INSERT
  8
LAYER_2
  2
AIGNBL02010290
 10
0
 20
0
 30
0
  0
INSERT
  8
LAYER_2
  2
AIGNBL02010291
 10
0
 20
0
 30
0
  0
INSERT
  8
LAYER_2
  2
AIGNBL02010292
 10
0
 20
0
 30
0
  0
INSERT
  8
LAYER_2
  2
AIGNBL02010293
 10
0
 20
0
 30
0
  0
INSERT
  8
LAYER_2
  2
AIGNBL02010294
 10
0
 20
0
 30
0
  0
INSERT
  8
LAYER_2
  2
AIGNBL02010295
 10
0
 20
0
 30
0
  0
INSERT
  8
LAYER_2
  2
AIGNBL02010296
 10
0
 20
0
 30
0
  0
INSERT
  8
LAYER_2
  2
AIGNBL02010297
 10
0
 20
0
 30
0
  0
INSERT
  8
LAYER_2
  2
AIGNBL02010298
 10
0
 20
0
 30
0
  0
INSERT
  8
LAYER_2
  2
AIGNBL02010299
 10
0
 20
0
 30
0
  0
INSERT
  8
LAYER_2
  2
AIGNBL0201029A
 10
0
 20
0
 30
0
  0
INSERT
  8
LAYER_2
  2
AIGNBL0201029B
 10
0
 20
0
 30
0
  0
INSERT
  8
LAYER_2
  2
AIGNBL0201029C
 10
0
 20
0
 30
0
  0
INSERT
  8
LAYER_2
  2
AIGNBL0201029D
 10
0
 20
0
 30
0
  0
INSERT
  8
LAYER_2
  2
AIGNBL0201029E
 10
0
 20
0
 30
0
  0
INSERT
  8
LAYER_2
  2
AIGNBL0201029F
 10
0
 20
0
 30
0
  0
INSERT
  8
LAYER_2
  2
AIGNBL020102A0
 10
0
 20
0
 30
0
  0
INSERT
  8
LAYER_2
  2
AIGNBL020102A1
 10
0
 20
0
 30
0
  0
INSERT
  8
LAYER_2
  2
AIGNBL020102A2
 10
0
 20
0
 30
0
  0
INSERT
  8
LAYER_2
  2
AIGNBL020102A3
 10
0
 20
0
 30
0
  0
INSERT
  8
LAYER_2
  2
AIGNBL020102A4
 10
0
 20
0
 30
0
  0
INSERT
  8
LAYER_2
  2
AIGNBL020102A5
 10
0
 20
0
 30
0
  0
INSERT
  8
LAYER_2
  2
AIGNBL020102A6
 10
0
 20
0
 30
0
  0
INSERT
  8
LAYER_2
  2
AIGNBL020102A7
 10
0
 20
0
 30
0
  0
INSERT
  8
LAYER_2
  2
AIGNBL020102A8
 10
0
 20
0
 30
0
  0
INSERT
  8
LAYER_2
  2
AIGNBL020102A9
 10
0
 20
0
 30
0
  0
INSERT
  8
LAYER_2
  2
AIGNBL020102AA
 10
0
 20
0
 30
0
  0
INSERT
  8
LAYER_2
  2
AIGNBL020102AB
 10
0
 20
0
 30
0
  0
INSERT
  8
LAYER_2
  2
AIGNBL020102AC
 10
0
 20
0
 30
0
  0
INSERT
  8
LAYER_2
  2
AIGNBL020102AD
 10
0
 20
0
 30
0
  0
INSERT
  8
LAYER_2
  2
AIGNBL020102AE
 10
0
 20
0
 30
0
  0
INSERT
  8
LAYER_2
  2
AIGNBL020102AF
 10
0
 20
0
 30
0
  0
INSERT
  8
LAYER_2
  2
AIGNBL020102B0
 10
0
 20
0
 30
0
  0
INSERT
  8
LAYER_2
  2
AIGNBL020102B1
 10
0
 20
0
 30
0
  0
INSERT
  8
LAYER_2
  2
AIGNBL020102B2
 10
0
 20
0
 30
0
  0
INSERT
  8
LAYER_2
  2
AIGNBL020102B3
 10
0
 20
0
 30
0
  0
INSERT
  8
LAYER_2
  2
AIGNBL020102B4
 10
0
 20
0
 30
0
  0
INSERT
  8
LAYER_2
  2
AIGNBL020102B5
 10
0
 20
0
 30
0
  0
INSERT
  8
LAYER_2
  2
AIGNBL020102B6
 10
0
 20
0
 30
0
  0
INSERT
  8
LAYER_2
  2
AIGNBL020102B7
 10
0
 20
0
 30
0
  0
INSERT
  8
LAYER_2
  2
AIGNBL020102B8
 10
0
 20
0
 30
0
  0
INSERT
  8
LAYER_2
  2
AIGNBL020102B9
 10
0
 20
0
 30
0
  0
INSERT
  8
LAYER_2
  2
AIGNBL020102BA
 10
0
 20
0
 30
0
  0
INSERT
  8
LAYER_2
  2
AIGNBL020102BB
 10
0
 20
0
 30
0
  0
INSERT
  8
LAYER_2
  2
AIGNBL020102BC
 10
0
 20
0
 30
0
  0
INSERT
  8
LAYER_2
  2
AIGNBL020102BD
 10
0
 20
0
 30
0
  0
INSERT
  8
LAYER_2
  2
AIGNBL020102BE
 10
0
 20
0
 30
0
  0
INSERT
  8
LAYER_2
  2
AIGNBL020102BF
 10
0
 20
0
 30
0
  0
INSERT
  8
LAYER_2
  2
AIGNBL020102C0
 10
0
 20
0
 30
0
  0
INSERT
  8
LAYER_2
  2
AIGNBL020102C1
 10
0
 20
0
 30
0
  0
INSERT
  8
LAYER_2
  2
AIGNBL020102C2
 10
0
 20
0
 30
0
  0
INSERT
  8
LAYER_2
  2
AIGNBL020102C3
 10
0
 20
0
 30
0
  0
INSERT
  8
LAYER_2
  2
AIGNBL020102C4
 10
0
 20
0
 30
0
  0
INSERT
  8
LAYER_2
  2
AIGNBL020102C5
 10
0
 20
0
 30
0
  0
INSERT
  8
LAYER_2
  2
AIGNBL020102C6
 10
0
 20
0
 30
0
  0
INSERT
  8
LAYER_2
  2
AIGNBL020102C7
 10
0
 20
0
 30
0
  0
INSERT
  8
LAYER_2
  2
AIGNBL020102C8
 10
0
 20
0
 30
0
  0
INSERT
  8
LAYER_2
  2
AIGNBL020102C9
 10
0
 20
0
 30
0
  0
INSERT
  8
LAYER_2
  2
AIGNBL020102CA
 10
0
 20
0
 30
0
  0
INSERT
  8
LAYER_2
  2
AIGNBL020102CB
 10
0
 20
0
 30
0
  0
INSERT
  8
LAYER_2
  2
AIGNBL020102CC
 10
0
 20
0
 30
0
  0
INSERT
  8
LAYER_2
  2
AIGNBL020102CD
 10
0
 20
0
 30
0
  0
INSERT
  8
LAYER_2
  2
AIGNBL020102CE
 10
0
 20
0
 30
0
  0
INSERT
  8
LAYER_2
  2
AIGNBL020102CF
 10
0
 20
0
 30
0
  0
INSERT
  8
LAYER_2
  2
AIGNBL020102D0
 10
0
 20
0
 30
0
  0
INSERT
  8
LAYER_2
  2
AIGNBL020102D1
 10
0
 20
0
 30
0
  0
INSERT
  8
LAYER_2
  2
AIGNBL020102D2
 10
0
 20
0
 30
0
  0
INSERT
  8
LAYER_2
  2
AIGNBL020102D3
 10
0
 20
0
 30
0
  0
INSERT
  8
LAYER_2
  2
AIGNBL020102D4
 10
0
 20
0
 30
0
  0
INSERT
  8
LAYER_2
  2
AIGNBL020102D5
 10
0
 20
0
 30
0
  0
INSERT
  8
LAYER_2
  2
AIGNBL020102D6
 10
0
 20
0
 30
0
  0
INSERT
  8
LAYER_2
  2
AIGNBL020102D7
 10
0
 20
0
 30
0
  0
INSERT
  8
LAYER_2
  2
AIGNBL020102D8
 10
0
 20
0
 30
0
  0
INSERT
  8
LAYER_2
  2
AIGNBL020102D9
 10
0
 20
0
 30
0
  0
INSERT
  8
LAYER_2
  2
AIGNBL020102DA
 10
0
 20
0
 30
0
  0
INSERT
  8
LAYER_2
  2
AIGNBL020102DB
 10
0
 20
0
 30
0
  0
INSERT
  8
LAYER_2
  2
AIGNBL020102DC
 10
0
 20
0
 30
0
  0
INSERT
  8
LAYER_2
  2
AIGNBL020102DD
 10
0
 20
0
 30
0
  0
INSERT
  8
LAYER_2
  2
AIGNBL020102DE
 10
0
 20
0
 30
0
  0
INSERT
  8
LAYER_2
  2
AIGNBL020102DF
 10
0
 20
0
 30
0
  0
INSERT
  8
LAYER_2
  2
AIGNBL020102E0
 10
0
 20
0
 30
0
  0
INSERT
  8
LAYER_2
  2
AIGNBL020102E1
 10
0
 20
0
 30
0
  0
INSERT
  8
LAYER_2
  2
AIGNBL020102E2
 10
0
 20
0
 30
0
  0
INSERT
  8
LAYER_2
  2
AIGNBL020102E3
 10
0
 20
0
 30
0
  0
INSERT
  8
LAYER_2
  2
AIGNBL020102E4
 10
0
 20
0
 30
0
  0
INSERT
  8
LAYER_2
  2
AIGNBL020102E5
 10
0
 20
0
 30
0
  0
INSERT
  8
LAYER_2
  2
AIGNBL020102E6
 10
0
 20
0
 30
0
  0
INSERT
  8
LAYER_2
  2
AIGNBL020102E7
 10
0
 20
0
 30
0
  0
INSERT
  8
LAYER_2
  2
AIGNBL020102E8
 10
0
 20
0
 30
0
  0
INSERT
  8
LAYER_2
  2
AIGNBL020102E9
 10
0
 20
0
 30
0
  0
INSERT
  8
LAYER_2
  2
AIGNBL020102EA
 10
0
 20
0
 30
0
  0
INSERT
  8
LAYER_2
  2
AIGNBL020102EB
 10
0
 20
0
 30
0
  0
INSERT
  8
LAYER_2
  2
AIGNBL020102EC
 10
0
 20
0
 30
0
  0
INSERT
  8
LAYER_2
  2
AIGNBL020102ED
 10
0
 20
0
 30
0
  0
INSERT
  8
LAYER_2
  2
AIGNBL020102EE
 10
0
 20
0
 30
0
  0
INSERT
  8
LAYER_2
  2
AIGNBL020102EF
 10
0
 20
0
 30
0
  0
INSERT
  8
LAYER_2
  2
AIGNBL020102F0
 10
0
 20
0
 30
0
  0
INSERT
  8
LAYER_2
  2
AIGNBL020102F1
 10
0
 20
0
 30
0
  0
INSERT
  8
LAYER_2
  2
AIGNBL020102F2
 10
0
 20
0
 30
0
  0
INSERT
  8
LAYER_2
  2
AIGNBL020102F3
 10
0
 20
0
 30
0
  0
INSERT
  8
LAYER_2
  2
AIGNBL020102F4
 10
0
 20
0
 30
0
  0
INSERT
  8
LAYER_2
  2
AIGNBL020102F5
 10
0
 20
0
 30
0
  0
INSERT
  8
LAYER_2
  2
AIGNBL020102F6
 10
0
 20
0
 30
0
  0
INSERT
  8
LAYER_2
  2
AIGNBL020102F7
 10
0
 20
0
 30
0
  0
INSERT
  8
LAYER_2
  2
AIGNBL020102F8
 10
0
 20
0
 30
0
  0
INSERT
  8
LAYER_2
  2
AIGNBL020102F9
 10
0
 20
0
 30
0
  0
INSERT
  8
LAYER_2
  2
AIGNBL020102FA
 10
0
 20
0
 30
0
  0
INSERT
  8
LAYER_2
  2
AIGNBL020102FB
 10
0
 20
0
 30
0
  0
INSERT
  8
LAYER_2
  2
AIGNBL020102FC
 10
0
 20
0
 30
0
  0
INSERT
  8
LAYER_2
  2
AIGNBL020102FD
 10
0
 20
0
 30
0
  0
INSERT
  8
LAYER_2
  2
AIGNBL020102FE
 10
0
 20
0
 30
0
  0
INSERT
  8
LAYER_2
  2
AIGNBL020102FF
 10
0
 20
0
 30
0
  0
INSERT
  8
LAYER_2
  2
AIGNBL02010300
 10
0
 20
0
 30
0
  0
INSERT
  8
LAYER_2
  2
AIGNBL02010301
 10
0
 20
0
 30
0
  0
INSERT
  8
LAYER_2
  2
AIGNBL02010302
 10
0
 20
0
 30
0
  0
INSERT
  8
LAYER_2
  2
AIGNBL02010303
 10
0
 20
0
 30
0
  0
INSERT
  8
LAYER_2
  2
AIGNBL02010304
 10
0
 20
0
 30
0
  0
INSERT
  8
LAYER_2
  2
AIGNBL02010305
 10
0
 20
0
 30
0
  0
INSERT
  8
LAYER_2
  2
AIGNBL02010306
 10
0
 20
0
 30
0
  0
INSERT
  8
LAYER_2
  2
AIGNBL02010307
 10
0
 20
0
 30
0
  0
INSERT
  8
LAYER_2
  2
AIGNBL02010308
 10
0
 20
0
 30
0
  0
INSERT
  8
LAYER_2
  2
AIGNBL02010309
 10
0
 20
0
 30
0
  0
INSERT
  8
LAYER_2
  2
AIGNBL0201030A
 10
0
 20
0
 30
0
  0
INSERT
  8
LAYER_2
  2
AIGNBL0201030B
 10
0
 20
0
 30
0
  0
INSERT
  8
LAYER_2
  2
AIGNBL0201030C
 10
0
 20
0
 30
0
  0
INSERT
  8
LAYER_2
  2
AIGNBL0201030D
 10
0
 20
0
 30
0
  0
INSERT
  8
LAYER_2
  2
AIGNBL0201030E
 10
0
 20
0
 30
0
  0
INSERT
  8
LAYER_2
  2
AIGNBL0201030F
 10
0
 20
0
 30
0
  0
INSERT
  8
LAYER_2
  2
AIGNBL02010310
 10
0
 20
0
 30
0
  0
INSERT
  8
LAYER_2
  2
AIGNBL02010311
 10
0
 20
0
 30
0
  0
INSERT
  8
LAYER_2
  2
AIGNBL02010312
 10
0
 20
0
 30
0
  0
INSERT
  8
LAYER_2
  2
AIGNBL02010313
 10
0
 20
0
 30
0
  0
INSERT
  8
LAYER_2
  2
AIGNBL02010314
 10
0
 20
0
 30
0
  0
INSERT
  8
LAYER_2
  2
AIGNBL02010315
 10
0
 20
0
 30
0
  0
INSERT
  8
LAYER_2
  2
AIGNBL02010316
 10
0
 20
0
 30
0
  0
INSERT
  8
LAYER_2
  2
AIGNBL02010317
 10
0
 20
0
 30
0
  0
INSERT
  8
LAYER_2
  2
AIGNBL02010318
 10
0
 20
0
 30
0
  0
INSERT
  8
LAYER_2
  2
AIGNBL02010319
 10
0
 20
0
 30
0
  0
INSERT
  8
LAYER_2
  2
AIGNBL0201031A
 10
0
 20
0
 30
0
  0
INSERT
  8
LAYER_2
  2
AIGNBL0201031B
 10
0
 20
0
 30
0
  0
INSERT
  8
LAYER_2
  2
AIGNBL0201031C
 10
0
 20
0
 30
0
  0
INSERT
  8
LAYER_2
  2
AIGNBL0201031D
 10
0
 20
0
 30
0
  0
INSERT
  8
LAYER_2
  2
AIGNBL0201031E
 10
0
 20
0
 30
0
  0
INSERT
  8
LAYER_2
  2
AIGNBL0201031F
 10
0
 20
0
 30
0
  0
INSERT
  8
LAYER_2
  2
AIGNBL02010320
 10
0
 20
0
 30
0
  0
INSERT
  8
LAYER_2
  2
AIGNBL02010321
 10
0
 20
0
 30
0
  0
INSERT
  8
LAYER_2
  2
AIGNBL02010322
 10
0
 20
0
 30
0
  0
INSERT
  8
LAYER_2
  2
AIGNBL02010323
 10
0
 20
0
 30
0
  0
INSERT
  8
LAYER_2
  2
AIGNBL02010324
 10
0
 20
0
 30
0
  0
INSERT
  8
LAYER_2
  2
AIGNBL02010325
 10
0
 20
0
 30
0
  0
INSERT
  8
LAYER_2
  2
AIGNBL02010326
 10
0
 20
0
 30
0
  0
INSERT
  8
LAYER_2
  2
AIGNBL02010327
 10
0
 20
0
 30
0
  0
INSERT
  8
LAYER_2
  2
AIGNBL02010328
 10
0
 20
0
 30
0
  0
INSERT
  8
LAYER_2
  2
AIGNBL02010329
 10
0
 20
0
 30
0
  0
INSERT
  8
LAYER_2
  2
AIGNBL0201032A
 10
0
 20
0
 30
0
  0
INSERT
  8
LAYER_2
  2
AIGNBL0201032B
 10
0
 20
0
 30
0
  0
INSERT
  8
LAYER_2
  2
AIGNBL0201032C
 10
0
 20
0
 30
0
  0
INSERT
  8
LAYER_2
  2
AIGNBL0201032D
 10
0
 20
0
 30
0
  0
INSERT
  8
LAYER_2
  2
AIGNBL0201032E
 10
0
 20
0
 30
0
  0
INSERT
  8
LAYER_2
  2
AIGNBL0201032F
 10
0
 20
0
 30
0
  0
INSERT
  8
LAYER_2
  2
AIGNBL02010330
 10
0
 20
0
 30
0
  0
INSERT
  8
LAYER_2
  2
AIGNBL02010331
 10
0
 20
0
 30
0
  0
INSERT
  8
LAYER_2
  2
AIGNBL02010332
 10
0
 20
0
 30
0
  0
INSERT
  8
LAYER_2
  2
AIGNBL02010333
 10
0
 20
0
 30
0
  0
INSERT
  8
LAYER_2
  2
AIGNBL02010334
 10
0
 20
0
 30
0
  0
INSERT
  8
LAYER_2
  2
AIGNBL02010335
 10
0
 20
0
 30
0
  0
INSERT
  8
LAYER_2
  2
AIGNBL02010336
 10
0
 20
0
 30
0
  0
INSERT
  8
LAYER_2
  2
AIGNBL02010337
 10
0
 20
0
 30
0
  0
INSERT
  8
LAYER_2
  2
AIGNBL02010338
 10
0
 20
0
 30
0
  0
INSERT
  8
LAYER_2
  2
AIGNBL02010339
 10
0
 20
0
 30
0
  0
INSERT
  8
LAYER_2
  2
AIGNBL0201033A
 10
0
 20
0
 30
0
  0
INSERT
  8
LAYER_2
  2
AIGNBL0201033B
 10
0
 20
0
 30
0
  0
INSERT
  8
LAYER_2
  2
AIGNBL0201033C
 10
0
 20
0
 30
0
  0
INSERT
  8
LAYER_2
  2
AIGNBL0201033D
 10
0
 20
0
 30
0
  0
INSERT
  8
LAYER_2
  2
AIGNBL0201033E
 10
0
 20
0
 30
0
  0
INSERT
  8
LAYER_2
  2
AIGNBL0201033F
 10
0
 20
0
 30
0
  0
INSERT
  8
LAYER_2
  2
AIGNBL02010340
 10
0
 20
0
 30
0
  0
INSERT
  8
LAYER_2
  2
AIGNBL02010341
 10
0
 20
0
 30
0
  0
INSERT
  8
LAYER_2
  2
AIGNBL02010342
 10
0
 20
0
 30
0
  0
INSERT
  8
LAYER_2
  2
AIGNBL02010343
 10
0
 20
0
 30
0
  0
INSERT
  8
LAYER_2
  2
AIGNBL02010344
 10
0
 20
0
 30
0
  0
INSERT
  8
LAYER_2
  2
AIGNBL02010345
 10
0
 20
0
 30
0
  0
INSERT
  8
LAYER_2
  2
AIGNBL02010346
 10
0
 20
0
 30
0
  0
INSERT
  8
LAYER_2
  2
AIGNBL02010347
 10
0
 20
0
 30
0
  0
INSERT
  8
LAYER_2
  2
AIGNBL02010348
 10
0
 20
0
 30
0
  0
INSERT
  8
LAYER_2
  2
AIGNBL02010349
 10
0
 20
0
 30
0
  0
INSERT
  8
LAYER_2
  2
AIGNBL0201034A
 10
0
 20
0
 30
0
  0
ARC
  8
LAYER_2
 10
-12.0372
 20
105.418
 40
0.8231
 50
331.3861412
 51
21.45298056
  0
ARC
  8
LAYER_2
 10
-11.914
 20
105.4827
 40
0.1392
 50
270.0236886
 51
0.01748697294
  0
INSERT
  8
LAYER_2
  2
AIGNBL0201034B
 10
0
 20
0
 30
0
  0
INSERT
  8
LAYER_2
  2
AIGNBL0201034D
 10
0
 20
0
 30
0
  0
INSERT
  8
LAYER_2
  2
AIGNBL0201034F
 10
0
 20
0
 30
0
  0
INSERT
  8
LAYER_2
  2
AIGNBL02010350
 10
0
 20
0
 30
0
  0
LINE
  8
LAYER_2
 10
-67.9505
 20
95.0932
 11
-67.9505
 21
141.6932
  0
LINE
  8
LAYER_2
 10
-67.3581
 20
97.3033
 11
-67.9505
 21
95.0927
  0
LINE
  8
LAYER_2
 10
-67.9505
 20
95.0927
 11
-68.5429
 21
97.3033
  0
LINE
  8
LAYER_2
 10
-68.5429
 20
97.3033
 11
-67.3581
 21
97.3033
  0
LINE
  8
LAYER_2
 10
-67.3581
 20
139.4832
 11
-67.9505
 21
141.6937
  0
LINE
  8
LAYER_2
 10
-67.9505
 20
141.6937
 11
-68.5429
 21
139.4832
  0
LINE
  8
LAYER_2
 10
-68.5429
 20
139.4832
 11
-67.3581
 21
139.4832
  0
INSERT
  8
LAYER_2
  2
AIGNBL02010351
 10
0
 20
0
 30
0
  0
LINE
  8
LAYER_2
 10
-61.4762
 20
141.6932
 11
-61.4762
 21
103.0266
  0
LINE
  8
LAYER_2
 10
-62.0686
 20
139.4832
 11
-61.4762
 21
141.6937
  0
LINE
  8
LAYER_2
 10
-61.4762
 20
141.6937
 11
-60.8838
 21
139.4832
  0
LINE
  8
LAYER_2
 10
-60.8838
 20
139.4832
 11
-62.0686
 21
139.4832
  0
LINE
  8
LAYER_2
 10
-62.0686
 20
105.2366
 11
-61.4762
 21
103.0261
  0
LINE
  8
LAYER_2
 10
-61.4762
 20
103.0261
 11
-60.8838
 21
105.2366
  0
LINE
  8
LAYER_2
 10
-60.8838
 20
105.2366
 11
-62.0686
 21
105.2366
  0
INSERT
  8
LAYER_2
  2
AIGNBL02010352
 10
0
 20
0
 30
0
  0
INSERT
  8
LAYER_2
  2
AIGNBL02010353
 10
0
 20
0
 30
0
  0
LINE
  8
LAYER_2
 10
-53.5504
 20
149.7999
 11
-16.2171
 21
149.7999
  0
LINE
  8
LAYER_2
 10
-51.3404
 20
149.2075
 11
-53.5509
 21
149.7999
  0
LINE
  8
LAYER_2
 10
-53.5509
 20
149.7999
 11
-51.3404
 21
150.3923
  0
LINE
  8
LAYER_2
 10
-51.3404
 20
150.3923
 11
-51.3404
 21
149.2075
  0
LINE
  8
LAYER_2
 10
-18.4271
 20
149.2075
 11
-16.2166
 21
149.7999
  0
LINE
  8
LAYER_2
 10
-16.2166
 20
149.7999
 11
-18.4271
 21
150.3923
  0
LINE
  8
LAYER_2
 10
-18.4271
 20
150.3923
 11
-18.4271
 21
149.2075
  0
INSERT
  8
LAYER_2
  2
AIGNBL02010354
 10
0
 20
0
 30
0
  0
LINE
  8
LAYER_2
 10
-39.5406
 20
133.4389
 11
-7.6503
 21
149.6192
  0
LINE
  8
LAYER_2
 10
-37.3012
 20
133.9108
 11
-39.5406
 21
133.4389
  0
LINE
  8
LAYER_2
 10
-39.5406
 20
133.4389
 11
-37.8373
 21
134.9674
  0
LINE
  8
LAYER_2
 10
-37.8373
 20
134.9674
 11
-37.3012
 21
133.9108
  0
INSERT
  8
LAYER_2
  2
AIGNBL02010355
 10
0
 20
0
 30
0
  0
LINE
  8
LAYER_2
 10
-40.5177
 20
116.3018
 11
-10.4509
 21
128.8614
  0
LINE
  8
LAYER_2
 10
-38.2497
 20
116.6072
 11
-40.5177
 21
116.3018
  0
LINE
  8
LAYER_2
 10
-40.5177
 20
116.3018
 11
-38.7064
 21
117.7005
  0
LINE
  8
LAYER_2
 10
-38.7064
 20
117.7005
 11
-38.2497
 21
116.6072
  0
INSERT
  8
LAYER_2
  2
AIGNBL02010356
 10
0
 20
0
 30
0
  0
LINE
  8
LAYER_2
 10
-23.0364
 20
132.8727
 11
-10.4509
 21
135.7403
  0
LINE
  8
LAYER_2
 10
-20.7495
 20
132.7862
 11
-23.0364
 21
132.8727
  0
LINE
  8
LAYER_2
 10
-23.0364
 20
132.8727
 11
-21.0127
 21
133.9414
  0
LINE
  8
LAYER_2
 10
-21.0127
 20
133.9414
 11
-20.7495
 21
132.7862
  0
INSERT
  8
LAYER_2
  2
AIGNBL02010357
 10
0
 20
0
 30
0
  0
LINE
  8
LAYER_2
 10
-32.6097
 20
107.0868
 11
-9.2977
 21
117.8235
  0
LINE
  8
LAYER_2
 10
-30.3541
 20
107.4734
 11
-32.6097
 21
107.0868
  0
LINE
  8
LAYER_2
 10
-32.6097
 20
107.0868
 11
-30.8497
 21
108.5496
  0
LINE
  8
LAYER_2
 10
-30.8497
 20
108.5496
 11
-30.3541
 21
107.4734
  0
INSERT
  8
LAYER_2
  2
AIGNBL02010358
 10
0
 20
0
 30
0
  0
LINE
  8
LAYER_2
 10
-40.9821
 20
93.6274
 11
-25.2779
 21
73.1777
  0
LINE
  8
LAYER_2
 10
-40.1056
 20
91.5134
 11
-40.9821
 21
93.6274
  0
LINE
  8
LAYER_2
 10
-40.9821
 20
93.6274
 11
-39.1659
 21
92.2351
  0
LINE
  8
LAYER_2
 10
-39.1659
 20
92.2351
 11
-40.1056
 21
91.5134
  0
INSERT
  8
LAYER_2
  2
AIGNBL02010359
 10
0
 20
0
 30
0
  0
LINE
  8
LAYER_2
 10
11.0177
 20
104.995
 11
21.1801
 21
92.2881
  0
LINE
  8
LAYER_2
 10
11.9357
 20
102.8987
 11
11.0177
 21
104.995
  0
LINE
  8
LAYER_2
 10
11.0177
 20
104.995
 11
12.861
 21
103.6387
  0
LINE
  8
LAYER_2
 10
12.861
 20
103.6387
 11
11.9357
 21
102.8987
  0
INSERT
  8
LAYER_2
  2
AIGNBL0201035A
 10
0
 20
0
 30
0
  0
LINE
  8
LAYER_2
 10
48.1578
 20
108.8432
 11
39.6407
 21
117.8235
  0
LINE
  8
LAYER_2
 10
47.0665
 20
110.8547
 11
48.1578
 21
108.8432
  0
LINE
  8
LAYER_2
 10
48.1578
 20
108.8432
 11
46.2069
 21
110.0394
  0
LINE
  8
LAYER_2
 10
46.2069
 20
110.0394
 11
47.0665
 21
110.8547
  0
INSERT
  8
LAYER_2
  2
AIGNBL0201035B
 10
0
 20
0
 30
0
  0
INSERT
  8
LAYER_2
  2
AIGNBL0201035D
 10
0
 20
0
 30
0
  0
INSERT
  8
LAYER_2
  2
AIGNBL0201035F
 10
0
 20
0
 30
0
  0
INSERT
  8
LAYER_2
  2
AIGNBL02010361
 10
0
 20
0
 30
0
  0
INSERT
  8
LAYER_2
  2
AIGNBL02010363
 10
0
 20
0
 30
0
  0
INSERT
  8
LAYER_2
  2
AIGNBL02010364
 10
0
 20
0
 30
0
  0
LINE
  8
LAYER_2
 10
-53.5504
 20
245.0515
 11
-42.2171
 21
245.0515
  0
LINE
  8
LAYER_2
 10
-51.3404
 20
244.4592
 11
-53.5509
 21
245.0515
  0
LINE
  8
LAYER_2
 10
-53.5509
 20
245.0515
 11
-51.3404
 21
245.6439
  0
LINE
  8
LAYER_2
 10
-51.3404
 20
245.6439
 11
-51.3404
 21
244.4592
  0
LINE
  8
LAYER_2
 10
-44.4276
 20
244.4592
 11
-42.2171
 21
245.0515
  0
LINE
  8
LAYER_2
 10
-42.2171
 20
245.0515
 11
-44.4276
 21
245.6439
  0
LINE
  8
LAYER_2
 10
-44.4276
 20
245.6439
 11
-44.4276
 21
244.4592
  0
INSERT
  8
LAYER_2
  2
AIGNBL02010365
 10
0
 20
0
 30
0
  0
INSERT
  8
LAYER_2
  2
AIGNBL02010366
 10
0
 20
0
 30
0
  0
LINE
  8
LAYER_2
 10
-61.471
 20
235.2387
 11
-61.471
 21
216.9387
  0
LINE
  8
LAYER_2
 10
-62.0634
 20
233.0286
 11
-61.471
 21
235.2392
  0
LINE
  8
LAYER_2
 10
-61.471
 20
235.2392
 11
-60.8786
 21
233.0286
  0
LINE
  8
LAYER_2
 10
-60.8786
 20
233.0286
 11
-62.0634
 21
233.0286
  0
LINE
  8
LAYER_2
 10
-62.0634
 20
219.1487
 11
-61.471
 21
216.9382
  0
LINE
  8
LAYER_2
 10
-61.471
 20
216.9382
 11
-60.8786
 21
219.1487
  0
LINE
  8
LAYER_2
 10
-60.8786
 20
219.1487
 11
-62.0634
 21
219.1487
  0
INSERT
  8
LAYER_2
  2
AIGNBL02010367
 10
0
 20
0
 30
0
  0
INSERT
  8
LAYER_2
  2
AIGNBL02010369
 10
0
 20
0
 30
0
  0
INSERT
  8
LAYER_2
  2
AIGNBL0201036B
 10
0
 20
0
 30
0
  0
INSERT
  8
LAYER_2
  2
AIGNBL0201036D
 10
0
 20
0
 30
0
  0
LINE
  8
LAYER_2
 10
76.5085
 20
78.6691
 11
104.3052
 21
78.6691
  0
LINE
  8
LAYER_2
 10
78.7185
 20
78.0767
 11
76.508
 21
78.6691
  0
LINE
  8
LAYER_2
 10
76.508
 20
78.6691
 11
78.7185
 21
79.2615
  0
LINE
  8
LAYER_2
 10
78.7185
 20
79.2615
 11
78.7185
 21
78.0767
  0
LINE
  8
LAYER_2
 10
102.0952
 20
78.0767
 11
104.3057
 21
78.6691
  0
LINE
  8
LAYER_2
 10
104.3057
 20
78.6691
 11
102.0952
 21
79.2615
  0
LINE
  8
LAYER_2
 10
102.0952
 20
79.2615
 11
102.0952
 21
78.0767
  0
INSERT
  8
LAYER_2
  2
AIGNBL0201036E
 10
0
 20
0
 30
0
  0
LINE
  8
LAYER_2
 10
104.3052
 20
70.7725
 11
59.9719
 21
70.7725
  0
LINE
  8
LAYER_2
 10
102.0952
 20
71.3649
 11
104.3057
 21
70.7725
  0
LINE
  8
LAYER_2
 10
104.3057
 20
70.7725
 11
102.0952
 21
70.1801
  0
LINE
  8
LAYER_2
 10
102.0952
 20
70.1801
 11
102.0952
 21
71.3649
  0
LINE
  8
LAYER_2
 10
62.1819
 20
71.3649
 11
59.9714
 21
70.7725
  0
LINE
  8
LAYER_2
 10
59.9714
 20
70.7725
 11
62.1819
 21
70.1801
  0
LINE
  8
LAYER_2
 10
62.1819
 20
70.1801
 11
62.1819
 21
71.3649
  0
INSERT
  8
LAYER_2
  2
AIGNBL0201036F
 10
0
 20
0
 30
0
  0
INSERT
  8
LAYER_2
  2
AIGNBL02010370
 10
0
 20
0
 30
0
  0
LINE
  8
LAYER_2
 10
104.3052
 20
149.7999
 11
94.8052
 21
149.7999
  0
LINE
  8
LAYER_2
 10
102.0952
 20
150.3923
 11
104.3057
 21
149.7999
  0
LINE
  8
LAYER_2
 10
104.3057
 20
149.7999
 11
102.0952
 21
149.2075
  0
LINE
  8
LAYER_2
 10
102.0952
 20
149.2075
 11
102.0952
 21
150.3923
  0
LINE
  8
LAYER_2
 10
97.0153
 20
150.3923
 11
94.8048
 21
149.7999
  0
LINE
  8
LAYER_2
 10
94.8048
 20
149.7999
 11
97.0153
 21
149.2075
  0
LINE
  8
LAYER_2
 10
97.0153
 20
149.2075
 11
97.0153
 21
150.3923
  0
INSERT
  8
LAYER_2
  2
AIGNBL02010371
 10
0
 20
0
 30
0
  0
LINE
  8
LAYER_2
 10
94.8052
 20
149.7999
 11
59.9719
 21
149.7999
  0
LINE
  8
LAYER_2
 10
92.5952
 20
150.3923
 11
94.8057
 21
149.7999
  0
LINE
  8
LAYER_2
 10
94.8057
 20
149.7999
 11
92.5952
 21
149.2075
  0
LINE
  8
LAYER_2
 10
92.5952
 20
149.2075
 11
92.5952
 21
150.3923
  0
LINE
  8
LAYER_2
 10
62.1819
 20
150.3923
 11
59.9714
 21
149.7999
  0
LINE
  8
LAYER_2
 10
59.9714
 20
149.7999
 11
62.1819
 21
149.2075
  0
LINE
  8
LAYER_2
 10
62.1819
 20
149.2075
 11
62.1819
 21
150.3923
  0
INSERT
  8
LAYER_2
  2
AIGNBL02010372
 10
0
 20
0
 30
0
  0
INSERT
  8
LAYER_2
  2
AIGNBL02010374
 10
0
 20
0
 30
0
  0
INSERT
  8
LAYER_2
  2
AIGNBL02010376
 10
0
 20
0
 30
0
  0
LINE
  8
LAYER_2
 10
-38.7957
 20
236.5462
 11
-34.026
 21
241.5404
  0
LINE
  8
LAYER_2
 10
-36.8406
 20
237.7356
 11
-38.7957
 21
236.5462
  0
LINE
  8
LAYER_2
 10
-38.7957
 20
236.5462
 11
-37.6974
 21
238.5539
  0
LINE
  8
LAYER_2
 10
-37.6974
 20
238.5539
 11
-36.8406
 21
237.7356
  0
LINE
  8
LAYER_3
 10
126.9566
 20
57.1559
 11
293.4567
 21
57.1559
  0
LINE
  8
LAYER_3
 10
213.4567
 20
37.1557
 11
293.4567
 21
37.1557
  0
LINE
  8
LAYER_3
 10
126.9566
 20
44.6564
 11
213.4567
 21
44.6564
  0
LINE
  8
LAYER_3
 10
126.9566
 20
30.6562
 11
213.4567
 21
30.6562
  0
LINE
  8
LAYER_3
 10
138.4563
 20
30.6562
 11
138.4563
 21
44.6564
  0
LINE
  8
LAYER_3
 10
213.4567
 20
17.1562
 11
213.4567
 21
57.1559
  0
LINE
  8
LAYER_3
 10
126.9566
 20
17.1562
 11
126.9566
 21
57.1559
  0
LINE
  8
LAYER_3
 10
194.4563
 20
30.6562
 11
194.4563
 21
57.1559
  0
LINE
  8
LAYER_3
 10
175.4566
 20
30.6562
 11
175.4566
 21
57.1559
  0
LINE
  8
LAYER_3
 10
293.4567
 20
17.1562
 11
-83.0433
 21
17.1562
  0
LINE
  8
LAYER_3
 10
-83.0433
 20
17.1562
 11
-83.0433
 21
280.1562
  0
LINE
  8
LAYER_3
 10
-83.0433
 20
280.1562
 11
293.4567
 21
280.1562
  0
LINE
  8
LAYER_3
 10
293.4567
 20
280.1562
 11
293.4567
 21
17.1562
  0
TEXT
  8
LAYER_3
 10
153.4949
 20
49.1839
 11
153.4949
 21
49.1839
 40
4.4979
 41
0.5
 72
1
  1
セラトレーディング株式会社
  0
TEXT
  8
LAYER_3
 10
127.9281
 20
40.658
 11
127.9281
 21
40.658
 40
3.0923
 41
0.5
  1
製図
  0
TEXT
  8
LAYER_3
 10
127.9281
 20
26.4587
 11
127.9281
 21
26.4587
 40
3.0923
 41
0.5
  1
備考
  0
TEXT
  8
LAYER_3
 10
139.5463
 20
40.658
 11
139.5463
 21
40.658
 40
3.0923
 41
0.5
  1
検図
  0
TEXT
  8
LAYER_3
 10
176.4998
 20
40.658
 11
176.4998
 21
40.658
 40
3.0923
 41
0.5
  1
日付
  0
TEXT
  8
LAYER_3
 10
219.0853
 20
45.4728
 11
219.0853
 21
45.4728
 40
3.9357
 41
0.5
  1
自動水栓機能部 単水栓、AC100V
  0
TEXT
  8
LAYER_3
 10
253.4564
 20
20.3547
 11
253.4564
 21
20.3547
 40
3.9357
 41
0.5
 72
1
  1
CET9000
  0
TEXT
  8
LAYER_3
 10
195.5498
 20
40.658
 11
195.5498
 21
40.658
 40
3.0923
 41
0.5
  1
尺度
  0
TEXT
  8
LAYER_3
 10
195.5498
 20
53.0652
 11
195.5498
 21
53.0652
 40
3.0923
 41
0.5
  1
単位
  0
TEXT
  8
LAYER_3
 10
203.2744
 20
48.0691
 11
203.2744
 21
48.0691
 40
3.6546
 41
0.5
 72
1
  1
mm
  0
TEXT
  8
LAYER_3
 10
214.5116
 20
53.0652
 11
214.5116
 21
53.0652
 40
3.0923
 41
0.5
  1
名称
  0
TEXT
  8
LAYER_3
 10
214.5116
 20
32.9265
 11
214.5116
 21
32.9265
 40
3.0923
 41
0.5
  1
品番
  0
LINE
  8
LAYER_3
 10
213.4567
 20
27.156
 11
293.4567
 21
27.156
  0
TEXT
  8
LAYER_3
 10
214.5116
 20
22.9268
 11
214.5116
 21
22.9268
 40
3.0923
 41
0.5
  1
図番
  0
INSERT
  8
LAYER_3
  2
AIGNBL03010002
 10
0
 20
0
 30
0
  0
LINE
  8
LAYER_3
 10
-83.0433
 20
148.6576
 11
-104.7936
 21
148.6576
  0
LINE
  8
LAYER_3
 10
105.2067
 20
297.1763
 11
105.2067
 21
280.1562
  0
LINE
  8
LAYER_3
 10
105.2067
 20
17.1562
 11
105.2067
 21
0.176
  0
LINE
  8
LAYER_3
 10
315.2069
 20
148.6576
 11
293.4567
 21
148.6576
  0
TEXT
  8
LAYER_3
 10
134.4938
 20
21.9546
 11
134.4938
 21
21.9546
 40
3.9357
 41
0.5
  1
（社）日本水道協会認証品
  0
TEXT
  8
LAYER_3
 10
293.4567
 20
12.8082
 11
293.4567
 21
12.8082
 40
3.3734
 41
0.5
 72
2
  1
A3
  0
TEXT
  8
LAYER_3
 10
177.6925
 20
34.4651
 11
177.6925
 21
34.4651
 40
3.6546
 41
0.5
  1
23.02.01
  0
TEXT
  8
LAYER_3
 10
-75.7403
 20
23.7464
 11
-75.7403
 21
23.7464
 40
3.6546
 41
0.5
  1
当社の販売しているスパウト部(CET10**型)とのみセット可能です。
  0
TEXT
  8
LAYER_3
 10
132.6465
 20
34.8502
 11
132.6465
 21
34.8502
 40
3.6546
 41
0.5
 72
1
  1
益田
  0
TEXT
  8
LAYER_3
 10
151.2204
 20
34.8502
 11
151.2204
 21
34.8502
 40
3.6546
 41
0.5
 72
1
  1
井田
  0
TEXT
  8
LAYER_3
 10
253.4564
 20
30.3551
 11
253.4564
 21
30.3551
 40
3.9357
 41
0.5
 72
1
  1
CET9000
  0
TEXT
  8
LAYER_3
 10
203.8663
 20
34.4651
 11
203.8663
 21
34.4651
 40
3.6546
 41
0.5
 72
1
  1
1 ： 3
  0
LINE
  8
LAYER_3
 10
126.9566
 20
81.7962
 11
290.1597
 21
81.7962
  0
LINE
  8
LAYER_3
 10
126.9566
 20
95.3702
 11
290.1597
 21
95.3702
  0
TEXT
  8
LAYER_3
 10
169.5094
 20
76.1538
 11
169.5094
 21
76.1538
 40
3.9357
 41
0.5
  1
（1）インバータや赤外線を用いた他の機器により誤作動することがあります。
  0
TEXT
  8
LAYER_3
 10
169.5094
 20
70.0736
 11
169.5094
 21
70.0736
 40
3.9357
 41
0.5
  1
（2）自動水栓は屋内用です、屋外ではご使用できません。
  0
TEXT
  8
LAYER_3
 10
169.5094
 20
89.8564
 11
169.5094
 21
89.8564
 40
3.9357
 41
0.5
  1
１～４０℃
  0
TEXT
  8
LAYER_3
 10
169.5094
 20
83.7761
 11
169.5094
 21
83.7761
 40
3.9357
 41
0.5
  1
※凍結が予想される地域では、ご使用できません。
  0
LINE
  8
LAYER_3
 10
126.9566
 20
103.1327
 11
290.1597
 21
103.1327
  0
TEXT
  8
LAYER_3
 10
169.5094
 20
97.6188
 11
169.5094
 21
97.6188
 40
3.9357
 41
0.5
  1
水道水または飲用可能な井戸水
  0
TEXT
  8
LAYER_3
 10
169.5094
 20
111.1929
 11
169.5094
 21
111.1929
 40
3.9357
 41
0.5
  1
０．７５ＭＰａ（静止時）
  0
TEXT
  8
LAYER_3
 10
169.5094
 20
105.1126
 11
169.5094
 21
105.1126
 40
3.9357
 41
0.5
  1
※快適にお使いいただくためには、０．２～０．３ＭＰａ（流動時）程度の圧力をおすすめします。
  0
TEXT
  8
LAYER_3
 10
129.4953
 20
76.1538
 11
129.4953
 21
76.1538
 40
3.9357
 41
0.5
  1
特記事項
  0
TEXT
  8
LAYER_3
 10
129.4953
 20
89.8564
 11
129.4953
 21
89.8564
 40
3.9357
 41
0.5
  1
使用環境温度
  0
TEXT
  8
LAYER_3
 10
129.4953
 20
97.6188
 11
129.4953
 21
97.6188
 40
3.9357
 41
0.5
  1
使用可能水質
  0
LINE
  8
LAYER_3
 10
145.6397
 20
132.2317
 11
290.1597
 21
132.2317
  0
TEXT
  8
LAYER_3
 10
147.4139
 20
126.7178
 11
147.4139
 21
126.7178
 40
3.9357
 41
0.5
  1
作動時
  0
TEXT
  8
LAYER_3
 10
147.4139
 20
111.1929
 11
147.4139
 21
111.1929
 40
3.9357
 41
0.5
  1
最高水圧
  0
LINE
  8
LAYER_3
 10
126.9566
 20
124.4692
 11
290.1597
 21
124.4692
  0
LINE
  8
LAYER_3
 10
145.6397
 20
116.7067
 11
290.1597
 21
116.7067
  0
TEXT
  8
LAYER_3
 10
169.5094
 20
118.8148
 11
169.5094
 21
118.8148
 40
3.9357
 41
0.5
  1
０．０５ＭＰａ（流動時）
  0
TEXT
  8
LAYER_3
 10
129.4953
 20
118.8148
 11
129.4953
 21
118.8148
 40
3.9357
 41
0.5
  1
給水圧力
  0
LINE
  8
LAYER_3
 10
126.9566
 20
139.9942
 11
290.1597
 21
139.9942
  0
LINE
  8
LAYER_3
 10
126.9566
 20
147.7567
 11
290.1597
 21
147.7567
  0
LINE
  8
LAYER_3
 10
126.9566
 20
155.5192
 11
290.1597
 21
155.5192
  0
TEXT
  8
LAYER_3
 10
169.5094
 20
134.3398
 11
169.5094
 21
134.3398
 40
3.9357
 41
0.5
  1
０．４Ｗ（最大値３W）
  0
TEXT
  8
LAYER_3
 10
147.4139
 20
134.3398
 11
147.4139
 21
134.3398
 40
3.9357
 41
0.5
  1
待機時
  0
TEXT
  8
LAYER_3
 10
147.4139
 20
118.8148
 11
147.4139
 21
118.8148
 40
3.9357
 41
0.5
  1
最低必要水圧
  0
LINE
  8
LAYER_3
 10
290.1597
 20
163.2818
 11
126.9566
 21
163.2818
  0
LINE
  8
LAYER_3
 10
126.9566
 20
163.2818
 11
126.9566
 21
68.2222
  0
LINE
  8
LAYER_3
 10
126.9566
 20
68.2222
 11
290.1597
 21
68.2222
  0
LINE
  8
LAYER_3
 10
290.1597
 20
68.2222
 11
290.1597
 21
163.2818
  0
LINE
  8
LAYER_3
 10
166.9707
 20
163.2818
 11
166.9707
 21
68.2222
  0
LINE
  8
LAYER_3
 10
145.6397
 20
139.9942
 11
145.6397
 21
103.1327
  0
TEXT
  8
LAYER_3
 10
169.5094
 20
142.1023
 11
169.5094
 21
142.1023
 40
3.9357
 41
0.5
  1
ＡＣ１００Ｖ　５０／６０Ｈｚ
  0
TEXT
  8
LAYER_3
 10
129.4953
 20
142.1023
 11
129.4953
 21
142.1023
 40
3.9357
 41
0.5
  1
電源
  0
TEXT
  8
LAYER_3
 10
169.5094
 20
149.8648
 11
169.5094
 21
149.8648
 40
3.9357
 41
0.5
  1
ＡＣ１００Ｖタイプ
  0
TEXT
  8
LAYER_3
 10
129.4953
 20
149.8648
 11
129.4953
 21
149.8648
 40
3.9357
 41
0.5
  1
タイプ
  0
TEXT
  8
LAYER_3
 10
169.5094
 20
157.6272
 11
169.5094
 21
157.6272
 40
3.9357
 41
0.5
  1
パブリック／一般住宅
  0
TEXT
  8
LAYER_3
 10
129.4953
 20
157.6272
 11
129.4953
 21
157.6272
 40
3.9357
 41
0.5
  1
用途
  0
TEXT
  8
LAYER_3
 10
129.4953
 20
125.8669
 11
129.4953
 21
125.8669
 40
3.9357
 41
0.5
  1
セット時)
  0
TEXT
  8
LAYER_3
 10
129.4953
 20
130.453
 11
129.4953
 21
130.453
 40
3.9357
 41
0.5
  1
(スパウト
  0
TEXT
  8
LAYER_3
 10
129.4953
 20
135.0391
 11
129.4953
 21
135.0391
 40
3.9357
 41
0.5
  1
消費電力
  0
TEXT
  8
LAYER_3
 10
169.5094
 20
126.7178
 11
169.5094
 21
126.7178
 40
3.9357
 41
0.5
  1
０．６Ｗ（最大値５W）
  0
ENDSEC
  0
EOF
