  0
SECTION
  2
HEADER
  9
$ACADVER
  1
AC1009
  9
$INSBASE
 10
0.0
 20
0.0
 30
0.0
  9
$EXTMIN
 10
-4.70052
 20
-21.071400000000001
 30
0.0
  9
$EXTMAX
 10
205.30099999999999
 20
275.93099999999993
 30
0.0
  9
$LIMMIN
 10
0.0
 20
0.0
  9
$LIMMAX
 10
12.0
 20
9.0
  9
$ORTHOMODE
 70
     0
  9
$REGENMODE
 70
     1
  9
$FILLMODE
 70
     1
  9
$QTEXTMODE
 70
     0
  9
$MIRRTEXT
 70
     1
  9
$DRAGMODE
 70
     2
  9
$LTSCALE
 40
1.0
  9
$OSMODE
 70
    37
  9
$ATTMODE
 70
     1
  9
$TEXTSIZE
 40
0.0
  9
$TRACEWID
 40
0.05
  9
$TEXTSTYLE
  7
STANDARD
  9
$CLAYER
  8
0
  9
$CELTYPE
  6
CONTINUOUS
  9
$CECOLOR
 62
   256
  9
$DIMSCALE
 40
1.0
  9
$DIMASZ
 40
0.18
  9
$DIMEXO
 40
0.0625
  9
$DIMDLI
 40
0.38
  9
$DIMRND
 40
0.0
  9
$DIMDLE
 40
0.0
  9
$DIMEXE
 40
0.18
  9
$DIMTP
 40
0.0
  9
$DIMTM
 40
0.0
  9
$DIMTXT
 40
0.18
  9
$DIMCEN
 40
0.09
  9
$DIMTSZ
 40
0.0
  9
$DIMTOL
 70
     0
  9
$DIMLIM
 70
     0
  9
$DIMTIH
 70
     1
  9
$DIMTOH
 70
     1
  9
$DIMSE1
 70
     0
  9
$DIMSE2
 70
     0
  9
$DIMTAD
 70
     0
  9
$DIMZIN
 70
     0
  9
$DIMBLK
  1

  9
$DIMASO
 70
     1
  9
$DIMSHO
 70
     1
  9
$DIMPOST
  1

  9
$DIMAPOST
  1

  9
$DIMALT
 70
     0
  9
$DIMALTD
 70
     2
  9
$DIMALTF
 40
25.399999999999999
  9
$DIMLFAC
 40
1.0
  9
$DIMTOFL
 70
     0
  9
$DIMTVP
 40
0.0
  9
$DIMTIX
 70
     0
  9
$DIMSOXD
 70
     0
  9
$DIMSAH
 70
     0
  9
$DIMBLK1
  1

  9
$DIMBLK2
  1

  9
$DIMSTYLE
  2
STANDARD
  9
$DIMCLRD
 70
     0
  9
$DIMCLRE
 70
     0
  9
$DIMCLRT
 70
     0
  9
$DIMTFAC
 40
1.0
  9
$DIMGAP
 40
0.09
  9
$LUNITS
 70
     2
  9
$LUPREC
 70
     4
  9
$SKETCHINC
 40
0.1
  9
$FILLETRAD
 40
0.0
  9
$AUNITS
 70
     0
  9
$AUPREC
 70
     0
  9
$MENU
  1
.
  9
$ELEVATION
 40
0.0
  9
$PELEVATION
 40
0.0
  9
$THICKNESS
 40
0.0
  9
$LIMCHECK
 70
     0
  9
$BLIPMODE
 70
     0
  9
$CHAMFERA
 40
0.0
  9
$CHAMFERB
 40
0.0
  9
$SKPOLY
 70
     0
  9
$TDCREATE
 40
2444972.375
  9
$TDUPDATE
 40
2457072.249784085
  9
$TDINDWG
 40
0.0000072222
  9
$TDUSRTIMER
 40
0.0000072222
  9
$USRTIMER
 70
     1
  9
$ANGBASE
 50
0.0
  9
$ANGDIR
 70
     0
  9
$PDMODE
 70
     0
  9
$PDSIZE
 40
0.0
  9
$PLINEWID
 40
0.0
  9
$COORDS
 70
     1
  9
$SPLFRAME
 70
     0
  9
$SPLINETYPE
 70
     6
  9
$SPLINESEGS
 70
     8
  9
$ATTDIA
 70
     0
  9
$ATTREQ
 70
     1
  9
$HANDLING
 70
     1
  9
$HANDSEED
  5
1BF
  9
$SURFTAB1
 70
     6
  9
$SURFTAB2
 70
     6
  9
$SURFTYPE
 70
     6
  9
$SURFU
 70
     6
  9
$SURFV
 70
     6
  9
$UCSNAME
  2

  9
$UCSORG
 10
0.0
 20
0.0
 30
0.0
  9
$UCSXDIR
 10
1.0
 20
0.0
 30
0.0
  9
$UCSYDIR
 10
0.0
 20
1.0
 30
0.0
  9
$PUCSNAME
  2

  9
$PUCSORG
 10
0.0
 20
0.0
 30
0.0
  9
$PUCSXDIR
 10
1.0
 20
0.0
 30
0.0
  9
$PUCSYDIR
 10
0.0
 20
1.0
 30
0.0
  9
$USERI1
 70
     0
  9
$USERI2
 70
     0
  9
$USERI3
 70
     0
  9
$USERI4
 70
     0
  9
$USERI5
 70
     0
  9
$USERR1
 40
0.0
  9
$USERR2
 40
0.0
  9
$USERR3
 40
0.0
  9
$USERR4
 40
0.0
  9
$USERR5
 40
0.0
  9
$WORLDVIEW
 70
     1
  9
$SHADEDGE
 70
     3
  9
$SHADEDIF
 70
    70
  9
$TILEMODE
 70
     1
  9
$MAXACTVP
 70
    48
  9
$PLIMCHECK
 70
     0
  9
$PEXTMIN
 10
1.0000000000000000E+020
 20
1.0000000000000000E+020
 30
1.0000000000000000E+020
  9
$PEXTMAX
 10
-1.0000000000000000E+020
 20
-1.0000000000000000E+020
 30
-1.0000000000000000E+020
  9
$PLIMMIN
 10
0.0
 20
0.0
  9
$PLIMMAX
 10
12.0
 20
9.0
  9
$UNITMODE
 70
     0
  9
$VISRETAIN
 70
     1
  9
$PLINEGEN
 70
     0
  9
$PSLTSCALE
 70
     1
  0
ENDSEC
  0
SECTION
  2
TABLES
  0
TABLE
  2
VPORT
 70
     2
  0
VPORT
  2
*ACTIVE
 70
     0
 10
0.0
 20
0.0
 11
1.0
 21
1.0
 12
202.00678374696719
 22
127.4298
 13
0.0
 23
0.0
 14
1.0
 24
1.0
 15
0.0
 25
0.0
 16
0.0
 26
0.0
 36
1.0
 17
0.0
 27
0.0
 37
0.0
 40
299.45358899587342
 41
2.2894736842105261
 42
50.0
 43
0.0
 44
0.0
 50
0.0
 51
0.0
 71
     0
 72
   100
 73
     1
 74
     1
 75
     0
 76
     0
 77
     0
 78
     0
  0
ENDTAB
  0
TABLE
  2
LTYPE
 70
     3
  0
LTYPE
  2
CONTINUOUS
 70
     0
  3
Solid line
 72
    65
 73
     0
 40
0.0
  0
LTYPE
  2
AIGENLINE001
 70
     0
  3
generate AI->DXF Converter
 72
    65
 73
     4
 40
5.8561449999999988
 49
3.5278
 49
-0.776115
 49
0.776115
 49
-0.776115
  0
LTYPE
  2
AIGENLINE002
 70
     0
  3
generate AI->DXF Converter
 72
    65
 73
     6
 40
7.4083750000000004
 49
3.5278
 49
-0.776115
 49
0.776115
 49
-0.776115
 49
0.776115
 49
-0.776115
  0
ENDTAB
  0
TABLE
  2
LAYER
 70
     2
  0
LAYER
  2
0
 70
     0
 62
     7
  6
CONTINUOUS
  0
LAYER
  2
_________2
 70
     0
 62
     7
  6
CONTINUOUS
  0
ENDTAB
  0
TABLE
  2
STYLE
 70
     1
  0
STYLE
  2
STANDARD
 70
     0
 40
0.0
 41
0.0
 50
0.0
 71
     0
 42
0.0
  3
TXT
  4
EXTFONT.SHX
  0
ENDTAB
  0
TABLE
  2
VIEW
 70
     0
  0
ENDTAB
  0
TABLE
  2
UCS
 70
     0
  0
ENDTAB
  0
TABLE
  2
APPID
 70
     1
  0
APPID
  2
ACAD
 70
     0
  0
ENDTAB
  0
TABLE
  2
DIMSTYLE
 70
     1
  0
DIMSTYLE
  2
STANDARD
 70
     0
  3

  4

  5

  6

  7

 40
1.0
 41
0.18
 42
0.0625
 43
0.38
 44
0.18
 45
0.0
 46
0.0
 47
0.0
 48
0.0
140
0.18
141
0.09
142
0.0
143
25.399999999999999
144
1.0
145
0.0
146
1.0
147
0.09
 71
     0
 72
     0
 73
     1
 74
     1
 75
     0
 76
     0
 77
     0
 78
     0
170
     0
171
     2
172
     0
173
     0
174
     0
175
     0
176
     0
177
     0
178
     0
  0
ENDTAB
  0
ENDSEC
  0
SECTION
  2
BLOCKS
  0
BLOCK
  8
0
  2
$MODEL_SPACE
 70
     0
 10
0.0
 20
0.0
 30
0.0
  3
$MODEL_SPACE
  1

  0
ENDBLK
  5
1A
  8
0
  0
BLOCK
 67
     1
  8
0
  2
$PAPER_SPACE
 70
     0
 10
0.0
 20
0.0
 30
0.0
  3
$PAPER_SPACE
  1

  0
ENDBLK
  5
17
 67
     1
  8
0
  0
ENDSEC
  0
SECTION
  2
ENTITIES
  0
TEXT
  5
23
  8
0
 62
     7
 10
57.348799999999997
 20
196.84999999999991
 30
0.0
 40
4.3256500000000004
  1
※スパウトは、固定または
 41
0.5
  0
TEXT
  5
24
  8
0
 62
     7
 10
57.348799999999997
 20
191.4429999999999
 30
0.0
 40
4.3256500000000004
  1
　360%%d回転が設定可能です。
 41
0.5
  0
TEXT
  5
25
  8
0
 62
     7
 10
137.86699999999999
 20
78.191100000000006
 30
0.0
 40
3.660169999999999
  1
取付穴%%c28
 41
0.5
  0
TEXT
  5
26
  8
0
 62
     7
 10
167.76590083333329
 20
89.066599999999994
 30
0.0
 40
3.660169999999999
  1
%%c41
 41
0.5
 72
     1
 11
169.9009999999999
 21
89.066599999999994
 31
0.0
  0
TEXT
  5
27
  8
0
 62
     7
 10
167.44996033333331
 20
113.03700000000001
 30
0.0
 40
3.660169999999999
  1
閉
 41
0.5
 72
     1
 11
168.304
 21
113.03700000000001
 31
0.0
  0
TEXT
  5
28
  8
0
 62
     7
 10
141.16996033333331
 20
93.150499999999994
 30
0.0
 40
3.660169999999999
  1
開
 41
0.5
 72
     1
 11
142.02399999999989
 21
93.150499999999994
 31
0.0
  0
TEXT
  5
29
  8
0
 62
     7
 10
132.25
 20
57.405999999999999
 30
0.0
 40
3.660169999999999
  1
〔JIS B 2061〕
 41
0.5
  0
TEXT
  5
2A
  8
0
 62
     7
 10
133.13599999999991
 20
62.477499999999992
 30
0.0
 40
3.660169999999999
  1
PJ 1/2
 41
0.5
  0
TEXT
  5
2B
  8
0
 62
     7
 10
116.22799999999989
 20
103.29299999999991
 30
0.0
 40
3.660169999999999
  1
レバー回転角度約120%%d
 41
0.5
  0
TEXT
  5
2C
  8
0
 62
     7
 10
137.98640791666659
 20
123.44499999999999
 30
0.0
 40
3.660169999999999
  1
109
 41
0.5
 72
     1
 11
139.96899999999991
 21
123.44499999999999
 31
0.0
  0
TEXT
  5
2D
  8
0
 62
     7
 10
119.53391499999989
 20
118.31
 30
0.0
 40
3.660169999999999
  1
18%%d
 41
0.5
 72
     1
 11
121.3639999999999
 21
118.31
 31
0.0
  0
TEXT
  5
2E
  8
0
 62
     7
 10
56.196629166666661
 20
132.928
 30
0.0
 40
3.660169999999999
  1
77
 41
0.5
 72
     1
 11
57.721699999999998
 21
132.928
 31
0.0
  0
TEXT
  5
2F
  8
0
 62
     7
 10
53.725129166666669
 20
125.37
 30
0.0
 40
3.660169999999999
  1
62
 41
0.5
 72
     1
 11
55.2502
 21
125.37
 31
0.0
  0
TEXT
  5
30
  8
0
 62
     7
 10
79.572000000000003
 20
72.623529166666671
 30
0.0
 40
3.660169999999999
  1
56
 50
90.0
 41
0.5
 72
     1
 11
79.572000000000003
 21
74.148600000000002
 31
0.0
  0
TEXT
  5
31
  8
0
 62
     7
 10
79.572000000000003
 20
92.232729166666672
 30
0.0
 40
3.660169999999999
  1
62
 50
90.0
 41
0.5
 72
     1
 11
79.572000000000003
 21
93.757800000000003
 31
0.0
  0
TEXT
  5
32
  8
0
 62
     7
 10
79.572000000000003
 20
107.5519291666666
 30
0.0
 40
3.660169999999999
  1
32
 50
90.0
 41
0.5
 72
     1
 11
79.572000000000003
 21
109.077
 31
0.0
  0
TEXT
  5
33
  8
0
 62
     7
 10
96.492700000000013
 20
74.44669458333334
 30
0.0
 40
3.660169999999999
  1
max.30
 50
90.0
 41
0.5
 72
     1
 11
96.492700000000013
 21
78.869399999999999
 31
0.0
  0
TEXT
  5
34
  8
0
 62
     7
 10
96.978800000000007
 20
117.71590083333329
 30
0.0
 40
3.660169999999999
  1
231
 50
90.0
 41
0.5
 72
     1
 11
96.978800000000007
 21
119.8509999999999
 31
0.0
  0
TEXT
  5
35
  8
0
 62
     7
 10
111.2339999999999
 20
106.51040791666659
 30
0.0
 40
3.660169999999999
  1
150
 50
90.0
 41
0.5
 72
     1
 11
111.2339999999999
 21
108.4929999999999
 31
0.0
  0
TEXT
  5
36
  8
0
 62
     7
 10
104.044
 20
106.60890083333329
 30
0.0
 40
3.660169999999999
  1
153
 50
90.0
 41
0.5
 72
     1
 11
104.044
 21
108.7439999999999
 31
0.0
  0
ARC
  5
37
  8
0
 62
     7
 10
44.924661
 20
228.358868
 30
0.0
 40
31.80564699999999
 50
269.93393700000001
 51
290.20482299999992
  0
ARC
  5
38
  8
0
 62
     7
 10
44.902616999999999
 20
228.64251999999999
 30
0.0
 40
32.089281
 50
249.883926
 51
269.973882
  0
LINE
  5
39
  8
0
 62
     7
 10
35.825299999999999
 20
197.327
 30
0.0
 11
33.866399999999992
 21
198.51099999999991
 31
0.0
  0
LINE
  5
3A
  8
0
 62
     7
 10
33.866399999999992
 20
198.51099999999991
 30
0.0
 11
36.154600000000002
 21
198.465
 31
0.0
  0
LINE
  5
3B
  8
0
 62
     7
 10
36.154600000000002
 20
198.465
 30
0.0
 11
35.825299999999999
 21
197.327
 31
0.0
  0
LINE
  5
3C
  8
0
 62
     7
 10
53.950699999999998
 20
197.32599999999991
 30
0.0
 11
55.909300000000002
 21
198.50999999999991
 31
0.0
  0
LINE
  5
3D
  8
0
 62
     7
 10
55.909300000000002
 20
198.50999999999991
 30
0.0
 11
53.621400000000001
 21
198.465
 31
0.0
  0
LINE
  5
3E
  8
0
 62
     7
 10
53.621400000000001
 20
198.465
 30
0.0
 11
53.950699999999998
 21
197.32599999999991
 31
0.0
  0
ARC
  5
3F
  8
0
 62
     7
 10
104.455388
 20
150.92265
 30
0.0
 40
74.958527000000004
 50
224.12443699999989
 51
224.73078199999989
  0
ARC
  5
40
  8
0
 62
     7
 10
74.203006000000002
 20
121.59030799999999
 30
0.0
 40
32.820743
 50
221.879865
 51
224.136054
  0
ARC
  5
41
  8
0
 62
     7
 10
60.745517
 20
109.4670709999999
 30
0.0
 40
14.707960999999999
 50
216.72503299999991
 51
221.714358
  0
ARC
  5
42
  8
0
 62
     7
 10
55.255023000000001
 20
105.29348999999991
 30
0.0
 40
7.8117979999999987
 50
209.45023399999999
 51
216.2702339999999
  0
ARC
  5
43
  8
0
 62
     7
 10
52.953229999999998
 20
103.96005599999999
 30
0.0
 40
5.1519129999999986
 50
194.22187699999989
 51
209.123099
  0
ARC
  5
44
  8
0
 62
     7
 10
52.48841800000001
 20
103.7810209999999
 30
0.0
 40
4.6577409999999997
 50
179.57998599999999
 51
193.49172999999999
  0
ARC
  5
45
  8
0
 62
     7
 10
104.455388
 20
56.707676999999997
 30
0.0
 40
74.958527000000004
 50
135.269218
 51
135.875563
  0
ARC
  5
46
  8
0
 62
     7
 10
74.203006000000002
 20
86.040019000000001
 30
0.0
 40
32.820743
 50
135.863946
 51
138.12013499999989
  0
ARC
  5
47
  8
0
 62
     7
 10
60.745517
 20
98.163256000000004
 30
0.0
 40
14.707960999999999
 50
138.28564199999991
 51
143.27496699999989
  0
ARC
  5
48
  8
0
 62
     7
 10
55.255023000000001
 20
102.3368379999999
 30
0.0
 40
7.8117979999999987
 50
143.7297659999999
 51
150.54976600000001
  0
ARC
  5
49
  8
0
 62
     7
 10
52.953229999999998
 20
103.6702709999999
 30
0.0
 40
5.1519129999999986
 50
150.87690099999989
 51
165.77812299999991
  0
ARC
  5
4A
  8
0
 62
     7
 10
52.48841800000001
 20
103.8493059999999
 30
0.0
 40
4.6577409999999997
 50
166.5082699999999
 51
180.42001400000001
  0
LINE
  5
4B
  8
0
 62
     7
 10
79.909499999999994
 20
67.025800000000004
 30
0.0
 11
80.501699999999985
 21
64.815100000000001
 31
0.0
  0
LINE
  5
4C
  8
0
 62
     7
 10
80.501699999999985
 20
64.815100000000001
 30
0.0
 11
81.094099999999997
 21
67.025800000000004
 31
0.0
  0
LINE
  5
4D
  8
0
 62
     7
 10
81.094099999999997
 20
67.025800000000004
 30
0.0
 11
79.909499999999994
 21
67.025800000000004
 31
0.0
  0
LINE
  5
4E
  8
0
 62
     7
 10
79.916700000000006
 20
85.692499999999995
 30
0.0
 11
80.508899999999997
 21
83.481700000000004
 31
0.0
  0
LINE
  5
4F
  8
0
 62
     7
 10
80.508899999999997
 20
83.481700000000004
 30
0.0
 11
81.101299999999995
 21
85.692499999999995
 31
0.0
  0
LINE
  5
50
  8
0
 62
     7
 10
81.101299999999995
 20
85.692499999999995
 30
0.0
 11
79.916700000000006
 21
85.692499999999995
 31
0.0
  0
LINE
  5
51
  8
0
 62
     7
 10
79.916700000000006
 20
106.026
 30
0.0
 11
80.508899999999997
 21
103.8149999999999
 31
0.0
  0
LINE
  5
52
  8
0
 62
     7
 10
80.508899999999997
 20
103.8149999999999
 30
0.0
 11
81.101299999999995
 21
106.026
 31
0.0
  0
LINE
  5
53
  8
0
 62
     7
 10
81.101299999999995
 20
106.026
 30
0.0
 11
79.916700000000006
 21
106.026
 31
0.0
  0
LINE
  5
54
  8
0
 62
     7
 10
98.521199999999993
 20
81.271000000000001
 30
0.0
 11
97.929400000000015
 21
83.481700000000004
 31
0.0
  0
LINE
  5
55
  8
0
 62
     7
 10
97.929400000000015
 20
83.481700000000004
 30
0.0
 11
97.336799999999997
 21
81.271000000000001
 31
0.0
  0
LINE
  5
56
  8
0
 62
     7
 10
97.336799999999997
 20
81.271000000000001
 30
0.0
 11
98.521199999999993
 21
81.271000000000001
 31
0.0
  0
LINE
  5
57
  8
0
 62
     7
 10
81.101200000000006
 20
81.271000000000001
 30
0.0
 11
80.508899999999997
 21
83.481700000000004
 31
0.0
  0
LINE
  5
58
  8
0
 62
     7
 10
80.508899999999997
 20
83.481700000000004
 30
0.0
 11
79.916600000000003
 21
81.271000000000001
 31
0.0
  0
LINE
  5
59
  8
0
 62
     7
 10
79.916600000000003
 20
81.271000000000001
 30
0.0
 11
81.101200000000006
 21
81.271000000000001
 31
0.0
  0
LINE
  5
5A
  8
0
 62
     7
 10
81.086699999999993
 20
101.604
 30
0.0
 11
80.494500000000002
 21
103.8149999999999
 31
0.0
  0
LINE
  5
5B
  8
0
 62
     7
 10
80.494500000000002
 20
103.8149999999999
 30
0.0
 11
79.902100000000004
 21
101.604
 31
0.0
  0
LINE
  5
5C
  8
0
 62
     7
 10
79.902100000000004
 20
101.604
 30
0.0
 11
81.086699999999993
 21
101.604
 31
0.0
  0
LINE
  5
5D
  8
0
 62
     7
 10
81.086699999999993
 20
112.271
 30
0.0
 11
80.494500000000002
 21
114.482
 31
0.0
  0
LINE
  5
5E
  8
0
 62
     7
 10
80.494500000000002
 20
114.482
 30
0.0
 11
79.902100000000004
 21
112.271
 31
0.0
  0
LINE
  5
5F
  8
0
 62
     7
 10
79.902100000000004
 20
112.271
 30
0.0
 11
81.086699999999993
 21
112.271
 31
0.0
  0
LINE
  5
60
  8
0
 62
     7
 10
80.501699999999985
 20
64.815100000000001
 30
0.0
 11
80.501699999999985
 21
114.482
 31
0.0
  0
LINE
  5
61
  8
0
 62
     7
 10
81.501700000000014
 20
103.8149999999999
 30
0.0
 11
73.350200000000001
 21
103.8149999999999
 31
0.0
  0
LINE
  5
62
  8
0
 62
     7
 10
81.501700000000014
 20
114.482
 30
0.0
 11
67.919300000000007
 21
114.482
 31
0.0
  0
LINE
  5
63
  8
0
 62
     7
 10
47.098700000000001
 20
132.61899999999989
 30
0.0
 11
44.888300000000001
 21
132.02699999999999
 31
0.0
  0
LINE
  5
64
  8
0
 62
     7
 10
44.888300000000001
 20
132.02699999999999
 30
0.0
 11
47.098700000000001
 21
131.435
 31
0.0
  0
LINE
  5
65
  8
0
 62
     7
 10
47.098700000000001
 20
131.435
 30
0.0
 11
47.098700000000001
 21
132.61899999999989
 31
0.0
  0
LINE
  5
66
  8
0
 62
     7
 10
68.344599999999986
 20
131.4489999999999
 30
0.0
 11
70.555099999999996
 21
132.042
 31
0.0
  0
LINE
  5
67
  8
0
 62
     7
 10
70.555099999999996
 20
132.042
 30
0.0
 11
68.344599999999986
 21
132.6339999999999
 31
0.0
  0
LINE
  5
68
  8
0
 62
     7
 10
68.344599999999986
 20
132.6339999999999
 30
0.0
 11
68.344599999999986
 21
131.4489999999999
 31
0.0
  0
LINE
  5
69
  8
0
 62
     7
 10
44.888300000000001
 20
132.03399999999991
 30
0.0
 11
70.555099999999996
 21
132.03399999999991
 31
0.0
  0
LINE
  5
6A
  8
0
 62
     7
 10
70.555099999999996
 20
133.03399999999991
 30
0.0
 11
70.555099999999996
 21
110.586
 31
0.0
  0
LINE
  5
6B
  8
0
 62
     7
 10
47.098399999999991
 20
125.07299999999989
 30
0.0
 11
44.887999999999998
 21
124.48
 31
0.0
  0
LINE
  5
6C
  8
0
 62
     7
 10
44.887999999999998
 20
124.48
 30
0.0
 11
47.098399999999991
 21
123.88799999999991
 31
0.0
  0
LINE
  5
6D
  8
0
 62
     7
 10
47.098399999999991
 20
123.88799999999991
 30
0.0
 11
47.098399999999991
 21
125.07299999999989
 31
0.0
  0
LINE
  5
6E
  8
0
 62
     7
 10
63.344299999999997
 20
123.90299999999991
 30
0.0
 11
65.554900000000004
 21
124.495
 31
0.0
  0
LINE
  5
6F
  8
0
 62
     7
 10
65.554900000000004
 20
124.495
 30
0.0
 11
63.344299999999997
 21
125.087
 31
0.0
  0
LINE
  5
70
  8
0
 62
     7
 10
63.344299999999997
 20
125.087
 30
0.0
 11
63.344299999999997
 21
123.90299999999991
 31
0.0
  0
LINE
  5
71
  8
0
 62
     7
 10
44.887999999999998
 20
124.4879999999999
 30
0.0
 11
65.554900000000004
 21
124.4879999999999
 31
0.0
  0
LINE
  5
72
  8
0
 62
     7
 10
65.554900000000004
 20
116.376
 30
0.0
 11
65.554900000000004
 21
125.4879999999999
 31
0.0
  0
ARC
  5
73
  8
0
 62
     7
 10
122.506215
 20
134.59930900000001
 30
0.0
 40
12.181975
 50
227.8795209999999
 51
269.7865339999999
  0
LINE
  5
74
  8
0
 62
     7
 10
147.87499999999989
 20
97.509900000000016
 30
0.0
 11
144.83600000000001
 21
95.755300000000005
 31
0.0
  0
LINE
  5
75
  8
0
 62
     7
 10
156.58500000000001
 20
118.66200000000001
 30
0.0
 11
158.79499999999999
 21
119.25399999999991
 31
0.0
  0
LINE
  5
76
  8
0
 62
     7
 10
158.79499999999999
 20
119.25399999999991
 30
0.0
 11
156.58500000000001
 21
119.846
 31
0.0
  0
LINE
  5
77
  8
0
 62
     7
 10
156.58500000000001
 20
119.846
 30
0.0
 11
156.58500000000001
 21
118.66200000000001
 31
0.0
  0
LINE
  5
78
  8
0
 62
     7
 10
143.80600000000001
 20
97.714500000000015
 30
0.0
 11
145.42500000000001
 21
96.096000000000004
 31
0.0
  0
LINE
  5
79
  8
0
 62
     7
 10
145.42500000000001
 20
96.096000000000004
 30
0.0
 11
144.83199999999999
 21
98.306799999999996
 31
0.0
  0
LINE
  5
7A
  8
0
 62
     7
 10
144.83199999999999
 20
98.306799999999996
 30
0.0
 11
143.80600000000001
 21
97.714500000000015
 31
0.0
  0
ARC
  5
7B
  8
0
 62
     7
 10
158.79510400000001
 20
103.815161
 30
0.0
 40
15.438950999999999
 50
90.0
 51
179.99996999999991
  0
ARC
  5
7C
  8
0
 62
     7
 10
158.87811199999999
 20
103.837789
 30
0.0
 40
15.521976
 50
180.08353700000001
 51
209.9180759999999
  0
LINE
  5
7D
  8
0
 62
     7
 10
116.2349999999999
 20
102.327
 30
0.0
 11
139.1279999999999
 21
102.327
 31
0.0
  0
LINE
  5
7E
  8
0
 62
     7
 10
141.84499999999991
 20
103.325
 30
0.0
 11
143.40600000000001
 21
104.99799999999991
 31
0.0
  0
LINE
  5
7F
  8
0
 62
     7
 10
143.40600000000001
 20
104.99799999999991
 30
0.0
 11
141.21700000000001
 21
104.3299999999999
 31
0.0
  0
LINE
  5
80
  8
0
 62
     7
 10
141.21700000000001
 20
104.3299999999999
 30
0.0
 11
141.84499999999991
 21
103.325
 31
0.0
  0
LINE
  5
81
  8
0
 62
     7
 10
143.40600000000001
 20
104.99799999999991
 30
0.0
 11
139.1279999999999
 21
102.327
 31
0.0
  0
LINE
  5
82
  8
0
 62
     7
 10
132.9129999999999
 20
61.4953
 30
0.0
 11
150.39500000000001
 21
61.4953
 31
0.0
  0
LINE
  5
83
  8
0
 62
     7
 10
154.38800000000001
 20
65.594999999999985
 30
0.0
 11
155.2939999999999
 21
67.696600000000004
 31
0.0
  0
LINE
  5
84
  8
0
 62
     7
 10
155.2939999999999
 20
67.696600000000004
 30
0.0
 11
153.459
 21
66.329499999999996
 31
0.0
  0
LINE
  5
85
  8
0
 62
     7
 10
153.459
 20
66.329499999999996
 30
0.0
 11
154.38800000000001
 21
65.594999999999985
 31
0.0
  0
LINE
  5
86
  8
0
 62
     7
 10
155.2939999999999
 20
67.696600000000004
 30
0.0
 11
150.39500000000001
 21
61.4953
 31
0.0
  0
LINE
  5
87
  8
0
 62
     7
 10
150.977
 20
73.4816
 30
0.0
 11
96.928899999999999
 21
73.4816
 31
0.0
  0
LINE
  5
88
  8
0
 62
     7
 10
111.565
 20
85.692499999999995
 30
0.0
 11
112.1579999999999
 21
83.481700000000004
 31
0.0
  0
LINE
  5
89
  8
0
 62
     7
 10
112.1579999999999
 20
83.481700000000004
 30
0.0
 11
112.7489999999999
 21
85.692499999999995
 31
0.0
  0
LINE
  5
8A
  8
0
 62
     7
 10
112.7489999999999
 20
85.692499999999995
 30
0.0
 11
111.565
 21
85.692499999999995
 31
0.0
  0
LINE
  5
8B
  8
0
 62
     7
 10
112.735
 20
131.29300000000001
 30
0.0
 11
112.1429999999999
 21
133.50399999999999
 31
0.0
  0
LINE
  5
8C
  8
0
 62
     7
 10
112.1429999999999
 20
133.50399999999999
 30
0.0
 11
111.5499999999999
 21
131.29300000000001
 31
0.0
  0
LINE
  5
8D
  8
0
 62
     7
 10
111.5499999999999
 20
131.29300000000001
 30
0.0
 11
112.735
 21
131.29300000000001
 31
0.0
  0
LINE
  5
8E
  8
0
 62
     7
 10
112.15000000000001
 20
83.481700000000004
 30
0.0
 11
112.15000000000001
 21
133.50399999999999
 31
0.0
  0
LINE
  5
8F
  8
0
 62
     7
 10
123.73
 20
133.50399999999999
 30
0.0
 11
111.15000000000001
 21
133.50399999999999
 31
0.0
  0
LINE
  5
90
  8
0
 62
     7
 10
104.3749999999999
 20
85.692099999999996
 30
0.0
 11
104.9679999999999
 21
83.481399999999994
 31
0.0
  0
LINE
  5
91
  8
0
 62
     7
 10
104.9679999999999
 20
83.481399999999994
 30
0.0
 11
105.559
 21
85.692099999999996
 31
0.0
  0
LINE
  5
92
  8
0
 62
     7
 10
105.559
 20
85.692099999999996
 30
0.0
 11
104.3749999999999
 21
85.692099999999996
 31
0.0
  0
LINE
  5
93
  8
0
 62
     7
 10
105.5449999999999
 20
132.27199999999999
 30
0.0
 11
104.9529999999999
 21
134.48299999999989
 31
0.0
  0
LINE
  5
94
  8
0
 62
     7
 10
104.9529999999999
 20
134.48299999999989
 30
0.0
 11
104.361
 21
132.27199999999999
 31
0.0
  0
LINE
  5
95
  8
0
 62
     7
 10
104.361
 20
132.27199999999999
 30
0.0
 11
105.5449999999999
 21
132.27199999999999
 31
0.0
  0
LINE
  5
96
  8
0
 62
     7
 10
104.95999999999989
 20
83.481399999999994
 30
0.0
 11
104.95999999999989
 21
134.48299999999989
 31
0.0
  0
LINE
  5
97
  8
0
 62
     7
 10
97.344399999999993
 20
85.692499999999995
 30
0.0
 11
97.936199999999999
 21
83.481700000000004
 31
0.0
  0
LINE
  5
98
  8
0
 62
     7
 10
97.936199999999999
 20
83.481700000000004
 30
0.0
 11
98.528800000000004
 21
85.692499999999995
 31
0.0
  0
LINE
  5
99
  8
0
 62
     7
 10
98.528800000000004
 20
85.692499999999995
 30
0.0
 11
97.344399999999993
 21
85.692499999999995
 31
0.0
  0
LINE
  5
9A
  8
0
 62
     7
 10
97.344399999999993
 20
75.692300000000003
 30
0.0
 11
97.936199999999999
 21
73.4816
 31
0.0
  0
LINE
  5
9B
  8
0
 62
     7
 10
97.936199999999999
 20
73.4816
 30
0.0
 11
98.528800000000004
 21
75.692300000000003
 31
0.0
  0
LINE
  5
9C
  8
0
 62
     7
 10
98.528800000000004
 20
75.692300000000003
 30
0.0
 11
97.344399999999993
 21
75.692300000000003
 31
0.0
  0
LINE
  5
9D
  8
0
 62
     7
 10
98.514300000000006
 20
158.27199999999999
 30
0.0
 11
97.921800000000005
 21
160.482
 31
0.0
  0
LINE
  5
9E
  8
0
 62
     7
 10
97.921800000000005
 20
160.482
 30
0.0
 11
97.329899999999995
 21
158.27199999999999
 31
0.0
  0
LINE
  5
9F
  8
0
 62
     7
 10
97.329899999999995
 20
158.27199999999999
 30
0.0
 11
98.514300000000006
 21
158.27199999999999
 31
0.0
  0
LINE
  5
A0
  8
0
 62
     7
 10
97.929400000000015
 20
73.4816
 30
0.0
 11
97.929400000000015
 21
160.48299999999989
 31
0.0
  0
LINE
  5
A1
  8
0
 62
     7
 10
134.471
 20
160.48299999999989
 30
0.0
 11
96.928899999999999
 21
160.48299999999989
 31
0.0
  0
LINE
  5
A2
  8
0
 62
     7
 10
150.977
 20
83.481700000000004
 30
0.0
 11
96.928899999999999
 21
83.481700000000004
 31
0.0
  0
LINE
  5
A3
  8
0
 62
     7
 10
119.82299999999989
 20
134.48299999999989
 30
0.0
 11
103.95999999999989
 21
134.48299999999989
 31
0.0
  0
LINE
  5
A4
  8
0
 62
     7
 10
156.584
 20
121.83199999999999
 30
0.0
 11
158.79499999999999
 21
122.425
 31
0.0
  0
LINE
  5
A5
  8
0
 62
     7
 10
158.79499999999999
 20
122.425
 30
0.0
 11
156.584
 21
123.017
 31
0.0
  0
LINE
  5
A6
  8
0
 62
     7
 10
156.584
 20
123.017
 30
0.0
 11
156.584
 21
121.83199999999999
 31
0.0
  0
LINE
  5
A7
  8
0
 62
     7
 10
116.46899999999999
 20
123.346
 30
0.0
 11
118.733
 21
123.005
 31
0.0
  0
LINE
  5
A8
  8
0
 62
     7
 10
118.733
 20
123.005
 30
0.0
 11
116.94199999999999
 21
124.432
 31
0.0
  0
LINE
  5
A9
  8
0
 62
     7
 10
116.94199999999999
 20
124.432
 30
0.0
 11
116.46899999999999
 21
123.346
 31
0.0
  0
LINE
  5
AA
  8
0
 62
     7
 10
124.672
 20
123.002
 30
0.0
 11
122.4609999999999
 21
122.4099999999999
 31
0.0
  0
LINE
  5
AB
  8
0
 62
     7
 10
122.4609999999999
 20
122.4099999999999
 30
0.0
 11
124.672
 21
121.818
 31
0.0
  0
LINE
  5
AC
  8
0
 62
     7
 10
124.672
 20
121.818
 30
0.0
 11
124.672
 21
123.002
 31
0.0
  0
LINE
  5
AD
  8
0
 62
     7
 10
158.7939999999999
 20
122.4169999999999
 30
0.0
 11
122.4609999999999
 21
122.4169999999999
 31
0.0
  0
LINE
  5
AE
  8
0
  6
AIGENLINE001
 62
     7
 10
148.21600000000001
 20
97.706599999999995
 30
0.0
 11
160.98799999999989
 21
105.081
 31
0.0
  0
LINE
  5
AF
  8
0
  6
AIGENLINE002
 62
     7
 10
154.48699999999991
 20
99.403300000000016
 30
0.0
 11
150.39099999999991
 21
97.038600000000002
 31
0.0
  0
LINE
  5
B0
  8
0
  6
AIGENLINE002
 62
     7
 10
152.81999999999999
 20
102.29000000000001
 30
0.0
 11
148.7239999999999
 21
99.925299999999993
 31
0.0
  0
LINE
  5
B1
  8
0
  6
AIGENLINE002
 62
     7
 10
150.39099999999991
 20
97.038600000000002
 30
0.0
 11
148.7239999999999
 21
99.925299999999993
 31
0.0
  0
LINE
  5
B2
  8
0
 62
     7
 10
154.17199999999991
 20
88.462299999999999
 30
0.0
 11
151.96199999999999
 21
87.870099999999994
 31
0.0
  0
LINE
  5
B3
  8
0
 62
     7
 10
151.96199999999999
 20
87.870099999999994
 30
0.0
 11
154.17199999999991
 21
87.277900000000002
 31
0.0
  0
LINE
  5
B4
  8
0
 62
     7
 10
154.17199999999991
 20
87.277900000000002
 30
0.0
 11
154.17199999999991
 21
88.462299999999999
 31
0.0
  0
LINE
  5
B5
  8
0
 62
     7
 10
163.41800000000001
 20
87.292400000000001
 30
0.0
 11
165.62899999999999
 21
87.884600000000006
 31
0.0
  0
LINE
  5
B6
  8
0
 62
     7
 10
165.62899999999999
 20
87.884600000000006
 30
0.0
 11
163.41800000000001
 21
88.476799999999997
 31
0.0
  0
LINE
  5
B7
  8
0
 62
     7
 10
163.41800000000001
 20
88.476799999999997
 30
0.0
 11
163.41800000000001
 21
87.292400000000001
 31
0.0
  0
LINE
  5
B8
  8
0
 62
     7
 10
151.96199999999999
 20
87.877399999999994
 30
0.0
 11
173.27199999999999
 21
87.877399999999994
 31
0.0
  0
LINE
  5
B9
  8
0
 62
     7
 10
156.33799999999991
 20
77.375600000000006
 30
0.0
 11
154.1279999999999
 21
76.7834
 31
0.0
  0
LINE
  5
BA
  8
0
 62
     7
 10
154.1279999999999
 20
76.7834
 30
0.0
 11
156.33799999999991
 21
76.191199999999995
 31
0.0
  0
LINE
  5
BB
  8
0
 62
     7
 10
156.33799999999991
 20
76.191199999999995
 30
0.0
 11
156.33799999999991
 21
77.375600000000006
 31
0.0
  0
LINE
  5
BC
  8
0
 62
     7
 10
161.25
 20
76.205600000000004
 30
0.0
 11
163.46100000000001
 21
76.797899999999998
 31
0.0
  0
LINE
  5
BD
  8
0
 62
     7
 10
163.46100000000001
 20
76.797899999999998
 30
0.0
 11
161.25
 21
77.390100000000004
 31
0.0
  0
LINE
  5
BE
  8
0
 62
     7
 10
161.25
 20
77.390100000000004
 30
0.0
 11
161.25
 21
76.205600000000004
 31
0.0
  0
LINE
  5
BF
  8
0
 62
     7
 10
137.61600000000001
 20
76.790599999999984
 30
0.0
 11
163.46100000000001
 21
76.790599999999984
 31
0.0
  0
LINE
  5
C0
  8
0
  6
AIGENLINE002
 62
     7
 10
163.46000000000001
 20
83.148600000000016
 30
0.0
 11
163.46000000000001
 21
73.4816
 31
0.0
  0
LINE
  5
C1
  8
0
  6
AIGENLINE002
 62
     7
 10
154.1279999999999
 20
83.148600000000016
 30
0.0
 11
154.1279999999999
 21
73.4816
 31
0.0
  0
LINE
  5
C2
  8
0
 62
     7
 10
155.2939999999999
 20
70.4816
 30
0.0
 11
155.2939999999999
 21
65.148200000000003
 31
0.0
  0
LINE
  5
C3
  8
0
 62
     7
 10
162.2939999999999
 20
70.4816
 30
0.0
 11
162.2939999999999
 21
65.148200000000003
 31
0.0
  0
LINE
  5
C4
  8
0
 62
     7
 10
161.96000000000001
 20
70.4816
 30
0.0
 11
161.96000000000001
 21
64.815100000000001
 31
0.0
  0
LINE
  5
C5
  8
0
 62
     7
 10
155.6279999999999
 20
70.4816
 30
0.0
 11
155.6279999999999
 21
64.815100000000001
 31
0.0
  0
LINE
  5
C6
  8
0
 62
     7
 10
155.6279999999999
 20
83.148600000000016
 30
0.0
 11
155.6279999999999
 21
73.4816
 31
0.0
  0
LINE
  5
C7
  8
0
 62
     7
 10
161.96000000000001
 20
83.148600000000016
 30
0.0
 11
161.96000000000001
 21
73.4816
 31
0.0
  0
LINE
  5
C8
  8
0
 62
     7
 10
162.2939999999999
 20
83.148600000000016
 30
0.0
 11
162.2939999999999
 21
73.4816
 31
0.0
  0
LINE
  5
C9
  8
0
 62
     7
 10
155.2939999999999
 20
83.148600000000016
 30
0.0
 11
155.2939999999999
 21
73.4816
 31
0.0
  0
LINE
  5
CA
  8
0
 62
     7
 10
156.7939999999999
 20
70.4816
 30
0.0
 11
156.7939999999999
 21
73.148099999999999
 31
0.0
  0
LINE
  5
CB
  8
0
 62
     7
 10
160.7939999999999
 20
70.4816
 30
0.0
 11
160.7939999999999
 21
73.148499999999984
 31
0.0
  0
LINE
  5
CC
  8
0
 62
     7
 10
163.46000000000001
 20
70.4816
 30
0.0
 11
163.46000000000001
 21
73.148499999999984
 31
0.0
  0
LINE
  5
CD
  8
0
 62
     7
 10
154.1279999999999
 20
70.4816
 30
0.0
 11
154.1279999999999
 21
73.148499999999984
 31
0.0
  0
LINE
  5
CE
  8
0
 62
     7
 10
154.1279999999999
 20
70.4816
 30
0.0
 11
163.46000000000001
 21
70.4816
 31
0.0
  0
LINE
  5
CF
  8
0
 62
     7
 10
165.4609999999999
 20
73.148099999999999
 30
0.0
 11
165.4609999999999
 21
73.4816
 31
0.0
  0
LINE
  5
D0
  8
0
 62
     7
 10
152.12700000000001
 20
73.148099999999999
 30
0.0
 11
152.12700000000001
 21
73.4816
 31
0.0
  0
LINE
  5
D1
  8
0
 62
     7
 10
152.12700000000001
 20
73.148099999999999
 30
0.0
 11
165.4609999999999
 21
73.148099999999999
 31
0.0
  0
LINE
  5
D2
  8
0
 62
     7
 10
152.12700000000001
 20
73.4816
 30
0.0
 11
165.4609999999999
 21
73.4816
 31
0.0
  0
LINE
  5
D3
  8
0
 62
     7
 10
165.4609999999999
 20
83.481700000000004
 30
0.0
 11
165.4609999999999
 21
83.148600000000016
 31
0.0
  0
LINE
  5
D4
  8
0
 62
     7
 10
152.12700000000001
 20
83.148600000000016
 30
0.0
 11
152.12700000000001
 21
83.481700000000004
 31
0.0
  0
LINE
  5
D5
  8
0
 62
     7
 10
152.12700000000001
 20
83.148600000000016
 30
0.0
 11
165.4609999999999
 21
83.148600000000016
 31
0.0
  0
LINE
  5
D6
  8
0
 62
     7
 10
41.387700000000002
 20
70.4816
 30
0.0
 11
41.387700000000002
 21
65.148200000000003
 31
0.0
  0
LINE
  5
D7
  8
0
 62
     7
 10
48.387900000000002
 20
70.4816
 30
0.0
 11
48.387900000000002
 21
65.148200000000003
 31
0.0
  0
LINE
  5
D8
  8
0
 62
     7
 10
48.05469999999999
 20
70.4816
 30
0.0
 11
48.05469999999999
 21
64.815100000000001
 31
0.0
  0
LINE
  5
D9
  8
0
 62
     7
 10
41.721200000000003
 20
70.4816
 30
0.0
 11
41.721200000000003
 21
64.815100000000001
 31
0.0
  0
LINE
  5
DA
  8
0
 62
     7
 10
41.721200000000003
 20
83.148600000000016
 30
0.0
 11
41.721200000000003
 21
73.4816
 31
0.0
  0
LINE
  5
DB
  8
0
 62
     7
 10
48.05469999999999
 20
83.148600000000016
 30
0.0
 11
48.05469999999999
 21
73.4816
 31
0.0
  0
LINE
  5
DC
  8
0
 62
     7
 10
48.387900000000002
 20
83.148600000000016
 30
0.0
 11
48.387900000000002
 21
73.4816
 31
0.0
  0
LINE
  5
DD
  8
0
 62
     7
 10
41.387700000000002
 20
83.148600000000016
 30
0.0
 11
41.387700000000002
 21
73.4816
 31
0.0
  0
LINE
  5
DE
  8
0
 62
     7
 10
42.887700000000002
 20
70.4816
 30
0.0
 11
42.887700000000002
 21
73.148099999999999
 31
0.0
  0
LINE
  5
DF
  8
0
 62
     7
 10
46.887900000000002
 20
70.4816
 30
0.0
 11
46.887900000000002
 21
73.148499999999984
 31
0.0
  0
LINE
  5
E0
  8
0
 62
     7
 10
49.554699999999997
 20
70.4816
 30
0.0
 11
49.554699999999997
 21
73.148499999999984
 31
0.0
  0
LINE
  5
E1
  8
0
 62
     7
 10
40.221200000000003
 20
70.4816
 30
0.0
 11
40.221200000000003
 21
73.148499999999984
 31
0.0
  0
LINE
  5
E2
  8
0
 62
     7
 10
155.2939999999999
 20
65.148200000000003
 30
0.0
 11
155.62700000000001
 21
64.815100000000001
 31
0.0
  0
LINE
  5
E3
  8
0
 62
     7
 10
161.96100000000001
 20
64.815100000000001
 30
0.0
 11
162.2939999999999
 21
65.148200000000003
 31
0.0
  0
LINE
  5
E4
  8
0
 62
     7
 10
155.62700000000001
 20
64.815100000000001
 30
0.0
 11
161.96100000000001
 21
64.815100000000001
 31
0.0
  0
LINE
  5
E5
  8
0
 62
     7
 10
155.2939999999999
 20
65.148200000000003
 30
0.0
 11
162.2939999999999
 21
65.148200000000003
 31
0.0
  0
LINE
  5
E6
  8
0
 62
     7
 10
41.387700000000002
 20
65.148200000000003
 30
0.0
 11
41.721200000000003
 21
64.815100000000001
 31
0.0
  0
LINE
  5
E7
  8
0
 62
     7
 10
48.05469999999999
 20
64.815100000000001
 30
0.0
 11
48.387900000000002
 21
65.148200000000003
 31
0.0
  0
LINE
  5
E8
  8
0
 62
     7
 10
41.721200000000003
 20
64.815100000000001
 30
0.0
 11
48.05469999999999
 21
64.815100000000001
 31
0.0
  0
LINE
  5
E9
  8
0
 62
     7
 10
40.221200000000003
 20
70.4816
 30
0.0
 11
49.554699999999997
 21
70.4816
 31
0.0
  0
LINE
  5
EA
  8
0
 62
     7
 10
51.554600000000001
 20
73.148099999999999
 30
0.0
 11
51.554600000000001
 21
73.4816
 31
0.0
  0
LINE
  5
EB
  8
0
 62
     7
 10
38.221299999999992
 20
73.148099999999999
 30
0.0
 11
38.221299999999992
 21
73.4816
 31
0.0
  0
LINE
  5
EC
  8
0
 62
     7
 10
38.221299999999992
 20
73.148099999999999
 30
0.0
 11
51.554600000000001
 21
73.148099999999999
 31
0.0
  0
LINE
  5
ED
  8
0
 62
     7
 10
38.221299999999992
 20
73.4816
 30
0.0
 11
51.554600000000001
 21
73.4816
 31
0.0
  0
LINE
  5
EE
  8
0
 62
     7
 10
51.554600000000001
 20
83.481700000000004
 30
0.0
 11
51.554600000000001
 21
83.148600000000016
 31
0.0
  0
LINE
  5
EF
  8
0
 62
     7
 10
38.221299999999992
 20
83.148600000000016
 30
0.0
 11
38.221299999999992
 21
83.481700000000004
 31
0.0
  0
LINE
  5
F0
  8
0
 62
     7
 10
38.221299999999992
 20
83.148600000000016
 30
0.0
 11
51.554600000000001
 21
83.148600000000016
 31
0.0
  0
LINE
  5
F1
  8
0
  6
AIGENLINE001
 62
     7
 10
44.887999999999998
 20
237.78599999999989
 30
0.0
 11
44.887999999999998
 21
186.0929999999999
 31
0.0
  0
ARC
  5
F2
  8
0
 62
     7
 10
65.554896999999997
 20
228.42591599999989
 30
0.0
 40
1.666747999999999
 50
0.00001
 51
89.999980000000008
  0
ARC
  5
F3
  8
0
 62
     7
 10
65.554896999999997
 20
228.42591599999989
 30
0.0
 40
1.666747999999999
 50
90.0
 51
179.99996999999991
  0
ARC
  5
F4
  8
0
 62
     7
 10
65.554811000000001
 20
228.42600200000001
 30
0.0
 40
1.6666609999999991
 50
180.002971
 51
270.00298099999998
  0
ARC
  5
F5
  8
0
 62
     7
 10
65.554982999999993
 20
228.42600299999989
 30
0.0
 40
1.666661999999999
 50
269.99705899999992
 51
359.99702899999988
  0
LINE
  5
F6
  8
0
  6
AIGENLINE001
 62
     7
 10
65.554900000000004
 20
235.69200000000001
 30
0.0
 11
65.554900000000004
 21
219.94999999999999
 31
0.0
  0
LINE
  5
F7
  8
0
 62
     7
 10
56.887999999999998
 20
223.9259999999999
 30
0.0
 11
56.554900000000004
 21
223.9259999999999
 31
0.0
  0
LINE
  5
F8
  8
0
 62
     7
 10
56.887999999999998
 20
232.92599999999999
 30
0.0
 11
56.554900000000004
 21
232.92599999999999
 31
0.0
  0
LINE
  5
F9
  8
0
 62
     7
 10
56.887999999999998
 20
234.59299999999999
 30
0.0
 11
56.887999999999998
 21
222.25999999999991
 31
0.0
  0
LINE
  5
FA
  8
0
 62
     7
 10
56.554900000000004
 20
234.59299999999999
 30
0.0
 11
56.554900000000004
 21
222.25999999999991
 31
0.0
  0
LINE
  5
FB
  8
0
 62
     7
 10
56.887999999999998
 20
222.25999999999991
 30
0.0
 11
70.555099999999996
 21
222.25999999999991
 31
0.0
  0
LINE
  5
FC
  8
0
 62
     7
 10
48.054400000000001
 20
222.25999999999991
 30
0.0
 11
56.554900000000004
 21
222.25999999999991
 31
0.0
  0
LINE
  5
FD
  8
0
 62
     7
 10
56.887999999999998
 20
234.59299999999999
 30
0.0
 11
70.555099999999996
 21
234.59299999999999
 31
0.0
  0
LINE
  5
FE
  8
0
 62
     7
 10
47.830800000000004
 20
234.59299999999999
 30
0.0
 11
56.554900000000004
 21
234.59299999999999
 31
0.0
  0
LINE
  5
FF
  8
0
 62
     7
 10
67.888300000000001
 20
234.59299999999999
 30
0.0
 11
67.888300000000001
 21
222.25999999999991
 31
0.0
  0
LINE
  5
100
  8
0
 62
     7
 10
70.555099999999996
 20
234.59299999999999
 30
0.0
 11
70.555099999999996
 21
222.25999999999991
 31
0.0
  0
LINE
  5
101
  8
0
 62
     7
 10
41.721200000000003
 20
192.09200000000001
 30
0.0
 11
41.721200000000003
 21
228.4259999999999
 31
0.0
  0
LINE
  5
102
  8
0
 62
     7
 10
48.05469999999999
 20
192.09299999999999
 30
0.0
 11
48.05469999999999
 21
228.4259999999999
 31
0.0
  0
ARC
  5
103
  8
0
 62
     7
 10
44.775923999999989
 20
192.148304
 30
0.0
 40
3.0551989999999991
 50
181.0433019999999
 51
249.91564399999999
  0
ARC
  5
104
  8
0
 62
     7
 10
44.871087000000003
 20
192.48397700000001
 30
0.0
 40
3.4032369999999998
 50
250.35161199999999
 51
270.28447199999988
  0
ARC
  5
105
  8
0
 62
     7
 10
44.883555999999999
 20
192.537701
 30
0.0
 40
3.4569220000000001
 50
270.07338399999992
 51
299.66985199999988
  0
ARC
  5
106
  8
0
 62
     7
 10
45.034764000000003
 20
192.12002100000001
 30
0.0
 40
3.0200949999999991
 50
301.09986700000002
 51
359.48122799999987
  0
LINE
  5
107
  8
0
  6
AIGENLINE001
 62
     7
 10
35.607500000000002
 20
228.4259999999999
 30
0.0
 11
73.466300000000004
 21
228.4259999999999
 31
0.0
  0
ARC
  5
108
  8
0
 62
     7
 10
44.887982999999998
 20
228.42591599999989
 30
0.0
 40
3.1667519999999998
 50
0.00001
 51
89.999980000000008
  0
ARC
  5
109
  8
0
 62
     7
 10
44.887984000000003
 20
228.42591599999989
 30
0.0
 40
3.1667519999999998
 50
90.0
 51
179.99996999999991
  0
ARC
  5
10A
  8
0
 62
     7
 10
44.739355999999987
 20
228.51608399999989
 30
0.0
 40
6.9825989999999996
 50
298.34992499999993
 51
359.2601049999999
  0
ARC
  5
10B
  8
0
 62
     7
 10
44.887982000000001
 20
228.425915
 30
0.0
 40
6.8333909999999998
 50
0.00001
 51
89.999980000000008
  0
ARC
  5
10C
  8
0
 62
     7
 10
44.887984000000003
 20
228.425915
 30
0.0
 40
6.8333909999999998
 50
90.0
 51
179.99996999999991
  0
ARC
  5
10D
  8
0
 62
     7
 10
45.035975999999991
 20
228.51570099999989
 30
0.0
 40
6.9819599999999999
 50
180.73683299999999
 51
241.65317599999989
  0
ARC
  5
10E
  8
0
 62
     7
 10
142.0480389999999
 20
140.57042799999991
 30
0.0
 40
13.580310000000001
 50
0.001463
 51
90.001434000000003
  0
ARC
  5
10F
  8
0
 62
     7
 10
142.31926599999991
 20
140.19698899999989
 30
0.0
 40
13.956391999999999
 50
91.114946000000018
 51
160.8817719999999
  0
ARC
  5
110
  8
0
  6
AIGENLINE001
 62
     7
 10
142.04769400000001
 20
140.57077200000001
 30
0.0
 40
16.746717999999991
 50
0.00001
 51
89.999980000000008
  0
ARC
  5
111
  8
0
  6
AIGENLINE001
 62
     7
 10
142.38268199999999
 20
140.1096729999999
 30
0.0
 40
17.211077
 50
91.115226000000007
 51
160.88140300000001
  0
LINE
  5
112
  8
0
 62
     7
 10
161.96100000000001
 20
140.571
 30
0.0
 11
161.96100000000001
 21
116.815
 31
0.0
  0
LINE
  5
113
  8
0
 62
     7
 10
123.10899999999999
 20
146.7239999999999
 30
0.0
 11
119.45
 21
135.46100000000001
 31
0.0
  0
ARC
  5
114
  8
0
 62
     7
 10
142.04855499999991
 20
140.56991099999999
 30
0.0
 40
19.912609
 50
0.002488
 51
90.002457999999976
  0
ARC
  5
115
  8
0
 62
     7
 10
142.44599400000001
 20
140.019936
 30
0.0
 40
20.466459
 50
91.115092000000018
 51
160.87465199999991
  0
LINE
  5
116
  8
0
  6
AIGENLINE001
 62
     7
 10
126.121
 20
145.74700000000001
 30
0.0
 11
121.901
 21
132.75700000000001
 31
0.0
  0
ARC
  5
117
  8
0
 62
     7
 10
66.956380999999993
 20
110.55508
 30
0.0
 40
0.6315640000000001
 50
288.84388999999999
 51
294.83529299999998
  0
ARC
  5
118
  8
0
 62
     7
 10
66.4863
 20
111.83754399999989
 30
0.0
 40
1.997357
 50
285.1196799999999
 51
289.72347000000002
  0
ARC
  5
119
  8
0
 62
     7
 10
66.077267000000006
 20
113.343699
 30
0.0
 40
3.5580660000000002
 50
277.97893299999993
 51
285.15211399999998
  0
ARC
  5
11A
  8
0
 62
     7
 10
65.712358999999992
 20
115.6413629999999
 30
0.0
 40
5.8842919999999994
 50
272.94009699999998
 51
278.39217400000001
  0
ARC
  5
11B
  8
0
 62
     7
 10
65.565212999999986
 20
117.9226759999999
 30
0.0
 40
8.170205000000001
 50
269.92525199999989
 51
273.15005999999988
  0
ARC
  5
11C
  8
0
 62
     7
 10
64.190731999999997
 20
110.643855
 30
0.0
 40
0.727811
 50
245.433887
 51
251.4658509999999
  0
ARC
  5
11D
  8
0
 62
     7
 10
64.650019999999998
 20
111.9230759999999
 30
0.0
 40
2.086878
 50
250.674001
 51
255.05402799999999
  0
ARC
  5
11E
  8
0
 62
     7
 10
65.046875999999997
 20
113.409733
 30
0.0
 40
3.625592999999999
 50
255.05388099999999
 51
262.20836000000003
  0
ARC
  5
11F
  8
0
 62
     7
 10
65.406695999999997
 20
115.727951
 30
0.0
 40
5.9713389999999986
 50
261.80330199999992
 51
267.23859499999998
  0
ARC
  5
120
  8
0
 62
     7
 10
65.546234999999996
 20
118.0000509999999
 30
0.0
 40
8.2475769999999997
 50
267.03078499999998
 51
270.06257699999992
  0
ARC
  5
121
  8
0
 62
     7
 10
47.723514000000002
 20
134.48157399999999
 30
0.0
 40
0.331223
 50
0.171262
 51
31.71858499999999
  0
ARC
  5
122
  8
0
 62
     7
 10
47.51308499999999
 20
134.36526599999991
 30
0.0
 40
0.5714900000000001
 50
30.545897
 51
48.958992999999992
  0
ARC
  5
123
  8
0
 62
     7
 10
47.149217999999991
 20
133.9765219999999
 30
0.0
 40
1.1037779999999999
 50
47.96259400000001
 51
60.629603000000003
  0
ARC
  5
124
  8
0
 62
     7
 10
46.630783000000001
 20
133.11228099999991
 30
0.0
 40
2.1113889999999991
 50
59.871665999999998
 51
69.237936000000005
  0
ARC
  5
125
  8
0
 62
     7
 10
46.011091999999991
 20
131.57912499999989
 30
0.0
 40
3.7648280000000001
 50
68.690616000000006
 51
75.39665500000001
  0
ARC
  5
126
  8
0
 62
     7
 10
45.364854999999999
 20
129.21163100000001
 30
0.0
 40
6.2188369999999997
 50
75.134497999999994
 51
83.351033000000001
  0
ARC
  5
127
  8
0
 62
     7
 10
44.925787
 20
126.14782599999999
 30
0.0
 40
9.3132280000000005
 50
82.850437999999997
 51
90.232564999999994
  0
ARC
  5
128
  8
0
 62
     7
 10
44.885807999999997
 20
125.6771429999999
 30
0.0
 40
9.7838349999999998
 50
89.987253000000024
 51
98.054129000000017
  0
ARC
  5
129
  8
0
 62
     7
 10
44.447108
 20
129.0359389999999
 30
0.0
 40
6.3968059999999989
 50
98.378591000000014
 51
106.0762889999999
  0
ARC
  5
12A
  8
0
 62
     7
 10
43.674590000000002
 20
131.84153699999999
 30
0.0
 40
3.4871729999999999
 50
106.64496
 51
113.509542
  0
ARC
  5
12B
  8
0
 62
     7
 10
43.050963000000003
 20
133.29580599999991
 30
0.0
 40
1.904868999999999
 50
113.7576509999999
 51
123.45100600000001
  0
ARC
  5
12C
  8
0
 62
     7
 10
42.526423000000001
 20
134.10298499999999
 30
0.0
 40
0.942282
 50
123.8938429999999
 51
137.5710939999999
  0
ARC
  5
12D
  8
0
 62
     7
 10
42.170815999999988
 20
134.43442300000001
 30
0.0
 40
0.4562160000000001
 50
138.16390499999989
 51
167.53481099999999
  0
ARC
  5
12E
  8
0
 62
     7
 10
42.031016999999999
 20
134.48251899999991
 30
0.0
 40
0.309786
 50
170.641265
 51
179.99168599999999
  0
ARC
  5
12F
  8
0
 62
     7
 10
42.052841999999998
 20
134.48355000000001
 30
0.0
 40
0.331612
 50
180.17044299999989
 51
211.695931
  0
ARC
  5
130
  8
0
 62
     7
 10
42.263320999999998
 20
134.59998400000001
 30
0.0
 40
0.5719890000000002
 50
210.5418049999999
 51
228.93980999999999
  0
ARC
  5
131
  8
0
 62
     7
 10
42.62621699999999
 20
134.98751399999989
 30
0.0
 40
1.1027279999999999
 50
227.94837200000001
 51
240.626767
  0
ARC
  5
132
  8
0
 62
     7
 10
43.144257000000003
 20
135.85081099999999
 30
0.0
 40
2.1093259999999989
 50
239.86623
 51
249.2404939999999
  0
ARC
  5
133
  8
0
 62
     7
 10
43.763008999999997
 20
137.3807909999999
 30
0.0
 40
3.7594629999999989
 50
248.68750099999991
 51
255.40254899999999
  0
ARC
  5
134
  8
0
 62
     7
 10
44.410325999999991
 20
139.75275400000001
 30
0.0
 40
6.2180669999999987
 50
255.13879299999999
 51
263.35617000000002
  0
ARC
  5
135
  8
0
 62
     7
 10
44.85016199999999
 20
142.82486299999991
 30
0.0
 40
9.3207889999999995
 50
262.85549099999997
 51
270.23249800000002
  0
ARC
  5
136
  8
0
 62
     7
 10
44.890146999999999
 20
143.29140699999991
 30
0.0
 40
9.7872570000000003
 50
269.98734200000001
 51
278.05048900000003
  0
ARC
  5
137
  8
0
 62
     7
 10
45.330775000000003
 20
139.92234500000001
 30
0.0
 40
6.3897870000000001
 50
278.36913500000003
 51
286.07534799999991
  0
ARC
  5
138
  8
0
 62
     7
 10
46.102290999999987
 20
137.12139899999991
 30
0.0
 40
3.4848979999999998
 50
286.63825099999991
 51
293.507698
  0
ARC
  5
139
  8
0
 62
     7
 10
46.725344999999997
 20
135.66858699999989
 30
0.0
 40
1.904158
 50
293.75268999999992
 51
303.45111600000001
  0
ARC
  5
13A
  8
0
 62
     7
 10
47.250019000000002
 20
134.8614279999999
 30
0.0
 40
0.9415129999999999
 50
303.88687399999998
 51
317.57746600000002
  0
ARC
  5
13B
  8
0
 62
     7
 10
47.605021999999998
 20
134.5306469999999
 30
0.0
 40
0.4563350000000001
 50
318.16724399999993
 51
347.54148800000002
  0
ARC
  5
13C
  8
0
 62
     7
 10
47.744422999999991
 20
134.48261999999991
 30
0.0
 40
0.310312
 50
350.64923099999999
 51
359.98973999999993
  0
LINE
  5
13D
  8
0
 62
     7
 10
41.721200000000003
 20
116.815
 30
0.0
 11
41.721200000000003
 21
157.316
 31
0.0
  0
LINE
  5
13E
  8
0
 62
     7
 10
48.05469999999999
 20
116.815
 30
0.0
 11
48.05469999999999
 21
157.316
 31
0.0
  0
ARC
  5
13F
  8
0
 62
     7
 10
44.888069000000002
 20
157.315853
 30
0.0
 40
3.1666660000000002
 50
0.001568
 51
90.001537999999996
  0
ARC
  5
140
  8
0
 62
     7
 10
44.887898
 20
157.315853
 30
0.0
 40
3.1666660000000002
 50
89.998441999999997
 51
179.99841199999989
  0
LINE
  5
141
  8
0
  6
AIGENLINE001
 62
     7
 10
158.7939999999999
 20
140.571
 30
0.0
 11
158.7939999999999
 21
61.919800000000002
 31
0.0
  0
LINE
  5
142
  8
0
 62
     7
 10
151.96199999999999
 20
83.481700000000004
 30
0.0
 11
165.62899999999999
 21
83.481700000000004
 31
0.0
  0
LINE
  5
143
  8
0
 62
     7
 10
160.46199999999999
 20
111.482
 30
0.0
 11
165.62899999999999
 21
111.482
 31
0.0
  0
LINE
  5
144
  8
0
 62
     7
 10
151.96199999999999
 20
111.482
 30
0.0
 11
157.1279999999999
 21
111.482
 31
0.0
  0
LINE
  5
145
  8
0
 62
     7
 10
38.054600000000001
 20
111.482
 30
0.0
 11
51.720999999999997
 21
111.482
 31
0.0
  0
LINE
  5
146
  8
0
 62
     7
 10
151.96199999999999
 20
116.815
 30
0.0
 11
165.6279999999999
 21
116.815
 31
0.0
  0
LINE
  5
147
  8
0
 62
     7
 10
38.054600000000001
 20
116.815
 30
0.0
 11
51.720999999999997
 21
116.815
 31
0.0
  0
LINE
  5
148
  8
0
 62
     7
 10
41.387700000000002
 20
65.148200000000003
 30
0.0
 11
48.387900000000002
 21
65.148200000000003
 31
0.0
  0
LINE
  5
149
  8
0
 62
     7
 10
49.074300000000001
 20
64.815100000000001
 30
0.0
 11
81.501700000000014
 21
64.815100000000001
 31
0.0
  0
LINE
  5
14A
  8
0
 62
     7
 10
52.6083
 20
83.481700000000004
 30
0.0
 11
81.501700000000014
 21
83.481700000000004
 31
0.0
  0
LINE
  5
14B
  8
0
 62
     7
 10
38.054600000000001
 20
83.481700000000004
 30
0.0
 11
51.720999999999997
 21
83.481700000000004
 31
0.0
  0
LINE
  5
14C
  8
0
 62
     7
 10
155.6279999999999
 20
140.571
 30
0.0
 11
155.6279999999999
 21
116.815
 31
0.0
  0
LINE
  5
14D
  8
0
 62
     7
 10
122.4609999999999
 20
132.75700000000001
 30
0.0
 11
122.4609999999999
 21
122.002
 31
0.0
  0
LINE
  5
14E
  8
0
 62
     7
 10
118.617
 20
122.651
 30
0.0
 11
121.651
 21
131.98799999999989
 31
0.0
  0
LINE
  5
14F
  8
0
 62
     7
 10
129.1329999999999
 20
144.768
 30
0.0
 11
125.473
 21
133.50399999999999
 31
0.0
  0
LINE
  5
150
  8
0
 62
     7
 10
119.45
 20
135.46100000000001
 30
0.0
 11
125.473
 21
133.50399999999999
 31
0.0
  0
LINE
  5
151
  8
0
 62
     7
 10
165.62899999999999
 20
116.815
 30
0.0
 11
165.62899999999999
 21
83.481700000000004
 31
0.0
  0
LINE
  5
152
  8
0
 62
     7
 10
151.96199999999999
 20
116.815
 30
0.0
 11
151.96199999999999
 21
83.481700000000004
 31
0.0
  0
LINE
  5
153
  8
0
  6
AIGENLINE001
 62
     7
 10
150.33000000000001
 20
103.8149999999999
 30
0.0
 11
167.24700000000001
 21
103.8149999999999
 31
0.0
  0
LINE
  5
154
  8
0
 62
     7
 10
157.1279999999999
 20
109.752
 30
0.0
 11
157.1279999999999
 21
114.482
 31
0.0
  0
LINE
  5
155
  8
0
 62
     7
 10
160.46199999999999
 20
109.752
 30
0.0
 11
160.46199999999999
 21
114.482
 31
0.0
  0
LINE
  5
156
  8
0
 62
     7
 10
157.1279999999999
 20
114.482
 30
0.0
 11
160.46199999999999
 21
114.482
 31
0.0
  0
ARC
  5
157
  8
0
 62
     7
 10
158.79509999999991
 20
103.8151629999999
 30
0.0
 40
6.1667610000000002
 50
0.00001
 51
89.999980000000008
  0
ARC
  5
158
  8
0
 62
     7
 10
158.79510200000001
 20
103.8151629999999
 30
0.0
 40
6.1667610000000002
 50
90.0
 51
179.99996999999991
  0
ARC
  5
159
  8
0
 62
     7
 10
158.79509999999991
 20
103.8151629999999
 30
0.0
 40
6.166758999999999
 50
179.99996999999991
 51
270.00002000000001
  0
ARC
  5
15A
  8
0
 62
     7
 10
158.79509999999991
 20
103.81516499999999
 30
0.0
 40
6.1667610000000002
 50
270.00002000000001
 51
359.99998999999991
  0
LINE
  5
15B
  8
0
 62
     7
 10
38.054600000000001
 20
116.815
 30
0.0
 11
38.054600000000001
 21
83.482099999999988
 31
0.0
  0
LINE
  5
15C
  8
0
 62
     7
 10
51.721400000000003
 20
97.648399999999995
 30
0.0
 11
51.721400000000003
 21
83.481700000000004
 31
0.0
  0
LINE
  5
15D
  8
0
  6
AIGENLINE001
 62
     7
 10
36.001600000000003
 20
103.8149999999999
 30
0.0
 11
72.588800000000006
 21
103.8149999999999
 31
0.0
  0
LINE
  5
15E
  8
0
 62
     7
 10
67.221599999999995
 20
114.482
 30
0.0
 11
63.888100000000001
 21
114.482
 31
0.0
  0
LINE
  5
15F
  8
0
 62
     7
 10
67.221599999999995
 20
114.482
 30
0.0
 11
67.221599999999995
 21
109.982
 31
0.0
  0
LINE
  5
160
  8
0
 62
     7
 10
63.888100000000001
 20
114.482
 30
0.0
 11
63.888100000000001
 21
109.982
 31
0.0
  0
LINE
  5
161
  8
0
  6
AIGENLINE001
 62
     7
 10
65.554900000000004
 20
115.7729999999999
 30
0.0
 11
65.554900000000004
 21
107.8189999999999
 31
0.0
  0
LINE
  5
162
  8
0
 62
     7
 10
56.887999999999998
 20
99.315200000000004
 30
0.0
 11
56.554900000000004
 21
99.315200000000004
 31
0.0
  0
LINE
  5
163
  8
0
 62
     7
 10
56.887999999999998
 20
108.315
 30
0.0
 11
56.554900000000004
 21
108.315
 31
0.0
  0
LINE
  5
164
  8
0
 62
     7
 10
56.887999999999998
 20
109.982
 30
0.0
 11
56.887999999999998
 21
97.648399999999995
 31
0.0
  0
LINE
  5
165
  8
0
 62
     7
 10
56.554900000000004
 20
109.982
 30
0.0
 11
56.554900000000004
 21
97.648399999999995
 31
0.0
  0
LINE
  5
166
  8
0
 62
     7
 10
51.721400000000003
 20
116.815
 30
0.0
 11
51.721400000000003
 21
109.982
 31
0.0
  0
LINE
  5
167
  8
0
 62
     7
 10
56.887999999999998
 20
97.648399999999995
 30
0.0
 11
70.555099999999996
 21
97.648399999999995
 31
0.0
  0
LINE
  5
168
  8
0
 62
     7
 10
51.721400000000003
 20
97.648399999999995
 30
0.0
 11
56.554900000000004
 21
97.648399999999995
 31
0.0
  0
LINE
  5
169
  8
0
 62
     7
 10
67.221599999999995
 20
109.982
 30
0.0
 11
70.555099999999996
 21
109.982
 31
0.0
  0
LINE
  5
16A
  8
0
 62
     7
 10
56.887999999999998
 20
109.982
 30
0.0
 11
63.888100000000001
 21
109.982
 31
0.0
  0
LINE
  5
16B
  8
0
 62
     7
 10
51.721400000000003
 20
109.982
 30
0.0
 11
56.554900000000004
 21
109.982
 31
0.0
  0
LINE
  5
16C
  8
0
  6
AIGENLINE001
 62
     7
 10
44.887999999999998
 20
163.33600000000001
 30
0.0
 11
44.887999999999998
 21
61.919800000000002
 31
0.0
  0
LINE
  5
16D
  8
0
 62
     7
 10
67.888300000000001
 20
109.982
 30
0.0
 11
67.888300000000001
 21
97.648399999999995
 31
0.0
  0
LINE
  5
16E
  8
0
 62
     7
 10
70.555099999999996
 20
109.982
 30
0.0
 11
70.555099999999996
 21
97.648399999999995
 31
0.0
  0
LINE
  5
16F
  8
_________2
 62
     7
 10
205.30099999999999
 20
127.411
 30
0.0
 11
183.55000000000001
 21
127.411
 31
0.0
  0
LINE
  5
170
  8
_________2
 62
     7
 10
100.2999999999999
 20
-4.0910799999999998
 30
0.0
 11
100.2999999999999
 21
-21.071400000000001
 31
0.0
  0
LINE
  5
171
  8
_________2
 62
     7
 10
100.2999999999999
 20
275.93099999999993
 30
0.0
 11
100.2999999999999
 21
258.911
 31
0.0
  0
LINE
  5
172
  8
_________2
 62
     7
 10
17.049499999999998
 20
127.411
 30
0.0
 11
-4.70052
 21
127.411
 31
0.0
  0
LINE
  5
173
  8
_________2
 62
     7
 10
76.741
 20
29.8047
 30
0.0
 11
74.554699999999997
 21
29.8047
 31
0.0
  0
LINE
  5
174
  8
_________2
 62
     7
 10
77.233699999999999
 20
29.8047
 30
0.0
 11
76.981499999999997
 21
29.8047
 31
0.0
  0
LINE
  5
175
  8
_________2
 62
     7
 10
77.726299999999995
 20
29.8047
 30
0.0
 11
80.651200000000003
 21
29.8047
 31
0.0
  0
LINE
  5
176
  8
_________2
 62
     7
 10
77.233699999999999
 20
29.8047
 30
0.0
 11
77.485500000000002
 21
29.8047
 31
0.0
  0
LINE
  5
177
  8
_________2
 62
     7
 10
70.837100000000007
 20
29.8047
 30
0.0
 11
68.650499999999994
 21
29.8047
 31
0.0
  0
LINE
  5
178
  8
_________2
 62
     7
 10
71.329400000000007
 20
29.8047
 30
0.0
 11
71.077600000000004
 21
29.8047
 31
0.0
  0
LINE
  5
179
  8
_________2
 62
     7
 10
71.329400000000007
 20
30.2974
 30
0.0
 11
71.329400000000007
 21
32.484400000000001
 31
0.0
  0
LINE
  5
17A
  8
_________2
 62
     7
 10
71.329400000000007
 20
29.8047
 30
0.0
 11
71.329400000000007
 21
30.056899999999992
 31
0.0
  0
LINE
  5
17B
  8
_________2
 62
     7
 10
71.822100000000006
 20
29.8047
 30
0.0
 11
74.009
 21
29.8047
 31
0.0
  0
LINE
  5
17C
  8
_________2
 62
     7
 10
71.329400000000007
 20
29.8047
 30
0.0
 11
71.581599999999995
 21
29.8047
 31
0.0
  0
LINE
  5
17D
  8
_________2
 62
     7
 10
71.329400000000007
 20
29.312799999999999
 30
0.0
 11
71.329400000000007
 21
27.125800000000002
 31
0.0
  0
LINE
  5
17E
  8
_________2
 62
     7
 10
71.329400000000007
 20
29.8047
 30
0.0
 11
71.329400000000007
 21
29.5532
 31
0.0
  0
LINE
  5
17F
  8
_________2
 62
     7
 10
75.040499999999994
 20
28.5852
 30
0.0
 11
80.218500000000006
 21
27.720400000000001
 31
0.0
  0
LINE
  5
180
  8
_________2
 62
     7
 10
75.040499999999994
 20
31.0243
 30
0.0
 11
80.218500000000006
 21
31.889700000000001
 31
0.0
  0
LINE
  5
181
  8
_________2
 62
     7
 10
80.218500000000006
 20
27.720400000000001
 30
0.0
 11
80.218500000000006
 21
31.889700000000001
 31
0.0
  0
LINE
  5
182
  8
_________2
 62
     7
 10
75.040499999999994
 20
28.5852
 30
0.0
 11
75.040499999999994
 21
31.0243
 31
0.0
  0
ARC
  5
183
  8
_________2
 62
     7
 10
71.28285600000001
 20
29.757811
 30
0.0
 40
1.2673589999999999
 50
2.122214
 51
87.893958999999995
  0
ARC
  5
184
  8
_________2
 62
     7
 10
71.375959999999992
 20
29.758213000000001
 30
0.0
 40
1.2669559999999991
 50
92.104701000000006
 51
177.8952689999999
  0
ARC
  5
185
  8
_________2
 62
     7
 10
71.376357999999996
 20
29.851671
 30
0.0
 40
1.2673680000000001
 50
182.12203600000001
 51
267.877993
  0
ARC
  5
186
  8
_________2
 62
     7
 10
71.282531999999989
 20
29.851998999999989
 30
0.0
 40
1.267695999999999
 50
272.12015300000002
 51
357.863674
  0
ARC
  5
187
  8
_________2
 62
     7
 10
71.329430000000002
 20
29.804742999999998
 30
0.0
 40
2.0849849999999992
 50
0.00001
 51
89.999980000000008
  0
ARC
  5
188
  8
_________2
 62
     7
 10
71.329603000000006
 20
29.804915000000001
 30
0.0
 40
2.084813
 50
90.004733999999999
 51
180.00474399999999
  0
ARC
  5
189
  8
_________2
 62
     7
 10
71.409106000000008
 20
29.884775999999999
 30
0.0
 40
2.1657950000000001
 50
182.11776599999999
 51
267.89173399999999
  0
ARC
  5
18A
  8
_________2
 62
     7
 10
71.249459000000002
 20
29.885429999999989
 30
0.0
 40
2.1664590000000001
 50
272.11546800000002
 51
357.86560400000002
  0
TEXT
  5
18B
  8
_________2
 62
     7
 10
104.605
 20
1.6794899999999999
 30
0.0
 40
3.660169999999999
  1
図番
 41
0.5
  0
LINE
  5
18C
  8
_________2
 62
     7
 10
103.55
 20
5.9087199999999989
 30
0.0
 11
183.55099999999999
 21
5.9087199999999989
 31
0.0
  0
TEXT
  5
18D
  8
_________2
 62
     7
 10
104.605
 20
11.679299999999991
 30
0.0
 40
3.660169999999999
  1
品番
 41
0.5
  0
TEXT
  5
18E
  8
_________2
 62
     7
 10
104.605
 20
31.818100000000001
 30
0.0
 40
3.660169999999999
  1
名称
 41
0.5
  0
TEXT
  5
18F
  8
_________2
 62
     7
 10
91.565445833333328
 20
26.821999999999989
 30
0.0
 40
4.3256500000000004
  1
mm
 41
0.5
 72
     1
 11
93.367800000000003
 21
26.821999999999989
 31
0.0
  0
TEXT
  5
190
  8
_________2
 62
     7
 10
85.643199999999993
 20
31.818100000000001
 30
0.0
 40
3.660169999999999
  1
単位
 41
0.5
  0
TEXT
  5
191
  8
_________2
 62
     7
 10
85.643199999999993
 20
19.410799999999991
 30
0.0
 40
3.660169999999999
  1
尺度
 41
0.5
  0
TEXT
  5
192
  8
_________2
 62
     7
 10
89.922426666666667
 20
13.2179
 30
0.0
 40
4.3256500000000004
  1
1 ： 3
 41
0.5
 72
     1
 11
93.959699999999998
 21
13.2179
 31
0.0
  0
TEXT
  5
193
  8
_________2
 62
     7
 10
135.98011625000001
 20
9.1078600000000005
 30
0.0
 40
4.6583899999999989
  1
CET920U
 41
0.5
 72
     1
 11
143.55000000000001
 21
9.1078600000000005
 31
0.0
  0
TEXT
  5
194
  8
_________2
 62
     7
 10
135.98011625000001
 20
-0.8926299999999999
 30
0.0
 40
4.6583899999999989
  1
CET920U
 41
0.5
 72
     1
 11
143.55000000000001
 21
-0.8926299999999999
 31
0.0
  0
TEXT
  5
195
  8
_________2
 62
     7
 10
24.5868
 20
0.707283
 30
0.0
 40
4.6583899999999989
  1
（JIS）
 41
0.5
  0
TEXT
  5
196
  8
_________2
 62
     7
 10
109.179
 20
24.2257
 30
0.0
 40
4.6583899999999989
  1
立水栓（自在・泡まつ）
 41
0.5
  0
TEXT
  5
197
  8
_________2
 62
     7
 10
39.078580833333334
 20
13.603
 30
0.0
 40
4.3256500000000004
  1
早川
 41
0.5
 72
     1
 11
41.313499999999998
 21
13.603
 31
0.0
  0
TEXT
  5
198
  8
_________2
 62
     7
 10
20.432186666666659
 20
13.603
 30
0.0
 40
4.3256500000000004
  1
石原
 41
0.5
 72
     1
 11
22.73919999999999
 21
13.603
 31
0.0
  0
TEXT
  5
199
  8
_________2
 62
     7
 10
67.785399999999996
 20
13.2179
 30
0.0
 40
4.3256500000000004
  1
14.09.09
 41
0.5
  0
TEXT
  5
19A
  8
_________2
 62
     7
 10
66.593100000000007
 20
19.410799999999991
 30
0.0
 40
3.660169999999999
  1
日付
 41
0.5
  0
TEXT
  5
19B
  8
_________2
 62
     7
 10
29.639399999999998
 20
19.410799999999991
 30
0.0
 40
3.660169999999999
  1
検図
 41
0.5
  0
TEXT
  5
19C
  8
_________2
 62
     7
 10
18.021100000000001
 20
5.21143
 30
0.0
 40
3.660169999999999
  1
備考
 41
0.5
  0
TEXT
  5
19D
  8
_________2
 62
     7
 10
18.021100000000001
 20
19.410799999999991
 30
0.0
 40
3.660169999999999
  1
製図
 41
0.5
  0
TEXT
  5
19E
  8
_________2
 62
     7
 10
20.594830666666681
 20
27.936800000000002
 30
0.0
 40
5.3238799999999991
  1
セラトレーディング株式会社
 41
0.5
 72
     1
 11
41.180500000000002
 21
27.936800000000002
 31
0.0
  0
LINE
  5
19F
  8
_________2
 62
     7
 10
183.55099999999999
 20
-4.0910799999999998
 30
0.0
 11
17.049499999999998
 21
-4.0910799999999998
 31
0.0
  0
LINE
  5
1A0
  8
_________2
 62
     7
 10
17.049499999999998
 20
-4.0910799999999998
 30
0.0
 11
17.049499999999998
 21
258.911
 31
0.0
  0
LINE
  5
1A1
  8
_________2
 62
     7
 10
17.049499999999998
 20
258.911
 30
0.0
 11
183.55099999999999
 21
258.911
 31
0.0
  0
LINE
  5
1A2
  8
_________2
 62
     7
 10
183.55099999999999
 20
258.911
 30
0.0
 11
183.55099999999999
 21
-4.0910799999999998
 31
0.0
  0
LINE
  5
1A3
  8
_________2
 62
     7
 10
65.549599999999998
 20
9.4089600000000004
 30
0.0
 11
65.549599999999998
 21
35.908799999999999
 31
0.0
  0
LINE
  5
1A4
  8
_________2
 62
     7
 10
84.549700000000016
 20
9.4089600000000004
 30
0.0
 11
84.549700000000016
 21
35.908799999999999
 31
0.0
  0
LINE
  5
1A5
  8
_________2
 62
     7
 10
103.55
 20
-4.0910799999999998
 30
0.0
 11
103.55
 21
35.908799999999999
 31
0.0
  0
LINE
  5
1A6
  8
_________2
 62
     7
 10
28.549299999999992
 20
9.4089600000000004
 30
0.0
 11
28.549299999999992
 21
23.409199999999998
 31
0.0
  0
LINE
  5
1A7
  8
_________2
 62
     7
 10
17.049499999999998
 20
9.4089600000000004
 30
0.0
 11
103.55
 21
9.4089600000000004
 31
0.0
  0
LINE
  5
1A8
  8
_________2
 62
     7
 10
17.049499999999998
 20
23.409199999999998
 30
0.0
 11
103.55
 21
23.409199999999998
 31
0.0
  0
LINE
  5
1A9
  8
_________2
 62
     7
 10
103.55
 20
15.9085
 30
0.0
 11
183.55099999999999
 21
15.9085
 31
0.0
  0
LINE
  5
1AA
  8
_________2
 62
     7
 10
17.049499999999998
 20
35.908799999999999
 30
0.0
 11
183.55099999999999
 21
35.908799999999999
 31
0.0
  0
ENDSEC
  0
EOF
