  0
SECTION
  2
HEADER
  9
$ACADVER
  1
AC1009
  9
$INSBASE
 10
0.0
 20
0.0
 30
0.0
  9
$EXTMIN
 10
-4.7006899999999989
 20
-21.070999999999991
 30
0.0
  9
$EXTMAX
 10
205.30099999999999
 20
275.93099999999993
 30
0.0
  9
$LIMMIN
 10
0.0
 20
0.0
  9
$LIMMAX
 10
12.0
 20
9.0
  9
$ORTHOMODE
 70
     0
  9
$REGENMODE
 70
     1
  9
$FILLMODE
 70
     1
  9
$QTEXTMODE
 70
     0
  9
$MIRRTEXT
 70
     1
  9
$DRAGMODE
 70
     2
  9
$LTSCALE
 40
1.0
  9
$OSMODE
 70
    37
  9
$ATTMODE
 70
     1
  9
$TEXTSIZE
 40
0.0
  9
$TRACEWID
 40
0.05
  9
$TEXTSTYLE
  7
STANDARD
  9
$CLAYER
  8
0
  9
$CELTYPE
  6
CONTINUOUS
  9
$CECOLOR
 62
   256
  9
$DIMSCALE
 40
1.0
  9
$DIMASZ
 40
0.18
  9
$DIMEXO
 40
0.0625
  9
$DIMDLI
 40
0.38
  9
$DIMRND
 40
0.0
  9
$DIMDLE
 40
0.0
  9
$DIMEXE
 40
0.18
  9
$DIMTP
 40
0.0
  9
$DIMTM
 40
0.0
  9
$DIMTXT
 40
0.18
  9
$DIMCEN
 40
0.09
  9
$DIMTSZ
 40
0.0
  9
$DIMTOL
 70
     0
  9
$DIMLIM
 70
     0
  9
$DIMTIH
 70
     1
  9
$DIMTOH
 70
     1
  9
$DIMSE1
 70
     0
  9
$DIMSE2
 70
     0
  9
$DIMTAD
 70
     0
  9
$DIMZIN
 70
     0
  9
$DIMBLK
  1

  9
$DIMASO
 70
     1
  9
$DIMSHO
 70
     1
  9
$DIMPOST
  1

  9
$DIMAPOST
  1

  9
$DIMALT
 70
     0
  9
$DIMALTD
 70
     2
  9
$DIMALTF
 40
25.399999999999999
  9
$DIMLFAC
 40
1.0
  9
$DIMTOFL
 70
     0
  9
$DIMTVP
 40
0.0
  9
$DIMTIX
 70
     0
  9
$DIMSOXD
 70
     0
  9
$DIMSAH
 70
     0
  9
$DIMBLK1
  1

  9
$DIMBLK2
  1

  9
$DIMSTYLE
  2
STANDARD
  9
$DIMCLRD
 70
     0
  9
$DIMCLRE
 70
     0
  9
$DIMCLRT
 70
     0
  9
$DIMTFAC
 40
1.0
  9
$DIMGAP
 40
0.09
  9
$LUNITS
 70
     2
  9
$LUPREC
 70
     4
  9
$SKETCHINC
 40
0.1
  9
$FILLETRAD
 40
0.0
  9
$AUNITS
 70
     0
  9
$AUPREC
 70
     0
  9
$MENU
  1
.
  9
$ELEVATION
 40
0.0
  9
$PELEVATION
 40
0.0
  9
$THICKNESS
 40
0.0
  9
$LIMCHECK
 70
     0
  9
$BLIPMODE
 70
     0
  9
$CHAMFERA
 40
0.0
  9
$CHAMFERB
 40
0.0
  9
$SKPOLY
 70
     0
  9
$TDCREATE
 40
2444972.375
  9
$TDUPDATE
 40
2454331.2889118521
  9
$TDINDWG
 40
0.0006851273
  9
$TDUSRTIMER
 40
0.0006851273
  9
$USRTIMER
 70
     1
  9
$ANGBASE
 50
0.0
  9
$ANGDIR
 70
     0
  9
$PDMODE
 70
     0
  9
$PDSIZE
 40
0.0
  9
$PLINEWID
 40
0.0
  9
$COORDS
 70
     1
  9
$SPLFRAME
 70
     0
  9
$SPLINETYPE
 70
     6
  9
$SPLINESEGS
 70
     8
  9
$ATTDIA
 70
     0
  9
$ATTREQ
 70
     1
  9
$HANDLING
 70
     1
  9
$HANDSEED
  5
10B
  9
$SURFTAB1
 70
     6
  9
$SURFTAB2
 70
     6
  9
$SURFTYPE
 70
     6
  9
$SURFU
 70
     6
  9
$SURFV
 70
     6
  9
$UCSNAME
  2

  9
$UCSORG
 10
0.0
 20
0.0
 30
0.0
  9
$UCSXDIR
 10
1.0
 20
0.0
 30
0.0
  9
$UCSYDIR
 10
0.0
 20
1.0
 30
0.0
  9
$PUCSNAME
  2

  9
$PUCSORG
 10
0.0
 20
0.0
 30
0.0
  9
$PUCSXDIR
 10
1.0
 20
0.0
 30
0.0
  9
$PUCSYDIR
 10
0.0
 20
1.0
 30
0.0
  9
$USERI1
 70
     0
  9
$USERI2
 70
     0
  9
$USERI3
 70
     0
  9
$USERI4
 70
     0
  9
$USERI5
 70
     0
  9
$USERR1
 40
0.0
  9
$USERR2
 40
0.0
  9
$USERR3
 40
0.0
  9
$USERR4
 40
0.0
  9
$USERR5
 40
0.0
  9
$WORLDVIEW
 70
     1
  9
$SHADEDGE
 70
     3
  9
$SHADEDIF
 70
    70
  9
$TILEMODE
 70
     1
  9
$MAXACTVP
 70
    48
  9
$PLIMCHECK
 70
     0
  9
$PEXTMIN
 10
1.0000000000000000E+020
 20
1.0000000000000000E+020
 30
1.0000000000000000E+020
  9
$PEXTMAX
 10
-1.0000000000000000E+020
 20
-1.0000000000000000E+020
 30
-1.0000000000000000E+020
  9
$PLIMMIN
 10
0.0
 20
0.0
  9
$PLIMMAX
 10
12.0
 20
9.0
  9
$UNITMODE
 70
     0
  9
$VISRETAIN
 70
     1
  9
$PLINEGEN
 70
     0
  9
$PSLTSCALE
 70
     1
  0
ENDSEC
  0
SECTION
  2
TABLES
  0
TABLE
  2
VPORT
 70
     2
  0
VPORT
  2
*ACTIVE
 70
     0
 10
0.0
 20
0.0
 11
1.0
 21
1.0
 12
217.3672364910818
 22
160.26600975219489
 13
0.0
 23
0.0
 14
1.0
 24
1.0
 15
0.0
 25
0.0
 16
0.0
 26
0.0
 36
1.0
 17
0.0
 27
0.0
 37
0.0
 40
365.63417232831011
 41
2.1842105263157889
 42
50.0
 43
0.0
 44
0.0
 50
0.0
 51
0.0
 71
     0
 72
   100
 73
     1
 74
     1
 75
     0
 76
     0
 77
     0
 78
     0
  0
ENDTAB
  0
TABLE
  2
LTYPE
 70
     3
  0
LTYPE
  2
CONTINUOUS
 70
     0
  3
Solid line
 72
    65
 73
     0
 40
0.0
  0
LTYPE
  2
AIGENLINE001
 70
     0
  3
generate AI->DXF Converter
 72
    65
 73
     2
 40
1.5522299999999991
 49
0.776115
 49
-0.776115
  0
LTYPE
  2
AIGENLINE002
 70
     0
  3
generate AI->DXF Converter
 72
    65
 73
     4
 40
5.8561449999999988
 49
3.5278
 49
-0.776115
 49
0.776115
 49
-0.776115
  0
ENDTAB
  0
TABLE
  2
LAYER
 70
     2
  0
LAYER
  2
0
 70
     0
 62
     7
  6
CONTINUOUS
  0
LAYER
  2
_________2
 70
     0
 62
     7
  6
CONTINUOUS
  0
ENDTAB
  0
TABLE
  2
STYLE
 70
     1
  0
STYLE
  2
STANDARD
 70
     0
 40
0.0
 41
0.0
 50
0.0
 71
     0
 42
0.0
  3
TXT
  4
EXTFONT.SHX
  0
ENDTAB
  0
TABLE
  2
VIEW
 70
     0
  0
ENDTAB
  0
TABLE
  2
UCS
 70
     0
  0
ENDTAB
  0
TABLE
  2
APPID
 70
     1
  0
APPID
  2
ACAD
 70
     0
  0
ENDTAB
  0
TABLE
  2
DIMSTYLE
 70
     1
  0
DIMSTYLE
  2
STANDARD
 70
     0
  3

  4

  5

  6

  7

 40
1.0
 41
0.18
 42
0.0625
 43
0.38
 44
0.18
 45
0.0
 46
0.0
 47
0.0
 48
0.0
140
0.18
141
0.09
142
0.0
143
25.399999999999999
144
1.0
145
0.0
146
1.0
147
0.09
 71
     0
 72
     0
 73
     1
 74
     1
 75
     0
 76
     0
 77
     0
 78
     0
170
     0
171
     2
172
     0
173
     0
174
     0
175
     0
176
     0
177
     0
178
     0
  0
ENDTAB
  0
ENDSEC
  0
SECTION
  2
BLOCKS
  0
BLOCK
  8
0
  2
$MODEL_SPACE
 70
     0
 10
0.0
 20
0.0
 30
0.0
  3
$MODEL_SPACE
  1

  0
ENDBLK
  5
1A
  8
0
  0
BLOCK
 67
     1
  8
0
  2
$PAPER_SPACE
 70
     0
 10
0.0
 20
0.0
 30
0.0
  3
$PAPER_SPACE
  1

  0
ENDBLK
  5
17
 67
     1
  8
0
  0
ENDSEC
  0
SECTION
  2
ENTITIES
  0
TEXT
  5
23
  8
0
 62
     7
 10
101.236
 20
91.781729999999996
 30
0.0
 40
3.0923400000000001
  1
121
 50
90.0
 41
0.5
 72
     1
 11
101.236
 21
93.327900000000014
 31
0.0
  0
TEXT
  5
24
  8
0
 62
     7
 10
94.643399999999986
 20
107.4373725
 30
0.0
 40
3.0923400000000001
  1
20
 50
90.0
 41
0.5
 72
     1
 11
94.643399999999986
 21
108.59699999999999
 31
0.0
  0
TEXT
  5
25
  8
0
 62
     7
 10
70.840069999999983
 20
193.85400000000001
 30
0.0
 40
3.0923400000000001
  1
%%c41
 41
0.5
 72
     2
 11
74.447800000000001
 21
193.85400000000001
 31
0.0
  0
TEXT
  5
26
  8
0
 62
     7
 10
134.4537599999999
 20
146.93299999999999
 30
0.0
 40
3.0923400000000001
  1
カウンター切込寸法
 41
0.5
 72
     1
 11
142.6999999999999
 21
146.93299999999999
 31
0.0
  0
TEXT
  5
27
  8
0
 62
     7
 10
57.8311025
 20
136.95699999999991
 30
0.0
 40
3.0923400000000001
  1
%%c340
 41
0.5
 72
     1
 11
60.536900000000003
 21
136.95699999999991
 31
0.0
  0
TEXT
  5
28
  8
0
 62
     7
 10
133.1508211802213
 20
177.2878211802213
 30
0.0
 40
3.0923400000000001
  1
%%c316
 50
45.0
 41
0.5
 72
     1
 11
134.9729999999999
 21
179.11000000000001
 31
0.0
  0
TEXT
  5
29
  8
0
 62
     7
 10
57.8311025
 20
146.83099999999999
 30
0.0
 40
3.0923400000000001
  1
%%c280
 41
0.5
 72
     1
 11
60.536900000000003
 21
146.83099999999999
 31
0.0
  0
TEXT
  5
2A
  8
0
 62
     7
 10
146.4489999999999
 20
93.498082499999995
 30
0.0
 40
3.0923400000000001
  1
103
 50
90.0
 41
0.5
 72
     1
 11
146.4489999999999
 21
95.173100000000005
 31
0.0
  0
LINE
  5
2B
  8
0
 62
     7
 10
147.69199999999989
 20
101.794
 30
0.0
 11
147.09999999999991
 21
104.00399999999991
 31
0.0
  0
LINE
  5
2C
  8
0
 62
     7
 10
147.09999999999991
 20
104.00399999999991
 30
0.0
 11
146.5079999999999
 21
101.794
 31
0.0
  0
LINE
  5
2D
  8
0
 62
     7
 10
146.5079999999999
 20
101.794
 30
0.0
 11
147.69199999999989
 21
101.794
 31
0.0
  0
LINE
  5
2E
  8
0
 62
     7
 10
146.52199999999999
 20
89.047999999999988
 30
0.0
 11
147.114
 21
86.837299999999999
 31
0.0
  0
LINE
  5
2F
  8
0
 62
     7
 10
147.114
 20
86.837299999999999
 30
0.0
 11
147.70699999999991
 21
89.047999999999988
 31
0.0
  0
LINE
  5
30
  8
0
 62
     7
 10
147.70699999999991
 20
89.047999999999988
 30
0.0
 11
146.52199999999999
 21
89.047999999999988
 31
0.0
  0
LINE
  5
31
  8
0
 62
     7
 10
147.107
 20
104.00399999999991
 30
0.0
 11
147.107
 21
86.837299999999999
 31
0.0
  0
LINE
  5
32
  8
0
  6
AIGENLINE001
 62
     7
 10
146.36600000000001
 20
85.004499999999979
 30
0.0
 11
146.36600000000001
 21
83.837599999999995
 31
0.0
  0
LINE
  5
33
  8
0
  6
AIGENLINE001
 62
     7
 10
146.36600000000001
 20
85.004499999999979
 30
0.0
 11
148.36600000000001
 21
86.837299999999999
 31
0.0
  0
LINE
  5
34
  8
0
  6
AIGENLINE001
 62
     7
 10
139.0329999999999
 20
85.004499999999979
 30
0.0
 11
137.03200000000001
 21
86.837299999999999
 31
0.0
  0
LINE
  5
35
  8
0
  6
AIGENLINE001
 62
     7
 10
139.0329999999999
 20
85.004499999999979
 30
0.0
 11
139.0329999999999
 21
83.837599999999995
 31
0.0
  0
LINE
  5
36
  8
0
  6
AIGENLINE001
 62
     7
 10
139.0329999999999
 20
85.004499999999979
 30
0.0
 11
146.36600000000001
 21
85.004499999999979
 31
0.0
  0
LINE
  5
37
  8
0
  6
AIGENLINE001
 62
     7
 10
137.03200000000001
 20
86.837299999999999
 30
0.0
 11
148.36600000000001
 21
86.837299999999999
 31
0.0
  0
ARC
  5
38
  8
0
  6
AIGENLINE001
 62
     7
 10
145.98080400000001
 20
104.1786
 30
0.0
 40
17.504591000000001
 50
277.8317009999999
 51
295.16550299999989
  0
ARC
  5
39
  8
0
  6
AIGENLINE001
 62
     7
 10
143.74909099999991
 20
109.028052
 30
0.0
 40
22.842788999999989
 50
295.05948599999988
 51
347.29524199999992
  0
ARC
  5
3A
  8
0
  6
AIGENLINE001
 62
     7
 10
139.41753299999999
 20
104.1786
 30
0.0
 40
17.504591000000001
 50
244.83451700000001
 51
262.168319
  0
ARC
  5
3B
  8
0
  6
AIGENLINE001
 62
     7
 10
141.64924600000001
 20
109.028052
 30
0.0
 40
22.842788999999989
 50
192.70477799999989
 51
244.94053400000001
  0
ARC
  5
3C
  8
0
 62
     7
 10
63.408870999999991
 20
107.23389399999991
 30
0.0
 40
22.664925
 50
282.89498800000001
 51
338.19314100000003
  0
ARC
  5
3D
  8
0
 62
     7
 10
66.260699000000002
 20
105.5699639999999
 30
0.0
 40
19.405128999999999
 50
339.626688
 51
345.37644499999999
  0
ARC
  5
3E
  8
0
 62
     7
 10
68.216200999999998
 20
82.686190999999994
 30
0.0
 40
2.175675
 50
130.161517
 51
148.046717
  0
ARC
  5
3F
  8
0
 62
     7
 10
69.065893000000003
 20
81.765744999999995
 30
0.0
 40
3.4275639999999989
 50
100.06484499999991
 51
131.09303600000001
  0
ARC
  5
40
  8
0
 62
     7
 10
52.857621999999999
 20
82.686190999999994
 30
0.0
 40
2.175675
 50
31.953263
 51
49.838464000000002
  0
ARC
  5
41
  8
0
 62
     7
 10
52.007930000000002
 20
81.765744999999995
 30
0.0
 40
3.4275639999999989
 50
48.906944000000003
 51
79.935135000000002
  0
LINE
  5
42
  8
0
 62
     7
 10
54.703600000000002
 20
83.837599999999995
 30
0.0
 11
66.370199999999997
 21
83.837599999999995
 31
0.0
  0
ARC
  5
43
  8
0
 62
     7
 10
145.57147299999991
 20
107.23389399999991
 30
0.0
 40
22.664925
 50
282.89498800000001
 51
338.19314100000003
  0
ARC
  5
44
  8
0
 62
     7
 10
148.42330000000001
 20
105.5699639999999
 30
0.0
 40
19.405128999999999
 50
339.626688
 51
345.37644499999999
  0
ARC
  5
45
  8
0
 62
     7
 10
150.378803
 20
82.686190999999994
 30
0.0
 40
2.175675
 50
130.161517
 51
148.046717
  0
ARC
  5
46
  8
0
 62
     7
 10
151.228588
 20
81.765550999999988
 30
0.0
 40
3.427772
 50
100.06581
 51
131.09207099999989
  0
ARC
  5
47
  8
0
 62
     7
 10
57.664949
 20
107.23388300000001
 30
0.0
 40
22.664914
 50
201.80685999999989
 51
257.10503199999988
  0
ARC
  5
48
  8
0
 62
     7
 10
54.809908999999998
 20
105.569003
 30
0.0
 40
19.401775000000001
 50
194.62322599999999
 51
200.37398300000001
  0
ARC
  5
49
  8
0
 62
     7
 10
139.82755299999999
 20
107.23389399999991
 30
0.0
 40
22.664925
 50
201.8068779999999
 51
257.10503199999988
  0
ARC
  5
4A
  8
0
 62
     7
 10
136.97572600000001
 20
105.5699639999999
 30
0.0
 40
19.405128999999999
 50
194.62357399999999
 51
200.37333199999989
  0
ARC
  5
4B
  8
0
 62
     7
 10
135.02022400000001
 20
82.686190999999994
 30
0.0
 40
2.175675
 50
31.953263
 51
49.838464000000002
  0
ARC
  5
4C
  8
0
 62
     7
 10
134.1704379999999
 20
81.765550999999988
 30
0.0
 40
3.427772
 50
48.907908999999997
 51
79.934169999999995
  0
LINE
  5
4D
  8
0
  6
AIGENLINE002
 62
     7
 10
142.6999999999999
 20
154.69399999999999
 30
0.0
 11
142.6999999999999
 21
214.56200000000001
 31
0.0
  0
LINE
  5
4E
  8
0
  6
AIGENLINE002
 62
     7
 10
142.6999999999999
 20
80.963000000000008
 30
0.0
 11
142.6999999999999
 21
106.7209999999999
 31
0.0
  0
LINE
  5
4F
  8
0
 62
     7
 10
170.88200000000001
 20
103.687
 30
0.0
 11
171.0329999999999
 21
100.67099999999991
 31
0.0
  0
LINE
  5
50
  8
0
 62
     7
 10
114.84999999999999
 20
104.00399999999991
 30
0.0
 11
170.54900000000001
 21
104.00399999999991
 31
0.0
  0
ARC
  5
51
  8
0
 62
     7
 10
170.53713400000001
 20
103.65848699999989
 30
0.0
 40
0.346022
 50
4.7847160000000004
 51
88.009636000000015
  0
LINE
  5
52
  8
0
 62
     7
 10
114.36499999999999
 20
100.67099999999991
 30
0.0
 11
114.51600000000001
 21
103.687
 31
0.0
  0
ARC
  5
53
  8
0
 62
     7
 10
114.861504
 20
103.65814499999991
 30
0.0
 40
0.34635
 50
91.924203000000006
 51
175.163051
  0
LINE
  5
54
  8
0
 62
     7
 10
114.36499999999999
 20
100.67099999999991
 30
0.0
 11
171.0329999999999
 21
100.67099999999991
 31
0.0
  0
LINE
  5
55
  8
0
 62
     7
 10
101.517
 20
86.048299999999983
 30
0.0
 11
102.10899999999999
 21
83.837599999999995
 31
0.0
  0
LINE
  5
56
  8
0
 62
     7
 10
102.10899999999999
 20
83.837599999999995
 30
0.0
 11
102.70099999999999
 21
86.048299999999983
 31
0.0
  0
LINE
  5
57
  8
0
 62
     7
 10
102.70099999999999
 20
86.048299999999983
 30
0.0
 11
101.517
 21
86.048299999999983
 31
0.0
  0
LINE
  5
58
  8
0
 62
     7
 10
102.687
 20
101.794
 30
0.0
 11
102.095
 21
104.00399999999991
 31
0.0
  0
LINE
  5
59
  8
0
 62
     7
 10
102.095
 20
104.00399999999991
 30
0.0
 11
101.502
 21
101.794
 31
0.0
  0
LINE
  5
5A
  8
0
 62
     7
 10
101.502
 20
101.794
 30
0.0
 11
102.687
 21
101.794
 31
0.0
  0
LINE
  5
5B
  8
0
 62
     7
 10
102.102
 20
83.837599999999995
 30
0.0
 11
102.102
 21
104.00399999999991
 31
0.0
  0
LINE
  5
5C
  8
0
 62
     7
 10
103.102
 20
83.837599999999995
 30
0.0
 11
67.551299999999998
 21
83.837599999999995
 31
0.0
  0
LINE
  5
5D
  8
0
 62
     7
 10
95.3292
 20
106.215
 30
0.0
 11
95.921199999999985
 21
104.00399999999991
 31
0.0
  0
LINE
  5
5E
  8
0
 62
     7
 10
95.921199999999985
 20
104.00399999999991
 30
0.0
 11
96.513400000000004
 21
106.215
 31
0.0
  0
LINE
  5
5F
  8
0
 62
     7
 10
96.513400000000004
 20
106.215
 30
0.0
 11
95.3292
 21
106.215
 31
0.0
  0
LINE
  5
60
  8
0
 62
     7
 10
96.498900000000006
 20
98.460099999999997
 30
0.0
 11
95.906700000000015
 21
100.67099999999991
 31
0.0
  0
LINE
  5
61
  8
0
 62
     7
 10
95.906700000000015
 20
100.67099999999991
 30
0.0
 11
95.314700000000002
 21
98.460099999999997
 31
0.0
  0
LINE
  5
62
  8
0
 62
     7
 10
95.314700000000002
 20
98.460099999999997
 30
0.0
 11
96.498900000000006
 21
98.460099999999997
 31
0.0
  0
LINE
  5
63
  8
0
 62
     7
 10
95.914000000000001
 20
95.926199999999994
 30
0.0
 11
95.914000000000001
 21
110.66500000000001
 31
0.0
  0
LINE
  5
64
  8
0
 62
     7
 10
103.102
 20
104.00399999999991
 30
0.0
 11
89.660399999999996
 21
104.00399999999991
 31
0.0
  0
LINE
  5
65
  8
0
 62
     7
 10
96.913899999999998
 20
100.67099999999991
 30
0.0
 11
89.660399999999996
 21
100.67099999999991
 31
0.0
  0
LINE
  5
66
  8
0
 62
     7
 10
136.86600000000001
 20
83.837599999999995
 30
0.0
 11
148.5329999999999
 21
83.837599999999995
 31
0.0
  0
LINE
  5
67
  8
0
 62
     7
 10
83.870500000000007
 20
144.5679999999999
 30
0.0
 11
83.870500000000007
 21
177.154
 31
0.0
  0
LINE
  5
68
  8
0
 62
     7
 10
37.203499999999991
 20
144.5679999999999
 30
0.0
 11
37.203499999999991
 21
177.154
 31
0.0
  0
LINE
  5
69
  8
0
 62
     7
 10
39.413899999999998
 20
146.15299999999991
 30
0.0
 11
37.203499999999991
 21
145.56100000000001
 31
0.0
  0
LINE
  5
6A
  8
0
 62
     7
 10
37.203499999999991
 20
145.56100000000001
 30
0.0
 11
39.413899999999998
 21
144.96899999999991
 31
0.0
  0
LINE
  5
6B
  8
0
 62
     7
 10
39.413899999999998
 20
144.96899999999991
 30
0.0
 11
39.413899999999998
 21
146.15299999999991
 31
0.0
  0
LINE
  5
6C
  8
0
 62
     7
 10
81.659999999999997
 20
144.983
 30
0.0
 11
83.870500000000007
 21
145.57599999999991
 31
0.0
  0
LINE
  5
6D
  8
0
 62
     7
 10
83.870500000000007
 20
145.57599999999991
 30
0.0
 11
81.659999999999997
 21
146.16800000000001
 31
0.0
  0
LINE
  5
6E
  8
0
 62
     7
 10
81.659999999999997
 20
146.16800000000001
 30
0.0
 11
81.659999999999997
 21
144.983
 31
0.0
  0
LINE
  5
6F
  8
0
 62
     7
 10
37.203499999999991
 20
145.5679999999999
 30
0.0
 11
83.870500000000007
 21
145.5679999999999
 31
0.0
  0
LINE
  5
70
  8
0
 62
     7
 10
88.870400000000004
 20
134.8479999999999
 30
0.0
 11
88.870400000000004
 21
177.154
 31
0.0
  0
LINE
  5
71
  8
0
 62
     7
 10
32.203400000000002
 20
134.8479999999999
 30
0.0
 11
32.203400000000002
 21
177.154
 31
0.0
  0
LINE
  5
72
  8
0
 62
     7
 10
34.413800000000002
 20
136.43199999999999
 30
0.0
 11
32.203400000000002
 21
135.84
 31
0.0
  0
LINE
  5
73
  8
0
 62
     7
 10
32.203400000000002
 20
135.84
 30
0.0
 11
34.413800000000002
 21
135.24799999999991
 31
0.0
  0
LINE
  5
74
  8
0
 62
     7
 10
34.413800000000002
 20
135.24799999999991
 30
0.0
 11
34.413800000000002
 21
136.43199999999999
 31
0.0
  0
LINE
  5
75
  8
0
 62
     7
 10
86.659999999999997
 20
135.26199999999989
 30
0.0
 11
88.870400000000004
 21
135.8539999999999
 31
0.0
  0
LINE
  5
76
  8
0
 62
     7
 10
88.870400000000004
 20
135.8539999999999
 30
0.0
 11
86.659999999999997
 21
136.447
 31
0.0
  0
LINE
  5
77
  8
0
 62
     7
 10
86.659999999999997
 20
136.447
 30
0.0
 11
86.659999999999997
 21
135.26199999999989
 31
0.0
  0
LINE
  5
78
  8
0
 62
     7
 10
32.203400000000002
 20
135.84700000000001
 30
0.0
 11
88.870400000000004
 21
135.84700000000001
 31
0.0
  0
LINE
  5
79
  8
0
 62
     7
 10
74.534899999999993
 20
193.04499999999999
 30
0.0
 11
68.793700000000001
 21
193.04499999999999
 31
0.0
  0
LINE
  5
7A
  8
0
 62
     7
 10
125.2229999999999
 20
168.149
 30
0.0
 11
124.07899999999999
 21
166.16699999999989
 31
0.0
  0
LINE
  5
7B
  8
0
 62
     7
 10
124.07899999999999
 20
166.16699999999989
 30
0.0
 11
126.06100000000001
 21
167.31099999999989
 31
0.0
  0
LINE
  5
7C
  8
0
 62
     7
 10
126.06100000000001
 20
167.31099999999989
 30
0.0
 11
125.2229999999999
 21
168.149
 31
0.0
  0
LINE
  5
7D
  8
0
 62
     7
 10
160.17599999999999
 20
201.42699999999999
 30
0.0
 11
161.31999999999991
 21
203.40899999999999
 31
0.0
  0
LINE
  5
7E
  8
0
 62
     7
 10
161.31999999999991
 20
203.40899999999999
 30
0.0
 11
159.33799999999991
 21
202.26499999999999
 31
0.0
  0
LINE
  5
7F
  8
0
 62
     7
 10
159.33799999999991
 20
202.26499999999999
 30
0.0
 11
160.17599999999999
 21
201.42699999999999
 31
0.0
  0
LINE
  5
80
  8
0
 62
     7
 10
124.07899999999999
 20
166.16699999999989
 30
0.0
 11
161.31999999999991
 21
203.40899999999999
 31
0.0
  0
LINE
  5
81
  8
0
 62
     7
 10
64.096900000000005
 20
189.18599999999989
 30
0.0
 11
62.95259999999999
 21
187.20400000000001
 31
0.0
  0
LINE
  5
82
  8
0
 62
     7
 10
62.95259999999999
 20
187.20400000000001
 30
0.0
 11
64.934600000000003
 21
188.3479999999999
 31
0.0
  0
LINE
  5
83
  8
0
 62
     7
 10
64.934600000000003
 20
188.3479999999999
 30
0.0
 11
64.096900000000005
 21
189.18599999999989
 31
0.0
  0
LINE
  5
84
  8
0
 62
     7
 10
56.976599999999991
 20
180.3899999999999
 30
0.0
 11
58.120899999999999
 21
182.37200000000001
 31
0.0
  0
LINE
  5
85
  8
0
 62
     7
 10
58.120899999999999
 20
182.37200000000001
 30
0.0
 11
56.1389
 21
181.22799999999989
 31
0.0
  0
LINE
  5
86
  8
0
 62
     7
 10
56.1389
 20
181.22799999999989
 30
0.0
 11
56.976599999999991
 21
180.3899999999999
 31
0.0
  0
LINE
  5
87
  8
0
 62
     7
 10
52.597799999999999
 20
176.84899999999999
 30
0.0
 11
68.793700000000001
 21
193.04499999999999
 31
0.0
  0
LINE
  5
88
  8
0
  6
AIGENLINE002
 62
     7
 10
60.536900000000003
 20
80.963000000000008
 30
0.0
 11
60.536900000000003
 21
106.7209999999999
 31
0.0
  0
LINE
  5
89
  8
0
 62
     7
 10
88.719499999999996
 20
103.687
 30
0.0
 11
88.870400000000004
 21
100.67099999999991
 31
0.0
  0
LINE
  5
8A
  8
0
 62
     7
 10
32.687100000000001
 20
104.00399999999991
 30
0.0
 11
88.386700000000005
 21
104.00399999999991
 31
0.0
  0
ARC
  5
8B
  8
0
 62
     7
 10
88.374705000000006
 20
103.65848699999989
 30
0.0
 40
0.346022
 50
4.7847160000000004
 51
88.009636000000015
  0
LINE
  5
8C
  8
0
 62
     7
 10
32.203400000000002
 20
100.67099999999991
 30
0.0
 11
32.354100000000003
 21
103.687
 31
0.0
  0
ARC
  5
8D
  8
0
 62
     7
 10
32.698747999999988
 20
103.6586889999999
 30
0.0
 40
0.345808
 50
91.930211000000014
 51
175.24578500000001
  0
LINE
  5
8E
  8
0
 62
     7
 10
32.203400000000002
 20
100.67099999999991
 30
0.0
 11
88.870400000000004
 21
100.67099999999991
 31
0.0
  0
LINE
  5
8F
  8
0
  6
AIGENLINE002
 62
     7
 10
60.536900000000003
 20
152.827
 30
0.0
 11
60.536900000000003
 21
216.8779999999999
 31
0.0
  0
ARC
  5
90
  8
0
 62
     7
 10
60.536825
 20
184.78825199999989
 30
0.0
 40
3.416609999999999
 50
359.99856599999998
 51
89.998535999999987
  0
ARC
  5
91
  8
0
 62
     7
 10
60.536912000000001
 20
184.7881659999999
 30
0.0
 40
3.4166959999999991
 50
90.0
 51
179.99996999999991
  0
ARC
  5
92
  8
0
 62
     7
 10
60.536825
 20
184.78825199999989
 30
0.0
 40
3.4166080000000001
 50
180.001454
 51
270.001464
  0
ARC
  5
93
  8
0
 62
     7
 10
60.536910999999989
 20
184.7881669999999
 30
0.0
 40
3.4165230000000002
 50
270.00002000000001
 51
359.99998999999991
  0
ARC
  5
94
  8
0
 62
     7
 10
60.536910999999989
 20
184.78816499999991
 30
0.0
 40
5.666701999999999
 50
0.00001
 51
89.999980000000008
  0
ARC
  5
95
  8
0
 62
     7
 10
60.536912999999998
 20
184.78816499999991
 30
0.0
 40
5.666701999999999
 50
90.0
 51
179.99996999999991
  0
ARC
  5
96
  8
0
 62
     7
 10
60.536910999999989
 20
184.78816499999991
 30
0.0
 40
5.6666999999999987
 50
179.99996999999991
 51
270.00002000000001
  0
ARC
  5
97
  8
0
 62
     7
 10
60.536910999999989
 20
184.7881669999999
 30
0.0
 40
5.666701999999999
 50
270.00002000000001
 51
359.99998999999991
  0
ARC
  5
98
  8
0
 62
     7
 10
142.69925000000001
 20
184.7880759999999
 30
0.0
 40
26.333705999999999
 50
0.000197
 51
90.000168000000016
  0
ARC
  5
99
  8
0
 62
     7
 10
142.69925900000001
 20
184.78824800000001
 30
0.0
 40
26.333534
 50
90.000186999999997
 51
180.0001969999999
  0
ARC
  5
9A
  8
0
 62
     7
 10
142.69916399999991
 20
184.788162
 30
0.0
 40
26.333438000000001
 50
179.99996999999991
 51
270.00002000000001
  0
ARC
  5
9B
  8
0
 62
     7
 10
142.69933599999999
 20
184.78834299999991
 30
0.0
 40
26.333619999999989
 50
269.99964499999999
 51
359.99961499999989
  0
ARC
  5
9C
  8
0
 62
     7
 10
60.536907999999997
 20
184.788162
 30
0.0
 40
23.333610999999991
 50
0.00001
 51
89.999980000000008
  0
ARC
  5
9D
  8
0
 62
     7
 10
60.536915999999998
 20
184.788162
 30
0.0
 40
23.333610999999991
 50
90.0
 51
179.99996999999991
  0
ARC
  5
9E
  8
0
 62
     7
 10
60.536820999999989
 20
184.78824800000001
 30
0.0
 40
23.333517000000001
 50
180.00022100000001
 51
270.00023099999993
  0
ARC
  5
9F
  8
0
 62
     7
 10
60.536993999999993
 20
184.78825599999999
 30
0.0
 40
23.333525000000002
 50
269.99980799999997
 51
359.99977899999988
  0
ARC
  5
A0
  8
0
 62
     7
 10
60.536906999999992
 20
184.78816099999989
 30
0.0
 40
28.333510999999991
 50
0.00001
 51
89.999980000000008
  0
ARC
  5
A1
  8
0
 62
     7
 10
60.536915999999998
 20
184.78816099999989
 30
0.0
 40
28.333510999999991
 50
90.0
 51
179.99996999999991
  0
ARC
  5
A2
  8
0
 62
     7
 10
60.536993000000002
 20
184.78807499999991
 30
0.0
 40
28.333586999999991
 50
179.99979599999989
 51
269.99984599999988
  0
ARC
  5
A3
  8
0
 62
     7
 10
60.536820999999989
 20
184.78808499999991
 30
0.0
 40
28.33359699999999
 50
270.00019400000002
 51
0.000164
  0
LINE
  5
A4
  8
0
  6
AIGENLINE002
 62
     7
 10
173.791
 20
184.7879999999999
 30
0.0
 11
111.15899999999991
 21
184.7879999999999
 31
0.0
  0
LINE
  5
A5
  8
0
  6
AIGENLINE002
 62
     7
 10
93.143100000000004
 20
184.7879999999999
 30
0.0
 11
28.188800000000001
 21
184.7879999999999
 31
0.0
  0
LINE
  5
A6
  8
_________2
 62
     7
 10
143.084
 20
258.911
 30
0.0
 11
143.084
 21
223.91099999999989
 31
0.0
  0
LINE
  5
A7
  8
_________2
 62
     7
 10
166.25999999999991
 20
258.911
 30
0.0
 11
166.25999999999991
 21
223.91099999999989
 31
0.0
  0
TEXT
  5
A8
  8
_________2
 62
     7
 10
171.32296966666661
 20
226.06200000000001
 30
0.0
 40
3.3734599999999988
  1
るりゆう
 41
0.5
 72
     1
 11
175.09
 21
226.06200000000001
 31
0.0
  0
TEXT
  5
A9
  8
_________2
 62
     7
 10
146.5574716666666
 20
226.06200000000001
 30
0.0
 40
3.3734599999999988
  1
CEV300-RRU
 41
0.5
 72
     1
 11
154.71000000000001
 21
226.06200000000001
 31
0.0
  0
LINE
  5
AA
  8
_________2
 62
     7
 10
143.084
 20
223.91099999999989
 30
0.0
 11
183.55099999999999
 21
223.91099999999989
 31
0.0
  0
TEXT
  5
AB
  8
_________2
 62
     7
 10
173.2908213333333
 20
233.06200000000001
 30
0.0
 40
3.3734599999999988
  1
織部
 41
0.5
 72
     1
 11
175.09
 21
233.06200000000001
 31
0.0
  0
TEXT
  5
AC
  8
_________2
 62
     7
 10
146.5574716666666
 20
233.06200000000001
 30
0.0
 40
3.3734599999999988
  1
CEV300-ORU
 41
0.5
 72
     1
 11
154.71000000000001
 21
233.06200000000001
 31
0.0
  0
LINE
  5
AD
  8
_________2
 62
     7
 10
143.084
 20
230.91099999999989
 30
0.0
 11
183.55099999999999
 21
230.91099999999989
 31
0.0
  0
TEXT
  5
AE
  8
_________2
 62
     7
 10
172.27878333333331
 20
240.0619999999999
 30
0.0
 40
3.3734599999999988
  1
黄瀬戸
 41
0.5
 72
     1
 11
175.09
 21
240.0619999999999
 31
0.0
  0
TEXT
  5
AF
  8
_________2
 62
     7
 10
173.1783726666666
 20
247.06200000000001
 30
0.0
 40
3.3734599999999988
  1
白磁
 41
0.5
 72
     1
 11
175.09
 21
247.06200000000001
 31
0.0
  0
TEXT
  5
B0
  8
_________2
 62
     7
 10
170.76072633333331
 20
254.06200000000001
 30
0.0
 40
3.3734599999999988
  1
色（仕上）
 41
0.5
 72
     1
 11
175.09
 21
254.06200000000001
 31
0.0
  0
TEXT
  5
B1
  8
_________2
 62
     7
 10
146.5574716666666
 20
240.0619999999999
 30
0.0
 40
3.3734599999999988
  1
CEV300-KSU
 41
0.5
 72
     1
 11
154.71000000000001
 21
240.0619999999999
 31
0.0
  0
TEXT
  5
B2
  8
_________2
 62
     7
 10
146.5574716666666
 20
247.06200000000001
 30
0.0
 40
3.3734599999999988
  1
CEV300-HYY
 41
0.5
 72
     1
 11
154.71000000000001
 21
247.06200000000001
 31
0.0
  0
TEXT
  5
B3
  8
_________2
 62
     7
 10
152.9108213333333
 20
254.06200000000001
 30
0.0
 40
3.3734599999999988
  1
品番
 41
0.5
 72
     1
 11
154.71000000000001
 21
254.06200000000001
 31
0.0
  0
LINE
  5
B4
  8
_________2
 62
     7
 10
143.084
 20
237.91099999999989
 30
0.0
 11
183.55099999999999
 21
237.91099999999989
 31
0.0
  0
LINE
  5
B5
  8
_________2
 62
     7
 10
143.084
 20
244.91099999999989
 30
0.0
 11
183.55099999999999
 21
244.91099999999989
 31
0.0
  0
LINE
  5
B6
  8
_________2
 62
     7
 10
143.084
 20
251.91099999999989
 30
0.0
 11
183.55099999999999
 21
251.91099999999989
 31
0.0
  0
LINE
  5
B7
  8
_________2
 62
     7
 10
205.30099999999999
 20
127.411
 30
0.0
 11
183.55000000000001
 21
127.411
 31
0.0
  0
LINE
  5
B8
  8
_________2
 62
     7
 10
100.2999999999999
 20
-4.0907299999999998
 30
0.0
 11
100.2999999999999
 21
-21.070999999999991
 31
0.0
  0
LINE
  5
B9
  8
_________2
 62
     7
 10
100.2999999999999
 20
275.93099999999993
 30
0.0
 11
100.2999999999999
 21
258.911
 31
0.0
  0
LINE
  5
BA
  8
_________2
 62
     7
 10
17.049399999999991
 20
127.411
 30
0.0
 11
-4.7006899999999989
 21
127.411
 31
0.0
  0
LINE
  5
BB
  8
_________2
 62
     7
 10
76.741
 20
29.805099999999999
 30
0.0
 11
74.554599999999994
 21
29.805099999999999
 31
0.0
  0
LINE
  5
BC
  8
_________2
 62
     7
 10
77.233699999999999
 20
29.805099999999999
 30
0.0
 11
76.981499999999997
 21
29.805099999999999
 31
0.0
  0
LINE
  5
BD
  8
_________2
 62
     7
 10
77.726200000000006
 20
29.805099999999999
 30
0.0
 11
80.651200000000003
 21
29.805099999999999
 31
0.0
  0
LINE
  5
BE
  8
_________2
 62
     7
 10
77.233699999999999
 20
29.805099999999999
 30
0.0
 11
77.485500000000002
 21
29.805099999999999
 31
0.0
  0
LINE
  5
BF
  8
_________2
 62
     7
 10
70.837100000000007
 20
29.805099999999999
 30
0.0
 11
68.650300000000001
 21
29.805099999999999
 31
0.0
  0
LINE
  5
C0
  8
_________2
 62
     7
 10
71.329599999999999
 20
29.805099999999999
 30
0.0
 11
71.077600000000004
 21
29.805099999999999
 31
0.0
  0
LINE
  5
C1
  8
_________2
 62
     7
 10
71.329599999999999
 20
30.2974
 30
0.0
 11
71.329599999999999
 21
32.484400000000001
 31
0.0
  0
LINE
  5
C2
  8
_________2
 62
     7
 10
71.329599999999999
 20
29.805099999999999
 30
0.0
 11
71.329599999999999
 21
30.057300000000001
 31
0.0
  0
LINE
  5
C3
  8
_________2
 62
     7
 10
71.822299999999998
 20
29.805099999999999
 30
0.0
 11
74.008899999999997
 21
29.805099999999999
 31
0.0
  0
LINE
  5
C4
  8
_________2
 62
     7
 10
71.329599999999999
 20
29.805099999999999
 30
0.0
 11
71.581800000000001
 21
29.805099999999999
 31
0.0
  0
LINE
  5
C5
  8
_________2
 62
     7
 10
71.329599999999999
 20
29.312799999999999
 30
0.0
 11
71.329599999999999
 21
27.125800000000002
 31
0.0
  0
LINE
  5
C6
  8
_________2
 62
     7
 10
71.329599999999999
 20
29.805099999999999
 30
0.0
 11
71.329599999999999
 21
29.5532
 31
0.0
  0
LINE
  5
C7
  8
_________2
 62
     7
 10
75.040700000000001
 20
28.5855
 30
0.0
 11
80.218299999999985
 21
27.720400000000001
 31
0.0
  0
LINE
  5
C8
  8
_________2
 62
     7
 10
75.040700000000001
 20
31.024699999999999
 30
0.0
 11
80.218299999999985
 21
31.889700000000001
 31
0.0
  0
LINE
  5
C9
  8
_________2
 62
     7
 10
80.218299999999985
 20
27.720400000000001
 30
0.0
 11
80.218299999999985
 21
31.889700000000001
 31
0.0
  0
LINE
  5
CA
  8
_________2
 62
     7
 10
75.040700000000001
 20
28.5855
 30
0.0
 11
75.040700000000001
 21
31.024699999999999
 31
0.0
  0
ARC
  5
CB
  8
_________2
 62
     7
 10
71.329689000000002
 20
29.805001000000001
 30
0.0
 40
1.219657999999999
 50
0.004056
 51
90.004025999999996
  0
ARC
  5
CC
  8
_________2
 62
     7
 10
71.32951700000001
 20
29.805001000000001
 30
0.0
 40
1.219657999999999
 50
89.995953999999998
 51
179.99592399999989
  0
ARC
  5
CD
  8
_________2
 62
     7
 10
71.329515999999998
 20
29.805172999999989
 30
0.0
 40
1.2196569999999991
 50
180.00405599999999
 51
270.00406600000002
  0
ARC
  5
CE
  8
_________2
 62
     7
 10
71.329689000000002
 20
29.805174000000001
 30
0.0
 40
1.219657999999999
 50
269.99597399999999
 51
359.99594400000001
  0
ARC
  5
CF
  8
_________2
 62
     7
 10
71.329602000000008
 20
29.805087
 30
0.0
 40
2.0846409999999991
 50
0.00001
 51
89.999980000000008
  0
ARC
  5
D0
  8
_________2
 62
     7
 10
71.32951700000001
 20
29.805001000000001
 30
0.0
 40
2.0847269999999991
 50
89.997632999999993
 51
179.997603
  0
ARC
  5
D1
  8
_________2
 62
     7
 10
71.409450000000007
 20
29.885114000000002
 30
0.0
 40
2.1661389999999989
 50
182.11724599999999
 51
267.88751799999989
  0
ARC
  5
D2
  8
_________2
 62
     7
 10
71.249597999999992
 20
29.88509199999999
 30
0.0
 40
2.1661229999999989
 50
272.11667999999992
 51
357.88332999999989
  0
TEXT
  5
D3
  8
_________2
 62
     7
 10
104.605
 20
1.6794899999999999
 30
0.0
 40
3.0923400000000001
  1
図番
 41
0.5
  0
LINE
  5
D4
  8
_________2
 62
     7
 10
103.55
 20
5.9087199999999989
 30
0.0
 11
183.55099999999999
 21
5.9087199999999989
 31
0.0
  0
TEXT
  5
D5
  8
_________2
 62
     7
 10
104.605
 20
11.679600000000001
 30
0.0
 40
3.0923400000000001
  1
品番
 41
0.5
  0
TEXT
  5
D6
  8
_________2
 62
     7
 10
104.605
 20
31.818100000000001
 30
0.0
 40
3.0923400000000001
  1
名称
 41
0.5
  0
TEXT
  5
D7
  8
_________2
 62
     7
 10
91.845258333333334
 20
26.821999999999989
 30
0.0
 40
3.6545800000000002
  1
mm
 41
0.5
 72
     1
 11
93.367999999999995
 21
26.821999999999989
 31
0.0
  0
TEXT
  5
D8
  8
_________2
 62
     7
 10
85.642999999999986
 20
31.818100000000001
 30
0.0
 40
3.0923400000000001
  1
単位
 41
0.5
  0
TEXT
  5
D9
  8
_________2
 62
     7
 10
85.642999999999986
 20
19.411200000000001
 30
0.0
 40
3.0923400000000001
  1
尺度
 41
0.5
  0
TEXT
  5
DA
  8
_________2
 62
     7
 10
90.548758666666686
 20
13.218199999999991
 30
0.0
 40
3.6545800000000002
  1
1 ： 6
 41
0.5
 72
     1
 11
93.959699999999998
 21
13.218199999999991
 31
0.0
  0
TEXT
  5
DB
  8
_________2
 62
     7
 10
136.66252499999999
 20
9.1078600000000005
 30
0.0
 40
3.9357000000000002
  1
図中の表参照
 41
0.5
 72
     1
 11
143.55000000000001
 21
9.1078600000000005
 31
0.0
  0
TEXT
  5
DC
  8
_________2
 62
     7
 10
137.97442499999991
 20
-0.892285
 30
0.0
 40
3.9357000000000002
  1
CEV300
 41
0.5
 72
     1
 11
143.55000000000001
 21
-0.892285
 31
0.0
  0
TEXT
  5
DD
  8
_________2
 62
     7
 10
109.179
 20
24.226099999999999
 30
0.0
 40
3.9357000000000002
  1
ベルニカ　手洗器
 41
0.5
  0
TEXT
  5
DE
  8
_________2
 62
     7
 10
39.364190666666659
 20
13.603
 30
0.0
 40
3.6545800000000002
  1
高橋
 41
0.5
 72
     1
 11
41.313299999999998
 21
13.603
 31
0.0
  0
TEXT
  5
DF
  8
_________2
 62
     7
 10
20.790090666666661
 20
13.603
 30
0.0
 40
3.6545800000000002
  1
石原
 41
0.5
 72
     1
 11
22.73919999999999
 21
13.603
 31
0.0
  0
TEXT
  5
E0
  8
_________2
 62
     7
 10
67.785399999999996
 20
13.218199999999991
 30
0.0
 40
3.6545800000000002
  1
07.08.06
 41
0.5
  0
TEXT
  5
E1
  8
_________2
 62
     7
 10
66.5929
 20
19.411200000000001
 30
0.0
 40
3.0923400000000001
  1
日付
 41
0.5
  0
TEXT
  5
E2
  8
_________2
 62
     7
 10
29.639199999999992
 20
19.411200000000001
 30
0.0
 40
3.0923400000000001
  1
検図
 41
0.5
  0
TEXT
  5
E3
  8
_________2
 62
     7
 10
18.0212
 20
5.2117699999999987
 30
0.0
 40
3.0923400000000001
  1
備考
 41
0.5
  0
TEXT
  5
E4
  8
_________2
 62
     7
 10
18.0212
 20
19.411200000000001
 30
0.0
 40
3.0923400000000001
  1
製図
 41
0.5
  0
TEXT
  5
E5
  8
_________2
 62
     7
 10
23.788465333333338
 20
27.936800000000002
 30
0.0
 40
4.4979399999999989
  1
セラトレーディング株式会社
 41
0.5
 72
     1
 11
41.180500000000002
 21
27.936800000000002
 31
0.0
  0
LINE
  5
E6
  8
_________2
 62
     7
 10
183.55099999999999
 20
-4.0910799999999998
 30
0.0
 11
17.049399999999991
 21
-4.0910799999999998
 31
0.0
  0
LINE
  5
E7
  8
_________2
 62
     7
 10
17.049399999999991
 20
-4.0910799999999998
 30
0.0
 11
17.049399999999991
 21
258.911
 31
0.0
  0
LINE
  5
E8
  8
_________2
 62
     7
 10
17.049399999999991
 20
258.911
 30
0.0
 11
183.55099999999999
 21
258.911
 31
0.0
  0
LINE
  5
E9
  8
_________2
 62
     7
 10
183.55099999999999
 20
258.911
 30
0.0
 11
183.55099999999999
 21
-4.0910799999999998
 31
0.0
  0
LINE
  5
EA
  8
_________2
 62
     7
 10
65.549599999999998
 20
9.4092999999999982
 30
0.0
 11
65.549599999999998
 21
35.909100000000002
 31
0.0
  0
LINE
  5
EB
  8
_________2
 62
     7
 10
84.549700000000016
 20
9.4092999999999982
 30
0.0
 11
84.549700000000016
 21
35.909100000000002
 31
0.0
  0
LINE
  5
EC
  8
_________2
 62
     7
 10
103.55
 20
-4.0910799999999998
 30
0.0
 11
103.55
 21
35.909100000000002
 31
0.0
  0
LINE
  5
ED
  8
_________2
 62
     7
 10
28.549499999999998
 20
9.4092999999999982
 30
0.0
 11
28.549499999999998
 21
23.409199999999998
 31
0.0
  0
LINE
  5
EE
  8
_________2
 62
     7
 10
17.049399999999991
 20
9.4092999999999982
 30
0.0
 11
103.55
 21
9.4092999999999982
 31
0.0
  0
LINE
  5
EF
  8
_________2
 62
     7
 10
17.049399999999991
 20
23.409199999999998
 30
0.0
 11
103.55
 21
23.409199999999998
 31
0.0
  0
LINE
  5
F0
  8
_________2
 62
     7
 10
103.55
 20
15.90889999999999
 30
0.0
 11
183.55099999999999
 21
15.90889999999999
 31
0.0
  0
LINE
  5
F1
  8
_________2
 62
     7
 10
17.049399999999991
 20
35.909100000000002
 30
0.0
 11
183.55099999999999
 21
35.909100000000002
 31
0.0
  0
ENDSEC
  0
EOF
