  0
SECTION
  2
HEADER
  9
$ACADVER
  1
AC1009
  9
$INSBASE
 10
0.0
 20
0.0
 30
0.0
  9
$EXTMIN
 10
-4.7006899999999989
 20
-21.070999999999991
 30
0.0
  9
$EXTMAX
 10
205.30099999999999
 20
275.93099999999993
 30
0.0
  9
$LIMMIN
 10
0.0
 20
0.0
  9
$LIMMAX
 10
12.0
 20
9.0
  9
$ORTHOMODE
 70
     0
  9
$REGENMODE
 70
     1
  9
$FILLMODE
 70
     1
  9
$QTEXTMODE
 70
     0
  9
$MIRRTEXT
 70
     1
  9
$DRAGMODE
 70
     2
  9
$LTSCALE
 40
1.0
  9
$OSMODE
 70
    37
  9
$ATTMODE
 70
     1
  9
$TEXTSIZE
 40
0.0
  9
$TRACEWID
 40
0.05
  9
$TEXTSTYLE
  7
STANDARD
  9
$CLAYER
  8
0
  9
$CELTYPE
  6
CONTINUOUS
  9
$CECOLOR
 62
   256
  9
$DIMSCALE
 40
1.0
  9
$DIMASZ
 40
0.18
  9
$DIMEXO
 40
0.0625
  9
$DIMDLI
 40
0.38
  9
$DIMRND
 40
0.0
  9
$DIMDLE
 40
0.0
  9
$DIMEXE
 40
0.18
  9
$DIMTP
 40
0.0
  9
$DIMTM
 40
0.0
  9
$DIMTXT
 40
0.18
  9
$DIMCEN
 40
0.09
  9
$DIMTSZ
 40
0.0
  9
$DIMTOL
 70
     0
  9
$DIMLIM
 70
     0
  9
$DIMTIH
 70
     1
  9
$DIMTOH
 70
     1
  9
$DIMSE1
 70
     0
  9
$DIMSE2
 70
     0
  9
$DIMTAD
 70
     0
  9
$DIMZIN
 70
     0
  9
$DIMBLK
  1

  9
$DIMASO
 70
     1
  9
$DIMSHO
 70
     1
  9
$DIMPOST
  1

  9
$DIMAPOST
  1

  9
$DIMALT
 70
     0
  9
$DIMALTD
 70
     2
  9
$DIMALTF
 40
25.399999999999999
  9
$DIMLFAC
 40
1.0
  9
$DIMTOFL
 70
     0
  9
$DIMTVP
 40
0.0
  9
$DIMTIX
 70
     0
  9
$DIMSOXD
 70
     0
  9
$DIMSAH
 70
     0
  9
$DIMBLK1
  1

  9
$DIMBLK2
  1

  9
$DIMSTYLE
  2
STANDARD
  9
$DIMCLRD
 70
     0
  9
$DIMCLRE
 70
     0
  9
$DIMCLRT
 70
     0
  9
$DIMTFAC
 40
1.0
  9
$DIMGAP
 40
0.09
  9
$LUNITS
 70
     2
  9
$LUPREC
 70
     4
  9
$SKETCHINC
 40
0.1
  9
$FILLETRAD
 40
0.0
  9
$AUNITS
 70
     0
  9
$AUPREC
 70
     0
  9
$MENU
  1
.
  9
$ELEVATION
 40
0.0
  9
$PELEVATION
 40
0.0
  9
$THICKNESS
 40
0.0
  9
$LIMCHECK
 70
     0
  9
$BLIPMODE
 70
     0
  9
$CHAMFERA
 40
0.0
  9
$CHAMFERB
 40
0.0
  9
$SKPOLY
 70
     0
  9
$TDCREATE
 40
2444972.375
  9
$TDUPDATE
 40
2454331.2877457631
  9
$TDINDWG
 40
0.0001897917
  9
$TDUSRTIMER
 40
0.0001897917
  9
$USRTIMER
 70
     1
  9
$ANGBASE
 50
0.0
  9
$ANGDIR
 70
     0
  9
$PDMODE
 70
     0
  9
$PDSIZE
 40
0.0
  9
$PLINEWID
 40
0.0
  9
$COORDS
 70
     1
  9
$SPLFRAME
 70
     0
  9
$SPLINETYPE
 70
     6
  9
$SPLINESEGS
 70
     8
  9
$ATTDIA
 70
     0
  9
$ATTREQ
 70
     1
  9
$HANDLING
 70
     1
  9
$HANDSEED
  5
1AE
  9
$SURFTAB1
 70
     6
  9
$SURFTAB2
 70
     6
  9
$SURFTYPE
 70
     6
  9
$SURFU
 70
     6
  9
$SURFV
 70
     6
  9
$UCSNAME
  2

  9
$UCSORG
 10
0.0
 20
0.0
 30
0.0
  9
$UCSXDIR
 10
1.0
 20
0.0
 30
0.0
  9
$UCSYDIR
 10
0.0
 20
1.0
 30
0.0
  9
$PUCSNAME
  2

  9
$PUCSORG
 10
0.0
 20
0.0
 30
0.0
  9
$PUCSXDIR
 10
1.0
 20
0.0
 30
0.0
  9
$PUCSYDIR
 10
0.0
 20
1.0
 30
0.0
  9
$USERI1
 70
     0
  9
$USERI2
 70
     0
  9
$USERI3
 70
     0
  9
$USERI4
 70
     0
  9
$USERI5
 70
     0
  9
$USERR1
 40
0.0
  9
$USERR2
 40
0.0
  9
$USERR3
 40
0.0
  9
$USERR4
 40
0.0
  9
$USERR5
 40
0.0
  9
$WORLDVIEW
 70
     1
  9
$SHADEDGE
 70
     3
  9
$SHADEDIF
 70
    70
  9
$TILEMODE
 70
     1
  9
$MAXACTVP
 70
    48
  9
$PLIMCHECK
 70
     0
  9
$PEXTMIN
 10
1.0000000000000000E+020
 20
1.0000000000000000E+020
 30
1.0000000000000000E+020
  9
$PEXTMAX
 10
-1.0000000000000000E+020
 20
-1.0000000000000000E+020
 30
-1.0000000000000000E+020
  9
$PLIMMIN
 10
0.0
 20
0.0
  9
$PLIMMAX
 10
12.0
 20
9.0
  9
$UNITMODE
 70
     0
  9
$VISRETAIN
 70
     1
  9
$PLINEGEN
 70
     0
  9
$PSLTSCALE
 70
     1
  0
ENDSEC
  0
SECTION
  2
TABLES
  0
TABLE
  2
VPORT
 70
     2
  0
VPORT
  2
*ACTIVE
 70
     0
 10
0.0
 20
0.0
 11
1.0
 21
1.0
 12
217.3672364910818
 22
160.26600975219489
 13
0.0
 23
0.0
 14
1.0
 24
1.0
 15
0.0
 25
0.0
 16
0.0
 26
0.0
 36
1.0
 17
0.0
 27
0.0
 37
0.0
 40
365.63417232831011
 41
2.1842105263157889
 42
50.0
 43
0.0
 44
0.0
 50
0.0
 51
0.0
 71
     0
 72
   100
 73
     1
 74
     1
 75
     0
 76
     0
 77
     0
 78
     0
  0
ENDTAB
  0
TABLE
  2
LTYPE
 70
     2
  0
LTYPE
  2
CONTINUOUS
 70
     0
  3
Solid line
 72
    65
 73
     0
 40
0.0
  0
LTYPE
  2
AIGENLINE001
 70
     0
  3
generate AI->DXF Converter
 72
    65
 73
     4
 40
5.8561449999999988
 49
3.5278
 49
-0.776115
 49
0.776115
 49
-0.776115
  0
ENDTAB
  0
TABLE
  2
LAYER
 70
     2
  0
LAYER
  2
0
 70
     0
 62
     7
  6
CONTINUOUS
  0
LAYER
  2
_________2
 70
     0
 62
     7
  6
CONTINUOUS
  0
ENDTAB
  0
TABLE
  2
STYLE
 70
     1
  0
STYLE
  2
STANDARD
 70
     0
 40
0.0
 41
0.0
 50
0.0
 71
     0
 42
0.0
  3
TXT
  4
EXTFONT.SHX
  0
ENDTAB
  0
TABLE
  2
VIEW
 70
     0
  0
ENDTAB
  0
TABLE
  2
UCS
 70
     0
  0
ENDTAB
  0
TABLE
  2
APPID
 70
     1
  0
APPID
  2
ACAD
 70
     0
  0
ENDTAB
  0
TABLE
  2
DIMSTYLE
 70
     1
  0
DIMSTYLE
  2
STANDARD
 70
     0
  3

  4

  5

  6

  7

 40
1.0
 41
0.18
 42
0.0625
 43
0.38
 44
0.18
 45
0.0
 46
0.0
 47
0.0
 48
0.0
140
0.18
141
0.09
142
0.0
143
25.399999999999999
144
1.0
145
0.0
146
1.0
147
0.09
 71
     0
 72
     0
 73
     1
 74
     1
 75
     0
 76
     0
 77
     0
 78
     0
170
     0
171
     2
172
     0
173
     0
174
     0
175
     0
176
     0
177
     0
178
     0
  0
ENDTAB
  0
ENDSEC
  0
SECTION
  2
BLOCKS
  0
BLOCK
  8
0
  2
$MODEL_SPACE
 70
     0
 10
0.0
 20
0.0
 30
0.0
  3
$MODEL_SPACE
  1

  0
ENDBLK
  5
1A
  8
0
  0
BLOCK
 67
     1
  8
0
  2
$PAPER_SPACE
 70
     0
 10
0.0
 20
0.0
 30
0.0
  3
$PAPER_SPACE
  1

  0
ENDBLK
  5
17
 67
     1
  8
0
  0
ENDSEC
  0
SECTION
  2
ENTITIES
  0
TEXT
  5
22
  8
0
 62
     7
 10
91.617369999999994
 20
211.29499999999999
 30
0.0
 40
3.0923400000000001
  1
%%c41
 41
0.5
 72
     2
 11
95.225099999999998
 21
211.29499999999999
 31
0.0
  0
TEXT
  5
23
  8
0
 62
     7
 10
154.4079999999999
 20
174.45344
 30
0.0
 40
3.0923400000000001
  1
264
 50
90.0
 41
0.5
 72
     1
 11
154.4079999999999
 21
176.51499999999999
 31
0.0
  0
TEXT
  5
24
  8
0
 62
     7
 10
103.09699999999999
 20
179.0404399999999
 30
0.0
 40
3.0923400000000001
  1
288
 50
90.0
 41
0.5
 72
     1
 11
103.09699999999999
 21
181.102
 31
0.0
  0
TEXT
  5
25
  8
0
 62
     7
 10
96.351299999999995
 20
99.581745000000012
 30
0.0
 40
3.0923400000000001
  1
20
 50
90.0
 41
0.5
 72
     2
 11
96.351299999999995
 21
101.901
 31
0.0
  0
TEXT
  5
26
  8
0
 62
     7
 10
103.383
 20
83.960934999999992
 30
0.0
 40
3.0923400000000001
  1
122
 50
90.0
 41
0.5
 72
     1
 11
103.383
 21
85.764799999999994
 31
0.0
  0
TEXT
  5
27
  8
0
 62
     7
 10
97.527500000000003
 20
158.55237249999999
 30
0.0
 40
3.0923400000000001
  1
30
 50
90.0
 41
0.5
 72
     1
 11
97.527500000000003
 21
159.71199999999999
 31
0.0
  0
TEXT
  5
28
  8
0
 62
     7
 10
97.527500000000003
 20
201.53337250000001
 30
0.0
 40
3.0923400000000001
  1
30
 50
90.0
 41
0.5
 72
     1
 11
97.527500000000003
 21
202.6929999999999
 31
0.0
  0
TEXT
  5
29
  8
0
 62
     7
 10
97.5364
 20
179.0404399999999
 30
0.0
 40
3.0923400000000001
  1
228
 50
90.0
 41
0.5
 72
     1
 11
97.5364
 21
181.102
 31
0.0
  0
TEXT
  5
2A
  8
0
 62
     7
 10
56.809440000000002
 20
138.39400000000001
 30
0.0
 40
3.0923400000000001
  1
362
 41
0.5
 72
     1
 11
58.871000000000002
 21
138.39400000000001
 31
0.0
  0
TEXT
  5
2B
  8
0
 62
     7
 10
30.148072500000001
 20
145.3239999999999
 30
0.0
 40
3.0923400000000001
  1
30
 41
0.5
 72
     1
 11
31.307700000000001
 21
145.3239999999999
 31
0.0
  0
TEXT
  5
2C
  8
0
 62
     7
 10
134.64876000000001
 20
136.209
 30
0.0
 40
3.0923400000000001
  1
カウンター切込寸法
 41
0.5
 72
     1
 11
142.89500000000001
 21
136.209
 31
0.0
  0
TEXT
  5
2D
  8
0
 62
     7
 10
126.608079
 20
167.19200000000001
 30
0.0
 40
3.0923400000000001
  1
R10以下
 41
0.5
 72
     2
 11
133.77199999999999
 21
167.19200000000001
 31
0.0
  0
TEXT
  5
2E
  8
0
 62
     7
 10
126.608079
 20
196.45400000000001
 30
0.0
 40
3.0923400000000001
  1
R10以下
 41
0.5
 72
     2
 11
133.77199999999999
 21
196.45400000000001
 31
0.0
  0
TEXT
  5
2F
  8
0
 62
     7
 10
140.83344
 20
145.3239999999999
 30
0.0
 40
3.0923400000000001
  1
336
 41
0.5
 72
     1
 11
142.89500000000001
 21
145.3239999999999
 31
0.0
  0
TEXT
  5
30
  8
0
 62
     7
 10
85.472372500000006
 20
145.3239999999999
 30
0.0
 40
3.0923400000000001
  1
30
 41
0.5
 72
     1
 11
86.632000000000005
 21
145.3239999999999
 31
0.0
  0
TEXT
  5
31
  8
0
 62
     7
 10
56.938287500000001
 20
145.3239999999999
 30
0.0
 40
3.0923400000000001
  1
302
 41
0.5
 72
     1
 11
58.871000000000002
 21
145.3239999999999
 31
0.0
  0
LINE
  5
32
  8
0
 62
     7
 10
133.87100000000001
 20
166.34200000000001
 30
0.0
 11
121.785
 21
166.34200000000001
 31
0.0
  0
LINE
  5
33
  8
0
 62
     7
 10
114.962
 20
159.51900000000001
 30
0.0
 11
121.785
 21
166.34200000000001
 31
0.0
  0
LINE
  5
34
  8
0
 62
     7
 10
116.94499999999989
 20
160.6629999999999
 30
0.0
 11
114.962
 21
159.51900000000001
 31
0.0
  0
LINE
  5
35
  8
0
 62
     7
 10
114.962
 20
159.51900000000001
 30
0.0
 11
116.10599999999999
 21
161.501
 31
0.0
  0
LINE
  5
36
  8
0
 62
     7
 10
116.10599999999999
 20
161.501
 30
0.0
 11
116.94499999999989
 21
160.6629999999999
 31
0.0
  0
LINE
  5
37
  8
0
 62
     7
 10
133.87100000000001
 20
195.52799999999991
 30
0.0
 11
121.785
 21
195.52799999999991
 31
0.0
  0
LINE
  5
38
  8
0
 62
     7
 10
170.56200000000001
 20
144.53100000000001
 30
0.0
 11
114.56100000000001
 21
144.53100000000001
 31
0.0
  0
ARC
  5
39
  8
0
 62
     7
 10
168.89497900000001
 20
160.6013759999999
 30
0.0
 40
1.6665759999999989
 50
269.99409800000001
 51
359.99406800000003
  0
ARC
  5
3A
  8
0
 62
     7
 10
116.291703
 20
160.66533000000001
 30
0.0
 40
1.7317180000000001
 50
182.12220300000001
 51
267.87782700000002
  0
ARC
  5
3B
  8
0
 62
     7
 10
168.894893
 20
201.26848699999999
 30
0.0
 40
1.666661999999999
 50
0.002971
 51
90.002941000000007
  0
ARC
  5
3C
  8
0
 62
     7
 10
116.22766300000001
 20
201.26866000000001
 30
0.0
 40
1.66649
 50
90.002961000000013
 51
180.002971
  0
LINE
  5
3D
  8
0
 62
     7
 10
114.56100000000001
 20
157.88200000000001
 30
0.0
 11
114.56100000000001
 21
143.39699999999999
 31
0.0
  0
LINE
  5
3E
  8
0
 62
     7
 10
170.56200000000001
 20
157.88200000000001
 30
0.0
 11
170.56200000000001
 21
143.39699999999999
 31
0.0
  0
LINE
  5
3F
  8
0
 62
     7
 10
114.56100000000001
 20
201.26900000000001
 30
0.0
 11
114.56100000000001
 21
160.60099999999991
 31
0.0
  0
LINE
  5
40
  8
0
 62
     7
 10
170.56200000000001
 20
201.26900000000001
 30
0.0
 11
170.56200000000001
 21
160.60099999999991
 31
0.0
  0
LINE
  5
41
  8
0
  6
AIGENLINE001
 62
     7
 10
142.89500000000001
 20
207.374
 30
0.0
 11
142.89500000000001
 21
154.49600000000001
 31
0.0
  0
LINE
  5
42
  8
0
 62
     7
 10
116.22799999999989
 20
158.935
 30
0.0
 11
168.89500000000001
 21
158.935
 31
0.0
  0
LINE
  5
43
  8
0
 62
     7
 10
116.22799999999989
 20
202.93499999999989
 30
0.0
 11
168.89500000000001
 21
202.93499999999989
 31
0.0
  0
LINE
  5
44
  8
0
  6
AIGENLINE001
 62
     7
 10
109.86
 20
181.102
 30
0.0
 11
175.04599999999991
 21
181.102
 31
0.0
  0
LINE
  5
45
  8
0
 62
     7
 10
148.76099999999991
 20
76.889200000000002
 30
0.0
 11
153.22799999999989
 21
77.343199999999996
 31
0.0
  0
LINE
  5
46
  8
0
 62
     7
 10
148.31200000000001
 20
76.3917
 30
0.0
 11
148.31200000000001
 21
75.843199999999996
 31
0.0
  0
ARC
  5
47
  8
0
 62
     7
 10
148.82983799999991
 20
76.375593000000009
 30
0.0
 40
0.518134
 50
97.612740000000002
 51
178.22018399999999
  0
LINE
  5
48
  8
0
 62
     7
 10
137.47799999999989
 20
76.3917
 30
0.0
 11
137.47799999999989
 21
75.843199999999996
 31
0.0
  0
LINE
  5
49
  8
0
 62
     7
 10
137.029
 20
76.889200000000002
 30
0.0
 11
132.56200000000001
 21
77.343199999999996
 31
0.0
  0
ARC
  5
4A
  8
0
 62
     7
 10
136.961017
 20
76.376012000000003
 30
0.0
 40
0.517658
 50
1.735106
 51
82.431930000000008
  0
LINE
  5
4B
  8
0
 62
     7
 10
64.399900000000002
 20
75.843199999999996
 30
0.0
 11
64.399900000000002
 21
76.374099999999999
 31
0.0
  0
LINE
  5
4C
  8
0
 62
     7
 10
64.868499999999997
 20
76.873000000000005
 30
0.0
 11
72.316800000000001
 21
77.343199999999996
 31
0.0
  0
ARC
  5
4D
  8
0
 62
     7
 10
64.917750999999996
 20
76.357213000000002
 30
0.0
 40
0.5181060000000001
 50
95.459526000000011
 51
178.13045700000001
  0
LINE
  5
4E
  8
0
 62
     7
 10
53.566800000000001
 20
75.843199999999996
 30
0.0
 11
53.566800000000001
 21
76.374099999999999
 31
0.0
  0
LINE
  5
4F
  8
0
 62
     7
 10
53.098199999999999
 20
76.873000000000005
 30
0.0
 11
45.650199999999991
 21
77.343199999999996
 31
0.0
  0
ARC
  5
50
  8
0
 62
     7
 10
53.048793999999987
 20
76.357095000000001
 30
0.0
 40
0.518236
 50
1.882161999999999
 51
84.527815000000004
  0
ARC
  5
51
  8
0
 62
     7
 10
58.983938000000002
 20
181.101632
 30
0.0
 40
3.4167819999999991
 50
0.001454
 51
90.001424000000014
  0
ARC
  5
52
  8
0
 62
     7
 10
58.983938999999999
 20
181.10180399999999
 30
0.0
 40
3.416609999999999
 50
90.001443999999992
 51
180.001454
  0
ARC
  5
53
  8
0
 62
     7
 10
58.983938000000002
 20
181.101632
 30
0.0
 40
3.4166080000000001
 50
179.99852599999991
 51
269.9985759999999
  0
ARC
  5
54
  8
0
 62
     7
 10
58.983938000000002
 20
181.10180500000001
 30
0.0
 40
3.4167819999999991
 50
269.9985759999999
 51
359.99854599999992
  0
ARC
  5
55
  8
0
 62
     7
 10
58.983938000000002
 20
181.101631
 30
0.0
 40
5.6667879999999986
 50
0.000881
 51
90.000850999999983
  0
ARC
  5
56
  8
0
 62
     7
 10
58.983939999999997
 20
181.10180399999999
 30
0.0
 40
5.6666160000000003
 50
90.000871000000004
 51
180.00088099999991
  0
ARC
  5
57
  8
0
 62
     7
 10
58.983938000000002
 20
181.101631
 30
0.0
 40
5.666614
 50
179.99909899999989
 51
269.99914899999999
  0
ARC
  5
58
  8
0
 62
     7
 10
58.983938000000002
 20
181.10180600000001
 30
0.0
 40
5.6667879999999986
 50
269.99914899999999
 51
359.99911900000001
  0
LINE
  5
59
  8
0
 62
     7
 10
96.9435
 20
101.901
 30
0.0
 11
96.9435
 21
88.474400000000003
 31
0.0
  0
LINE
  5
5A
  8
0
 62
     7
 10
73.566199999999995
 20
75.843199999999996
 30
0.0
 11
105.42100000000001
 21
75.843199999999996
 31
0.0
  0
LINE
  5
5B
  8
0
 62
     7
 10
90.358699999999999
 20
92.843500000000006
 30
0.0
 11
98.193399999999997
 21
92.843500000000006
 31
0.0
  0
LINE
  5
5C
  8
0
 62
     7
 10
90.233999999999995
 20
96.177000000000007
 30
0.0
 11
105.42100000000001
 21
96.177000000000007
 31
0.0
  0
LINE
  5
5D
  8
0
 62
     7
 10
104.17100000000001
 20
96.177000000000007
 30
0.0
 11
104.17100000000001
 21
75.843199999999996
 31
0.0
  0
LINE
  5
5E
  8
0
 62
     7
 10
97.535700000000006
 20
90.632800000000003
 30
0.0
 11
96.9435
 21
92.843500000000006
 31
0.0
  0
LINE
  5
5F
  8
0
 62
     7
 10
96.9435
 20
92.843500000000006
 30
0.0
 11
96.351000000000013
 21
90.632800000000003
 31
0.0
  0
LINE
  5
60
  8
0
 62
     7
 10
96.351000000000013
 20
90.632800000000003
 30
0.0
 11
97.535700000000006
 21
90.632800000000003
 31
0.0
  0
LINE
  5
61
  8
0
 62
     7
 10
104.76299999999991
 20
93.966300000000004
 30
0.0
 11
104.17100000000001
 21
96.177000000000007
 31
0.0
  0
LINE
  5
62
  8
0
 62
     7
 10
104.17100000000001
 20
96.177000000000007
 30
0.0
 11
103.5779999999999
 21
93.966300000000004
 31
0.0
  0
LINE
  5
63
  8
0
 62
     7
 10
103.5779999999999
 20
93.966300000000004
 30
0.0
 11
104.76299999999991
 21
93.966300000000004
 31
0.0
  0
LINE
  5
64
  8
0
 62
     7
 10
96.351299999999995
 20
98.177200000000013
 30
0.0
 11
96.9435
 21
95.966499999999996
 31
0.0
  0
LINE
  5
65
  8
0
 62
     7
 10
96.9435
 20
95.966499999999996
 30
0.0
 11
97.535700000000006
 21
98.177200000000013
 31
0.0
  0
LINE
  5
66
  8
0
 62
     7
 10
97.535700000000006
 20
98.177200000000013
 30
0.0
 11
96.351299999999995
 21
98.177200000000013
 31
0.0
  0
LINE
  5
67
  8
0
 62
     7
 10
103.57899999999989
 20
78.054000000000002
 30
0.0
 11
104.17100000000001
 21
75.843199999999996
 31
0.0
  0
LINE
  5
68
  8
0
 62
     7
 10
104.17100000000001
 20
75.843199999999996
 30
0.0
 11
104.76299999999991
 21
78.054000000000002
 31
0.0
  0
LINE
  5
69
  8
0
 62
     7
 10
104.76299999999991
 20
78.054000000000002
 30
0.0
 11
103.57899999999989
 21
78.054000000000002
 31
0.0
  0
LINE
  5
6A
  8
0
 62
     7
 10
54.586500000000001
 20
177.54099999999991
 30
0.0
 11
56.568100000000001
 21
178.68599999999989
 31
0.0
  0
LINE
  5
6B
  8
0
 62
     7
 10
56.568100000000001
 20
178.68599999999989
 30
0.0
 11
55.423999999999999
 21
176.70400000000001
 31
0.0
  0
LINE
  5
6C
  8
0
 62
     7
 10
55.423999999999999
 20
176.70400000000001
 30
0.0
 11
54.586500000000001
 21
177.54099999999991
 31
0.0
  0
LINE
  5
6D
  8
0
 62
     7
 10
63.382100000000001
 20
184.66200000000001
 30
0.0
 11
61.400100000000002
 21
183.518
 31
0.0
  0
LINE
  5
6E
  8
0
 62
     7
 10
61.400100000000002
 20
183.518
 30
0.0
 11
62.544199999999989
 21
185.5
 31
0.0
  0
LINE
  5
6F
  8
0
 62
     7
 10
62.544199999999989
 20
185.5
 30
0.0
 11
63.382100000000001
 21
184.66200000000001
 31
0.0
  0
LINE
  5
70
  8
0
 62
     7
 10
88.176599999999993
 20
210.29400000000001
 30
0.0
 11
51.884300000000003
 21
174.00200000000001
 31
0.0
  0
LINE
  5
71
  8
0
 62
     7
 10
28.815999999999999
 20
156.18499999999989
 30
0.0
 11
28.815999999999999
 21
136.328
 31
0.0
  0
LINE
  5
72
  8
0
 62
     7
 10
33.816200000000002
 20
161.18600000000001
 30
0.0
 11
33.816200000000002
 21
143.28100000000001
 31
0.0
  0
LINE
  5
73
  8
0
 62
     7
 10
84.150800000000004
 20
161.18600000000001
 30
0.0
 11
84.150800000000004
 21
143.28100000000001
 31
0.0
  0
LINE
  5
74
  8
0
 62
     7
 10
93.726699999999994
 20
144.53100000000001
 30
0.0
 11
24.540600000000001
 21
144.53100000000001
 31
0.0
  0
LINE
  5
75
  8
0
 62
     7
 10
89.150299999999987
 20
137.578
 30
0.0
 11
28.815999999999999
 21
137.578
 31
0.0
  0
LINE
  5
76
  8
0
 62
     7
 10
89.150299999999987
 20
156.18499999999989
 30
0.0
 11
89.150299999999987
 21
136.328
 31
0.0
  0
LINE
  5
77
  8
0
 62
     7
 10
31.026399999999999
 20
138.1699999999999
 30
0.0
 11
28.815999999999999
 21
137.578
 31
0.0
  0
LINE
  5
78
  8
0
 62
     7
 10
28.815999999999999
 20
137.578
 30
0.0
 11
31.026399999999999
 21
136.9859999999999
 31
0.0
  0
LINE
  5
79
  8
0
 62
     7
 10
31.026399999999999
 20
136.9859999999999
 30
0.0
 11
31.026399999999999
 21
138.1699999999999
 31
0.0
  0
LINE
  5
7A
  8
0
 62
     7
 10
36.026600000000002
 20
145.124
 30
0.0
 11
33.816200000000002
 21
144.53100000000001
 31
0.0
  0
LINE
  5
7B
  8
0
 62
     7
 10
33.816200000000002
 20
144.53100000000001
 30
0.0
 11
36.026600000000002
 21
143.93899999999991
 31
0.0
  0
LINE
  5
7C
  8
0
 62
     7
 10
36.026600000000002
 20
143.93899999999991
 30
0.0
 11
36.026600000000002
 21
145.124
 31
0.0
  0
LINE
  5
7D
  8
0
 62
     7
 10
116.77200000000001
 20
145.124
 30
0.0
 11
114.56100000000001
 21
144.53100000000001
 31
0.0
  0
LINE
  5
7E
  8
0
 62
     7
 10
114.56100000000001
 20
144.53100000000001
 30
0.0
 11
116.77200000000001
 21
143.93899999999991
 31
0.0
  0
LINE
  5
7F
  8
0
 62
     7
 10
116.77200000000001
 20
143.93899999999991
 30
0.0
 11
116.77200000000001
 21
145.124
 31
0.0
  0
LINE
  5
80
  8
0
 62
     7
 10
168.351
 20
143.93899999999991
 30
0.0
 11
170.56200000000001
 21
144.53100000000001
 31
0.0
  0
LINE
  5
81
  8
0
 62
     7
 10
170.56200000000001
 20
144.53100000000001
 30
0.0
 11
168.351
 21
145.124
 31
0.0
  0
LINE
  5
82
  8
0
 62
     7
 10
168.351
 20
145.124
 30
0.0
 11
168.351
 21
143.93899999999991
 31
0.0
  0
LINE
  5
83
  8
0
 62
     7
 10
91.360699999999994
 20
145.124
 30
0.0
 11
89.150299999999987
 21
144.53100000000001
 31
0.0
  0
LINE
  5
84
  8
0
 62
     7
 10
89.150299999999987
 20
144.53100000000001
 30
0.0
 11
91.360699999999994
 21
143.93899999999991
 31
0.0
  0
LINE
  5
85
  8
0
 62
     7
 10
91.360699999999994
 20
143.93899999999991
 30
0.0
 11
91.360699999999994
 21
145.124
 31
0.0
  0
LINE
  5
86
  8
0
 62
     7
 10
81.939999999999998
 20
143.93899999999991
 30
0.0
 11
84.150800000000004
 21
144.53100000000001
 31
0.0
  0
LINE
  5
87
  8
0
 62
     7
 10
84.150800000000004
 20
144.53100000000001
 30
0.0
 11
81.939999999999998
 21
145.124
 31
0.0
  0
LINE
  5
88
  8
0
 62
     7
 10
81.939999999999998
 20
145.124
 30
0.0
 11
81.939999999999998
 21
143.93899999999991
 31
0.0
  0
LINE
  5
89
  8
0
 62
     7
 10
86.939599999999999
 20
136.9859999999999
 30
0.0
 11
89.150299999999987
 21
137.578
 31
0.0
  0
LINE
  5
8A
  8
0
 62
     7
 10
89.150299999999987
 20
137.578
 30
0.0
 11
86.939599999999999
 21
138.17099999999991
 31
0.0
  0
LINE
  5
8B
  8
0
 62
     7
 10
86.939599999999999
 20
138.17099999999991
 30
0.0
 11
86.939599999999999
 21
136.9859999999999
 31
0.0
  0
LINE
  5
8C
  8
0
 62
     7
 10
26.6053
 20
143.93899999999991
 30
0.0
 11
28.815999999999999
 21
144.53100000000001
 31
0.0
  0
LINE
  5
8D
  8
0
 62
     7
 10
28.815999999999999
 20
144.53100000000001
 30
0.0
 11
26.6053
 21
145.124
 31
0.0
  0
LINE
  5
8E
  8
0
 62
     7
 10
26.6053
 20
145.124
 30
0.0
 11
26.6053
 21
143.93899999999991
 31
0.0
  0
LINE
  5
8F
  8
0
 62
     7
 10
90.066400000000002
 20
205.102
 30
0.0
 11
105.0
 21
205.102
 31
0.0
  0
LINE
  5
90
  8
0
 62
     7
 10
84.900599999999983
 20
200.102
 30
0.0
 11
99.451899999999995
 21
200.102
 31
0.0
  0
LINE
  5
91
  8
0
 62
     7
 10
98.120000000000005
 20
209.56999999999991
 30
0.0
 11
98.120000000000005
 21
152.577
 31
0.0
  0
LINE
  5
92
  8
0
 62
     7
 10
85.066299999999984
 20
162.102
 30
0.0
 11
99.617599999999996
 21
162.102
 31
0.0
  0
LINE
  5
93
  8
0
 62
     7
 10
90.066400000000002
 20
157.102
 30
0.0
 11
105.0
 21
157.102
 31
0.0
  0
LINE
  5
94
  8
0
 62
     7
 10
114.962
 20
202.35099999999991
 30
0.0
 11
121.785
 21
195.52799999999991
 31
0.0
  0
LINE
  5
95
  8
0
 62
     7
 10
116.94499999999989
 20
201.20699999999999
 30
0.0
 11
114.962
 21
202.35099999999991
 31
0.0
  0
LINE
  5
96
  8
0
 62
     7
 10
114.962
 20
202.35099999999991
 30
0.0
 11
116.10599999999999
 21
200.369
 31
0.0
  0
LINE
  5
97
  8
0
 62
     7
 10
116.10599999999999
 20
200.369
 30
0.0
 11
116.94499999999989
 21
201.20699999999999
 31
0.0
  0
LINE
  5
98
  8
0
 62
     7
 10
155.06200000000001
 20
202.93499999999989
 30
0.0
 11
155.06200000000001
 21
158.935
 31
0.0
  0
LINE
  5
99
  8
0
 62
     7
 10
155.655
 20
200.72499999999991
 30
0.0
 11
155.06200000000001
 21
202.93499999999989
 31
0.0
  0
LINE
  5
9A
  8
0
 62
     7
 10
155.06200000000001
 20
202.93499999999989
 30
0.0
 11
154.46999999999991
 21
200.72499999999991
 31
0.0
  0
LINE
  5
9B
  8
0
 62
     7
 10
154.46999999999991
 20
200.72499999999991
 30
0.0
 11
155.655
 21
200.72499999999991
 31
0.0
  0
LINE
  5
9C
  8
0
 62
     7
 10
154.46999999999991
 20
161.14500000000001
 30
0.0
 11
155.06200000000001
 21
158.935
 31
0.0
  0
LINE
  5
9D
  8
0
 62
     7
 10
155.06200000000001
 20
158.935
 30
0.0
 11
155.655
 21
161.14500000000001
 31
0.0
  0
LINE
  5
9E
  8
0
 62
     7
 10
155.655
 20
161.14500000000001
 30
0.0
 11
154.46999999999991
 21
161.14500000000001
 31
0.0
  0
LINE
  5
9F
  8
0
 62
     7
 10
103.75
 20
205.102
 30
0.0
 11
103.75
 21
157.102
 31
0.0
  0
LINE
  5
A0
  8
0
 62
     7
 10
88.176599999999993
 20
210.29400000000001
 30
0.0
 11
95.525400000000005
 21
210.29400000000001
 31
0.0
  0
LINE
  5
A1
  8
0
 62
     7
 10
104.3429999999999
 20
202.89199999999991
 30
0.0
 11
103.75
 21
205.102
 31
0.0
  0
LINE
  5
A2
  8
0
 62
     7
 10
103.75
 20
205.102
 30
0.0
 11
103.1579999999999
 21
202.89199999999991
 31
0.0
  0
LINE
  5
A3
  8
0
 62
     7
 10
103.1579999999999
 20
202.89199999999991
 30
0.0
 11
104.3429999999999
 21
202.89199999999991
 31
0.0
  0
LINE
  5
A4
  8
0
 62
     7
 10
98.712599999999995
 20
154.892
 30
0.0
 11
98.120000000000005
 21
157.102
 31
0.0
  0
LINE
  5
A5
  8
0
 62
     7
 10
98.120000000000005
 20
157.102
 30
0.0
 11
97.527500000000003
 21
154.892
 31
0.0
  0
LINE
  5
A6
  8
0
 62
     7
 10
97.527500000000003
 20
154.892
 30
0.0
 11
98.712599999999995
 21
154.892
 31
0.0
  0
LINE
  5
A7
  8
0
 62
     7
 10
98.712599999999995
 20
197.892
 30
0.0
 11
98.120000000000005
 21
200.102
 31
0.0
  0
LINE
  5
A8
  8
0
 62
     7
 10
98.120000000000005
 20
200.102
 30
0.0
 11
97.527500000000003
 21
197.892
 31
0.0
  0
LINE
  5
A9
  8
0
 62
     7
 10
97.527500000000003
 20
197.892
 30
0.0
 11
98.712599999999995
 21
197.892
 31
0.0
  0
LINE
  5
AA
  8
0
 62
     7
 10
103.15900000000001
 20
159.3129999999999
 30
0.0
 11
103.75
 21
157.102
 31
0.0
  0
LINE
  5
AB
  8
0
 62
     7
 10
103.75
 20
157.102
 30
0.0
 11
104.3429999999999
 21
159.3129999999999
 31
0.0
  0
LINE
  5
AC
  8
0
 62
     7
 10
104.3429999999999
 20
159.3129999999999
 30
0.0
 11
103.15900000000001
 21
159.3129999999999
 31
0.0
  0
LINE
  5
AD
  8
0
 62
     7
 10
97.528199999999984
 20
207.3129999999999
 30
0.0
 11
98.120000000000005
 21
205.102
 31
0.0
  0
LINE
  5
AE
  8
0
 62
     7
 10
98.120000000000005
 20
205.102
 30
0.0
 11
98.712599999999995
 21
207.3129999999999
 31
0.0
  0
LINE
  5
AF
  8
0
 62
     7
 10
98.712599999999995
 20
207.3129999999999
 30
0.0
 11
97.528199999999984
 21
207.3129999999999
 31
0.0
  0
LINE
  5
B0
  8
0
 62
     7
 10
97.528199999999984
 20
164.31299999999999
 30
0.0
 11
98.120000000000005
 21
162.102
 31
0.0
  0
LINE
  5
B1
  8
0
 62
     7
 10
98.120000000000005
 20
162.102
 30
0.0
 11
98.712599999999995
 21
164.31299999999999
 31
0.0
  0
LINE
  5
B2
  8
0
 62
     7
 10
98.712599999999995
 20
164.31299999999999
 30
0.0
 11
97.528199999999984
 21
164.31299999999999
 31
0.0
  0
LINE
  5
B3
  8
0
 62
     7
 10
162.89500000000001
 20
91.176100000000005
 30
0.0
 11
153.22799999999989
 21
77.343199999999996
 31
0.0
  0
LINE
  5
B4
  8
0
 62
     7
 10
151.17699999999999
 20
77.343199999999996
 30
0.0
 11
142.89500000000001
 21
77.343199999999996
 31
0.0
  0
LINE
  5
B5
  8
0
 62
     7
 10
166.72799999999989
 20
96.177000000000007
 30
0.0
 11
142.89500000000001
 21
96.177000000000007
 31
0.0
  0
LINE
  5
B6
  8
0
 62
     7
 10
148.31200000000001
 20
75.843199999999996
 30
0.0
 11
142.89500000000001
 21
75.843199999999996
 31
0.0
  0
LINE
  5
B7
  8
0
 62
     7
 10
147.47799999999989
 20
76.843000000000004
 30
0.0
 11
142.89500000000001
 21
76.843000000000004
 31
0.0
  0
LINE
  5
B8
  8
0
 62
     7
 10
163.56099999999989
 20
92.843500000000006
 30
0.0
 11
162.89500000000001
 21
91.176100000000005
 31
0.0
  0
LINE
  5
B9
  8
0
 62
     7
 10
162.06100000000001
 20
91.176100000000005
 30
0.0
 11
142.89500000000001
 21
91.176100000000005
 31
0.0
  0
LINE
  5
BA
  8
0
 62
     7
 10
166.89500000000001
 20
92.843500000000006
 30
0.0
 11
166.72799999999989
 21
96.177000000000007
 31
0.0
  0
LINE
  5
BB
  8
0
 62
     7
 10
165.56099999999989
 20
92.843500000000006
 30
0.0
 11
165.39500000000001
 21
96.177000000000007
 31
0.0
  0
LINE
  5
BC
  8
0
 62
     7
 10
166.89500000000001
 20
92.843500000000006
 30
0.0
 11
142.89500000000001
 21
92.843500000000006
 31
0.0
  0
LINE
  5
BD
  8
0
 62
     7
 10
122.8949999999999
 20
91.176100000000005
 30
0.0
 11
132.56100000000001
 21
77.343199999999996
 31
0.0
  0
LINE
  5
BE
  8
0
 62
     7
 10
134.613
 20
77.343199999999996
 30
0.0
 11
142.89500000000001
 21
77.343199999999996
 31
0.0
  0
LINE
  5
BF
  8
0
 62
     7
 10
69.896999999999991
 20
77.343199999999996
 30
0.0
 11
58.98279999999999
 21
77.343199999999996
 31
0.0
  0
LINE
  5
C0
  8
0
 62
     7
 10
72.316100000000006
 20
77.343199999999996
 30
0.0
 11
85.150199999999984
 21
91.176100000000005
 31
0.0
  0
LINE
  5
C1
  8
0
 62
     7
 10
64.399900000000002
 20
75.843199999999996
 30
0.0
 11
58.98279999999999
 21
75.843199999999996
 31
0.0
  0
LINE
  5
C2
  8
0
 62
     7
 10
64.144999999999996
 20
76.843000000000004
 30
0.0
 11
58.98279999999999
 21
76.843000000000004
 31
0.0
  0
LINE
  5
C3
  8
0
 62
     7
 10
85.816100000000006
 20
92.843500000000006
 30
0.0
 11
85.150199999999984
 21
91.176100000000005
 31
0.0
  0
LINE
  5
C4
  8
0
 62
     7
 10
84.316500000000005
 20
91.176100000000005
 30
0.0
 11
58.98279999999999
 21
91.176100000000005
 31
0.0
  0
LINE
  5
C5
  8
0
 62
     7
 10
89.150299999999987
 20
92.843500000000006
 30
0.0
 11
88.983900000000006
 21
96.177000000000007
 31
0.0
  0
LINE
  5
C6
  8
0
 62
     7
 10
87.816400000000016
 20
92.843500000000006
 30
0.0
 11
87.650000000000006
 21
96.177000000000007
 31
0.0
  0
LINE
  5
C7
  8
0
 62
     7
 10
89.150299999999987
 20
92.843500000000006
 30
0.0
 11
58.98279999999999
 21
92.843500000000006
 31
0.0
  0
LINE
  5
C8
  8
0
 62
     7
 10
88.983900000000006
 20
96.177000000000007
 30
0.0
 11
58.98279999999999
 21
96.177000000000007
 31
0.0
  0
LINE
  5
C9
  8
0
 62
     7
 10
48.068699999999993
 20
77.343199999999996
 30
0.0
 11
58.98279999999999
 21
77.343199999999996
 31
0.0
  0
LINE
  5
CA
  8
0
 62
     7
 10
119.06100000000001
 20
96.177000000000007
 30
0.0
 11
142.89500000000001
 21
96.177000000000007
 31
0.0
  0
LINE
  5
CB
  8
0
 62
     7
 10
137.47799999999989
 20
75.843199999999996
 30
0.0
 11
142.89500000000001
 21
75.843199999999996
 31
0.0
  0
LINE
  5
CC
  8
0
 62
     7
 10
138.31100000000001
 20
76.843000000000004
 30
0.0
 11
142.89500000000001
 21
76.843000000000004
 31
0.0
  0
LINE
  5
CD
  8
0
 62
     7
 10
122.22799999999999
 20
92.843500000000006
 30
0.0
 11
122.8949999999999
 21
91.176100000000005
 31
0.0
  0
LINE
  5
CE
  8
0
 62
     7
 10
123.72799999999989
 20
91.176100000000005
 30
0.0
 11
142.89500000000001
 21
91.176100000000005
 31
0.0
  0
LINE
  5
CF
  8
0
 62
     7
 10
118.89399999999991
 20
92.843500000000006
 30
0.0
 11
119.06100000000001
 21
96.177000000000007
 31
0.0
  0
LINE
  5
D0
  8
0
 62
     7
 10
120.22799999999999
 20
92.843500000000006
 30
0.0
 11
120.39400000000001
 21
96.177000000000007
 31
0.0
  0
LINE
  5
D1
  8
0
 62
     7
 10
118.89399999999991
 20
92.843500000000006
 30
0.0
 11
142.89500000000001
 21
92.843500000000006
 31
0.0
  0
LINE
  5
D2
  8
0
  6
AIGENLINE001
 62
     7
 10
142.89500000000001
 20
100.38
 30
0.0
 11
142.89500000000001
 21
70.926000000000002
 31
0.0
  0
LINE
  5
D3
  8
0
 62
     7
 10
45.649900000000002
 20
77.343199999999996
 30
0.0
 11
32.816499999999991
 21
91.176100000000005
 31
0.0
  0
LINE
  5
D4
  8
0
 62
     7
 10
53.566800000000001
 20
75.843199999999996
 30
0.0
 11
58.98279999999999
 21
75.843199999999996
 31
0.0
  0
LINE
  5
D5
  8
0
 62
     7
 10
53.8217
 20
76.843000000000004
 30
0.0
 11
58.98279999999999
 21
76.843000000000004
 31
0.0
  0
LINE
  5
D6
  8
0
 62
     7
 10
32.149500000000003
 20
92.843500000000006
 30
0.0
 11
32.816499999999991
 21
91.176100000000005
 31
0.0
  0
LINE
  5
D7
  8
0
 62
     7
 10
33.650199999999991
 20
91.176100000000005
 30
0.0
 11
58.98279999999999
 21
91.176100000000005
 31
0.0
  0
LINE
  5
D8
  8
0
 62
     7
 10
28.815999999999999
 20
92.843500000000006
 30
0.0
 11
28.982700000000001
 21
96.177000000000007
 31
0.0
  0
LINE
  5
D9
  8
0
 62
     7
 10
30.1496
 20
92.843500000000006
 30
0.0
 11
30.316700000000001
 21
96.177000000000007
 31
0.0
  0
LINE
  5
DA
  8
0
 62
     7
 10
28.815999999999999
 20
92.843500000000006
 30
0.0
 11
58.98279999999999
 21
92.843500000000006
 31
0.0
  0
LINE
  5
DB
  8
0
 62
     7
 10
28.982700000000001
 20
96.177000000000007
 30
0.0
 11
58.98279999999999
 21
96.177000000000007
 31
0.0
  0
LINE
  5
DC
  8
0
  6
AIGENLINE001
 62
     7
 10
58.98279999999999
 20
100.38
 30
0.0
 11
58.98279999999999
 21
68.986099999999993
 31
0.0
  0
LINE
  5
DD
  8
0
 62
     7
 10
70.650400000000005
 20
172.352
 30
0.0
 11
83.296700000000001
 21
162.602
 31
0.0
  0
LINE
  5
DE
  8
0
 62
     7
 10
70.650400000000005
 20
172.352
 30
0.0
 11
83.650499999999994
 21
162.95500000000001
 31
0.0
  0
LINE
  5
DF
  8
0
 62
     7
 10
70.650400000000005
 20
189.85199999999989
 30
0.0
 11
83.296700000000001
 21
199.602
 31
0.0
  0
LINE
  5
E0
  8
0
 62
     7
 10
70.650400000000005
 20
189.85199999999989
 30
0.0
 11
83.650499999999994
 21
199.249
 31
0.0
  0
LINE
  5
E1
  8
0
 62
     7
 10
47.316299999999998
 20
172.352
 30
0.0
 11
34.669899999999998
 21
162.602
 31
0.0
  0
LINE
  5
E2
  8
0
 62
     7
 10
47.316299999999998
 20
172.352
 30
0.0
 11
34.316499999999991
 21
162.95500000000001
 31
0.0
  0
LINE
  5
E3
  8
0
 62
     7
 10
59.233299999999993
 20
162.602
 30
0.0
 11
58.98279999999999
 21
172.352
 31
0.0
  0
LINE
  5
E4
  8
0
 62
     7
 10
58.732999999999997
 20
162.602
 30
0.0
 11
58.98279999999999
 21
172.352
 31
0.0
  0
LINE
  5
E5
  8
0
 62
     7
 10
70.650400000000005
 20
178.185
 30
0.0
 11
83.650499999999994
 21
174.93499999999989
 31
0.0
  0
LINE
  5
E6
  8
0
 62
     7
 10
70.650400000000005
 20
175.26900000000001
 30
0.0
 11
83.650499999999994
 21
168.768
 31
0.0
  0
LINE
  5
E7
  8
0
 62
     7
 10
70.650400000000005
 20
175.26900000000001
 30
0.0
 11
83.650499999999994
 21
168.26900000000001
 31
0.0
  0
LINE
  5
E8
  8
0
 62
     7
 10
70.650400000000005
 20
178.185
 30
0.0
 11
83.650499999999994
 21
174.435
 31
0.0
  0
LINE
  5
E9
  8
0
 62
     7
 10
70.650400000000005
 20
181.102
 30
0.0
 11
83.650499999999994
 21
180.852
 31
0.0
  0
LINE
  5
EA
  8
0
 62
     7
 10
70.650400000000005
 20
181.102
 30
0.0
 11
83.650499999999994
 21
180.852
 31
0.0
  0
LINE
  5
EB
  8
0
 62
     7
 10
65.149600000000007
 20
162.602
 30
0.0
 11
60.81669999999999
 21
172.352
 31
0.0
  0
LINE
  5
EC
  8
0
 62
     7
 10
71.316299999999998
 20
162.602
 30
0.0
 11
62.649500000000003
 21
172.352
 31
0.0
  0
LINE
  5
ED
  8
0
 62
     7
 10
77.483099999999993
 20
162.602
 30
0.0
 11
65.566400000000002
 21
172.352
 31
0.0
  0
LINE
  5
EE
  8
0
 62
     7
 10
65.649799999999999
 20
162.602
 30
0.0
 11
60.81669999999999
 21
172.352
 31
0.0
  0
LINE
  5
EF
  8
0
 62
     7
 10
71.816599999999994
 20
162.602
 30
0.0
 11
62.649500000000003
 21
172.352
 31
0.0
  0
LINE
  5
F0
  8
0
 62
     7
 10
77.983999999999995
 20
162.602
 30
0.0
 11
65.566400000000002
 21
172.352
 31
0.0
  0
LINE
  5
F1
  8
0
 62
     7
 10
70.650400000000005
 20
184.01899999999989
 30
0.0
 11
83.650499999999994
 21
187.26900000000001
 31
0.0
  0
LINE
  5
F2
  8
0
 62
     7
 10
70.650400000000005
 20
186.935
 30
0.0
 11
83.650499999999994
 21
193.435
 31
0.0
  0
LINE
  5
F3
  8
0
 62
     7
 10
70.650400000000005
 20
186.935
 30
0.0
 11
83.650499999999994
 21
193.93599999999989
 31
0.0
  0
LINE
  5
F4
  8
0
 62
     7
 10
70.650400000000005
 20
184.01899999999989
 30
0.0
 11
83.650499999999994
 21
187.76900000000001
 31
0.0
  0
LINE
  5
F5
  8
0
 62
     7
 10
70.650400000000005
 20
181.102
 30
0.0
 11
83.650499999999994
 21
181.352
 31
0.0
  0
LINE
  5
F6
  8
0
 62
     7
 10
70.650400000000005
 20
181.102
 30
0.0
 11
83.650499999999994
 21
181.352
 31
0.0
  0
LINE
  5
F7
  8
0
 62
     7
 10
65.149600000000007
 20
199.602
 30
0.0
 11
60.81669999999999
 21
189.85199999999989
 31
0.0
  0
LINE
  5
F8
  8
0
 62
     7
 10
71.316299999999998
 20
199.602
 30
0.0
 11
62.649500000000003
 21
189.85199999999989
 31
0.0
  0
LINE
  5
F9
  8
0
 62
     7
 10
77.483099999999993
 20
199.602
 30
0.0
 11
65.566400000000002
 21
189.85199999999989
 31
0.0
  0
LINE
  5
FA
  8
0
 62
     7
 10
65.649799999999999
 20
199.602
 30
0.0
 11
60.81669999999999
 21
189.85199999999989
 31
0.0
  0
LINE
  5
FB
  8
0
 62
     7
 10
71.816599999999994
 20
199.602
 30
0.0
 11
62.649500000000003
 21
189.85199999999989
 31
0.0
  0
LINE
  5
FC
  8
0
 62
     7
 10
77.983999999999995
 20
199.602
 30
0.0
 11
65.566400000000002
 21
189.85199999999989
 31
0.0
  0
LINE
  5
FD
  8
0
 62
     7
 10
59.233299999999993
 20
199.602
 30
0.0
 11
58.98279999999999
 21
189.85199999999989
 31
0.0
  0
LINE
  5
FE
  8
0
 62
     7
 10
83.816299999999984
 20
162.102
 30
0.0
 11
58.98279999999999
 21
162.102
 31
0.0
  0
LINE
  5
FF
  8
0
 62
     7
 10
84.150800000000004
 20
162.43600000000001
 30
0.0
 11
83.816299999999984
 21
162.102
 31
0.0
  0
LINE
  5
100
  8
0
 62
     7
 10
84.150800000000004
 20
199.76900000000001
 30
0.0
 11
84.150800000000004
 21
162.43600000000001
 31
0.0
  0
LINE
  5
101
  8
0
 62
     7
 10
58.98279999999999
 20
200.102
 30
0.0
 11
83.816299999999984
 21
200.102
 31
0.0
  0
LINE
  5
102
  8
0
 62
     7
 10
83.816299999999984
 20
200.102
 30
0.0
 11
84.150800000000004
 21
199.76900000000001
 31
0.0
  0
LINE
  5
103
  8
0
 62
     7
 10
58.98279999999999
 20
199.602
 30
0.0
 11
83.296700000000001
 21
199.602
 31
0.0
  0
LINE
  5
104
  8
0
 62
     7
 10
83.296700000000001
 20
162.602
 30
0.0
 11
58.98279999999999
 21
162.602
 31
0.0
  0
LINE
  5
105
  8
0
 62
     7
 10
83.650499999999994
 20
199.249
 30
0.0
 11
83.650499999999994
 21
162.95500000000001
 31
0.0
  0
LINE
  5
106
  8
0
 62
     7
 10
58.98279999999999
 20
189.85199999999989
 30
0.0
 11
70.650400000000005
 21
189.85199999999989
 31
0.0
  0
LINE
  5
107
  8
0
 62
     7
 10
70.650400000000005
 20
172.352
 30
0.0
 11
58.98279999999999
 21
172.352
 31
0.0
  0
LINE
  5
108
  8
0
 62
     7
 10
70.650400000000005
 20
189.85199999999989
 30
0.0
 11
70.650400000000005
 21
172.352
 31
0.0
  0
LINE
  5
109
  8
0
 62
     7
 10
88.983900000000006
 20
203.602
 30
0.0
 11
87.650000000000006
 21
204.93599999999989
 31
0.0
  0
LINE
  5
10A
  8
0
 62
     7
 10
88.983900000000006
 20
158.60199999999989
 30
0.0
 11
87.650000000000006
 21
157.26900000000001
 31
0.0
  0
LINE
  5
10B
  8
0
 62
     7
 10
88.983900000000006
 20
203.602
 30
0.0
 11
88.983900000000006
 21
158.60199999999989
 31
0.0
  0
LINE
  5
10C
  8
0
 62
     7
 10
58.98279999999999
 20
204.93599999999989
 30
0.0
 11
87.650000000000006
 21
204.93599999999989
 31
0.0
  0
LINE
  5
10D
  8
0
 62
     7
 10
87.650000000000006
 20
157.26900000000001
 30
0.0
 11
58.98279999999999
 21
157.26900000000001
 31
0.0
  0
LINE
  5
10E
  8
0
 62
     7
 10
89.150299999999987
 20
203.76900000000001
 30
0.0
 11
87.816400000000016
 21
205.102
 31
0.0
  0
LINE
  5
10F
  8
0
 62
     7
 10
89.150299999999987
 20
158.435
 30
0.0
 11
87.816400000000016
 21
157.102
 31
0.0
  0
LINE
  5
110
  8
0
 62
     7
 10
58.98279999999999
 20
205.102
 30
0.0
 11
87.816400000000016
 21
205.102
 31
0.0
  0
LINE
  5
111
  8
0
 62
     7
 10
87.816400000000016
 20
157.102
 30
0.0
 11
58.98279999999999
 21
157.102
 31
0.0
  0
LINE
  5
112
  8
0
 62
     7
 10
89.150299999999987
 20
203.76900000000001
 30
0.0
 11
89.150299999999987
 21
158.435
 31
0.0
  0
LINE
  5
113
  8
0
 62
     7
 10
47.316299999999998
 20
178.185
 30
0.0
 11
34.316499999999991
 21
174.93499999999989
 31
0.0
  0
LINE
  5
114
  8
0
 62
     7
 10
47.316299999999998
 20
175.26900000000001
 30
0.0
 11
34.316499999999991
 21
168.768
 31
0.0
  0
LINE
  5
115
  8
0
 62
     7
 10
47.316299999999998
 20
175.26900000000001
 30
0.0
 11
34.316499999999991
 21
168.26900000000001
 31
0.0
  0
LINE
  5
116
  8
0
 62
     7
 10
47.316299999999998
 20
178.185
 30
0.0
 11
34.316499999999991
 21
174.435
 31
0.0
  0
LINE
  5
117
  8
0
 62
     7
 10
47.316299999999998
 20
181.102
 30
0.0
 11
34.316499999999991
 21
180.852
 31
0.0
  0
LINE
  5
118
  8
0
 62
     7
 10
47.316299999999998
 20
181.102
 30
0.0
 11
34.316499999999991
 21
180.852
 31
0.0
  0
LINE
  5
119
  8
0
 62
     7
 10
52.817100000000003
 20
162.602
 30
0.0
 11
57.149999999999991
 21
172.352
 31
0.0
  0
LINE
  5
11A
  8
0
 62
     7
 10
46.650300000000001
 20
162.602
 30
0.0
 11
55.316899999999997
 21
172.352
 31
0.0
  0
LINE
  5
11B
  8
0
 62
     7
 10
40.483199999999989
 20
162.602
 30
0.0
 11
52.40059999999999
 21
172.352
 31
0.0
  0
LINE
  5
11C
  8
0
 62
     7
 10
52.316899999999997
 20
162.602
 30
0.0
 11
57.149999999999991
 21
172.352
 31
0.0
  0
LINE
  5
11D
  8
0
 62
     7
 10
46.149799999999999
 20
162.602
 30
0.0
 11
55.316899999999997
 21
172.352
 31
0.0
  0
LINE
  5
11E
  8
0
 62
     7
 10
39.9833
 20
162.602
 30
0.0
 11
52.40059999999999
 21
172.352
 31
0.0
  0
LINE
  5
11F
  8
0
 62
     7
 10
47.316299999999998
 20
189.85199999999989
 30
0.0
 11
34.669899999999998
 21
199.602
 31
0.0
  0
LINE
  5
120
  8
0
 62
     7
 10
47.316299999999998
 20
189.85199999999989
 30
0.0
 11
34.316499999999991
 21
199.249
 31
0.0
  0
LINE
  5
121
  8
0
 62
     7
 10
47.316299999999998
 20
184.01899999999989
 30
0.0
 11
34.316499999999991
 21
187.26900000000001
 31
0.0
  0
LINE
  5
122
  8
0
 62
     7
 10
47.316299999999998
 20
186.935
 30
0.0
 11
34.316499999999991
 21
193.435
 31
0.0
  0
LINE
  5
123
  8
0
 62
     7
 10
47.316299999999998
 20
186.935
 30
0.0
 11
34.316499999999991
 21
193.93599999999989
 31
0.0
  0
LINE
  5
124
  8
0
 62
     7
 10
47.316299999999998
 20
184.01899999999989
 30
0.0
 11
34.316499999999991
 21
187.76900000000001
 31
0.0
  0
LINE
  5
125
  8
0
 62
     7
 10
47.316299999999998
 20
181.102
 30
0.0
 11
34.316499999999991
 21
181.352
 31
0.0
  0
LINE
  5
126
  8
0
 62
     7
 10
47.316299999999998
 20
181.102
 30
0.0
 11
34.316499999999991
 21
181.352
 31
0.0
  0
LINE
  5
127
  8
0
 62
     7
 10
52.817100000000003
 20
199.602
 30
0.0
 11
57.149999999999991
 21
189.85199999999989
 31
0.0
  0
LINE
  5
128
  8
0
 62
     7
 10
46.650300000000001
 20
199.602
 30
0.0
 11
55.316899999999997
 21
189.85199999999989
 31
0.0
  0
LINE
  5
129
  8
0
 62
     7
 10
40.483199999999989
 20
199.602
 30
0.0
 11
52.40059999999999
 21
189.85199999999989
 31
0.0
  0
LINE
  5
12A
  8
0
 62
     7
 10
52.316899999999997
 20
199.602
 30
0.0
 11
57.149999999999991
 21
189.85199999999989
 31
0.0
  0
LINE
  5
12B
  8
0
 62
     7
 10
46.149799999999999
 20
199.602
 30
0.0
 11
55.316899999999997
 21
189.85199999999989
 31
0.0
  0
LINE
  5
12C
  8
0
 62
     7
 10
39.9833
 20
199.602
 30
0.0
 11
52.40059999999999
 21
189.85199999999989
 31
0.0
  0
LINE
  5
12D
  8
0
 62
     7
 10
58.732999999999997
 20
199.602
 30
0.0
 11
58.98279999999999
 21
189.85199999999989
 31
0.0
  0
LINE
  5
12E
  8
0
 62
     7
 10
34.150100000000002
 20
162.102
 30
0.0
 11
58.98279999999999
 21
162.102
 31
0.0
  0
LINE
  5
12F
  8
0
 62
     7
 10
33.816200000000002
 20
162.43600000000001
 30
0.0
 11
34.150100000000002
 21
162.102
 31
0.0
  0
LINE
  5
130
  8
0
 62
     7
 10
33.816200000000002
 20
199.76900000000001
 30
0.0
 11
33.816200000000002
 21
162.43600000000001
 31
0.0
  0
LINE
  5
131
  8
0
 62
     7
 10
58.98279999999999
 20
200.102
 30
0.0
 11
34.150100000000002
 21
200.102
 31
0.0
  0
LINE
  5
132
  8
0
 62
     7
 10
34.150100000000002
 20
200.102
 30
0.0
 11
33.816200000000002
 21
199.76900000000001
 31
0.0
  0
LINE
  5
133
  8
0
 62
     7
 10
58.98279999999999
 20
199.602
 30
0.0
 11
34.669899999999998
 21
199.602
 31
0.0
  0
LINE
  5
134
  8
0
 62
     7
 10
34.669899999999998
 20
162.602
 30
0.0
 11
58.98279999999999
 21
162.602
 31
0.0
  0
LINE
  5
135
  8
0
 62
     7
 10
34.316499999999991
 20
199.249
 30
0.0
 11
34.316499999999991
 21
162.95500000000001
 31
0.0
  0
LINE
  5
136
  8
0
 62
     7
 10
58.98279999999999
 20
189.85199999999989
 30
0.0
 11
47.316299999999998
 21
189.85199999999989
 31
0.0
  0
LINE
  5
137
  8
0
 62
     7
 10
47.316299999999998
 20
172.352
 30
0.0
 11
58.98279999999999
 21
172.352
 31
0.0
  0
LINE
  5
138
  8
0
 62
     7
 10
47.316299999999998
 20
189.85199999999989
 30
0.0
 11
47.316299999999998
 21
172.352
 31
0.0
  0
LINE
  5
139
  8
0
  6
AIGENLINE001
 62
     7
 10
58.98279999999999
 20
209.45699999999999
 30
0.0
 11
58.98279999999999
 21
151.744
 31
0.0
  0
LINE
  5
13A
  8
0
  6
AIGENLINE001
 62
     7
 10
21.957100000000001
 20
181.102
 30
0.0
 11
92.923799999999986
 21
181.102
 31
0.0
  0
LINE
  5
13B
  8
0
 62
     7
 10
28.982700000000001
 20
203.602
 30
0.0
 11
30.316700000000001
 21
204.93599999999989
 31
0.0
  0
LINE
  5
13C
  8
0
 62
     7
 10
28.982700000000001
 20
158.60199999999989
 30
0.0
 11
30.316700000000001
 21
157.26900000000001
 31
0.0
  0
LINE
  5
13D
  8
0
 62
     7
 10
28.982700000000001
 20
203.602
 30
0.0
 11
28.982700000000001
 21
158.60199999999989
 31
0.0
  0
LINE
  5
13E
  8
0
 62
     7
 10
58.98279999999999
 20
204.93599999999989
 30
0.0
 11
30.316700000000001
 21
204.93599999999989
 31
0.0
  0
LINE
  5
13F
  8
0
 62
     7
 10
30.316700000000001
 20
157.26900000000001
 30
0.0
 11
58.98279999999999
 21
157.26900000000001
 31
0.0
  0
LINE
  5
140
  8
0
 62
     7
 10
28.815999999999999
 20
203.76900000000001
 30
0.0
 11
30.1496
 21
205.102
 31
0.0
  0
LINE
  5
141
  8
0
 62
     7
 10
28.815999999999999
 20
158.435
 30
0.0
 11
30.1496
 21
157.102
 31
0.0
  0
LINE
  5
142
  8
0
 62
     7
 10
58.98279999999999
 20
205.102
 30
0.0
 11
30.1496
 21
205.102
 31
0.0
  0
LINE
  5
143
  8
0
 62
     7
 10
30.1496
 20
157.102
 30
0.0
 11
58.98279999999999
 21
157.102
 31
0.0
  0
LINE
  5
144
  8
0
 62
     7
 10
28.815999999999999
 20
203.76900000000001
 30
0.0
 11
28.815999999999999
 21
158.435
 31
0.0
  0
LINE
  5
145
  8
_________2
 62
     7
 10
183.55099999999999
 20
-4.0910799999999998
 30
0.0
 11
17.049499999999998
 21
-4.0910799999999998
 31
0.0
  0
LINE
  5
146
  8
_________2
 62
     7
 10
17.049499999999998
 20
-4.0910799999999998
 30
0.0
 11
17.049499999999998
 21
258.911
 31
0.0
  0
LINE
  5
147
  8
_________2
 62
     7
 10
17.049499999999998
 20
258.911
 30
0.0
 11
183.55099999999999
 21
258.911
 31
0.0
  0
LINE
  5
148
  8
_________2
 62
     7
 10
183.55099999999999
 20
258.911
 30
0.0
 11
183.55099999999999
 21
-4.0910799999999998
 31
0.0
  0
LINE
  5
149
  8
_________2
 62
     7
 10
143.084
 20
258.911
 30
0.0
 11
143.084
 21
223.91099999999989
 31
0.0
  0
LINE
  5
14A
  8
_________2
 62
     7
 10
166.25999999999991
 20
258.911
 30
0.0
 11
166.25999999999991
 21
223.91099999999989
 31
0.0
  0
TEXT
  5
14B
  8
_________2
 62
     7
 10
171.32296966666661
 20
226.06200000000001
 30
0.0
 40
3.3734599999999988
  1
るりゆう
 41
0.5
 72
     1
 11
175.09
 21
226.06200000000001
 31
0.0
  0
TEXT
  5
14C
  8
_________2
 62
     7
 10
146.5574716666666
 20
226.06200000000001
 30
0.0
 40
3.3734599999999988
  1
CEV400-RRU
 41
0.5
 72
     1
 11
154.71000000000001
 21
226.06200000000001
 31
0.0
  0
LINE
  5
14D
  8
_________2
 62
     7
 10
143.084
 20
223.91099999999989
 30
0.0
 11
183.55099999999999
 21
223.91099999999989
 31
0.0
  0
TEXT
  5
14E
  8
_________2
 62
     7
 10
173.2908213333333
 20
233.06200000000001
 30
0.0
 40
3.3734599999999988
  1
織部
 41
0.5
 72
     1
 11
175.09
 21
233.06200000000001
 31
0.0
  0
TEXT
  5
14F
  8
_________2
 62
     7
 10
146.5574716666666
 20
233.06200000000001
 30
0.0
 40
3.3734599999999988
  1
CEV400-ORU
 41
0.5
 72
     1
 11
154.71000000000001
 21
233.06200000000001
 31
0.0
  0
LINE
  5
150
  8
_________2
 62
     7
 10
143.084
 20
230.91099999999989
 30
0.0
 11
183.55099999999999
 21
230.91099999999989
 31
0.0
  0
TEXT
  5
151
  8
_________2
 62
     7
 10
172.27878333333331
 20
240.0619999999999
 30
0.0
 40
3.3734599999999988
  1
黄瀬戸
 41
0.5
 72
     1
 11
175.09
 21
240.0619999999999
 31
0.0
  0
TEXT
  5
152
  8
_________2
 62
     7
 10
173.1783726666666
 20
247.06200000000001
 30
0.0
 40
3.3734599999999988
  1
白磁
 41
0.5
 72
     1
 11
175.09
 21
247.06200000000001
 31
0.0
  0
TEXT
  5
153
  8
_________2
 62
     7
 10
170.76072633333331
 20
254.06200000000001
 30
0.0
 40
3.3734599999999988
  1
色（仕上）
 41
0.5
 72
     1
 11
175.09
 21
254.06200000000001
 31
0.0
  0
TEXT
  5
154
  8
_________2
 62
     7
 10
146.5574716666666
 20
240.0619999999999
 30
0.0
 40
3.3734599999999988
  1
CEV400-KSU
 41
0.5
 72
     1
 11
154.71000000000001
 21
240.0619999999999
 31
0.0
  0
TEXT
  5
155
  8
_________2
 62
     7
 10
146.5574716666666
 20
247.06200000000001
 30
0.0
 40
3.3734599999999988
  1
CEV400-HYY
 41
0.5
 72
     1
 11
154.71000000000001
 21
247.06200000000001
 31
0.0
  0
TEXT
  5
156
  8
_________2
 62
     7
 10
152.9108213333333
 20
254.06200000000001
 30
0.0
 40
3.3734599999999988
  1
品番
 41
0.5
 72
     1
 11
154.71000000000001
 21
254.06200000000001
 31
0.0
  0
LINE
  5
157
  8
_________2
 62
     7
 10
143.084
 20
237.91099999999989
 30
0.0
 11
183.55099999999999
 21
237.91099999999989
 31
0.0
  0
LINE
  5
158
  8
_________2
 62
     7
 10
143.084
 20
244.91099999999989
 30
0.0
 11
183.55099999999999
 21
244.91099999999989
 31
0.0
  0
LINE
  5
159
  8
_________2
 62
     7
 10
143.084
 20
251.91099999999989
 30
0.0
 11
183.55099999999999
 21
251.91099999999989
 31
0.0
  0
LINE
  5
15A
  8
_________2
 62
     7
 10
205.30099999999999
 20
127.411
 30
0.0
 11
183.55000000000001
 21
127.411
 31
0.0
  0
LINE
  5
15B
  8
_________2
 62
     7
 10
100.2999999999999
 20
-4.0907299999999998
 30
0.0
 11
100.2999999999999
 21
-21.070999999999991
 31
0.0
  0
LINE
  5
15C
  8
_________2
 62
     7
 10
100.2999999999999
 20
275.93099999999993
 30
0.0
 11
100.2999999999999
 21
258.911
 31
0.0
  0
LINE
  5
15D
  8
_________2
 62
     7
 10
17.049399999999991
 20
127.411
 30
0.0
 11
-4.7006899999999989
 21
127.411
 31
0.0
  0
LINE
  5
15E
  8
_________2
 62
     7
 10
76.741
 20
29.805099999999999
 30
0.0
 11
74.554599999999994
 21
29.805099999999999
 31
0.0
  0
LINE
  5
15F
  8
_________2
 62
     7
 10
77.233699999999999
 20
29.805099999999999
 30
0.0
 11
76.981499999999997
 21
29.805099999999999
 31
0.0
  0
LINE
  5
160
  8
_________2
 62
     7
 10
77.726200000000006
 20
29.805099999999999
 30
0.0
 11
80.651200000000003
 21
29.805099999999999
 31
0.0
  0
LINE
  5
161
  8
_________2
 62
     7
 10
77.233699999999999
 20
29.805099999999999
 30
0.0
 11
77.485500000000002
 21
29.805099999999999
 31
0.0
  0
LINE
  5
162
  8
_________2
 62
     7
 10
70.837100000000007
 20
29.805099999999999
 30
0.0
 11
68.650300000000001
 21
29.805099999999999
 31
0.0
  0
LINE
  5
163
  8
_________2
 62
     7
 10
71.329599999999999
 20
29.805099999999999
 30
0.0
 11
71.077600000000004
 21
29.805099999999999
 31
0.0
  0
LINE
  5
164
  8
_________2
 62
     7
 10
71.329599999999999
 20
30.2974
 30
0.0
 11
71.329599999999999
 21
32.484400000000001
 31
0.0
  0
LINE
  5
165
  8
_________2
 62
     7
 10
71.329599999999999
 20
29.805099999999999
 30
0.0
 11
71.329599999999999
 21
30.057300000000001
 31
0.0
  0
LINE
  5
166
  8
_________2
 62
     7
 10
71.822299999999998
 20
29.805099999999999
 30
0.0
 11
74.008899999999997
 21
29.805099999999999
 31
0.0
  0
LINE
  5
167
  8
_________2
 62
     7
 10
71.329599999999999
 20
29.805099999999999
 30
0.0
 11
71.581800000000001
 21
29.805099999999999
 31
0.0
  0
LINE
  5
168
  8
_________2
 62
     7
 10
71.329599999999999
 20
29.312799999999999
 30
0.0
 11
71.329599999999999
 21
27.125800000000002
 31
0.0
  0
LINE
  5
169
  8
_________2
 62
     7
 10
71.329599999999999
 20
29.805099999999999
 30
0.0
 11
71.329599999999999
 21
29.5532
 31
0.0
  0
LINE
  5
16A
  8
_________2
 62
     7
 10
75.040700000000001
 20
28.5855
 30
0.0
 11
80.218299999999985
 21
27.720400000000001
 31
0.0
  0
LINE
  5
16B
  8
_________2
 62
     7
 10
75.040700000000001
 20
31.024699999999999
 30
0.0
 11
80.218299999999985
 21
31.889700000000001
 31
0.0
  0
LINE
  5
16C
  8
_________2
 62
     7
 10
80.218299999999985
 20
27.720400000000001
 30
0.0
 11
80.218299999999985
 21
31.889700000000001
 31
0.0
  0
LINE
  5
16D
  8
_________2
 62
     7
 10
75.040700000000001
 20
28.5855
 30
0.0
 11
75.040700000000001
 21
31.024699999999999
 31
0.0
  0
ARC
  5
16E
  8
_________2
 62
     7
 10
71.329689000000002
 20
29.805001000000001
 30
0.0
 40
1.219657999999999
 50
0.004056
 51
90.004025999999996
  0
ARC
  5
16F
  8
_________2
 62
     7
 10
71.32951700000001
 20
29.805001000000001
 30
0.0
 40
1.219657999999999
 50
89.995953999999998
 51
179.99592399999989
  0
ARC
  5
170
  8
_________2
 62
     7
 10
71.329515999999998
 20
29.805172999999989
 30
0.0
 40
1.2196569999999991
 50
180.00405599999999
 51
270.00406600000002
  0
ARC
  5
171
  8
_________2
 62
     7
 10
71.329689000000002
 20
29.805174000000001
 30
0.0
 40
1.219657999999999
 50
269.99597399999999
 51
359.99594400000001
  0
ARC
  5
172
  8
_________2
 62
     7
 10
71.329602000000008
 20
29.805087
 30
0.0
 40
2.0846409999999991
 50
0.00001
 51
89.999980000000008
  0
ARC
  5
173
  8
_________2
 62
     7
 10
71.32951700000001
 20
29.805001000000001
 30
0.0
 40
2.0847269999999991
 50
89.997632999999993
 51
179.997603
  0
ARC
  5
174
  8
_________2
 62
     7
 10
71.409450000000007
 20
29.885114000000002
 30
0.0
 40
2.1661389999999989
 50
182.11724599999999
 51
267.88751799999989
  0
ARC
  5
175
  8
_________2
 62
     7
 10
71.249597999999992
 20
29.88509199999999
 30
0.0
 40
2.1661229999999989
 50
272.11667999999992
 51
357.88332999999989
  0
TEXT
  5
176
  8
_________2
 62
     7
 10
104.605
 20
1.6794899999999999
 30
0.0
 40
3.0923400000000001
  1
図番
 41
0.5
  0
LINE
  5
177
  8
_________2
 62
     7
 10
103.55
 20
5.9087199999999989
 30
0.0
 11
183.55099999999999
 21
5.9087199999999989
 31
0.0
  0
TEXT
  5
178
  8
_________2
 62
     7
 10
104.605
 20
11.679600000000001
 30
0.0
 40
3.0923400000000001
  1
品番
 41
0.5
  0
TEXT
  5
179
  8
_________2
 62
     7
 10
104.605
 20
31.818100000000001
 30
0.0
 40
3.0923400000000001
  1
名称
 41
0.5
  0
TEXT
  5
17A
  8
_________2
 62
     7
 10
91.845258333333334
 20
26.821999999999989
 30
0.0
 40
3.6545800000000002
  1
mm
 41
0.5
 72
     1
 11
93.367999999999995
 21
26.821999999999989
 31
0.0
  0
TEXT
  5
17B
  8
_________2
 62
     7
 10
85.642999999999986
 20
31.818100000000001
 30
0.0
 40
3.0923400000000001
  1
単位
 41
0.5
  0
TEXT
  5
17C
  8
_________2
 62
     7
 10
85.642999999999986
 20
19.411200000000001
 30
0.0
 40
3.0923400000000001
  1
尺度
 41
0.5
  0
TEXT
  5
17D
  8
_________2
 62
     7
 10
90.548758666666686
 20
13.218199999999991
 30
0.0
 40
3.6545800000000002
  1
1 ： 6
 41
0.5
 72
     1
 11
93.959699999999998
 21
13.218199999999991
 31
0.0
  0
TEXT
  5
17E
  8
_________2
 62
     7
 10
136.66252499999999
 20
9.1078600000000005
 30
0.0
 40
3.9357000000000002
  1
図中の表参照
 41
0.5
 72
     1
 11
143.55000000000001
 21
9.1078600000000005
 31
0.0
  0
TEXT
  5
17F
  8
_________2
 62
     7
 10
137.97442499999991
 20
-0.892285
 30
0.0
 40
3.9357000000000002
  1
CEV400
 41
0.5
 72
     1
 11
143.55000000000001
 21
-0.892285
 31
0.0
  0
TEXT
  5
180
  8
_________2
 62
     7
 10
109.179
 20
24.226099999999999
 30
0.0
 40
3.9357000000000002
  1
ベルニカ　手洗器
 41
0.5
  0
TEXT
  5
181
  8
_________2
 62
     7
 10
39.364190666666659
 20
13.603
 30
0.0
 40
3.6545800000000002
  1
高橋
 41
0.5
 72
     1
 11
41.313299999999998
 21
13.603
 31
0.0
  0
TEXT
  5
182
  8
_________2
 62
     7
 10
20.790090666666661
 20
13.603
 30
0.0
 40
3.6545800000000002
  1
石原
 41
0.5
 72
     1
 11
22.73919999999999
 21
13.603
 31
0.0
  0
TEXT
  5
183
  8
_________2
 62
     7
 10
67.785399999999996
 20
13.218199999999991
 30
0.0
 40
3.6545800000000002
  1
07.08.06
 41
0.5
  0
TEXT
  5
184
  8
_________2
 62
     7
 10
66.5929
 20
19.411200000000001
 30
0.0
 40
3.0923400000000001
  1
日付
 41
0.5
  0
TEXT
  5
185
  8
_________2
 62
     7
 10
29.639199999999992
 20
19.411200000000001
 30
0.0
 40
3.0923400000000001
  1
検図
 41
0.5
  0
TEXT
  5
186
  8
_________2
 62
     7
 10
18.0212
 20
5.2117699999999987
 30
0.0
 40
3.0923400000000001
  1
備考
 41
0.5
  0
TEXT
  5
187
  8
_________2
 62
     7
 10
18.0212
 20
19.411200000000001
 30
0.0
 40
3.0923400000000001
  1
製図
 41
0.5
  0
TEXT
  5
188
  8
_________2
 62
     7
 10
23.788465333333338
 20
27.936800000000002
 30
0.0
 40
4.4979399999999989
  1
セラトレーディング株式会社
 41
0.5
 72
     1
 11
41.180500000000002
 21
27.936800000000002
 31
0.0
  0
LINE
  5
189
  8
_________2
 62
     7
 10
183.55099999999999
 20
-4.0910799999999998
 30
0.0
 11
17.049399999999991
 21
-4.0910799999999998
 31
0.0
  0
LINE
  5
18A
  8
_________2
 62
     7
 10
17.049399999999991
 20
-4.0910799999999998
 30
0.0
 11
17.049399999999991
 21
258.911
 31
0.0
  0
LINE
  5
18B
  8
_________2
 62
     7
 10
17.049399999999991
 20
258.911
 30
0.0
 11
183.55099999999999
 21
258.911
 31
0.0
  0
LINE
  5
18C
  8
_________2
 62
     7
 10
183.55099999999999
 20
258.911
 30
0.0
 11
183.55099999999999
 21
-4.0910799999999998
 31
0.0
  0
LINE
  5
18D
  8
_________2
 62
     7
 10
65.549599999999998
 20
9.4092999999999982
 30
0.0
 11
65.549599999999998
 21
35.909100000000002
 31
0.0
  0
LINE
  5
18E
  8
_________2
 62
     7
 10
84.549700000000016
 20
9.4092999999999982
 30
0.0
 11
84.549700000000016
 21
35.909100000000002
 31
0.0
  0
LINE
  5
18F
  8
_________2
 62
     7
 10
103.55
 20
-4.0910799999999998
 30
0.0
 11
103.55
 21
35.909100000000002
 31
0.0
  0
LINE
  5
190
  8
_________2
 62
     7
 10
28.549499999999998
 20
9.4092999999999982
 30
0.0
 11
28.549499999999998
 21
23.409199999999998
 31
0.0
  0
LINE
  5
191
  8
_________2
 62
     7
 10
17.049399999999991
 20
9.4092999999999982
 30
0.0
 11
103.55
 21
9.4092999999999982
 31
0.0
  0
LINE
  5
192
  8
_________2
 62
     7
 10
17.049399999999991
 20
23.409199999999998
 30
0.0
 11
103.55
 21
23.409199999999998
 31
0.0
  0
LINE
  5
193
  8
_________2
 62
     7
 10
103.55
 20
15.90889999999999
 30
0.0
 11
183.55099999999999
 21
15.90889999999999
 31
0.0
  0
LINE
  5
194
  8
_________2
 62
     7
 10
17.049399999999991
 20
35.909100000000002
 30
0.0
 11
183.55099999999999
 21
35.909100000000002
 31
0.0
  0
ENDSEC
  0
EOF
