  0
SECTION
  2
HEADER
  9
$ACADVER
  1
AC1009
  9
$INSBASE
 10
0.0
 20
0.0
 30
0.0
  9
$EXTMIN
 10
-4.7006899999999989
 20
-21.071000000000002
 30
0.0
  9
$EXTMAX
 10
205.30099999999999
 20
275.93099999999998
 30
0.0
  9
$LIMMIN
 10
0.0
 20
0.0
  9
$LIMMAX
 10
12.0
 20
9.0
  9
$ORTHOMODE
 70
     0
  9
$REGENMODE
 70
     1
  9
$FILLMODE
 70
     1
  9
$QTEXTMODE
 70
     0
  9
$MIRRTEXT
 70
     1
  9
$DRAGMODE
 70
     2
  9
$LTSCALE
 40
1.0
  9
$OSMODE
 70
    37
  9
$ATTMODE
 70
     1
  9
$TEXTSIZE
 40
0.0
  9
$TRACEWID
 40
0.05
  9
$TEXTSTYLE
  7
STANDARD
  9
$CLAYER
  8
0
  9
$CELTYPE
  6
CONTINUOUS
  9
$CECOLOR
 62
   256
  9
$DIMSCALE
 40
1.0
  9
$DIMASZ
 40
0.18
  9
$DIMEXO
 40
0.0625
  9
$DIMDLI
 40
0.38
  9
$DIMRND
 40
0.0
  9
$DIMDLE
 40
0.0
  9
$DIMEXE
 40
0.18
  9
$DIMTP
 40
0.0
  9
$DIMTM
 40
0.0
  9
$DIMTXT
 40
0.18
  9
$DIMCEN
 40
0.09
  9
$DIMTSZ
 40
0.0
  9
$DIMTOL
 70
     0
  9
$DIMLIM
 70
     0
  9
$DIMTIH
 70
     1
  9
$DIMTOH
 70
     1
  9
$DIMSE1
 70
     0
  9
$DIMSE2
 70
     0
  9
$DIMTAD
 70
     0
  9
$DIMZIN
 70
     0
  9
$DIMBLK
  1

  9
$DIMASO
 70
     1
  9
$DIMSHO
 70
     1
  9
$DIMPOST
  1

  9
$DIMAPOST
  1

  9
$DIMALT
 70
     0
  9
$DIMALTD
 70
     2
  9
$DIMALTF
 40
25.399999999999999
  9
$DIMLFAC
 40
1.0
  9
$DIMTOFL
 70
     0
  9
$DIMTVP
 40
0.0
  9
$DIMTIX
 70
     0
  9
$DIMSOXD
 70
     0
  9
$DIMSAH
 70
     0
  9
$DIMBLK1
  1

  9
$DIMBLK2
  1

  9
$DIMSTYLE
  2
STANDARD
  9
$DIMCLRD
 70
     0
  9
$DIMCLRE
 70
     0
  9
$DIMCLRT
 70
     0
  9
$DIMTFAC
 40
1.0
  9
$DIMGAP
 40
0.09
  9
$LUNITS
 70
     2
  9
$LUPREC
 70
     4
  9
$SKETCHINC
 40
0.1
  9
$FILLETRAD
 40
0.0
  9
$AUNITS
 70
     0
  9
$AUPREC
 70
     0
  9
$MENU
  1
.
  9
$ELEVATION
 40
0.0
  9
$PELEVATION
 40
0.0
  9
$THICKNESS
 40
0.0
  9
$LIMCHECK
 70
     0
  9
$BLIPMODE
 70
     0
  9
$CHAMFERA
 40
0.0
  9
$CHAMFERB
 40
0.0
  9
$SKPOLY
 70
     0
  9
$TDCREATE
 40
2444972.375
  9
$TDUPDATE
 40
2457675.2477490162
  9
$TDINDWG
 40
0.0000312269
  9
$TDUSRTIMER
 40
0.0000312269
  9
$USRTIMER
 70
     1
  9
$ANGBASE
 50
0.0
  9
$ANGDIR
 70
     0
  9
$PDMODE
 70
     0
  9
$PDSIZE
 40
0.0
  9
$PLINEWID
 40
0.0
  9
$COORDS
 70
     1
  9
$SPLFRAME
 70
     0
  9
$SPLINETYPE
 70
     6
  9
$SPLINESEGS
 70
     8
  9
$ATTDIA
 70
     1
  9
$ATTREQ
 70
     1
  9
$HANDLING
 70
     1
  9
$HANDSEED
  5
1A7
  9
$SURFTAB1
 70
     6
  9
$SURFTAB2
 70
     6
  9
$SURFTYPE
 70
     6
  9
$SURFU
 70
     6
  9
$SURFV
 70
     6
  9
$UCSNAME
  2

  9
$UCSORG
 10
0.0
 20
0.0
 30
0.0
  9
$UCSXDIR
 10
1.0
 20
0.0
 30
0.0
  9
$UCSYDIR
 10
0.0
 20
1.0
 30
0.0
  9
$PUCSNAME
  2

  9
$PUCSORG
 10
0.0
 20
0.0
 30
0.0
  9
$PUCSXDIR
 10
1.0
 20
0.0
 30
0.0
  9
$PUCSYDIR
 10
0.0
 20
1.0
 30
0.0
  9
$USERI1
 70
     0
  9
$USERI2
 70
     0
  9
$USERI3
 70
     0
  9
$USERI4
 70
     0
  9
$USERI5
 70
     0
  9
$USERR1
 40
0.0
  9
$USERR2
 40
0.0
  9
$USERR3
 40
0.0
  9
$USERR4
 40
0.0
  9
$USERR5
 40
0.0
  9
$WORLDVIEW
 70
     1
  9
$SHADEDGE
 70
     3
  9
$SHADEDIF
 70
    70
  9
$TILEMODE
 70
     1
  9
$MAXACTVP
 70
    48
  9
$PLIMCHECK
 70
     0
  9
$PEXTMIN
 10
1.0000000000000000E+020
 20
1.0000000000000000E+020
 30
1.0000000000000000E+020
  9
$PEXTMAX
 10
-1.0000000000000000E+020
 20
-1.0000000000000000E+020
 30
-1.0000000000000000E+020
  9
$PLIMMIN
 10
0.0
 20
0.0
  9
$PLIMMAX
 10
12.0
 20
9.0
  9
$UNITMODE
 70
     0
  9
$VISRETAIN
 70
     1
  9
$PLINEGEN
 70
     0
  9
$PSLTSCALE
 70
     1
  0
ENDSEC
  0
SECTION
  2
TABLES
  0
TABLE
  2
VPORT
 70
     1
  0
VPORT
  2
*ACTIVE
 70
     0
 10
0.0
 20
0.0
 11
1.0
 21
1.0
 12
242.9427013879114
 22
127.42999999999989
 13
0.0
 23
0.0
 14
1.0
 24
1.0
 15
0.0
 25
0.0
 16
0.0
 26
0.0
 36
1.0
 17
0.0
 27
0.0
 37
0.0
 40
271.07266271200172
 41
1.5328467153284671
 42
50.0
 43
0.0
 44
0.0
 50
0.0
 51
0.0
 71
     0
 72
   100
 73
     1
 74
     1
 75
     0
 76
     0
 77
     0
 78
     0
  0
ENDTAB
  0
TABLE
  2
LTYPE
 70
     3
  0
LTYPE
  2
CONTINUOUS
 70
     0
  3
Solid line
 72
    65
 73
     0
 40
0.0
  0
LTYPE
  2
AIGENLINE001
 70
     0
  3
generate AI->DXF Converter
 72
    65
 73
     4
 40
5.8561449999999988
 49
3.5278
 49
-0.776115
 49
0.776115
 49
-0.776115
  0
LTYPE
  2
AIGENLINE002
 70
     0
  3
generate AI->DXF Converter
 72
    65
 73
     2
 40
1.5522299999999991
 49
0.776115
 49
-0.776115
  0
ENDTAB
  0
TABLE
  2
LAYER
 70
     2
  0
LAYER
  2
0
 70
     0
 62
     7
  6
CONTINUOUS
  0
LAYER
  2
_________2
 70
     0
 62
     7
  6
CONTINUOUS
  0
ENDTAB
  0
TABLE
  2
STYLE
 70
     1
  0
STYLE
  2
STANDARD
 70
     0
 40
0.0
 41
0.0
 50
0.0
 71
     0
 42
0.0
  3
TXT
  4
EXTFONT.SHX
  0
ENDTAB
  0
TABLE
  2
VIEW
 70
     0
  0
ENDTAB
  0
TABLE
  2
UCS
 70
     0
  0
ENDTAB
  0
TABLE
  2
APPID
 70
     3
  0
APPID
  2
ACAD
 70
     0
  0
APPID
  2
ACAD_NAV_VCDISPLAY
 70
     0
  0
APPID
  2
ACAD_MLEADERVER
 70
     0
  0
ENDTAB
  0
TABLE
  2
DIMSTYLE
 70
     1
  0
DIMSTYLE
  2
STANDARD
 70
     0
  3

  4

  5

  6

  7

 40
1.0
 41
0.18
 42
0.0625
 43
0.38
 44
0.18
 45
0.0
 46
0.0
 47
0.0
 48
0.0
140
0.18
141
0.09
142
0.0
143
25.399999999999999
144
1.0
145
0.0
146
1.0
147
0.09
 71
     0
 72
     0
 73
     1
 74
     1
 75
     0
 76
     0
 77
     0
 78
     0
170
     0
171
     2
172
     0
173
     0
174
     0
175
     0
176
     0
177
     0
178
     0
  0
ENDTAB
  0
ENDSEC
  0
SECTION
  2
BLOCKS
  0
BLOCK
  8
0
  2
$MODEL_SPACE
 70
     0
 10
0.0
 20
0.0
 30
0.0
  3
$MODEL_SPACE
  1

  0
ENDBLK
  5
1A
  8
0
  0
BLOCK
 67
     1
  8
0
  2
$PAPER_SPACE
 70
     0
 10
0.0
 20
0.0
 30
0.0
  3
$PAPER_SPACE
  1

  0
ENDBLK
  5
17
 67
     1
  8
0
  0
ENDSEC
  0
SECTION
  2
ENTITIES
  0
TEXT
  5
23
  8
0
 62
     7
 10
82.525679999999994
 20
185.72399999999999
 30
0.0
 40
3.0923400000000001
  1
%%c46
 41
0.5
 72
     2
 11
86.648799999999994
 21
185.72399999999999
 31
0.0
  0
TEXT
  5
24
  8
0
 62
     7
 10
148.26687999999999
 20
187.71700000000001
 30
0.0
 40
3.0923400000000001
  1
%%c85
 41
0.5
 72
     2
 11
152.38999999999999
 21
187.71700000000001
 31
0.0
  0
TEXT
  5
25
  8
0
 62
     7
 10
70.4163025
 20
142.589
 30
0.0
 40
3.0923400000000001
  1
%%c250
 41
0.5
 72
     1
 11
73.122100000000003
 21
142.589
 31
0.0
  0
TEXT
  5
26
  8
0
 62
     7
 10
132.01400000000001
 20
100.613525
 30
0.0
 40
3.0923400000000001
  1
82
 50
90.0
 41
0.5
 72
     1
 11
132.01400000000001
 21
101.902
 31
0.0
  0
TEXT
  5
27
  8
0
 62
     7
 10
70.673997499999984
 20
80.294700000000006
 30
0.0
 40
3.0923400000000001
  1
%%c140
 41
0.5
 72
     1
 11
73.122100000000003
 21
80.294700000000006
 31
0.0
  0
TEXT
  5
28
  8
0
 62
     7
 10
38.072299999999998
 20
98.580830000000006
 30
0.0
 40
3.0923400000000001
  1
100
 50
90.0
 41
0.5
 72
     1
 11
38.072299999999998
 21
100.127
 31
0.0
  0
TEXT
  5
29
  8
0
 62
     7
 10
70.4163025
 20
135.31200000000001
 30
0.0
 40
3.0923400000000001
  1
%%c270
 41
0.5
 72
     1
 11
73.122100000000003
 21
135.31200000000001
 31
0.0
  0
TEXT
  5
2A
  8
0
 62
     7
 10
128.22976
 20
160.155
 30
0.0
 40
3.0923400000000001
  1
カウンター切込寸法
 41
0.5
 72
     1
 11
136.476
 21
160.155
 31
0.0
  0
LINE
  5
2B
  8
0
 62
     7
 10
75.3352
 20
180.125
 30
0.0
 11
76.652100000000004
 21
181.99600000000001
 31
0.0
  0
LINE
  5
2C
  8
0
 62
     7
 10
76.652100000000004
 20
181.99600000000001
 30
0.0
 11
74.575900000000004
 21
181.03399999999999
 31
0.0
  0
LINE
  5
2D
  8
0
 62
     7
 10
74.575900000000004
 20
181.03399999999999
 30
0.0
 11
75.3352
 21
180.125
 31
0.0
  0
LINE
  5
2E
  8
0
 62
     7
 10
70.908600000000007
 20
177.97099999999989
 30
0.0
 11
69.591700000000003
 21
176.09899999999999
 31
0.0
  0
LINE
  5
2F
  8
0
 62
     7
 10
69.591700000000003
 20
176.09899999999999
 30
0.0
 11
71.667900000000003
 21
177.06100000000001
 31
0.0
  0
LINE
  5
30
  8
0
 62
     7
 10
71.667900000000003
 20
177.06100000000001
 30
0.0
 11
70.908600000000007
 21
177.97099999999989
 31
0.0
  0
LINE
  5
31
  8
0
 62
     7
 10
69.591700000000003
 20
176.09899999999999
 30
0.0
 11
80.276600000000002
 21
185.024
 31
0.0
  0
LINE
  5
32
  8
0
 62
     7
 10
80.276600000000002
 20
185.024
 30
0.0
 11
86.648799999999994
 21
185.024
 31
0.0
  0
LINE
  5
33
  8
0
 62
     7
 10
141.68299999999999
 20
182.625
 30
0.0
 11
143.0
 21
184.49600000000001
 31
0.0
  0
LINE
  5
34
  8
0
 62
     7
 10
143.0
 20
184.49600000000001
 30
0.0
 11
140.92400000000001
 21
183.53399999999999
 31
0.0
  0
LINE
  5
35
  8
0
 62
     7
 10
140.92400000000001
 20
183.53399999999999
 30
0.0
 11
141.68299999999999
 21
182.625
 31
0.0
  0
LINE
  5
36
  8
0
 62
     7
 10
131.27000000000001
 20
175.471
 30
0.0
 11
129.953
 21
173.59899999999999
 31
0.0
  0
LINE
  5
37
  8
0
 62
     7
 10
129.953
 20
173.59899999999999
 30
0.0
 11
132.029
 21
174.56200000000001
 31
0.0
  0
LINE
  5
38
  8
0
 62
     7
 10
132.029
 20
174.56200000000001
 30
0.0
 11
131.27000000000001
 21
175.471
 31
0.0
  0
LINE
  5
39
  8
0
 62
     7
 10
129.953
 20
173.59899999999999
 30
0.0
 11
146.018
 21
187.017
 31
0.0
  0
LINE
  5
3A
  8
0
 62
     7
 10
146.018
 20
187.017
 30
0.0
 11
152.38999999999999
 21
187.017
 31
0.0
  0
LINE
  5
3B
  8
0
 62
     7
 10
50.332500000000003
 20
142.47399999999999
 30
0.0
 11
48.121899999999997
 21
141.881
 31
0.0
  0
LINE
  5
3C
  8
0
 62
     7
 10
48.121899999999997
 20
141.881
 30
0.0
 11
50.332500000000003
 21
141.28899999999999
 31
0.0
  0
LINE
  5
3D
  8
0
 62
     7
 10
50.332500000000003
 20
141.28899999999999
 30
0.0
 11
50.332500000000003
 21
142.47399999999999
 31
0.0
  0
LINE
  5
3E
  8
0
 62
     7
 10
95.911699999999996
 20
141.304
 30
0.0
 11
98.122299999999996
 21
141.89599999999999
 31
0.0
  0
LINE
  5
3F
  8
0
 62
     7
 10
98.122299999999996
 20
141.89599999999999
 30
0.0
 11
95.911699999999996
 21
142.488
 31
0.0
  0
LINE
  5
40
  8
0
 62
     7
 10
95.911699999999996
 20
142.488
 30
0.0
 11
95.911699999999996
 21
141.304
 31
0.0
  0
LINE
  5
41
  8
0
 62
     7
 10
48.121899999999997
 20
141.88900000000001
 30
0.0
 11
98.122299999999996
 21
141.88900000000001
 31
0.0
  0
LINE
  5
42
  8
0
 62
     7
 10
98.121900000000011
 20
173.52199999999999
 30
0.0
 11
98.121900000000011
 21
141.18899999999999
 31
0.0
  0
LINE
  5
43
  8
0
 62
     7
 10
48.121899999999997
 20
173.52199999999999
 30
0.0
 11
48.121899999999997
 21
141.18899999999999
 31
0.0
  0
LINE
  5
44
  8
0
 62
     7
 10
133.29900000000001
 20
107.866
 30
0.0
 11
132.70699999999999
 21
110.077
 31
0.0
  0
LINE
  5
45
  8
0
 62
     7
 10
132.70699999999999
 20
110.077
 30
0.0
 11
132.11500000000001
 21
107.866
 31
0.0
  0
LINE
  5
46
  8
0
 62
     7
 10
132.11500000000001
 20
107.866
 30
0.0
 11
133.29900000000001
 21
107.866
 31
0.0
  0
LINE
  5
47
  8
0
 62
     7
 10
132.12899999999999
 20
95.936899999999994
 30
0.0
 11
132.72200000000001
 21
93.726500000000001
 31
0.0
  0
LINE
  5
48
  8
0
 62
     7
 10
132.72200000000001
 20
93.726500000000001
 30
0.0
 11
133.31399999999999
 21
95.936899999999994
 31
0.0
  0
LINE
  5
49
  8
0
 62
     7
 10
133.31399999999999
 20
95.936899999999994
 30
0.0
 11
132.12899999999999
 21
95.936899999999994
 31
0.0
  0
LINE
  5
4A
  8
0
 62
     7
 10
132.714
 20
110.077
 30
0.0
 11
132.714
 21
93.726500000000001
 31
0.0
  0
LINE
  5
4B
  8
0
 62
     7
 10
61.3324
 20
80.179599999999994
 30
0.0
 11
59.1218
 21
79.587699999999998
 31
0.0
  0
LINE
  5
4C
  8
0
 62
     7
 10
59.1218
 20
79.587699999999998
 30
0.0
 11
61.3324
 21
78.995199999999997
 31
0.0
  0
LINE
  5
4D
  8
0
 62
     7
 10
61.3324
 20
78.995199999999997
 30
0.0
 11
61.3324
 21
80.179599999999994
 31
0.0
  0
LINE
  5
4E
  8
0
 62
     7
 10
84.911500000000004
 20
79.009600000000006
 30
0.0
 11
87.122000000000014
 21
79.602199999999996
 31
0.0
  0
LINE
  5
4F
  8
0
 62
     7
 10
87.122000000000014
 20
79.602199999999996
 30
0.0
 11
84.911500000000004
 21
80.194100000000006
 31
0.0
  0
LINE
  5
50
  8
0
 62
     7
 10
84.911500000000004
 20
80.194100000000006
 30
0.0
 11
84.911500000000004
 21
79.009600000000006
 31
0.0
  0
LINE
  5
51
  8
0
 62
     7
 10
59.1218
 20
79.594599999999986
 30
0.0
 11
87.122000000000014
 21
79.594599999999986
 31
0.0
  0
LINE
  5
52
  8
0
 62
     7
 10
87.122000000000014
 20
89.426299999999983
 30
0.0
 11
87.122000000000014
 21
78.894599999999997
 31
0.0
  0
LINE
  5
53
  8
0
 62
     7
 10
59.1218
 20
89.426299999999983
 30
0.0
 11
59.1218
 21
78.894599999999997
 31
0.0
  0
LINE
  5
54
  8
0
 62
     7
 10
38.187399999999997
 20
92.336699999999993
 30
0.0
 11
38.779600000000002
 21
90.126299999999986
 31
0.0
  0
LINE
  5
55
  8
0
 62
     7
 10
38.779600000000002
 20
90.126299999999986
 30
0.0
 11
39.372
 21
92.336699999999993
 31
0.0
  0
LINE
  5
56
  8
0
 62
     7
 10
39.372
 20
92.336699999999993
 30
0.0
 11
38.187399999999997
 21
92.336699999999993
 31
0.0
  0
LINE
  5
57
  8
0
 62
     7
 10
39.357399999999998
 20
107.916
 30
0.0
 11
38.765099999999997
 21
110.127
 31
0.0
  0
LINE
  5
58
  8
0
 62
     7
 10
38.765099999999997
 20
110.127
 30
0.0
 11
38.172800000000002
 21
107.916
 31
0.0
  0
LINE
  5
59
  8
0
 62
     7
 10
38.172800000000002
 20
107.916
 30
0.0
 11
39.357399999999998
 21
107.916
 31
0.0
  0
LINE
  5
5A
  8
0
 62
     7
 10
38.772399999999998
 20
90.126299999999986
 30
0.0
 11
38.772399999999998
 21
110.127
 31
0.0
  0
LINE
  5
5B
  8
0
 62
     7
 10
47.19039999999999
 20
110.127
 30
0.0
 11
38.072299999999998
 21
110.127
 31
0.0
  0
LINE
  5
5C
  8
0
 62
     7
 10
57.79679999999999
 20
90.126299999999986
 30
0.0
 11
38.072299999999998
 21
90.126299999999986
 31
0.0
  0
LINE
  5
5D
  8
0
 62
     7
 10
48.332599999999999
 20
135.197
 30
0.0
 11
46.122
 21
134.60499999999999
 31
0.0
  0
LINE
  5
5E
  8
0
 62
     7
 10
46.122
 20
134.60499999999999
 30
0.0
 11
48.332599999999999
 21
134.012
 31
0.0
  0
LINE
  5
5F
  8
0
 62
     7
 10
48.332599999999999
 20
134.012
 30
0.0
 11
48.332599999999999
 21
135.197
 31
0.0
  0
LINE
  5
60
  8
0
 62
     7
 10
97.911600000000007
 20
134.02699999999999
 30
0.0
 11
100.122
 21
134.619
 31
0.0
  0
LINE
  5
61
  8
0
 62
     7
 10
100.122
 20
134.619
 30
0.0
 11
97.911600000000007
 21
135.21100000000001
 31
0.0
  0
LINE
  5
62
  8
0
 62
     7
 10
97.911600000000007
 20
135.21100000000001
 30
0.0
 11
97.911600000000007
 21
134.02699999999999
 31
0.0
  0
LINE
  5
63
  8
0
 62
     7
 10
46.122
 20
134.61199999999999
 30
0.0
 11
100.122
 21
134.61199999999999
 31
0.0
  0
LINE
  5
64
  8
0
 62
     7
 10
100.122
 20
173.52199999999999
 30
0.0
 11
100.122
 21
133.91200000000001
 31
0.0
  0
LINE
  5
65
  8
0
 62
     7
 10
46.122
 20
173.523
 30
0.0
 11
46.122
 21
133.91200000000001
 31
0.0
  0
LINE
  5
66
  8
0
  6
AIGENLINE001
 62
     7
 10
136.476
 20
167.18600000000001
 30
0.0
 11
136.476
 21
191.34999999999999
 31
0.0
  0
LINE
  5
67
  8
0
  6
AIGENLINE001
 62
     7
 10
124.113
 20
179.048
 30
0.0
 11
148.53399999999999
 21
179.048
 31
0.0
  0
LINE
  5
68
  8
0
  6
AIGENLINE001
 62
     7
 10
73.122100000000003
 20
112.38500000000001
 30
0.0
 11
73.122100000000003
 21
85.319699999999983
 31
0.0
  0
LINE
  5
69
  8
0
  6
AIGENLINE001
 62
     7
 10
41.059399999999989
 20
179.048
 30
0.0
 11
105.185
 21
179.048
 31
0.0
  0
LINE
  5
6A
  8
0
  6
AIGENLINE001
 62
     7
 10
136.476
 20
112.38500000000001
 30
0.0
 11
136.476
 21
85.319699999999983
 31
0.0
  0
LINE
  5
6B
  8
0
  6
AIGENLINE001
 62
     7
 10
73.122100000000003
 20
209.69300000000001
 30
0.0
 11
73.122100000000003
 21
148.881
 31
0.0
  0
ARC
  5
6C
  8
0
  6
AIGENLINE002
 62
     7
 10
161.45794100000001
 20
109.972123
 30
0.0
 40
0.104902
 50
91.000368000000009
 51
131.38772
  0
ARC
  5
6D
  8
0
  6
AIGENLINE002
 62
     7
 10
111.49614099999999
 20
109.976202
 30
0.0
 40
0.100812
 50
47.751437000000003
 51
89.462767000000014
  0
ARC
  5
6E
  8
0
  6
AIGENLINE002
 62
     7
 10
108.1118
 20
106.465969
 30
0.0
 40
4.976780999999999
 50
12.187182999999999
 51
46.080615000000002
  0
ARC
  5
6F
  8
0
  6
AIGENLINE002
 62
     7
 10
131.10995199999999
 20
112.42023500000001
 30
0.0
 40
18.784852000000001
 50
195.131925
 51
264.35497500000002
  0
LINE
  5
70
  8
0
  6
AIGENLINE002
 62
     7
 10
129.262
 20
93.726500000000001
 30
0.0
 11
143.69
 21
93.726500000000001
 31
0.0
  0
ARC
  5
71
  8
0
  6
AIGENLINE002
 62
     7
 10
129.25780900000001
 20
92.716200999999984
 30
0.0
 40
1.010289999999999
 50
45.246171999999987
 51
89.752204000000006
  0
LINE
  5
72
  8
0
  6
AIGENLINE002
 62
     7
 10
131.876
 20
91.526399999999995
 30
0.0
 11
129.96899999999999
 21
93.433599999999998
 31
0.0
  0
ARC
  5
73
  8
0
  6
AIGENLINE002
 62
     7
 10
143.69568899999999
 20
92.713808000000014
 30
0.0
 40
1.0126879999999989
 50
90.303278000000006
 51
134.698307
  0
LINE
  5
74
  8
0
  6
AIGENLINE002
 62
     7
 10
141.07599999999999
 20
91.526399999999995
 30
0.0
 11
142.983
 21
93.433599999999998
 31
0.0
  0
LINE
  5
75
  8
0
  6
AIGENLINE002
 62
     7
 10
131.876
 20
91.526399999999995
 30
0.0
 11
141.07599999999999
 21
91.526399999999995
 31
0.0
  0
ARC
  5
76
  8
0
  6
AIGENLINE002
 62
     7
 10
131.77452099999999
 20
91.48040300000001
 30
0.0
 40
0.101814
 50
0.310722
 51
48.577182000000001
  0
LINE
  5
77
  8
0
  6
AIGENLINE002
 62
     7
 10
131.876
 20
91.526399999999995
 30
0.0
 11
131.876
 21
90.126299999999986
 31
0.0
  0
ARC
  5
78
  8
0
  6
AIGENLINE002
 62
     7
 10
141.17810900000001
 20
91.480346999999995
 30
0.0
 40
0.101937
 50
131.45391699999999
 51
179.65813900000001
  0
LINE
  5
79
  8
0
  6
AIGENLINE002
 62
     7
 10
141.07599999999999
 20
91.526399999999995
 30
0.0
 11
141.07599999999999
 21
90.126299999999986
 31
0.0
  0
ARC
  5
7A
  8
0
  6
AIGENLINE002
 62
     7
 10
164.84015099999999
 20
106.466278
 30
0.0
 40
4.976172
 50
133.91722899999999
 51
167.814933
  0
ARC
  5
7B
  8
0
  6
AIGENLINE002
 62
     7
 10
141.84270599999999
 20
112.420057
 30
0.0
 40
18.784659999999999
 50
275.64463899999998
 51
344.86849999999998
  0
ARC
  5
7C
  8
0
 62
     7
 10
136.47608
 20
179.04808299999999
 30
0.0
 40
8.4999669999999998
 50
359.99884900000001
 51
89.998818999999997
  0
ARC
  5
7D
  8
0
 62
     7
 10
136.476427
 20
179.04808299999999
 30
0.0
 40
8.4999669999999998
 50
90.001160999999996
 51
180.001171
  0
ARC
  5
7E
  8
0
 62
     7
 10
136.476338
 20
179.04782399999999
 30
0.0
 40
8.4998780000000007
 50
179.99939000000001
 51
269.999439
  0
ARC
  5
7F
  8
0
 62
     7
 10
136.47616600000001
 20
179.04782700000001
 30
0.0
 40
8.4998810000000002
 50
270.00060000000002
 51
0.000571
  0
LINE
  5
80
  8
0
 62
     7
 10
109.556
 20
108.542
 30
0.0
 11
163.39599999999999
 21
108.542
 31
0.0
  0
ARC
  5
81
  8
0
 62
     7
 10
73.122095999999999
 20
179.047911
 30
0.0
 40
6.7999739999999997
 50
0.00001
 51
89.999980000000008
  0
ARC
  5
82
  8
0
 62
     7
 10
73.121926000000002
 20
179.04773800000001
 30
0.0
 40
6.8001459999999998
 50
89.998548999999997
 51
179.99851899999999
  0
ARC
  5
83
  8
0
 62
     7
 10
73.122010000000003
 20
179.04799700000001
 30
0.0
 40
6.8002299999999991
 50
180.00073599999999
 51
270.00074599999999
  0
ARC
  5
84
  8
0
 62
     7
 10
73.122010000000003
 20
179.04782700000001
 30
0.0
 40
6.8000600000000002
 50
270.00074599999999
 51
0.000716
  0
LINE
  5
85
  8
0
 62
     7
 10
111.497
 20
110.077
 30
0.0
 11
161.45599999999999
 21
110.077
 31
0.0
  0
ARC
  5
86
  8
0
 62
     7
 10
73.121921
 20
179.04808
 30
0.0
 40
25.000015000000001
 50
359.99961500000001
 51
89.999584999999996
  0
ARC
  5
87
  8
0
 62
     7
 10
73.122101999999984
 20
179.04790800000001
 30
0.0
 40
25.000187
 50
90.0
 51
179.99996999999999
  0
ARC
  5
88
  8
0
 62
     7
 10
73.122179000000003
 20
179.047821
 30
0.0
 40
25.000264000000001
 50
179.999773
 51
269.99982199999999
  0
ARC
  5
89
  8
0
 62
     7
 10
73.121833999999993
 20
179.04765800000001
 30
0.0
 40
25.000101000000001
 50
270.00061199999999
 51
0.000582
  0
ARC
  5
8A
  8
0
 62
     7
 10
48.144573999999999
 20
109.973716
 30
0.0
 40
0.103312
 50
91.10313499999998
 51
145.04181299999999
  0
LINE
  5
8B
  8
0
 62
     7
 10
46.202300000000001
 20
108.542
 30
0.0
 11
73.122100000000003
 21
108.542
 31
0.0
  0
LINE
  5
8C
  8
0
 62
     7
 10
48.142600000000002
 20
110.077
 30
0.0
 11
73.122100000000003
 21
110.077
 31
0.0
  0
ARC
  5
8D
  8
0
 62
     7
 10
74.067118999999991
 20
114.50558100000001
 30
0.0
 40
28.595617000000001
 50
192.23813999999999
 51
238.49032999999989
  0
ARC
  5
8E
  8
0
 62
     7
 10
46.224069999999998
 20
108.44143099999999
 30
0.0
 40
0.102767
 50
102.23247600000001
 51
178.55437499999999
  0
ARC
  5
8F
  8
0
 62
     7
 10
46.144066999999993
 20
110.517073
 30
0.0
 40
1.9760669999999989
 50
271.68858
 51
345.817409
  0
LINE
  5
90
  8
0
 62
     7
 10
73.122100000000003
 20
90.126299999999986
 30
0.0
 11
59.1218
 21
90.126299999999986
 31
0.0
  0
LINE
  5
91
  8
0
 62
     7
 10
100.042
 20
108.542
 30
0.0
 11
73.122100000000003
 21
108.542
 31
0.0
  0
LINE
  5
92
  8
0
 62
     7
 10
98.101299999999995
 20
110.077
 30
0.0
 11
73.122100000000003
 21
110.077
 31
0.0
  0
ARC
  5
93
  8
0
 62
     7
 10
72.177553000000003
 20
114.504997
 30
0.0
 40
28.594688999999999
 50
301.50889599999999
 51
347.76267400000012
  0
ARC
  5
94
  8
0
 62
     7
 10
100.018604
 20
108.440538
 30
0.0
 40
0.10397
 50
1.9207959999999999
 51
77.05239499999999
  0
ARC
  5
95
  8
0
 62
     7
 10
100.100297
 20
110.51772800000001
 30
0.0
 40
1.9767259999999991
 50
194.197352
 51
268.30707200000001
  0
ARC
  5
96
  8
0
 62
     7
 10
98.100195000000014
 20
109.97544000000001
 30
0.0
 40
0.101574
 50
34.458199999999998
 51
89.396811999999997
  0
LINE
  5
97
  8
0
 62
     7
 10
150.477
 20
90.126299999999986
 30
0.0
 11
122.477
 21
90.126299999999986
 31
0.0
  0
ARC
  5
98
  8
0
 62
     7
 10
137.420187
 20
114.505371
 30
0.0
 40
28.594508999999999
 50
192.23819
 51
238.493146
  0
ARC
  5
99
  8
0
 62
     7
 10
109.579841
 20
108.44017700000001
 30
0.0
 40
0.104421
 50
103.137733
 51
177.889036
  0
ARC
  5
9A
  8
0
 62
     7
 10
109.497884
 20
110.517951
 30
0.0
 40
1.9769439999999989
 50
271.68766099999999
 51
345.79758399999997
  0
ARC
  5
9B
  8
0
 62
     7
 10
111.498214
 20
109.97533
 30
0.0
 40
0.101685
 50
90.635610999999983
 51
145.50933699999999
  0
LINE
  5
9C
  8
0
 62
     7
 10
73.122100000000003
 20
90.126299999999986
 30
0.0
 11
87.122000000000014
 21
90.126299999999986
 31
0.0
  0
ARC
  5
9D
  8
0
 62
     7
 10
135.53028599999999
 20
114.506252
 30
0.0
 40
28.596684
 50
301.51060200000001
 51
347.76096799999999
  0
ARC
  5
9E
  8
0
 62
     7
 10
163.37314000000001
 20
108.440568
 30
0.0
 40
0.103933
 50
1.9052359999999999
 51
77.067954999999998
  0
ARC
  5
9F
  8
0
 62
     7
 10
163.454205
 20
110.51654499999999
 30
0.0
 40
1.9755269999999989
 50
194.170785
 51
268.32326499999999
  0
ARC
  5
A0
  8
0
 62
     7
 10
161.45489900000001
 20
109.97517499999999
 30
0.0
 40
0.101841
 50
34.536028000000002
 51
89.318984999999998
  0
ARC
  5
A1
  8
0
 62
     7
 10
73.122268999999974
 20
179.04773899999989
 30
0.0
 40
4.6000940000000003
 50
0.002155
 51
90.002126000000004
  0
ARC
  5
A2
  8
0
 62
     7
 10
73.121926000000002
 20
179.04773899999989
 30
0.0
 40
4.6000940000000003
 50
89.997854000000004
 51
179.99782500000001
  0
ARC
  5
A3
  8
0
 62
     7
 10
73.122010000000003
 20
179.04799700000001
 30
0.0
 40
4.6001779999999988
 50
180.00108299999999
 51
270.00109300000003
  0
ARC
  5
A4
  8
0
 62
     7
 10
73.122182999999993
 20
179.047999
 30
0.0
 40
4.600179999999999
 50
269.9989470000001
 51
359.99891700000001
  0
ARC
  5
A5
  8
0
 62
     7
 10
73.122092000000009
 20
179.04790700000001
 30
0.0
 40
27.000077999999998
 50
0.00001
 51
89.999980000000008
  0
ARC
  5
A6
  8
0
 62
     7
 10
73.122101999999984
 20
179.04790700000001
 30
0.0
 40
27.000077999999998
 50
90.0
 51
179.99996999999999
  0
ARC
  5
A7
  8
0
 62
     7
 10
73.122179000000003
 20
179.047821
 30
0.0
 40
27.000153999999998
 50
179.999787
 51
269.99983700000001
  0
ARC
  5
A8
  8
0
 62
     7
 10
73.122005999999999
 20
179.04783
 30
0.0
 40
27.000164000000002
 50
270.000203
 51
0.000173
  0
LINE
  5
A9
  8
_________2
 62
     7
 10
183.55099999999999
 20
-4.0910799999999998
 30
0.0
 11
17.049499999999998
 21
-4.0910799999999998
 31
0.0
  0
LINE
  5
AA
  8
_________2
 62
     7
 10
17.049499999999998
 20
-4.0910799999999998
 30
0.0
 11
17.049499999999998
 21
258.911
 31
0.0
  0
LINE
  5
AB
  8
_________2
 62
     7
 10
17.049499999999998
 20
258.911
 30
0.0
 11
183.55099999999999
 21
258.911
 31
0.0
  0
LINE
  5
AC
  8
_________2
 62
     7
 10
183.55099999999999
 20
258.911
 30
0.0
 11
183.55099999999999
 21
-4.0910799999999998
 31
0.0
  0
LINE
  5
AD
  8
_________2
 62
     7
 10
137.25200000000001
 20
258.911
 30
0.0
 11
137.25200000000001
 21
230.911
 31
0.0
  0
LINE
  5
AE
  8
_________2
 62
     7
 10
160.42699999999999
 20
258.911
 30
0.0
 11
160.42699999999999
 21
230.911
 31
0.0
  0
TEXT
  5
AF
  8
_________2
 62
     7
 10
163.8849203333333
 20
233.06200000000001
 30
0.0
 40
3.3734599999999988
  1
グレービードロ釉
 41
0.5
 72
     1
 11
171.92500000000001
 21
233.06200000000001
 31
0.0
  0
TEXT
  5
B0
  8
_________2
 62
     7
 10
141.28771499999999
 20
233.06200000000001
 30
0.0
 40
3.3734599999999988
  1
CEV500-GV
 41
0.5
 72
     1
 11
148.87799999999999
 21
233.06200000000001
 31
0.0
  0
LINE
  5
B1
  8
_________2
 62
     7
 10
137.25200000000001
 20
230.911
 30
0.0
 11
183.55099999999999
 21
230.911
 31
0.0
  0
TEXT
  5
B2
  8
_________2
 62
     7
 10
167.08970733333331
 20
240.06200000000001
 30
0.0
 40
3.3734599999999988
  1
黒マット釉
 41
0.5
 72
     1
 11
171.92500000000001
 21
240.06200000000001
 31
0.0
  0
TEXT
  5
B3
  8
_________2
 62
     7
 10
166.9772586666667
 20
247.06200000000001
 30
0.0
 40
3.3734599999999988
  1
白マット釉
 41
0.5
 72
     1
 11
171.92500000000001
 21
247.06200000000001
 31
0.0
  0
TEXT
  5
B4
  8
_________2
 62
     7
 10
167.59572633333329
 20
254.06200000000001
 30
0.0
 40
3.3734599999999988
  1
色（仕上）
 41
0.5
 72
     1
 11
171.92500000000001
 21
254.06200000000001
 31
0.0
  0
TEXT
  5
B5
  8
_________2
 62
     7
 10
141.56883666666661
 20
240.06200000000001
 30
0.0
 40
3.3734599999999988
  1
CEV500-BM
 41
0.5
 72
     1
 11
148.87799999999999
 21
240.06200000000001
 31
0.0
  0
TEXT
  5
B6
  8
_________2
 62
     7
 10
141.28771499999999
 20
247.06200000000001
 30
0.0
 40
3.3734599999999988
  1
CEV500-WM
 41
0.5
 72
     1
 11
148.87799999999999
 21
247.06200000000001
 31
0.0
  0
TEXT
  5
B7
  8
_________2
 62
     7
 10
147.07882133333331
 20
254.06200000000001
 30
0.0
 40
3.3734599999999988
  1
品番
 41
0.5
 72
     1
 11
148.87799999999999
 21
254.06200000000001
 31
0.0
  0
LINE
  5
B8
  8
_________2
 62
     7
 10
137.25200000000001
 20
237.911
 30
0.0
 11
183.55099999999999
 21
237.911
 31
0.0
  0
LINE
  5
B9
  8
_________2
 62
     7
 10
137.25200000000001
 20
244.911
 30
0.0
 11
183.55099999999999
 21
244.911
 31
0.0
  0
LINE
  5
BA
  8
_________2
 62
     7
 10
137.25200000000001
 20
251.911
 30
0.0
 11
183.55099999999999
 21
251.911
 31
0.0
  0
LINE
  5
BB
  8
_________2
 62
     7
 10
205.30099999999999
 20
127.411
 30
0.0
 11
183.55000000000001
 21
127.411
 31
0.0
  0
LINE
  5
BC
  8
_________2
 62
     7
 10
100.3
 20
-4.0907299999999998
 30
0.0
 11
100.3
 21
-21.071000000000002
 31
0.0
  0
LINE
  5
BD
  8
_________2
 62
     7
 10
100.3
 20
275.93099999999998
 30
0.0
 11
100.3
 21
258.911
 31
0.0
  0
LINE
  5
BE
  8
_________2
 62
     7
 10
17.049399999999999
 20
127.411
 30
0.0
 11
-4.7006899999999989
 21
127.411
 31
0.0
  0
LINE
  5
BF
  8
_________2
 62
     7
 10
76.741
 20
29.805099999999999
 30
0.0
 11
74.554599999999994
 21
29.805099999999999
 31
0.0
  0
LINE
  5
C0
  8
_________2
 62
     7
 10
77.233699999999999
 20
29.805099999999999
 30
0.0
 11
76.981499999999997
 21
29.805099999999999
 31
0.0
  0
LINE
  5
C1
  8
_________2
 62
     7
 10
77.726200000000006
 20
29.805099999999999
 30
0.0
 11
80.651200000000003
 21
29.805099999999999
 31
0.0
  0
LINE
  5
C2
  8
_________2
 62
     7
 10
77.233699999999999
 20
29.805099999999999
 30
0.0
 11
77.485500000000002
 21
29.805099999999999
 31
0.0
  0
LINE
  5
C3
  8
_________2
 62
     7
 10
70.837100000000007
 20
29.805099999999999
 30
0.0
 11
68.650300000000001
 21
29.805099999999999
 31
0.0
  0
LINE
  5
C4
  8
_________2
 62
     7
 10
71.329599999999999
 20
29.805099999999999
 30
0.0
 11
71.077600000000004
 21
29.805099999999999
 31
0.0
  0
LINE
  5
C5
  8
_________2
 62
     7
 10
71.329599999999999
 20
30.2974
 30
0.0
 11
71.329599999999999
 21
32.484400000000001
 31
0.0
  0
LINE
  5
C6
  8
_________2
 62
     7
 10
71.329599999999999
 20
29.805099999999999
 30
0.0
 11
71.329599999999999
 21
30.057300000000001
 31
0.0
  0
LINE
  5
C7
  8
_________2
 62
     7
 10
71.822299999999998
 20
29.805099999999999
 30
0.0
 11
74.008899999999997
 21
29.805099999999999
 31
0.0
  0
LINE
  5
C8
  8
_________2
 62
     7
 10
71.329599999999999
 20
29.805099999999999
 30
0.0
 11
71.581800000000001
 21
29.805099999999999
 31
0.0
  0
LINE
  5
C9
  8
_________2
 62
     7
 10
71.329599999999999
 20
29.312799999999999
 30
0.0
 11
71.329599999999999
 21
27.125800000000002
 31
0.0
  0
LINE
  5
CA
  8
_________2
 62
     7
 10
71.329599999999999
 20
29.805099999999999
 30
0.0
 11
71.329599999999999
 21
29.5532
 31
0.0
  0
LINE
  5
CB
  8
_________2
 62
     7
 10
75.040700000000001
 20
28.5855
 30
0.0
 11
80.218299999999985
 21
27.720400000000001
 31
0.0
  0
LINE
  5
CC
  8
_________2
 62
     7
 10
75.040700000000001
 20
31.024699999999999
 30
0.0
 11
80.218299999999985
 21
31.889700000000001
 31
0.0
  0
LINE
  5
CD
  8
_________2
 62
     7
 10
80.218299999999985
 20
27.720400000000001
 30
0.0
 11
80.218299999999985
 21
31.889700000000001
 31
0.0
  0
LINE
  5
CE
  8
_________2
 62
     7
 10
75.040700000000001
 20
28.5855
 30
0.0
 11
75.040700000000001
 21
31.024699999999999
 31
0.0
  0
ARC
  5
CF
  8
_________2
 62
     7
 10
71.329689000000002
 20
29.805001000000001
 30
0.0
 40
1.219657999999999
 50
0.004056
 51
90.004025999999996
  0
ARC
  5
D0
  8
_________2
 62
     7
 10
71.32951700000001
 20
29.805001000000001
 30
0.0
 40
1.219657999999999
 50
89.995953999999998
 51
179.995924
  0
ARC
  5
D1
  8
_________2
 62
     7
 10
71.329515999999998
 20
29.805173
 30
0.0
 40
1.2196569999999991
 50
180.00405599999999
 51
270.00406600000002
  0
ARC
  5
D2
  8
_________2
 62
     7
 10
71.329689000000002
 20
29.805174000000001
 30
0.0
 40
1.219657999999999
 50
269.9959740000001
 51
359.99594400000001
  0
ARC
  5
D3
  8
_________2
 62
     7
 10
71.329602000000008
 20
29.805087
 30
0.0
 40
2.0846409999999991
 50
0.00001
 51
89.999980000000008
  0
ARC
  5
D4
  8
_________2
 62
     7
 10
71.32951700000001
 20
29.805001000000001
 30
0.0
 40
2.0847269999999991
 50
89.997632999999993
 51
179.997603
  0
ARC
  5
D5
  8
_________2
 62
     7
 10
71.409450000000007
 20
29.885114000000002
 30
0.0
 40
2.1661389999999989
 50
182.11724599999999
 51
267.887518
  0
ARC
  5
D6
  8
_________2
 62
     7
 10
71.249597999999992
 20
29.885092
 30
0.0
 40
2.1661229999999989
 50
272.11667999999997
 51
357.88333
  0
TEXT
  5
D7
  8
_________2
 62
     7
 10
104.605
 20
1.6794899999999999
 30
0.0
 40
3.0923400000000001
  1
図番
 41
0.5
  0
LINE
  5
D8
  8
_________2
 62
     7
 10
103.55
 20
5.9087199999999989
 30
0.0
 11
183.55099999999999
 21
5.9087199999999989
 31
0.0
  0
TEXT
  5
D9
  8
_________2
 62
     7
 10
104.605
 20
11.679600000000001
 30
0.0
 40
3.0923400000000001
  1
品番
 41
0.5
  0
TEXT
  5
DA
  8
_________2
 62
     7
 10
104.605
 20
31.818100000000001
 30
0.0
 40
3.0923400000000001
  1
名称
 41
0.5
  0
TEXT
  5
DB
  8
_________2
 62
     7
 10
91.845258333333334
 20
26.821999999999999
 30
0.0
 40
3.6545800000000002
  1
mm
 41
0.5
 72
     1
 11
93.367999999999995
 21
26.821999999999999
 31
0.0
  0
TEXT
  5
DC
  8
_________2
 62
     7
 10
85.642999999999986
 20
31.818100000000001
 30
0.0
 40
3.0923400000000001
  1
単位
 41
0.5
  0
TEXT
  5
DD
  8
_________2
 62
     7
 10
85.642999999999986
 20
19.411200000000001
 30
0.0
 40
3.0923400000000001
  1
尺度
 41
0.5
  0
TEXT
  5
DE
  8
_________2
 62
     7
 10
90.548758666666686
 20
13.2182
 30
0.0
 40
3.6545800000000002
  1
1 ： 5
 41
0.5
 72
     1
 11
93.959699999999998
 21
13.2182
 31
0.0
  0
TEXT
  5
DF
  8
_________2
 62
     7
 10
136.66252499999999
 20
9.1078600000000005
 30
0.0
 40
3.9357000000000002
  1
図中の表参照
 41
0.5
 72
     1
 11
143.55000000000001
 21
9.1078600000000005
 31
0.0
  0
TEXT
  5
E0
  8
_________2
 62
     7
 10
137.974425
 20
-0.892285
 30
0.0
 40
3.9357000000000002
  1
CEV500
 41
0.5
 72
     1
 11
143.55000000000001
 21
-0.892285
 31
0.0
  0
TEXT
  5
E1
  8
_________2
 62
     7
 10
24.5869
 20
0.707627
 30
0.0
 40
3.9357000000000002
  1
重量：3.0kg、オーバーフローなし
 41
0.5
  0
TEXT
  5
E2
  8
_________2
 62
     7
 10
109.179
 20
24.226099999999999
 30
0.0
 40
3.9357000000000002
  1
ベルニカ　手洗器
 41
0.5
  0
TEXT
  5
E3
  8
_________2
 62
     7
 10
39.364190666666673
 20
13.603
 30
0.0
 40
3.6545800000000002
  1
篠崎
 41
0.5
 72
     1
 11
41.313299999999998
 21
13.603
 31
0.0
  0
TEXT
  5
E4
  8
_________2
 62
     7
 10
20.790090666666671
 20
13.603
 30
0.0
 40
3.6545800000000002
  1
飯塚
 41
0.5
 72
     1
 11
22.7392
 21
13.603
 31
0.0
  0
TEXT
  5
E5
  8
_________2
 62
     7
 10
67.785399999999996
 20
13.2182
 30
0.0
 40
3.6545800000000002
  1
16.08.04
 41
0.5
  0
TEXT
  5
E6
  8
_________2
 62
     7
 10
66.5929
 20
19.411200000000001
 30
0.0
 40
3.0923400000000001
  1
日付
 41
0.5
  0
TEXT
  5
E7
  8
_________2
 62
     7
 10
29.639199999999999
 20
19.411200000000001
 30
0.0
 40
3.0923400000000001
  1
検図
 41
0.5
  0
TEXT
  5
E8
  8
_________2
 62
     7
 10
18.0212
 20
5.2117699999999987
 30
0.0
 40
3.0923400000000001
  1
備考
 41
0.5
  0
TEXT
  5
E9
  8
_________2
 62
     7
 10
18.0212
 20
19.411200000000001
 30
0.0
 40
3.0923400000000001
  1
製図
 41
0.5
  0
TEXT
  5
EA
  8
_________2
 62
     7
 10
23.788465333333338
 20
27.936800000000002
 30
0.0
 40
4.4979399999999989
  1
セラトレーディング株式会社
 41
0.5
 72
     1
 11
41.180500000000002
 21
27.936800000000002
 31
0.0
  0
LINE
  5
EB
  8
_________2
 62
     7
 10
183.55099999999999
 20
-4.0910799999999998
 30
0.0
 11
17.049399999999999
 21
-4.0910799999999998
 31
0.0
  0
LINE
  5
EC
  8
_________2
 62
     7
 10
17.049399999999999
 20
-4.0910799999999998
 30
0.0
 11
17.049399999999999
 21
258.911
 31
0.0
  0
LINE
  5
ED
  8
_________2
 62
     7
 10
17.049399999999999
 20
258.911
 30
0.0
 11
183.55099999999999
 21
258.911
 31
0.0
  0
LINE
  5
EE
  8
_________2
 62
     7
 10
183.55099999999999
 20
258.911
 30
0.0
 11
183.55099999999999
 21
-4.0910799999999998
 31
0.0
  0
LINE
  5
EF
  8
_________2
 62
     7
 10
65.549599999999998
 20
9.4092999999999982
 30
0.0
 11
65.549599999999998
 21
35.909100000000002
 31
0.0
  0
LINE
  5
F0
  8
_________2
 62
     7
 10
84.549700000000016
 20
9.4092999999999982
 30
0.0
 11
84.549700000000016
 21
35.909100000000002
 31
0.0
  0
LINE
  5
F1
  8
_________2
 62
     7
 10
103.55
 20
-4.0910799999999998
 30
0.0
 11
103.55
 21
35.909100000000002
 31
0.0
  0
LINE
  5
F2
  8
_________2
 62
     7
 10
28.549499999999998
 20
9.4092999999999982
 30
0.0
 11
28.549499999999998
 21
23.409199999999998
 31
0.0
  0
LINE
  5
F3
  8
_________2
 62
     7
 10
17.049399999999999
 20
9.4092999999999982
 30
0.0
 11
103.55
 21
9.4092999999999982
 31
0.0
  0
LINE
  5
F4
  8
_________2
 62
     7
 10
17.049399999999999
 20
23.409199999999998
 30
0.0
 11
103.55
 21
23.409199999999998
 31
0.0
  0
LINE
  5
F5
  8
_________2
 62
     7
 10
103.55
 20
15.908899999999999
 30
0.0
 11
183.55099999999999
 21
15.908899999999999
 31
0.0
  0
LINE
  5
F6
  8
_________2
 62
     7
 10
17.049399999999999
 20
35.909100000000002
 30
0.0
 11
183.55099999999999
 21
35.909100000000002
 31
0.0
  0
ENDSEC
  0
EOF
