  0
SECTION
  2
HEADER
  9
$ACADVER
  1
AC1009
  9
$INSBASE
 10
0.0
 20
0.0
 30
0.0
  9
$EXTMIN
 10
-4.7006899999999989
 20
-21.071000000000002
 30
0.0
  9
$EXTMAX
 10
205.30099999999999
 20
275.93099999999998
 30
0.0
  9
$LIMMIN
 10
0.0
 20
0.0
  9
$LIMMAX
 10
12.0
 20
9.0
  9
$ORTHOMODE
 70
     0
  9
$REGENMODE
 70
     1
  9
$FILLMODE
 70
     1
  9
$QTEXTMODE
 70
     0
  9
$MIRRTEXT
 70
     1
  9
$DRAGMODE
 70
     2
  9
$LTSCALE
 40
1.0
  9
$OSMODE
 70
    37
  9
$ATTMODE
 70
     1
  9
$TEXTSIZE
 40
0.0
  9
$TRACEWID
 40
0.05
  9
$TEXTSTYLE
  7
STANDARD
  9
$CLAYER
  8
0
  9
$CELTYPE
  6
CONTINUOUS
  9
$CECOLOR
 62
   256
  9
$DIMSCALE
 40
1.0
  9
$DIMASZ
 40
0.18
  9
$DIMEXO
 40
0.0625
  9
$DIMDLI
 40
0.38
  9
$DIMRND
 40
0.0
  9
$DIMDLE
 40
0.0
  9
$DIMEXE
 40
0.18
  9
$DIMTP
 40
0.0
  9
$DIMTM
 40
0.0
  9
$DIMTXT
 40
0.18
  9
$DIMCEN
 40
0.09
  9
$DIMTSZ
 40
0.0
  9
$DIMTOL
 70
     0
  9
$DIMLIM
 70
     0
  9
$DIMTIH
 70
     1
  9
$DIMTOH
 70
     1
  9
$DIMSE1
 70
     0
  9
$DIMSE2
 70
     0
  9
$DIMTAD
 70
     0
  9
$DIMZIN
 70
     0
  9
$DIMBLK
  1

  9
$DIMASO
 70
     1
  9
$DIMSHO
 70
     1
  9
$DIMPOST
  1

  9
$DIMAPOST
  1

  9
$DIMALT
 70
     0
  9
$DIMALTD
 70
     2
  9
$DIMALTF
 40
25.399999999999999
  9
$DIMLFAC
 40
1.0
  9
$DIMTOFL
 70
     0
  9
$DIMTVP
 40
0.0
  9
$DIMTIX
 70
     0
  9
$DIMSOXD
 70
     0
  9
$DIMSAH
 70
     0
  9
$DIMBLK1
  1

  9
$DIMBLK2
  1

  9
$DIMSTYLE
  2
STANDARD
  9
$DIMCLRD
 70
     0
  9
$DIMCLRE
 70
     0
  9
$DIMCLRT
 70
     0
  9
$DIMTFAC
 40
1.0
  9
$DIMGAP
 40
0.09
  9
$LUNITS
 70
     2
  9
$LUPREC
 70
     4
  9
$SKETCHINC
 40
0.1
  9
$FILLETRAD
 40
0.0
  9
$AUNITS
 70
     0
  9
$AUPREC
 70
     0
  9
$MENU
  1
.
  9
$ELEVATION
 40
0.0
  9
$PELEVATION
 40
0.0
  9
$THICKNESS
 40
0.0
  9
$LIMCHECK
 70
     0
  9
$BLIPMODE
 70
     0
  9
$CHAMFERA
 40
0.0
  9
$CHAMFERB
 40
0.0
  9
$SKPOLY
 70
     0
  9
$TDCREATE
 40
2444972.375
  9
$TDUPDATE
 40
2457675.2497178479
  9
$TDINDWG
 40
0.0000263079
  9
$TDUSRTIMER
 40
0.0000263079
  9
$USRTIMER
 70
     1
  9
$ANGBASE
 50
0.0
  9
$ANGDIR
 70
     0
  9
$PDMODE
 70
     0
  9
$PDSIZE
 40
0.0
  9
$PLINEWID
 40
0.0
  9
$COORDS
 70
     1
  9
$SPLFRAME
 70
     0
  9
$SPLINETYPE
 70
     6
  9
$SPLINESEGS
 70
     8
  9
$ATTDIA
 70
     1
  9
$ATTREQ
 70
     1
  9
$HANDLING
 70
     1
  9
$HANDSEED
  5
1AB
  9
$SURFTAB1
 70
     6
  9
$SURFTAB2
 70
     6
  9
$SURFTYPE
 70
     6
  9
$SURFU
 70
     6
  9
$SURFV
 70
     6
  9
$UCSNAME
  2

  9
$UCSORG
 10
0.0
 20
0.0
 30
0.0
  9
$UCSXDIR
 10
1.0
 20
0.0
 30
0.0
  9
$UCSYDIR
 10
0.0
 20
1.0
 30
0.0
  9
$PUCSNAME
  2

  9
$PUCSORG
 10
0.0
 20
0.0
 30
0.0
  9
$PUCSXDIR
 10
1.0
 20
0.0
 30
0.0
  9
$PUCSYDIR
 10
0.0
 20
1.0
 30
0.0
  9
$USERI1
 70
     0
  9
$USERI2
 70
     0
  9
$USERI3
 70
     0
  9
$USERI4
 70
     0
  9
$USERI5
 70
     0
  9
$USERR1
 40
0.0
  9
$USERR2
 40
0.0
  9
$USERR3
 40
0.0
  9
$USERR4
 40
0.0
  9
$USERR5
 40
0.0
  9
$WORLDVIEW
 70
     1
  9
$SHADEDGE
 70
     3
  9
$SHADEDIF
 70
    70
  9
$TILEMODE
 70
     1
  9
$MAXACTVP
 70
    48
  9
$PLIMCHECK
 70
     0
  9
$PEXTMIN
 10
1.0000000000000000E+020
 20
1.0000000000000000E+020
 30
1.0000000000000000E+020
  9
$PEXTMAX
 10
-1.0000000000000000E+020
 20
-1.0000000000000000E+020
 30
-1.0000000000000000E+020
  9
$PLIMMIN
 10
0.0
 20
0.0
  9
$PLIMMAX
 10
12.0
 20
9.0
  9
$UNITMODE
 70
     0
  9
$VISRETAIN
 70
     1
  9
$PLINEGEN
 70
     0
  9
$PSLTSCALE
 70
     1
  0
ENDSEC
  0
SECTION
  2
TABLES
  0
TABLE
  2
VPORT
 70
     1
  0
VPORT
  2
*ACTIVE
 70
     0
 10
0.0
 20
0.0
 11
1.0
 21
1.0
 12
173.05876873675899
 22
127.42999999999989
 13
0.0
 23
0.0
 14
1.0
 24
1.0
 15
0.0
 25
0.0
 16
0.0
 26
0.0
 36
1.0
 17
0.0
 27
0.0
 37
0.0
 40
289.64129411868203
 41
2.1063583815028899
 42
50.0
 43
0.0
 44
0.0
 50
0.0
 51
0.0
 71
     0
 72
   100
 73
     1
 74
     1
 75
     0
 76
     0
 77
     0
 78
     0
  0
ENDTAB
  0
TABLE
  2
LTYPE
 70
     3
  0
LTYPE
  2
CONTINUOUS
 70
     0
  3
Solid line
 72
    65
 73
     0
 40
0.0
  0
LTYPE
  2
AIGENLINE001
 70
     0
  3
generate AI->DXF Converter
 72
    65
 73
     4
 40
5.8561449999999988
 49
3.5278
 49
-0.776115
 49
0.776115
 49
-0.776115
  0
LTYPE
  2
AIGENLINE002
 70
     0
  3
generate AI->DXF Converter
 72
    65
 73
     2
 40
1.5522299999999991
 49
0.776115
 49
-0.776115
  0
ENDTAB
  0
TABLE
  2
LAYER
 70
     2
  0
LAYER
  2
0
 70
     0
 62
     7
  6
CONTINUOUS
  0
LAYER
  2
_________2
 70
     0
 62
     7
  6
CONTINUOUS
  0
ENDTAB
  0
TABLE
  2
STYLE
 70
     1
  0
STYLE
  2
STANDARD
 70
     0
 40
0.0
 41
0.0
 50
0.0
 71
     0
 42
0.0
  3
TXT
  4
EXTFONT.SHX
  0
ENDTAB
  0
TABLE
  2
VIEW
 70
     0
  0
ENDTAB
  0
TABLE
  2
UCS
 70
     0
  0
ENDTAB
  0
TABLE
  2
APPID
 70
     3
  0
APPID
  2
ACAD
 70
     0
  0
APPID
  2
ACAD_NAV_VCDISPLAY
 70
     0
  0
APPID
  2
ACAD_MLEADERVER
 70
     0
  0
ENDTAB
  0
TABLE
  2
DIMSTYLE
 70
     1
  0
DIMSTYLE
  2
STANDARD
 70
     0
  3

  4

  5

  6

  7

 40
1.0
 41
0.18
 42
0.0625
 43
0.38
 44
0.18
 45
0.0
 46
0.0
 47
0.0
 48
0.0
140
0.18
141
0.09
142
0.0
143
25.399999999999999
144
1.0
145
0.0
146
1.0
147
0.09
 71
     0
 72
     0
 73
     1
 74
     1
 75
     0
 76
     0
 77
     0
 78
     0
170
     0
171
     2
172
     0
173
     0
174
     0
175
     0
176
     0
177
     0
178
     0
  0
ENDTAB
  0
ENDSEC
  0
SECTION
  2
BLOCKS
  0
BLOCK
  8
0
  2
$MODEL_SPACE
 70
     0
 10
0.0
 20
0.0
 30
0.0
  3
$MODEL_SPACE
  1

  0
ENDBLK
  5
1A
  8
0
  0
BLOCK
 67
     1
  8
0
  2
$PAPER_SPACE
 70
     0
 10
0.0
 20
0.0
 30
0.0
  3
$PAPER_SPACE
  1

  0
ENDBLK
  5
17
 67
     1
  8
0
  0
ENDSEC
  0
SECTION
  2
ENTITIES
  0
TEXT
  5
23
  8
0
 62
     7
 10
76.161879999999996
 20
185.047
 30
0.0
 40
3.0923400000000001
  1
%%c46
 41
0.5
 72
     2
 11
80.284999999999997
 21
185.047
 31
0.0
  0
TEXT
  5
24
  8
0
 62
     7
 10
156.75488000000001
 20
187.03999999999999
 30
0.0
 40
3.0923400000000001
  1
%%c85
 41
0.5
 72
     2
 11
160.87799999999999
 21
187.03999999999999
 31
0.0
  0
TEXT
  5
25
  8
0
 62
     7
 10
136.71776
 20
159.47800000000001
 30
0.0
 40
3.0923400000000001
  1
カウンター切込寸法
 41
0.5
 72
     1
 11
144.964
 21
159.47800000000001
 31
0.0
  0
TEXT
  5
26
  8
0
 62
     7
 10
64.181350000000009
 20
135.97999999999999
 30
0.0
 40
3.0923400000000001
  1
%%c300
 41
0.5
 72
     1
 11
66.758300000000006
 21
135.97999999999999
 31
0.0
  0
TEXT
  5
27
  8
0
 62
     7
 10
64.052502500000003
 20
128.703
 30
0.0
 40
3.0923400000000001
  1
%%c320
 41
0.5
 72
     1
 11
66.758300000000006
 21
128.703
 31
0.0
  0
TEXT
  5
28
  8
0
 62
     7
 10
140.43199999999999
 20
99.980525
 30
0.0
 40
3.0923400000000001
  1
82
 50
90.0
 41
0.5
 72
     1
 11
140.43199999999999
 21
101.26900000000001
 31
0.0
  0
TEXT
  5
29
  8
0
 62
     7
 10
64.181350000000009
 20
79.342100000000002
 30
0.0
 40
3.0923400000000001
  1
%%c175
 41
0.5
 72
     1
 11
66.758300000000006
 21
79.342100000000002
 31
0.0
  0
TEXT
  5
2A
  8
0
 62
     7
 10
27.0259
 20
97.977429999999998
 30
0.0
 40
3.0923400000000001
  1
100
 50
90.0
 41
0.5
 72
     1
 11
27.0259
 21
99.523600000000002
 31
0.0
  0
LINE
  5
2B
  8
0
 62
     7
 10
68.971400000000003
 20
179.44800000000001
 30
0.0
 11
70.288300000000007
 21
181.31899999999999
 31
0.0
  0
LINE
  5
2C
  8
0
 62
     7
 10
70.288300000000007
 20
181.31899999999999
 30
0.0
 11
68.212100000000007
 21
180.357
 31
0.0
  0
LINE
  5
2D
  8
0
 62
     7
 10
68.212100000000007
 20
180.357
 30
0.0
 11
68.971400000000003
 21
179.44800000000001
 31
0.0
  0
LINE
  5
2E
  8
0
 62
     7
 10
64.544799999999995
 20
177.29400000000001
 30
0.0
 11
63.227899999999998
 21
175.422
 31
0.0
  0
LINE
  5
2F
  8
0
 62
     7
 10
63.227899999999998
 20
175.422
 30
0.0
 11
65.304100000000005
 21
176.38399999999999
 31
0.0
  0
LINE
  5
30
  8
0
 62
     7
 10
65.304100000000005
 20
176.38399999999999
 30
0.0
 11
64.544799999999995
 21
177.29400000000001
 31
0.0
  0
LINE
  5
31
  8
0
 62
     7
 10
63.227899999999998
 20
175.422
 30
0.0
 11
73.912800000000004
 21
184.34700000000001
 31
0.0
  0
LINE
  5
32
  8
0
 62
     7
 10
73.912800000000004
 20
184.34700000000001
 30
0.0
 11
80.284999999999997
 21
184.34700000000001
 31
0.0
  0
LINE
  5
33
  8
0
  6
AIGENLINE001
 62
     7
 10
27.8934
 20
178.37100000000001
 30
0.0
 11
105.623
 21
178.37100000000001
 31
0.0
  0
LINE
  5
34
  8
0
  6
AIGENLINE001
 62
     7
 10
66.758300000000006
 20
215.648
 30
0.0
 11
66.758300000000006
 21
141.572
 31
0.0
  0
ARC
  5
35
  8
0
 62
     7
 10
66.758274999999998
 20
178.37094500000001
 30
0.0
 40
6.7999739999999997
 50
0.00001
 51
89.999980000000008
  0
ARC
  5
36
  8
0
 62
     7
 10
66.758105
 20
178.37077300000001
 30
0.0
 40
6.8001459999999998
 50
89.998548999999997
 51
179.99851899999999
  0
ARC
  5
37
  8
0
 62
     7
 10
66.758189000000002
 20
178.37103099999999
 30
0.0
 40
6.8002299999999991
 50
180.00073599999999
 51
270.00074599999999
  0
ARC
  5
38
  8
0
 62
     7
 10
66.758189000000002
 20
178.37086099999999
 30
0.0
 40
6.8000600000000002
 50
270.00074599999999
 51
0.000716
  0
ARC
  5
39
  8
0
 62
     7
 10
66.758448000000001
 20
178.37077300000001
 30
0.0
 40
4.6000940000000003
 50
0.002155
 51
90.002126000000004
  0
ARC
  5
3A
  8
0
 62
     7
 10
66.758105
 20
178.37077300000001
 30
0.0
 40
4.6000940000000003
 50
89.997854000000004
 51
179.99782500000001
  0
ARC
  5
3B
  8
0
 62
     7
 10
66.758189999999999
 20
178.37103200000001
 30
0.0
 40
4.6001779999999988
 50
180.00108299999999
 51
270.00109300000003
  0
ARC
  5
3C
  8
0
 62
     7
 10
66.758362000000005
 20
178.37103300000001
 30
0.0
 40
4.600179999999999
 50
269.9989470000001
 51
359.99891700000001
  0
LINE
  5
3D
  8
0
  6
AIGENLINE001
 62
     7
 10
66.758300000000006
 20
113.372
 30
0.0
 11
66.758300000000006
 21
85.8399
 31
0.0
  0
LINE
  5
3E
  8
0
  6
AIGENLINE001
 62
     7
 10
144.964
 20
113.372
 30
0.0
 11
144.964
 21
85.8399
 31
0.0
  0
LINE
  5
3F
  8
0
 62
     7
 10
113.068
 20
107.926
 30
0.0
 11
176.86099999999999
 21
107.926
 31
0.0
  0
ARC
  5
40
  8
0
  6
AIGENLINE002
 62
     7
 10
115.018264
 20
109.338235
 30
0.0
 40
0.101084
 50
47.235675999999998
 51
89.761440000000007
  0
ARC
  5
41
  8
0
 62
     7
 10
141.67378600000001
 20
115.665142
 30
0.0
 40
29.753554000000001
 50
195.29190299999999
 51
241.47349199999999
  0
LINE
  5
42
  8
0
 62
     7
 10
112.974
 20
107.818
 30
0.0
 11
112.973
 21
107.821
 31
0.0
  0
ARC
  5
43
  8
0
 62
     7
 10
113.076684
 20
107.822862
 30
0.0
 40
0.103719
 50
94.769833000000006
 51
180.757891
  0
ARC
  5
44
  8
0
 62
     7
 10
115.02037300000001
 20
109.336619
 30
0.0
 40
0.102712
 50
90.941679000000022
 51
161.60169999999999
  0
ARC
  5
45
  8
0
 62
     7
 10
112.922692
 20
110.02678899999999
 30
0.0
 40
2.1055909999999991
 50
273.95879300000013
 51
341.797079
  0
ARC
  5
46
  8
0
 62
     7
 10
148.25556900000001
 20
115.665142
 30
0.0
 40
29.753554000000001
 50
298.52652799999998
 51
344.70811600000002
  0
ARC
  5
47
  8
0
 62
     7
 10
63.468124000000003
 20
115.666268
 30
0.0
 40
29.754895999999999
 50
195.29344499999999
 51
241.473277
  0
LINE
  5
48
  8
0
 62
     7
 10
115.01900000000001
 20
109.444
 30
0.0
 11
174.91099999999989
 21
109.444
 31
0.0
  0
ARC
  5
49
  8
0
 62
     7
 10
66.758184999999997
 20
178.371027
 30
0.0
 40
30.000171999999999
 50
359.99984499999999
 51
89.99981600000001
  0
ARC
  5
4A
  8
0
 62
     7
 10
66.758281999999994
 20
178.37094099999999
 30
0.0
 40
30.00025900000001
 50
90.0
 51
179.99996999999999
  0
ARC
  5
4B
  8
0
 62
     7
 10
66.758184999999997
 20
178.371027
 30
0.0
 40
30.000162
 50
180.00017399999999
 51
270.00018399999999
  0
ARC
  5
4C
  8
0
 62
     7
 10
66.758270999999993
 20
178.37095199999999
 30
0.0
 40
30.000086
 50
270.00002000000001
 51
359.99999000000003
  0
ARC
  5
4D
  8
0
 62
     7
 10
66.758270999999993
 20
178.37094099999999
 30
0.0
 40
32.000149999999998
 50
0.00001
 51
89.999980000000008
  0
ARC
  5
4E
  8
0
 62
     7
 10
66.758195999999998
 20
178.37085500000001
 30
0.0
 40
32.000236000000001
 50
89.999845999999991
 51
179.99981600000001
  0
ARC
  5
4F
  8
0
 62
     7
 10
66.758270999999993
 20
178.37094099999999
 30
0.0
 40
32.000311000000004
 50
179.99996999999999
 51
270.00002000000001
  0
ARC
  5
50
  8
0
 62
     7
 10
66.758184999999997
 20
178.37086600000001
 30
0.0
 40
32.000236000000001
 50
270.00017400000002
 51
0.000144
  0
LINE
  5
51
  8
0
 62
     7
 10
34.861499999999999
 20
107.926
 30
0.0
 11
66.758300000000006
 21
107.926
 31
0.0
  0
LINE
  5
52
  8
0
 62
     7
 10
36.8123
 20
109.43899999999999
 30
0.0
 11
66.758300000000006
 21
109.43899999999999
 31
0.0
  0
LINE
  5
53
  8
0
 62
     7
 10
66.758300000000006
 20
89.523799999999994
 30
0.0
 11
49.258099999999999
 21
89.523799999999994
 31
0.0
  0
LINE
  5
54
  8
0
 62
     7
 10
34.7669
 20
107.818
 30
0.0
 11
34.766599999999997
 21
107.821
 31
0.0
  0
ARC
  5
55
  8
0
 62
     7
 10
34.870285000000003
 20
107.822875
 30
0.0
 40
0.103721
 50
94.866348000000002
 51
180.7647739999999
  0
ARC
  5
56
  8
0
 62
     7
 10
36.813979000000003
 20
109.336848
 30
0.0
 40
0.102484
 50
90.947744
 51
161.69405399999999
  0
ARC
  5
57
  8
0
 62
     7
 10
34.716096999999998
 20
110.027293
 30
0.0
 40
2.1060959999999991
 50
273.95841799999999
 51
341.78714100000002
  0
LINE
  5
58
  8
0
 62
     7
 10
98.654900000000012
 20
107.926
 30
0.0
 11
66.758300000000006
 21
107.926
 31
0.0
  0
LINE
  5
59
  8
0
 62
     7
 10
96.704099999999997
 20
109.43899999999999
 30
0.0
 11
66.758300000000006
 21
109.43899999999999
 31
0.0
  0
LINE
  5
5A
  8
0
 62
     7
 10
66.758300000000006
 20
89.523799999999994
 30
0.0
 11
84.258300000000006
 21
89.523799999999994
 31
0.0
  0
LINE
  5
5B
  8
0
 62
     7
 10
98.654900000000012
 20
107.926
 30
0.0
 11
98.658500000000004
 21
107.926
 31
0.0
  0
ARC
  5
5C
  8
0
 62
     7
 10
98.645751000000004
 20
107.82300499999999
 30
0.0
 40
0.104003
 50
357.26684599999999
 51
82.951814999999996
  0
ARC
  5
5D
  8
0
 62
     7
 10
96.702213000000015
 20
109.336591
 30
0.0
 40
0.102744
 50
18.408812000000001
 51
88.949349999999995
  0
ARC
  5
5E
  8
0
 62
     7
 10
98.799902000000003
 20
110.026803
 30
0.0
 40
2.1055799999999989
 50
198.20343799999989
 51
266.05104299999999
  0
ARC
  5
5F
  8
0
 62
     7
 10
70.047732999999994
 20
115.66695300000001
 30
0.0
 40
29.755748000000001
 50
298.52699899999999
 51
344.70565599999998
  0
LINE
  5
60
  8
0
 62
     7
 10
162.465
 20
89.523799999999994
 30
0.0
 11
127.465
 21
89.523799999999994
 31
0.0
  0
LINE
  5
61
  8
0
 62
     7
 10
176.86099999999999
 20
107.926
 30
0.0
 11
176.86500000000001
 21
107.926
 31
0.0
  0
ARC
  5
62
  8
0
 62
     7
 10
176.85207500000001
 20
107.823251
 30
0.0
 40
0.103747
 50
357.12411800000001
 51
82.987724999999998
  0
ARC
  5
63
  8
0
 62
     7
 10
174.908829
 20
109.33641
 30
0.0
 40
0.102924
 50
18.481635000000001
 51
88.974945999999989
  0
ARC
  5
64
  8
0
 62
     7
 10
177.00449800000001
 20
110.024005
 30
0.0
 40
2.102665
 50
198.14931000000001
 51
266.09485799999999
  0
ARC
  5
65
  8
0
  6
AIGENLINE002
 62
     7
 10
174.91136499999999
 20
109.33754
 30
0.0
 40
0.10178
 50
90.391015999999993
 51
132.611828
  0
LINE
  5
66
  8
0
  6
AIGENLINE002
 62
     7
 10
137.75
 20
93.123900000000006
 30
0.0
 11
152.179
 21
93.123900000000006
 31
0.0
  0
ARC
  5
67
  8
0
  6
AIGENLINE002
 62
     7
 10
137.74588899999989
 20
92.113650000000007
 30
0.0
 40
1.010289999999999
 50
45.246171999999987
 51
89.752204000000006
  0
LINE
  5
68
  8
0
  6
AIGENLINE002
 62
     7
 10
137.75
 20
93.123900000000006
 30
0.0
 11
136.39599999999999
 21
93.123900000000006
 31
0.0
  0
LINE
  5
69
  8
0
  6
AIGENLINE002
 62
     7
 10
140.364
 20
90.923899999999989
 30
0.0
 11
138.45699999999999
 21
92.831100000000006
 31
0.0
  0
ARC
  5
6A
  8
0
  6
AIGENLINE002
 62
     7
 10
152.184448
 20
92.109605000000002
 30
0.0
 40
1.01434
 50
90.302201000000011
 51
134.65992800000001
  0
ARC
  5
6B
  8
0
  6
AIGENLINE002
 62
     7
 10
136.989555
 20
114.91266
 30
0.0
 40
21.789085
 50
203.21370300000001
 51
269.672122
  0
ARC
  5
6C
  8
0
  6
AIGENLINE002
 62
     7
 10
108.536598
 20
103.315068
 30
0.0
 40
8.9489920000000005
 50
19.649083000000001
 51
42.949066999999999
  0
LINE
  5
6D
  8
0
  6
AIGENLINE002
 62
     7
 10
152.179
 20
93.123900000000006
 30
0.0
 11
153.53399999999999
 21
93.123900000000006
 31
0.0
  0
LINE
  5
6E
  8
0
  6
AIGENLINE002
 62
     7
 10
149.565
 20
90.923899999999989
 30
0.0
 11
151.471
 21
92.831100000000006
 31
0.0
  0
LINE
  5
6F
  8
0
  6
AIGENLINE002
 62
     7
 10
140.364
 20
90.923899999999989
 30
0.0
 11
149.565
 21
90.923899999999989
 31
0.0
  0
LINE
  5
70
  8
0
  6
AIGENLINE002
 62
     7
 10
140.364
 20
90.923899999999989
 30
0.0
 11
140.364
 21
89.523799999999994
 31
0.0
  0
ARC
  5
71
  8
0
  6
AIGENLINE002
 62
     7
 10
181.388023
 20
103.31794600000001
 30
0.0
 40
8.9435649999999995
 50
137.043745
 51
160.35806500000001
  0
LINE
  5
72
  8
0
  6
AIGENLINE002
 62
     7
 10
149.565
 20
90.923899999999989
 30
0.0
 11
149.565
 21
89.523799999999994
 31
0.0
  0
ARC
  5
73
  8
0
  6
AIGENLINE002
 62
     7
 10
152.93941899999999
 20
114.913235
 30
0.0
 40
21.789663000000001
 50
270.32889299999999
 51
336.78532200000001
  0
LINE
  5
74
  8
0
 62
     7
 10
150.17099999999999
 20
181.94800000000001
 30
0.0
 11
151.488
 21
183.81899999999999
 31
0.0
  0
LINE
  5
75
  8
0
 62
     7
 10
151.488
 20
183.81899999999999
 30
0.0
 11
149.41200000000001
 21
182.857
 31
0.0
  0
LINE
  5
76
  8
0
 62
     7
 10
149.41200000000001
 20
182.857
 30
0.0
 11
150.17099999999999
 21
181.94800000000001
 31
0.0
  0
LINE
  5
77
  8
0
 62
     7
 10
139.75800000000001
 20
174.79400000000001
 30
0.0
 11
138.441
 21
172.922
 31
0.0
  0
LINE
  5
78
  8
0
 62
     7
 10
138.441
 20
172.922
 30
0.0
 11
140.517
 21
173.88499999999999
 31
0.0
  0
LINE
  5
79
  8
0
 62
     7
 10
140.517
 20
173.88499999999999
 30
0.0
 11
139.75800000000001
 21
174.79400000000001
 31
0.0
  0
LINE
  5
7A
  8
0
 62
     7
 10
138.441
 20
172.922
 30
0.0
 11
154.506
 21
186.34
 31
0.0
  0
LINE
  5
7B
  8
0
 62
     7
 10
154.506
 20
186.34
 30
0.0
 11
160.87799999999999
 21
186.34
 31
0.0
  0
LINE
  5
7C
  8
0
  6
AIGENLINE001
 62
     7
 10
144.964
 20
166.50899999999999
 30
0.0
 11
144.964
 21
190.673
 31
0.0
  0
LINE
  5
7D
  8
0
  6
AIGENLINE001
 62
     7
 10
132.601
 20
178.37100000000001
 30
0.0
 11
157.02199999999999
 21
178.37100000000001
 31
0.0
  0
ARC
  5
7E
  8
0
 62
     7
 10
144.96415999999999
 20
178.371117
 30
0.0
 40
8.4999669999999998
 50
359.99884900000001
 51
89.998818999999997
  0
ARC
  5
7F
  8
0
 62
     7
 10
144.964507
 20
178.371117
 30
0.0
 40
8.4999669999999998
 50
90.001160999999996
 51
180.001171
  0
ARC
  5
80
  8
0
 62
     7
 10
144.96441799999999
 20
178.370859
 30
0.0
 40
8.4998780000000007
 50
179.99939000000001
 51
269.999439
  0
ARC
  5
81
  8
0
 62
     7
 10
144.964246
 20
178.37086199999999
 30
0.0
 40
8.4998810000000002
 50
270.00060000000002
 51
0.000571
  0
LINE
  5
82
  8
0
 62
     7
 10
38.968400000000003
 20
135.864
 30
0.0
 11
36.757899999999999
 21
135.27199999999999
 31
0.0
  0
LINE
  5
83
  8
0
 62
     7
 10
36.757899999999999
 20
135.27199999999999
 30
0.0
 11
38.968400000000003
 21
134.68000000000001
 31
0.0
  0
LINE
  5
84
  8
0
 62
     7
 10
38.968400000000003
 20
134.68000000000001
 30
0.0
 11
38.968400000000003
 21
135.864
 31
0.0
  0
LINE
  5
85
  8
0
 62
     7
 10
94.547999999999973
 20
134.69399999999999
 30
0.0
 11
96.758499999999998
 21
135.28700000000001
 31
0.0
  0
LINE
  5
86
  8
0
 62
     7
 10
96.758499999999998
 20
135.28700000000001
 30
0.0
 11
94.547999999999973
 21
135.87899999999999
 31
0.0
  0
LINE
  5
87
  8
0
 62
     7
 10
94.547999999999973
 20
135.87899999999999
 30
0.0
 11
94.547999999999973
 21
134.69399999999999
 31
0.0
  0
LINE
  5
88
  8
0
 62
     7
 10
36.757899999999999
 20
135.279
 30
0.0
 11
96.758499999999998
 21
135.279
 31
0.0
  0
LINE
  5
89
  8
0
 62
     7
 10
96.758200000000016
 20
172.22499999999999
 30
0.0
 11
96.758200000000016
 21
134.58000000000001
 31
0.0
  0
LINE
  5
8A
  8
0
 62
     7
 10
36.757899999999999
 20
172.22499999999999
 30
0.0
 11
36.757899999999999
 21
134.58000000000001
 31
0.0
  0
LINE
  5
8B
  8
0
 62
     7
 10
36.968499999999999
 20
128.58799999999999
 30
0.0
 11
34.758000000000003
 21
127.995
 31
0.0
  0
LINE
  5
8C
  8
0
 62
     7
 10
34.758000000000003
 20
127.995
 30
0.0
 11
36.968499999999999
 21
127.40300000000001
 31
0.0
  0
LINE
  5
8D
  8
0
 62
     7
 10
36.968499999999999
 20
127.40300000000001
 30
0.0
 11
36.968499999999999
 21
128.58799999999999
 31
0.0
  0
LINE
  5
8E
  8
0
 62
     7
 10
96.547899999999998
 20
127.41800000000001
 30
0.0
 11
98.758399999999995
 21
128.00999999999999
 31
0.0
  0
LINE
  5
8F
  8
0
 62
     7
 10
98.758399999999995
 20
128.00999999999999
 30
0.0
 11
96.547899999999998
 21
128.602
 31
0.0
  0
LINE
  5
90
  8
0
 62
     7
 10
96.547899999999998
 20
128.602
 30
0.0
 11
96.547899999999998
 21
127.41800000000001
 31
0.0
  0
LINE
  5
91
  8
0
 62
     7
 10
34.758000000000003
 20
128.00299999999999
 30
0.0
 11
98.758399999999995
 21
128.00299999999999
 31
0.0
  0
LINE
  5
92
  8
0
 62
     7
 10
98.758399999999995
 20
171.453
 30
0.0
 11
98.758399999999995
 21
127.303
 31
0.0
  0
LINE
  5
93
  8
0
 62
     7
 10
34.758000000000003
 20
171.453
 30
0.0
 11
34.758000000000003
 21
127.303
 31
0.0
  0
LINE
  5
94
  8
0
 62
     7
 10
141.71700000000001
 20
107.233
 30
0.0
 11
141.125
 21
109.444
 31
0.0
  0
LINE
  5
95
  8
0
 62
     7
 10
141.125
 20
109.444
 30
0.0
 11
140.53299999999999
 21
107.233
 31
0.0
  0
LINE
  5
96
  8
0
 62
     7
 10
140.53299999999999
 20
107.233
 30
0.0
 11
141.71700000000001
 21
107.233
 31
0.0
  0
LINE
  5
97
  8
0
 62
     7
 10
140.547
 20
95.304000000000002
 30
0.0
 11
141.13999999999999
 21
93.093599999999995
 31
0.0
  0
LINE
  5
98
  8
0
 62
     7
 10
141.13999999999999
 20
93.093599999999995
 30
0.0
 11
141.732
 21
95.304000000000002
 31
0.0
  0
LINE
  5
99
  8
0
 62
     7
 10
141.732
 20
95.304000000000002
 30
0.0
 11
140.547
 21
95.304000000000002
 31
0.0
  0
LINE
  5
9A
  8
0
 62
     7
 10
141.13200000000001
 20
109.444
 30
0.0
 11
141.13200000000001
 21
93.093599999999995
 31
0.0
  0
LINE
  5
9B
  8
0
 62
     7
 10
51.468699999999991
 20
79.227000000000004
 30
0.0
 11
49.258099999999999
 21
78.635099999999994
 31
0.0
  0
LINE
  5
9C
  8
0
 62
     7
 10
49.258099999999999
 20
78.635099999999994
 30
0.0
 11
51.468699999999991
 21
78.042599999999993
 31
0.0
  0
LINE
  5
9D
  8
0
 62
     7
 10
51.468699999999991
 20
78.042599999999993
 30
0.0
 11
51.468699999999991
 21
79.227000000000004
 31
0.0
  0
LINE
  5
9E
  8
0
 62
     7
 10
82.047700000000006
 20
78.057100000000005
 30
0.0
 11
84.258300000000006
 21
78.649600000000007
 31
0.0
  0
LINE
  5
9F
  8
0
 62
     7
 10
84.258300000000006
 20
78.649600000000007
 30
0.0
 11
82.047700000000006
 21
79.241500000000002
 31
0.0
  0
LINE
  5
A0
  8
0
 62
     7
 10
82.047700000000006
 20
79.241500000000002
 30
0.0
 11
82.047700000000006
 21
78.057100000000005
 31
0.0
  0
LINE
  5
A1
  8
0
 62
     7
 10
49.258099999999999
 20
78.641999999999996
 30
0.0
 11
84.258300000000006
 21
78.641999999999996
 31
0.0
  0
LINE
  5
A2
  8
0
 62
     7
 10
84.258300000000006
 20
88.823699999999988
 30
0.0
 11
84.258300000000006
 21
77.941999999999993
 31
0.0
  0
LINE
  5
A3
  8
0
 62
     7
 10
49.258099999999999
 20
88.823699999999988
 30
0.0
 11
49.258099999999999
 21
77.941999999999993
 31
0.0
  0
LINE
  5
A4
  8
0
 62
     7
 10
27.140999999999998
 20
91.733500000000006
 30
0.0
 11
27.7332
 21
89.523099999999999
 31
0.0
  0
LINE
  5
A5
  8
0
 62
     7
 10
27.7332
 20
89.523099999999999
 30
0.0
 11
28.325600000000001
 21
91.733500000000006
 31
0.0
  0
LINE
  5
A6
  8
0
 62
     7
 10
28.325600000000001
 20
91.733500000000006
 30
0.0
 11
27.140999999999998
 21
91.733500000000006
 31
0.0
  0
LINE
  5
A7
  8
0
 62
     7
 10
28.3109
 20
107.313
 30
0.0
 11
27.718699999999998
 21
109.524
 31
0.0
  0
LINE
  5
A8
  8
0
 62
     7
 10
27.718699999999998
 20
109.524
 30
0.0
 11
27.126300000000001
 21
107.313
 31
0.0
  0
LINE
  5
A9
  8
0
 62
     7
 10
27.126300000000001
 20
107.313
 30
0.0
 11
28.3109
 21
107.313
 31
0.0
  0
LINE
  5
AA
  8
0
 62
     7
 10
27.725999999999999
 20
89.523099999999999
 30
0.0
 11
27.725999999999999
 21
109.524
 31
0.0
  0
LINE
  5
AB
  8
0
 62
     7
 10
36.143900000000002
 20
109.524
 30
0.0
 11
27.0259
 21
109.524
 31
0.0
  0
LINE
  5
AC
  8
0
 62
     7
 10
46.750399999999999
 20
89.523099999999999
 30
0.0
 11
27.0259
 21
89.523099999999999
 31
0.0
  0
LINE
  5
AD
  8
_________2
 62
     7
 10
183.55099999999999
 20
-4.0910799999999998
 30
0.0
 11
17.049499999999998
 21
-4.0910799999999998
 31
0.0
  0
LINE
  5
AE
  8
_________2
 62
     7
 10
17.049499999999998
 20
-4.0910799999999998
 30
0.0
 11
17.049499999999998
 21
258.911
 31
0.0
  0
LINE
  5
AF
  8
_________2
 62
     7
 10
17.049499999999998
 20
258.911
 30
0.0
 11
183.55099999999999
 21
258.911
 31
0.0
  0
LINE
  5
B0
  8
_________2
 62
     7
 10
183.55099999999999
 20
258.911
 30
0.0
 11
183.55099999999999
 21
-4.0910799999999998
 31
0.0
  0
LINE
  5
B1
  8
_________2
 62
     7
 10
137.25200000000001
 20
258.911
 30
0.0
 11
137.25200000000001
 21
230.911
 31
0.0
  0
LINE
  5
B2
  8
_________2
 62
     7
 10
160.42699999999999
 20
258.911
 30
0.0
 11
160.42699999999999
 21
230.911
 31
0.0
  0
TEXT
  5
B3
  8
_________2
 62
     7
 10
163.8849203333333
 20
233.06200000000001
 30
0.0
 40
3.3734599999999988
  1
グレービードロ釉
 41
0.5
 72
     1
 11
171.92500000000001
 21
233.06200000000001
 31
0.0
  0
TEXT
  5
B4
  8
_________2
 62
     7
 10
141.42827583333329
 20
233.06200000000001
 30
0.0
 40
3.3734599999999988
  1
CEV510-GV
 41
0.5
 72
     1
 11
148.87799999999999
 21
233.06200000000001
 31
0.0
  0
LINE
  5
B5
  8
_________2
 62
     7
 10
137.25200000000001
 20
230.911
 30
0.0
 11
183.55099999999999
 21
230.911
 31
0.0
  0
TEXT
  5
B6
  8
_________2
 62
     7
 10
167.08970733333331
 20
240.06200000000001
 30
0.0
 40
3.3734599999999988
  1
黒マット釉
 41
0.5
 72
     1
 11
171.92500000000001
 21
240.06200000000001
 31
0.0
  0
TEXT
  5
B7
  8
_________2
 62
     7
 10
166.9772586666667
 20
247.06200000000001
 30
0.0
 40
3.3734599999999988
  1
白マット釉
 41
0.5
 72
     1
 11
171.92500000000001
 21
247.06200000000001
 31
0.0
  0
TEXT
  5
B8
  8
_________2
 62
     7
 10
167.59572633333329
 20
254.06200000000001
 30
0.0
 40
3.3734599999999988
  1
色（仕上）
 41
0.5
 72
     1
 11
171.92500000000001
 21
254.06200000000001
 31
0.0
  0
TEXT
  5
B9
  8
_________2
 62
     7
 10
141.70939749999999
 20
240.06200000000001
 30
0.0
 40
3.3734599999999988
  1
CEV510-BM
 41
0.5
 72
     1
 11
148.87799999999999
 21
240.06200000000001
 31
0.0
  0
TEXT
  5
BA
  8
_________2
 62
     7
 10
141.42827583333329
 20
247.06200000000001
 30
0.0
 40
3.3734599999999988
  1
CEV510-WM
 41
0.5
 72
     1
 11
148.87799999999999
 21
247.06200000000001
 31
0.0
  0
TEXT
  5
BB
  8
_________2
 62
     7
 10
147.07882133333331
 20
254.06200000000001
 30
0.0
 40
3.3734599999999988
  1
品番
 41
0.5
 72
     1
 11
148.87799999999999
 21
254.06200000000001
 31
0.0
  0
LINE
  5
BC
  8
_________2
 62
     7
 10
137.25200000000001
 20
237.911
 30
0.0
 11
183.55099999999999
 21
237.911
 31
0.0
  0
LINE
  5
BD
  8
_________2
 62
     7
 10
137.25200000000001
 20
244.911
 30
0.0
 11
183.55099999999999
 21
244.911
 31
0.0
  0
LINE
  5
BE
  8
_________2
 62
     7
 10
137.25200000000001
 20
251.911
 30
0.0
 11
183.55099999999999
 21
251.911
 31
0.0
  0
LINE
  5
BF
  8
_________2
 62
     7
 10
205.30099999999999
 20
127.411
 30
0.0
 11
183.55000000000001
 21
127.411
 31
0.0
  0
LINE
  5
C0
  8
_________2
 62
     7
 10
100.3
 20
-4.0907299999999998
 30
0.0
 11
100.3
 21
-21.071000000000002
 31
0.0
  0
LINE
  5
C1
  8
_________2
 62
     7
 10
100.3
 20
275.93099999999998
 30
0.0
 11
100.3
 21
258.911
 31
0.0
  0
LINE
  5
C2
  8
_________2
 62
     7
 10
17.049399999999999
 20
127.411
 30
0.0
 11
-4.7006899999999989
 21
127.411
 31
0.0
  0
LINE
  5
C3
  8
_________2
 62
     7
 10
76.741
 20
29.805099999999999
 30
0.0
 11
74.554599999999994
 21
29.805099999999999
 31
0.0
  0
LINE
  5
C4
  8
_________2
 62
     7
 10
77.233699999999999
 20
29.805099999999999
 30
0.0
 11
76.981499999999997
 21
29.805099999999999
 31
0.0
  0
LINE
  5
C5
  8
_________2
 62
     7
 10
77.726200000000006
 20
29.805099999999999
 30
0.0
 11
80.651200000000003
 21
29.805099999999999
 31
0.0
  0
LINE
  5
C6
  8
_________2
 62
     7
 10
77.233699999999999
 20
29.805099999999999
 30
0.0
 11
77.485500000000002
 21
29.805099999999999
 31
0.0
  0
LINE
  5
C7
  8
_________2
 62
     7
 10
70.837100000000007
 20
29.805099999999999
 30
0.0
 11
68.650300000000001
 21
29.805099999999999
 31
0.0
  0
LINE
  5
C8
  8
_________2
 62
     7
 10
71.329599999999999
 20
29.805099999999999
 30
0.0
 11
71.077600000000004
 21
29.805099999999999
 31
0.0
  0
LINE
  5
C9
  8
_________2
 62
     7
 10
71.329599999999999
 20
30.2974
 30
0.0
 11
71.329599999999999
 21
32.484400000000001
 31
0.0
  0
LINE
  5
CA
  8
_________2
 62
     7
 10
71.329599999999999
 20
29.805099999999999
 30
0.0
 11
71.329599999999999
 21
30.057300000000001
 31
0.0
  0
LINE
  5
CB
  8
_________2
 62
     7
 10
71.822299999999998
 20
29.805099999999999
 30
0.0
 11
74.008899999999997
 21
29.805099999999999
 31
0.0
  0
LINE
  5
CC
  8
_________2
 62
     7
 10
71.329599999999999
 20
29.805099999999999
 30
0.0
 11
71.581800000000001
 21
29.805099999999999
 31
0.0
  0
LINE
  5
CD
  8
_________2
 62
     7
 10
71.329599999999999
 20
29.312799999999999
 30
0.0
 11
71.329599999999999
 21
27.125800000000002
 31
0.0
  0
LINE
  5
CE
  8
_________2
 62
     7
 10
71.329599999999999
 20
29.805099999999999
 30
0.0
 11
71.329599999999999
 21
29.5532
 31
0.0
  0
LINE
  5
CF
  8
_________2
 62
     7
 10
75.040700000000001
 20
28.5855
 30
0.0
 11
80.218299999999985
 21
27.720400000000001
 31
0.0
  0
LINE
  5
D0
  8
_________2
 62
     7
 10
75.040700000000001
 20
31.024699999999999
 30
0.0
 11
80.218299999999985
 21
31.889700000000001
 31
0.0
  0
LINE
  5
D1
  8
_________2
 62
     7
 10
80.218299999999985
 20
27.720400000000001
 30
0.0
 11
80.218299999999985
 21
31.889700000000001
 31
0.0
  0
LINE
  5
D2
  8
_________2
 62
     7
 10
75.040700000000001
 20
28.5855
 30
0.0
 11
75.040700000000001
 21
31.024699999999999
 31
0.0
  0
ARC
  5
D3
  8
_________2
 62
     7
 10
71.329689000000002
 20
29.805001000000001
 30
0.0
 40
1.219657999999999
 50
0.004056
 51
90.004025999999996
  0
ARC
  5
D4
  8
_________2
 62
     7
 10
71.32951700000001
 20
29.805001000000001
 30
0.0
 40
1.219657999999999
 50
89.995953999999998
 51
179.995924
  0
ARC
  5
D5
  8
_________2
 62
     7
 10
71.329515999999998
 20
29.805173
 30
0.0
 40
1.2196569999999991
 50
180.00405599999999
 51
270.00406600000002
  0
ARC
  5
D6
  8
_________2
 62
     7
 10
71.329689000000002
 20
29.805174000000001
 30
0.0
 40
1.219657999999999
 50
269.9959740000001
 51
359.99594400000001
  0
ARC
  5
D7
  8
_________2
 62
     7
 10
71.329602000000008
 20
29.805087
 30
0.0
 40
2.0846409999999991
 50
0.00001
 51
89.999980000000008
  0
ARC
  5
D8
  8
_________2
 62
     7
 10
71.32951700000001
 20
29.805001000000001
 30
0.0
 40
2.0847269999999991
 50
89.997632999999993
 51
179.997603
  0
ARC
  5
D9
  8
_________2
 62
     7
 10
71.409450000000007
 20
29.885114000000002
 30
0.0
 40
2.1661389999999989
 50
182.11724599999999
 51
267.887518
  0
ARC
  5
DA
  8
_________2
 62
     7
 10
71.249597999999992
 20
29.885092
 30
0.0
 40
2.1661229999999989
 50
272.11667999999997
 51
357.88333
  0
TEXT
  5
DB
  8
_________2
 62
     7
 10
104.605
 20
1.6794899999999999
 30
0.0
 40
3.0923400000000001
  1
図番
 41
0.5
  0
LINE
  5
DC
  8
_________2
 62
     7
 10
103.55
 20
5.9087199999999989
 30
0.0
 11
183.55099999999999
 21
5.9087199999999989
 31
0.0
  0
TEXT
  5
DD
  8
_________2
 62
     7
 10
104.605
 20
11.679600000000001
 30
0.0
 40
3.0923400000000001
  1
品番
 41
0.5
  0
TEXT
  5
DE
  8
_________2
 62
     7
 10
104.605
 20
31.818100000000001
 30
0.0
 40
3.0923400000000001
  1
名称
 41
0.5
  0
TEXT
  5
DF
  8
_________2
 62
     7
 10
91.845258333333334
 20
26.821999999999999
 30
0.0
 40
3.6545800000000002
  1
mm
 41
0.5
 72
     1
 11
93.367999999999995
 21
26.821999999999999
 31
0.0
  0
TEXT
  5
E0
  8
_________2
 62
     7
 10
85.642999999999986
 20
31.818100000000001
 30
0.0
 40
3.0923400000000001
  1
単位
 41
0.5
  0
TEXT
  5
E1
  8
_________2
 62
     7
 10
85.642999999999986
 20
19.411200000000001
 30
0.0
 40
3.0923400000000001
  1
尺度
 41
0.5
  0
TEXT
  5
E2
  8
_________2
 62
     7
 10
90.548758666666686
 20
13.2182
 30
0.0
 40
3.6545800000000002
  1
1 ： 5
 41
0.5
 72
     1
 11
93.959699999999998
 21
13.2182
 31
0.0
  0
TEXT
  5
E3
  8
_________2
 62
     7
 10
136.66252499999999
 20
9.1078600000000005
 30
0.0
 40
3.9357000000000002
  1
図中の表参照
 41
0.5
 72
     1
 11
143.55000000000001
 21
9.1078600000000005
 31
0.0
  0
TEXT
  5
E4
  8
_________2
 62
     7
 10
138.13841249999999
 20
-0.892285
 30
0.0
 40
3.9357000000000002
  1
CEV510
 41
0.5
 72
     1
 11
143.55000000000001
 21
-0.892285
 31
0.0
  0
TEXT
  5
E5
  8
_________2
 62
     7
 10
24.5869
 20
0.707627
 30
0.0
 40
3.9357000000000002
  1
重量：4.3kg、オーバーフローなし
 41
0.5
  0
TEXT
  5
E6
  8
_________2
 62
     7
 10
109.179
 20
24.226099999999999
 30
0.0
 40
3.9357000000000002
  1
ベルニカ　手洗器
 41
0.5
  0
TEXT
  5
E7
  8
_________2
 62
     7
 10
39.364190666666673
 20
13.603
 30
0.0
 40
3.6545800000000002
  1
篠崎
 41
0.5
 72
     1
 11
41.313299999999998
 21
13.603
 31
0.0
  0
TEXT
  5
E8
  8
_________2
 62
     7
 10
20.790090666666671
 20
13.603
 30
0.0
 40
3.6545800000000002
  1
飯塚
 41
0.5
 72
     1
 11
22.7392
 21
13.603
 31
0.0
  0
TEXT
  5
E9
  8
_________2
 62
     7
 10
67.785399999999996
 20
13.2182
 30
0.0
 40
3.6545800000000002
  1
16.08.04
 41
0.5
  0
TEXT
  5
EA
  8
_________2
 62
     7
 10
66.5929
 20
19.411200000000001
 30
0.0
 40
3.0923400000000001
  1
日付
 41
0.5
  0
TEXT
  5
EB
  8
_________2
 62
     7
 10
29.639199999999999
 20
19.411200000000001
 30
0.0
 40
3.0923400000000001
  1
検図
 41
0.5
  0
TEXT
  5
EC
  8
_________2
 62
     7
 10
18.0212
 20
5.2117699999999987
 30
0.0
 40
3.0923400000000001
  1
備考
 41
0.5
  0
TEXT
  5
ED
  8
_________2
 62
     7
 10
18.0212
 20
19.411200000000001
 30
0.0
 40
3.0923400000000001
  1
製図
 41
0.5
  0
TEXT
  5
EE
  8
_________2
 62
     7
 10
23.788465333333338
 20
27.936800000000002
 30
0.0
 40
4.4979399999999989
  1
セラトレーディング株式会社
 41
0.5
 72
     1
 11
41.180500000000002
 21
27.936800000000002
 31
0.0
  0
LINE
  5
EF
  8
_________2
 62
     7
 10
183.55099999999999
 20
-4.0910799999999998
 30
0.0
 11
17.049399999999999
 21
-4.0910799999999998
 31
0.0
  0
LINE
  5
F0
  8
_________2
 62
     7
 10
17.049399999999999
 20
-4.0910799999999998
 30
0.0
 11
17.049399999999999
 21
258.911
 31
0.0
  0
LINE
  5
F1
  8
_________2
 62
     7
 10
17.049399999999999
 20
258.911
 30
0.0
 11
183.55099999999999
 21
258.911
 31
0.0
  0
LINE
  5
F2
  8
_________2
 62
     7
 10
183.55099999999999
 20
258.911
 30
0.0
 11
183.55099999999999
 21
-4.0910799999999998
 31
0.0
  0
LINE
  5
F3
  8
_________2
 62
     7
 10
65.549599999999998
 20
9.4092999999999982
 30
0.0
 11
65.549599999999998
 21
35.909100000000002
 31
0.0
  0
LINE
  5
F4
  8
_________2
 62
     7
 10
84.549700000000016
 20
9.4092999999999982
 30
0.0
 11
84.549700000000016
 21
35.909100000000002
 31
0.0
  0
LINE
  5
F5
  8
_________2
 62
     7
 10
103.55
 20
-4.0910799999999998
 30
0.0
 11
103.55
 21
35.909100000000002
 31
0.0
  0
LINE
  5
F6
  8
_________2
 62
     7
 10
28.549499999999998
 20
9.4092999999999982
 30
0.0
 11
28.549499999999998
 21
23.409199999999998
 31
0.0
  0
LINE
  5
F7
  8
_________2
 62
     7
 10
17.049399999999999
 20
9.4092999999999982
 30
0.0
 11
103.55
 21
9.4092999999999982
 31
0.0
  0
LINE
  5
F8
  8
_________2
 62
     7
 10
17.049399999999999
 20
23.409199999999998
 30
0.0
 11
103.55
 21
23.409199999999998
 31
0.0
  0
LINE
  5
F9
  8
_________2
 62
     7
 10
103.55
 20
15.908899999999999
 30
0.0
 11
183.55099999999999
 21
15.908899999999999
 31
0.0
  0
LINE
  5
FA
  8
_________2
 62
     7
 10
17.049399999999999
 20
35.909100000000002
 30
0.0
 11
183.55099999999999
 21
35.909100000000002
 31
0.0
  0
ENDSEC
  0
EOF
