  0
SECTION
  2
HEADER
  9
$ACADVER
  1
AC1009
  9
$INSBASE
 10
0.0
 20
0.0
 30
0.0
  9
$EXTMIN
 10
-0.000689023
 20
-0.000344512
 30
0.0
  9
$EXTMAX
 10
210.00099999999989
 20
297.00200000000001
 30
0.0
  9
$LIMMIN
 10
0.0
 20
0.0
  9
$LIMMAX
 10
12.0
 20
9.0
  9
$ORTHOMODE
 70
     0
  9
$REGENMODE
 70
     1
  9
$FILLMODE
 70
     1
  9
$QTEXTMODE
 70
     0
  9
$MIRRTEXT
 70
     1
  9
$DRAGMODE
 70
     2
  9
$LTSCALE
 40
1.0
  9
$OSMODE
 70
    37
  9
$ATTMODE
 70
     1
  9
$TEXTSIZE
 40
0.0
  9
$TRACEWID
 40
0.05
  9
$TEXTSTYLE
  7
STANDARD
  9
$CLAYER
  8
0
  9
$CELTYPE
  6
CONTINUOUS
  9
$CECOLOR
 62
   256
  9
$DIMSCALE
 40
1.0
  9
$DIMASZ
 40
0.18
  9
$DIMEXO
 40
0.0625
  9
$DIMDLI
 40
0.38
  9
$DIMRND
 40
0.0
  9
$DIMDLE
 40
0.0
  9
$DIMEXE
 40
0.18
  9
$DIMTP
 40
0.0
  9
$DIMTM
 40
0.0
  9
$DIMTXT
 40
0.18
  9
$DIMCEN
 40
0.09
  9
$DIMTSZ
 40
0.0
  9
$DIMTOL
 70
     0
  9
$DIMLIM
 70
     0
  9
$DIMTIH
 70
     1
  9
$DIMTOH
 70
     1
  9
$DIMSE1
 70
     0
  9
$DIMSE2
 70
     0
  9
$DIMTAD
 70
     0
  9
$DIMZIN
 70
     0
  9
$DIMBLK
  1

  9
$DIMASO
 70
     1
  9
$DIMSHO
 70
     1
  9
$DIMPOST
  1

  9
$DIMAPOST
  1

  9
$DIMALT
 70
     0
  9
$DIMALTD
 70
     2
  9
$DIMALTF
 40
25.399999999999999
  9
$DIMLFAC
 40
1.0
  9
$DIMTOFL
 70
     0
  9
$DIMTVP
 40
0.0
  9
$DIMTIX
 70
     0
  9
$DIMSOXD
 70
     0
  9
$DIMSAH
 70
     0
  9
$DIMBLK1
  1

  9
$DIMBLK2
  1

  9
$DIMSTYLE
  2
STANDARD
  9
$DIMCLRD
 70
     0
  9
$DIMCLRE
 70
     0
  9
$DIMCLRT
 70
     0
  9
$DIMTFAC
 40
1.0
  9
$DIMGAP
 40
0.09
  9
$LUNITS
 70
     2
  9
$LUPREC
 70
     4
  9
$SKETCHINC
 40
0.1
  9
$FILLETRAD
 40
0.0
  9
$AUNITS
 70
     0
  9
$AUPREC
 70
     0
  9
$MENU
  1
.
  9
$ELEVATION
 40
0.0
  9
$PELEVATION
 40
0.0
  9
$THICKNESS
 40
0.0
  9
$LIMCHECK
 70
     0
  9
$BLIPMODE
 70
     0
  9
$CHAMFERA
 40
0.0
  9
$CHAMFERB
 40
0.0
  9
$SKPOLY
 70
     0
  9
$TDCREATE
 40
2444972.375
  9
$TDUPDATE
 40
2456738.2460950231
  9
$TDINDWG
 40
0.0000107292
  9
$TDUSRTIMER
 40
0.0000107292
  9
$USRTIMER
 70
     1
  9
$ANGBASE
 50
0.0
  9
$ANGDIR
 70
     0
  9
$PDMODE
 70
     0
  9
$PDSIZE
 40
0.0
  9
$PLINEWID
 40
0.0
  9
$COORDS
 70
     1
  9
$SPLFRAME
 70
     0
  9
$SPLINETYPE
 70
     6
  9
$SPLINESEGS
 70
     8
  9
$ATTDIA
 70
     0
  9
$ATTREQ
 70
     1
  9
$HANDLING
 70
     1
  9
$HANDSEED
  5
541
  9
$SURFTAB1
 70
     6
  9
$SURFTAB2
 70
     6
  9
$SURFTYPE
 70
     6
  9
$SURFU
 70
     6
  9
$SURFV
 70
     6
  9
$UCSNAME
  2

  9
$UCSORG
 10
0.0
 20
0.0
 30
0.0
  9
$UCSXDIR
 10
1.0
 20
0.0
 30
0.0
  9
$UCSYDIR
 10
0.0
 20
1.0
 30
0.0
  9
$PUCSNAME
  2

  9
$PUCSORG
 10
0.0
 20
0.0
 30
0.0
  9
$PUCSXDIR
 10
1.0
 20
0.0
 30
0.0
  9
$PUCSYDIR
 10
0.0
 20
1.0
 30
0.0
  9
$USERI1
 70
     0
  9
$USERI2
 70
     0
  9
$USERI3
 70
     0
  9
$USERI4
 70
     0
  9
$USERI5
 70
     0
  9
$USERR1
 40
0.0
  9
$USERR2
 40
0.0
  9
$USERR3
 40
0.0
  9
$USERR4
 40
0.0
  9
$USERR5
 40
0.0
  9
$WORLDVIEW
 70
     1
  9
$SHADEDGE
 70
     3
  9
$SHADEDIF
 70
    70
  9
$TILEMODE
 70
     1
  9
$MAXACTVP
 70
    48
  9
$PLIMCHECK
 70
     0
  9
$PEXTMIN
 10
1.0000000000000000E+020
 20
1.0000000000000000E+020
 30
1.0000000000000000E+020
  9
$PEXTMAX
 10
-1.0000000000000000E+020
 20
-1.0000000000000000E+020
 30
-1.0000000000000000E+020
  9
$PLIMMIN
 10
0.0
 20
0.0
  9
$PLIMMAX
 10
12.0
 20
9.0
  9
$UNITMODE
 70
     0
  9
$VISRETAIN
 70
     1
  9
$PLINEGEN
 70
     0
  9
$PSLTSCALE
 70
     1
  0
ENDSEC
  0
SECTION
  2
TABLES
  0
TABLE
  2
VPORT
 70
     2
  0
VPORT
  2
*ACTIVE
 70
     0
 10
0.0
 20
0.0
 11
1.0
 21
1.0
 12
206.70668023396189
 22
148.50082774399999
 13
0.0
 23
0.0
 14
1.0
 24
1.0
 15
0.0
 25
0.0
 16
0.0
 26
0.0
 36
1.0
 17
0.0
 27
0.0
 37
0.0
 40
299.4535330499258
 41
2.2894736842105261
 42
50.0
 43
0.0
 44
0.0
 50
0.0
 51
0.0
 71
     0
 72
   100
 73
     1
 74
     1
 75
     0
 76
     0
 77
     0
 78
     0
  0
ENDTAB
  0
TABLE
  2
LTYPE
 70
     2
  0
LTYPE
  2
CONTINUOUS
 70
     0
  3
Solid line
 72
    65
 73
     0
 40
0.0
  0
LTYPE
  2
AIGENLINE001
 70
     0
  3
generate AI->DXF Converter
 72
    65
 73
     4
 40
5.8561449999999988
 49
3.5278
 49
-0.776115
 49
0.776115
 49
-0.776115
  0
ENDTAB
  0
TABLE
  2
LAYER
 70
     2
  0
LAYER
  2
0
 70
     0
 62
     7
  6
CONTINUOUS
  0
LAYER
  2
_________2
 70
     0
 62
     7
  6
CONTINUOUS
  0
ENDTAB
  0
TABLE
  2
STYLE
 70
     1
  0
STYLE
  2
STANDARD
 70
     0
 40
0.0
 41
0.0
 50
0.0
 71
     0
 42
0.0
  3
TXT
  4
EXTFONT.SHX
  0
ENDTAB
  0
TABLE
  2
VIEW
 70
     0
  0
ENDTAB
  0
TABLE
  2
UCS
 70
     0
  0
ENDTAB
  0
TABLE
  2
APPID
 70
     1
  0
APPID
  2
ACAD
 70
     0
  0
ENDTAB
  0
TABLE
  2
DIMSTYLE
 70
     1
  0
DIMSTYLE
  2
STANDARD
 70
     0
  3

  4

  5

  6

  7

 40
1.0
 41
0.18
 42
0.0625
 43
0.38
 44
0.18
 45
0.0
 46
0.0
 47
0.0
 48
0.0
140
0.18
141
0.09
142
0.0
143
25.399999999999999
144
1.0
145
0.0
146
1.0
147
0.09
 71
     0
 72
     0
 73
     1
 74
     1
 75
     0
 76
     0
 77
     0
 78
     0
170
     0
171
     2
172
     0
173
     0
174
     0
175
     0
176
     0
177
     0
178
     0
  0
ENDTAB
  0
ENDSEC
  0
SECTION
  2
BLOCKS
  0
BLOCK
  8
0
  2
$MODEL_SPACE
 70
     0
 10
0.0
 20
0.0
 30
0.0
  3
$MODEL_SPACE
  1

  0
ENDBLK
  5
1A
  8
0
  0
BLOCK
 67
     1
  8
0
  2
$PAPER_SPACE
 70
     0
 10
0.0
 20
0.0
 30
0.0
  3
$PAPER_SPACE
  1

  0
ENDBLK
  5
17
 67
     1
  8
0
  0
ENDSEC
  0
SECTION
  2
ENTITIES
  0
TEXT
  5
22
  8
0
 62
     7
 10
110.58499999999989
 20
82.249809999999997
 30
0.0
 40
3.0923400000000001
  1
A
 50
90.0
 41
0.5
 72
     1
 11
110.58499999999989
 21
82.765199999999993
 31
0.0
  0
TEXT
  5
23
  8
0
 62
     7
 10
96.952872499999984
 20
75.156599999999997
 30
0.0
 40
3.0923400000000001
  1
60
 41
0.5
 72
     1
 11
98.112500000000011
 21
75.156599999999997
 31
0.0
  0
TEXT
  5
24
  8
0
 62
     7
 10
50.952572500000002
 20
75.156599999999997
 30
0.0
 40
3.0923400000000001
  1
60
 41
0.5
 72
     1
 11
52.112200000000001
 21
75.156599999999997
 31
0.0
  0
TEXT
  5
25
  8
0
 62
     7
 10
73.303687500000009
 20
75.156599999999997
 30
0.0
 40
3.0923400000000001
  1
630
 41
0.5
 72
     1
 11
75.236400000000003
 21
75.156599999999997
 31
0.0
  0
TEXT
  5
26
  8
0
 62
     7
 10
73.180187500000002
 20
192.01900000000001
 30
0.0
 40
3.0923400000000001
  1
750
 41
0.5
 72
     1
 11
75.112899999999996
 21
192.01900000000001
 31
0.0
  0
TEXT
  5
27
  8
0
 62
     7
 10
112.2859999999999
 20
169.0811349999999
 30
0.0
 40
3.0923400000000001
  1
215
 50
90.0
 41
0.5
 72
     1
 11
112.2859999999999
 21
170.88499999999991
 31
0.0
  0
TEXT
  5
28
  8
0
 62
     7
 10
82.197879999999984
 20
159.79300000000001
 30
0.0
 40
3.0923400000000001
  1
%%c55
 41
0.5
 72
     2
 11
86.320999999999984
 21
159.79300000000001
 31
0.0
  0
TEXT
  5
29
  8
0
 62
     7
 10
85.819100000000006
 20
174.16800000000001
 30
0.0
 40
3.0923400000000001
  1
%%c44
 41
0.5
  0
TEXT
  5
2A
  8
0
 62
     7
 10
105.8599999999999
 20
168.958
 30
0.0
 40
3.0923400000000001
  1
50
 50
90.0
 41
0.5
  0
TEXT
  5
2B
  8
0
 62
     7
 10
90.868899999999996
 20
183.78499999999991
 30
0.0
 40
3.0923400000000001
  1
50
 41
0.5
  0
TEXT
  5
2C
  8
0
 62
     7
 10
38.382599999999996
 20
85.834072500000005
 30
0.0
 40
3.0923400000000001
  1
60
 50
90.0
 41
0.5
 72
     1
 11
38.382599999999996
 21
86.993700000000004
 31
0.0
  0
TEXT
  5
2D
  8
0
 62
     7
 10
38.382599999999996
 20
174.4333724999999
 30
0.0
 40
3.0923400000000001
  1
80
 50
90.0
 41
0.5
 72
     1
 11
38.382599999999996
 21
175.59299999999999
 31
0.0
  0
TEXT
  5
2E
  8
0
 62
     7
 10
38.382599999999996
 20
128.23589749999991
 30
0.0
 40
3.0923400000000001
  1
1260
 50
90.0
 41
0.5
 72
     1
 11
38.382599999999996
 21
130.684
 31
0.0
  0
TEXT
  5
2F
  8
0
 62
     7
 10
31.4786
 20
129.78574499999991
 30
0.0
 40
3.0923400000000001
  1
1400
 50
90.0
 41
0.5
 72
     1
 11
31.4786
 21
132.1049999999999
 31
0.0
  0
TEXT
  5
30
  8
0
 62
     7
 10
130.64674500000001
 20
264.41799999999989
 30
0.0
 40
3.0923400000000001
  1
30
 41
0.5
 72
     2
 11
132.96600000000001
 21
264.41799999999989
 31
0.0
  0
TEXT
  5
31
  8
0
 62
     7
 10
142.547135
 20
186.9799999999999
 30
0.0
 40
3.0923400000000001
  1
600
 41
0.5
 72
     1
 11
144.351
 21
186.9799999999999
 31
0.0
  0
TEXT
  5
32
  8
0
 62
     7
 10
46.831000000000003
 20
136.74700000000001
 30
0.0
 40
3.0923400000000001
  1
B
 50
90.0
 41
0.5
  0
TEXT
  5
33
  8
0
 62
     7
 10
106.062
 20
136.74700000000001
 30
0.0
 40
3.0923400000000001
  1
B
 50
90.0
 41
0.5
  0
TEXT
  5
34
  8
0
 62
     7
 10
82.848999999999975
 20
182.39160999999999
 30
0.0
 40
3.0923400000000001
  1
A
 50
90.0
 41
0.5
 72
     1
 11
82.848999999999975
 21
182.90700000000001
 31
0.0
  0
TEXT
  5
35
  8
0
 62
     7
 10
180.334
 20
129.16743999999991
 30
0.0
 40
3.0923400000000001
  1
A-A
 50
90.0
 41
0.5
 72
     1
 11
180.334
 21
131.2289999999999
 31
0.0
  0
TEXT
  5
36
  8
0
 62
     7
 10
174.3959999999999
 20
213.571135
 30
0.0
 40
3.0923400000000001
  1
195
 50
90.0
 41
0.5
 72
     1
 11
174.3959999999999
 21
215.375
 31
0.0
  0
TEXT
  5
37
  8
0
 62
     7
 10
180.334
 20
231.81344000000001
 30
0.0
 40
3.0923400000000001
  1
B-B
 50
90.0
 41
0.5
 72
     1
 11
180.334
 21
233.875
 31
0.0
  0
TEXT
  5
38
  8
0
 62
     7
 10
174.3959999999999
 20
231.94228749999991
 30
0.0
 40
3.0923400000000001
  1
360
 50
90.0
 41
0.5
 72
     1
 11
174.3959999999999
 21
233.875
 31
0.0
  0
TEXT
  5
39
  8
0
 62
     7
 10
174.3959999999999
 20
250.304135
 30
0.0
 40
3.0923400000000001
  1
195
 50
90.0
 41
0.5
 72
     1
 11
174.3959999999999
 21
252.10799999999989
 31
0.0
  0
TEXT
  5
3A
  8
0
 62
     7
 10
174.54900000000001
 20
167.79844
 30
0.0
 40
3.0923400000000001
  1
252
 50
90.0
 41
0.5
 72
     1
 11
174.54900000000001
 21
169.86000000000001
 31
0.0
  0
TEXT
  5
3B
  8
0
 62
     7
 10
174.54900000000001
 20
92.630939999999995
 30
0.0
 40
3.0923400000000001
  1
293
 50
90.0
 41
0.5
 72
     1
 11
174.54900000000001
 21
94.692499999999995
 31
0.0
  0
TEXT
  5
3C
  8
0
 62
     7
 10
174.54900000000001
 20
130.89743999999999
 30
0.0
 40
3.0923400000000001
  1
855
 50
90.0
 41
0.5
 72
     1
 11
174.54900000000001
 21
132.959
 31
0.0
  0
TEXT
  5
3D
  8
0
 62
     7
 10
138.98713499999991
 20
165.7059999999999
 30
0.0
 40
3.0923400000000001
  1
500
 41
0.5
 72
     1
 11
140.791
 21
165.7059999999999
 31
0.0
  0
LINE
  5
3E
  8
0
 62
     7
 10
103.23699999999999
 20
83.259900000000002
 30
0.0
 11
101.026
 21
82.667699999999996
 31
0.0
  0
LINE
  5
3F
  8
0
 62
     7
 10
101.026
 20
82.667699999999996
 30
0.0
 11
103.23699999999999
 21
82.075100000000006
 31
0.0
  0
LINE
  5
40
  8
0
 62
     7
 10
103.23699999999999
 20
82.075100000000006
 30
0.0
 11
103.23699999999999
 21
83.259900000000002
 31
0.0
  0
LINE
  5
41
  8
0
 62
     7
 10
101.026
 20
82.674899999999994
 30
0.0
 11
106.9169999999999
 21
82.674899999999994
 31
0.0
  0
LINE
  5
42
  8
0
 62
     7
 10
106.9169999999999
 20
82.674899999999994
 30
0.0
 11
106.9169999999999
 21
86.008700000000005
 31
0.0
  0
LINE
  5
43
  8
0
 62
     7
 10
104.0089999999999
 20
74.456599999999995
 30
0.0
 11
46.131500000000003
 21
74.456599999999995
 31
0.0
  0
LINE
  5
44
  8
0
 62
     7
 10
96.112399999999994
 20
73.608000000000004
 30
0.0
 11
96.112399999999994
 21
89.255399999999995
 31
0.0
  0
LINE
  5
45
  8
0
 62
     7
 10
54.111899999999999
 20
73.614599999999996
 30
0.0
 11
54.111899999999999
 21
88.525400000000005
 31
0.0
  0
LINE
  5
46
  8
0
 62
     7
 10
47.900700000000001
 20
73.86399999999999
 30
0.0
 11
50.112499999999997
 21
74.456599999999995
 31
0.0
  0
LINE
  5
47
  8
0
 62
     7
 10
50.112499999999997
 20
74.456599999999995
 30
0.0
 11
47.900700000000001
 21
75.049499999999995
 31
0.0
  0
LINE
  5
48
  8
0
 62
     7
 10
47.900700000000001
 20
75.049499999999995
 30
0.0
 11
47.900700000000001
 21
73.86399999999999
 31
0.0
  0
LINE
  5
49
  8
0
 62
     7
 10
93.900599999999997
 20
73.86399999999999
 30
0.0
 11
96.112399999999994
 21
74.456599999999995
 31
0.0
  0
LINE
  5
4A
  8
0
 62
     7
 10
96.112399999999994
 20
74.456599999999995
 30
0.0
 11
93.900599999999997
 21
75.049499999999995
 31
0.0
  0
LINE
  5
4B
  8
0
 62
     7
 10
93.900599999999997
 20
75.049499999999995
 30
0.0
 11
93.900599999999997
 21
73.86399999999999
 31
0.0
  0
LINE
  5
4C
  8
0
 62
     7
 10
102.3239999999999
 20
75.049099999999996
 30
0.0
 11
100.113
 21
74.456599999999995
 31
0.0
  0
LINE
  5
4D
  8
0
 62
     7
 10
100.113
 20
74.456599999999995
 30
0.0
 11
102.3239999999999
 21
73.863699999999994
 31
0.0
  0
LINE
  5
4E
  8
0
 62
     7
 10
102.3239999999999
 20
73.863699999999994
 30
0.0
 11
102.3239999999999
 21
75.049099999999996
 31
0.0
  0
LINE
  5
4F
  8
0
 62
     7
 10
56.323700000000002
 20
75.049099999999996
 30
0.0
 11
54.111899999999999
 21
74.456599999999995
 31
0.0
  0
LINE
  5
50
  8
0
 62
     7
 10
54.111899999999999
 20
74.456599999999995
 30
0.0
 11
56.323700000000002
 21
73.863699999999994
 31
0.0
  0
LINE
  5
51
  8
0
 62
     7
 10
56.323700000000002
 20
73.863699999999994
 30
0.0
 11
56.323700000000002
 21
75.049099999999996
 31
0.0
  0
LINE
  5
52
  8
0
 62
     7
 10
50.112499999999997
 20
73.521900000000002
 30
0.0
 11
50.112499999999997
 21
84.151499999999999
 31
0.0
  0
LINE
  5
53
  8
0
 62
     7
 10
100.113
 20
73.608000000000004
 30
0.0
 11
100.113
 21
84.151499999999999
 31
0.0
  0
LINE
  5
54
  8
0
 62
     7
 10
97.901399999999995
 20
190.73299999999989
 30
0.0
 11
100.113
 21
191.32599999999999
 31
0.0
  0
LINE
  5
55
  8
0
 62
     7
 10
100.113
 20
191.32599999999999
 30
0.0
 11
97.901399999999995
 21
191.91900000000001
 31
0.0
  0
LINE
  5
56
  8
0
 62
     7
 10
97.901399999999995
 20
191.91900000000001
 30
0.0
 11
97.901399999999995
 21
190.73299999999989
 31
0.0
  0
LINE
  5
57
  8
0
 62
     7
 10
52.324300000000001
 20
191.904
 30
0.0
 11
50.112499999999997
 21
191.31099999999989
 31
0.0
  0
LINE
  5
58
  8
0
 62
     7
 10
50.112499999999997
 20
191.31099999999989
 30
0.0
 11
52.324300000000001
 21
190.71899999999999
 31
0.0
  0
LINE
  5
59
  8
0
 62
     7
 10
52.324300000000001
 20
190.71899999999999
 30
0.0
 11
52.324300000000001
 21
191.904
 31
0.0
  0
LINE
  5
5A
  8
0
 62
     7
 10
100.11199999999999
 20
191.31899999999999
 30
0.0
 11
50.113900000000001
 21
191.31899999999999
 31
0.0
  0
LINE
  5
5B
  8
0
 62
     7
 10
50.112499999999997
 20
179.374
 30
0.0
 11
50.112499999999997
 21
192.01900000000001
 31
0.0
  0
LINE
  5
5C
  8
0
 62
     7
 10
100.113
 20
179.34899999999999
 30
0.0
 11
100.113
 21
192.01900000000001
 31
0.0
  0
LINE
  5
5D
  8
0
 62
     7
 10
113.426
 20
166.197
 30
0.0
 11
112.833
 21
163.98500000000001
 31
0.0
  0
LINE
  5
5E
  8
0
 62
     7
 10
112.833
 20
163.98500000000001
 30
0.0
 11
112.241
 21
166.197
 31
0.0
  0
LINE
  5
5F
  8
0
 62
     7
 10
112.241
 20
166.197
 30
0.0
 11
113.426
 21
166.197
 31
0.0
  0
LINE
  5
60
  8
0
 62
     7
 10
112.241
 20
176.10599999999999
 30
0.0
 11
112.833
 21
178.3179999999999
 31
0.0
  0
LINE
  5
61
  8
0
 62
     7
 10
112.833
 20
178.3179999999999
 30
0.0
 11
113.426
 21
176.10599999999999
 31
0.0
  0
LINE
  5
62
  8
0
 62
     7
 10
113.426
 20
176.10599999999999
 30
0.0
 11
112.241
 21
176.10599999999999
 31
0.0
  0
LINE
  5
63
  8
0
 62
     7
 10
112.833
 20
163.98500000000001
 30
0.0
 11
112.833
 21
178.3179999999999
 31
0.0
  0
LINE
  5
64
  8
0
 62
     7
 10
80.005399999999995
 20
163.98500000000001
 30
0.0
 11
113.633
 21
163.98500000000001
 31
0.0
  0
LINE
  5
65
  8
0
 62
     7
 10
100.937
 20
178.3179999999999
 30
0.0
 11
113.536
 21
178.3179999999999
 31
0.0
  0
LINE
  5
66
  8
0
 62
     7
 10
80.019900000000007
 20
159.0929999999999
 30
0.0
 11
86.320999999999984
 21
159.0929999999999
 31
0.0
  0
LINE
  5
67
  8
0
 62
     7
 10
76.427300000000002
 20
162.69599999999991
 30
0.0
 11
73.840100000000007
 21
165.29199999999989
 31
0.0
  0
LINE
  5
68
  8
0
 62
     7
 10
71.857100000000003
 20
166.43700000000001
 30
0.0
 11
73.840100000000007
 21
165.29199999999989
 31
0.0
  0
LINE
  5
69
  8
0
 62
     7
 10
73.840100000000007
 20
165.29199999999989
 30
0.0
 11
72.695199999999986
 21
167.27500000000001
 31
0.0
  0
LINE
  5
6A
  8
0
 62
     7
 10
72.695199999999986
 20
167.27500000000001
 30
0.0
 11
71.857100000000003
 21
166.43700000000001
 31
0.0
  0
LINE
  5
6B
  8
0
 62
     7
 10
73.835599999999999
 20
165.28700000000001
 30
0.0
 11
71.285799999999995
 21
167.8359999999999
 31
0.0
  0
LINE
  5
6C
  8
0
 62
     7
 10
77.571799999999996
 20
160.71299999999991
 30
0.0
 11
76.427300000000002
 21
162.69599999999991
 31
0.0
  0
LINE
  5
6D
  8
0
 62
     7
 10
76.427300000000002
 20
162.69599999999991
 30
0.0
 11
78.409999999999997
 21
161.55099999999999
 31
0.0
  0
LINE
  5
6E
  8
0
 62
     7
 10
78.409999999999997
 20
161.55099999999999
 30
0.0
 11
77.571799999999996
 21
160.71299999999991
 31
0.0
  0
LINE
  5
6F
  8
0
 62
     7
 10
76.421499999999995
 20
162.69200000000001
 30
0.0
 11
80.019900000000007
 21
159.0929999999999
 31
0.0
  0
LINE
  5
70
  8
0
 62
     7
 10
98.322800000000001
 20
175.524
 30
0.0
 11
95.395099999999985
 21
174.5
 31
0.0
  0
LINE
  5
71
  8
0
 62
     7
 10
92.470200000000006
 20
173.4679999999999
 30
0.0
 11
85.819100000000006
 21
173.4679999999999
 31
0.0
  0
LINE
  5
72
  8
0
 62
     7
 10
100.44499999999989
 20
175.63999999999999
 30
0.0
 11
98.161900000000003
 21
175.46799999999999
 31
0.0
  0
LINE
  5
73
  8
0
 62
     7
 10
98.161900000000003
 20
175.46799999999999
 30
0.0
 11
100.0539999999999
 21
176.7579999999999
 31
0.0
  0
LINE
  5
74
  8
0
 62
     7
 10
100.0539999999999
 20
176.7579999999999
 30
0.0
 11
100.44499999999989
 21
175.63999999999999
 31
0.0
  0
LINE
  5
75
  8
0
 62
     7
 10
98.164000000000016
 20
175.46199999999999
 30
0.0
 11
100.8099999999999
 21
176.38800000000001
 31
0.0
  0
LINE
  5
76
  8
0
 62
     7
 10
93.503100000000003
 20
173.21000000000001
 30
0.0
 11
95.395099999999985
 21
174.5
 31
0.0
  0
LINE
  5
77
  8
0
 62
     7
 10
95.395099999999985
 20
174.5
 30
0.0
 11
93.111699999999999
 21
174.328
 31
0.0
  0
LINE
  5
78
  8
0
 62
     7
 10
93.111699999999999
 20
174.328
 30
0.0
 11
93.503100000000003
 21
173.21000000000001
 31
0.0
  0
LINE
  5
79
  8
0
 62
     7
 10
95.397900000000007
 20
174.49299999999999
 30
0.0
 11
92.470200000000006
 21
173.4679999999999
 31
0.0
  0
LINE
  5
7A
  8
0
 62
     7
 10
106.56
 20
174.98500000000001
 30
0.0
 11
106.56
 21
178.3179999999999
 31
0.0
  0
LINE
  5
7B
  8
0
 62
     7
 10
99.690500000000014
 20
174.98500000000001
 30
0.0
 11
107.43000000000001
 21
174.98500000000001
 31
0.0
  0
LINE
  5
7C
  8
0
 62
     7
 10
107.15299999999991
 20
172.773
 30
0.0
 11
106.56
 21
174.98500000000001
 31
0.0
  0
LINE
  5
7D
  8
0
 62
     7
 10
106.56
 20
174.98500000000001
 30
0.0
 11
105.9679999999999
 21
172.773
 31
0.0
  0
LINE
  5
7E
  8
0
 62
     7
 10
105.9679999999999
 20
172.773
 30
0.0
 11
107.15299999999991
 21
172.773
 31
0.0
  0
LINE
  5
7F
  8
0
 62
     7
 10
106.56
 20
174.98500000000001
 30
0.0
 11
106.56
 21
168.958
 31
0.0
  0
LINE
  5
80
  8
0
 62
     7
 10
107.15299999999991
 20
180.53
 30
0.0
 11
106.56
 21
178.3179999999999
 31
0.0
  0
LINE
  5
81
  8
0
 62
     7
 10
106.56
 20
178.3179999999999
 30
0.0
 11
105.9679999999999
 21
180.53
 31
0.0
  0
LINE
  5
82
  8
0
 62
     7
 10
105.9679999999999
 20
180.53
 30
0.0
 11
107.15299999999991
 21
180.53
 31
0.0
  0
LINE
  5
83
  8
0
 62
     7
 10
106.56
 20
178.3179999999999
 30
0.0
 11
106.56
 21
181.239
 31
0.0
  0
LINE
  5
84
  8
0
 62
     7
 10
100.113
 20
183.08500000000001
 30
0.0
 11
96.779700000000005
 21
183.08500000000001
 31
0.0
  0
LINE
  5
85
  8
0
 62
     7
 10
96.779700000000005
 20
177.714
 30
0.0
 11
96.779700000000005
 21
183.95400000000001
 31
0.0
  0
LINE
  5
86
  8
0
 62
     7
 10
102.3249999999999
 20
183.67699999999999
 30
0.0
 11
100.113
 21
183.08500000000001
 31
0.0
  0
LINE
  5
87
  8
0
 62
     7
 10
100.113
 20
183.08500000000001
 30
0.0
 11
102.3249999999999
 21
182.49199999999999
 31
0.0
  0
LINE
  5
88
  8
0
 62
     7
 10
102.3249999999999
 20
182.49199999999999
 30
0.0
 11
102.3249999999999
 21
183.67699999999999
 31
0.0
  0
LINE
  5
89
  8
0
 62
     7
 10
100.113
 20
183.08500000000001
 30
0.0
 11
103.342
 21
183.08500000000001
 31
0.0
  0
LINE
  5
8A
  8
0
 62
     7
 10
94.567999999999984
 20
183.67699999999999
 30
0.0
 11
96.779700000000005
 21
183.08500000000001
 31
0.0
  0
LINE
  5
8B
  8
0
 62
     7
 10
96.779700000000005
 20
183.08500000000001
 30
0.0
 11
94.567999999999984
 21
182.49199999999999
 31
0.0
  0
LINE
  5
8C
  8
0
 62
     7
 10
94.567999999999984
 20
182.49199999999999
 30
0.0
 11
94.567999999999984
 21
183.67699999999999
 31
0.0
  0
LINE
  5
8D
  8
0
 62
     7
 10
96.779700000000005
 20
183.08500000000001
 30
0.0
 11
90.868899999999996
 21
183.08500000000001
 31
0.0
  0
LINE
  5
8E
  8
0
 62
     7
 10
38.490099999999991
 20
180.53
 30
0.0
 11
39.082599999999999
 21
178.3179999999999
 31
0.0
  0
LINE
  5
8F
  8
0
 62
     7
 10
39.082599999999999
 20
178.3179999999999
 30
0.0
 11
39.675199999999997
 21
180.53
 31
0.0
  0
LINE
  5
90
  8
0
 62
     7
 10
39.675199999999997
 20
180.53
 30
0.0
 11
38.490099999999991
 21
180.53
 31
0.0
  0
LINE
  5
91
  8
0
 62
     7
 10
38.490099999999991
 20
91.196399999999997
 30
0.0
 11
39.082599999999999
 21
88.9846
 31
0.0
  0
LINE
  5
92
  8
0
 62
     7
 10
39.082599999999999
 20
88.9846
 30
0.0
 11
39.675199999999997
 21
91.196399999999997
 31
0.0
  0
LINE
  5
93
  8
0
 62
     7
 10
39.675199999999997
 20
91.196399999999997
 30
0.0
 11
38.490099999999991
 21
91.196399999999997
 31
0.0
  0
LINE
  5
94
  8
0
 62
     7
 10
31.593599999999991
 20
87.194500000000005
 30
0.0
 11
32.186199999999999
 21
84.982799999999983
 31
0.0
  0
LINE
  5
95
  8
0
 62
     7
 10
32.186199999999999
 20
84.982799999999983
 30
0.0
 11
32.778700000000001
 21
87.194500000000005
 31
0.0
  0
LINE
  5
96
  8
0
 62
     7
 10
32.778700000000001
 20
87.194500000000005
 30
0.0
 11
31.593599999999991
 21
87.194500000000005
 31
0.0
  0
LINE
  5
97
  8
0
 62
     7
 10
39.675199999999997
 20
82.772400000000005
 30
0.0
 11
39.082599999999999
 21
84.984200000000016
 31
0.0
  0
LINE
  5
98
  8
0
 62
     7
 10
39.082599999999999
 20
84.984200000000016
 30
0.0
 11
38.490099999999991
 21
82.772400000000005
 31
0.0
  0
LINE
  5
99
  8
0
 62
     7
 10
38.490099999999991
 20
82.772400000000005
 30
0.0
 11
39.675199999999997
 21
82.772400000000005
 31
0.0
  0
LINE
  5
9A
  8
0
 62
     7
 10
39.675199999999997
 20
170.77299999999991
 30
0.0
 11
39.082599999999999
 21
172.98500000000001
 31
0.0
  0
LINE
  5
9B
  8
0
 62
     7
 10
39.082599999999999
 20
172.98500000000001
 30
0.0
 11
38.490099999999991
 21
170.77299999999991
 31
0.0
  0
LINE
  5
9C
  8
0
 62
     7
 10
38.490099999999991
 20
170.77299999999991
 30
0.0
 11
39.675199999999997
 21
170.77299999999991
 31
0.0
  0
LINE
  5
9D
  8
0
 62
     7
 10
32.764299999999992
 20
176.107
 30
0.0
 11
32.171700000000001
 21
178.31899999999999
 31
0.0
  0
LINE
  5
9E
  8
0
 62
     7
 10
32.171700000000001
 20
178.31899999999999
 30
0.0
 11
31.5792
 21
176.107
 31
0.0
  0
LINE
  5
9F
  8
0
 62
     7
 10
31.5792
 20
176.107
 30
0.0
 11
32.764299999999992
 21
176.107
 31
0.0
  0
LINE
  5
A0
  8
0
 62
     7
 10
39.082599999999999
 20
81.501099999999994
 30
0.0
 11
39.082599999999999
 21
182.81
 31
0.0
  0
LINE
  5
A1
  8
0
 62
     7
 10
32.178600000000003
 20
84.984200000000016
 30
0.0
 11
32.178600000000003
 21
178.3179999999999
 31
0.0
  0
LINE
  5
A2
  8
0
 62
     7
 10
53.604500000000002
 20
88.9846
 30
0.0
 11
38.382599999999996
 21
88.9846
 31
0.0
  0
LINE
  5
A3
  8
0
 62
     7
 10
54.19769999999999
 20
172.98500000000001
 30
0.0
 11
38.382599999999996
 21
172.98500000000001
 31
0.0
  0
LINE
  5
A4
  8
0
 62
     7
 10
49.269500000000001
 20
178.3179999999999
 30
0.0
 11
31.4786
 21
178.3179999999999
 31
0.0
  0
LINE
  5
A5
  8
0
 62
     7
 10
49.556800000000003
 20
84.984200000000016
 30
0.0
 11
31.4786
 21
84.984200000000016
 31
0.0
  0
LINE
  5
A6
  8
0
 62
     7
 10
126.34399999999989
 20
263.71800000000002
 30
0.0
 11
124.34399999999989
 21
263.71800000000002
 31
0.0
  0
LINE
  5
A7
  8
0
 62
     7
 10
122.133
 20
263.13200000000001
 30
0.0
 11
124.34399999999989
 21
263.72500000000002
 31
0.0
  0
LINE
  5
A8
  8
0
 62
     7
 10
124.34399999999989
 20
263.72500000000002
 30
0.0
 11
122.133
 21
264.31700000000001
 31
0.0
  0
LINE
  5
A9
  8
0
 62
     7
 10
122.133
 20
264.31700000000001
 30
0.0
 11
122.133
 21
263.13200000000001
 31
0.0
  0
LINE
  5
AA
  8
0
 62
     7
 10
124.3449999999999
 20
263.71800000000002
 30
0.0
 11
120.7389999999999
 21
263.71800000000002
 31
0.0
  0
LINE
  5
AB
  8
0
 62
     7
 10
128.55600000000001
 20
263.13200000000001
 30
0.0
 11
126.34399999999989
 21
263.72500000000002
 31
0.0
  0
LINE
  5
AC
  8
0
 62
     7
 10
126.34399999999989
 20
263.72500000000002
 30
0.0
 11
128.55600000000001
 21
264.31700000000001
 31
0.0
  0
LINE
  5
AD
  8
0
 62
     7
 10
128.55600000000001
 20
264.31700000000001
 30
0.0
 11
128.55600000000001
 21
263.13200000000001
 31
0.0
  0
LINE
  5
AE
  8
0
 62
     7
 10
126.3429999999999
 20
263.71800000000002
 30
0.0
 11
132.96600000000001
 21
263.71800000000002
 31
0.0
  0
LINE
  5
AF
  8
0
 62
     7
 10
124.34399999999989
 20
259.50299999999987
 30
0.0
 11
124.34399999999989
 21
264.4249999999999
 31
0.0
  0
LINE
  5
B0
  8
0
 62
     7
 10
126.34399999999989
 20
264.4249999999999
 30
0.0
 11
126.34399999999989
 21
259.62
 31
0.0
  0
LINE
  5
B1
  8
0
 62
     7
 10
162.1399999999999
 20
185.69499999999991
 30
0.0
 11
164.351
 21
186.2879999999999
 31
0.0
  0
LINE
  5
B2
  8
0
 62
     7
 10
164.351
 20
186.2879999999999
 30
0.0
 11
162.1399999999999
 21
186.88
 31
0.0
  0
LINE
  5
B3
  8
0
 62
     7
 10
162.1399999999999
 20
186.88
 30
0.0
 11
162.1399999999999
 21
185.69499999999991
 31
0.0
  0
LINE
  5
B4
  8
0
 62
     7
 10
126.5629999999999
 20
186.86600000000001
 30
0.0
 11
124.351
 21
186.27299999999991
 31
0.0
  0
LINE
  5
B5
  8
0
 62
     7
 10
124.351
 20
186.27299999999991
 30
0.0
 11
126.5629999999999
 21
185.67999999999989
 31
0.0
  0
LINE
  5
B6
  8
0
 62
     7
 10
126.5629999999999
 20
185.67999999999989
 30
0.0
 11
126.5629999999999
 21
186.86600000000001
 31
0.0
  0
LINE
  5
B7
  8
0
 62
     7
 10
164.34999999999991
 20
186.28
 30
0.0
 11
124.3519999999999
 21
186.28
 31
0.0
  0
LINE
  5
B8
  8
0
 62
     7
 10
124.351
 20
178.9259999999999
 30
0.0
 11
124.351
 21
186.9799999999999
 31
0.0
  0
LINE
  5
B9
  8
0
 62
     7
 10
164.351
 20
163.82599999999999
 30
0.0
 11
164.351
 21
186.9799999999999
 31
0.0
  0
LINE
  5
BA
  8
0
  6
AIGENLINE001
 62
     7
 10
96.779700000000005
 20
172.72
 30
0.0
 11
96.779700000000005
 21
177.13099999999989
 31
0.0
  0
LINE
  5
BB
  8
0
  6
AIGENLINE001
 62
     7
 10
98.990399999999994
 20
174.98500000000001
 30
0.0
 11
94.428099999999986
 21
174.98500000000001
 31
0.0
  0
LINE
  5
BC
  8
0
  6
AIGENLINE001
 62
     7
 10
71.700299999999999
 20
164.02000000000001
 30
0.0
 11
78.999799999999993
 21
164.02000000000001
 31
0.0
  0
LINE
  5
BD
  8
0
  6
AIGENLINE001
 62
     7
 10
75.112700000000004
 20
81.281700000000001
 30
0.0
 11
75.112700000000004
 21
184.1929999999999
 31
0.0
  0
ARC
  5
BE
  8
0
 62
     7
 10
80.601962999999984
 20
127.832626
 30
0.0
 40
1.000289999999999
 50
359.99014299999999
 51
89.990113000000008
  0
ARC
  5
BF
  8
0
 62
     7
 10
80.564231000000007
 20
127.8707159999999
 30
0.0
 40
1.0387269999999991
 50
272.09126099999992
 51
357.88900899999987
  0
ARC
  5
C0
  8
0
 62
     7
 10
80.640745999999993
 20
127.87142299999999
 30
0.0
 40
1.039458999999999
 50
182.148495
 51
267.87127500000003
  0
ARC
  5
C1
  8
0
 62
     7
 10
80.640726999999998
 20
127.79422099999989
 30
0.0
 40
1.039412
 50
92.127752000000015
 51
177.89195100000001
  0
ARC
  5
C2
  8
0
 62
     7
 10
76.896148999999994
 20
127.79415299999999
 30
0.0
 40
1.039482999999999
 50
2.1116369999999991
 51
87.868619999999993
  0
ARC
  5
C3
  8
0
 62
     7
 10
76.896904000000006
 20
127.8707159999999
 30
0.0
 40
1.0387269999999991
 50
272.09126099999992
 51
357.88900899999987
  0
ARC
  5
C4
  8
0
 62
     7
 10
76.973432999999986
 20
127.87107899999999
 30
0.0
 40
1.039115999999999
 50
182.130234
 51
267.86979600000001
  0
ARC
  5
C5
  8
0
 62
     7
 10
76.973732999999996
 20
127.7942449999999
 30
0.0
 40
1.0394000000000001
 50
92.146173999999988
 51
177.89327
  0
ARC
  5
C6
  8
0
 62
     7
 10
73.229157000000001
 20
127.794501
 30
0.0
 40
1.0391349999999999
 50
2.0931049999999991
 51
87.867411999999987
  0
ARC
  5
C7
  8
0
 62
     7
 10
73.229588000000007
 20
127.87069199999991
 30
0.0
 40
1.0387150000000001
 50
272.10968100000002
 51
357.89032899999989
  0
ARC
  5
C8
  8
0
 62
     7
 10
73.306441000000007
 20
127.87142799999999
 30
0.0
 40
1.0394639999999991
 50
182.14876799999999
 51
267.87100199999998
  0
ARC
  5
C9
  8
0
 62
     7
 10
73.267997999999992
 20
127.832626
 30
0.0
 40
1.000289999999999
 50
90.009867000000014
 51
180.0098769999999
  0
ARC
  5
CA
  8
0
 62
     7
 10
69.562168999999997
 20
127.7944959999999
 30
0.0
 40
1.0391399999999991
 50
2.0933779999999991
 51
87.867138999999995
  0
ARC
  5
CB
  8
0
 62
     7
 10
69.562605000000005
 20
127.87069199999991
 30
0.0
 40
1.0387150000000001
 50
272.10968100000002
 51
357.89032899999989
  0
ARC
  5
CC
  8
0
 62
     7
 10
69.639459000000002
 20
127.87142799999999
 30
0.0
 40
1.0394639999999991
 50
182.14876799999999
 51
267.87100199999998
  0
ARC
  5
CD
  8
0
 62
     7
 10
69.601015000000004
 20
127.832626
 30
0.0
 40
1.000289999999999
 50
90.009867000000014
 51
180.0098769999999
  0
ARC
  5
CE
  8
0
 62
     7
 10
84.268946
 20
134.1819769999999
 30
0.0
 40
1.000289999999999
 50
359.99014299999999
 51
89.990113000000008
  0
ARC
  5
CF
  8
0
 62
     7
 10
84.231214000000008
 20
134.22006699999989
 30
0.0
 40
1.0387269999999991
 50
272.09126099999992
 51
357.88900899999987
  0
ARC
  5
D0
  8
0
 62
     7
 10
84.307728999999995
 20
134.22077400000001
 30
0.0
 40
1.039458999999999
 50
182.148495
 51
267.87127500000003
  0
ARC
  5
D1
  8
0
 62
     7
 10
84.30771
 20
134.14357199999989
 30
0.0
 40
1.039412
 50
92.127752000000015
 51
177.89195100000001
  0
ARC
  5
D2
  8
0
 62
     7
 10
80.601962999999984
 20
134.1819769999999
 30
0.0
 40
1.000289999999999
 50
359.99014299999999
 51
89.990113000000008
  0
ARC
  5
D3
  8
0
 62
     7
 10
80.564231000000007
 20
134.22006699999989
 30
0.0
 40
1.0387269999999991
 50
272.09126099999992
 51
357.88900899999987
  0
ARC
  5
D4
  8
0
 62
     7
 10
80.640745999999993
 20
134.22077400000001
 30
0.0
 40
1.039458999999999
 50
182.148495
 51
267.87127500000003
  0
ARC
  5
D5
  8
0
 62
     7
 10
80.640726999999998
 20
134.14357199999989
 30
0.0
 40
1.039412
 50
92.127752000000015
 51
177.89195100000001
  0
ARC
  5
D6
  8
0
 62
     7
 10
76.896148999999994
 20
134.14350400000001
 30
0.0
 40
1.039482999999999
 50
2.1116369999999991
 51
87.868619999999993
  0
ARC
  5
D7
  8
0
 62
     7
 10
76.896904000000006
 20
134.22006699999989
 30
0.0
 40
1.0387269999999991
 50
272.09126099999992
 51
357.88900899999987
  0
ARC
  5
D8
  8
0
 62
     7
 10
76.973432999999986
 20
134.22042999999991
 30
0.0
 40
1.039115999999999
 50
182.130234
 51
267.86979600000001
  0
ARC
  5
D9
  8
0
 62
     7
 10
76.973732999999996
 20
134.143596
 30
0.0
 40
1.0394000000000001
 50
92.146173999999988
 51
177.89327
  0
ARC
  5
DA
  8
0
 62
     7
 10
73.229157000000001
 20
134.14385200000001
 30
0.0
 40
1.0391349999999999
 50
2.0931049999999991
 51
87.867411999999987
  0
ARC
  5
DB
  8
0
 62
     7
 10
73.229588000000007
 20
134.220043
 30
0.0
 40
1.0387150000000001
 50
272.10968100000002
 51
357.89032899999989
  0
ARC
  5
DC
  8
0
 62
     7
 10
73.306441000000007
 20
134.22077899999999
 30
0.0
 40
1.0394639999999991
 50
182.14876799999999
 51
267.87100199999998
  0
ARC
  5
DD
  8
0
 62
     7
 10
73.267997999999992
 20
134.1819769999999
 30
0.0
 40
1.000289999999999
 50
90.009867000000014
 51
180.0098769999999
  0
ARC
  5
DE
  8
0
 62
     7
 10
69.562168999999997
 20
134.14384699999991
 30
0.0
 40
1.0391399999999991
 50
2.0933779999999991
 51
87.867138999999995
  0
ARC
  5
DF
  8
0
 62
     7
 10
69.562605000000005
 20
134.220043
 30
0.0
 40
1.0387150000000001
 50
272.10968100000002
 51
357.89032899999989
  0
ARC
  5
E0
  8
0
 62
     7
 10
69.639459000000002
 20
134.22077899999999
 30
0.0
 40
1.0394639999999991
 50
182.14876799999999
 51
267.87100199999998
  0
ARC
  5
E1
  8
0
 62
     7
 10
69.601015000000004
 20
134.1819769999999
 30
0.0
 40
1.000289999999999
 50
90.009867000000014
 51
180.0098769999999
  0
ARC
  5
E2
  8
0
 62
     7
 10
65.895176000000006
 20
134.14383699999999
 30
0.0
 40
1.039150999999999
 50
2.0939239999999999
 51
87.866593000000009
  0
ARC
  5
E3
  8
0
 62
     7
 10
65.895622000000003
 20
134.220043
 30
0.0
 40
1.0387150000000001
 50
272.10968100000002
 51
357.89032899999989
  0
ARC
  5
E4
  8
0
 62
     7
 10
65.972470999999999
 20
134.22077400000001
 30
0.0
 40
1.039458999999999
 50
182.148495
 51
267.87127500000003
  0
ARC
  5
E5
  8
0
 62
     7
 10
65.972451000000007
 20
134.14357199999989
 30
0.0
 40
1.039412
 50
92.127752000000015
 51
177.89195100000001
  0
ARC
  5
E6
  8
0
 62
     7
 10
84.268946
 20
140.531328
 30
0.0
 40
1.000289999999999
 50
359.99014299999999
 51
89.990113000000008
  0
ARC
  5
E7
  8
0
 62
     7
 10
84.231214000000008
 20
140.5694179999999
 30
0.0
 40
1.0387269999999991
 50
272.09126099999992
 51
357.88900899999987
  0
ARC
  5
E8
  8
0
 62
     7
 10
84.307728999999995
 20
140.5701249999999
 30
0.0
 40
1.039458999999999
 50
182.148495
 51
267.87127500000003
  0
ARC
  5
E9
  8
0
 62
     7
 10
84.30771
 20
140.49292299999999
 30
0.0
 40
1.039412
 50
92.127752000000015
 51
177.89195100000001
  0
ARC
  5
EA
  8
0
 62
     7
 10
80.601962999999984
 20
140.531328
 30
0.0
 40
1.000289999999999
 50
359.99014299999999
 51
89.990113000000008
  0
ARC
  5
EB
  8
0
 62
     7
 10
80.564231000000007
 20
140.5694179999999
 30
0.0
 40
1.0387269999999991
 50
272.09126099999992
 51
357.88900899999987
  0
ARC
  5
EC
  8
0
 62
     7
 10
80.640745999999993
 20
140.5701249999999
 30
0.0
 40
1.039458999999999
 50
182.148495
 51
267.87127500000003
  0
ARC
  5
ED
  8
0
 62
     7
 10
80.640726999999998
 20
140.49292299999999
 30
0.0
 40
1.039412
 50
92.127752000000015
 51
177.89195100000001
  0
ARC
  5
EE
  8
0
 62
     7
 10
76.896148999999994
 20
140.49285499999991
 30
0.0
 40
1.039482999999999
 50
2.1116369999999991
 51
87.868619999999993
  0
ARC
  5
EF
  8
0
 62
     7
 10
76.896904000000006
 20
140.5694179999999
 30
0.0
 40
1.0387269999999991
 50
272.09126099999992
 51
357.88900899999987
  0
ARC
  5
F0
  8
0
 62
     7
 10
76.973432999999986
 20
140.56978100000001
 30
0.0
 40
1.039115999999999
 50
182.130234
 51
267.86979600000001
  0
ARC
  5
F1
  8
0
 62
     7
 10
76.973732999999996
 20
140.4929469999999
 30
0.0
 40
1.0394000000000001
 50
92.146173999999988
 51
177.89327
  0
ARC
  5
F2
  8
0
 62
     7
 10
73.229157000000001
 20
140.49320399999999
 30
0.0
 40
1.0391349999999999
 50
2.0931049999999991
 51
87.867411999999987
  0
ARC
  5
F3
  8
0
 62
     7
 10
73.229588000000007
 20
140.5693939999999
 30
0.0
 40
1.0387150000000001
 50
272.10968100000002
 51
357.89032899999989
  0
ARC
  5
F4
  8
0
 62
     7
 10
73.306441000000007
 20
140.57013000000001
 30
0.0
 40
1.0394639999999991
 50
182.14876799999999
 51
267.87100199999998
  0
ARC
  5
F5
  8
0
 62
     7
 10
73.267997999999992
 20
140.531328
 30
0.0
 40
1.000289999999999
 50
90.009867000000014
 51
180.0098769999999
  0
ARC
  5
F6
  8
0
 62
     7
 10
69.562168999999997
 20
140.49319800000001
 30
0.0
 40
1.0391399999999991
 50
2.0933779999999991
 51
87.867138999999995
  0
ARC
  5
F7
  8
0
 62
     7
 10
69.562605000000005
 20
140.5693939999999
 30
0.0
 40
1.0387150000000001
 50
272.10968100000002
 51
357.89032899999989
  0
ARC
  5
F8
  8
0
 62
     7
 10
69.639459000000002
 20
140.57013000000001
 30
0.0
 40
1.0394639999999991
 50
182.14876799999999
 51
267.87100199999998
  0
ARC
  5
F9
  8
0
 62
     7
 10
69.601015000000004
 20
140.531328
 30
0.0
 40
1.000289999999999
 50
90.009867000000014
 51
180.0098769999999
  0
ARC
  5
FA
  8
0
 62
     7
 10
65.895176000000006
 20
140.49318799999989
 30
0.0
 40
1.039150999999999
 50
2.0939239999999999
 51
87.866593000000009
  0
ARC
  5
FB
  8
0
 62
     7
 10
65.895622000000003
 20
140.5693939999999
 30
0.0
 40
1.0387150000000001
 50
272.10968100000002
 51
357.89032899999989
  0
ARC
  5
FC
  8
0
 62
     7
 10
65.972470999999999
 20
140.5701249999999
 30
0.0
 40
1.039458999999999
 50
182.148495
 51
267.87127500000003
  0
ARC
  5
FD
  8
0
 62
     7
 10
65.972451000000007
 20
140.49292299999999
 30
0.0
 40
1.039412
 50
92.127752000000015
 51
177.89195100000001
  0
ARC
  5
FE
  8
0
 62
     7
 10
84.268946
 20
146.88068000000001
 30
0.0
 40
1.000289999999999
 50
359.99014299999999
 51
89.990113000000008
  0
ARC
  5
FF
  8
0
 62
     7
 10
84.231214000000008
 20
146.918769
 30
0.0
 40
1.0387269999999991
 50
272.09126099999992
 51
357.88900899999987
  0
ARC
  5
100
  8
0
 62
     7
 10
84.307728999999995
 20
146.919476
 30
0.0
 40
1.039458999999999
 50
182.148495
 51
267.87127500000003
  0
ARC
  5
101
  8
0
 62
     7
 10
84.30771
 20
146.842274
 30
0.0
 40
1.039412
 50
92.127752000000015
 51
177.89195100000001
  0
ARC
  5
102
  8
0
 62
     7
 10
80.601962999999984
 20
146.88068000000001
 30
0.0
 40
1.000289999999999
 50
359.99014299999999
 51
89.990113000000008
  0
ARC
  5
103
  8
0
 62
     7
 10
80.564231000000007
 20
146.918769
 30
0.0
 40
1.0387269999999991
 50
272.09126099999992
 51
357.88900899999987
  0
ARC
  5
104
  8
0
 62
     7
 10
80.640745999999993
 20
146.919476
 30
0.0
 40
1.039458999999999
 50
182.148495
 51
267.87127500000003
  0
ARC
  5
105
  8
0
 62
     7
 10
80.640726999999998
 20
146.842274
 30
0.0
 40
1.039412
 50
92.127752000000015
 51
177.89195100000001
  0
ARC
  5
106
  8
0
 62
     7
 10
76.896148999999994
 20
146.84220599999989
 30
0.0
 40
1.039482999999999
 50
2.1116369999999991
 51
87.868619999999993
  0
ARC
  5
107
  8
0
 62
     7
 10
76.896904000000006
 20
146.918769
 30
0.0
 40
1.0387269999999991
 50
272.09126099999992
 51
357.88900899999987
  0
ARC
  5
108
  8
0
 62
     7
 10
76.973432999999986
 20
146.91913199999999
 30
0.0
 40
1.039115999999999
 50
182.130234
 51
267.86979600000001
  0
ARC
  5
109
  8
0
 62
     7
 10
76.973732999999996
 20
146.84229799999989
 30
0.0
 40
1.0394000000000001
 50
92.146173999999988
 51
177.89327
  0
ARC
  5
10A
  8
0
 62
     7
 10
73.229157000000001
 20
146.842555
 30
0.0
 40
1.0391349999999999
 50
2.0931049999999991
 51
87.867411999999987
  0
ARC
  5
10B
  8
0
 62
     7
 10
73.229588000000007
 20
146.91874499999989
 30
0.0
 40
1.0387150000000001
 50
272.10968100000002
 51
357.89032899999989
  0
ARC
  5
10C
  8
0
 62
     7
 10
73.306441000000007
 20
146.91948099999999
 30
0.0
 40
1.0394639999999991
 50
182.14876799999999
 51
267.87100199999998
  0
ARC
  5
10D
  8
0
 62
     7
 10
73.267997999999992
 20
146.88068000000001
 30
0.0
 40
1.000289999999999
 50
90.009867000000014
 51
180.0098769999999
  0
ARC
  5
10E
  8
0
 62
     7
 10
69.562168999999997
 20
146.8425499999999
 30
0.0
 40
1.0391399999999991
 50
2.0933779999999991
 51
87.867138999999995
  0
ARC
  5
10F
  8
0
 62
     7
 10
69.562605000000005
 20
146.91874499999989
 30
0.0
 40
1.0387150000000001
 50
272.10968100000002
 51
357.89032899999989
  0
ARC
  5
110
  8
0
 62
     7
 10
69.639459000000002
 20
146.91948099999999
 30
0.0
 40
1.0394639999999991
 50
182.14876799999999
 51
267.87100199999998
  0
ARC
  5
111
  8
0
 62
     7
 10
69.601015000000004
 20
146.88068000000001
 30
0.0
 40
1.000289999999999
 50
90.009867000000014
 51
180.0098769999999
  0
ARC
  5
112
  8
0
 62
     7
 10
65.895176000000006
 20
146.8425389999999
 30
0.0
 40
1.039150999999999
 50
2.0939239999999999
 51
87.866593000000009
  0
ARC
  5
113
  8
0
 62
     7
 10
65.895622000000003
 20
146.91874499999989
 30
0.0
 40
1.0387150000000001
 50
272.10968100000002
 51
357.89032899999989
  0
ARC
  5
114
  8
0
 62
     7
 10
65.972470999999999
 20
146.919476
 30
0.0
 40
1.039458999999999
 50
182.148495
 51
267.87127500000003
  0
ARC
  5
115
  8
0
 62
     7
 10
65.972451000000007
 20
146.842274
 30
0.0
 40
1.039412
 50
92.127752000000015
 51
177.89195100000001
  0
ARC
  5
116
  8
0
 62
     7
 10
84.268946
 20
153.230031
 30
0.0
 40
1.000289999999999
 50
359.99014299999999
 51
89.990113000000008
  0
ARC
  5
117
  8
0
 62
     7
 10
84.231214000000008
 20
153.26812099999989
 30
0.0
 40
1.0387269999999991
 50
272.09126099999992
 51
357.88900899999987
  0
ARC
  5
118
  8
0
 62
     7
 10
84.307728999999995
 20
153.26882699999999
 30
0.0
 40
1.039458999999999
 50
182.148495
 51
267.87127500000003
  0
ARC
  5
119
  8
0
 62
     7
 10
84.30771
 20
153.1916249999999
 30
0.0
 40
1.039412
 50
92.127752000000015
 51
177.89195100000001
  0
ARC
  5
11A
  8
0
 62
     7
 10
80.601962999999984
 20
153.230031
 30
0.0
 40
1.000289999999999
 50
359.99014299999999
 51
89.990113000000008
  0
ARC
  5
11B
  8
0
 62
     7
 10
80.564231000000007
 20
153.26812099999989
 30
0.0
 40
1.0387269999999991
 50
272.09126099999992
 51
357.88900899999987
  0
ARC
  5
11C
  8
0
 62
     7
 10
80.640745999999993
 20
153.26882699999999
 30
0.0
 40
1.039458999999999
 50
182.148495
 51
267.87127500000003
  0
ARC
  5
11D
  8
0
 62
     7
 10
80.640726999999998
 20
153.1916249999999
 30
0.0
 40
1.039412
 50
92.127752000000015
 51
177.89195100000001
  0
ARC
  5
11E
  8
0
 62
     7
 10
76.896148999999994
 20
153.19155699999999
 30
0.0
 40
1.039482999999999
 50
2.1116369999999991
 51
87.868619999999993
  0
ARC
  5
11F
  8
0
 62
     7
 10
76.896904000000006
 20
153.26812099999989
 30
0.0
 40
1.0387269999999991
 50
272.09126099999992
 51
357.88900899999987
  0
ARC
  5
120
  8
0
 62
     7
 10
76.973432999999986
 20
153.26848299999989
 30
0.0
 40
1.039115999999999
 50
182.130234
 51
267.86979600000001
  0
ARC
  5
121
  8
0
 62
     7
 10
76.973732999999996
 20
153.19164900000001
 30
0.0
 40
1.0394000000000001
 50
92.146173999999988
 51
177.89327
  0
ARC
  5
122
  8
0
 62
     7
 10
73.229157000000001
 20
153.19190599999999
 30
0.0
 40
1.0391349999999999
 50
2.0931049999999991
 51
87.867411999999987
  0
ARC
  5
123
  8
0
 62
     7
 10
73.229588000000007
 20
153.2680959999999
 30
0.0
 40
1.0387150000000001
 50
272.10968100000002
 51
357.89032899999989
  0
ARC
  5
124
  8
0
 62
     7
 10
73.306441000000007
 20
153.268832
 30
0.0
 40
1.0394639999999991
 50
182.14876799999999
 51
267.87100199999998
  0
ARC
  5
125
  8
0
 62
     7
 10
73.267997999999992
 20
153.230031
 30
0.0
 40
1.000289999999999
 50
90.009867000000014
 51
180.0098769999999
  0
ARC
  5
126
  8
0
 62
     7
 10
69.562168999999997
 20
153.191901
 30
0.0
 40
1.0391399999999991
 50
2.0933779999999991
 51
87.867138999999995
  0
ARC
  5
127
  8
0
 62
     7
 10
69.562605000000005
 20
153.2680959999999
 30
0.0
 40
1.0387150000000001
 50
272.10968100000002
 51
357.89032899999989
  0
ARC
  5
128
  8
0
 62
     7
 10
69.639459000000002
 20
153.268832
 30
0.0
 40
1.0394639999999991
 50
182.14876799999999
 51
267.87100199999998
  0
ARC
  5
129
  8
0
 62
     7
 10
69.601015000000004
 20
153.230031
 30
0.0
 40
1.000289999999999
 50
90.009867000000014
 51
180.0098769999999
  0
ARC
  5
12A
  8
0
 62
     7
 10
65.895176000000006
 20
153.19188999999989
 30
0.0
 40
1.039150999999999
 50
2.0939239999999999
 51
87.866593000000009
  0
ARC
  5
12B
  8
0
 62
     7
 10
65.895622000000003
 20
153.2680959999999
 30
0.0
 40
1.0387150000000001
 50
272.10968100000002
 51
357.89032899999989
  0
ARC
  5
12C
  8
0
 62
     7
 10
65.972470999999999
 20
153.26882699999999
 30
0.0
 40
1.039458999999999
 50
182.148495
 51
267.87127500000003
  0
ARC
  5
12D
  8
0
 62
     7
 10
65.972451000000007
 20
153.1916249999999
 30
0.0
 40
1.039412
 50
92.127752000000015
 51
177.89195100000001
  0
ARC
  5
12E
  8
0
 62
     7
 10
86.075344000000001
 20
130.98330899999999
 30
0.0
 40
1.0391259999999991
 50
2.1307610000000001
 51
87.869229000000004
  0
ARC
  5
12F
  8
0
 62
     7
 10
86.075053999999994
 20
131.06015300000001
 30
0.0
 40
1.039401
 50
272.14621099999999
 51
357.89327300000002
  0
ARC
  5
130
  8
0
 62
     7
 10
86.152637999999996
 20
131.06024500000001
 30
0.0
 40
1.039482
 50
182.11163999999999
 51
267.86865699999993
  0
ARC
  5
131
  8
0
 62
     7
 10
86.151882999999984
 20
130.98368199999999
 30
0.0
 40
1.038726
 50
92.091222999999999
 51
177.88900699999991
  0
ARC
  5
132
  8
0
 62
     7
 10
82.408360999999999
 20
130.98330899999999
 30
0.0
 40
1.0391259999999991
 50
2.1307610000000001
 51
87.869229000000004
  0
ARC
  5
133
  8
0
 62
     7
 10
82.408070999999993
 20
131.06015300000001
 30
0.0
 40
1.039401
 50
272.14621099999999
 51
357.89327300000002
  0
ARC
  5
134
  8
0
 62
     7
 10
82.485655000000008
 20
131.06024500000001
 30
0.0
 40
1.039482
 50
182.11163999999999
 51
267.86865699999993
  0
ARC
  5
135
  8
0
 62
     7
 10
82.484899999999996
 20
130.98368199999999
 30
0.0
 40
1.038726
 50
92.091222999999999
 51
177.88900699999991
  0
ARC
  5
136
  8
0
 62
     7
 10
78.741377999999983
 20
130.98330899999999
 30
0.0
 40
1.0391259999999991
 50
2.1307610000000001
 51
87.869229000000004
  0
ARC
  5
137
  8
0
 62
     7
 10
78.741088000000005
 20
131.06015300000001
 30
0.0
 40
1.039401
 50
272.14621099999999
 51
357.89327300000002
  0
ARC
  5
138
  8
0
 62
     7
 10
78.818671999999992
 20
131.06024500000001
 30
0.0
 40
1.039482
 50
182.11163999999999
 51
267.86865699999993
  0
ARC
  5
139
  8
0
 62
     7
 10
78.817916999999994
 20
130.98368199999999
 30
0.0
 40
1.038726
 50
92.091222999999999
 51
177.88900699999991
  0
ARC
  5
13A
  8
0
 62
     7
 10
75.074069999999992
 20
130.98296999999991
 30
0.0
 40
1.0394639999999991
 50
2.148747999999999
 51
87.870981999999998
  0
ARC
  5
13B
  8
0
 62
     7
 10
75.112513000000007
 20
131.021772
 30
0.0
 40
1.000289999999999
 50
270.00988699999999
 51
0.009857
  0
ARC
  5
13C
  8
0
 62
     7
 10
75.112858000000003
 20
131.021771
 30
0.0
 40
1.000289999999999
 50
179.99010399999989
 51
269.99015299999991
  0
ARC
  5
13D
  8
0
 62
     7
 10
75.150589999999994
 20
130.98368199999999
 30
0.0
 40
1.038726
 50
92.091222999999999
 51
177.88900699999991
  0
ARC
  5
13E
  8
0
 62
     7
 10
71.406747999999993
 20
130.98297500000001
 30
0.0
 40
1.039458999999999
 50
2.148474999999999
 51
87.871256000000017
  0
ARC
  5
13F
  8
0
 62
     7
 10
71.406767000000002
 20
131.06017800000001
 30
0.0
 40
1.039412999999999
 50
272.12778900000001
 51
357.891954
  0
ARC
  5
140
  8
0
 62
     7
 10
71.484042000000002
 20
131.059912
 30
0.0
 40
1.03915
 50
182.09392700000001
 51
267.86662999999987
  0
ARC
  5
141
  8
0
 62
     7
 10
71.483595999999991
 20
130.98370600000001
 30
0.0
 40
1.038713999999999
 50
92.109643999999989
 51
177.8903259999999
  0
ARC
  5
142
  8
0
 62
     7
 10
67.739765000000006
 20
130.98297500000001
 30
0.0
 40
1.039458999999999
 50
2.148474999999999
 51
87.871256000000017
  0
ARC
  5
143
  8
0
 62
     7
 10
67.739784
 20
131.06017800000001
 30
0.0
 40
1.039412999999999
 50
272.12778900000001
 51
357.891954
  0
ARC
  5
144
  8
0
 62
     7
 10
67.817059
 20
131.059912
 30
0.0
 40
1.03915
 50
182.09392700000001
 51
267.86662999999987
  0
ARC
  5
145
  8
0
 62
     7
 10
67.816613000000004
 20
130.98370600000001
 30
0.0
 40
1.038713999999999
 50
92.109643999999989
 51
177.8903259999999
  0
ARC
  5
146
  8
0
 62
     7
 10
64.072777000000002
 20
130.98296999999991
 30
0.0
 40
1.0394639999999991
 50
2.148747999999999
 51
87.870981999999998
  0
ARC
  5
147
  8
0
 62
     7
 10
64.111221
 20
131.021772
 30
0.0
 40
1.000289999999999
 50
270.00988699999999
 51
0.009857
  0
ARC
  5
148
  8
0
 62
     7
 10
64.15006600000001
 20
131.059901
 30
0.0
 40
1.0391399999999991
 50
182.09337999999991
 51
267.86717599999992
  0
ARC
  5
149
  8
0
 62
     7
 10
64.149630000000002
 20
130.98370600000001
 30
0.0
 40
1.038713999999999
 50
92.109643999999989
 51
177.8903259999999
  0
ARC
  5
14A
  8
0
 62
     7
 10
86.075344000000001
 20
137.33266
 30
0.0
 40
1.0391259999999991
 50
2.1307610000000001
 51
87.869229000000004
  0
ARC
  5
14B
  8
0
 62
     7
 10
86.075053999999994
 20
137.409504
 30
0.0
 40
1.039401
 50
272.14621099999999
 51
357.89327300000002
  0
ARC
  5
14C
  8
0
 62
     7
 10
86.152637999999996
 20
137.40959599999999
 30
0.0
 40
1.039482
 50
182.11163999999999
 51
267.86865699999993
  0
ARC
  5
14D
  8
0
 62
     7
 10
86.151882999999984
 20
137.33303299999989
 30
0.0
 40
1.038726
 50
92.091222999999999
 51
177.88900699999991
  0
ARC
  5
14E
  8
0
 62
     7
 10
82.408360999999999
 20
137.33266
 30
0.0
 40
1.0391259999999991
 50
2.1307610000000001
 51
87.869229000000004
  0
ARC
  5
14F
  8
0
 62
     7
 10
82.408070999999993
 20
137.409504
 30
0.0
 40
1.039401
 50
272.14621099999999
 51
357.89327300000002
  0
ARC
  5
150
  8
0
 62
     7
 10
82.485655000000008
 20
137.40959599999999
 30
0.0
 40
1.039482
 50
182.11163999999999
 51
267.86865699999993
  0
ARC
  5
151
  8
0
 62
     7
 10
82.484899999999996
 20
137.33303299999989
 30
0.0
 40
1.038726
 50
92.091222999999999
 51
177.88900699999991
  0
ARC
  5
152
  8
0
 62
     7
 10
78.741377999999983
 20
137.33266
 30
0.0
 40
1.0391259999999991
 50
2.1307610000000001
 51
87.869229000000004
  0
ARC
  5
153
  8
0
 62
     7
 10
78.741088000000005
 20
137.409504
 30
0.0
 40
1.039401
 50
272.14621099999999
 51
357.89327300000002
  0
ARC
  5
154
  8
0
 62
     7
 10
78.818671999999992
 20
137.40959599999999
 30
0.0
 40
1.039482
 50
182.11163999999999
 51
267.86865699999993
  0
ARC
  5
155
  8
0
 62
     7
 10
78.817916999999994
 20
137.33303299999989
 30
0.0
 40
1.038726
 50
92.091222999999999
 51
177.88900699999991
  0
ARC
  5
156
  8
0
 62
     7
 10
75.074069999999992
 20
137.33232100000001
 30
0.0
 40
1.0394639999999991
 50
2.148747999999999
 51
87.870981999999998
  0
ARC
  5
157
  8
0
 62
     7
 10
75.112513000000007
 20
137.37112300000001
 30
0.0
 40
1.000289999999999
 50
270.00988699999999
 51
0.009857
  0
ARC
  5
158
  8
0
 62
     7
 10
75.112858000000003
 20
137.3711219999999
 30
0.0
 40
1.000289999999999
 50
179.99010399999989
 51
269.99015299999991
  0
ARC
  5
159
  8
0
 62
     7
 10
75.150589999999994
 20
137.33303299999989
 30
0.0
 40
1.038726
 50
92.091222999999999
 51
177.88900699999991
  0
ARC
  5
15A
  8
0
 62
     7
 10
71.406747999999993
 20
137.33232599999999
 30
0.0
 40
1.039458999999999
 50
2.148474999999999
 51
87.871256000000017
  0
ARC
  5
15B
  8
0
 62
     7
 10
71.406767000000002
 20
137.40952899999991
 30
0.0
 40
1.039412999999999
 50
272.12778900000001
 51
357.891954
  0
ARC
  5
15C
  8
0
 62
     7
 10
71.484042000000002
 20
137.4092629999999
 30
0.0
 40
1.03915
 50
182.09392700000001
 51
267.86662999999987
  0
ARC
  5
15D
  8
0
 62
     7
 10
71.483595999999991
 20
137.33305799999991
 30
0.0
 40
1.038713999999999
 50
92.109643999999989
 51
177.8903259999999
  0
ARC
  5
15E
  8
0
 62
     7
 10
67.739765000000006
 20
137.33232599999999
 30
0.0
 40
1.039458999999999
 50
2.148474999999999
 51
87.871256000000017
  0
ARC
  5
15F
  8
0
 62
     7
 10
67.739784
 20
137.40952899999991
 30
0.0
 40
1.039412999999999
 50
272.12778900000001
 51
357.891954
  0
ARC
  5
160
  8
0
 62
     7
 10
67.817059
 20
137.4092629999999
 30
0.0
 40
1.03915
 50
182.09392700000001
 51
267.86662999999987
  0
ARC
  5
161
  8
0
 62
     7
 10
67.816613000000004
 20
137.33305799999991
 30
0.0
 40
1.038713999999999
 50
92.109643999999989
 51
177.8903259999999
  0
ARC
  5
162
  8
0
 62
     7
 10
64.072777000000002
 20
137.33232100000001
 30
0.0
 40
1.0394639999999991
 50
2.148747999999999
 51
87.870981999999998
  0
ARC
  5
163
  8
0
 62
     7
 10
64.111221
 20
137.37112300000001
 30
0.0
 40
1.000289999999999
 50
270.00988699999999
 51
0.009857
  0
ARC
  5
164
  8
0
 62
     7
 10
64.15006600000001
 20
137.40925200000001
 30
0.0
 40
1.0391399999999991
 50
182.09337999999991
 51
267.86717599999992
  0
ARC
  5
165
  8
0
 62
     7
 10
64.149630000000002
 20
137.33305799999991
 30
0.0
 40
1.038713999999999
 50
92.109643999999989
 51
177.8903259999999
  0
ARC
  5
166
  8
0
 62
     7
 10
86.075344000000001
 20
143.68201099999999
 30
0.0
 40
1.0391259999999991
 50
2.1307610000000001
 51
87.869229000000004
  0
ARC
  5
167
  8
0
 62
     7
 10
86.075053999999994
 20
143.75885500000001
 30
0.0
 40
1.039401
 50
272.14621099999999
 51
357.89327300000002
  0
ARC
  5
168
  8
0
 62
     7
 10
86.152637999999996
 20
143.75894699999989
 30
0.0
 40
1.039482
 50
182.11163999999999
 51
267.86865699999993
  0
ARC
  5
169
  8
0
 62
     7
 10
86.151882999999984
 20
143.68238400000001
 30
0.0
 40
1.038726
 50
92.091222999999999
 51
177.88900699999991
  0
ARC
  5
16A
  8
0
 62
     7
 10
82.408360999999999
 20
143.68201099999999
 30
0.0
 40
1.0391259999999991
 50
2.1307610000000001
 51
87.869229000000004
  0
ARC
  5
16B
  8
0
 62
     7
 10
82.408070999999993
 20
143.75885500000001
 30
0.0
 40
1.039401
 50
272.14621099999999
 51
357.89327300000002
  0
ARC
  5
16C
  8
0
 62
     7
 10
82.485655000000008
 20
143.75894699999989
 30
0.0
 40
1.039482
 50
182.11163999999999
 51
267.86865699999993
  0
ARC
  5
16D
  8
0
 62
     7
 10
82.484899999999996
 20
143.68238400000001
 30
0.0
 40
1.038726
 50
92.091222999999999
 51
177.88900699999991
  0
ARC
  5
16E
  8
0
 62
     7
 10
78.741377999999983
 20
143.68201099999999
 30
0.0
 40
1.0391259999999991
 50
2.1307610000000001
 51
87.869229000000004
  0
ARC
  5
16F
  8
0
 62
     7
 10
78.741088000000005
 20
143.75885500000001
 30
0.0
 40
1.039401
 50
272.14621099999999
 51
357.89327300000002
  0
ARC
  5
170
  8
0
 62
     7
 10
78.818671999999992
 20
143.75894699999989
 30
0.0
 40
1.039482
 50
182.11163999999999
 51
267.86865699999993
  0
ARC
  5
171
  8
0
 62
     7
 10
78.817916999999994
 20
143.68238400000001
 30
0.0
 40
1.038726
 50
92.091222999999999
 51
177.88900699999991
  0
ARC
  5
172
  8
0
 62
     7
 10
75.074069999999992
 20
143.68167199999991
 30
0.0
 40
1.0394639999999991
 50
2.148747999999999
 51
87.870981999999998
  0
ARC
  5
173
  8
0
 62
     7
 10
75.112513000000007
 20
143.720474
 30
0.0
 40
1.000289999999999
 50
270.00988699999999
 51
0.009857
  0
ARC
  5
174
  8
0
 62
     7
 10
75.112858000000003
 20
143.720474
 30
0.0
 40
1.000289999999999
 50
179.99010399999989
 51
269.99015299999991
  0
ARC
  5
175
  8
0
 62
     7
 10
75.150589999999994
 20
143.68238400000001
 30
0.0
 40
1.038726
 50
92.091222999999999
 51
177.88900699999991
  0
ARC
  5
176
  8
0
 62
     7
 10
71.406747999999993
 20
143.68167700000001
 30
0.0
 40
1.039458999999999
 50
2.148474999999999
 51
87.871256000000017
  0
ARC
  5
177
  8
0
 62
     7
 10
71.406767000000002
 20
143.75888
 30
0.0
 40
1.039412999999999
 50
272.12778900000001
 51
357.891954
  0
ARC
  5
178
  8
0
 62
     7
 10
71.484042000000002
 20
143.75861399999999
 30
0.0
 40
1.03915
 50
182.09392700000001
 51
267.86662999999987
  0
ARC
  5
179
  8
0
 62
     7
 10
71.483595999999991
 20
143.68240899999989
 30
0.0
 40
1.038713999999999
 50
92.109643999999989
 51
177.8903259999999
  0
ARC
  5
17A
  8
0
 62
     7
 10
67.739765000000006
 20
143.68167700000001
 30
0.0
 40
1.039458999999999
 50
2.148474999999999
 51
87.871256000000017
  0
ARC
  5
17B
  8
0
 62
     7
 10
67.739784
 20
143.75888
 30
0.0
 40
1.039412999999999
 50
272.12778900000001
 51
357.891954
  0
ARC
  5
17C
  8
0
 62
     7
 10
67.817059
 20
143.75861399999999
 30
0.0
 40
1.03915
 50
182.09392700000001
 51
267.86662999999987
  0
ARC
  5
17D
  8
0
 62
     7
 10
67.816613000000004
 20
143.68240899999989
 30
0.0
 40
1.038713999999999
 50
92.109643999999989
 51
177.8903259999999
  0
ARC
  5
17E
  8
0
 62
     7
 10
64.072777000000002
 20
143.68167199999991
 30
0.0
 40
1.0394639999999991
 50
2.148747999999999
 51
87.870981999999998
  0
ARC
  5
17F
  8
0
 62
     7
 10
64.111221
 20
143.720474
 30
0.0
 40
1.000289999999999
 50
270.00988699999999
 51
0.009857
  0
ARC
  5
180
  8
0
 62
     7
 10
64.15006600000001
 20
143.75860399999999
 30
0.0
 40
1.0391399999999991
 50
182.09337999999991
 51
267.86717599999992
  0
ARC
  5
181
  8
0
 62
     7
 10
64.149630000000002
 20
143.68240899999989
 30
0.0
 40
1.038713999999999
 50
92.109643999999989
 51
177.8903259999999
  0
ARC
  5
182
  8
0
 62
     7
 10
86.075344000000001
 20
150.031362
 30
0.0
 40
1.0391259999999991
 50
2.1307610000000001
 51
87.869229000000004
  0
ARC
  5
183
  8
0
 62
     7
 10
86.075053999999994
 20
150.10820699999999
 30
0.0
 40
1.039401
 50
272.14621099999999
 51
357.89327300000002
  0
ARC
  5
184
  8
0
 62
     7
 10
86.152637999999996
 20
150.10829799999991
 30
0.0
 40
1.039482
 50
182.11163999999999
 51
267.86865699999993
  0
ARC
  5
185
  8
0
 62
     7
 10
86.151882999999984
 20
150.03173499999991
 30
0.0
 40
1.038726
 50
92.091222999999999
 51
177.88900699999991
  0
ARC
  5
186
  8
0
 62
     7
 10
82.408360999999999
 20
150.031362
 30
0.0
 40
1.0391259999999991
 50
2.1307610000000001
 51
87.869229000000004
  0
ARC
  5
187
  8
0
 62
     7
 10
82.408070999999993
 20
150.10820699999999
 30
0.0
 40
1.039401
 50
272.14621099999999
 51
357.89327300000002
  0
ARC
  5
188
  8
0
 62
     7
 10
82.485655000000008
 20
150.10829799999991
 30
0.0
 40
1.039482
 50
182.11163999999999
 51
267.86865699999993
  0
ARC
  5
189
  8
0
 62
     7
 10
82.484899999999996
 20
150.03173499999991
 30
0.0
 40
1.038726
 50
92.091222999999999
 51
177.88900699999991
  0
ARC
  5
18A
  8
0
 62
     7
 10
78.741377999999983
 20
150.031362
 30
0.0
 40
1.0391259999999991
 50
2.1307610000000001
 51
87.869229000000004
  0
ARC
  5
18B
  8
0
 62
     7
 10
78.741088000000005
 20
150.10820699999999
 30
0.0
 40
1.039401
 50
272.14621099999999
 51
357.89327300000002
  0
ARC
  5
18C
  8
0
 62
     7
 10
78.818671999999992
 20
150.10829799999991
 30
0.0
 40
1.039482
 50
182.11163999999999
 51
267.86865699999993
  0
ARC
  5
18D
  8
0
 62
     7
 10
78.817916999999994
 20
150.03173499999991
 30
0.0
 40
1.038726
 50
92.091222999999999
 51
177.88900699999991
  0
ARC
  5
18E
  8
0
 62
     7
 10
75.074069999999992
 20
150.031023
 30
0.0
 40
1.0394639999999991
 50
2.148747999999999
 51
87.870981999999998
  0
ARC
  5
18F
  8
0
 62
     7
 10
75.112513000000007
 20
150.06982500000001
 30
0.0
 40
1.000289999999999
 50
270.00988699999999
 51
0.009857
  0
ARC
  5
190
  8
0
 62
     7
 10
75.112858000000003
 20
150.06982500000001
 30
0.0
 40
1.000289999999999
 50
179.99010399999989
 51
269.99015299999991
  0
ARC
  5
191
  8
0
 62
     7
 10
75.150589999999994
 20
150.03173499999991
 30
0.0
 40
1.038726
 50
92.091222999999999
 51
177.88900699999991
  0
ARC
  5
192
  8
0
 62
     7
 10
71.406747999999993
 20
150.0310289999999
 30
0.0
 40
1.039458999999999
 50
2.148474999999999
 51
87.871256000000017
  0
ARC
  5
193
  8
0
 62
     7
 10
71.406767000000002
 20
150.10823099999999
 30
0.0
 40
1.039412999999999
 50
272.12778900000001
 51
357.891954
  0
ARC
  5
194
  8
0
 62
     7
 10
71.484042000000002
 20
150.10796499999989
 30
0.0
 40
1.03915
 50
182.09392700000001
 51
267.86662999999987
  0
ARC
  5
195
  8
0
 62
     7
 10
71.483595999999991
 20
150.03175999999999
 30
0.0
 40
1.038713999999999
 50
92.109643999999989
 51
177.8903259999999
  0
ARC
  5
196
  8
0
 62
     7
 10
67.739765000000006
 20
150.0310289999999
 30
0.0
 40
1.039458999999999
 50
2.148474999999999
 51
87.871256000000017
  0
ARC
  5
197
  8
0
 62
     7
 10
67.739784
 20
150.10823099999999
 30
0.0
 40
1.039412999999999
 50
272.12778900000001
 51
357.891954
  0
ARC
  5
198
  8
0
 62
     7
 10
67.817059
 20
150.10796499999989
 30
0.0
 40
1.03915
 50
182.09392700000001
 51
267.86662999999987
  0
ARC
  5
199
  8
0
 62
     7
 10
67.816613000000004
 20
150.03175999999999
 30
0.0
 40
1.038713999999999
 50
92.109643999999989
 51
177.8903259999999
  0
ARC
  5
19A
  8
0
 62
     7
 10
64.072777000000002
 20
150.031023
 30
0.0
 40
1.0394639999999991
 50
2.148747999999999
 51
87.870981999999998
  0
ARC
  5
19B
  8
0
 62
     7
 10
64.111221
 20
150.06982500000001
 30
0.0
 40
1.000289999999999
 50
270.00988699999999
 51
0.009857
  0
ARC
  5
19C
  8
0
 62
     7
 10
64.15006600000001
 20
150.107955
 30
0.0
 40
1.0391399999999991
 50
182.09337999999991
 51
267.86717599999992
  0
ARC
  5
19D
  8
0
 62
     7
 10
64.149630000000002
 20
150.03175999999999
 30
0.0
 40
1.038713999999999
 50
92.109643999999989
 51
177.8903259999999
  0
ARC
  5
19E
  8
0
 62
     7
 10
86.075344000000001
 20
156.3807129999999
 30
0.0
 40
1.0391259999999991
 50
2.1307610000000001
 51
87.869229000000004
  0
ARC
  5
19F
  8
0
 62
     7
 10
86.075053999999994
 20
156.45755800000001
 30
0.0
 40
1.039401
 50
272.14621099999999
 51
357.89327300000002
  0
ARC
  5
1A0
  8
0
 62
     7
 10
86.152637999999996
 20
156.457649
 30
0.0
 40
1.039482
 50
182.11163999999999
 51
267.86865699999993
  0
ARC
  5
1A1
  8
0
 62
     7
 10
86.151882999999984
 20
156.38108700000001
 30
0.0
 40
1.038726
 50
92.091222999999999
 51
177.88900699999991
  0
ARC
  5
1A2
  8
0
 62
     7
 10
82.408360999999999
 20
156.3807129999999
 30
0.0
 40
1.0391259999999991
 50
2.1307610000000001
 51
87.869229000000004
  0
ARC
  5
1A3
  8
0
 62
     7
 10
82.408070999999993
 20
156.45755800000001
 30
0.0
 40
1.039401
 50
272.14621099999999
 51
357.89327300000002
  0
ARC
  5
1A4
  8
0
 62
     7
 10
82.485655000000008
 20
156.457649
 30
0.0
 40
1.039482
 50
182.11163999999999
 51
267.86865699999993
  0
ARC
  5
1A5
  8
0
 62
     7
 10
82.484899999999996
 20
156.38108700000001
 30
0.0
 40
1.038726
 50
92.091222999999999
 51
177.88900699999991
  0
ARC
  5
1A6
  8
0
 62
     7
 10
78.741377999999983
 20
156.3807129999999
 30
0.0
 40
1.0391259999999991
 50
2.1307610000000001
 51
87.869229000000004
  0
ARC
  5
1A7
  8
0
 62
     7
 10
78.741088000000005
 20
156.45755800000001
 30
0.0
 40
1.039401
 50
272.14621099999999
 51
357.89327300000002
  0
ARC
  5
1A8
  8
0
 62
     7
 10
78.818671999999992
 20
156.457649
 30
0.0
 40
1.039482
 50
182.11163999999999
 51
267.86865699999993
  0
ARC
  5
1A9
  8
0
 62
     7
 10
78.817916999999994
 20
156.38108700000001
 30
0.0
 40
1.038726
 50
92.091222999999999
 51
177.88900699999991
  0
ARC
  5
1AA
  8
0
 62
     7
 10
75.074069999999992
 20
156.3803749999999
 30
0.0
 40
1.0394639999999991
 50
2.148747999999999
 51
87.870981999999998
  0
ARC
  5
1AB
  8
0
 62
     7
 10
75.112513000000007
 20
156.41917599999991
 30
0.0
 40
1.000289999999999
 50
270.00988699999999
 51
0.009857
  0
ARC
  5
1AC
  8
0
 62
     7
 10
75.112858000000003
 20
156.41917599999991
 30
0.0
 40
1.000289999999999
 50
179.99010399999989
 51
269.99015299999991
  0
ARC
  5
1AD
  8
0
 62
     7
 10
75.150589999999994
 20
156.38108700000001
 30
0.0
 40
1.038726
 50
92.091222999999999
 51
177.88900699999991
  0
ARC
  5
1AE
  8
0
 62
     7
 10
71.406747999999993
 20
156.38038
 30
0.0
 40
1.039458999999999
 50
2.148474999999999
 51
87.871256000000017
  0
ARC
  5
1AF
  8
0
 62
     7
 10
71.406767000000002
 20
156.45758199999989
 30
0.0
 40
1.039412999999999
 50
272.12778900000001
 51
357.891954
  0
ARC
  5
1B0
  8
0
 62
     7
 10
71.484042000000002
 20
156.45731599999991
 30
0.0
 40
1.03915
 50
182.09392700000001
 51
267.86662999999987
  0
ARC
  5
1B1
  8
0
 62
     7
 10
71.483595999999991
 20
156.381111
 30
0.0
 40
1.038713999999999
 50
92.109643999999989
 51
177.8903259999999
  0
ARC
  5
1B2
  8
0
 62
     7
 10
67.739765000000006
 20
156.38038
 30
0.0
 40
1.039458999999999
 50
2.148474999999999
 51
87.871256000000017
  0
ARC
  5
1B3
  8
0
 62
     7
 10
67.739784
 20
156.45758199999989
 30
0.0
 40
1.039412999999999
 50
272.12778900000001
 51
357.891954
  0
ARC
  5
1B4
  8
0
 62
     7
 10
67.817059
 20
156.45731599999991
 30
0.0
 40
1.03915
 50
182.09392700000001
 51
267.86662999999987
  0
ARC
  5
1B5
  8
0
 62
     7
 10
67.816613000000004
 20
156.381111
 30
0.0
 40
1.038713999999999
 50
92.109643999999989
 51
177.8903259999999
  0
ARC
  5
1B6
  8
0
 62
     7
 10
64.072777000000002
 20
156.3803749999999
 30
0.0
 40
1.0394639999999991
 50
2.148747999999999
 51
87.870981999999998
  0
ARC
  5
1B7
  8
0
 62
     7
 10
64.111221
 20
156.41917599999991
 30
0.0
 40
1.000289999999999
 50
270.00988699999999
 51
0.009857
  0
ARC
  5
1B8
  8
0
 62
     7
 10
64.15006600000001
 20
156.45730599999999
 30
0.0
 40
1.0391399999999991
 50
182.09337999999991
 51
267.86717599999992
  0
ARC
  5
1B9
  8
0
 62
     7
 10
64.149630000000002
 20
156.381111
 30
0.0
 40
1.038713999999999
 50
92.109643999999989
 51
177.8903259999999
  0
ARC
  5
1BA
  8
0
 62
     7
 10
75.159367000000003
 20
164.01979299999999
 30
0.0
 40
2.6163949999999998
 50
0.003782
 51
90.00375200000002
  0
ARC
  5
1BB
  8
0
 62
     7
 10
75.058494999999994
 20
164.12030799999991
 30
0.0
 40
2.719117999999999
 50
272.1223819999999
 51
357.88517100000001
  0
ARC
  5
1BC
  8
0
 62
     7
 10
75.259565000000009
 20
164.12033600000001
 30
0.0
 40
2.7191349999999992
 50
182.11543699999999
 51
267.884593
  0
ARC
  5
1BD
  8
0
 62
     7
 10
75.158850999999999
 20
164.019621
 30
0.0
 40
2.616566999999999
 50
89.992456000000004
 51
179.99242599999999
  0
ARC
  5
1BE
  8
0
 62
     7
 10
75.076548000000003
 20
163.937319
 30
0.0
 40
2.2504550000000001
 50
2.1046419999999988
 51
87.895347999999998
  0
ARC
  5
1BF
  8
0
 62
     7
 10
75.158850000000001
 20
164.01962199999991
 30
0.0
 40
2.166634999999999
 50
270.00912999999991
 51
0.009101
  0
ARC
  5
1C0
  8
0
 62
     7
 10
75.241876000000005
 20
164.1022889999999
 30
0.0
 40
2.2508209999999989
 50
182.09607500000001
 51
267.89484499999998
  0
ARC
  5
1C1
  8
0
 62
     7
 10
75.241889999999984
 20
163.93691299999989
 30
0.0
 40
2.2508619999999988
 50
92.105469999999997
 51
177.885389
  0
ARC
  5
1C2
  8
0
 62
     7
 10
75.088881000000001
 20
163.94965199999999
 30
0.0
 40
1.905103
 50
2.1151580000000001
 51
87.884831999999989
  0
ARC
  5
1C3
  8
0
 62
     7
 10
75.088891000000004
 20
164.09027
 30
0.0
 40
1.905092999999999
 50
272.11487699999992
 51
357.88513299999988
  0
ARC
  5
1C4
  8
0
 62
     7
 10
75.229503000000008
 20
164.09027399999999
 30
0.0
 40
1.9050969999999989
 50
182.11501499999989
 51
267.88501500000001
  0
ARC
  5
1C5
  8
0
 62
     7
 10
75.229517999999999
 20
163.9496429999999
 30
0.0
 40
1.9051130000000001
 50
92.115421999999981
 51
177.884548
  0
ARC
  5
1C6
  8
0
 62
     7
 10
89.458669999999984
 20
165.9873
 30
0.0
 40
3.3333239999999988
 50
359.997049
 51
89.997018999999995
  0
ARC
  5
1C7
  8
0
 62
     7
 10
89.459015000000008
 20
101.98666799999999
 30
0.0
 40
3.332978999999999
 50
269.99705899999992
 51
359.99702899999988
  0
ARC
  5
1C8
  8
0
 62
     7
 10
60.791679000000002
 20
165.98712699999999
 30
0.0
 40
3.3334959999999989
 50
90.0
 51
179.99996999999991
  0
ARC
  5
1C9
  8
0
 62
     7
 10
60.791332999999987
 20
101.986839
 30
0.0
 40
3.3331499999999989
 50
180.005932
 51
270.005942
  0
LINE
  5
1CA
  8
0
 62
     7
 10
57.458199999999998
 20
101.9859999999999
 30
0.0
 11
57.458199999999998
 21
165.98699999999991
 31
0.0
  0
LINE
  5
1CB
  8
0
 62
     7
 10
60.791699999999999
 20
169.321
 30
0.0
 11
89.458799999999997
 21
169.321
 31
0.0
  0
LINE
  5
1CC
  8
0
 62
     7
 10
92.792000000000016
 20
165.98699999999991
 30
0.0
 11
92.792000000000016
 21
101.9859999999999
 31
0.0
  0
LINE
  5
1CD
  8
0
 62
     7
 10
89.458799999999997
 20
98.653700000000001
 30
0.0
 11
60.791699999999999
 21
98.653700000000001
 31
0.0
  0
ARC
  5
1CE
  8
0
 62
     7
 10
94.036346999999992
 20
170.908468
 30
0.0
 40
2.0777909999999991
 50
2.100252999999999
 51
87.889868000000007
  0
ARC
  5
1CF
  8
0
 62
     7
 10
56.189005000000002
 20
170.90813
 30
0.0
 40
2.0781279999999991
 50
92.109226000000007
 51
177.8907439999999
  0
ARC
  5
1D0
  8
0
 62
     7
 10
94.036719999999974
 20
91.060657999999989
 30
0.0
 40
2.0774309999999998
 50
272.1002049999999
 51
357.88993399999993
  0
ARC
  5
1D1
  8
0
 62
     7
 10
56.188966999999998
 20
91.061330999999996
 30
0.0
 40
2.078114999999999
 50
182.12795899999989
 51
267.8918109999999
  0
LINE
  5
1D2
  8
0
 62
     7
 10
54.112299999999991
 20
90.984200000000001
 30
0.0
 11
54.112299999999991
 21
170.98500000000001
 31
0.0
  0
LINE
  5
1D3
  8
0
 62
     7
 10
56.112499999999997
 20
172.98500000000001
 30
0.0
 11
94.112899999999996
 21
172.98500000000001
 31
0.0
  0
LINE
  5
1D4
  8
0
 62
     7
 10
96.112700000000004
 20
170.98500000000001
 30
0.0
 11
96.112700000000004
 21
90.995199999999997
 31
0.0
  0
LINE
  5
1D5
  8
0
 62
     7
 10
94.112899999999996
 20
88.9846
 30
0.0
 11
56.112499999999997
 21
88.9846
 31
0.0
  0
ARC
  5
1D6
  8
0
 62
     7
 10
50.804974999999992
 20
85.676624000000004
 30
0.0
 40
0.6929410000000001
 50
182.10870700000001
 51
267.891323
  0
ARC
  5
1D7
  8
0
 62
     7
 10
99.420407999999995
 20
85.676599999999993
 30
0.0
 40
0.692929
 50
272.13633900000002
 51
357.89327400000002
  0
ARC
  5
1D8
  8
0
 62
     7
 10
99.419730000000001
 20
177.62595200000001
 30
0.0
 40
0.69258
 50
2.1227510000000001
 51
87.892045999999993
  0
ARC
  5
1D9
  8
0
 62
     7
 10
50.80462
 20
177.62491299999999
 30
0.0
 40
0.692586
 50
92.108906000000005
 51
177.891064
  0
ARC
  5
1DA
  8
0
 62
     7
 10
96.835797999999997
 20
174.92882599999999
 30
0.0
 40
1.5237059999999989
 50
92.109250000000003
 51
177.8839899999999
  0
ARC
  5
1DB
  8
0
 62
     7
 10
96.83614900000002
 20
175.04115899999999
 30
0.0
 40
1.5240489999999991
 50
182.10854499999991
 51
267.87802699999992
  0
ARC
  5
1DC
  8
0
 62
     7
 10
96.779717000000005
 20
174.985085
 30
0.0
 40
1.4669309999999991
 50
270.00002000000001
 51
359.99998999999991
  0
ARC
  5
1DD
  8
0
 62
     7
 10
96.779976000000005
 20
174.984826
 30
0.0
 40
1.466672999999999
 50
0.010104
 51
90.010074000000003
  0
LINE
  5
1DE
  8
0
 62
     7
 10
164.327
 20
160.89199999999991
 30
0.0
 11
164.327
 21
161.74600000000001
 31
0.0
  0
LINE
  5
1DF
  8
0
 62
     7
 10
164.327
 20
103.71899999999999
 30
0.0
 11
164.327
 21
104.57299999999999
 31
0.0
  0
LINE
  5
1E0
  8
0
 62
     7
 10
163.58699999999999
 20
104.1179999999999
 30
0.0
 11
159.88499999999991
 21
104.1179999999999
 31
0.0
  0
LINE
  5
1E1
  8
0
 62
     7
 10
159.88499999999991
 20
104.1179999999999
 30
0.0
 11
159.88499999999991
 21
104.801
 31
0.0
  0
LINE
  5
1E2
  8
0
 62
     7
 10
159.88499999999991
 20
104.801
 30
0.0
 11
159.88499999999991
 21
104.1179999999999
 31
0.0
  0
LINE
  5
1E3
  8
0
 62
     7
 10
159.88499999999991
 20
104.1179999999999
 30
0.0
 11
159.999
 21
104.0599999999999
 31
0.0
  0
LINE
  5
1E4
  8
0
 62
     7
 10
159.999
 20
104.0599999999999
 30
0.0
 11
159.999
 21
104.8579999999999
 31
0.0
  0
LINE
  5
1E5
  8
0
 62
     7
 10
159.999
 20
104.8579999999999
 30
0.0
 11
159.88499999999991
 21
104.801
 31
0.0
  0
LINE
  5
1E6
  8
0
 62
     7
 10
163.58699999999999
 20
104.801
 30
0.0
 11
159.88499999999991
 21
104.801
 31
0.0
  0
LINE
  5
1E7
  8
0
 62
     7
 10
163.58699999999999
 20
104.8579999999999
 30
0.0
 11
159.999
 21
104.8579999999999
 31
0.0
  0
LINE
  5
1E8
  8
0
 62
     7
 10
163.58699999999999
 20
104.0599999999999
 30
0.0
 11
159.999
 21
104.0599999999999
 31
0.0
  0
LINE
  5
1E9
  8
0
 62
     7
 10
163.131
 20
103.8329999999999
 30
0.0
 11
163.131
 21
104.459
 31
0.0
  0
LINE
  5
1EA
  8
0
 62
     7
 10
163.131
 20
104.459
 30
0.0
 11
163.131
 21
105.0859999999999
 31
0.0
  0
LINE
  5
1EB
  8
0
 62
     7
 10
162.56200000000001
 20
104.801
 30
0.0
 11
163.131
 21
104.801
 31
0.0
  0
LINE
  5
1EC
  8
0
 62
     7
 10
162.56200000000001
 20
104.1749999999999
 30
0.0
 11
163.131
 21
104.1749999999999
 31
0.0
  0
LINE
  5
1ED
  8
0
 62
     7
 10
163.131
 20
105.0859999999999
 30
0.0
 11
162.56200000000001
 21
105.0859999999999
 31
0.0
  0
LINE
  5
1EE
  8
0
 62
     7
 10
162.56200000000001
 20
105.0859999999999
 30
0.0
 11
162.56200000000001
 21
104.459
 31
0.0
  0
LINE
  5
1EF
  8
0
 62
     7
 10
162.56200000000001
 20
104.459
 30
0.0
 11
162.56200000000001
 21
103.8329999999999
 31
0.0
  0
LINE
  5
1F0
  8
0
 62
     7
 10
162.56200000000001
 20
103.8329999999999
 30
0.0
 11
163.131
 21
103.8329999999999
 31
0.0
  0
LINE
  5
1F1
  8
0
 62
     7
 10
164.327
 20
105.8829999999999
 30
0.0
 11
164.21299999999991
 21
105.997
 31
0.0
  0
LINE
  5
1F2
  8
0
 62
     7
 10
164.327
 20
105.371
 30
0.0
 11
163.75700000000001
 21
105.997
 31
0.0
  0
LINE
  5
1F3
  8
0
 62
     7
 10
163.81399999999991
 20
105.2
 30
0.0
 11
163.30199999999999
 21
105.712
 31
0.0
  0
LINE
  5
1F4
  8
0
 62
     7
 10
163.416
 20
104.8579999999999
 30
0.0
 11
163.30199999999999
 21
105.0289999999999
 31
0.0
  0
LINE
  5
1F5
  8
0
 62
     7
 10
163.58699999999999
 20
104.00399999999991
 30
0.0
 11
163.52899999999991
 21
104.0599999999999
 31
0.0
  0
LINE
  5
1F6
  8
0
 62
     7
 10
163.58699999999999
 20
103.776
 30
0.0
 11
163.30199999999999
 21
104.0599999999999
 31
0.0
  0
LINE
  5
1F7
  8
0
 62
     7
 10
164.327
 20
103.0359999999999
 30
0.0
 11
163.643
 21
103.71899999999999
 31
0.0
  0
LINE
  5
1F8
  8
0
 62
     7
 10
163.69999999999999
 20
102.922
 30
0.0
 11
163.30199999999999
 21
103.3779999999999
 31
0.0
  0
LINE
  5
1F9
  8
0
 62
     7
 10
163.4729999999999
 20
102.922
 30
0.0
 11
163.30199999999999
 21
103.15000000000001
 31
0.0
  0
LINE
  5
1FA
  8
0
 62
     7
 10
163.245
 20
104.0599999999999
 30
0.0
 11
163.131
 21
104.0599999999999
 31
0.0
  0
LINE
  5
1FB
  8
0
 62
     7
 10
163.58699999999999
 20
104.0599999999999
 30
0.0
 11
163.30199999999999
 21
104.0599999999999
 31
0.0
  0
LINE
  5
1FC
  8
0
 62
     7
 10
163.245
 20
104.8579999999999
 30
0.0
 11
163.131
 21
104.8579999999999
 31
0.0
  0
LINE
  5
1FD
  8
0
 62
     7
 10
163.58699999999999
 20
104.8579999999999
 30
0.0
 11
163.30199999999999
 21
104.8579999999999
 31
0.0
  0
LINE
  5
1FE
  8
0
 62
     7
 10
164.327
 20
103.71899999999999
 30
0.0
 11
163.58699999999999
 21
103.71899999999999
 31
0.0
  0
LINE
  5
1FF
  8
0
 62
     7
 10
164.327
 20
105.2
 30
0.0
 11
163.58699999999999
 21
105.2
 31
0.0
  0
LINE
  5
200
  8
0
 62
     7
 10
164.15599999999989
 20
102.9789999999999
 30
0.0
 11
164.327
 21
103.15000000000001
 31
0.0
  0
LINE
  5
201
  8
0
 62
     7
 10
163.4729999999999
 20
102.80799999999989
 30
0.0
 11
163.8709999999999
 21
102.80799999999989
 31
0.0
  0
LINE
  5
202
  8
0
 62
     7
 10
164.15599999999989
 20
102.922
 30
0.0
 11
163.4729999999999
 21
102.922
 31
0.0
  0
LINE
  5
203
  8
0
 62
     7
 10
163.4729999999999
 20
102.922
 30
0.0
 11
163.8709999999999
 21
102.922
 31
0.0
  0
LINE
  5
204
  8
0
 62
     7
 10
164.09899999999999
 20
105.2
 30
0.0
 11
164.09899999999999
 21
103.71899999999999
 31
0.0
  0
LINE
  5
205
  8
0
 62
     7
 10
163.58699999999999
 20
104.459
 30
0.0
 11
163.58699999999999
 21
103.71899999999999
 31
0.0
  0
LINE
  5
206
  8
0
 62
     7
 10
163.58699999999999
 20
103.71899999999999
 30
0.0
 11
163.58699999999999
 21
104.459
 31
0.0
  0
LINE
  5
207
  8
0
 62
     7
 10
164.327
 20
105.82599999999999
 30
0.0
 11
164.327
 21
103.15000000000001
 31
0.0
  0
LINE
  5
208
  8
0
 62
     7
 10
163.4729999999999
 20
106.1109999999999
 30
0.0
 11
163.8709999999999
 21
106.1109999999999
 31
0.0
  0
LINE
  5
209
  8
0
 62
     7
 10
164.15599999999989
 20
105.997
 30
0.0
 11
163.4729999999999
 21
105.997
 31
0.0
  0
LINE
  5
20A
  8
0
 62
     7
 10
163.4729999999999
 20
105.997
 30
0.0
 11
163.8709999999999
 21
105.997
 31
0.0
  0
LINE
  5
20B
  8
0
 62
     7
 10
163.58699999999999
 20
104.459
 30
0.0
 11
163.58699999999999
 21
105.2
 31
0.0
  0
LINE
  5
20C
  8
0
 62
     7
 10
163.58699999999999
 20
105.2
 30
0.0
 11
163.58699999999999
 21
104.459
 31
0.0
  0
LINE
  5
20D
  8
0
 62
     7
 10
163.4729999999999
 20
105.9399999999999
 30
0.0
 11
163.30199999999999
 21
105.76900000000001
 31
0.0
  0
LINE
  5
20E
  8
0
 62
     7
 10
163.1879999999999
 20
103.15000000000001
 30
0.0
 11
163.245
 21
102.922
 31
0.0
  0
LINE
  5
20F
  8
0
 62
     7
 10
163.245
 20
102.922
 30
0.0
 11
163.4729999999999
 21
102.86499999999999
 31
0.0
  0
LINE
  5
210
  8
0
 62
     7
 10
163.4729999999999
 20
106.054
 30
0.0
 11
163.245
 21
105.997
 31
0.0
  0
LINE
  5
211
  8
0
 62
     7
 10
163.245
 20
105.997
 30
0.0
 11
163.1879999999999
 21
105.76900000000001
 31
0.0
  0
LINE
  5
212
  8
0
 62
     7
 10
163.4729999999999
 20
105.9399999999999
 30
0.0
 11
163.30199999999999
 21
105.76900000000001
 31
0.0
  0
LINE
  5
213
  8
0
 62
     7
 10
163.245
 20
103.15000000000001
 30
0.0
 11
163.245
 21
105.76900000000001
 31
0.0
  0
LINE
  5
214
  8
0
 62
     7
 10
163.8709999999999
 20
105.997
 30
0.0
 11
163.8709999999999
 21
106.1109999999999
 31
0.0
  0
LINE
  5
215
  8
0
 62
     7
 10
163.8709999999999
 20
102.80799999999989
 30
0.0
 11
163.8709999999999
 21
102.922
 31
0.0
  0
LINE
  5
216
  8
0
 62
     7
 10
163.131
 20
103.15000000000001
 30
0.0
 11
163.131
 21
105.76900000000001
 31
0.0
  0
LINE
  5
217
  8
0
 62
     7
 10
163.30199999999999
 20
103.15000000000001
 30
0.0
 11
163.30199999999999
 21
105.76900000000001
 31
0.0
  0
LINE
  5
218
  8
0
 62
     7
 10
163.58699999999999
 20
161.17699999999999
 30
0.0
 11
159.88499999999991
 21
161.17699999999999
 31
0.0
  0
LINE
  5
219
  8
0
 62
     7
 10
159.88499999999991
 20
161.17699999999999
 30
0.0
 11
159.88499999999991
 21
161.803
 31
0.0
  0
LINE
  5
21A
  8
0
 62
     7
 10
159.88499999999991
 20
161.803
 30
0.0
 11
159.88499999999991
 21
161.17699999999999
 31
0.0
  0
LINE
  5
21B
  8
0
 62
     7
 10
159.88499999999991
 20
161.17699999999999
 30
0.0
 11
159.999
 21
161.06299999999999
 31
0.0
  0
LINE
  5
21C
  8
0
 62
     7
 10
159.999
 20
161.06299999999999
 30
0.0
 11
159.999
 21
161.8609999999999
 31
0.0
  0
LINE
  5
21D
  8
0
 62
     7
 10
159.999
 20
161.8609999999999
 30
0.0
 11
159.88499999999991
 21
161.803
 31
0.0
  0
LINE
  5
21E
  8
0
 62
     7
 10
163.58699999999999
 20
161.803
 30
0.0
 11
159.88499999999991
 21
161.803
 31
0.0
  0
LINE
  5
21F
  8
0
 62
     7
 10
163.58699999999999
 20
161.8609999999999
 30
0.0
 11
159.999
 21
161.8609999999999
 31
0.0
  0
LINE
  5
220
  8
0
 62
     7
 10
163.58699999999999
 20
161.06299999999999
 30
0.0
 11
159.999
 21
161.06299999999999
 31
0.0
  0
LINE
  5
221
  8
0
 62
     7
 10
163.131
 20
160.83500000000001
 30
0.0
 11
163.131
 21
161.46199999999999
 31
0.0
  0
LINE
  5
222
  8
0
 62
     7
 10
163.131
 20
161.46199999999999
 30
0.0
 11
163.131
 21
162.14500000000001
 31
0.0
  0
LINE
  5
223
  8
0
 62
     7
 10
162.56200000000001
 20
161.803
 30
0.0
 11
163.131
 21
161.803
 31
0.0
  0
LINE
  5
224
  8
0
 62
     7
 10
162.56200000000001
 20
161.17699999999999
 30
0.0
 11
163.131
 21
161.17699999999999
 31
0.0
  0
LINE
  5
225
  8
0
 62
     7
 10
163.131
 20
162.14500000000001
 30
0.0
 11
162.56200000000001
 21
162.14500000000001
 31
0.0
  0
LINE
  5
226
  8
0
 62
     7
 10
162.56200000000001
 20
162.14500000000001
 30
0.0
 11
162.56200000000001
 21
161.46199999999999
 31
0.0
  0
LINE
  5
227
  8
0
 62
     7
 10
162.56200000000001
 20
161.46199999999999
 30
0.0
 11
162.56200000000001
 21
160.83500000000001
 31
0.0
  0
LINE
  5
228
  8
0
 62
     7
 10
162.56200000000001
 20
160.83500000000001
 30
0.0
 11
163.131
 21
160.83500000000001
 31
0.0
  0
LINE
  5
229
  8
0
 62
     7
 10
164.27000000000001
 20
162.2589999999999
 30
0.0
 11
163.4729999999999
 21
163.0
 31
0.0
  0
LINE
  5
22A
  8
0
 62
     7
 10
163.58699999999999
 20
162.202
 30
0.0
 11
163.30199999999999
 21
162.5439999999999
 31
0.0
  0
LINE
  5
22B
  8
0
 62
     7
 10
163.58699999999999
 20
161.06299999999999
 30
0.0
 11
163.52899999999991
 21
161.06299999999999
 31
0.0
  0
LINE
  5
22C
  8
0
 62
     7
 10
164.327
 20
160.26599999999999
 30
0.0
 11
163.8709999999999
 21
160.72200000000001
 31
0.0
  0
LINE
  5
22D
  8
0
 62
     7
 10
164.21299999999991
 20
159.98099999999991
 30
0.0
 11
163.30199999999999
 21
160.89199999999991
 31
0.0
  0
LINE
  5
22E
  8
0
 62
     7
 10
163.69999999999999
 20
159.98099999999991
 30
0.0
 11
163.30199999999999
 21
160.37999999999991
 31
0.0
  0
LINE
  5
22F
  8
0
 62
     7
 10
163.4729999999999
 20
159.98099999999991
 30
0.0
 11
163.30199999999999
 21
160.15199999999999
 31
0.0
  0
LINE
  5
230
  8
0
 62
     7
 10
163.245
 20
161.06299999999999
 30
0.0
 11
163.131
 21
161.06299999999999
 31
0.0
  0
LINE
  5
231
  8
0
 62
     7
 10
163.58699999999999
 20
161.06299999999999
 30
0.0
 11
163.30199999999999
 21
161.06299999999999
 31
0.0
  0
LINE
  5
232
  8
0
 62
     7
 10
163.245
 20
161.91699999999989
 30
0.0
 11
163.131
 21
161.91699999999989
 31
0.0
  0
LINE
  5
233
  8
0
 62
     7
 10
163.58699999999999
 20
161.91699999999989
 30
0.0
 11
163.30199999999999
 21
161.91699999999989
 31
0.0
  0
LINE
  5
234
  8
0
 62
     7
 10
164.327
 20
160.72200000000001
 30
0.0
 11
163.58699999999999
 21
160.72200000000001
 31
0.0
  0
LINE
  5
235
  8
0
 62
     7
 10
164.327
 20
162.2589999999999
 30
0.0
 11
163.58699999999999
 21
162.2589999999999
 31
0.0
  0
LINE
  5
236
  8
0
 62
     7
 10
164.15599999999989
 20
159.98099999999991
 30
0.0
 11
164.327
 21
160.15199999999999
 31
0.0
  0
LINE
  5
237
  8
0
 62
     7
 10
163.4729999999999
 20
159.81
 30
0.0
 11
163.8709999999999
 21
159.81
 31
0.0
  0
LINE
  5
238
  8
0
 62
     7
 10
164.15599999999989
 20
159.98099999999991
 30
0.0
 11
163.4729999999999
 21
159.98099999999991
 31
0.0
  0
LINE
  5
239
  8
0
 62
     7
 10
163.4729999999999
 20
159.98099999999991
 30
0.0
 11
163.8709999999999
 21
159.92399999999989
 31
0.0
  0
LINE
  5
23A
  8
0
 62
     7
 10
164.09899999999999
 20
162.2589999999999
 30
0.0
 11
164.09899999999999
 21
160.72200000000001
 31
0.0
  0
LINE
  5
23B
  8
0
 62
     7
 10
163.58699999999999
 20
161.46199999999999
 30
0.0
 11
163.58699999999999
 21
160.72200000000001
 31
0.0
  0
LINE
  5
23C
  8
0
 62
     7
 10
163.58699999999999
 20
160.72200000000001
 30
0.0
 11
163.58699999999999
 21
161.46199999999999
 31
0.0
  0
LINE
  5
23D
  8
0
 62
     7
 10
164.327
 20
162.82899999999989
 30
0.0
 11
164.327
 21
160.15199999999999
 31
0.0
  0
LINE
  5
23E
  8
0
 62
     7
 10
164.327
 20
162.82899999999989
 30
0.0
 11
164.15599999999989
 21
163.0
 31
0.0
  0
LINE
  5
23F
  8
0
 62
     7
 10
163.4729999999999
 20
163.1699999999999
 30
0.0
 11
163.8709999999999
 21
163.1699999999999
 31
0.0
  0
LINE
  5
240
  8
0
 62
     7
 10
164.15599999999989
 20
163.0
 30
0.0
 11
163.4729999999999
 21
163.0
 31
0.0
  0
LINE
  5
241
  8
0
 62
     7
 10
163.4729999999999
 20
163.0
 30
0.0
 11
163.8709999999999
 21
163.0
 31
0.0
  0
LINE
  5
242
  8
0
 62
     7
 10
163.58699999999999
 20
161.46199999999999
 30
0.0
 11
163.58699999999999
 21
162.2589999999999
 31
0.0
  0
LINE
  5
243
  8
0
 62
     7
 10
163.58699999999999
 20
162.2589999999999
 30
0.0
 11
163.58699999999999
 21
161.46199999999999
 31
0.0
  0
LINE
  5
244
  8
0
 62
     7
 10
163.30199999999999
 20
160.15199999999999
 30
0.0
 11
163.4729999999999
 21
159.98099999999991
 31
0.0
  0
LINE
  5
245
  8
0
 62
     7
 10
163.4729999999999
 20
163.0
 30
0.0
 11
163.30199999999999
 21
162.82899999999989
 31
0.0
  0
LINE
  5
246
  8
0
 62
     7
 10
163.1879999999999
 20
160.15199999999999
 30
0.0
 11
163.245
 21
159.92399999999989
 31
0.0
  0
LINE
  5
247
  8
0
 62
     7
 10
163.245
 20
159.92399999999989
 30
0.0
 11
163.4729999999999
 21
159.86699999999999
 31
0.0
  0
LINE
  5
248
  8
0
 62
     7
 10
163.30199999999999
 20
160.15199999999999
 30
0.0
 11
163.4729999999999
 21
159.98099999999991
 31
0.0
  0
LINE
  5
249
  8
0
 62
     7
 10
163.4729999999999
 20
163.11299999999989
 30
0.0
 11
163.245
 21
163.05600000000001
 31
0.0
  0
LINE
  5
24A
  8
0
 62
     7
 10
163.245
 20
163.05600000000001
 30
0.0
 11
163.1879999999999
 21
162.82899999999989
 31
0.0
  0
LINE
  5
24B
  8
0
 62
     7
 10
163.4729999999999
 20
163.0
 30
0.0
 11
163.30199999999999
 21
162.82899999999989
 31
0.0
  0
LINE
  5
24C
  8
0
 62
     7
 10
163.245
 20
160.15199999999999
 30
0.0
 11
163.245
 21
162.82899999999989
 31
0.0
  0
LINE
  5
24D
  8
0
 62
     7
 10
163.8709999999999
 20
163.0
 30
0.0
 11
163.8709999999999
 21
163.1699999999999
 31
0.0
  0
LINE
  5
24E
  8
0
 62
     7
 10
163.8709999999999
 20
159.81
 30
0.0
 11
163.8709999999999
 21
159.92399999999989
 31
0.0
  0
LINE
  5
24F
  8
0
 62
     7
 10
163.131
 20
160.15199999999999
 30
0.0
 11
163.131
 21
162.82899999999989
 31
0.0
  0
LINE
  5
250
  8
0
 62
     7
 10
163.30199999999999
 20
160.15199999999999
 30
0.0
 11
163.30199999999999
 21
162.82899999999989
 31
0.0
  0
LINE
  5
251
  8
0
 62
     7
 10
163.58699999999999
 20
245.53299999999999
 30
0.0
 11
159.94200000000001
 21
245.53299999999999
 31
0.0
  0
LINE
  5
252
  8
0
 62
     7
 10
159.94200000000001
 20
245.53299999999999
 30
0.0
 11
159.94200000000001
 21
246.2169999999999
 31
0.0
  0
LINE
  5
253
  8
0
 62
     7
 10
159.94200000000001
 20
246.2169999999999
 30
0.0
 11
159.94200000000001
 21
245.53299999999999
 31
0.0
  0
LINE
  5
254
  8
0
 62
     7
 10
159.94200000000001
 20
245.53299999999999
 30
0.0
 11
159.999
 21
245.47599999999991
 31
0.0
  0
LINE
  5
255
  8
0
 62
     7
 10
159.999
 20
245.47599999999991
 30
0.0
 11
159.999
 21
246.274
 31
0.0
  0
LINE
  5
256
  8
0
 62
     7
 10
159.999
 20
246.274
 30
0.0
 11
159.94200000000001
 21
246.2169999999999
 31
0.0
  0
LINE
  5
257
  8
0
 62
     7
 10
163.58699999999999
 20
246.2169999999999
 30
0.0
 11
159.94200000000001
 21
246.2169999999999
 31
0.0
  0
LINE
  5
258
  8
0
 62
     7
 10
163.58699999999999
 20
246.274
 30
0.0
 11
159.999
 21
246.274
 31
0.0
  0
LINE
  5
259
  8
0
 62
     7
 10
163.58699999999999
 20
245.47599999999991
 30
0.0
 11
159.999
 21
245.47599999999991
 31
0.0
  0
LINE
  5
25A
  8
0
 62
     7
 10
163.131
 20
245.249
 30
0.0
 11
163.131
 21
245.875
 31
0.0
  0
LINE
  5
25B
  8
0
 62
     7
 10
163.131
 20
245.875
 30
0.0
 11
163.131
 21
246.50099999999989
 31
0.0
  0
LINE
  5
25C
  8
0
 62
     7
 10
162.56200000000001
 20
246.16
 30
0.0
 11
163.131
 21
246.16
 31
0.0
  0
LINE
  5
25D
  8
0
 62
     7
 10
162.56200000000001
 20
245.53299999999999
 30
0.0
 11
163.131
 21
245.53299999999999
 31
0.0
  0
LINE
  5
25E
  8
0
 62
     7
 10
163.131
 20
246.50099999999989
 30
0.0
 11
162.56200000000001
 21
246.50099999999989
 31
0.0
  0
LINE
  5
25F
  8
0
 62
     7
 10
162.56200000000001
 20
246.50099999999989
 30
0.0
 11
162.56200000000001
 21
245.875
 31
0.0
  0
LINE
  5
260
  8
0
 62
     7
 10
162.56200000000001
 20
245.875
 30
0.0
 11
162.56200000000001
 21
245.249
 31
0.0
  0
LINE
  5
261
  8
0
 62
     7
 10
162.56200000000001
 20
245.249
 30
0.0
 11
163.131
 21
245.249
 31
0.0
  0
LINE
  5
262
  8
0
 62
     7
 10
164.327
 20
246.78599999999989
 30
0.0
 11
163.75700000000001
 21
247.4129999999999
 31
0.0
  0
LINE
  5
263
  8
0
 62
     7
 10
163.81399999999991
 20
246.61500000000001
 30
0.0
 11
163.30199999999999
 21
247.1279999999999
 31
0.0
  0
LINE
  5
264
  8
0
 62
     7
 10
163.416
 20
246.274
 30
0.0
 11
163.30199999999999
 21
246.44499999999991
 31
0.0
  0
LINE
  5
265
  8
0
 62
     7
 10
163.58699999999999
 20
245.41900000000001
 30
0.0
 11
163.52899999999991
 21
245.41900000000001
 31
0.0
  0
LINE
  5
266
  8
0
 62
     7
 10
163.58699999999999
 20
245.19200000000001
 30
0.0
 11
163.30199999999999
 21
245.41900000000001
 31
0.0
  0
LINE
  5
267
  8
0
 62
     7
 10
164.327
 20
244.45099999999999
 30
0.0
 11
163.643
 21
245.13499999999999
 31
0.0
  0
LINE
  5
268
  8
0
 62
     7
 10
163.69999999999999
 20
244.33799999999991
 30
0.0
 11
163.30199999999999
 21
244.79299999999989
 31
0.0
  0
LINE
  5
269
  8
0
 62
     7
 10
163.58699999999999
 20
245.41900000000001
 30
0.0
 11
163.30199999999999
 21
245.41900000000001
 31
0.0
  0
LINE
  5
26A
  8
0
 62
     7
 10
163.30199999999999
 20
245.41900000000001
 30
0.0
 11
163.131
 21
245.41900000000001
 31
0.0
  0
LINE
  5
26B
  8
0
 62
     7
 10
163.58699999999999
 20
246.274
 30
0.0
 11
163.30199999999999
 21
246.274
 31
0.0
  0
LINE
  5
26C
  8
0
 62
     7
 10
163.30199999999999
 20
246.274
 30
0.0
 11
163.131
 21
246.274
 31
0.0
  0
LINE
  5
26D
  8
0
 62
     7
 10
164.327
 20
245.13499999999999
 30
0.0
 11
163.58699999999999
 21
245.13499999999999
 31
0.0
  0
LINE
  5
26E
  8
0
 62
     7
 10
164.327
 20
246.61500000000001
 30
0.0
 11
163.58699999999999
 21
246.61500000000001
 31
0.0
  0
LINE
  5
26F
  8
0
 62
     7
 10
164.15599999999989
 20
244.33799999999991
 30
0.0
 11
164.327
 21
244.5079999999999
 31
0.0
  0
LINE
  5
270
  8
0
 62
     7
 10
163.4729999999999
 20
244.22399999999999
 30
0.0
 11
163.8709999999999
 21
244.167
 31
0.0
  0
LINE
  5
271
  8
0
 62
     7
 10
164.15599999999989
 20
244.33799999999991
 30
0.0
 11
163.4729999999999
 21
244.33799999999991
 31
0.0
  0
LINE
  5
272
  8
0
 62
     7
 10
163.4729999999999
 20
244.33799999999991
 30
0.0
 11
163.8709999999999
 21
244.33799999999991
 31
0.0
  0
LINE
  5
273
  8
0
 62
     7
 10
164.09899999999999
 20
246.61500000000001
 30
0.0
 11
164.09899999999999
 21
245.13499999999999
 31
0.0
  0
LINE
  5
274
  8
0
 62
     7
 10
163.58699999999999
 20
245.875
 30
0.0
 11
163.58699999999999
 21
245.13499999999999
 31
0.0
  0
LINE
  5
275
  8
0
 62
     7
 10
163.58699999999999
 20
245.13499999999999
 30
0.0
 11
163.58699999999999
 21
245.875
 31
0.0
  0
LINE
  5
276
  8
0
 62
     7
 10
164.327
 20
247.18499999999989
 30
0.0
 11
164.327
 21
244.5079999999999
 31
0.0
  0
LINE
  5
277
  8
0
 62
     7
 10
164.327
 20
247.18499999999989
 30
0.0
 11
164.10400000000001
 21
247.4079999999999
 31
0.0
  0
LINE
  5
278
  8
0
 62
     7
 10
163.4729999999999
 20
247.52699999999999
 30
0.0
 11
163.8709999999999
 21
247.52699999999999
 31
0.0
  0
LINE
  5
279
  8
0
 62
     7
 10
163.4729999999999
 20
247.4129999999999
 30
0.0
 11
163.8709999999999
 21
247.4129999999999
 31
0.0
  0
LINE
  5
27A
  8
0
 62
     7
 10
163.4729999999999
 20
247.35599999999991
 30
0.0
 11
164.15599999999989
 21
247.4129999999999
 31
0.0
  0
LINE
  5
27B
  8
0
 62
     7
 10
163.58699999999999
 20
245.875
 30
0.0
 11
163.58699999999999
 21
246.61500000000001
 31
0.0
  0
LINE
  5
27C
  8
0
 62
     7
 10
163.58699999999999
 20
246.61500000000001
 30
0.0
 11
163.58699999999999
 21
245.875
 31
0.0
  0
LINE
  5
27D
  8
0
 62
     7
 10
163.4729999999999
 20
247.35599999999991
 30
0.0
 11
163.30199999999999
 21
247.18499999999989
 31
0.0
  0
LINE
  5
27E
  8
0
 62
     7
 10
163.1879999999999
 20
244.5079999999999
 30
0.0
 11
163.245
 21
244.28
 31
0.0
  0
LINE
  5
27F
  8
0
 62
     7
 10
163.245
 20
244.28
 30
0.0
 11
163.4729999999999
 21
244.22399999999999
 31
0.0
  0
LINE
  5
280
  8
0
 62
     7
 10
163.30199999999999
 20
244.5079999999999
 30
0.0
 11
163.4729999999999
 21
244.33799999999991
 31
0.0
  0
LINE
  5
281
  8
0
 62
     7
 10
163.4729999999999
 20
247.46899999999999
 30
0.0
 11
163.245
 21
247.4129999999999
 31
0.0
  0
LINE
  5
282
  8
0
 62
     7
 10
163.245
 20
247.4129999999999
 30
0.0
 11
163.1879999999999
 21
247.18499999999989
 31
0.0
  0
LINE
  5
283
  8
0
 62
     7
 10
163.4729999999999
 20
247.35599999999991
 30
0.0
 11
163.30199999999999
 21
247.18499999999989
 31
0.0
  0
LINE
  5
284
  8
0
 62
     7
 10
163.30199999999999
 20
244.5079999999999
 30
0.0
 11
163.30199999999999
 21
247.18499999999989
 31
0.0
  0
LINE
  5
285
  8
0
 62
     7
 10
163.8709999999999
 20
247.4129999999999
 30
0.0
 11
163.8709999999999
 21
247.52699999999999
 31
0.0
  0
LINE
  5
286
  8
0
 62
     7
 10
163.8709999999999
 20
244.167
 30
0.0
 11
163.8709999999999
 21
244.33799999999991
 31
0.0
  0
LINE
  5
287
  8
0
 62
     7
 10
163.131
 20
244.5079999999999
 30
0.0
 11
163.131
 21
247.18499999999989
 31
0.0
  0
LINE
  5
288
  8
0
 62
     7
 10
163.30199999999999
 20
244.565
 30
0.0
 11
163.30199999999999
 21
247.18499999999989
 31
0.0
  0
LINE
  5
289
  8
0
 62
     7
 10
163.58699999999999
 20
221.5329999999999
 30
0.0
 11
159.94200000000001
 21
221.5329999999999
 31
0.0
  0
LINE
  5
28A
  8
0
 62
     7
 10
159.94200000000001
 20
221.5329999999999
 30
0.0
 11
159.94200000000001
 21
222.16
 31
0.0
  0
LINE
  5
28B
  8
0
 62
     7
 10
159.94200000000001
 20
222.16
 30
0.0
 11
159.94200000000001
 21
221.5329999999999
 31
0.0
  0
LINE
  5
28C
  8
0
 62
     7
 10
159.94200000000001
 20
221.5329999999999
 30
0.0
 11
159.999
 21
221.476
 31
0.0
  0
LINE
  5
28D
  8
0
 62
     7
 10
159.999
 20
221.476
 30
0.0
 11
159.999
 21
222.27399999999989
 31
0.0
  0
LINE
  5
28E
  8
0
 62
     7
 10
159.999
 20
222.27399999999989
 30
0.0
 11
159.94200000000001
 21
222.16
 31
0.0
  0
LINE
  5
28F
  8
0
 62
     7
 10
163.58699999999999
 20
222.16
 30
0.0
 11
159.94200000000001
 21
222.16
 31
0.0
  0
LINE
  5
290
  8
0
 62
     7
 10
163.58699999999999
 20
222.27399999999989
 30
0.0
 11
159.999
 21
222.27399999999989
 31
0.0
  0
LINE
  5
291
  8
0
 62
     7
 10
163.58699999999999
 20
221.476
 30
0.0
 11
159.999
 21
221.476
 31
0.0
  0
LINE
  5
292
  8
0
 62
     7
 10
163.131
 20
221.249
 30
0.0
 11
163.131
 21
221.875
 31
0.0
  0
LINE
  5
293
  8
0
 62
     7
 10
163.131
 20
221.875
 30
0.0
 11
163.131
 21
222.50099999999989
 31
0.0
  0
LINE
  5
294
  8
0
 62
     7
 10
162.56200000000001
 20
222.16
 30
0.0
 11
163.131
 21
222.16
 31
0.0
  0
LINE
  5
295
  8
0
 62
     7
 10
162.56200000000001
 20
221.5329999999999
 30
0.0
 11
163.131
 21
221.5329999999999
 31
0.0
  0
LINE
  5
296
  8
0
 62
     7
 10
163.131
 20
222.50099999999989
 30
0.0
 11
162.56200000000001
 21
222.50099999999989
 31
0.0
  0
LINE
  5
297
  8
0
 62
     7
 10
162.56200000000001
 20
222.50099999999989
 30
0.0
 11
162.56200000000001
 21
221.875
 31
0.0
  0
LINE
  5
298
  8
0
 62
     7
 10
162.56200000000001
 20
221.875
 30
0.0
 11
162.56200000000001
 21
221.249
 31
0.0
  0
LINE
  5
299
  8
0
 62
     7
 10
162.56200000000001
 20
221.249
 30
0.0
 11
163.131
 21
221.249
 31
0.0
  0
LINE
  5
29A
  8
0
 62
     7
 10
164.327
 20
222.78599999999989
 30
0.0
 11
163.75700000000001
 21
223.35599999999999
 31
0.0
  0
LINE
  5
29B
  8
0
 62
     7
 10
163.81399999999991
 20
222.61500000000001
 30
0.0
 11
163.30199999999999
 21
223.1279999999999
 31
0.0
  0
LINE
  5
29C
  8
0
 62
     7
 10
163.416
 20
222.27399999999989
 30
0.0
 11
163.30199999999999
 21
222.44499999999999
 31
0.0
  0
LINE
  5
29D
  8
0
 62
     7
 10
163.58699999999999
 20
221.4199999999999
 30
0.0
 11
163.52899999999991
 21
221.4199999999999
 31
0.0
  0
LINE
  5
29E
  8
0
 62
     7
 10
163.58699999999999
 20
221.19200000000001
 30
0.0
 11
163.30199999999999
 21
221.4199999999999
 31
0.0
  0
LINE
  5
29F
  8
0
 62
     7
 10
164.327
 20
220.45099999999991
 30
0.0
 11
163.643
 21
221.13499999999991
 31
0.0
  0
LINE
  5
2A0
  8
0
 62
     7
 10
163.69999999999999
 20
220.33799999999999
 30
0.0
 11
163.30199999999999
 21
220.79300000000001
 31
0.0
  0
LINE
  5
2A1
  8
0
 62
     7
 10
163.4729999999999
 20
220.33799999999999
 30
0.0
 11
163.30199999999999
 21
220.50899999999999
 31
0.0
  0
LINE
  5
2A2
  8
0
 62
     7
 10
163.58699999999999
 20
221.4199999999999
 30
0.0
 11
163.30199999999999
 21
221.4199999999999
 31
0.0
  0
LINE
  5
2A3
  8
0
 62
     7
 10
163.30199999999999
 20
221.4199999999999
 30
0.0
 11
163.131
 21
221.4199999999999
 31
0.0
  0
LINE
  5
2A4
  8
0
 62
     7
 10
163.58699999999999
 20
222.27399999999989
 30
0.0
 11
163.30199999999999
 21
222.27399999999989
 31
0.0
  0
LINE
  5
2A5
  8
0
 62
     7
 10
163.30199999999999
 20
222.27399999999989
 30
0.0
 11
163.131
 21
222.27399999999989
 31
0.0
  0
LINE
  5
2A6
  8
0
 62
     7
 10
164.327
 20
221.13499999999991
 30
0.0
 11
163.58699999999999
 21
221.13499999999991
 31
0.0
  0
LINE
  5
2A7
  8
0
 62
     7
 10
164.327
 20
222.61500000000001
 30
0.0
 11
163.58699999999999
 21
222.61500000000001
 31
0.0
  0
LINE
  5
2A8
  8
0
 62
     7
 10
164.15599999999989
 20
220.33799999999999
 30
0.0
 11
164.327
 21
220.50899999999999
 31
0.0
  0
LINE
  5
2A9
  8
0
 62
     7
 10
163.4729999999999
 20
220.167
 30
0.0
 11
163.8709999999999
 21
220.167
 31
0.0
  0
LINE
  5
2AA
  8
0
 62
     7
 10
164.15599999999989
 20
220.33799999999999
 30
0.0
 11
163.4729999999999
 21
220.33799999999999
 31
0.0
  0
LINE
  5
2AB
  8
0
 62
     7
 10
163.4729999999999
 20
220.33799999999999
 30
0.0
 11
163.8709999999999
 21
220.33799999999999
 31
0.0
  0
LINE
  5
2AC
  8
0
 62
     7
 10
164.09899999999999
 20
222.61500000000001
 30
0.0
 11
164.09899999999999
 21
221.13499999999991
 31
0.0
  0
LINE
  5
2AD
  8
0
 62
     7
 10
163.58699999999999
 20
221.875
 30
0.0
 11
163.58699999999999
 21
221.13499999999991
 31
0.0
  0
LINE
  5
2AE
  8
0
 62
     7
 10
163.58699999999999
 20
221.13499999999991
 30
0.0
 11
163.58699999999999
 21
221.875
 31
0.0
  0
LINE
  5
2AF
  8
0
 62
     7
 10
164.327
 20
223.185
 30
0.0
 11
164.327
 21
220.50899999999999
 31
0.0
  0
LINE
  5
2B0
  8
0
 62
     7
 10
164.327
 20
223.185
 30
0.0
 11
164.15599999999989
 21
223.35599999999999
 31
0.0
  0
LINE
  5
2B1
  8
0
 62
     7
 10
163.4729999999999
 20
223.52699999999999
 30
0.0
 11
163.8709999999999
 21
223.52699999999999
 31
0.0
  0
LINE
  5
2B2
  8
0
 62
     7
 10
164.15599999999989
 20
223.35599999999999
 30
0.0
 11
163.4729999999999
 21
223.35599999999999
 31
0.0
  0
LINE
  5
2B3
  8
0
 62
     7
 10
163.4729999999999
 20
223.35599999999999
 30
0.0
 11
163.8709999999999
 21
223.4129999999999
 31
0.0
  0
LINE
  5
2B4
  8
0
 62
     7
 10
163.58699999999999
 20
221.875
 30
0.0
 11
163.58699999999999
 21
222.61500000000001
 31
0.0
  0
LINE
  5
2B5
  8
0
 62
     7
 10
163.58699999999999
 20
222.61500000000001
 30
0.0
 11
163.58699999999999
 21
221.875
 31
0.0
  0
LINE
  5
2B6
  8
0
 62
     7
 10
163.30199999999999
 20
220.50899999999999
 30
0.0
 11
163.4729999999999
 21
220.33799999999999
 31
0.0
  0
LINE
  5
2B7
  8
0
 62
     7
 10
163.4729999999999
 20
223.35599999999999
 30
0.0
 11
163.30199999999999
 21
223.185
 31
0.0
  0
LINE
  5
2B8
  8
0
 62
     7
 10
163.1879999999999
 20
220.50899999999999
 30
0.0
 11
163.245
 21
220.27999999999989
 31
0.0
  0
LINE
  5
2B9
  8
0
 62
     7
 10
163.245
 20
220.27999999999989
 30
0.0
 11
163.4729999999999
 21
220.2229999999999
 31
0.0
  0
LINE
  5
2BA
  8
0
 62
     7
 10
163.30199999999999
 20
220.50899999999999
 30
0.0
 11
163.4729999999999
 21
220.33799999999999
 31
0.0
  0
LINE
  5
2BB
  8
0
 62
     7
 10
163.4729999999999
 20
223.46899999999999
 30
0.0
 11
163.245
 21
223.4129999999999
 31
0.0
  0
LINE
  5
2BC
  8
0
 62
     7
 10
163.245
 20
223.4129999999999
 30
0.0
 11
163.1879999999999
 21
223.185
 31
0.0
  0
LINE
  5
2BD
  8
0
 62
     7
 10
163.4729999999999
 20
223.35599999999999
 30
0.0
 11
163.30199999999999
 21
223.185
 31
0.0
  0
LINE
  5
2BE
  8
0
 62
     7
 10
163.30199999999999
 20
220.50899999999999
 30
0.0
 11
163.30199999999999
 21
223.185
 31
0.0
  0
LINE
  5
2BF
  8
0
 62
     7
 10
163.8709999999999
 20
223.4129999999999
 30
0.0
 11
163.8709999999999
 21
223.52699999999999
 31
0.0
  0
LINE
  5
2C0
  8
0
 62
     7
 10
163.8709999999999
 20
220.167
 30
0.0
 11
163.8709999999999
 21
220.33799999999999
 31
0.0
  0
LINE
  5
2C1
  8
0
 62
     7
 10
163.131
 20
220.50899999999999
 30
0.0
 11
163.131
 21
223.185
 31
0.0
  0
LINE
  5
2C2
  8
0
 62
     7
 10
163.30199999999999
 20
220.50899999999999
 30
0.0
 11
163.30199999999999
 21
223.185
 31
0.0
  0
LINE
  5
2C3
  8
0
 62
     7
 10
158.917
 20
219.88199999999989
 30
0.0
 11
158.803
 21
219.88199999999989
 31
0.0
  0
LINE
  5
2C4
  8
0
 62
     7
 10
158.803
 20
219.88199999999989
 30
0.0
 11
158.74600000000001
 21
219.88199999999989
 31
0.0
  0
LINE
  5
2C5
  8
0
 62
     7
 10
158.803
 20
223.86799999999999
 30
0.0
 11
158.74600000000001
 21
223.86799999999999
 31
0.0
  0
LINE
  5
2C6
  8
0
 62
     7
 10
158.9739999999999
 20
222.61500000000001
 30
0.0
 11
159.03100000000001
 21
222.55799999999991
 31
0.0
  0
LINE
  5
2C7
  8
0
 62
     7
 10
158.917
 20
222.44499999999999
 30
0.0
 11
158.9739999999999
 21
222.50099999999989
 31
0.0
  0
LINE
  5
2C8
  8
0
 62
     7
 10
158.9739999999999
 20
222.387
 30
0.0
 11
159.08799999999999
 21
222.27399999999989
 31
0.0
  0
LINE
  5
2C9
  8
0
 62
     7
 10
158.917
 20
222.44499999999999
 30
0.0
 11
158.917
 21
221.875
 31
0.0
  0
LINE
  5
2CA
  8
0
 62
     7
 10
159.14400000000001
 20
222.27399999999989
 30
0.0
 11
158.9739999999999
 21
221.875
 31
0.0
  0
LINE
  5
2CB
  8
0
 62
     7
 10
158.9739999999999
 20
221.875
 30
0.0
 11
159.14400000000001
 21
221.476
 31
0.0
  0
LINE
  5
2CC
  8
0
 62
     7
 10
158.917
 20
221.249
 30
0.0
 11
158.917
 21
221.875
 31
0.0
  0
LINE
  5
2CD
  8
0
 62
     7
 10
159.08799999999999
 20
221.4199999999999
 30
0.0
 11
158.9739999999999
 21
221.30600000000001
 31
0.0
  0
LINE
  5
2CE
  8
0
 62
     7
 10
159.03100000000001
 20
221.19200000000001
 30
0.0
 11
160.90999999999991
 21
221.19200000000001
 31
0.0
  0
LINE
  5
2CF
  8
0
 62
     7
 10
158.917
 20
221.249
 30
0.0
 11
158.9739999999999
 21
221.19200000000001
 31
0.0
  0
LINE
  5
2D0
  8
0
 62
     7
 10
159.03100000000001
 20
221.19200000000001
 30
0.0
 11
158.9739999999999
 21
221.13499999999991
 31
0.0
  0
LINE
  5
2D1
  8
0
 62
     7
 10
159.03100000000001
 20
222.50099999999989
 30
0.0
 11
160.90999999999991
 21
222.50099999999989
 31
0.0
  0
LINE
  5
2D2
  8
0
 62
     7
 10
160.96700000000001
 20
221.249
 30
0.0
 11
160.90999999999991
 21
221.19200000000001
 31
0.0
  0
LINE
  5
2D3
  8
0
 62
     7
 10
160.90999999999991
 20
221.30600000000001
 30
0.0
 11
160.79599999999999
 21
221.4199999999999
 31
0.0
  0
LINE
  5
2D4
  8
0
 62
     7
 10
160.74000000000001
 20
221.476
 30
0.0
 11
160.90999999999991
 21
221.875
 31
0.0
  0
LINE
  5
2D5
  8
0
 62
     7
 10
160.90999999999991
 20
221.875
 30
0.0
 11
160.74000000000001
 21
222.27399999999989
 31
0.0
  0
LINE
  5
2D6
  8
0
 62
     7
 10
160.79599999999999
 20
222.27399999999989
 30
0.0
 11
160.90999999999991
 21
222.387
 31
0.0
  0
LINE
  5
2D7
  8
0
 62
     7
 10
160.96700000000001
 20
222.44499999999999
 30
0.0
 11
160.90999999999991
 21
222.50099999999989
 31
0.0
  0
LINE
  5
2D8
  8
0
 62
     7
 10
158.74600000000001
 20
221.875
 30
0.0
 11
158.74600000000001
 21
223.81099999999989
 31
0.0
  0
LINE
  5
2D9
  8
0
 62
     7
 10
158.917
 20
223.86799999999999
 30
0.0
 11
158.917
 21
221.875
 31
0.0
  0
LINE
  5
2DA
  8
0
 62
     7
 10
158.803
 20
221.875
 30
0.0
 11
158.803
 21
223.86799999999999
 31
0.0
  0
LINE
  5
2DB
  8
0
 62
     7
 10
158.803
 20
223.86799999999999
 30
0.0
 11
158.917
 21
223.86799999999999
 31
0.0
  0
LINE
  5
2DC
  8
0
 62
     7
 10
158.917
 20
223.86799999999999
 30
0.0
 11
158.917
 21
223.81099999999989
 31
0.0
  0
LINE
  5
2DD
  8
0
 62
     7
 10
158.917
 20
219.88199999999989
 30
0.0
 11
158.917
 21
221.875
 31
0.0
  0
LINE
  5
2DE
  8
0
 62
     7
 10
158.917
 20
221.875
 30
0.0
 11
158.917
 21
223.81099999999989
 31
0.0
  0
LINE
  5
2DF
  8
0
 62
     7
 10
158.803
 20
221.875
 30
0.0
 11
158.803
 21
219.88199999999989
 31
0.0
  0
LINE
  5
2E0
  8
0
 62
     7
 10
158.917
 20
219.88199999999989
 30
0.0
 11
158.917
 21
221.875
 31
0.0
  0
LINE
  5
2E1
  8
0
 62
     7
 10
158.74600000000001
 20
221.875
 30
0.0
 11
158.74600000000001
 21
219.88199999999989
 31
0.0
  0
LINE
  5
2E2
  8
0
 62
     7
 10
159.08799999999999
 20
222.27399999999989
 30
0.0
 11
160.79599999999999
 21
222.27399999999989
 31
0.0
  0
LINE
  5
2E3
  8
0
 62
     7
 10
159.08799999999999
 20
221.476
 30
0.0
 11
160.79599999999999
 21
221.476
 31
0.0
  0
LINE
  5
2E4
  8
0
 62
     7
 10
158.74600000000001
 20
221.875
 30
0.0
 11
158.74600000000001
 21
219.88199999999989
 31
0.0
  0
LINE
  5
2E5
  8
0
 62
     7
 10
160.96700000000001
 20
221.249
 30
0.0
 11
160.96700000000001
 21
221.875
 31
0.0
  0
LINE
  5
2E6
  8
0
 62
     7
 10
160.96700000000001
 20
221.875
 30
0.0
 11
160.96700000000001
 21
222.44499999999999
 31
0.0
  0
LINE
  5
2E7
  8
0
 62
     7
 10
160.96700000000001
 20
222.50099999999989
 30
0.0
 11
161.024
 21
222.21700000000001
 31
0.0
  0
LINE
  5
2E8
  8
0
 62
     7
 10
160.96700000000001
 20
222.50099999999989
 30
0.0
 11
160.96700000000001
 21
221.249
 31
0.0
  0
LINE
  5
2E9
  8
0
 62
     7
 10
161.024
 20
221.476
 30
0.0
 11
160.96700000000001
 21
221.19200000000001
 31
0.0
  0
LINE
  5
2EA
  8
0
 62
     7
 10
161.024
 20
222.21700000000001
 30
0.0
 11
161.024
 21
221.5329999999999
 31
0.0
  0
LINE
  5
2EB
  8
0
 62
     7
 10
161.024
 20
221.13499999999991
 30
0.0
 11
160.96700000000001
 21
221.249
 31
0.0
  0
LINE
  5
2EC
  8
0
 62
     7
 10
161.024
 20
222.55799999999991
 30
0.0
 11
160.96700000000001
 21
222.50099999999989
 31
0.0
  0
LINE
  5
2ED
  8
0
 62
     7
 10
161.536
 20
222.21700000000001
 30
0.0
 11
161.5929999999999
 21
222.50099999999989
 31
0.0
  0
LINE
  5
2EE
  8
0
 62
     7
 10
161.5929999999999
 20
222.50099999999989
 30
0.0
 11
161.5929999999999
 21
221.249
 31
0.0
  0
LINE
  5
2EF
  8
0
 62
     7
 10
161.536
 20
221.5329999999999
 30
0.0
 11
161.536
 21
222.21700000000001
 31
0.0
  0
LINE
  5
2F0
  8
0
 62
     7
 10
161.5929999999999
 20
221.19200000000001
 30
0.0
 11
161.536
 21
221.476
 31
0.0
  0
LINE
  5
2F1
  8
0
 62
     7
 10
161.536
 20
221.13499999999991
 30
0.0
 11
161.5929999999999
 21
221.249
 31
0.0
  0
LINE
  5
2F2
  8
0
 62
     7
 10
161.536
 20
222.55799999999991
 30
0.0
 11
161.5929999999999
 21
222.50099999999989
 31
0.0
  0
LINE
  5
2F3
  8
0
 62
     7
 10
161.536
 20
222.21700000000001
 30
0.0
 11
161.024
 21
222.21700000000001
 31
0.0
  0
LINE
  5
2F4
  8
0
 62
     7
 10
161.536
 20
221.13499999999991
 30
0.0
 11
161.024
 21
221.13499999999991
 31
0.0
  0
LINE
  5
2F5
  8
0
 62
     7
 10
161.536
 20
221.476
 30
0.0
 11
161.024
 21
221.476
 31
0.0
  0
LINE
  5
2F6
  8
0
 62
     7
 10
161.536
 20
222.55799999999991
 30
0.0
 11
161.024
 21
222.55799999999991
 31
0.0
  0
LINE
  5
2F7
  8
0
 62
     7
 10
158.917
 20
243.88200000000001
 30
0.0
 11
158.803
 21
243.88200000000001
 31
0.0
  0
LINE
  5
2F8
  8
0
 62
     7
 10
158.803
 20
243.88200000000001
 30
0.0
 11
158.74600000000001
 21
243.88200000000001
 31
0.0
  0
LINE
  5
2F9
  8
0
 62
     7
 10
158.803
 20
247.86799999999999
 30
0.0
 11
158.74600000000001
 21
247.86799999999999
 31
0.0
  0
LINE
  5
2FA
  8
0
 62
     7
 10
158.9739999999999
 20
246.61500000000001
 30
0.0
 11
159.03100000000001
 21
246.55799999999999
 31
0.0
  0
LINE
  5
2FB
  8
0
 62
     7
 10
158.917
 20
246.44499999999991
 30
0.0
 11
158.9739999999999
 21
246.55799999999999
 31
0.0
  0
LINE
  5
2FC
  8
0
 62
     7
 10
158.9739999999999
 20
246.387
 30
0.0
 11
159.08799999999999
 21
246.274
 31
0.0
  0
LINE
  5
2FD
  8
0
 62
     7
 10
158.917
 20
246.44499999999991
 30
0.0
 11
158.917
 21
245.875
 31
0.0
  0
LINE
  5
2FE
  8
0
 62
     7
 10
159.14400000000001
 20
246.274
 30
0.0
 11
158.9739999999999
 21
245.875
 31
0.0
  0
LINE
  5
2FF
  8
0
 62
     7
 10
158.9739999999999
 20
245.875
 30
0.0
 11
159.14400000000001
 21
245.47599999999991
 31
0.0
  0
LINE
  5
300
  8
0
 62
     7
 10
158.917
 20
245.3059999999999
 30
0.0
 11
158.917
 21
245.875
 31
0.0
  0
LINE
  5
301
  8
0
 62
     7
 10
159.08799999999999
 20
245.41900000000001
 30
0.0
 11
158.9739999999999
 21
245.3059999999999
 31
0.0
  0
LINE
  5
302
  8
0
 62
     7
 10
159.03100000000001
 20
245.19200000000001
 30
0.0
 11
160.90999999999991
 21
245.19200000000001
 31
0.0
  0
LINE
  5
303
  8
0
 62
     7
 10
158.917
 20
245.3059999999999
 30
0.0
 11
158.9739999999999
 21
245.19200000000001
 31
0.0
  0
LINE
  5
304
  8
0
 62
     7
 10
159.03100000000001
 20
245.19200000000001
 30
0.0
 11
158.9739999999999
 21
245.13499999999999
 31
0.0
  0
LINE
  5
305
  8
0
 62
     7
 10
159.03100000000001
 20
246.55799999999999
 30
0.0
 11
160.90999999999991
 21
246.55799999999999
 31
0.0
  0
LINE
  5
306
  8
0
 62
     7
 10
160.96700000000001
 20
245.3059999999999
 30
0.0
 11
160.90999999999991
 21
245.19200000000001
 31
0.0
  0
LINE
  5
307
  8
0
 62
     7
 10
160.90999999999991
 20
245.3059999999999
 30
0.0
 11
160.79599999999999
 21
245.41900000000001
 31
0.0
  0
LINE
  5
308
  8
0
 62
     7
 10
160.74000000000001
 20
245.47599999999991
 30
0.0
 11
160.90999999999991
 21
245.875
 31
0.0
  0
LINE
  5
309
  8
0
 62
     7
 10
160.90999999999991
 20
245.875
 30
0.0
 11
160.74000000000001
 21
246.274
 31
0.0
  0
LINE
  5
30A
  8
0
 62
     7
 10
160.79599999999999
 20
246.274
 30
0.0
 11
160.90999999999991
 21
246.387
 31
0.0
  0
LINE
  5
30B
  8
0
 62
     7
 10
160.96700000000001
 20
246.44499999999991
 30
0.0
 11
160.90999999999991
 21
246.55799999999999
 31
0.0
  0
LINE
  5
30C
  8
0
 62
     7
 10
158.74600000000001
 20
245.875
 30
0.0
 11
158.74600000000001
 21
247.81100000000001
 31
0.0
  0
LINE
  5
30D
  8
0
 62
     7
 10
158.917
 20
247.86799999999999
 30
0.0
 11
158.917
 21
245.875
 31
0.0
  0
LINE
  5
30E
  8
0
 62
     7
 10
158.803
 20
245.875
 30
0.0
 11
158.803
 21
247.86799999999999
 31
0.0
  0
LINE
  5
30F
  8
0
 62
     7
 10
158.803
 20
247.86799999999999
 30
0.0
 11
158.917
 21
247.86799999999999
 31
0.0
  0
LINE
  5
310
  8
0
 62
     7
 10
158.917
 20
247.86799999999999
 30
0.0
 11
158.917
 21
247.81100000000001
 31
0.0
  0
LINE
  5
311
  8
0
 62
     7
 10
158.917
 20
243.88200000000001
 30
0.0
 11
158.917
 21
245.875
 31
0.0
  0
LINE
  5
312
  8
0
 62
     7
 10
158.917
 20
245.875
 30
0.0
 11
158.917
 21
247.81100000000001
 31
0.0
  0
LINE
  5
313
  8
0
 62
     7
 10
158.803
 20
245.875
 30
0.0
 11
158.803
 21
243.88200000000001
 31
0.0
  0
LINE
  5
314
  8
0
 62
     7
 10
158.917
 20
243.88200000000001
 30
0.0
 11
158.917
 21
245.875
 31
0.0
  0
LINE
  5
315
  8
0
 62
     7
 10
158.74600000000001
 20
245.875
 30
0.0
 11
158.74600000000001
 21
243.88200000000001
 31
0.0
  0
LINE
  5
316
  8
0
 62
     7
 10
159.08799999999999
 20
246.274
 30
0.0
 11
160.79599999999999
 21
246.274
 31
0.0
  0
LINE
  5
317
  8
0
 62
     7
 10
159.08799999999999
 20
245.47599999999991
 30
0.0
 11
160.79599999999999
 21
245.47599999999991
 31
0.0
  0
LINE
  5
318
  8
0
 62
     7
 10
156.12700000000001
 20
100.36
 30
0.0
 11
156.35499999999999
 21
103.4909999999999
 31
0.0
  0
LINE
  5
319
  8
0
 62
     7
 10
151.6279999999999
 20
96.714799999999997
 30
0.0
 11
153.73500000000001
 21
97.454800000000006
 31
0.0
  0
LINE
  5
31A
  8
0
 62
     7
 10
126.34399999999989
 20
88.912999999999997
 30
0.0
 11
151.6279999999999
 21
96.658299999999997
 31
0.0
  0
LINE
  5
31B
  8
0
 62
     7
 10
158.74600000000001
 20
245.875
 30
0.0
 11
158.74600000000001
 21
243.88200000000001
 31
0.0
  0
LINE
  5
31C
  8
0
 62
     7
 10
160.96700000000001
 20
245.3059999999999
 30
0.0
 11
160.96700000000001
 21
245.875
 31
0.0
  0
LINE
  5
31D
  8
0
 62
     7
 10
160.96700000000001
 20
245.875
 30
0.0
 11
160.96700000000001
 21
246.44499999999991
 31
0.0
  0
LINE
  5
31E
  8
0
 62
     7
 10
158.74600000000001
 20
221.875
 30
0.0
 11
158.74600000000001
 21
223.81099999999989
 31
0.0
  0
LINE
  5
31F
  8
0
 62
     7
 10
157.77799999999991
 20
224.8769999999999
 30
0.0
 11
158.74600000000001
 21
224.8769999999999
 31
0.0
  0
LINE
  5
320
  8
0
 62
     7
 10
158.74600000000001
 20
224.8769999999999
 30
0.0
 11
158.74600000000001
 21
218.95500000000001
 31
0.0
  0
LINE
  5
321
  8
0
 62
     7
 10
158.74600000000001
 20
218.95500000000001
 30
0.0
 11
157.49299999999991
 21
218.95500000000001
 31
0.0
  0
LINE
  5
322
  8
0
 62
     7
 10
124.693
 20
209.44399999999999
 30
0.0
 11
124.863
 21
209.27299999999991
 31
0.0
  0
LINE
  5
323
  8
0
 62
     7
 10
124.351
 20
209.44399999999999
 30
0.0
 11
124.465
 21
209.10199999999989
 31
0.0
  0
LINE
  5
324
  8
0
 62
     7
 10
124.465
 20
209.10199999999989
 30
0.0
 11
124.863
 21
208.9309999999999
 31
0.0
  0
LINE
  5
325
  8
0
 62
     7
 10
126.34399999999989
 20
209.21599999999989
 30
0.0
 11
124.863
 21
209.27299999999991
 31
0.0
  0
LINE
  5
326
  8
0
 62
     7
 10
126.2299999999999
 20
208.874
 30
0.0
 11
126.34399999999989
 21
208.98799999999989
 31
0.0
  0
LINE
  5
327
  8
0
 62
     7
 10
126.2299999999999
 20
208.874
 30
0.0
 11
124.863
 21
208.9309999999999
 31
0.0
  0
LINE
  5
328
  8
0
 62
     7
 10
124.863
 20
258.41899999999998
 30
0.0
 11
124.693
 21
258.24799999999988
 31
0.0
  0
LINE
  5
329
  8
0
 62
     7
 10
124.863
 20
258.75999999999999
 30
0.0
 11
124.465
 21
258.58999999999992
 31
0.0
  0
LINE
  5
32A
  8
0
 62
     7
 10
124.465
 20
258.58999999999992
 30
0.0
 11
124.351
 21
258.24799999999988
 31
0.0
  0
LINE
  5
32B
  8
0
 62
     7
 10
126.34399999999989
 20
258.53300000000002
 30
0.0
 11
124.863
 21
258.41899999999998
 31
0.0
  0
LINE
  5
32C
  8
0
 62
     7
 10
126.34399999999989
 20
258.70400000000001
 30
0.0
 11
126.1729999999999
 21
258.875
 31
0.0
  0
LINE
  5
32D
  8
0
 62
     7
 10
126.1729999999999
 20
258.875
 30
0.0
 11
124.863
 21
258.75999999999999
 31
0.0
  0
LINE
  5
32E
  8
0
 62
     7
 10
126.34399999999989
 20
208.98799999999989
 30
0.0
 11
126.34399999999989
 21
210.92500000000001
 31
0.0
  0
LINE
  5
32F
  8
0
 62
     7
 10
158.74600000000001
 20
248.851
 30
0.0
 11
157.55000000000001
 21
248.851
 31
0.0
  0
LINE
  5
330
  8
0
 62
     7
 10
160.96700000000001
 20
246.50099999999989
 30
0.0
 11
161.024
 21
246.2169999999999
 31
0.0
  0
LINE
  5
331
  8
0
 62
     7
 10
160.96700000000001
 20
246.50099999999989
 30
0.0
 11
160.96700000000001
 21
245.249
 31
0.0
  0
LINE
  5
332
  8
0
 62
     7
 10
161.024
 20
245.47599999999991
 30
0.0
 11
160.96700000000001
 21
245.19200000000001
 31
0.0
  0
LINE
  5
333
  8
0
 62
     7
 10
161.024
 20
246.2169999999999
 30
0.0
 11
161.024
 21
245.53299999999999
 31
0.0
  0
LINE
  5
334
  8
0
 62
     7
 10
161.024
 20
245.13499999999999
 30
0.0
 11
160.96700000000001
 21
245.249
 31
0.0
  0
LINE
  5
335
  8
0
 62
     7
 10
161.024
 20
246.61500000000001
 30
0.0
 11
160.96700000000001
 21
246.50099999999989
 31
0.0
  0
LINE
  5
336
  8
0
 62
     7
 10
161.536
 20
246.2169999999999
 30
0.0
 11
161.5929999999999
 21
246.50099999999989
 31
0.0
  0
LINE
  5
337
  8
0
 62
     7
 10
161.5929999999999
 20
246.50099999999989
 30
0.0
 11
161.5929999999999
 21
245.249
 31
0.0
  0
LINE
  5
338
  8
0
 62
     7
 10
161.536
 20
245.53299999999999
 30
0.0
 11
161.536
 21
246.2169999999999
 31
0.0
  0
LINE
  5
339
  8
0
 62
     7
 10
161.5929999999999
 20
245.19200000000001
 30
0.0
 11
161.536
 21
245.47599999999991
 31
0.0
  0
LINE
  5
33A
  8
0
 62
     7
 10
161.536
 20
245.13499999999999
 30
0.0
 11
161.5929999999999
 21
245.249
 31
0.0
  0
LINE
  5
33B
  8
0
 62
     7
 10
161.536
 20
246.61500000000001
 30
0.0
 11
161.5929999999999
 21
246.50099999999989
 31
0.0
  0
LINE
  5
33C
  8
0
 62
     7
 10
161.536
 20
246.2169999999999
 30
0.0
 11
161.024
 21
246.2169999999999
 31
0.0
  0
LINE
  5
33D
  8
0
 62
     7
 10
161.536
 20
245.13499999999999
 30
0.0
 11
161.024
 21
245.13499999999999
 31
0.0
  0
LINE
  5
33E
  8
0
 62
     7
 10
161.536
 20
245.47599999999991
 30
0.0
 11
161.024
 21
245.47599999999991
 31
0.0
  0
LINE
  5
33F
  8
0
 62
     7
 10
161.536
 20
246.61500000000001
 30
0.0
 11
161.024
 21
246.61500000000001
 31
0.0
  0
LINE
  5
340
  8
0
 62
     7
 10
158.74600000000001
 20
248.851
 30
0.0
 11
158.74600000000001
 21
242.98599999999999
 31
0.0
  0
LINE
  5
341
  8
0
 62
     7
 10
158.74600000000001
 20
242.98599999999999
 30
0.0
 11
157.721
 21
242.98599999999999
 31
0.0
  0
LINE
  5
342
  8
0
 62
     7
 10
158.9739999999999
 20
245.875
 30
0.0
 11
158.917
 21
245.875
 31
0.0
  0
LINE
  5
343
  8
0
 62
     7
 10
160.96700000000001
 20
245.875
 30
0.0
 11
160.90999999999991
 21
245.875
 31
0.0
  0
LINE
  5
344
  8
0
  6
AIGENLINE001
 62
     7
 10
156.26599999999991
 20
245.875
 30
0.0
 11
164.989
 21
245.875
 31
0.0
  0
LINE
  5
345
  8
0
 62
     7
 10
157.608
 20
247.94
 30
0.0
 11
157.49299999999991
 21
248.851
 31
0.0
  0
LINE
  5
346
  8
0
 62
     7
 10
157.49299999999991
 20
248.851
 30
0.0
 11
157.20799999999991
 21
249.648
 31
0.0
  0
LINE
  5
347
  8
0
 62
     7
 10
157.20799999999991
 20
249.648
 30
0.0
 11
156.7529999999999
 21
250.44599999999991
 31
0.0
  0
LINE
  5
348
  8
0
 62
     7
 10
156.7529999999999
 20
250.44599999999991
 30
0.0
 11
156.12700000000001
 21
251.072
 31
0.0
  0
LINE
  5
349
  8
0
 62
     7
 10
156.12700000000001
 20
251.072
 30
0.0
 11
155.386
 21
251.58499999999989
 31
0.0
  0
LINE
  5
34A
  8
0
 62
     7
 10
155.386
 20
251.58499999999989
 30
0.0
 11
154.58899999999991
 21
251.92599999999999
 31
0.0
  0
LINE
  5
34B
  8
0
 62
     7
 10
154.58899999999991
 20
251.92599999999999
 30
0.0
 11
153.73500000000001
 21
252.154
 31
0.0
  0
LINE
  5
34C
  8
0
 62
     7
 10
157.26599999999991
 20
247.94
 30
0.0
 11
157.15199999999999
 21
248.73699999999991
 31
0.0
  0
LINE
  5
34D
  8
0
 62
     7
 10
157.15199999999999
 20
248.73699999999991
 30
0.0
 11
156.86699999999999
 21
249.535
 31
0.0
  0
LINE
  5
34E
  8
0
 62
     7
 10
156.86699999999999
 20
249.535
 30
0.0
 11
156.4679999999999
 21
250.21799999999999
 31
0.0
  0
LINE
  5
34F
  8
0
 62
     7
 10
156.4679999999999
 20
250.21799999999999
 30
0.0
 11
155.899
 21
250.84399999999999
 31
0.0
  0
LINE
  5
350
  8
0
 62
     7
 10
155.899
 20
250.84399999999999
 30
0.0
 11
155.215
 21
251.30000000000001
 31
0.0
  0
LINE
  5
351
  8
0
 62
     7
 10
155.215
 20
251.30000000000001
 30
0.0
 11
154.47499999999999
 21
251.642
 31
0.0
  0
LINE
  5
352
  8
0
 62
     7
 10
154.47499999999999
 20
251.642
 30
0.0
 11
153.678
 21
251.8129999999999
 31
0.0
  0
LINE
  5
353
  8
0
 62
     7
 10
157.9489999999999
 20
237.57599999999999
 30
0.0
 11
157.608
 21
247.94
 31
0.0
  0
LINE
  5
354
  8
0
 62
     7
 10
157.6639999999999
 20
236.494
 30
0.0
 11
157.26599999999991
 21
247.94
 31
0.0
  0
LINE
  5
355
  8
0
 62
     7
 10
153.73500000000001
 20
215.595
 30
0.0
 11
154.58899999999991
 21
215.822
 31
0.0
  0
LINE
  5
356
  8
0
 62
     7
 10
154.58899999999991
 20
215.822
 30
0.0
 11
155.386
 21
216.16399999999999
 31
0.0
  0
LINE
  5
357
  8
0
 62
     7
 10
155.386
 20
216.16399999999999
 30
0.0
 11
156.12700000000001
 21
216.67699999999999
 31
0.0
  0
LINE
  5
358
  8
0
 62
     7
 10
156.12700000000001
 20
216.67699999999999
 30
0.0
 11
156.7529999999999
 21
217.30399999999989
 31
0.0
  0
LINE
  5
359
  8
0
 62
     7
 10
156.7529999999999
 20
217.30399999999989
 30
0.0
 11
157.20799999999991
 21
218.09999999999999
 31
0.0
  0
LINE
  5
35A
  8
0
 62
     7
 10
157.20799999999991
 20
218.09999999999999
 30
0.0
 11
157.49299999999991
 21
218.89799999999991
 31
0.0
  0
LINE
  5
35B
  8
0
 62
     7
 10
157.49299999999991
 20
218.89799999999991
 30
0.0
 11
157.608
 21
219.809
 31
0.0
  0
LINE
  5
35C
  8
0
 62
     7
 10
153.678
 20
215.93700000000001
 30
0.0
 11
154.47499999999999
 21
216.108
 31
0.0
  0
LINE
  5
35D
  8
0
 62
     7
 10
154.47499999999999
 20
216.108
 30
0.0
 11
155.215
 21
216.44900000000001
 31
0.0
  0
LINE
  5
35E
  8
0
 62
     7
 10
155.215
 20
216.44900000000001
 30
0.0
 11
155.899
 21
216.90499999999989
 31
0.0
  0
LINE
  5
35F
  8
0
 62
     7
 10
155.899
 20
216.90499999999989
 30
0.0
 11
156.4679999999999
 21
217.53099999999989
 31
0.0
  0
LINE
  5
360
  8
0
 62
     7
 10
156.4679999999999
 20
217.53099999999989
 30
0.0
 11
156.86699999999999
 21
218.215
 31
0.0
  0
LINE
  5
361
  8
0
 62
     7
 10
156.86699999999999
 20
218.215
 30
0.0
 11
157.15199999999999
 21
219.01199999999989
 31
0.0
  0
LINE
  5
362
  8
0
 62
     7
 10
157.15199999999999
 20
219.01199999999989
 30
0.0
 11
157.26599999999991
 21
219.809
 31
0.0
  0
LINE
  5
363
  8
0
 62
     7
 10
157.9489999999999
 20
230.173
 30
0.0
 11
157.608
 21
219.75200000000001
 31
0.0
  0
LINE
  5
364
  8
0
 62
     7
 10
157.6639999999999
 20
231.19799999999989
 30
0.0
 11
157.26599999999991
 21
219.75200000000001
 31
0.0
  0
LINE
  5
365
  8
0
 62
     7
 10
157.6639999999999
 20
236.66499999999991
 30
0.0
 11
157.83500000000001
 21
236.494
 31
0.0
  0
LINE
  5
366
  8
0
 62
     7
 10
157.83500000000001
 20
231.19799999999989
 30
0.0
 11
157.6639999999999
 21
231.02699999999999
 31
0.0
  0
LINE
  5
367
  8
0
 62
     7
 10
157.9489999999999
 20
237.57599999999999
 30
0.0
 11
158.006
 21
237.46199999999999
 31
0.0
  0
LINE
  5
368
  8
0
 62
     7
 10
157.6639999999999
 20
231.19799999999989
 30
0.0
 11
157.6639999999999
 21
236.494
 31
0.0
  0
LINE
  5
369
  8
0
 62
     7
 10
158.006
 20
230.28699999999989
 30
0.0
 11
157.9489999999999
 21
230.173
 31
0.0
  0
LINE
  5
36A
  8
0
 62
     7
 10
159.03100000000001
 20
231.4259999999999
 30
0.0
 11
158.006
 21
230.28699999999989
 31
0.0
  0
LINE
  5
36B
  8
0
 62
     7
 10
158.12
 20
231.25499999999991
 30
0.0
 11
158.12
 21
236.43700000000001
 31
0.0
  0
LINE
  5
36C
  8
0
 62
     7
 10
157.6639999999999
 20
236.494
 30
0.0
 11
158.06299999999999
 21
236.494
 31
0.0
  0
LINE
  5
36D
  8
0
 62
     7
 10
157.6639999999999
 20
231.19799999999989
 30
0.0
 11
158.06299999999999
 21
231.25499999999991
 31
0.0
  0
LINE
  5
36E
  8
0
 62
     7
 10
158.518
 20
235.697
 30
0.0
 11
159.03100000000001
 21
235.697
 31
0.0
  0
LINE
  5
36F
  8
0
 62
     7
 10
158.518
 20
231.99499999999989
 30
0.0
 11
159.03100000000001
 21
231.99499999999989
 31
0.0
  0
LINE
  5
370
  8
0
 62
     7
 10
158.518
 20
235.92500000000001
 30
0.0
 11
158.46199999999999
 21
236.0379999999999
 31
0.0
  0
LINE
  5
371
  8
0
 62
     7
 10
158.17699999999999
 20
236.37999999999991
 30
0.0
 11
158.06299999999999
 21
236.43700000000001
 31
0.0
  0
LINE
  5
372
  8
0
 62
     7
 10
159.03100000000001
 20
236.209
 30
0.0
 11
158.9739999999999
 21
236.32299999999989
 31
0.0
  0
LINE
  5
373
  8
0
 62
     7
 10
159.03100000000001
 20
236.26599999999991
 30
0.0
 11
158.006
 21
237.40499999999989
 31
0.0
  0
LINE
  5
374
  8
0
 62
     7
 10
158.46199999999999
 20
236.09499999999991
 30
0.0
 11
158.17699999999999
 21
236.43700000000001
 31
0.0
  0
LINE
  5
375
  8
0
 62
     7
 10
158.46199999999999
 20
231.65299999999991
 30
0.0
 11
158.518
 21
231.768
 31
0.0
  0
LINE
  5
376
  8
0
 62
     7
 10
158.9739999999999
 20
231.4259999999999
 30
0.0
 11
159.03100000000001
 21
231.53999999999991
 31
0.0
  0
LINE
  5
377
  8
0
 62
     7
 10
159.03100000000001
 20
231.4259999999999
 30
0.0
 11
159.03100000000001
 21
236.26599999999991
 31
0.0
  0
LINE
  5
378
  8
0
 62
     7
 10
158.518
 20
231.768
 30
0.0
 11
158.518
 21
235.92500000000001
 31
0.0
  0
LINE
  5
379
  8
0
 62
     7
 10
158.46199999999999
 20
231.65299999999991
 30
0.0
 11
158.17699999999999
 21
231.31200000000001
 31
0.0
  0
LINE
  5
37A
  8
0
 62
     7
 10
158.06299999999999
 20
231.25499999999991
 30
0.0
 11
158.17699999999999
 21
231.31200000000001
 31
0.0
  0
LINE
  5
37B
  8
0
 62
     7
 10
124.693
 20
209.44399999999999
 30
0.0
 11
124.693
 21
211.893
 31
0.0
  0
LINE
  5
37C
  8
0
 62
     7
 10
124.351
 20
209.44399999999999
 30
0.0
 11
124.351
 21
212.86199999999999
 31
0.0
  0
LINE
  5
37D
  8
0
 62
     7
 10
124.351
 20
211.15299999999999
 30
0.0
 11
124.351
 21
211.893
 31
0.0
  0
LINE
  5
37E
  8
0
 62
     7
 10
153.73500000000001
 20
215.595
 30
0.0
 11
125.319
 21
212.577
 31
0.0
  0
LINE
  5
37F
  8
0
 62
     7
 10
153.678
 20
215.93700000000001
 30
0.0
 11
125.319
 21
212.91900000000001
 31
0.0
  0
LINE
  5
380
  8
0
  6
AIGENLINE001
 62
     7
 10
164.79900000000001
 20
221.875
 30
0.0
 11
156.29699999999991
 21
221.875
 31
0.0
  0
LINE
  5
381
  8
0
 62
     7
 10
158.9739999999999
 20
221.875
 30
0.0
 11
158.917
 21
221.875
 31
0.0
  0
LINE
  5
382
  8
0
 62
     7
 10
160.96700000000001
 20
221.875
 30
0.0
 11
160.90999999999991
 21
221.875
 31
0.0
  0
LINE
  5
383
  8
0
 62
     7
 10
126.34399999999989
 20
208.98799999999989
 30
0.0
 11
126.34399999999989
 21
212.74799999999991
 31
0.0
  0
LINE
  5
384
  8
0
  6
AIGENLINE001
 62
     7
 10
160.643
 20
233.875
 30
0.0
 11
122.94799999999989
 21
233.875
 31
0.0
  0
LINE
  5
385
  8
0
 62
     7
 10
125.319
 20
212.577
 30
0.0
 11
124.977
 21
212.46299999999991
 31
0.0
  0
LINE
  5
386
  8
0
 62
     7
 10
124.977
 20
212.46299999999991
 30
0.0
 11
124.75
 21
212.2349999999999
 31
0.0
  0
LINE
  5
387
  8
0
 62
     7
 10
124.75
 20
212.2349999999999
 30
0.0
 11
124.693
 21
211.893
 31
0.0
  0
LINE
  5
388
  8
0
 62
     7
 10
125.262
 20
212.91900000000001
 30
0.0
 11
124.807
 21
212.74799999999991
 31
0.0
  0
LINE
  5
389
  8
0
 62
     7
 10
124.807
 20
212.74799999999991
 30
0.0
 11
124.465
 21
212.34899999999999
 31
0.0
  0
LINE
  5
38A
  8
0
 62
     7
 10
124.465
 20
212.34899999999999
 30
0.0
 11
124.351
 21
211.893
 31
0.0
  0
LINE
  5
38B
  8
0
 62
     7
 10
124.693
 20
255.8549999999999
 30
0.0
 11
124.75
 21
255.51300000000001
 31
0.0
  0
LINE
  5
38C
  8
0
 62
     7
 10
124.75
 20
255.51300000000001
 30
0.0
 11
124.977
 21
255.28599999999989
 31
0.0
  0
LINE
  5
38D
  8
0
 62
     7
 10
124.977
 20
255.28599999999989
 30
0.0
 11
125.319
 21
255.11500000000001
 31
0.0
  0
LINE
  5
38E
  8
0
 62
     7
 10
124.351
 20
255.8549999999999
 30
0.0
 11
124.465
 21
255.40000000000001
 31
0.0
  0
LINE
  5
38F
  8
0
 62
     7
 10
124.465
 20
255.40000000000001
 30
0.0
 11
124.807
 21
255.00099999999989
 31
0.0
  0
LINE
  5
390
  8
0
 62
     7
 10
124.807
 20
255.00099999999989
 30
0.0
 11
125.319
 21
254.773
 31
0.0
  0
LINE
  5
391
  8
0
 62
     7
 10
126.34399999999989
 20
258.70400000000001
 30
0.0
 11
126.34399999999989
 21
255.00099999999989
 31
0.0
  0
LINE
  5
392
  8
0
 62
     7
 10
153.678
 20
251.8129999999999
 30
0.0
 11
125.319
 21
254.773
 31
0.0
  0
LINE
  5
393
  8
0
 62
     7
 10
153.73500000000001
 20
252.154
 30
0.0
 11
125.319
 21
255.11500000000001
 31
0.0
  0
LINE
  5
394
  8
0
 62
     7
 10
124.693
 20
258.24799999999988
 30
0.0
 11
124.693
 21
255.8549999999999
 31
0.0
  0
LINE
  5
395
  8
0
 62
     7
 10
124.351
 20
212.86199999999999
 30
0.0
 11
124.351
 21
254.88699999999989
 31
0.0
  0
LINE
  5
396
  8
0
 62
     7
 10
124.351
 20
254.88699999999989
 30
0.0
 11
124.351
 21
258.24799999999988
 31
0.0
  0
LINE
  5
397
  8
0
 62
     7
 10
158.917
 20
159.52500000000001
 30
0.0
 11
158.917
 21
159.4679999999999
 31
0.0
  0
LINE
  5
398
  8
0
 62
     7
 10
158.917
 20
159.4679999999999
 30
0.0
 11
158.803
 21
159.4679999999999
 31
0.0
  0
LINE
  5
399
  8
0
 62
     7
 10
158.803
 20
159.4679999999999
 30
0.0
 11
158.74600000000001
 21
159.4679999999999
 31
0.0
  0
LINE
  5
39A
  8
0
 62
     7
 10
158.74600000000001
 20
159.4679999999999
 30
0.0
 11
158.74600000000001
 21
158.501
 31
0.0
  0
LINE
  5
39B
  8
0
 62
     7
 10
158.74600000000001
 20
158.501
 30
0.0
 11
158.291
 21
158.501
 31
0.0
  0
LINE
  5
39C
  8
0
 62
     7
 10
160.96700000000001
 20
160.9489999999999
 30
0.0
 11
160.96700000000001
 21
160.89199999999991
 31
0.0
  0
LINE
  5
39D
  8
0
 62
     7
 10
160.96700000000001
 20
162.08799999999991
 30
0.0
 11
160.96700000000001
 21
162.03100000000001
 31
0.0
  0
LINE
  5
39E
  8
0
 62
     7
 10
159.03100000000001
 20
161.91699999999989
 30
0.0
 11
159.08799999999999
 21
161.91699999999989
 31
0.0
  0
LINE
  5
39F
  8
0
 62
     7
 10
159.14400000000001
 20
161.8609999999999
 30
0.0
 11
159.08799999999999
 21
161.74600000000001
 31
0.0
  0
LINE
  5
3A0
  8
0
 62
     7
 10
158.9739999999999
 20
161.40399999999991
 30
0.0
 11
159.14400000000001
 21
161.06299999999999
 31
0.0
  0
LINE
  5
3A1
  8
0
 62
     7
 10
158.917
 20
160.89199999999991
 30
0.0
 11
158.917
 21
161.40399999999991
 31
0.0
  0
LINE
  5
3A2
  8
0
 62
     7
 10
159.08799999999999
 20
161.06299999999999
 30
0.0
 11
158.9739999999999
 21
160.9489999999999
 31
0.0
  0
LINE
  5
3A3
  8
0
 62
     7
 10
159.03100000000001
 20
160.83500000000001
 30
0.0
 11
160.90999999999991
 21
160.83500000000001
 31
0.0
  0
LINE
  5
3A4
  8
0
 62
     7
 10
158.917
 20
160.89199999999991
 30
0.0
 11
158.9739999999999
 21
160.83500000000001
 31
0.0
  0
LINE
  5
3A5
  8
0
 62
     7
 10
159.03100000000001
 20
160.83500000000001
 30
0.0
 11
158.9739999999999
 21
160.779
 31
0.0
  0
LINE
  5
3A6
  8
0
 62
     7
 10
159.03100000000001
 20
162.14500000000001
 30
0.0
 11
160.90999999999991
 21
162.14500000000001
 31
0.0
  0
LINE
  5
3A7
  8
0
 62
     7
 10
160.96700000000001
 20
160.89199999999991
 30
0.0
 11
160.90999999999991
 21
160.83500000000001
 31
0.0
  0
LINE
  5
3A8
  8
0
 62
     7
 10
160.90999999999991
 20
160.9489999999999
 30
0.0
 11
160.79599999999999
 21
161.06299999999999
 31
0.0
  0
LINE
  5
3A9
  8
0
 62
     7
 10
160.74000000000001
 20
161.06299999999999
 30
0.0
 11
160.90999999999991
 21
161.46199999999999
 31
0.0
  0
LINE
  5
3AA
  8
0
 62
     7
 10
160.90999999999991
 20
161.46199999999999
 30
0.0
 11
160.74000000000001
 21
161.8609999999999
 31
0.0
  0
LINE
  5
3AB
  8
0
 62
     7
 10
160.79599999999999
 20
161.91699999999989
 30
0.0
 11
160.90999999999991
 21
162.03100000000001
 31
0.0
  0
LINE
  5
3AC
  8
0
 62
     7
 10
160.96700000000001
 20
162.08799999999991
 30
0.0
 11
160.90999999999991
 21
162.14500000000001
 31
0.0
  0
LINE
  5
3AD
  8
0
 62
     7
 10
158.917
 20
159.52500000000001
 30
0.0
 11
158.917
 21
161.40399999999991
 31
0.0
  0
LINE
  5
3AE
  8
0
 62
     7
 10
158.803
 20
161.23400000000001
 30
0.0
 11
158.803
 21
159.4679999999999
 31
0.0
  0
LINE
  5
3AF
  8
0
 62
     7
 10
158.917
 20
159.4679999999999
 30
0.0
 11
158.917
 21
161.40399999999991
 31
0.0
  0
LINE
  5
3B0
  8
0
 62
     7
 10
158.74600000000001
 20
161.23400000000001
 30
0.0
 11
158.74600000000001
 21
159.4679999999999
 31
0.0
  0
LINE
  5
3B1
  8
0
 62
     7
 10
159.08799999999999
 20
161.91699999999989
 30
0.0
 11
160.79599999999999
 21
161.91699999999989
 31
0.0
  0
LINE
  5
3B2
  8
0
 62
     7
 10
159.08799999999999
 20
161.06299999999999
 30
0.0
 11
160.79599999999999
 21
161.06299999999999
 31
0.0
  0
LINE
  5
3B3
  8
0
 62
     7
 10
158.917
 20
102.523
 30
0.0
 11
158.917
 21
102.46599999999999
 31
0.0
  0
LINE
  5
3B4
  8
0
 62
     7
 10
158.917
 20
102.46599999999999
 30
0.0
 11
158.803
 21
102.46599999999999
 31
0.0
  0
LINE
  5
3B5
  8
0
 62
     7
 10
158.803
 20
102.46599999999999
 30
0.0
 11
158.74600000000001
 21
102.46599999999999
 31
0.0
  0
LINE
  5
3B6
  8
0
 62
     7
 10
158.803
 20
106.4529999999999
 30
0.0
 11
158.74600000000001
 21
106.4529999999999
 31
0.0
  0
LINE
  5
3B7
  8
0
 62
     7
 10
160.96700000000001
 20
103.947
 30
0.0
 11
160.96700000000001
 21
103.8899999999999
 31
0.0
  0
LINE
  5
3B8
  8
0
 62
     7
 10
160.96700000000001
 20
105.0289999999999
 30
0.0
 11
160.96700000000001
 21
104.97199999999999
 31
0.0
  0
LINE
  5
3B9
  8
0
 62
     7
 10
158.9739999999999
 20
105.2
 30
0.0
 11
159.03100000000001
 21
105.1429999999999
 31
0.0
  0
LINE
  5
3BA
  8
0
 62
     7
 10
158.917
 20
105.0289999999999
 30
0.0
 11
158.9739999999999
 21
105.1429999999999
 31
0.0
  0
LINE
  5
3BB
  8
0
 62
     7
 10
158.9739999999999
 20
105.0289999999999
 30
0.0
 11
159.08799999999999
 21
104.91500000000001
 31
0.0
  0
LINE
  5
3BC
  8
0
 62
     7
 10
158.917
 20
105.0289999999999
 30
0.0
 11
158.917
 21
104.459
 31
0.0
  0
LINE
  5
3BD
  8
0
 62
     7
 10
159.14400000000001
 20
104.8579999999999
 30
0.0
 11
158.9739999999999
 21
104.459
 31
0.0
  0
LINE
  5
3BE
  8
0
 62
     7
 10
158.9739999999999
 20
104.459
 30
0.0
 11
159.14400000000001
 21
104.0599999999999
 31
0.0
  0
LINE
  5
3BF
  8
0
 62
     7
 10
158.917
 20
103.8899999999999
 30
0.0
 11
158.917
 21
104.459
 31
0.0
  0
LINE
  5
3C0
  8
0
 62
     7
 10
159.08799999999999
 20
104.0599999999999
 30
0.0
 11
158.9739999999999
 21
103.947
 31
0.0
  0
LINE
  5
3C1
  8
0
 62
     7
 10
159.03100000000001
 20
103.776
 30
0.0
 11
160.90999999999991
 21
103.776
 31
0.0
  0
LINE
  5
3C2
  8
0
 62
     7
 10
158.917
 20
103.8899999999999
 30
0.0
 11
158.9739999999999
 21
103.776
 31
0.0
  0
LINE
  5
3C3
  8
0
 62
     7
 10
159.03100000000001
 20
103.776
 30
0.0
 11
158.9739999999999
 21
103.71899999999999
 31
0.0
  0
LINE
  5
3C4
  8
0
 62
     7
 10
159.03100000000001
 20
105.1429999999999
 30
0.0
 11
160.90999999999991
 21
105.1429999999999
 31
0.0
  0
LINE
  5
3C5
  8
0
 62
     7
 10
160.96700000000001
 20
103.8899999999999
 30
0.0
 11
160.90999999999991
 21
103.776
 31
0.0
  0
LINE
  5
3C6
  8
0
 62
     7
 10
160.90999999999991
 20
103.947
 30
0.0
 11
160.79599999999999
 21
104.0599999999999
 31
0.0
  0
LINE
  5
3C7
  8
0
 62
     7
 10
160.74000000000001
 20
104.0599999999999
 30
0.0
 11
160.90999999999991
 21
104.459
 31
0.0
  0
LINE
  5
3C8
  8
0
 62
     7
 10
160.90999999999991
 20
104.459
 30
0.0
 11
160.74000000000001
 21
104.8579999999999
 31
0.0
  0
LINE
  5
3C9
  8
0
 62
     7
 10
160.79599999999999
 20
104.91500000000001
 30
0.0
 11
160.90999999999991
 21
105.0289999999999
 31
0.0
  0
LINE
  5
3CA
  8
0
 62
     7
 10
160.96700000000001
 20
105.0289999999999
 30
0.0
 11
160.90999999999991
 21
105.1429999999999
 31
0.0
  0
LINE
  5
3CB
  8
0
 62
     7
 10
158.74600000000001
 20
104.459
 30
0.0
 11
158.74600000000001
 21
106.4529999999999
 31
0.0
  0
LINE
  5
3CC
  8
0
 62
     7
 10
158.803
 20
104.459
 30
0.0
 11
158.803
 21
106.4529999999999
 31
0.0
  0
LINE
  5
3CD
  8
0
 62
     7
 10
158.803
 20
106.4529999999999
 30
0.0
 11
158.917
 21
106.4529999999999
 31
0.0
  0
LINE
  5
3CE
  8
0
 62
     7
 10
158.917
 20
106.4529999999999
 30
0.0
 11
158.917
 21
104.459
 31
0.0
  0
LINE
  5
3CF
  8
0
 62
     7
 10
158.917
 20
102.523
 30
0.0
 11
158.917
 21
104.459
 31
0.0
  0
LINE
  5
3D0
  8
0
 62
     7
 10
158.917
 20
104.459
 30
0.0
 11
158.917
 21
106.4529999999999
 31
0.0
  0
LINE
  5
3D1
  8
0
 62
     7
 10
158.803
 20
104.459
 30
0.0
 11
158.803
 21
102.46599999999999
 31
0.0
  0
LINE
  5
3D2
  8
0
 62
     7
 10
158.917
 20
102.46599999999999
 30
0.0
 11
158.917
 21
104.459
 31
0.0
  0
LINE
  5
3D3
  8
0
 62
     7
 10
158.74600000000001
 20
104.459
 30
0.0
 11
158.74600000000001
 21
102.523
 31
0.0
  0
LINE
  5
3D4
  8
0
 62
     7
 10
159.08799999999999
 20
104.8579999999999
 30
0.0
 11
160.79599999999999
 21
104.8579999999999
 31
0.0
  0
LINE
  5
3D5
  8
0
 62
     7
 10
159.08799999999999
 20
104.0599999999999
 30
0.0
 11
160.79599999999999
 21
104.0599999999999
 31
0.0
  0
LINE
  5
3D6
  8
0
 62
     7
 10
160.96700000000001
 20
105.2
 30
0.0
 11
161.024
 21
104.91500000000001
 31
0.0
  0
LINE
  5
3D7
  8
0
 62
     7
 10
160.96700000000001
 20
105.1429999999999
 30
0.0
 11
160.96700000000001
 21
103.8899999999999
 31
0.0
  0
LINE
  5
3D8
  8
0
 62
     7
 10
161.024
 20
104.1179999999999
 30
0.0
 11
160.96700000000001
 21
103.8329999999999
 31
0.0
  0
LINE
  5
3D9
  8
0
 62
     7
 10
161.024
 20
104.8579999999999
 30
0.0
 11
161.024
 21
104.1749999999999
 31
0.0
  0
LINE
  5
3DA
  8
0
 62
     7
 10
161.024
 20
103.776
 30
0.0
 11
160.96700000000001
 21
103.8899999999999
 31
0.0
  0
LINE
  5
3DB
  8
0
 62
     7
 10
161.024
 20
105.25700000000001
 30
0.0
 11
160.96700000000001
 21
105.1429999999999
 31
0.0
  0
LINE
  5
3DC
  8
0
 62
     7
 10
161.536
 20
104.91500000000001
 30
0.0
 11
161.5929999999999
 21
105.2
 31
0.0
  0
LINE
  5
3DD
  8
0
 62
     7
 10
161.5929999999999
 20
105.1429999999999
 30
0.0
 11
161.5929999999999
 21
103.8899999999999
 31
0.0
  0
LINE
  5
3DE
  8
0
 62
     7
 10
161.536
 20
104.1749999999999
 30
0.0
 11
161.536
 21
104.8579999999999
 31
0.0
  0
LINE
  5
3DF
  8
0
 62
     7
 10
161.5929999999999
 20
103.8329999999999
 30
0.0
 11
161.536
 21
104.1179999999999
 31
0.0
  0
LINE
  5
3E0
  8
0
 62
     7
 10
161.536
 20
103.776
 30
0.0
 11
161.5929999999999
 21
103.8899999999999
 31
0.0
  0
LINE
  5
3E1
  8
0
 62
     7
 10
161.536
 20
105.25700000000001
 30
0.0
 11
161.5929999999999
 21
105.1429999999999
 31
0.0
  0
LINE
  5
3E2
  8
0
 62
     7
 10
161.536
 20
104.8579999999999
 30
0.0
 11
161.024
 21
104.8579999999999
 31
0.0
  0
LINE
  5
3E3
  8
0
 62
     7
 10
161.536
 20
103.776
 30
0.0
 11
161.024
 21
103.776
 31
0.0
  0
LINE
  5
3E4
  8
0
 62
     7
 10
161.536
 20
104.1179999999999
 30
0.0
 11
161.024
 21
104.1179999999999
 31
0.0
  0
LINE
  5
3E5
  8
0
 62
     7
 10
161.536
 20
105.25700000000001
 30
0.0
 11
161.024
 21
105.25700000000001
 31
0.0
  0
LINE
  5
3E6
  8
0
 62
     7
 10
156.411
 20
107.47799999999999
 30
0.0
 11
158.74600000000001
 21
107.47799999999999
 31
0.0
  0
LINE
  5
3E7
  8
0
 62
     7
 10
158.74600000000001
 20
107.47799999999999
 30
0.0
 11
158.74600000000001
 21
101.61199999999999
 31
0.0
  0
LINE
  5
3E8
  8
0
 62
     7
 10
158.74600000000001
 20
101.61199999999999
 30
0.0
 11
156.24100000000001
 21
101.61199999999999
 31
0.0
  0
LINE
  5
3E9
  8
0
  6
AIGENLINE001
 62
     7
 10
165.16399999999999
 20
104.459
 30
0.0
 11
153.81399999999999
 21
104.459
 31
0.0
  0
LINE
  5
3EA
  8
0
 62
     7
 10
158.86000000000001
 20
104.459
 30
0.0
 11
158.803
 21
104.459
 31
0.0
  0
LINE
  5
3EB
  8
0
 62
     7
 10
130.501
 20
172.339
 30
0.0
 11
130.55799999999991
 21
172.28099999999989
 31
0.0
  0
LINE
  5
3EC
  8
0
 62
     7
 10
158.518
 20
165.78899999999999
 30
0.0
 11
158.518
 21
165.73299999999989
 31
0.0
  0
LINE
  5
3ED
  8
0
 62
     7
 10
126.34399999999989
 20
84.984200000000016
 30
0.0
 11
124.863
 21
85.097800000000007
 31
0.0
  0
LINE
  5
3EE
  8
0
 62
     7
 10
124.863
 20
177.91900000000001
 30
0.0
 11
124.693
 21
177.749
 31
0.0
  0
LINE
  5
3EF
  8
0
 62
     7
 10
124.863
 20
178.261
 30
0.0
 11
124.465
 21
178.09
 31
0.0
  0
LINE
  5
3F0
  8
0
 62
     7
 10
124.465
 20
178.09
 30
0.0
 11
124.351
 21
177.749
 31
0.0
  0
LINE
  5
3F1
  8
0
 62
     7
 10
126.34399999999989
 20
178.03299999999999
 30
0.0
 11
124.863
 21
177.91900000000001
 31
0.0
  0
LINE
  5
3F2
  8
0
 62
     7
 10
126.34399999999989
 20
178.3179999999999
 30
0.0
 11
124.863
 21
178.261
 31
0.0
  0
LINE
  5
3F3
  8
0
 62
     7
 10
157.15199999999999
 20
131.62200000000001
 30
0.0
 11
156.35499999999999
 21
103.54900000000001
 31
0.0
  0
LINE
  5
3F4
  8
0
  6
AIGENLINE001
 62
     7
 10
159.572
 20
164.02000000000001
 30
0.0
 11
156.46199999999999
 21
164.02000000000001
 31
0.0
  0
LINE
  5
3F5
  8
0
 62
     7
 10
126.34399999999989
 20
177.976
 30
0.0
 11
126.34399999999989
 21
178.3179999999999
 31
0.0
  0
LINE
  5
3F6
  8
0
 62
     7
 10
157.721
 20
167.89599999999999
 30
0.0
 11
157.77799999999991
 21
167.84
 31
0.0
  0
LINE
  5
3F7
  8
0
 62
     7
 10
157.608
 20
166.75699999999989
 30
0.0
 11
157.83500000000001
 21
166.58699999999999
 31
0.0
  0
LINE
  5
3F8
  8
0
 62
     7
 10
157.6639999999999
 20
161.291
 30
0.0
 11
157.6639999999999
 21
166.58699999999999
 31
0.0
  0
LINE
  5
3F9
  8
0
 62
     7
 10
158.006
 20
160.37999999999991
 30
0.0
 11
157.9489999999999
 21
160.26599999999999
 31
0.0
  0
LINE
  5
3FA
  8
0
 62
     7
 10
159.03100000000001
 20
161.51900000000001
 30
0.0
 11
158.006
 21
160.37999999999991
 31
0.0
  0
LINE
  5
3FB
  8
0
 62
     7
 10
157.6639999999999
 20
166.58699999999999
 30
0.0
 11
158.06299999999999
 21
166.58699999999999
 31
0.0
  0
LINE
  5
3FC
  8
0
 62
     7
 10
157.6639999999999
 20
161.291
 30
0.0
 11
158.06299999999999
 21
161.291
 31
0.0
  0
LINE
  5
3FD
  8
0
 62
     7
 10
158.518
 20
165.78899999999999
 30
0.0
 11
159.03100000000001
 21
165.78899999999999
 31
0.0
  0
LINE
  5
3FE
  8
0
 62
     7
 10
158.518
 20
162.08799999999991
 30
0.0
 11
159.03100000000001
 21
162.08799999999991
 31
0.0
  0
LINE
  5
3FF
  8
0
 62
     7
 10
158.518
 20
166.01699999999991
 30
0.0
 11
158.46199999999999
 21
166.13099999999989
 31
0.0
  0
LINE
  5
400
  8
0
 62
     7
 10
158.17699999999999
 20
166.4729999999999
 30
0.0
 11
158.06299999999999
 21
166.529
 31
0.0
  0
LINE
  5
401
  8
0
 62
     7
 10
159.03100000000001
 20
166.30199999999999
 30
0.0
 11
158.9739999999999
 21
166.416
 31
0.0
  0
LINE
  5
402
  8
0
 62
     7
 10
159.03100000000001
 20
166.35900000000001
 30
0.0
 11
157.721
 21
167.84
 31
0.0
  0
LINE
  5
403
  8
0
 62
     7
 10
158.46199999999999
 20
166.18799999999999
 30
0.0
 11
158.17699999999999
 21
166.529
 31
0.0
  0
LINE
  5
404
  8
0
 62
     7
 10
158.46199999999999
 20
161.74600000000001
 30
0.0
 11
158.518
 21
161.8609999999999
 31
0.0
  0
LINE
  5
405
  8
0
 62
     7
 10
158.9739999999999
 20
161.51900000000001
 30
0.0
 11
159.03100000000001
 21
161.63199999999989
 31
0.0
  0
LINE
  5
406
  8
0
 62
     7
 10
159.03100000000001
 20
161.51900000000001
 30
0.0
 11
159.03100000000001
 21
166.35900000000001
 31
0.0
  0
LINE
  5
407
  8
0
 62
     7
 10
158.518
 20
161.8609999999999
 30
0.0
 11
158.518
 21
166.01699999999991
 31
0.0
  0
LINE
  5
408
  8
0
 62
     7
 10
158.46199999999999
 20
161.74600000000001
 30
0.0
 11
158.17699999999999
 21
161.40399999999991
 31
0.0
  0
LINE
  5
409
  8
0
 62
     7
 10
158.06299999999999
 20
161.3479999999999
 30
0.0
 11
158.17699999999999
 21
161.40399999999991
 31
0.0
  0
LINE
  5
40A
  8
0
 62
     7
 10
99.446200000000005
 20
84.984200000000016
 30
0.0
 11
50.796000000000006
 21
84.984200000000016
 31
0.0
  0
LINE
  5
40B
  8
0
 62
     7
 10
99.4452
 20
178.3179999999999
 30
0.0
 11
50.796000000000006
 21
178.3179999999999
 31
0.0
  0
LINE
  5
40C
  8
0
 62
     7
 10
100.113
 20
85.667699999999996
 30
0.0
 11
100.113
 21
177.65000000000001
 31
0.0
  0
LINE
  5
40D
  8
0
 62
     7
 10
50.112499999999997
 20
85.667699999999996
 30
0.0
 11
50.112499999999997
 21
177.65000000000001
 31
0.0
  0
LINE
  5
40E
  8
0
 62
     7
 10
153.79199999999989
 20
97.398300000000006
 30
0.0
 11
154.47499999999999
 21
97.796499999999995
 31
0.0
  0
LINE
  5
40F
  8
0
 62
     7
 10
154.47499999999999
 20
97.796499999999995
 30
0.0
 11
155.102
 21
98.309200000000004
 31
0.0
  0
LINE
  5
410
  8
0
 62
     7
 10
155.102
 20
98.309200000000004
 30
0.0
 11
155.61500000000001
 21
98.936199999999999
 31
0.0
  0
LINE
  5
411
  8
0
 62
     7
 10
155.61500000000001
 20
98.936199999999999
 30
0.0
 11
155.95599999999999
 21
99.676199999999994
 31
0.0
  0
LINE
  5
412
  8
0
 62
     7
 10
155.95599999999999
 20
99.676199999999994
 30
0.0
 11
156.12700000000001
 21
100.4729999999999
 31
0.0
  0
LINE
  5
413
  8
0
 62
     7
 10
156.7529999999999
 20
131.62200000000001
 30
0.0
 11
157.6639999999999
 21
161.291
 31
0.0
  0
LINE
  5
414
  8
0
 62
     7
 10
124.351
 20
86.236800000000002
 30
0.0
 11
124.351
 21
173.648
 31
0.0
  0
LINE
  5
415
  8
0
 62
     7
 10
124.693
 20
173.648
 30
0.0
 11
124.693
 21
177.749
 31
0.0
  0
LINE
  5
416
  8
0
 62
     7
 10
124.351
 20
173.648
 30
0.0
 11
124.351
 21
177.749
 31
0.0
  0
LINE
  5
417
  8
0
 62
     7
 10
157.49299999999991
 20
167.327
 30
0.0
 11
157.15199999999999
 21
168.01099999999991
 31
0.0
  0
LINE
  5
418
  8
0
 62
     7
 10
157.15199999999999
 20
168.01099999999991
 30
0.0
 11
156.69599999999991
 21
168.636
 31
0.0
  0
LINE
  5
419
  8
0
 62
     7
 10
156.69599999999991
 20
168.636
 30
0.0
 11
156.06999999999991
 21
169.14899999999989
 31
0.0
  0
LINE
  5
41A
  8
0
 62
     7
 10
156.06999999999991
 20
169.14899999999989
 30
0.0
 11
155.33000000000001
 21
169.4909999999999
 31
0.0
  0
LINE
  5
41B
  8
0
 62
     7
 10
155.33000000000001
 20
169.4909999999999
 30
0.0
 11
154.58899999999991
 21
169.66200000000001
 31
0.0
  0
LINE
  5
41C
  8
0
 62
     7
 10
157.6639999999999
 20
167.84
 30
0.0
 11
157.26599999999991
 21
168.52299999999991
 31
0.0
  0
LINE
  5
41D
  8
0
 62
     7
 10
157.26599999999991
 20
168.52299999999991
 30
0.0
 11
156.7529999999999
 21
169.0929999999999
 31
0.0
  0
LINE
  5
41E
  8
0
 62
     7
 10
156.7529999999999
 20
169.0929999999999
 30
0.0
 11
156.12700000000001
 21
169.548
 31
0.0
  0
LINE
  5
41F
  8
0
 62
     7
 10
156.12700000000001
 20
169.548
 30
0.0
 11
155.386
 21
169.833
 31
0.0
  0
LINE
  5
420
  8
0
 62
     7
 10
155.386
 20
169.833
 30
0.0
 11
154.64599999999999
 21
170.0029999999999
 31
0.0
  0
LINE
  5
421
  8
0
 62
     7
 10
157.43700000000001
 20
131.62200000000001
 30
0.0
 11
157.721
 21
131.62200000000001
 31
0.0
  0
LINE
  5
422
  8
0
 62
     7
 10
156.06999999999991
 20
131.62200000000001
 30
0.0
 11
157.095
 21
131.62200000000001
 31
0.0
  0
LINE
  5
423
  8
0
  6
AIGENLINE001
 62
     7
 10
43.3962
 20
131.62200000000001
 30
0.0
 11
107.833
 21
131.62200000000001
 31
0.0
  0
LINE
  5
424
  8
0
  6
AIGENLINE001
 62
     7
 10
122.3579999999999
 20
131.62200000000001
 30
0.0
 11
159.42400000000001
 21
131.62200000000001
 31
0.0
  0
LINE
  5
425
  8
0
 62
     7
 10
158.3479999999999
 20
160.779
 30
0.0
 11
157.55000000000001
 21
131.62200000000001
 31
0.0
  0
LINE
  5
426
  8
0
 62
     7
 10
157.9489999999999
 20
160.26599999999999
 30
0.0
 11
157.15199999999999
 21
131.62200000000001
 31
0.0
  0
LINE
  5
427
  8
0
 62
     7
 10
157.15199999999999
 20
131.679
 30
0.0
 11
157.55000000000001
 21
132.078
 31
0.0
  0
LINE
  5
428
  8
0
 62
     7
 10
157.15199999999999
 20
132.59100000000001
 30
0.0
 11
157.608
 21
133.04599999999991
 31
0.0
  0
LINE
  5
429
  8
0
 62
     7
 10
157.20799999999991
 20
133.55799999999991
 30
0.0
 11
157.608
 21
133.95699999999991
 31
0.0
  0
LINE
  5
42A
  8
0
 62
     7
 10
157.20799999999991
 20
134.47
 30
0.0
 11
157.6639999999999
 21
134.86899999999989
 31
0.0
  0
LINE
  5
42B
  8
0
 62
     7
 10
157.26599999999991
 20
135.38099999999989
 30
0.0
 11
157.6639999999999
 21
135.78
 31
0.0
  0
LINE
  5
42C
  8
0
 62
     7
 10
157.26599999999991
 20
136.292
 30
0.0
 11
157.6639999999999
 21
136.691
 31
0.0
  0
LINE
  5
42D
  8
0
 62
     7
 10
157.322
 20
137.203
 30
0.0
 11
157.721
 21
137.65899999999991
 31
0.0
  0
LINE
  5
42E
  8
0
 62
     7
 10
157.322
 20
138.17099999999991
 30
0.0
 11
157.721
 21
138.56999999999991
 31
0.0
  0
LINE
  5
42F
  8
0
 62
     7
 10
157.37899999999991
 20
139.08199999999991
 30
0.0
 11
157.77799999999991
 21
139.4799999999999
 31
0.0
  0
LINE
  5
430
  8
0
 62
     7
 10
157.37899999999991
 20
139.99299999999991
 30
0.0
 11
157.77799999999991
 21
140.392
 31
0.0
  0
LINE
  5
431
  8
0
 62
     7
 10
157.43700000000001
 20
140.905
 30
0.0
 11
157.83500000000001
 21
141.36000000000001
 31
0.0
  0
LINE
  5
432
  8
0
 62
     7
 10
157.43700000000001
 20
141.87299999999991
 30
0.0
 11
157.83500000000001
 21
142.27099999999999
 31
0.0
  0
LINE
  5
433
  8
0
 62
     7
 10
157.43700000000001
 20
142.78399999999991
 30
0.0
 11
157.892
 21
143.18299999999991
 31
0.0
  0
LINE
  5
434
  8
0
 62
     7
 10
157.49299999999991
 20
143.6939999999999
 30
0.0
 11
157.892
 21
144.0929999999999
 31
0.0
  0
LINE
  5
435
  8
0
 62
     7
 10
157.49299999999991
 20
144.60599999999991
 30
0.0
 11
157.9489999999999
 21
145.00399999999991
 31
0.0
  0
LINE
  5
436
  8
0
 62
     7
 10
157.55000000000001
 20
145.517
 30
0.0
 11
157.9489999999999
 21
145.97200000000001
 31
0.0
  0
LINE
  5
437
  8
0
 62
     7
 10
157.55000000000001
 20
146.48500000000001
 30
0.0
 11
157.9489999999999
 21
146.8839999999999
 31
0.0
  0
LINE
  5
438
  8
0
 62
     7
 10
157.608
 20
147.39699999999999
 30
0.0
 11
158.006
 21
147.7949999999999
 31
0.0
  0
LINE
  5
439
  8
0
 62
     7
 10
157.608
 20
148.30699999999999
 30
0.0
 11
158.006
 21
148.70599999999999
 31
0.0
  0
LINE
  5
43A
  8
0
 62
     7
 10
157.6639999999999
 20
149.2179999999999
 30
0.0
 11
158.06299999999999
 21
149.67400000000001
 31
0.0
  0
LINE
  5
43B
  8
0
 62
     7
 10
157.6639999999999
 20
150.18600000000001
 30
0.0
 11
158.06299999999999
 21
150.58500000000001
 31
0.0
  0
LINE
  5
43C
  8
0
 62
     7
 10
157.6639999999999
 20
151.0979999999999
 30
0.0
 11
158.12
 21
151.49600000000001
 31
0.0
  0
LINE
  5
43D
  8
0
 62
     7
 10
157.721
 20
152.0089999999999
 30
0.0
 11
158.12
 21
152.40700000000001
 31
0.0
  0
LINE
  5
43E
  8
0
 62
     7
 10
157.721
 20
152.9199999999999
 30
0.0
 11
158.17699999999999
 21
153.37499999999989
 31
0.0
  0
LINE
  5
43F
  8
0
 62
     7
 10
157.77799999999991
 20
153.88799999999989
 30
0.0
 11
158.17699999999999
 21
154.28700000000001
 31
0.0
  0
LINE
  5
440
  8
0
 62
     7
 10
157.77799999999991
 20
154.79900000000001
 30
0.0
 11
158.23400000000001
 21
155.19799999999989
 31
0.0
  0
LINE
  5
441
  8
0
 62
     7
 10
157.83500000000001
 20
155.71000000000001
 30
0.0
 11
158.23400000000001
 21
156.10900000000001
 31
0.0
  0
LINE
  5
442
  8
0
 62
     7
 10
157.83500000000001
 20
156.62100000000001
 30
0.0
 11
158.23400000000001
 21
157.0199999999999
 31
0.0
  0
LINE
  5
443
  8
0
 62
     7
 10
157.892
 20
157.53200000000001
 30
0.0
 11
158.291
 21
157.98799999999989
 31
0.0
  0
LINE
  5
444
  8
0
 62
     7
 10
157.892
 20
158.501
 30
0.0
 11
158.291
 21
158.899
 31
0.0
  0
LINE
  5
445
  8
0
 62
     7
 10
157.9489999999999
 20
159.41200000000001
 30
0.0
 11
158.3479999999999
 21
159.81
 31
0.0
  0
LINE
  5
446
  8
0
 62
     7
 10
158.006
 20
160.37999999999991
 30
0.0
 11
158.3479999999999
 21
160.72200000000001
 31
0.0
  0
LINE
  5
447
  8
0
  6
AIGENLINE001
 62
     7
 10
165.0029999999999
 20
161.46199999999999
 30
0.0
 11
156.29699999999991
 21
161.46199999999999
 31
0.0
  0
LINE
  5
448
  8
0
 62
     7
 10
157.6639999999999
 20
166.58699999999999
 30
0.0
 11
157.49299999999991
 21
167.327
 31
0.0
  0
LINE
  5
449
  8
0
 62
     7
 10
157.6639999999999
 20
167.84
 30
0.0
 11
157.26599999999991
 21
168.52299999999991
 31
0.0
  0
LINE
  5
44A
  8
0
 62
     7
 10
157.26599999999991
 20
168.52299999999991
 30
0.0
 11
156.7529999999999
 21
169.0929999999999
 31
0.0
  0
LINE
  5
44B
  8
0
 62
     7
 10
156.7529999999999
 20
169.0929999999999
 30
0.0
 11
156.12700000000001
 21
169.548
 31
0.0
  0
LINE
  5
44C
  8
0
 62
     7
 10
156.12700000000001
 20
169.548
 30
0.0
 11
155.386
 21
169.833
 31
0.0
  0
LINE
  5
44D
  8
0
 62
     7
 10
155.386
 20
169.833
 30
0.0
 11
154.64599999999999
 21
170.0029999999999
 31
0.0
  0
LINE
  5
44E
  8
0
 62
     7
 10
157.49299999999991
 20
167.327
 30
0.0
 11
157.15199999999999
 21
168.01099999999991
 31
0.0
  0
LINE
  5
44F
  8
0
 62
     7
 10
157.15199999999999
 20
168.01099999999991
 30
0.0
 11
156.69599999999991
 21
168.636
 31
0.0
  0
LINE
  5
450
  8
0
 62
     7
 10
156.69599999999991
 20
168.636
 30
0.0
 11
156.06999999999991
 21
169.14899999999989
 31
0.0
  0
LINE
  5
451
  8
0
 62
     7
 10
156.06999999999991
 20
169.14899999999989
 30
0.0
 11
155.33000000000001
 21
169.4909999999999
 31
0.0
  0
LINE
  5
452
  8
0
 62
     7
 10
155.33000000000001
 20
169.4909999999999
 30
0.0
 11
154.58899999999991
 21
169.66200000000001
 31
0.0
  0
LINE
  5
453
  8
0
 62
     7
 10
154.64599999999999
 20
170.0029999999999
 30
0.0
 11
125.319
 21
172.9079999999999
 31
0.0
  0
LINE
  5
454
  8
0
 62
     7
 10
154.58899999999991
 20
169.66200000000001
 30
0.0
 11
124.351
 21
172.68000000000001
 31
0.0
  0
LINE
  5
455
  8
0
 62
     7
 10
124.351
 20
85.610499999999988
 30
0.0
 11
124.465
 21
85.268699999999995
 31
0.0
  0
LINE
  5
456
  8
0
 62
     7
 10
124.465
 20
85.268699999999995
 30
0.0
 11
124.863
 21
85.097800000000007
 31
0.0
  0
LINE
  5
457
  8
0
 62
     7
 10
124.351
 20
85.610499999999988
 30
0.0
 11
124.351
 21
88.40100000000001
 31
0.0
  0
LINE
  5
458
  8
0
 62
     7
 10
126.34399999999989
 20
84.984200000000016
 30
0.0
 11
126.34399999999989
 21
131.62200000000001
 31
0.0
  0
LINE
  5
459
  8
0
 62
     7
 10
126.34399999999989
 20
177.976
 30
0.0
 11
126.34399999999989
 21
172.79400000000001
 31
0.0
  0
LINE
  5
45A
  8
0
 62
     7
 10
124.693
 20
173.648
 30
0.0
 11
124.75
 21
173.30699999999999
 31
0.0
  0
LINE
  5
45B
  8
0
 62
     7
 10
124.75
 20
173.30699999999999
 30
0.0
 11
124.977
 21
173.07900000000001
 31
0.0
  0
LINE
  5
45C
  8
0
 62
     7
 10
124.977
 20
173.07900000000001
 30
0.0
 11
125.319
 21
172.965
 31
0.0
  0
LINE
  5
45D
  8
0
 62
     7
 10
124.351
 20
173.648
 30
0.0
 11
124.465
 21
173.19200000000001
 31
0.0
  0
LINE
  5
45E
  8
0
 62
     7
 10
124.465
 20
173.19200000000001
 30
0.0
 11
124.807
 21
172.79400000000001
 31
0.0
  0
LINE
  5
45F
  8
0
 62
     7
 10
124.807
 20
172.79400000000001
 30
0.0
 11
125.262
 21
172.62299999999991
 31
0.0
  0
LINE
  5
460
  8
0
 62
     7
 10
155.55699999999999
 20
169.7759999999999
 30
0.0
 11
159.03100000000001
 21
166.30199999999999
 31
0.0
  0
LINE
  5
461
  8
0
 62
     7
 10
154.81700000000001
 20
169.6049999999999
 30
0.0
 11
154.41800000000001
 21
170.0029999999999
 31
0.0
  0
LINE
  5
462
  8
0
 62
     7
 10
158.63200000000001
 20
165.78899999999999
 30
0.0
 11
158.518
 21
165.904
 31
0.0
  0
LINE
  5
463
  8
0
 62
     7
 10
153.79199999999989
 20
169.71899999999999
 30
0.0
 11
153.4499999999999
 21
170.11799999999991
 31
0.0
  0
LINE
  5
464
  8
0
 62
     7
 10
152.8239999999999
 20
169.833
 30
0.0
 11
152.42500000000001
 21
170.17400000000001
 31
0.0
  0
LINE
  5
465
  8
0
 62
     7
 10
151.79900000000001
 20
169.94699999999989
 30
0.0
 11
151.45699999999991
 21
170.2879999999999
 31
0.0
  0
LINE
  5
466
  8
0
 62
     7
 10
150.83099999999999
 20
170.0029999999999
 30
0.0
 11
150.43199999999999
 21
170.40199999999999
 31
0.0
  0
LINE
  5
467
  8
0
 62
     7
 10
159.03100000000001
 20
161.803
 30
0.0
 11
158.74600000000001
 21
162.08799999999991
 31
0.0
  0
LINE
  5
468
  8
0
 62
     7
 10
149.80600000000001
 20
170.11799999999991
 30
0.0
 11
149.46399999999991
 21
170.51599999999999
 31
0.0
  0
LINE
  5
469
  8
0
 62
     7
 10
158.74600000000001
 20
161.17699999999999
 30
0.0
 11
158.3479999999999
 21
161.57499999999999
 31
0.0
  0
LINE
  5
46A
  8
0
 62
     7
 10
148.83799999999999
 20
170.232
 30
0.0
 11
148.43899999999991
 21
170.57299999999989
 31
0.0
  0
LINE
  5
46B
  8
0
 62
     7
 10
158.291
 20
160.72200000000001
 30
0.0
 11
157.77799999999991
 21
161.291
 31
0.0
  0
LINE
  5
46C
  8
0
 62
     7
 10
147.8129999999999
 20
170.345
 30
0.0
 11
147.47099999999989
 21
170.68700000000001
 31
0.0
  0
LINE
  5
46D
  8
0
 62
     7
 10
157.9489999999999
 20
160.209
 30
0.0
 11
157.608
 21
160.494
 31
0.0
  0
LINE
  5
46E
  8
0
 62
     7
 10
146.84499999999991
 20
170.40199999999999
 30
0.0
 11
146.446
 21
170.8009999999999
 31
0.0
  0
LINE
  5
46F
  8
0
 62
     7
 10
157.9489999999999
 20
159.297
 30
0.0
 11
157.608
 21
159.63900000000001
 31
0.0
  0
LINE
  5
470
  8
0
 62
     7
 10
145.8189999999999
 20
170.51599999999999
 30
0.0
 11
145.47799999999989
 21
170.91399999999999
 31
0.0
  0
LINE
  5
471
  8
0
 62
     7
 10
157.892
 20
158.4439999999999
 30
0.0
 11
157.55000000000001
 21
158.78499999999991
 31
0.0
  0
LINE
  5
472
  8
0
 62
     7
 10
144.85099999999991
 20
170.62999999999991
 30
0.0
 11
144.453
 21
170.97200000000001
 31
0.0
  0
LINE
  5
473
  8
0
 62
     7
 10
157.892
 20
157.589
 30
0.0
 11
157.55000000000001
 21
157.93100000000001
 31
0.0
  0
LINE
  5
474
  8
0
 62
     7
 10
143.82699999999991
 20
170.74299999999999
 30
0.0
 11
143.48500000000001
 21
171.08500000000001
 31
0.0
  0
LINE
  5
475
  8
0
 62
     7
 10
157.83500000000001
 20
156.678
 30
0.0
 11
157.49299999999991
 21
157.0199999999999
 31
0.0
  0
LINE
  5
476
  8
0
 62
     7
 10
142.858
 20
170.8009999999999
 30
0.0
 11
142.46000000000001
 21
171.1999999999999
 31
0.0
  0
LINE
  5
477
  8
0
 62
     7
 10
157.83500000000001
 20
155.8239999999999
 30
0.0
 11
157.49299999999991
 21
156.166
 31
0.0
  0
LINE
  5
478
  8
0
 62
     7
 10
141.833
 20
170.91399999999999
 30
0.0
 11
141.49199999999999
 21
171.3129999999999
 31
0.0
  0
LINE
  5
479
  8
0
 62
     7
 10
157.77799999999991
 20
154.97
 30
0.0
 11
157.49299999999991
 21
155.31100000000001
 31
0.0
  0
LINE
  5
47A
  8
0
 62
     7
 10
140.86600000000001
 20
171.029
 30
0.0
 11
140.46599999999989
 21
171.37
 31
0.0
  0
LINE
  5
47B
  8
0
 62
     7
 10
157.77799999999991
 20
154.05899999999991
 30
0.0
 11
157.43700000000001
 21
154.40100000000001
 31
0.0
  0
LINE
  5
47C
  8
0
 62
     7
 10
139.84
 20
171.14199999999991
 30
0.0
 11
139.49899999999991
 21
171.48400000000001
 31
0.0
  0
LINE
  5
47D
  8
0
 62
     7
 10
157.77799999999991
 20
153.20400000000001
 30
0.0
 11
157.43700000000001
 21
153.54599999999999
 31
0.0
  0
LINE
  5
47E
  8
0
 62
     7
 10
138.87200000000001
 20
171.1999999999999
 30
0.0
 11
138.4729999999999
 21
171.5979999999999
 31
0.0
  0
LINE
  5
47F
  8
0
 62
     7
 10
157.721
 20
152.35099999999991
 30
0.0
 11
157.37899999999991
 21
152.69200000000001
 31
0.0
  0
LINE
  5
480
  8
0
 62
     7
 10
137.84700000000001
 20
171.3129999999999
 30
0.0
 11
137.44799999999989
 21
171.71199999999999
 31
0.0
  0
LINE
  5
481
  8
0
 62
     7
 10
157.721
 20
151.44
 30
0.0
 11
157.37899999999991
 21
151.78200000000001
 31
0.0
  0
LINE
  5
482
  8
0
 62
     7
 10
136.87899999999991
 20
171.42699999999999
 30
0.0
 11
136.48099999999999
 21
171.76900000000001
 31
0.0
  0
LINE
  5
483
  8
0
 62
     7
 10
157.6639999999999
 20
150.58500000000001
 30
0.0
 11
157.322
 21
150.92699999999999
 31
0.0
  0
LINE
  5
484
  8
0
 62
     7
 10
135.8539999999999
 20
171.48400000000001
 30
0.0
 11
135.45500000000001
 21
171.8829999999999
 31
0.0
  0
LINE
  5
485
  8
0
 62
     7
 10
157.6639999999999
 20
149.73099999999991
 30
0.0
 11
157.322
 21
150.07299999999989
 31
0.0
  0
LINE
  5
486
  8
0
 62
     7
 10
134.82900000000001
 20
171.5979999999999
 30
0.0
 11
134.488
 21
171.99700000000001
 31
0.0
  0
LINE
  5
487
  8
0
 62
     7
 10
157.608
 20
148.81999999999991
 30
0.0
 11
157.26599999999991
 21
149.16200000000001
 31
0.0
  0
LINE
  5
488
  8
0
 62
     7
 10
133.8609999999999
 20
171.71199999999999
 30
0.0
 11
133.46199999999999
 21
172.11000000000001
 31
0.0
  0
LINE
  5
489
  8
0
 62
     7
 10
157.608
 20
147.96600000000001
 30
0.0
 11
157.26599999999991
 21
148.30699999999999
 31
0.0
  0
LINE
  5
48A
  8
0
 62
     7
 10
132.83600000000001
 20
171.82599999999991
 30
0.0
 11
132.494
 21
172.16800000000001
 31
0.0
  0
LINE
  5
48B
  8
0
 62
     7
 10
157.608
 20
147.1109999999999
 30
0.0
 11
157.20799999999991
 21
147.453
 31
0.0
  0
LINE
  5
48C
  8
0
 62
     7
 10
131.86799999999999
 20
171.8829999999999
 30
0.0
 11
131.46899999999991
 21
172.28099999999989
 31
0.0
  0
LINE
  5
48D
  8
0
 62
     7
 10
125.88799999999991
 20
177.976
 30
0.0
 11
125.60299999999989
 21
178.3179999999999
 31
0.0
  0
LINE
  5
48E
  8
0
 62
     7
 10
157.55000000000001
 20
146.1999999999999
 30
0.0
 11
157.20799999999991
 21
146.54199999999989
 31
0.0
  0
LINE
  5
48F
  8
0
 62
     7
 10
130.8429999999999
 20
171.99700000000001
 30
0.0
 11
130.501
 21
172.39500000000001
 31
0.0
  0
LINE
  5
490
  8
0
 62
     7
 10
125.03400000000001
 20
177.91900000000001
 30
0.0
 11
124.75
 21
178.261
 31
0.0
  0
LINE
  5
491
  8
0
 62
     7
 10
157.55000000000001
 20
145.34599999999989
 30
0.0
 11
157.20799999999991
 21
145.6879999999999
 31
0.0
  0
LINE
  5
492
  8
0
 62
     7
 10
129.875
 20
172.11000000000001
 30
0.0
 11
129.47599999999991
 21
172.50899999999999
 31
0.0
  0
LINE
  5
493
  8
0
 62
     7
 10
124.693
 20
177.40700000000001
 30
0.0
 11
124.351
 21
177.749
 31
0.0
  0
LINE
  5
494
  8
0
 62
     7
 10
157.49299999999991
 20
144.49199999999999
 30
0.0
 11
157.15199999999999
 21
144.83399999999989
 31
0.0
  0
LINE
  5
495
  8
0
 62
     7
 10
128.84999999999991
 20
172.22399999999999
 30
0.0
 11
128.5079999999999
 21
172.56599999999989
 31
0.0
  0
LINE
  5
496
  8
0
 62
     7
 10
124.693
 20
176.4959999999999
 30
0.0
 11
124.351
 21
176.83699999999999
 31
0.0
  0
LINE
  5
497
  8
0
 62
     7
 10
157.49299999999991
 20
143.58099999999999
 30
0.0
 11
157.15199999999999
 21
143.923
 31
0.0
  0
LINE
  5
498
  8
0
 62
     7
 10
127.881
 20
172.28099999999989
 30
0.0
 11
127.4829999999999
 21
172.68000000000001
 31
0.0
  0
LINE
  5
499
  8
0
 62
     7
 10
124.693
 20
175.52699999999999
 30
0.0
 11
124.351
 21
175.869
 31
0.0
  0
LINE
  5
49A
  8
0
 62
     7
 10
157.43700000000001
 20
142.727
 30
0.0
 11
157.095
 21
143.06899999999999
 31
0.0
  0
LINE
  5
49B
  8
0
 62
     7
 10
126.857
 20
172.39500000000001
 30
0.0
 11
126.5149999999999
 21
172.79400000000001
 31
0.0
  0
LINE
  5
49C
  8
0
 62
     7
 10
124.693
 20
174.6159999999999
 30
0.0
 11
124.351
 21
174.95799999999991
 31
0.0
  0
LINE
  5
49D
  8
0
 62
     7
 10
157.43700000000001
 20
141.87299999999991
 30
0.0
 11
157.095
 21
142.21399999999991
 31
0.0
  0
LINE
  5
49E
  8
0
 62
     7
 10
125.88799999999991
 20
172.50899999999999
 30
0.0
 11
125.4899999999999
 21
172.9079999999999
 31
0.0
  0
LINE
  5
49F
  8
0
 62
     7
 10
124.693
 20
173.70500000000001
 30
0.0
 11
124.351
 21
174.047
 31
0.0
  0
LINE
  5
4A0
  8
0
 62
     7
 10
157.43700000000001
 20
140.96199999999999
 30
0.0
 11
157.0379999999999
 21
141.304
 31
0.0
  0
LINE
  5
4A1
  8
0
 62
     7
 10
157.37899999999991
 20
140.10699999999991
 30
0.0
 11
157.0379999999999
 21
140.4489999999999
 31
0.0
  0
LINE
  5
4A2
  8
0
 62
     7
 10
157.37899999999991
 20
139.197
 30
0.0
 11
156.98099999999991
 21
139.595
 31
0.0
  0
LINE
  5
4A3
  8
0
 62
     7
 10
157.322
 20
138.34200000000001
 30
0.0
 11
156.98099999999991
 21
138.684
 31
0.0
  0
LINE
  5
4A4
  8
0
 62
     7
 10
157.322
 20
137.488
 30
0.0
 11
156.98099999999991
 21
137.82900000000001
 31
0.0
  0
LINE
  5
4A5
  8
0
 62
     7
 10
157.26599999999991
 20
136.57699999999991
 30
0.0
 11
156.92400000000001
 21
136.97499999999999
 31
0.0
  0
LINE
  5
4A6
  8
0
 62
     7
 10
157.26599999999991
 20
135.72200000000001
 30
0.0
 11
156.92400000000001
 21
136.06399999999991
 31
0.0
  0
LINE
  5
4A7
  8
0
 62
     7
 10
157.26599999999991
 20
134.86899999999989
 30
0.0
 11
156.86699999999999
 21
135.21000000000001
 31
0.0
  0
LINE
  5
4A8
  8
0
 62
     7
 10
157.20799999999991
 20
133.95699999999991
 30
0.0
 11
156.86699999999999
 21
134.35599999999991
 31
0.0
  0
LINE
  5
4A9
  8
0
 62
     7
 10
157.20799999999991
 20
133.10299999999989
 30
0.0
 11
156.81
 21
133.44499999999991
 31
0.0
  0
LINE
  5
4AA
  8
0
 62
     7
 10
157.15199999999999
 20
132.24899999999991
 30
0.0
 11
156.81
 21
132.59100000000001
 31
0.0
  0
LINE
  5
4AB
  8
0
 62
     7
 10
44.712299999999999
 20
133.834
 30
0.0
 11
45.304799999999993
 21
131.62200000000001
 31
0.0
  0
LINE
  5
4AC
  8
0
 62
     7
 10
45.304799999999993
 20
131.62200000000001
 30
0.0
 11
45.89739999999999
 21
133.834
 31
0.0
  0
LINE
  5
4AD
  8
0
 62
     7
 10
45.89739999999999
 20
133.834
 30
0.0
 11
44.712299999999999
 21
133.834
 31
0.0
  0
LINE
  5
4AE
  8
0
 62
     7
 10
45.304799999999993
 20
131.62200000000001
 30
0.0
 11
45.304799999999993
 21
136.23199999999991
 31
0.0
  0
LINE
  5
4AF
  8
0
 62
     7
 10
103.943
 20
133.834
 30
0.0
 11
104.536
 21
131.62200000000001
 31
0.0
  0
LINE
  5
4B0
  8
0
 62
     7
 10
104.536
 20
131.62200000000001
 30
0.0
 11
105.1279999999999
 21
133.834
 31
0.0
  0
LINE
  5
4B1
  8
0
 62
     7
 10
105.1279999999999
 20
133.834
 30
0.0
 11
103.943
 21
133.834
 31
0.0
  0
LINE
  5
4B2
  8
0
 62
     7
 10
104.536
 20
131.62200000000001
 30
0.0
 11
104.536
 21
136.23199999999991
 31
0.0
  0
LINE
  5
4B3
  8
0
 62
     7
 10
77.3245
 20
183.499
 30
0.0
 11
75.112700000000004
 21
182.90700000000001
 31
0.0
  0
LINE
  5
4B4
  8
0
 62
     7
 10
75.112700000000004
 20
182.90700000000001
 30
0.0
 11
77.3245
 21
182.31399999999999
 31
0.0
  0
LINE
  5
4B5
  8
0
 62
     7
 10
77.3245
 20
182.31399999999999
 30
0.0
 11
77.3245
 21
183.499
 31
0.0
  0
LINE
  5
4B6
  8
0
 62
     7
 10
75.112700000000004
 20
182.90700000000001
 30
0.0
 11
79.722899999999996
 21
182.90700000000001
 31
0.0
  0
LINE
  5
4B7
  8
0
 62
     7
 10
155.452
 20
164.435
 30
0.0
 11
157.6639999999999
 21
165.02699999999999
 31
0.0
  0
LINE
  5
4B8
  8
0
 62
     7
 10
157.6639999999999
 20
165.02699999999999
 30
0.0
 11
155.452
 21
165.62
 31
0.0
  0
LINE
  5
4B9
  8
0
 62
     7
 10
155.452
 20
165.62
 30
0.0
 11
155.452
 21
164.435
 31
0.0
  0
LINE
  5
4BA
  8
0
 62
     7
 10
126.54300000000001
 20
165.60499999999999
 30
0.0
 11
124.331
 21
165.01300000000001
 31
0.0
  0
LINE
  5
4BB
  8
0
 62
     7
 10
124.331
 20
165.01300000000001
 30
0.0
 11
126.54300000000001
 21
164.4199999999999
 31
0.0
  0
LINE
  5
4BC
  8
0
 62
     7
 10
126.54300000000001
 20
164.4199999999999
 30
0.0
 11
126.54300000000001
 21
165.60499999999999
 31
0.0
  0
LINE
  5
4BD
  8
0
 62
     7
 10
155.85599999999991
 20
165.02000000000001
 30
0.0
 11
126.139
 21
165.02000000000001
 31
0.0
  0
LINE
  5
4BE
  8
0
 62
     7
 10
175.68899999999999
 20
211.08699999999999
 30
0.0
 11
175.09599999999989
 21
208.875
 31
0.0
  0
LINE
  5
4BF
  8
0
 62
     7
 10
175.09599999999989
 20
208.875
 30
0.0
 11
174.50399999999999
 21
211.08699999999999
 31
0.0
  0
LINE
  5
4C0
  8
0
 62
     7
 10
174.50399999999999
 20
211.08699999999999
 30
0.0
 11
175.68899999999999
 21
211.08699999999999
 31
0.0
  0
LINE
  5
4C1
  8
0
 62
     7
 10
174.50399999999999
 20
219.6629999999999
 30
0.0
 11
175.09599999999989
 21
221.875
 31
0.0
  0
LINE
  5
4C2
  8
0
 62
     7
 10
175.09599999999989
 20
221.875
 30
0.0
 11
175.68899999999999
 21
219.6629999999999
 31
0.0
  0
LINE
  5
4C3
  8
0
 62
     7
 10
175.68899999999999
 20
219.6629999999999
 30
0.0
 11
174.50399999999999
 21
219.6629999999999
 31
0.0
  0
LINE
  5
4C4
  8
0
 62
     7
 10
175.09599999999989
 20
208.875
 30
0.0
 11
175.09599999999989
 21
221.875
 31
0.0
  0
LINE
  5
4C5
  8
0
 62
     7
 10
127.209
 20
208.875
 30
0.0
 11
175.8959999999999
 21
208.875
 31
0.0
  0
LINE
  5
4C6
  8
0
 62
     7
 10
175.68899999999999
 20
224.08699999999999
 30
0.0
 11
175.09599999999989
 21
221.875
 31
0.0
  0
LINE
  5
4C7
  8
0
 62
     7
 10
175.09599999999989
 20
221.875
 30
0.0
 11
174.50399999999999
 21
224.08699999999999
 31
0.0
  0
LINE
  5
4C8
  8
0
 62
     7
 10
174.50399999999999
 20
224.08699999999999
 30
0.0
 11
175.68899999999999
 21
224.08699999999999
 31
0.0
  0
LINE
  5
4C9
  8
0
 62
     7
 10
175.09599999999989
 20
221.875
 30
0.0
 11
175.09599999999989
 21
233.875
 31
0.0
  0
LINE
  5
4CA
  8
0
 62
     7
 10
165.572
 20
221.875
 30
0.0
 11
175.8959999999999
 21
221.875
 31
0.0
  0
LINE
  5
4CB
  8
0
 62
     7
 10
175.68899999999999
 20
256.66199999999998
 30
0.0
 11
175.09599999999989
 21
258.87400000000002
 31
0.0
  0
LINE
  5
4CC
  8
0
 62
     7
 10
175.09599999999989
 20
258.87400000000002
 30
0.0
 11
174.50399999999999
 21
256.66199999999998
 31
0.0
  0
LINE
  5
4CD
  8
0
 62
     7
 10
174.50399999999999
 20
256.66199999999998
 30
0.0
 11
175.68899999999999
 21
256.66199999999998
 31
0.0
  0
LINE
  5
4CE
  8
0
 62
     7
 10
174.50399999999999
 20
248.0859999999999
 30
0.0
 11
175.09599999999989
 21
245.874
 31
0.0
  0
LINE
  5
4CF
  8
0
 62
     7
 10
175.09599999999989
 20
245.874
 30
0.0
 11
175.68899999999999
 21
248.0859999999999
 31
0.0
  0
LINE
  5
4D0
  8
0
 62
     7
 10
175.68899999999999
 20
248.0859999999999
 30
0.0
 11
174.50399999999999
 21
248.0859999999999
 31
0.0
  0
LINE
  5
4D1
  8
0
 62
     7
 10
175.09599999999989
 20
258.87400000000002
 30
0.0
 11
175.09599999999989
 21
245.874
 31
0.0
  0
LINE
  5
4D2
  8
0
 62
     7
 10
127.096
 20
258.87400000000002
 30
0.0
 11
175.8959999999999
 21
258.87400000000002
 31
0.0
  0
LINE
  5
4D3
  8
0
 62
     7
 10
175.68899999999999
 20
243.66200000000001
 30
0.0
 11
175.09599999999989
 21
245.874
 31
0.0
  0
LINE
  5
4D4
  8
0
 62
     7
 10
175.09599999999989
 20
245.874
 30
0.0
 11
174.50399999999999
 21
243.66200000000001
 31
0.0
  0
LINE
  5
4D5
  8
0
 62
     7
 10
174.50399999999999
 20
243.66200000000001
 30
0.0
 11
175.68899999999999
 21
243.66200000000001
 31
0.0
  0
LINE
  5
4D6
  8
0
 62
     7
 10
175.09599999999989
 20
245.874
 30
0.0
 11
175.09599999999989
 21
233.875
 31
0.0
  0
LINE
  5
4D7
  8
0
 62
     7
 10
165.572
 20
245.874
 30
0.0
 11
175.8959999999999
 21
245.874
 31
0.0
  0
LINE
  5
4D8
  8
0
 62
     7
 10
175.68899999999999
 20
176.048
 30
0.0
 11
175.09599999999989
 21
178.25999999999991
 31
0.0
  0
LINE
  5
4D9
  8
0
 62
     7
 10
175.09599999999989
 20
178.25999999999991
 30
0.0
 11
174.50399999999999
 21
176.048
 31
0.0
  0
LINE
  5
4DA
  8
0
 62
     7
 10
174.50399999999999
 20
176.048
 30
0.0
 11
175.68899999999999
 21
176.048
 31
0.0
  0
LINE
  5
4DB
  8
0
 62
     7
 10
174.50399999999999
 20
163.67099999999991
 30
0.0
 11
175.09599999999989
 21
161.46000000000001
 31
0.0
  0
LINE
  5
4DC
  8
0
 62
     7
 10
175.09599999999989
 20
161.46000000000001
 30
0.0
 11
175.68899999999999
 21
163.67099999999991
 31
0.0
  0
LINE
  5
4DD
  8
0
 62
     7
 10
175.68899999999999
 20
163.67099999999991
 30
0.0
 11
174.50399999999999
 21
163.67099999999991
 31
0.0
  0
LINE
  5
4DE
  8
0
 62
     7
 10
175.09599999999989
 20
178.25999999999991
 30
0.0
 11
175.09599999999989
 21
161.46000000000001
 31
0.0
  0
LINE
  5
4DF
  8
0
 62
     7
 10
127.14
 20
178.25999999999991
 30
0.0
 11
175.8959999999999
 21
178.25999999999991
 31
0.0
  0
LINE
  5
4E0
  8
0
 62
     7
 10
175.68899999999999
 20
102.247
 30
0.0
 11
175.09599999999989
 21
104.459
 31
0.0
  0
LINE
  5
4E1
  8
0
 62
     7
 10
175.09599999999989
 20
104.459
 30
0.0
 11
174.50399999999999
 21
102.247
 31
0.0
  0
LINE
  5
4E2
  8
0
 62
     7
 10
174.50399999999999
 20
102.247
 30
0.0
 11
175.68899999999999
 21
102.247
 31
0.0
  0
LINE
  5
4E3
  8
0
 62
     7
 10
174.50399999999999
 20
87.137699999999995
 30
0.0
 11
175.09599999999989
 21
84.925899999999984
 31
0.0
  0
LINE
  5
4E4
  8
0
 62
     7
 10
175.09599999999989
 20
84.925899999999984
 30
0.0
 11
175.68899999999999
 21
87.137699999999995
 31
0.0
  0
LINE
  5
4E5
  8
0
 62
     7
 10
175.68899999999999
 20
87.137699999999995
 30
0.0
 11
174.50399999999999
 21
87.137699999999995
 31
0.0
  0
LINE
  5
4E6
  8
0
 62
     7
 10
175.09599999999989
 20
104.459
 30
0.0
 11
175.09599999999989
 21
84.925899999999984
 31
0.0
  0
LINE
  5
4E7
  8
0
 62
     7
 10
127.2179999999999
 20
84.925899999999984
 30
0.0
 11
175.79900000000001
 21
84.925899999999984
 31
0.0
  0
LINE
  5
4E8
  8
0
 62
     7
 10
175.68899999999999
 20
159.24700000000001
 30
0.0
 11
175.09599999999989
 21
161.46000000000001
 31
0.0
  0
LINE
  5
4E9
  8
0
 62
     7
 10
175.09599999999989
 20
161.46000000000001
 30
0.0
 11
174.50399999999999
 21
159.24700000000001
 31
0.0
  0
LINE
  5
4EA
  8
0
 62
     7
 10
174.50399999999999
 20
159.24700000000001
 30
0.0
 11
175.68899999999999
 21
159.24700000000001
 31
0.0
  0
LINE
  5
4EB
  8
0
 62
     7
 10
174.50399999999999
 20
106.67100000000001
 30
0.0
 11
175.09599999999989
 21
104.459
 31
0.0
  0
LINE
  5
4EC
  8
0
 62
     7
 10
175.09599999999989
 20
104.459
 30
0.0
 11
175.68899999999999
 21
106.67100000000001
 31
0.0
  0
LINE
  5
4ED
  8
0
 62
     7
 10
175.68899999999999
 20
106.67100000000001
 30
0.0
 11
174.50399999999999
 21
106.67100000000001
 31
0.0
  0
LINE
  5
4EE
  8
0
 62
     7
 10
175.09599999999989
 20
161.46000000000001
 30
0.0
 11
175.09599999999989
 21
104.459
 31
0.0
  0
LINE
  5
4EF
  8
0
 62
     7
 10
165.66399999999999
 20
161.46000000000001
 30
0.0
 11
175.79900000000001
 21
161.46000000000001
 31
0.0
  0
LINE
  5
4F0
  8
0
 62
     7
 10
165.66399999999999
 20
104.459
 30
0.0
 11
175.79900000000001
 21
104.459
 31
0.0
  0
LINE
  5
4F1
  8
_________2
 62
     7
 10
210.00099999999989
 20
148.482
 30
0.0
 11
188.25099999999989
 21
148.482
 31
0.0
  0
LINE
  5
4F2
  8
_________2
 62
     7
 10
105.0
 20
16.979900000000001
 30
0.0
 11
105.0
 21
-0.000344512
 31
0.0
  0
LINE
  5
4F3
  8
_________2
 62
     7
 10
105.0
 20
297.00200000000001
 30
0.0
 11
105.0
 21
279.98200000000003
 31
0.0
  0
LINE
  5
4F4
  8
_________2
 62
     7
 10
21.749700000000001
 20
148.482
 30
0.0
 11
-0.000689023
 21
148.482
 31
0.0
  0
LINE
  5
4F5
  8
_________2
 62
     7
 10
81.441199999999995
 20
50.875799999999991
 30
0.0
 11
79.254900000000006
 21
50.875799999999991
 31
0.0
  0
LINE
  5
4F6
  8
_________2
 62
     7
 10
81.933800000000005
 20
50.875799999999991
 30
0.0
 11
81.681700000000006
 21
50.875799999999991
 31
0.0
  0
LINE
  5
4F7
  8
_________2
 62
     7
 10
82.426500000000004
 20
50.875799999999991
 30
0.0
 11
85.351399999999998
 21
50.875799999999991
 31
0.0
  0
LINE
  5
4F8
  8
_________2
 62
     7
 10
81.933800000000005
 20
50.875799999999991
 30
0.0
 11
82.186000000000007
 21
50.875799999999991
 31
0.0
  0
LINE
  5
4F9
  8
_________2
 62
     7
 10
75.537599999999998
 20
50.875799999999991
 30
0.0
 11
73.350700000000003
 21
50.875799999999991
 31
0.0
  0
LINE
  5
4FA
  8
_________2
 62
     7
 10
76.029600000000002
 20
50.875799999999991
 30
0.0
 11
75.778099999999995
 21
50.875799999999991
 31
0.0
  0
LINE
  5
4FB
  8
_________2
 62
     7
 10
76.029600000000002
 20
51.368400000000001
 30
0.0
 11
76.029600000000002
 21
53.555399999999999
 31
0.0
  0
LINE
  5
4FC
  8
_________2
 62
     7
 10
76.029600000000002
 20
50.875799999999991
 30
0.0
 11
76.029600000000002
 21
51.128
 31
0.0
  0
LINE
  5
4FD
  8
_________2
 62
     7
 10
76.522300000000001
 20
50.875799999999991
 30
0.0
 11
78.709199999999996
 21
50.875799999999991
 31
0.0
  0
LINE
  5
4FE
  8
_________2
 62
     7
 10
76.029600000000002
 20
50.875799999999991
 30
0.0
 11
76.281800000000004
 21
50.875799999999991
 31
0.0
  0
LINE
  5
4FF
  8
_________2
 62
     7
 10
76.029600000000002
 20
50.383800000000001
 30
0.0
 11
76.029600000000002
 21
48.196800000000003
 31
0.0
  0
LINE
  5
500
  8
_________2
 62
     7
 10
76.029600000000002
 20
50.875799999999991
 30
0.0
 11
76.029600000000002
 21
50.624299999999991
 31
0.0
  0
LINE
  5
501
  8
_________2
 62
     7
 10
79.740700000000004
 20
49.656199999999998
 30
0.0
 11
84.918700000000001
 21
48.791499999999999
 31
0.0
  0
LINE
  5
502
  8
_________2
 62
     7
 10
79.740700000000004
 20
52.095300000000002
 30
0.0
 11
84.918700000000001
 21
52.960799999999992
 31
0.0
  0
LINE
  5
503
  8
_________2
 62
     7
 10
84.918700000000001
 20
48.791499999999999
 30
0.0
 11
84.918700000000001
 21
52.960799999999992
 31
0.0
  0
LINE
  5
504
  8
_________2
 62
     7
 10
79.740700000000004
 20
49.656199999999998
 30
0.0
 11
79.740700000000004
 21
52.095300000000002
 31
0.0
  0
ARC
  5
505
  8
_________2
 62
     7
 10
75.983362999999997
 20
50.828812999999997
 30
0.0
 40
1.2673709999999989
 50
2.1232950000000002
 51
87.909056000000007
  0
ARC
  5
506
  8
_________2
 62
     7
 10
76.076526999999999
 20
50.828847000000003
 30
0.0
 40
1.267363
 50
92.121785999999986
 51
177.878185
  0
ARC
  5
507
  8
_________2
 62
     7
 10
76.076526999999999
 20
50.922691999999998
 30
0.0
 40
1.267363
 50
182.12181499999991
 51
267.87821400000001
  0
ARC
  5
508
  8
_________2
 62
     7
 10
75.982714000000001
 20
50.923374000000003
 30
0.0
 40
1.2680439999999991
 50
272.11916400000001
 51
357.84848499999993
  0
ARC
  5
509
  8
_________2
 62
     7
 10
76.029604000000006
 20
50.875768999999998
 30
0.0
 40
2.0849849999999992
 50
0.00001
 51
89.999980000000008
  0
ARC
  5
50A
  8
_________2
 62
     7
 10
76.109640999999996
 20
50.796447000000001
 30
0.0
 40
2.1657860000000002
 50
92.117855000000034
 51
177.90105299999991
  0
ARC
  5
50B
  8
_________2
 62
     7
 10
76.109607999999994
 20
50.955773000000001
 30
0.0
 40
2.1657779999999991
 50
182.11700400000001
 51
267.88302499999992
  0
ARC
  5
50C
  8
_________2
 62
     7
 10
75.949632999999992
 20
50.956456000000003
 30
0.0
 40
2.1664590000000001
 50
272.11546800000002
 51
357.86560400000002
  0
TEXT
  5
50D
  8
_________2
 62
     7
 10
109.30500000000001
 20
22.750499999999992
 30
0.0
 40
3.0923400000000001
  1
図番
 41
0.5
  0
LINE
  5
50E
  8
_________2
 62
     7
 10
108.25
 20
26.979700000000001
 30
0.0
 11
188.25099999999989
 21
26.979700000000001
 31
0.0
  0
TEXT
  5
50F
  8
_________2
 62
     7
 10
109.30500000000001
 20
32.750300000000003
 30
0.0
 40
3.0923400000000001
  1
品番
 41
0.5
  0
TEXT
  5
510
  8
_________2
 62
     7
 10
109.30500000000001
 20
52.889099999999999
 30
0.0
 40
3.0923400000000001
  1
名称
 41
0.5
  0
TEXT
  5
511
  8
_________2
 62
     7
 10
96.545258333333337
 20
47.892999999999986
 30
0.0
 40
3.6545800000000002
  1
mm
 41
0.5
 72
     1
 11
98.067999999999998
 21
47.892999999999986
 31
0.0
  0
TEXT
  5
512
  8
_________2
 62
     7
 10
90.343400000000003
 20
52.889099999999999
 30
0.0
 40
3.0923400000000001
  1
単位
 41
0.5
  0
TEXT
  5
513
  8
_________2
 62
     7
 10
90.343400000000003
 20
40.481900000000003
 30
0.0
 40
3.0923400000000001
  1
尺度
 41
0.5
  0
TEXT
  5
514
  8
_________2
 62
     7
 10
94.639861999999994
 20
34.288899999999991
 30
0.0
 40
3.6545800000000002
  1
1 ： 15
 41
0.5
 72
     1
 11
98.659899999999993
 21
34.288899999999991
 31
0.0
  0
TEXT
  5
515
  8
_________2
 62
     7
 10
139.0667
 20
30.178899999999992
 30
0.0
 40
3.9357000000000002
  1
CEY21400V7
 41
0.5
 72
     1
 11
148.24999999999989
 21
30.178899999999992
 31
0.0
  0
TEXT
  5
516
  8
_________2
 62
     7
 10
139.0667
 20
20.1784
 30
0.0
 40
3.9357000000000002
  1
CEY21400V7
 41
0.5
 72
     1
 11
148.24999999999989
 21
20.1784
 31
0.0
  0
TEXT
  5
517
  8
_________2
 62
     7
 10
29.286899999999989
 20
21.778300000000002
 30
0.0
 40
3.9357000000000002
  1
満水容量：258L、重量：23.0kg
 41
0.5
  0
TEXT
  5
518
  8
_________2
 62
     7
 10
113.87899999999991
 20
45.296700000000001
 30
0.0
 40
3.9357000000000002
  1
アクリル製バスタブ（1400サイズ）
 41
0.5
  0
TEXT
  5
519
  8
_________2
 62
     7
 10
44.125500333333328
 20
34.674100000000003
 30
0.0
 40
3.6545800000000002
  1
早川
 41
0.5
 72
     1
 11
46.0137
 21
34.674100000000003
 31
0.0
  0
TEXT
  5
51A
  8
_________2
 62
     7
 10
25.490590666666659
 20
34.674100000000003
 30
0.0
 40
3.6545800000000002
  1
菅原
 41
0.5
 72
     1
 11
27.439699999999998
 21
34.674100000000003
 31
0.0
  0
TEXT
  5
51B
  8
_________2
 62
     7
 10
72.486000000000004
 20
34.288899999999991
 30
0.0
 40
3.6545800000000002
  1
14.01.07
 41
0.5
  0
TEXT
  5
51C
  8
_________2
 62
     7
 10
71.293300000000002
 20
40.481900000000003
 30
0.0
 40
3.0923400000000001
  1
日付
 41
0.5
  0
TEXT
  5
51D
  8
_________2
 62
     7
 10
34.33959999999999
 20
40.481900000000003
 30
0.0
 40
3.0923400000000001
  1
検図
 41
0.5
  0
TEXT
  5
51E
  8
_________2
 62
     7
 10
22.7212
 20
26.282499999999992
 30
0.0
 40
3.0923400000000001
  1
備考
 41
0.5
  0
TEXT
  5
51F
  8
_________2
 62
     7
 10
22.7212
 20
40.481900000000003
 30
0.0
 40
3.0923400000000001
  1
製図
 41
0.5
  0
TEXT
  5
520
  8
_________2
 62
     7
 10
28.488665333333341
 20
49.00780000000001
 30
0.0
 40
4.4979399999999989
  1
セラトレーディング株式会社
 41
0.5
 72
     1
 11
45.880699999999997
 21
49.00780000000001
 31
0.0
  0
LINE
  5
521
  8
_________2
 62
     7
 10
188.25099999999989
 20
16.979900000000001
 30
0.0
 11
21.749700000000001
 21
16.979900000000001
 31
0.0
  0
LINE
  5
522
  8
_________2
 62
     7
 10
21.749700000000001
 20
16.979900000000001
 30
0.0
 11
21.749700000000001
 21
279.98200000000003
 31
0.0
  0
LINE
  5
523
  8
_________2
 62
     7
 10
21.749700000000001
 20
279.98200000000003
 30
0.0
 11
188.25099999999989
 21
279.98200000000003
 31
0.0
  0
LINE
  5
524
  8
_________2
 62
     7
 10
188.25099999999989
 20
279.98200000000003
 30
0.0
 11
188.25099999999989
 21
16.979900000000001
 31
0.0
  0
LINE
  5
525
  8
_________2
 62
     7
 10
70.250100000000003
 20
30.48
 30
0.0
 11
70.250100000000003
 21
56.979799999999997
 31
0.0
  0
LINE
  5
526
  8
_________2
 62
     7
 10
89.249899999999997
 20
30.48
 30
0.0
 11
89.249899999999997
 21
56.979799999999997
 31
0.0
  0
LINE
  5
527
  8
_________2
 62
     7
 10
108.25
 20
16.979900000000001
 30
0.0
 11
108.25
 21
56.979799999999997
 31
0.0
  0
LINE
  5
528
  8
_________2
 62
     7
 10
33.249499999999991
 20
30.48
 30
0.0
 11
33.249499999999991
 21
44.4803
 31
0.0
  0
LINE
  5
529
  8
_________2
 62
     7
 10
21.749700000000001
 20
30.48
 30
0.0
 11
108.25
 21
30.48
 31
0.0
  0
LINE
  5
52A
  8
_________2
 62
     7
 10
21.749700000000001
 20
44.4803
 30
0.0
 11
108.25
 21
44.4803
 31
0.0
  0
LINE
  5
52B
  8
_________2
 62
     7
 10
108.25
 20
36.979500000000002
 30
0.0
 11
188.25099999999989
 21
36.979500000000002
 31
0.0
  0
LINE
  5
52C
  8
_________2
 62
     7
 10
21.749700000000001
 20
56.979799999999997
 30
0.0
 11
188.25099999999989
 21
56.979799999999997
 31
0.0
  0
ENDSEC
  0
EOF
