  0
SECTION
  2
HEADER
  9
$ACADVER
  1
AC1009
  9
$INSBASE
 10
0.0
 20
0.0
 30
0.0
  9
$EXTMIN
 10
-0.000689023
 20
-0.000344512
 30
0.0
  9
$EXTMAX
 10
210.001
 20
297.00200000000001
 30
0.0
  9
$LIMMIN
 10
0.0
 20
0.0
  9
$LIMMAX
 10
12.0
 20
9.0
  9
$ORTHOMODE
 70
     0
  9
$REGENMODE
 70
     1
  9
$FILLMODE
 70
     1
  9
$QTEXTMODE
 70
     0
  9
$MIRRTEXT
 70
     1
  9
$DRAGMODE
 70
     2
  9
$LTSCALE
 40
1.0
  9
$OSMODE
 70
    37
  9
$ATTMODE
 70
     1
  9
$TEXTSIZE
 40
0.0
  9
$TRACEWID
 40
0.05
  9
$TEXTSTYLE
  7
STANDARD
  9
$CLAYER
  8
0
  9
$CELTYPE
  6
CONTINUOUS
  9
$CECOLOR
 62
   256
  9
$DIMSCALE
 40
1.0
  9
$DIMASZ
 40
0.18
  9
$DIMEXO
 40
0.0625
  9
$DIMDLI
 40
0.38
  9
$DIMRND
 40
0.0
  9
$DIMDLE
 40
0.0
  9
$DIMEXE
 40
0.18
  9
$DIMTP
 40
0.0
  9
$DIMTM
 40
0.0
  9
$DIMTXT
 40
0.18
  9
$DIMCEN
 40
0.09
  9
$DIMTSZ
 40
0.0
  9
$DIMTOL
 70
     0
  9
$DIMLIM
 70
     0
  9
$DIMTIH
 70
     1
  9
$DIMTOH
 70
     1
  9
$DIMSE1
 70
     0
  9
$DIMSE2
 70
     0
  9
$DIMTAD
 70
     0
  9
$DIMZIN
 70
     0
  9
$DIMBLK
  1

  9
$DIMASO
 70
     1
  9
$DIMSHO
 70
     1
  9
$DIMPOST
  1

  9
$DIMAPOST
  1

  9
$DIMALT
 70
     0
  9
$DIMALTD
 70
     2
  9
$DIMALTF
 40
25.399999999999999
  9
$DIMLFAC
 40
1.0
  9
$DIMTOFL
 70
     0
  9
$DIMTVP
 40
0.0
  9
$DIMTIX
 70
     0
  9
$DIMSOXD
 70
     0
  9
$DIMSAH
 70
     0
  9
$DIMBLK1
  1

  9
$DIMBLK2
  1

  9
$DIMSTYLE
  2
STANDARD
  9
$DIMCLRD
 70
     0
  9
$DIMCLRE
 70
     0
  9
$DIMCLRT
 70
     0
  9
$DIMTFAC
 40
1.0
  9
$DIMGAP
 40
0.09
  9
$LUNITS
 70
     2
  9
$LUPREC
 70
     4
  9
$SKETCHINC
 40
0.1
  9
$FILLETRAD
 40
0.0
  9
$AUNITS
 70
     0
  9
$AUPREC
 70
     0
  9
$MENU
  1
.
  9
$ELEVATION
 40
0.0
  9
$PELEVATION
 40
0.0
  9
$THICKNESS
 40
0.0
  9
$LIMCHECK
 70
     0
  9
$BLIPMODE
 70
     0
  9
$CHAMFERA
 40
0.0
  9
$CHAMFERB
 40
0.0
  9
$SKPOLY
 70
     0
  9
$TDCREATE
 40
2444972.375
  9
$TDUPDATE
 40
2459402.2065873039
  9
$TDINDWG
 40
0.0000385301
  9
$TDUSRTIMER
 40
0.0000385301
  9
$USRTIMER
 70
     1
  9
$ANGBASE
 50
0.0
  9
$ANGDIR
 70
     0
  9
$PDMODE
 70
     0
  9
$PDSIZE
 40
0.0
  9
$PLINEWID
 40
0.0
  9
$COORDS
 70
     1
  9
$SPLFRAME
 70
     0
  9
$SPLINETYPE
 70
     6
  9
$SPLINESEGS
 70
     8
  9
$ATTDIA
 70
     1
  9
$ATTREQ
 70
     1
  9
$HANDLING
 70
     1
  9
$HANDSEED
  5
838
  9
$SURFTAB1
 70
     6
  9
$SURFTAB2
 70
     6
  9
$SURFTYPE
 70
     6
  9
$SURFU
 70
     6
  9
$SURFV
 70
     6
  9
$UCSNAME
  2

  9
$UCSORG
 10
0.0
 20
0.0
 30
0.0
  9
$UCSXDIR
 10
1.0
 20
0.0
 30
0.0
  9
$UCSYDIR
 10
0.0
 20
1.0
 30
0.0
  9
$PUCSNAME
  2

  9
$PUCSORG
 10
0.0
 20
0.0
 30
0.0
  9
$PUCSXDIR
 10
1.0
 20
0.0
 30
0.0
  9
$PUCSYDIR
 10
0.0
 20
1.0
 30
0.0
  9
$USERI1
 70
     0
  9
$USERI2
 70
     0
  9
$USERI3
 70
     0
  9
$USERI4
 70
     0
  9
$USERI5
 70
     0
  9
$USERR1
 40
0.0
  9
$USERR2
 40
0.0
  9
$USERR3
 40
0.0
  9
$USERR4
 40
0.0
  9
$USERR5
 40
0.0
  9
$WORLDVIEW
 70
     1
  9
$SHADEDGE
 70
     3
  9
$SHADEDIF
 70
    70
  9
$TILEMODE
 70
     1
  9
$MAXACTVP
 70
    48
  9
$PLIMCHECK
 70
     0
  9
$PEXTMIN
 10
1.0000000000000000E+020
 20
1.0000000000000000E+020
 30
1.0000000000000000E+020
  9
$PEXTMAX
 10
-1.0000000000000000E+020
 20
-1.0000000000000000E+020
 30
-1.0000000000000000E+020
  9
$PLIMMIN
 10
0.0
 20
0.0
  9
$PLIMMAX
 10
12.0
 20
9.0
  9
$UNITMODE
 70
     0
  9
$VISRETAIN
 70
     1
  9
$PLINEGEN
 70
     0
  9
$PSLTSCALE
 70
     1
  0
ENDSEC
  0
SECTION
  2
TABLES
  0
TABLE
  2
VPORT
 70
     1
  0
VPORT
  2
*ACTIVE
 70
     0
 10
0.0
 20
0.0
 11
1.0
 21
1.0
 12
165.3912443659116
 22
148.50082774399999
 13
0.0
 23
0.0
 14
1.0
 24
1.0
 15
0.0
 25
0.0
 16
0.0
 26
0.0
 36
1.0
 17
0.0
 27
0.0
 37
0.0
 40
279.01099852144301
 41
2.0982367758186391
 42
50.0
 43
0.0
 44
0.0
 50
0.0
 51
0.0
 71
     0
 72
   100
 73
     1
 74
     1
 75
     0
 76
     0
 77
     0
 78
     0
  0
ENDTAB
  0
TABLE
  2
LTYPE
 70
     3
  0
LTYPE
  2
CONTINUOUS
 70
     0
  3
Solid line
 72
    65
 73
     0
 40
0.0
  0
LTYPE
  2
AIGENLINE001
 70
     0
  3
generate AI->DXF Converter
 72
    65
 73
     4
 40
5.8561449999999988
 49
3.5278
 49
-0.776115
 49
0.776115
 49
-0.776115
  0
LTYPE
  2
AIGENLINE002
 70
     0
  3
generate AI->DXF Converter
 72
    65
 73
     6
 40
7.4083750000000004
 49
3.5278
 49
-0.776115
 49
0.776115
 49
-0.776115
 49
0.776115
 49
-0.776115
  0
ENDTAB
  0
TABLE
  2
LAYER
 70
     4
  0
LAYER
  2
0
 70
     0
 62
     7
  6
CONTINUOUS
  0
LAYER
  2
____
 70
     0
 62
     7
  6
CONTINUOUS
  0
LAYER
  2
_________1
 70
     0
 62
     7
  6
CONTINUOUS
  0
LAYER
  2
_________2
 70
     0
 62
     7
  6
CONTINUOUS
  0
ENDTAB
  0
TABLE
  2
STYLE
 70
     1
  0
STYLE
  2
STANDARD
 70
     0
 40
0.0
 41
0.0
 50
0.0
 71
     0
 42
0.0
  3
TXT
  4
EXTFONT.SHX
  0
ENDTAB
  0
TABLE
  2
VIEW
 70
     0
  0
ENDTAB
  0
TABLE
  2
UCS
 70
     0
  0
ENDTAB
  0
TABLE
  2
APPID
 70
     3
  0
APPID
  2
ACAD
 70
     0
  0
APPID
  2
ACAD_NAV_VCDISPLAY
 70
     0
  0
APPID
  2
ACAD_MLEADERVER
 70
     0
  0
ENDTAB
  0
TABLE
  2
DIMSTYLE
 70
     1
  0
DIMSTYLE
  2
STANDARD
 70
     0
  3

  4

  5

  6

  7

 40
1.0
 41
0.18
 42
0.0625
 43
0.38
 44
0.18
 45
0.0
 46
0.0
 47
0.0
 48
0.0
140
0.18
141
0.09
142
0.0
143
25.399999999999999
144
1.0
145
0.0
146
1.0
147
0.09
 71
     0
 72
     0
 73
     1
 74
     1
 75
     0
 76
     0
 77
     0
 78
     0
170
     0
171
     2
172
     0
173
     0
174
     0
175
     0
176
     0
177
     0
178
     0
  0
ENDTAB
  0
ENDSEC
  0
SECTION
  2
BLOCKS
  0
BLOCK
  8
0
  2
$MODEL_SPACE
 70
     0
 10
0.0
 20
0.0
 30
0.0
  3
$MODEL_SPACE
  1

  0
ENDBLK
  5
1A
  8
0
  0
BLOCK
 67
     1
  8
0
  2
$PAPER_SPACE
 70
     0
 10
0.0
 20
0.0
 30
0.0
  3
$PAPER_SPACE
  1

  0
ENDBLK
  5
17
 67
     1
  8
0
  0
BLOCK
  8
_________1
  2
AIGNBL02010002
 70
     0
 10
0.0
 20
0.0
 30
0.0
  3
AIGNBL02010002
  1

  0
LINE
  5
27
  8
_________1
 62
     7
 10
43.216799999999992
 20
184.53399999999999
 30
0.0
 11
45.427100000000003
 21
185.126
 31
0.0
  0
LINE
  5
28
  8
_________1
 62
     7
 10
45.427100000000003
 20
185.126
 30
0.0
 11
43.216799999999992
 21
185.71899999999999
 31
0.0
  0
LINE
  5
29
  8
_________1
 62
     7
 10
43.216799999999992
 20
185.71899999999999
 30
0.0
 11
43.216799999999992
 21
184.53399999999999
 31
0.0
  0
LINE
  5
2A
  8
_________1
 62
     7
 10
51.971299999999999
 20
185.70400000000001
 30
0.0
 11
49.760199999999998
 21
185.11099999999999
 31
0.0
  0
LINE
  5
2B
  8
_________1
 62
     7
 10
49.760199999999998
 20
185.11099999999999
 30
0.0
 11
51.971299999999999
 21
184.51900000000001
 31
0.0
  0
LINE
  5
2C
  8
_________1
 62
     7
 10
51.971299999999999
 20
184.51900000000001
 30
0.0
 11
51.971299999999999
 21
185.70400000000001
 31
0.0
  0
LINE
  5
2D
  8
_________1
 62
     7
 10
52.791800000000002
 20
185.119
 30
0.0
 11
41.896799999999999
 21
185.119
 31
0.0
  0
ENDBLK
  5
2E
  8
_________1
  0
BLOCK
  8
_________1
  2
AIGNBL02010003
 70
     0
 10
0.0
 20
0.0
 30
0.0
  3
AIGNBL02010003
  1

  0
LINE
  5
31
  8
_________1
 62
     7
 10
39.403399999999998
 20
172.76300000000001
 30
0.0
 11
39.99560000000001
 21
174.97300000000001
 31
0.0
  0
LINE
  5
32
  8
_________1
 62
     7
 10
39.99560000000001
 20
174.97300000000001
 30
0.0
 11
40.588099999999997
 21
172.76300000000001
 31
0.0
  0
LINE
  5
33
  8
_________1
 62
     7
 10
40.588099999999997
 20
172.76300000000001
 30
0.0
 11
39.403399999999998
 21
172.76300000000001
 31
0.0
  0
LINE
  5
34
  8
_________1
 62
     7
 10
40.573300000000003
 20
181.517
 30
0.0
 11
39.981099999999998
 21
179.30600000000001
 31
0.0
  0
LINE
  5
35
  8
_________1
 62
     7
 10
39.981099999999998
 20
179.30600000000001
 30
0.0
 11
39.388199999999998
 21
181.517
 31
0.0
  0
LINE
  5
36
  8
_________1
 62
     7
 10
39.388199999999998
 20
181.517
 30
0.0
 11
40.573300000000003
 21
181.517
 31
0.0
  0
LINE
  5
37
  8
_________1
 62
     7
 10
39.988300000000002
 20
182.33799999999999
 30
0.0
 11
39.988300000000002
 21
171.28800000000001
 31
0.0
  0
ENDBLK
  5
38
  8
_________1
  0
BLOCK
  8
_________1
  2
AIGNBL02010004
 70
     0
 10
0.0
 20
0.0
 30
0.0
  3
AIGNBL02010004
  1

  0
LINE
  5
3B
  8
_________1
 62
     7
 10
174.16499999999999
 20
227.36699999999999
 30
0.0
 11
173.57300000000001
 21
229.578
 31
0.0
  0
LINE
  5
3C
  8
_________1
 62
     7
 10
173.57300000000001
 20
229.578
 30
0.0
 11
172.97999999999999
 21
227.36699999999999
 31
0.0
  0
LINE
  5
3D
  8
_________1
 62
     7
 10
172.97999999999999
 20
227.36699999999999
 30
0.0
 11
174.16499999999999
 21
227.36699999999999
 31
0.0
  0
LINE
  5
3E
  8
_________1
 62
     7
 10
172.995
 20
214.45500000000001
 30
0.0
 11
173.58699999999999
 21
212.244
 31
0.0
  0
LINE
  5
3F
  8
_________1
 62
     7
 10
173.58699999999999
 20
212.244
 30
0.0
 11
174.18000000000001
 21
214.45500000000001
 31
0.0
  0
LINE
  5
40
  8
_________1
 62
     7
 10
174.18000000000001
 20
214.45500000000001
 30
0.0
 11
172.995
 21
214.45500000000001
 31
0.0
  0
LINE
  5
41
  8
_________1
 62
     7
 10
173.58000000000001
 20
229.578
 30
0.0
 11
173.58000000000001
 21
212.244
 31
0.0
  0
ENDBLK
  5
42
  8
_________1
  0
BLOCK
  8
_________1
  2
AIGNBL02010005
 70
     0
 10
0.0
 20
0.0
 30
0.0
  3
AIGNBL02010005
  1

  0
LINE
  5
45
  8
_________1
 62
     7
 10
174.16499999999999
 20
242.70099999999999
 30
0.0
 11
173.57300000000001
 21
244.911
 31
0.0
  0
LINE
  5
46
  8
_________1
 62
     7
 10
173.57300000000001
 20
244.911
 30
0.0
 11
172.97999999999999
 21
242.70099999999999
 31
0.0
  0
LINE
  5
47
  8
_________1
 62
     7
 10
172.97999999999999
 20
242.70099999999999
 30
0.0
 11
174.16499999999999
 21
242.70099999999999
 31
0.0
  0
LINE
  5
48
  8
_________1
 62
     7
 10
172.995
 20
231.78899999999999
 30
0.0
 11
173.58699999999999
 21
229.578
 31
0.0
  0
LINE
  5
49
  8
_________1
 62
     7
 10
173.58699999999999
 20
229.578
 30
0.0
 11
174.18000000000001
 21
231.78899999999999
 31
0.0
  0
LINE
  5
4A
  8
_________1
 62
     7
 10
174.18000000000001
 20
231.78899999999999
 30
0.0
 11
172.995
 21
231.78899999999999
 31
0.0
  0
LINE
  5
4B
  8
_________1
 62
     7
 10
173.58000000000001
 20
244.911
 30
0.0
 11
173.58000000000001
 21
229.578
 31
0.0
  0
ENDBLK
  5
4C
  8
_________1
  0
BLOCK
  8
_________1
  2
AIGNBL02010006
 70
     0
 10
0.0
 20
0.0
 30
0.0
  3
AIGNBL02010006
  1

  0
LINE
  5
4F
  8
_________1
 62
     7
 10
174.16499999999999
 20
260.03399999999999
 30
0.0
 11
173.57300000000001
 21
262.245
 31
0.0
  0
LINE
  5
50
  8
_________1
 62
     7
 10
173.57300000000001
 20
262.245
 30
0.0
 11
172.97999999999999
 21
260.03399999999999
 31
0.0
  0
LINE
  5
51
  8
_________1
 62
     7
 10
172.97999999999999
 20
260.03399999999999
 30
0.0
 11
174.16499999999999
 21
260.03399999999999
 31
0.0
  0
LINE
  5
52
  8
_________1
 62
     7
 10
172.995
 20
247.12200000000001
 30
0.0
 11
173.58699999999999
 21
244.911
 31
0.0
  0
LINE
  5
53
  8
_________1
 62
     7
 10
173.58699999999999
 20
244.911
 30
0.0
 11
174.18000000000001
 21
247.12200000000001
 31
0.0
  0
LINE
  5
54
  8
_________1
 62
     7
 10
174.18000000000001
 20
247.12200000000001
 30
0.0
 11
172.995
 21
247.12200000000001
 31
0.0
  0
LINE
  5
55
  8
_________1
 62
     7
 10
173.58000000000001
 20
262.245
 30
0.0
 11
173.58000000000001
 21
244.911
 31
0.0
  0
ENDBLK
  5
56
  8
_________1
  0
BLOCK
  8
_________1
  2
AIGNBL02010007
 70
     0
 10
0.0
 20
0.0
 30
0.0
  3
AIGNBL02010007
  1

  0
LINE
  5
59
  8
_________1
 62
     7
 10
72.638400000000004
 20
188.51300000000001
 30
0.0
 11
70.427300000000002
 21
187.92099999999999
 31
0.0
  0
LINE
  5
5A
  8
_________1
 62
     7
 10
70.427300000000002
 20
187.92099999999999
 30
0.0
 11
72.638400000000004
 21
187.328
 31
0.0
  0
LINE
  5
5B
  8
_________1
 62
     7
 10
72.638400000000004
 20
187.328
 30
0.0
 11
72.638400000000004
 21
188.51300000000001
 31
0.0
  0
LINE
  5
5C
  8
_________1
 62
     7
 10
75.037199999999999
 20
187.928
 30
0.0
 11
70.427300000000002
 21
187.928
 31
0.0
  0
ENDBLK
  5
5D
  8
_________1
  0
BLOCK
  8
_________1
  2
AIGNBL02010008
 70
     0
 10
0.0
 20
0.0
 30
0.0
  3
AIGNBL02010008
  1

  0
LINE
  5
60
  8
_________1
 62
     7
 10
96.8626
 20
76.940100000000001
 30
0.0
 11
94.651499999999984
 21
76.347899999999996
 31
0.0
  0
LINE
  5
61
  8
_________1
 62
     7
 10
94.651499999999984
 20
76.347899999999996
 30
0.0
 11
96.8626
 21
75.755399999999995
 31
0.0
  0
LINE
  5
62
  8
_________1
 62
     7
 10
96.8626
 20
75.755399999999995
 30
0.0
 11
96.8626
 21
76.940100000000001
 31
0.0
  0
LINE
  5
63
  8
_________1
 62
     7
 10
94.651499999999984
 20
76.355199999999996
 30
0.0
 11
100.542
 21
76.355199999999996
 31
0.0
  0
LINE
  5
64
  8
_________1
 62
     7
 10
100.542
 20
76.355199999999996
 30
0.0
 11
100.542
 21
79.688999999999993
 31
0.0
  0
ENDBLK
  5
65
  8
_________1
  0
BLOCK
  8
_________1
  2
AIGNBL02010009
 70
     0
 10
0.0
 20
0.0
 30
0.0
  3
AIGNBL02010009
  1

  0
LINE
  5
68
  8
_________1
 62
     7
 10
102.46599999999999
 20
176.53800000000001
 30
0.0
 11
103.05800000000001
 21
174.328
 31
0.0
  0
LINE
  5
69
  8
_________1
 62
     7
 10
103.05800000000001
 20
174.328
 30
0.0
 11
103.651
 21
176.53800000000001
 31
0.0
  0
LINE
  5
6A
  8
_________1
 62
     7
 10
103.651
 20
176.53800000000001
 30
0.0
 11
102.46599999999999
 21
176.53800000000001
 31
0.0
  0
LINE
  5
6B
  8
_________1
 62
     7
 10
103.636
 20
177.11799999999999
 30
0.0
 11
103.044
 21
179.32900000000001
 31
0.0
  0
LINE
  5
6C
  8
_________1
 62
     7
 10
103.044
 20
179.32900000000001
 30
0.0
 11
102.45099999999999
 21
177.11799999999999
 31
0.0
  0
LINE
  5
6D
  8
_________1
 62
     7
 10
102.45099999999999
 20
177.11799999999999
 30
0.0
 11
103.636
 21
177.11799999999999
 31
0.0
  0
LINE
  5
6E
  8
_________1
 62
     7
 10
103.051
 20
174.328
 30
0.0
 11
103.051
 21
179.32900000000001
 31
0.0
  0
ENDBLK
  5
6F
  8
_________1
  0
BLOCK
  8
_________1
  2
AIGNBL0201000A
 70
     0
 10
0.0
 20
0.0
 30
0.0
  3
AIGNBL0201000A
  1

  0
LINE
  5
72
  8
_________1
 62
     7
 10
109.85599999999999
 20
164.87100000000001
 30
0.0
 11
110.44799999999999
 21
162.661
 31
0.0
  0
LINE
  5
73
  8
_________1
 62
     7
 10
110.44799999999999
 20
162.661
 30
0.0
 11
111.04000000000001
 21
164.87100000000001
 31
0.0
  0
LINE
  5
74
  8
_________1
 62
     7
 10
111.04000000000001
 20
164.87100000000001
 30
0.0
 11
109.85599999999999
 21
164.87100000000001
 31
0.0
  0
LINE
  5
75
  8
_________1
 62
     7
 10
111.026
 20
177.11799999999999
 30
0.0
 11
110.43300000000001
 21
179.32900000000001
 31
0.0
  0
LINE
  5
76
  8
_________1
 62
     7
 10
110.43300000000001
 20
179.32900000000001
 30
0.0
 11
109.84099999999999
 21
177.11799999999999
 31
0.0
  0
LINE
  5
77
  8
_________1
 62
     7
 10
109.84099999999999
 20
177.11799999999999
 30
0.0
 11
111.026
 21
177.11799999999999
 31
0.0
  0
LINE
  5
78
  8
_________1
 62
     7
 10
110.441
 20
162.661
 30
0.0
 11
110.441
 21
179.32900000000001
 31
0.0
  0
ENDBLK
  5
79
  8
_________1
  0
BLOCK
  8
_________1
  2
AIGNBL0201000B
 70
     0
 10
0.0
 20
0.0
 30
0.0
  3
AIGNBL0201000B
  1

  0
LINE
  5
7C
  8
_________1
 62
     7
 10
86.224199999999996
 20
128.459
 30
0.0
 11
88.434600000000003
 21
129.05099999999999
 31
0.0
  0
LINE
  5
7D
  8
_________1
 62
     7
 10
88.434600000000003
 20
129.05099999999999
 30
0.0
 11
86.224199999999996
 21
129.64400000000001
 31
0.0
  0
LINE
  5
7E
  8
_________1
 62
     7
 10
86.224199999999996
 20
129.64400000000001
 30
0.0
 11
86.224199999999996
 21
128.459
 31
0.0
  0
LINE
  5
7F
  8
_________1
 62
     7
 10
54.675600000000003
 20
129.62899999999999
 30
0.0
 11
52.464500000000001
 21
129.03700000000001
 31
0.0
  0
LINE
  5
80
  8
_________1
 62
     7
 10
52.464500000000001
 20
129.03700000000001
 30
0.0
 11
54.675600000000003
 21
128.44399999999999
 31
0.0
  0
LINE
  5
81
  8
_________1
 62
     7
 10
54.675600000000003
 20
128.44399999999999
 30
0.0
 11
54.675600000000003
 21
129.62899999999999
 31
0.0
  0
LINE
  5
82
  8
_________1
 62
     7
 10
88.434600000000003
 20
129.04400000000001
 30
0.0
 11
52.464500000000001
 21
129.04400000000001
 31
0.0
  0
ENDBLK
  5
83
  8
_________1
  0
BLOCK
  8
_________1
  2
AIGNBL0201000C
 70
     0
 10
0.0
 20
0.0
 30
0.0
  3
AIGNBL0201000C
  1

  0
LINE
  5
86
  8
_________1
 62
     7
 10
93.216800000000006
 20
191.976
 30
0.0
 11
95.427199999999999
 21
192.56800000000001
 31
0.0
  0
LINE
  5
87
  8
_________1
 62
     7
 10
95.427199999999999
 20
192.56800000000001
 30
0.0
 11
93.216800000000006
 21
193.161
 31
0.0
  0
LINE
  5
88
  8
_________1
 62
     7
 10
93.216800000000006
 20
193.161
 30
0.0
 11
93.216800000000006
 21
191.976
 31
0.0
  0
LINE
  5
89
  8
_________1
 62
     7
 10
47.638199999999991
 20
193.14599999999999
 30
0.0
 11
45.427100000000003
 21
192.554
 31
0.0
  0
LINE
  5
8A
  8
_________1
 62
     7
 10
45.427100000000003
 20
192.554
 30
0.0
 11
47.638199999999991
 21
191.96100000000001
 31
0.0
  0
LINE
  5
8B
  8
_________1
 62
     7
 10
47.638199999999991
 20
191.96100000000001
 30
0.0
 11
47.638199999999991
 21
193.14599999999999
 31
0.0
  0
LINE
  5
8C
  8
_________1
 62
     7
 10
95.427199999999999
 20
192.56099999999989
 30
0.0
 11
45.427100000000003
 21
192.56099999999989
 31
0.0
  0
ENDBLK
  5
8D
  8
_________1
  0
BLOCK
  8
_________1
  2
AIGNBL0201000D
 70
     0
 10
0.0
 20
0.0
 30
0.0
  3
AIGNBL0201000D
  1

  0
LINE
  5
90
  8
_________1
 62
     7
 10
33.927
 20
177.119
 30
0.0
 11
33.335099999999997
 21
179.32900000000001
 31
0.0
  0
LINE
  5
91
  8
_________1
 62
     7
 10
33.335099999999997
 20
179.32900000000001
 30
0.0
 11
32.742600000000003
 21
177.119
 31
0.0
  0
LINE
  5
92
  8
_________1
 62
     7
 10
32.742600000000003
 20
177.119
 30
0.0
 11
33.927
 21
177.119
 31
0.0
  0
LINE
  5
93
  8
_________1
 62
     7
 10
32.756999999999998
 20
81.538300000000007
 30
0.0
 11
33.349600000000009
 21
79.327299999999994
 31
0.0
  0
LINE
  5
94
  8
_________1
 62
     7
 10
33.349600000000009
 20
79.327299999999994
 30
0.0
 11
33.9422
 21
81.538300000000007
 31
0.0
  0
LINE
  5
95
  8
_________1
 62
     7
 10
33.9422
 20
81.538300000000007
 30
0.0
 11
32.756999999999998
 21
81.538300000000007
 31
0.0
  0
LINE
  5
96
  8
_________1
 62
     7
 10
33.341999999999999
 20
179.32900000000001
 30
0.0
 11
33.341999999999999
 21
79.327299999999994
 31
0.0
  0
ENDBLK
  5
97
  8
_________1
  0
BLOCK
  8
_________1
  2
AIGNBL0201000E
 70
     0
 10
0.0
 20
0.0
 30
0.0
  3
AIGNBL0201000E
  1

  0
LINE
  5
9A
  8
_________1
 62
     7
 10
174.16499999999999
 20
152.11699999999999
 30
0.0
 11
173.57300000000001
 21
154.328
 31
0.0
  0
LINE
  5
9B
  8
_________1
 62
     7
 10
173.57300000000001
 20
154.328
 30
0.0
 11
172.97999999999999
 21
152.11699999999999
 31
0.0
  0
LINE
  5
9C
  8
_________1
 62
     7
 10
172.97999999999999
 20
152.11699999999999
 30
0.0
 11
174.16499999999999
 21
152.11699999999999
 31
0.0
  0
LINE
  5
9D
  8
_________1
 62
     7
 10
172.995
 20
112.871
 30
0.0
 11
173.58699999999999
 21
110.66
 31
0.0
  0
LINE
  5
9E
  8
_________1
 62
     7
 10
173.58699999999999
 20
110.66
 30
0.0
 11
174.18000000000001
 21
112.871
 31
0.0
  0
LINE
  5
9F
  8
_________1
 62
     7
 10
174.18000000000001
 20
112.871
 30
0.0
 11
172.995
 21
112.871
 31
0.0
  0
LINE
  5
A0
  8
_________1
 62
     7
 10
173.58000000000001
 20
154.328
 30
0.0
 11
173.58000000000001
 21
110.66
 31
0.0
  0
ENDBLK
  5
A1
  8
_________1
  0
BLOCK
  8
_________1
  2
AIGNBL0201000F
 70
     0
 10
0.0
 20
0.0
 30
0.0
  3
AIGNBL0201000F
  1

  0
LINE
  5
A4
  8
_________1
 62
     7
 10
125.408
 20
183.98099999999999
 30
0.0
 11
127.61799999999999
 21
184.57300000000001
 31
0.0
  0
LINE
  5
A5
  8
_________1
 62
     7
 10
127.61799999999999
 20
184.57300000000001
 30
0.0
 11
125.408
 21
185.166
 31
0.0
  0
LINE
  5
A6
  8
_________1
 62
     7
 10
125.408
 20
185.166
 30
0.0
 11
125.408
 21
183.98099999999999
 31
0.0
  0
LINE
  5
A7
  8
_________1
 62
     7
 10
131.834
 20
185.15100000000001
 30
0.0
 11
129.62299999999999
 21
184.559
 31
0.0
  0
LINE
  5
A8
  8
_________1
 62
     7
 10
129.62299999999999
 20
184.559
 30
0.0
 11
131.834
 21
183.96600000000001
 31
0.0
  0
LINE
  5
A9
  8
_________1
 62
     7
 10
131.834
 20
183.96600000000001
 30
0.0
 11
131.834
 21
185.15100000000001
 31
0.0
  0
LINE
  5
AA
  8
_________1
 62
     7
 10
136.47999999999999
 20
184.566
 30
0.0
 11
123.95699999999999
 21
184.566
 31
0.0
  0
ENDBLK
  5
AB
  8
_________1
  0
BLOCK
  8
_________1
  2
AIGNBL02010010
 70
     0
 10
0.0
 20
0.0
 30
0.0
  3
AIGNBL02010010
  1

  0
LINE
  5
AE
  8
_________1
 62
     7
 10
154.28999999999999
 20
162.80799999999999
 30
0.0
 11
156.5
 21
163.40000000000001
 31
0.0
  0
LINE
  5
AF
  8
_________1
 62
     7
 10
156.5
 20
163.40000000000001
 30
0.0
 11
154.28999999999999
 21
163.99199999999999
 31
0.0
  0
LINE
  5
B0
  8
_________1
 62
     7
 10
154.28999999999999
 20
163.99199999999999
 30
0.0
 11
154.28999999999999
 21
162.80799999999999
 31
0.0
  0
LINE
  5
B1
  8
_________1
 62
     7
 10
130.041
 20
163.97800000000001
 30
0.0
 11
127.83
 21
163.38499999999999
 31
0.0
  0
LINE
  5
B2
  8
_________1
 62
     7
 10
127.83
 20
163.38499999999999
 30
0.0
 11
130.041
 21
162.79300000000001
 31
0.0
  0
LINE
  5
B3
  8
_________1
 62
     7
 10
130.041
 20
162.79300000000001
 30
0.0
 11
130.041
 21
163.97800000000001
 31
0.0
  0
LINE
  5
B4
  8
_________1
 62
     7
 10
156.5
 20
163.393
 30
0.0
 11
127.83
 21
163.393
 31
0.0
  0
ENDBLK
  5
B5
  8
_________1
  0
BLOCK
  8
_________1
  2
AIGNBL02010011
 70
     0
 10
0.0
 20
0.0
 30
0.0
  3
AIGNBL02010011
  1

  0
LINE
  5
B8
  8
_________1
 62
     7
 10
160.95599999999999
 20
191.31
 30
0.0
 11
163.166
 21
191.90199999999999
 31
0.0
  0
LINE
  5
B9
  8
_________1
 62
     7
 10
163.166
 20
191.90199999999999
 30
0.0
 11
160.95599999999999
 21
192.494
 31
0.0
  0
LINE
  5
BA
  8
_________1
 62
     7
 10
160.95599999999999
 20
192.494
 30
0.0
 11
160.95599999999999
 21
191.31
 31
0.0
  0
LINE
  5
BB
  8
_________1
 62
     7
 10
130.04400000000001
 20
192.47999999999999
 30
0.0
 11
127.833
 21
191.887
 31
0.0
  0
LINE
  5
BC
  8
_________1
 62
     7
 10
127.833
 20
191.887
 30
0.0
 11
130.04400000000001
 21
191.29499999999999
 31
0.0
  0
LINE
  5
BD
  8
_________1
 62
     7
 10
130.04400000000001
 20
191.29499999999999
 30
0.0
 11
130.04400000000001
 21
192.47999999999999
 31
0.0
  0
LINE
  5
BE
  8
_________1
 62
     7
 10
163.166
 20
191.89500000000001
 30
0.0
 11
127.833
 21
191.89500000000001
 31
0.0
  0
ENDBLK
  5
BF
  8
_________1
  0
BLOCK
  8
_________1
  2
AIGNBL02010012
 70
     0
 10
0.0
 20
0.0
 30
0.0
  3
AIGNBL02010012
  1

  0
LINE
  5
C2
  8
_________1
 62
     7
 10
174.16499999999999
 20
176.45099999999999
 30
0.0
 11
173.57300000000001
 21
178.661
 31
0.0
  0
LINE
  5
C3
  8
_________1
 62
     7
 10
173.57300000000001
 20
178.661
 30
0.0
 11
172.97999999999999
 21
176.45099999999999
 31
0.0
  0
LINE
  5
C4
  8
_________1
 62
     7
 10
172.97999999999999
 20
176.45099999999999
 30
0.0
 11
174.16499999999999
 21
176.45099999999999
 31
0.0
  0
LINE
  5
C5
  8
_________1
 62
     7
 10
172.995
 20
156.53899999999999
 30
0.0
 11
173.58699999999999
 21
154.328
 31
0.0
  0
LINE
  5
C6
  8
_________1
 62
     7
 10
173.58699999999999
 20
154.328
 30
0.0
 11
174.18000000000001
 21
156.53899999999999
 31
0.0
  0
LINE
  5
C7
  8
_________1
 62
     7
 10
174.18000000000001
 20
156.53899999999999
 30
0.0
 11
172.995
 21
156.53899999999999
 31
0.0
  0
LINE
  5
C8
  8
_________1
 62
     7
 10
173.58000000000001
 20
178.661
 30
0.0
 11
173.58000000000001
 21
154.328
 31
0.0
  0
ENDBLK
  5
C9
  8
_________1
  0
BLOCK
  8
_________1
  2
AIGNBL02010013
 70
     0
 10
0.0
 20
0.0
 30
0.0
  3
AIGNBL02010013
  1

  0
LINE
  5
CC
  8
_________1
 62
     7
 10
174.16499999999999
 20
108.45
 30
0.0
 11
173.57300000000001
 21
110.66
 31
0.0
  0
LINE
  5
CD
  8
_________1
 62
     7
 10
173.57300000000001
 20
110.66
 30
0.0
 11
172.97999999999999
 21
108.45
 31
0.0
  0
LINE
  5
CE
  8
_________1
 62
     7
 10
172.97999999999999
 20
108.45
 30
0.0
 11
174.16499999999999
 21
108.45
 31
0.0
  0
LINE
  5
CF
  8
_________1
 62
     7
 10
172.995
 20
81.537999999999997
 30
0.0
 11
173.58699999999999
 21
79.326899999999995
 31
0.0
  0
LINE
  5
D0
  8
_________1
 62
     7
 10
173.58699999999999
 20
79.326899999999995
 30
0.0
 11
174.18000000000001
 21
81.537999999999997
 31
0.0
  0
LINE
  5
D1
  8
_________1
 62
     7
 10
174.18000000000001
 20
81.537999999999997
 30
0.0
 11
172.995
 21
81.537999999999997
 31
0.0
  0
LINE
  5
D2
  8
_________1
 62
     7
 10
173.58000000000001
 20
110.66
 30
0.0
 11
173.58000000000001
 21
79.326899999999995
 31
0.0
  0
ENDBLK
  5
D3
  8
_________1
  0
BLOCK
  8
_________1
  2
AIGNBL02010014
 70
     0
 10
0.0
 20
0.0
 30
0.0
  3
AIGNBL02010014
  1

  0
LINE
  5
D6
  8
_________1
 62
     7
 10
160.95599999999999
 20
72.518000000000001
 30
0.0
 11
163.166
 21
73.110600000000005
 31
0.0
  0
LINE
  5
D7
  8
_________1
 62
     7
 10
163.166
 20
73.110600000000005
 30
0.0
 11
160.95599999999999
 21
73.703100000000006
 31
0.0
  0
LINE
  5
D8
  8
_________1
 62
     7
 10
160.95599999999999
 20
73.703100000000006
 30
0.0
 11
160.95599999999999
 21
72.518000000000001
 31
0.0
  0
LINE
  5
D9
  8
_________1
 62
     7
 10
126.377
 20
73.688000000000002
 30
0.0
 11
124.166
 21
73.096100000000007
 31
0.0
  0
LINE
  5
DA
  8
_________1
 62
     7
 10
124.166
 20
73.096100000000007
 30
0.0
 11
126.377
 21
72.503500000000003
 31
0.0
  0
LINE
  5
DB
  8
_________1
 62
     7
 10
126.377
 20
72.503500000000003
 30
0.0
 11
126.377
 21
73.688000000000002
 31
0.0
  0
LINE
  5
DC
  8
_________1
 62
     7
 10
163.166
 20
73.103000000000009
 30
0.0
 11
124.166
 21
73.103000000000009
 31
0.0
  0
ENDBLK
  5
DD
  8
_________1
  0
BLOCK
  8
_________2
  2
AIGNBL03010002
 70
     0
 10
0.0
 20
0.0
 30
0.0
  3
AIGNBL03010002
  1

  0
LINE
  5
E0
  8
_________2
 62
     7
 10
81.441199999999995
 20
50.875799999999991
 30
0.0
 11
79.254900000000006
 21
50.875799999999991
 31
0.0
  0
LINE
  5
E1
  8
_________2
 62
     7
 10
81.933800000000005
 20
50.875799999999991
 30
0.0
 11
81.681700000000006
 21
50.875799999999991
 31
0.0
  0
LINE
  5
E2
  8
_________2
 62
     7
 10
82.426500000000004
 20
50.875799999999991
 30
0.0
 11
85.351399999999998
 21
50.875799999999991
 31
0.0
  0
LINE
  5
E3
  8
_________2
 62
     7
 10
81.933800000000005
 20
50.875799999999991
 30
0.0
 11
82.186000000000007
 21
50.875799999999991
 31
0.0
  0
LINE
  5
E4
  8
_________2
 62
     7
 10
75.537599999999998
 20
50.875799999999991
 30
0.0
 11
73.350700000000003
 21
50.875799999999991
 31
0.0
  0
LINE
  5
E5
  8
_________2
 62
     7
 10
76.029600000000002
 20
50.875799999999991
 30
0.0
 11
75.778099999999995
 21
50.875799999999991
 31
0.0
  0
LINE
  5
E6
  8
_________2
 62
     7
 10
76.029600000000002
 20
51.368400000000001
 30
0.0
 11
76.029600000000002
 21
53.555399999999999
 31
0.0
  0
LINE
  5
E7
  8
_________2
 62
     7
 10
76.029600000000002
 20
50.875799999999991
 30
0.0
 11
76.029600000000002
 21
51.128
 31
0.0
  0
LINE
  5
E8
  8
_________2
 62
     7
 10
76.522300000000001
 20
50.875799999999991
 30
0.0
 11
78.709199999999996
 21
50.875799999999991
 31
0.0
  0
LINE
  5
E9
  8
_________2
 62
     7
 10
76.029600000000002
 20
50.875799999999991
 30
0.0
 11
76.281800000000004
 21
50.875799999999991
 31
0.0
  0
LINE
  5
EA
  8
_________2
 62
     7
 10
76.029600000000002
 20
50.383800000000001
 30
0.0
 11
76.029600000000002
 21
48.196800000000003
 31
0.0
  0
LINE
  5
EB
  8
_________2
 62
     7
 10
76.029600000000002
 20
50.875799999999991
 30
0.0
 11
76.029600000000002
 21
50.624299999999991
 31
0.0
  0
LINE
  5
EC
  8
_________2
 62
     7
 10
79.740700000000004
 20
49.656199999999998
 30
0.0
 11
84.918700000000001
 21
48.791499999999999
 31
0.0
  0
LINE
  5
ED
  8
_________2
 62
     7
 10
79.740700000000004
 20
52.095300000000002
 30
0.0
 11
84.918700000000001
 21
52.960799999999992
 31
0.0
  0
LINE
  5
EE
  8
_________2
 62
     7
 10
84.918700000000001
 20
48.791499999999999
 30
0.0
 11
84.918700000000001
 21
52.960799999999992
 31
0.0
  0
LINE
  5
EF
  8
_________2
 62
     7
 10
79.740700000000004
 20
49.656199999999998
 30
0.0
 11
79.740700000000004
 21
52.095300000000002
 31
0.0
  0
ARC
  5
F0
  8
_________2
 62
     7
 10
75.983362999999997
 20
50.828812999999997
 30
0.0
 40
1.2673709999999989
 50
2.1232950000000002
 51
87.909056000000007
  0
ARC
  5
F1
  8
_________2
 62
     7
 10
76.076526999999999
 20
50.828847000000003
 30
0.0
 40
1.267363
 50
92.121785999999986
 51
177.878185
  0
ARC
  5
F2
  8
_________2
 62
     7
 10
76.076526999999999
 20
50.922691999999998
 30
0.0
 40
1.267363
 50
182.121815
 51
267.87821400000001
  0
ARC
  5
F3
  8
_________2
 62
     7
 10
75.982714000000001
 20
50.923374000000003
 30
0.0
 40
1.2680439999999991
 50
272.11916400000001
 51
357.84848499999998
  0
ARC
  5
F4
  8
_________2
 62
     7
 10
76.029604000000006
 20
50.875768999999998
 30
0.0
 40
2.0849849999999992
 50
0.00001
 51
89.999980000000008
  0
ARC
  5
F5
  8
_________2
 62
     7
 10
76.109640999999996
 20
50.796447000000001
 30
0.0
 40
2.1657860000000002
 50
92.117855000000034
 51
177.90105299999999
  0
ARC
  5
F6
  8
_________2
 62
     7
 10
76.109607999999994
 20
50.955773000000001
 30
0.0
 40
2.1657779999999991
 50
182.11700400000001
 51
267.88302499999998
  0
ARC
  5
F7
  8
_________2
 62
     7
 10
75.949632999999992
 20
50.956456000000003
 30
0.0
 40
2.1664590000000001
 50
272.11546800000002
 51
357.86560400000002
  0
ENDBLK
  5
F8
  8
_________2
  0
ENDSEC
  0
SECTION
  2
ENTITIES
  0
TEXT
  5
F9
  8
____
 62
     7
 10
39.2883
 20
175.89352500000001
 30
0.0
 40
3.0923400000000001
  1
65
 50
90.0
 41
0.5
 72
     1
 11
39.2883
 21
177.18199999999999
 31
0.0
  0
TEXT
  5
FA
  8
____
 62
     7
 10
46.394524999999987
 20
185.81899999999999
 30
0.0
 40
3.0923400000000001
  1
65
 41
0.5
 72
     1
 11
47.682999999999993
 21
185.81899999999999
 31
0.0
  0
TEXT
  5
FB
  8
____
 62
     7
 10
58.287779999999991
 20
182.06800000000001
 30
0.0
 40
3.0923400000000001
  1
%%c44
 41
0.5
 72
     2
 11
62.410899999999991
 21
182.06800000000001
 31
0.0
  0
TEXT
  5
FC
  8
____
 62
     7
 10
172.88
 20
218.97828749999999
 30
0.0
 40
3.0923400000000001
  1
260
 50
90.0
 41
0.5
 72
     1
 11
172.88
 21
220.911
 31
0.0
  0
TEXT
  5
FD
  8
____
 62
     7
 10
172.88
 20
235.31128749999999
 30
0.0
 40
3.0923400000000001
  1
230
 50
90.0
 41
0.5
 72
     1
 11
172.88
 21
237.244
 31
0.0
  0
TEXT
  5
FE
  8
____
 62
     7
 10
172.88
 20
251.64528749999999
 30
0.0
 40
3.0923400000000001
  1
260
 50
90.0
 41
0.5
 72
     1
 11
172.88
 21
253.578
 31
0.0
  0
TEXT
  5
FF
  8
____
 62
     7
 10
180.72800000000001
 20
127.26644
 30
0.0
 40
3.0923400000000001
  1
A-A
 50
90.0
 41
0.5
 72
     1
 11
180.72800000000001
 21
129.328
 31
0.0
  0
TEXT
  5
100
  8
____
 62
     7
 10
140.23228750000001
 20
164.09299999999999
 30
0.0
 40
3.0923400000000001
  1
430
 41
0.5
 72
     1
 11
142.16499999999999
 21
164.09299999999999
 31
0.0
  0
TEXT
  5
101
  8
____
 62
     7
 10
134.16074499999999
 20
185.26599999999999
 30
0.0
 40
3.0923400000000001
  1
30
 41
0.5
 72
     2
 11
136.47999999999999
 21
185.26599999999999
 31
0.0
  0
TEXT
  5
102
  8
____
 62
     7
 10
143.56728749999999
 20
192.595
 30
0.0
 40
3.0923400000000001
  1
530
 41
0.5
 72
     1
 11
145.5
 21
192.595
 31
0.0
  0
TEXT
  5
103
  8
____
 62
     7
 10
172.88
 20
130.43244000000001
 30
0.0
 40
3.0923400000000001
  1
655
 50
90.0
 41
0.5
 72
     1
 11
172.88
 21
132.494
 31
0.0
  0
TEXT
  5
104
  8
____
 62
     7
 10
172.88
 20
164.43343999999999
 30
0.0
 40
3.0923400000000001
  1
375
 50
90.0
 41
0.5
 72
     1
 11
172.88
 21
166.495
 31
0.0
  0
TEXT
  5
105
  8
____
 62
     7
 10
172.88
 20
93.060887500000007
 30
0.0
 40
3.0923400000000001
  1
470
 50
90.0
 41
0.5
 72
     1
 11
172.88
 21
94.993600000000015
 31
0.0
  0
TEXT
  5
106
  8
____
 62
     7
 10
141.60444000000001
 20
73.802999999999997
 30
0.0
 40
3.0923400000000001
  1
585
 41
0.5
 72
     1
 11
143.666
 21
73.802999999999997
 31
0.0
  0
TEXT
  5
107
  8
____
 62
     7
 10
78.513400000000004
 20
187.41261
 30
0.0
 40
3.0923400000000001
  1
A
 50
90.0
 41
0.5
 72
     1
 11
78.513400000000004
 21
187.928
 31
0.0
  0
TEXT
  5
108
  8
____
 62
     7
 10
104.41200000000001
 20
75.808410000000009
 30
0.0
 40
3.0923400000000001
  1
A
 50
90.0
 41
0.5
 72
     1
 11
104.41200000000001
 21
76.323800000000006
 31
0.0
  0
TEXT
  5
109
  8
____
 62
     7
 10
102.351
 20
175.540525
 30
0.0
 40
3.0923400000000001
  1
75
 50
90.0
 41
0.5
 72
     1
 11
102.351
 21
176.82900000000001
 31
0.0
  0
TEXT
  5
10A
  8
____
 62
     7
 10
109.741
 20
169.0622875
 30
0.0
 40
3.0923400000000001
  1
250
 50
90.0
 41
0.5
 72
     1
 11
109.741
 21
170.995
 31
0.0
  0
TEXT
  5
10B
  8
____
 62
     7
 10
68.494287499999999
 20
193.261
 30
0.0
 40
3.0923400000000001
  1
750
 41
0.5
 72
     1
 11
70.426999999999992
 21
193.261
 31
0.0
  0
TEXT
  5
10C
  8
____
 62
     7
 10
63.723134999999999
 20
129.744
 30
0.0
 40
3.0923400000000001
  1
515
 41
0.5
 72
     1
 11
65.527000000000001
 21
129.744
 31
0.0
  0
TEXT
  5
10D
  8
____
 62
     7
 10
32.642000000000003
 20
127.008745
 30
0.0
 40
3.0923400000000001
  1
1500
 50
90.0
 41
0.5
 72
     1
 11
32.642000000000003
 21
129.328
 31
0.0
  0
TEXT
  5
10E
  8
____
 62
     7
 10
59.836199999999998
 20
160.173
 30
0.0
 40
3.0923400000000001
  1
%%c55
 41
0.5
  0
LINE
  5
10F
  8
_________1
 62
     7
 10
46.740099999999991
 20
172.81100000000001
 30
0.0
 11
48.723100000000002
 21
173.95599999999999
 31
0.0
  0
LINE
  5
110
  8
_________1
 62
     7
 10
48.723100000000002
 20
173.95599999999999
 30
0.0
 11
47.578299999999999
 21
171.97300000000001
 31
0.0
  0
LINE
  5
111
  8
_________1
 62
     7
 10
47.578299999999999
 20
171.97300000000001
 30
0.0
 11
46.740099999999991
 21
172.81100000000001
 31
0.0
  0
LINE
  5
112
  8
_________1
 62
     7
 10
52.780099999999997
 20
177.17500000000001
 30
0.0
 11
50.79740000000001
 21
176.03
 31
0.0
  0
LINE
  5
113
  8
_________1
 62
     7
 10
50.79740000000001
 20
176.03
 30
0.0
 11
51.9422
 21
178.01300000000001
 31
0.0
  0
LINE
  5
114
  8
_________1
 62
     7
 10
51.9422
 20
178.01300000000001
 30
0.0
 11
52.780099999999997
 21
177.17500000000001
 31
0.0
  0
LINE
  5
115
  8
_________1
 62
     7
 10
46.3294
 20
171.56200000000001
 30
0.0
 11
56.135899999999999
 21
181.36799999999999
 31
0.0
  0
LINE
  5
116
  8
_________1
 62
     7
 10
56.135899999999999
 20
181.36799999999999
 30
0.0
 11
62.410899999999991
 21
181.36799999999999
 31
0.0
  0
INSERT
  5
117
  8
_________1
 62
     7
  2
AIGNBL02010002
 10
0.0
 20
0.0
 30
0.0
  0
ARC
  5
118
  8
_________1
 62
     7
 10
49.760240000000003
 20
174.992492
 30
0.0
 40
1.466758999999999
 50
89.993270999999993
 51
179.99324100000001
  0
ARC
  5
119
  8
_________1
 62
     7
 10
49.760240000000003
 20
174.99283600000001
 30
0.0
 40
1.466758
 50
180.00673900000001
 51
270.00674900000001
  0
ARC
  5
11A
  8
_________1
 62
     7
 10
49.760412000000002
 20
174.99266499999999
 30
0.0
 40
1.4665870000000001
 50
270.00002000000001
 51
359.99999000000003
  0
ARC
  5
11B
  8
_________1
 62
     7
 10
49.760412000000002
 20
174.99266399999999
 30
0.0
 40
1.4665870000000001
 50
0.00001
 51
89.999980000000008
  0
LINE
  5
11C
  8
_________1
  6
AIGENLINE001
 62
     7
 10
49.760199999999998
 20
177.74199999999999
 30
0.0
 11
49.760199999999998
 21
172.24199999999999
 31
0.0
  0
LINE
  5
11D
  8
_________1
  6
AIGENLINE001
 62
     7
 10
47.010300000000001
 20
174.99199999999999
 30
0.0
 11
52.510300000000001
 21
174.99199999999999
 31
0.0
  0
LINE
  5
11E
  8
_________1
 62
     7
 10
49.760199999999998
 20
178.44200000000001
 30
0.0
 11
49.760199999999998
 21
185.82599999999999
 31
0.0
  0
INSERT
  5
11F
  8
_________1
 62
     7
  2
AIGNBL02010003
 10
0.0
 20
0.0
 30
0.0
  0
LINE
  5
120
  8
_________1
 62
     7
 10
39.295499999999997
 20
174.99199999999999
 30
0.0
 11
46.310299999999991
 21
174.99199999999999
 31
0.0
  0
INSERT
  5
121
  8
_________1
 62
     7
  2
AIGNBL02010004
 10
0.0
 20
0.0
 30
0.0
  0
INSERT
  5
122
  8
_________1
 62
     7
  2
AIGNBL02010005
 10
0.0
 20
0.0
 30
0.0
  0
INSERT
  5
123
  8
_________1
 62
     7
  2
AIGNBL02010006
 10
0.0
 20
0.0
 30
0.0
  0
LINE
  5
124
  8
_________1
  6
AIGENLINE001
 62
     7
 10
159.71600000000001
 20
237.244
 30
0.0
 11
121.748
 21
237.244
 31
0.0
  0
LINE
  5
125
  8
_________1
 62
     7
 10
174.28700000000001
 20
212.244
 30
0.0
 11
130.32300000000001
 21
212.244
 31
0.0
  0
LINE
  5
126
  8
_________1
 62
     7
 10
174.28700000000001
 20
262.245
 30
0.0
 11
130.32300000000001
 21
262.245
 31
0.0
  0
LINE
  5
127
  8
_________1
 62
     7
 10
174.28700000000001
 20
244.911
 30
0.0
 11
164.83099999999999
 21
244.911
 31
0.0
  0
LINE
  5
128
  8
_________1
 62
     7
 10
174.28700000000001
 20
229.578
 30
0.0
 11
164.83099999999999
 21
229.578
 31
0.0
  0
LINE
  5
129
  8
_________1
  6
AIGENLINE002
 62
     7
 10
164.131
 20
244.911
 30
0.0
 11
154.57300000000001
 21
244.911
 31
0.0
  0
LINE
  5
12A
  8
_________1
  6
AIGENLINE002
 62
     7
 10
164.131
 20
229.578
 30
0.0
 11
154.57300000000001
 21
229.578
 31
0.0
  0
LINE
  5
12B
  8
_________1
  6
AIGENLINE002
 62
     7
 10
164.131
 20
110.66
 30
0.0
 11
154.57300000000001
 21
110.66
 31
0.0
  0
LINE
  5
12C
  8
_________1
  6
AIGENLINE002
 62
     7
 10
158.82300000000001
 20
162.65799999999999
 30
0.0
 11
154.22300000000001
 21
162.65799999999999
 31
0.0
  0
LINE
  5
12D
  8
_________1
 62
     7
 10
130.072
 20
119.81399999999999
 30
0.0
 11
130.072
 21
137.09200000000001
 31
0.0
  0
ARC
  5
12E
  8
_________1
 62
     7
 10
130.279976
 20
137.08420599999999
 30
0.0
 40
0.208006
 50
92.213549000000015
 51
177.78642099999999
  0
ARC
  5
12F
  8
_________1
 62
     7
 10
130.272165
 20
137.08825100000001
 30
0.0
 40
0.203806
 50
73.970658999999998
 51
90.062691000000001
  0
LINE
  5
130
  8
_________1
 62
     7
 10
130.328
 20
137.28399999999999
 30
0.0
 11
131.928
 21
136.815
 31
0.0
  0
LINE
  5
131
  8
_________1
 62
     7
 10
131.928
 20
136.815
 30
0.0
 11
131.91300000000001
 21
136.81899999999999
 31
0.0
  0
ARC
  5
132
  8
_________1
 62
     7
 10
131.850224
 20
136.62303600000001
 30
0.0
 40
0.205992
 50
1.2400679999999991
 51
72.400904999999995
  0
LINE
  5
133
  8
_________1
 62
     7
 10
132.05600000000001
 20
136.62700000000001
 30
0.0
 11
132.05600000000001
 21
136.62299999999999
 31
0.0
  0
LINE
  5
134
  8
_________1
 62
     7
 10
132.05600000000001
 20
136.62299999999999
 30
0.0
 11
132.05600000000001
 21
119.81399999999999
 31
0.0
  0
ARC
  5
135
  8
_________1
 62
     7
 10
107.092626
 20
128.66666799999999
 30
0.0
 40
18.117046999999999
 50
152.34718899999999
 51
167.877656
  0
ARC
  5
136
  8
_________1
 62
     7
 10
109.356497
 20
128.0533209999999
 30
0.0
 40
20.459617000000001
 50
167.529675
 51
180.143869
  0
ARC
  5
137
  8
_________1
 62
     7
 10
109.58465200000001
 20
128.00796800000001
 30
0.0
 40
20.687708000000001
 50
180.01667599999999
 51
198.51226600000001
  0
ARC
  5
138
  8
_________1
 62
     7
 10
107.183673
 20
127.344404
 30
0.0
 40
18.200766000000002
 50
198.93126799999999
 51
207.51456200000001
  0
ARC
  5
139
  8
_________1
 62
     7
 10
108.522577
 20
128.24056400000001
 30
0.0
 40
18.268756
 50
157.26415800000001
 51
175.95884599999999
  0
ARC
  5
13A
  8
_________1
 62
     7
 10
110.096219
 20
128.006823
 30
0.0
 40
19.855335
 50
175.60603800000001
 51
180.01407
  0
ARC
  5
13B
  8
_________1
 62
     7
 10
109.72189400000001
 20
128.00932900000001
 30
0.0
 40
19.481010000000001
 50
180.02171200000001
 51
199.21844100000001
  0
ARC
  5
13C
  8
_________1
 62
     7
 10
107.91020899999999
 20
127.512382
 30
0.0
 40
17.607168000000001
 50
199.63204300000001
 51
202.71363700000001
  0
ARC
  5
13D
  8
_________1
 62
     7
 10
33.771056000000002
 20
128.663454
 30
0.0
 40
18.126408999999999
 50
12.12636
 51
27.648755999999999
  0
ARC
  5
13E
  8
_________1
 62
     7
 10
31.516006000000001
 20
128.053314
 30
0.0
 40
20.459681
 50
359.85617000000002
 51
12.470285000000001
  0
ARC
  5
13F
  8
_________1
 62
     7
 10
31.285686999999999
 20
128.00797800000001
 30
0.0
 40
20.689937
 50
341.48979300000008
 51
359.98331899999999
  0
ARC
  5
140
  8
_________1
 62
     7
 10
33.682175999999998
 20
127.34587999999999
 30
0.0
 40
18.207712000000001
 50
332.49160899999998
 51
341.07134100000002
  0
ARC
  5
141
  8
_________1
 62
     7
 10
32.356265
 20
128.24304599999999
 30
0.0
 40
18.262328
 50
4.0347540000000013
 51
22.735831000000001
  0
ARC
  5
142
  8
_________1
 62
     7
 10
30.76473
 20
128.00644800000001
 30
0.0
 40
19.866952999999999
 50
359.98703799999998
 51
4.3924500000000002
  0
ARC
  5
143
  8
_________1
 62
     7
 10
31.156835999999998
 20
128.00952899999999
 30
0.0
 40
19.474848000000001
 50
340.61008299999997
 51
359.97771299999999
  0
ARC
  5
144
  8
_________1
 62
     7
 10
32.969340000000003
 20
127.50961599999999
 30
0.0
 40
17.59966
 50
337.285911
 51
340.18626399999999
  0
ARC
  5
145
  8
_________1
 62
     7
 10
70.344668999999996
 20
162.57821000000001
 30
0.0
 40
2.2508099999999991
 50
2.1045729999999989
 51
87.895416999999995
  0
ARC
  5
146
  8
_________1
 62
     7
 10
70.344272000000004
 20
162.743922
 30
0.0
 40
2.2512209999999988
 50
272.114307
 51
357.88570299999998
  0
ARC
  5
147
  8
_________1
 62
     7
 10
70.427325999999994
 20
162.660867
 30
0.0
 40
2.1666340000000002
 50
179.99996999999999
 51
270.00002000000001
  0
ARC
  5
148
  8
_________1
 62
     7
 10
70.510369999999995
 20
162.577823
 30
0.0
 40
2.251209999999999
 50
92.114024000000001
 51
177.88594599999999
  0
ARC
  5
149
  8
_________1
 62
     7
 10
70.427325999999994
 20
162.660867
 30
0.0
 40
1.833491999999999
 50
0.00001
 51
89.999980000000008
  0
ARC
  5
14A
  8
_________1
 62
     7
 10
70.427498
 20
162.66104000000001
 30
0.0
 40
1.833318999999999
 50
269.99463600000001
 51
359.99460699999997
  0
ARC
  5
14B
  8
_________1
 62
     7
 10
70.427325999999994
 20
162.660867
 30
0.0
 40
1.8331470000000001
 50
179.99996999999999
 51
270.00002000000001
  0
ARC
  5
14C
  8
_________1
 62
     7
 10
70.427498999999997
 20
162.66103899999999
 30
0.0
 40
1.833318999999999
 50
90.005382999999995
 51
180.005393
  0
ARC
  5
14D
  8
_________1
 62
     7
 10
94.735352000000006
 20
178.63549800000001
 30
0.0
 40
0.6926280000000001
 50
2.112112999999999
 51
87.887877999999986
  0
LINE
  5
14E
  8
_________1
 62
     7
 10
95.427499999999995
 20
178.661
 30
0.0
 11
95.427499999999995
 21
79.993899999999996
 31
0.0
  0
ARC
  5
14F
  8
_________1
 62
     7
 10
94.735356999999993
 20
80.019422000000006
 30
0.0
 40
0.6926220000000001
 50
272.11172399999998
 51
357.88828599999999
  0
LINE
  5
150
  8
_________1
 62
     7
 10
94.760900000000007
 20
79.327299999999994
 30
0.0
 11
46.093800000000002
 21
79.327299999999994
 31
0.0
  0
ARC
  5
151
  8
_________1
 62
     7
 10
46.119301
 20
80.019426999999993
 30
0.0
 40
0.692627
 50
182.1121149999999
 51
267.88791500000002
  0
LINE
  5
152
  8
_________1
 62
     7
 10
45.427100000000003
 20
79.993899999999996
 30
0.0
 11
45.427100000000003
 21
178.661
 31
0.0
  0
ARC
  5
153
  8
_________1
 62
     7
 10
46.119301
 20
178.63549900000001
 30
0.0
 40
0.692627
 50
92.112085000000008
 51
177.88788500000001
  0
LINE
  5
154
  8
_________1
 62
     7
 10
46.093800000000002
 20
179.328
 30
0.0
 11
94.760900000000007
 21
179.328
 31
0.0
  0
LINE
  5
155
  8
_________1
  6
AIGENLINE002
 62
     7
 10
70.427300000000002
 20
119.81399999999999
 30
0.0
 11
100.542
 21
119.81399999999999
 31
0.0
  0
LINE
  5
156
  8
_________1
  6
AIGENLINE002
 62
     7
 10
100.542
 20
119.81399999999999
 30
0.0
 11
100.542
 21
115.31999999999999
 31
0.0
  0
LINE
  5
157
  8
_________1
  6
AIGENLINE002
 62
     7
 10
158.762
 20
119.81399999999999
 30
0.0
 11
124.89700000000001
 21
119.81399999999999
 31
0.0
  0
LINE
  5
158
  8
_________1
 62
     7
 10
158.14400000000001
 20
245.65799999999999
 30
0.0
 11
158.166
 21
245.59399999999999
 31
0.0
  0
LINE
  5
159
  8
_________1
 62
     7
 10
158.166
 20
245.59399999999999
 30
0.0
 11
158.208
 21
245.57300000000001
 31
0.0
  0
LINE
  5
15A
  8
_________1
 62
     7
 10
158.208
 20
245.57300000000001
 30
0.0
 11
158.14400000000001
 21
245.488
 31
0.0
  0
LINE
  5
15B
  8
_________1
 62
     7
 10
158.14400000000001
 20
245.423
 30
0.0
 11
158.208
 21
245.33799999999999
 31
0.0
  0
LINE
  5
15C
  8
_________1
 62
     7
 10
158.208
 20
245.33799999999999
 30
0.0
 11
158.315
 21
245.31700000000001
 31
0.0
  0
LINE
  5
15D
  8
_________1
 62
     7
 10
158.14400000000001
 20
245.488
 30
0.0
 11
158.14400000000001
 21
244.911
 31
0.0
  0
LINE
  5
15E
  8
_________1
 62
     7
 10
158.315
 20
245.31700000000001
 30
0.0
 11
158.18700000000001
 21
245.125
 31
0.0
  0
LINE
  5
15F
  8
_________1
 62
     7
 10
158.18700000000001
 20
245.125
 30
0.0
 11
158.14400000000001
 21
244.911
 31
0.0
  0
LINE
  5
160
  8
_________1
 62
     7
 10
158.14400000000001
 20
244.911
 30
0.0
 11
158.18700000000001
 21
244.69800000000001
 31
0.0
  0
LINE
  5
161
  8
_________1
 62
     7
 10
158.18700000000001
 20
244.69800000000001
 30
0.0
 11
158.315
 21
244.506
 31
0.0
  0
LINE
  5
162
  8
_________1
 62
     7
 10
158.14400000000001
 20
244.33500000000001
 30
0.0
 11
158.14400000000001
 21
244.911
 31
0.0
  0
LINE
  5
163
  8
_________1
 62
     7
 10
158.315
 20
244.506
 30
0.0
 11
158.208
 21
244.48500000000001
 31
0.0
  0
LINE
  5
164
  8
_________1
 62
     7
 10
158.208
 20
244.48500000000001
 30
0.0
 11
158.14400000000001
 21
244.399
 31
0.0
  0
LINE
  5
165
  8
_________1
 62
     7
 10
160.08500000000001
 20
244.25
 30
0.0
 11
158.208
 21
244.25
 31
0.0
  0
LINE
  5
166
  8
_________1
 62
     7
 10
158.208
 20
244.25
 30
0.0
 11
158.14400000000001
 21
244.33500000000001
 31
0.0
  0
LINE
  5
167
  8
_________1
 62
     7
 10
158.208
 20
244.25
 30
0.0
 11
158.166
 21
244.22800000000001
 31
0.0
  0
LINE
  5
168
  8
_________1
 62
     7
 10
158.166
 20
244.22800000000001
 30
0.0
 11
158.14400000000001
 21
244.16399999999999
 31
0.0
  0
LINE
  5
169
  8
_________1
 62
     7
 10
158.208
 20
245.57300000000001
 30
0.0
 11
160.08500000000001
 21
245.57300000000001
 31
0.0
  0
LINE
  5
16A
  8
_________1
 62
     7
 10
160.149
 20
244.33500000000001
 30
0.0
 11
160.08500000000001
 21
244.25
 31
0.0
  0
LINE
  5
16B
  8
_________1
 62
     7
 10
160.149
 20
244.399
 30
0.0
 11
160.08500000000001
 21
244.48500000000001
 31
0.0
  0
LINE
  5
16C
  8
_________1
 62
     7
 10
160.08500000000001
 20
244.48500000000001
 30
0.0
 11
159.97799999999989
 21
244.506
 31
0.0
  0
LINE
  5
16D
  8
_________1
 62
     7
 10
159.97799999999989
 20
244.506
 30
0.0
 11
160.107
 21
244.69800000000001
 31
0.0
  0
LINE
  5
16E
  8
_________1
 62
     7
 10
160.107
 20
244.69800000000001
 30
0.0
 11
160.149
 21
244.911
 31
0.0
  0
LINE
  5
16F
  8
_________1
 62
     7
 10
160.149
 20
244.911
 30
0.0
 11
160.149
 21
244.33500000000001
 31
0.0
  0
LINE
  5
170
  8
_________1
 62
     7
 10
160.149
 20
245.488
 30
0.0
 11
160.149
 21
244.911
 31
0.0
  0
LINE
  5
171
  8
_________1
 62
     7
 10
160.149
 20
244.911
 30
0.0
 11
160.107
 21
245.125
 31
0.0
  0
LINE
  5
172
  8
_________1
 62
     7
 10
160.107
 20
245.125
 30
0.0
 11
159.97799999999989
 21
245.31700000000001
 31
0.0
  0
LINE
  5
173
  8
_________1
 62
     7
 10
159.97799999999989
 20
245.31700000000001
 30
0.0
 11
160.08500000000001
 21
245.33799999999999
 31
0.0
  0
LINE
  5
174
  8
_________1
 62
     7
 10
160.08500000000001
 20
245.33799999999999
 30
0.0
 11
160.149
 21
245.423
 31
0.0
  0
LINE
  5
175
  8
_________1
 62
     7
 10
160.149
 20
245.488
 30
0.0
 11
160.08500000000001
 21
245.57300000000001
 31
0.0
  0
LINE
  5
176
  8
_________1
 62
     7
 10
158.102
 20
244.911
 30
0.0
 11
158.102
 21
246.917
 31
0.0
  0
LINE
  5
177
  8
_________1
 62
     7
 10
158.102
 20
246.917
 30
0.0
 11
157.995
 21
246.917
 31
0.0
  0
LINE
  5
178
  8
_________1
 62
     7
 10
158.14400000000001
 20
246.875
 30
0.0
 11
158.102
 21
246.917
 31
0.0
  0
LINE
  5
179
  8
_________1
 62
     7
 10
157.952
 20
246.875
 30
0.0
 11
157.995
 21
246.917
 31
0.0
  0
LINE
  5
17A
  8
_________1
 62
     7
 10
157.995
 20
246.917
 30
0.0
 11
157.995
 21
244.911
 31
0.0
  0
LINE
  5
17B
  8
_________1
 62
     7
 10
158.14400000000001
 20
246.875
 30
0.0
 11
158.14400000000001
 21
242.94800000000001
 31
0.0
  0
LINE
  5
17C
  8
_________1
 62
     7
 10
157.995
 20
244.911
 30
0.0
 11
157.995
 21
242.905
 31
0.0
  0
LINE
  5
17D
  8
_________1
 62
     7
 10
157.995
 20
242.905
 30
0.0
 11
157.952
 21
242.94800000000001
 31
0.0
  0
LINE
  5
17E
  8
_________1
 62
     7
 10
158.14400000000001
 20
242.94800000000001
 30
0.0
 11
158.102
 21
242.905
 31
0.0
  0
LINE
  5
17F
  8
_________1
 62
     7
 10
158.102
 20
242.905
 30
0.0
 11
157.995
 21
242.905
 31
0.0
  0
LINE
  5
180
  8
_________1
 62
     7
 10
158.102
 20
242.905
 30
0.0
 11
158.102
 21
244.911
 31
0.0
  0
LINE
  5
181
  8
_________1
 62
     7
 10
158.315
 20
245.31700000000001
 30
0.0
 11
159.97799999999989
 21
245.31700000000001
 31
0.0
  0
LINE
  5
182
  8
_________1
 62
     7
 10
158.315
 20
244.506
 30
0.0
 11
159.97799999999989
 21
244.506
 31
0.0
  0
LINE
  5
183
  8
_________1
 62
     7
 10
157.952
 20
242.94800000000001
 30
0.0
 11
157.952
 21
246.875
 31
0.0
  0
LINE
  5
184
  8
_________1
 62
     7
 10
160.17099999999999
 20
245.59399999999999
 30
0.0
 11
160.149
 21
245.423
 31
0.0
  0
LINE
  5
185
  8
_________1
 62
     7
 10
160.149
 20
245.423
 30
0.0
 11
160.21299999999999
 21
245.274
 31
0.0
  0
LINE
  5
186
  8
_________1
 62
     7
 10
160.149
 20
245.55099999999999
 30
0.0
 11
160.149
 21
244.27099999999999
 31
0.0
  0
LINE
  5
187
  8
_________1
 62
     7
 10
160.21299999999999
 20
244.548
 30
0.0
 11
160.149
 21
244.37799999999999
 31
0.0
  0
LINE
  5
188
  8
_________1
 62
     7
 10
160.149
 20
244.37799999999999
 30
0.0
 11
160.17099999999999
 21
244.22800000000001
 31
0.0
  0
LINE
  5
189
  8
_________1
 62
     7
 10
160.21299999999999
 20
245.274
 30
0.0
 11
160.149
 21
244.911
 31
0.0
  0
LINE
  5
18A
  8
_________1
 62
     7
 10
160.149
 20
244.911
 30
0.0
 11
160.21299999999999
 21
244.548
 31
0.0
  0
LINE
  5
18B
  8
_________1
 62
     7
 10
160.21299999999999
 20
244.18600000000001
 30
0.0
 11
160.149
 21
244.27099999999999
 31
0.0
  0
LINE
  5
18C
  8
_________1
 62
     7
 10
160.21299999999999
 20
245.637
 30
0.0
 11
160.149
 21
245.55099999999999
 31
0.0
  0
LINE
  5
18D
  8
_________1
 62
     7
 10
160.768
 20
245.274
 30
0.0
 11
160.81
 21
245.423
 31
0.0
  0
LINE
  5
18E
  8
_________1
 62
     7
 10
160.81
 20
245.423
 30
0.0
 11
160.78899999999999
 21
245.59399999999999
 31
0.0
  0
LINE
  5
18F
  8
_________1
 62
     7
 10
160.768
 20
244.548
 30
0.0
 11
160.81
 21
244.911
 31
0.0
  0
LINE
  5
190
  8
_________1
 62
     7
 10
160.81
 20
244.911
 30
0.0
 11
160.768
 21
245.274
 31
0.0
  0
LINE
  5
191
  8
_________1
 62
     7
 10
160.78899999999999
 20
244.22800000000001
 30
0.0
 11
160.81
 21
244.37799999999999
 31
0.0
  0
LINE
  5
192
  8
_________1
 62
     7
 10
160.81
 20
244.37799999999999
 30
0.0
 11
160.768
 21
244.548
 31
0.0
  0
LINE
  5
193
  8
_________1
 62
     7
 10
160.768
 20
244.18600000000001
 30
0.0
 11
160.81
 21
244.27099999999999
 31
0.0
  0
LINE
  5
194
  8
_________1
 62
     7
 10
160.768
 20
245.637
 30
0.0
 11
160.81
 21
245.55099999999999
 31
0.0
  0
LINE
  5
195
  8
_________1
 62
     7
 10
160.768
 20
245.274
 30
0.0
 11
160.21299999999999
 21
245.274
 31
0.0
  0
LINE
  5
196
  8
_________1
 62
     7
 10
160.768
 20
244.18600000000001
 30
0.0
 11
160.21299999999999
 21
244.18600000000001
 31
0.0
  0
LINE
  5
197
  8
_________1
 62
     7
 10
160.768
 20
244.548
 30
0.0
 11
160.21299999999999
 21
244.548
 31
0.0
  0
LINE
  5
198
  8
_________1
 62
     7
 10
160.768
 20
245.637
 30
0.0
 11
160.21299999999999
 21
245.637
 31
0.0
  0
LINE
  5
199
  8
_________1
 62
     7
 10
160.81
 20
244.27099999999999
 30
0.0
 11
160.81
 21
245.55099999999999
 31
0.0
  0
LINE
  5
19A
  8
_________1
 62
     7
 10
162.56
 20
243.46000000000001
 30
0.0
 11
162.58099999999999
 21
243.35400000000001
 31
0.0
  0
LINE
  5
19B
  8
_________1
 62
     7
 10
162.58099999999999
 20
243.35400000000001
 30
0.0
 11
162.666
 21
243.28899999999999
 31
0.0
  0
LINE
  5
19C
  8
_________1
 62
     7
 10
162.666
 20
243.28899999999999
 30
0.0
 11
162.773
 21
243.268
 31
0.0
  0
LINE
  5
19D
  8
_________1
 62
     7
 10
162.773
 20
243.268
 30
0.0
 11
162.90100000000001
 21
243.268
 31
0.0
  0
LINE
  5
19E
  8
_________1
 62
     7
 10
163.166
 20
243.39599999999999
 30
0.0
 11
162.90100000000001
 21
243.39599999999999
 31
0.0
  0
LINE
  5
19F
  8
_________1
 62
     7
 10
162.90100000000001
 20
246.554
 30
0.0
 11
162.773
 21
246.554
 31
0.0
  0
LINE
  5
1A0
  8
_________1
 62
     7
 10
163.166
 20
246.42599999999999
 30
0.0
 11
162.90100000000001
 21
246.42599999999999
 31
0.0
  0
LINE
  5
1A1
  8
_________1
 62
     7
 10
162.773
 20
246.554
 30
0.0
 11
162.666
 21
246.53299999999999
 31
0.0
  0
LINE
  5
1A2
  8
_________1
 62
     7
 10
162.666
 20
246.53299999999999
 30
0.0
 11
162.58099999999999
 21
246.46899999999999
 31
0.0
  0
LINE
  5
1A3
  8
_________1
 62
     7
 10
162.58099999999999
 20
246.46899999999999
 30
0.0
 11
162.56
 21
246.363
 31
0.0
  0
LINE
  5
1A4
  8
_________1
 62
     7
 10
162.13300000000001
 20
245.274
 30
0.0
 11
162.048
 21
245.274
 31
0.0
  0
LINE
  5
1A5
  8
_________1
 62
     7
 10
162.13300000000001
 20
244.548
 30
0.0
 11
162.048
 21
244.548
 31
0.0
  0
LINE
  5
1A6
  8
_________1
 62
     7
 10
162.048
 20
244.506
 30
0.0
 11
160.81
 21
244.506
 31
0.0
  0
LINE
  5
1A7
  8
_________1
 62
     7
 10
162.048
 20
245.31700000000001
 30
0.0
 11
160.81
 21
245.31700000000001
 31
0.0
  0
LINE
  5
1A8
  8
_________1
 62
     7
 10
162.048
 20
245.25299999999999
 30
0.0
 11
160.81
 21
245.25299999999999
 31
0.0
  0
LINE
  5
1A9
  8
_________1
 62
     7
 10
162.048
 20
244.56999999999999
 30
0.0
 11
160.81
 21
244.56999999999999
 31
0.0
  0
LINE
  5
1AA
  8
_________1
 62
     7
 10
162.048
 20
245.31700000000001
 30
0.0
 11
162.048
 21
244.506
 31
0.0
  0
LINE
  5
1AB
  8
_________1
 62
     7
 10
162.47399999999999
 20
245.18799999999999
 30
0.0
 11
162.197
 21
245.18799999999999
 31
0.0
  0
LINE
  5
1AC
  8
_________1
 62
     7
 10
162.47399999999999
 20
244.63399999999999
 30
0.0
 11
162.197
 21
244.63399999999999
 31
0.0
  0
LINE
  5
1AD
  8
_________1
 62
     7
 10
162.47399999999999
 20
245.44499999999999
 30
0.0
 11
162.197
 21
245.44499999999999
 31
0.0
  0
LINE
  5
1AE
  8
_________1
 62
     7
 10
162.47399999999999
 20
244.37799999999999
 30
0.0
 11
162.197
 21
244.37799999999999
 31
0.0
  0
LINE
  5
1AF
  8
_________1
 62
     7
 10
162.13300000000001
 20
245.31700000000001
 30
0.0
 11
162.13300000000001
 21
244.506
 31
0.0
  0
LINE
  5
1B0
  8
_________1
 62
     7
 10
162.197
 20
245.18799999999999
 30
0.0
 11
162.13300000000001
 21
244.911
 31
0.0
  0
LINE
  5
1B1
  8
_________1
 62
     7
 10
162.13300000000001
 20
244.911
 30
0.0
 11
162.197
 21
244.63399999999999
 31
0.0
  0
LINE
  5
1B2
  8
_________1
 62
     7
 10
162.13300000000001
 20
244.59100000000001
 30
0.0
 11
162.13300000000001
 21
244.506
 31
0.0
  0
LINE
  5
1B3
  8
_________1
 62
     7
 10
162.13300000000001
 20
244.506
 30
0.0
 11
162.197
 21
244.63399999999999
 31
0.0
  0
LINE
  5
1B4
  8
_________1
 62
     7
 10
162.13300000000001
 20
244.506
 30
0.0
 11
162.197
 21
244.37799999999999
 31
0.0
  0
LINE
  5
1B5
  8
_________1
 62
     7
 10
162.197
 20
245.44499999999999
 30
0.0
 11
162.13300000000001
 21
245.31700000000001
 31
0.0
  0
LINE
  5
1B6
  8
_________1
 62
     7
 10
162.13300000000001
 20
245.31700000000001
 30
0.0
 11
162.197
 21
245.18799999999999
 31
0.0
  0
LINE
  5
1B7
  8
_________1
 62
     7
 10
163.166
 20
246.42599999999999
 30
0.0
 11
163.166
 21
243.39599999999999
 31
0.0
  0
LINE
  5
1B8
  8
_________1
 62
     7
 10
162.56
 20
243.46000000000001
 30
0.0
 11
162.56
 21
246.363
 31
0.0
  0
LINE
  5
1B9
  8
_________1
 62
     7
 10
162.90100000000001
 20
244.911
 30
0.0
 11
162.90100000000001
 21
246.554
 31
0.0
  0
LINE
  5
1BA
  8
_________1
 62
     7
 10
162.90100000000001
 20
246.42599999999999
 30
0.0
 11
162.90100000000001
 21
243.268
 31
0.0
  0
LINE
  5
1BB
  8
_________1
 62
     7
 10
162.56
 20
245.74299999999999
 30
0.0
 11
162.47399999999999
 21
245.74299999999999
 31
0.0
  0
LINE
  5
1BC
  8
_________1
 62
     7
 10
162.56
 20
244.07900000000001
 30
0.0
 11
162.47399999999999
 21
244.07900000000001
 31
0.0
  0
LINE
  5
1BD
  8
_________1
 62
     7
 10
162.47399999999999
 20
244.07900000000001
 30
0.0
 11
162.47399999999999
 21
245.74299999999999
 31
0.0
  0
LINE
  5
1BE
  8
_________1
 62
     7
 10
158.14400000000001
 20
230.32499999999999
 30
0.0
 11
158.166
 21
230.28200000000001
 31
0.0
  0
LINE
  5
1BF
  8
_________1
 62
     7
 10
158.166
 20
230.28200000000001
 30
0.0
 11
158.208
 21
230.25999999999999
 31
0.0
  0
LINE
  5
1C0
  8
_________1
 62
     7
 10
158.208
 20
230.25999999999999
 30
0.0
 11
158.14400000000001
 21
230.154
 31
0.0
  0
LINE
  5
1C1
  8
_________1
 62
     7
 10
158.14400000000001
 20
230.11099999999999
 30
0.0
 11
158.208
 21
230.00399999999999
 31
0.0
  0
LINE
  5
1C2
  8
_________1
 62
     7
 10
158.208
 20
230.00399999999999
 30
0.0
 11
158.315
 21
229.983
 31
0.0
  0
LINE
  5
1C3
  8
_________1
 62
     7
 10
158.14400000000001
 20
230.154
 30
0.0
 11
158.14400000000001
 21
229.577
 31
0.0
  0
LINE
  5
1C4
  8
_________1
 62
     7
 10
158.315
 20
229.983
 30
0.0
 11
158.18700000000001
 21
229.791
 31
0.0
  0
LINE
  5
1C5
  8
_________1
 62
     7
 10
158.18700000000001
 20
229.791
 30
0.0
 11
158.14400000000001
 21
229.577
 31
0.0
  0
LINE
  5
1C6
  8
_________1
 62
     7
 10
158.14400000000001
 20
229.577
 30
0.0
 11
158.18700000000001
 21
229.364
 31
0.0
  0
LINE
  5
1C7
  8
_________1
 62
     7
 10
158.18700000000001
 20
229.364
 30
0.0
 11
158.315
 21
229.172
 31
0.0
  0
LINE
  5
1C8
  8
_________1
 62
     7
 10
158.14400000000001
 20
229.001
 30
0.0
 11
158.14400000000001
 21
229.577
 31
0.0
  0
LINE
  5
1C9
  8
_________1
 62
     7
 10
158.315
 20
229.172
 30
0.0
 11
158.208
 21
229.15000000000001
 31
0.0
  0
LINE
  5
1CA
  8
_________1
 62
     7
 10
158.208
 20
229.15000000000001
 30
0.0
 11
158.14400000000001
 21
229.065
 31
0.0
  0
LINE
  5
1CB
  8
_________1
 62
     7
 10
160.08500000000001
 20
228.916
 30
0.0
 11
158.208
 21
228.916
 31
0.0
  0
LINE
  5
1CC
  8
_________1
 62
     7
 10
158.208
 20
228.916
 30
0.0
 11
158.14400000000001
 21
229.001
 31
0.0
  0
LINE
  5
1CD
  8
_________1
 62
     7
 10
158.208
 20
228.916
 30
0.0
 11
158.166
 21
228.89400000000001
 31
0.0
  0
LINE
  5
1CE
  8
_________1
 62
     7
 10
158.166
 20
228.89400000000001
 30
0.0
 11
158.14400000000001
 21
228.852
 31
0.0
  0
LINE
  5
1CF
  8
_________1
 62
     7
 10
158.208
 20
230.25999999999999
 30
0.0
 11
160.08500000000001
 21
230.25999999999999
 31
0.0
  0
LINE
  5
1D0
  8
_________1
 62
     7
 10
160.149
 20
229.001
 30
0.0
 11
160.08500000000001
 21
228.916
 31
0.0
  0
LINE
  5
1D1
  8
_________1
 62
     7
 10
160.149
 20
229.065
 30
0.0
 11
160.08500000000001
 21
229.15000000000001
 31
0.0
  0
LINE
  5
1D2
  8
_________1
 62
     7
 10
160.08500000000001
 20
229.15000000000001
 30
0.0
 11
159.97799999999989
 21
229.172
 31
0.0
  0
LINE
  5
1D3
  8
_________1
 62
     7
 10
159.97799999999989
 20
229.172
 30
0.0
 11
160.107
 21
229.364
 31
0.0
  0
LINE
  5
1D4
  8
_________1
 62
     7
 10
160.107
 20
229.364
 30
0.0
 11
160.149
 21
229.577
 31
0.0
  0
LINE
  5
1D5
  8
_________1
 62
     7
 10
160.149
 20
229.577
 30
0.0
 11
160.149
 21
229.001
 31
0.0
  0
LINE
  5
1D6
  8
_________1
 62
     7
 10
160.149
 20
230.154
 30
0.0
 11
160.149
 21
229.577
 31
0.0
  0
LINE
  5
1D7
  8
_________1
 62
     7
 10
160.149
 20
229.577
 30
0.0
 11
160.107
 21
229.791
 31
0.0
  0
LINE
  5
1D8
  8
_________1
 62
     7
 10
160.107
 20
229.791
 30
0.0
 11
159.97799999999989
 21
229.983
 31
0.0
  0
LINE
  5
1D9
  8
_________1
 62
     7
 10
159.97799999999989
 20
229.983
 30
0.0
 11
160.08500000000001
 21
230.00399999999999
 31
0.0
  0
LINE
  5
1DA
  8
_________1
 62
     7
 10
160.08500000000001
 20
230.00399999999999
 30
0.0
 11
160.149
 21
230.11099999999999
 31
0.0
  0
LINE
  5
1DB
  8
_________1
 62
     7
 10
160.149
 20
230.154
 30
0.0
 11
160.08500000000001
 21
230.25999999999999
 31
0.0
  0
LINE
  5
1DC
  8
_________1
 62
     7
 10
158.102
 20
229.577
 30
0.0
 11
158.102
 21
231.584
 31
0.0
  0
LINE
  5
1DD
  8
_________1
 62
     7
 10
158.102
 20
231.584
 30
0.0
 11
157.995
 21
231.584
 31
0.0
  0
LINE
  5
1DE
  8
_________1
 62
     7
 10
158.14400000000001
 20
231.541
 30
0.0
 11
158.102
 21
231.584
 31
0.0
  0
LINE
  5
1DF
  8
_________1
 62
     7
 10
157.952
 20
231.541
 30
0.0
 11
157.995
 21
231.584
 31
0.0
  0
LINE
  5
1E0
  8
_________1
 62
     7
 10
157.995
 20
231.584
 30
0.0
 11
157.995
 21
229.577
 31
0.0
  0
LINE
  5
1E1
  8
_________1
 62
     7
 10
158.14400000000001
 20
231.541
 30
0.0
 11
158.14400000000001
 21
227.614
 31
0.0
  0
LINE
  5
1E2
  8
_________1
 62
     7
 10
157.995
 20
229.577
 30
0.0
 11
157.995
 21
227.572
 31
0.0
  0
LINE
  5
1E3
  8
_________1
 62
     7
 10
157.995
 20
227.572
 30
0.0
 11
157.952
 21
227.614
 31
0.0
  0
LINE
  5
1E4
  8
_________1
 62
     7
 10
158.14400000000001
 20
227.614
 30
0.0
 11
158.102
 21
227.572
 31
0.0
  0
LINE
  5
1E5
  8
_________1
 62
     7
 10
158.102
 20
227.572
 30
0.0
 11
157.995
 21
227.572
 31
0.0
  0
LINE
  5
1E6
  8
_________1
 62
     7
 10
158.102
 20
227.572
 30
0.0
 11
158.102
 21
229.577
 31
0.0
  0
LINE
  5
1E7
  8
_________1
 62
     7
 10
158.315
 20
229.983
 30
0.0
 11
159.97799999999989
 21
229.983
 31
0.0
  0
LINE
  5
1E8
  8
_________1
 62
     7
 10
158.315
 20
229.172
 30
0.0
 11
159.97799999999989
 21
229.172
 31
0.0
  0
LINE
  5
1E9
  8
_________1
 62
     7
 10
157.952
 20
227.614
 30
0.0
 11
157.952
 21
231.541
 31
0.0
  0
LINE
  5
1EA
  8
_________1
 62
     7
 10
160.17099999999999
 20
230.25999999999999
 30
0.0
 11
160.149
 21
230.11099999999999
 31
0.0
  0
LINE
  5
1EB
  8
_________1
 62
     7
 10
160.149
 20
230.11099999999999
 30
0.0
 11
160.21299999999999
 21
229.94
 31
0.0
  0
LINE
  5
1EC
  8
_________1
 62
     7
 10
160.149
 20
230.21799999999999
 30
0.0
 11
160.149
 21
228.93700000000001
 31
0.0
  0
LINE
  5
1ED
  8
_________1
 62
     7
 10
160.21299999999999
 20
229.215
 30
0.0
 11
160.149
 21
229.065
 31
0.0
  0
LINE
  5
1EE
  8
_________1
 62
     7
 10
160.149
 20
229.065
 30
0.0
 11
160.17099999999999
 21
228.89400000000001
 31
0.0
  0
LINE
  5
1EF
  8
_________1
 62
     7
 10
160.21299999999999
 20
229.94
 30
0.0
 11
160.149
 21
229.577
 31
0.0
  0
LINE
  5
1F0
  8
_________1
 62
     7
 10
160.149
 20
229.577
 30
0.0
 11
160.21299999999999
 21
229.215
 31
0.0
  0
LINE
  5
1F1
  8
_________1
 62
     7
 10
160.21299999999999
 20
228.852
 30
0.0
 11
160.149
 21
228.93700000000001
 31
0.0
  0
LINE
  5
1F2
  8
_________1
 62
     7
 10
160.21299999999999
 20
230.303
 30
0.0
 11
160.149
 21
230.21799999999999
 31
0.0
  0
LINE
  5
1F3
  8
_________1
 62
     7
 10
160.768
 20
229.94
 30
0.0
 11
160.81
 21
230.11099999999999
 31
0.0
  0
LINE
  5
1F4
  8
_________1
 62
     7
 10
160.81
 20
230.11099999999999
 30
0.0
 11
160.78899999999999
 21
230.25999999999999
 31
0.0
  0
LINE
  5
1F5
  8
_________1
 62
     7
 10
160.768
 20
229.215
 30
0.0
 11
160.81
 21
229.577
 31
0.0
  0
LINE
  5
1F6
  8
_________1
 62
     7
 10
160.81
 20
229.577
 30
0.0
 11
160.768
 21
229.94
 31
0.0
  0
LINE
  5
1F7
  8
_________1
 62
     7
 10
160.78899999999999
 20
228.89400000000001
 30
0.0
 11
160.81
 21
229.065
 31
0.0
  0
LINE
  5
1F8
  8
_________1
 62
     7
 10
160.81
 20
229.065
 30
0.0
 11
160.768
 21
229.215
 31
0.0
  0
LINE
  5
1F9
  8
_________1
 62
     7
 10
160.768
 20
228.852
 30
0.0
 11
160.81
 21
228.93700000000001
 31
0.0
  0
LINE
  5
1FA
  8
_________1
 62
     7
 10
160.768
 20
230.303
 30
0.0
 11
160.81
 21
230.21799999999999
 31
0.0
  0
LINE
  5
1FB
  8
_________1
 62
     7
 10
160.768
 20
229.94
 30
0.0
 11
160.21299999999999
 21
229.94
 31
0.0
  0
LINE
  5
1FC
  8
_________1
 62
     7
 10
160.768
 20
228.852
 30
0.0
 11
160.21299999999999
 21
228.852
 31
0.0
  0
LINE
  5
1FD
  8
_________1
 62
     7
 10
160.768
 20
229.215
 30
0.0
 11
160.21299999999999
 21
229.215
 31
0.0
  0
LINE
  5
1FE
  8
_________1
 62
     7
 10
160.768
 20
230.303
 30
0.0
 11
160.21299999999999
 21
230.303
 31
0.0
  0
LINE
  5
1FF
  8
_________1
 62
     7
 10
160.81
 20
228.93700000000001
 30
0.0
 11
160.81
 21
230.21799999999999
 31
0.0
  0
LINE
  5
200
  8
_________1
 62
     7
 10
162.56
 20
228.126
 30
0.0
 11
162.58099999999999
 21
228.02000000000001
 31
0.0
  0
LINE
  5
201
  8
_________1
 62
     7
 10
162.58099999999999
 20
228.02000000000001
 30
0.0
 11
162.666
 21
227.95599999999999
 31
0.0
  0
LINE
  5
202
  8
_________1
 62
     7
 10
162.666
 20
227.95599999999999
 30
0.0
 11
162.773
 21
227.934
 31
0.0
  0
LINE
  5
203
  8
_________1
 62
     7
 10
162.773
 20
227.934
 30
0.0
 11
162.90100000000001
 21
227.934
 31
0.0
  0
LINE
  5
204
  8
_________1
 62
     7
 10
163.166
 20
228.06200000000001
 30
0.0
 11
162.90100000000001
 21
228.06200000000001
 31
0.0
  0
LINE
  5
205
  8
_________1
 62
     7
 10
162.90100000000001
 20
231.221
 30
0.0
 11
162.773
 21
231.221
 31
0.0
  0
LINE
  5
206
  8
_________1
 62
     7
 10
163.166
 20
231.09299999999999
 30
0.0
 11
162.90100000000001
 21
231.09299999999999
 31
0.0
  0
LINE
  5
207
  8
_________1
 62
     7
 10
162.773
 20
231.221
 30
0.0
 11
162.666
 21
231.19999999999999
 31
0.0
  0
LINE
  5
208
  8
_________1
 62
     7
 10
162.666
 20
231.19999999999999
 30
0.0
 11
162.58099999999999
 21
231.13499999999999
 31
0.0
  0
LINE
  5
209
  8
_________1
 62
     7
 10
162.58099999999999
 20
231.13499999999999
 30
0.0
 11
162.56
 21
231.029
 31
0.0
  0
LINE
  5
20A
  8
_________1
 62
     7
 10
162.13300000000001
 20
229.94
 30
0.0
 11
162.048
 21
229.94
 31
0.0
  0
LINE
  5
20B
  8
_________1
 62
     7
 10
162.13300000000001
 20
229.215
 30
0.0
 11
162.048
 21
229.215
 31
0.0
  0
LINE
  5
20C
  8
_________1
 62
     7
 10
162.048
 20
229.172
 30
0.0
 11
160.81
 21
229.172
 31
0.0
  0
LINE
  5
20D
  8
_________1
 62
     7
 10
162.048
 20
229.983
 30
0.0
 11
160.81
 21
229.983
 31
0.0
  0
LINE
  5
20E
  8
_________1
 62
     7
 10
162.048
 20
229.91900000000001
 30
0.0
 11
160.81
 21
229.91900000000001
 31
0.0
  0
LINE
  5
20F
  8
_________1
 62
     7
 10
162.048
 20
229.23599999999999
 30
0.0
 11
160.81
 21
229.23599999999999
 31
0.0
  0
LINE
  5
210
  8
_________1
 62
     7
 10
162.048
 20
229.983
 30
0.0
 11
162.048
 21
229.172
 31
0.0
  0
LINE
  5
211
  8
_________1
 62
     7
 10
162.47399999999999
 20
229.85499999999999
 30
0.0
 11
162.197
 21
229.85499999999999
 31
0.0
  0
LINE
  5
212
  8
_________1
 62
     7
 10
162.47399999999999
 20
229.30000000000001
 30
0.0
 11
162.197
 21
229.30000000000001
 31
0.0
  0
LINE
  5
213
  8
_________1
 62
     7
 10
162.47399999999999
 20
230.11099999999999
 30
0.0
 11
162.197
 21
230.11099999999999
 31
0.0
  0
LINE
  5
214
  8
_________1
 62
     7
 10
162.47399999999999
 20
229.04400000000001
 30
0.0
 11
162.197
 21
229.04400000000001
 31
0.0
  0
LINE
  5
215
  8
_________1
 62
     7
 10
162.13300000000001
 20
229.983
 30
0.0
 11
162.13300000000001
 21
229.172
 31
0.0
  0
LINE
  5
216
  8
_________1
 62
     7
 10
162.197
 20
229.85499999999999
 30
0.0
 11
162.13300000000001
 21
229.577
 31
0.0
  0
LINE
  5
217
  8
_________1
 62
     7
 10
162.13300000000001
 20
229.577
 30
0.0
 11
162.197
 21
229.30000000000001
 31
0.0
  0
LINE
  5
218
  8
_________1
 62
     7
 10
162.13300000000001
 20
229.25800000000001
 30
0.0
 11
162.13300000000001
 21
229.172
 31
0.0
  0
LINE
  5
219
  8
_________1
 62
     7
 10
162.13300000000001
 20
229.172
 30
0.0
 11
162.197
 21
229.30000000000001
 31
0.0
  0
LINE
  5
21A
  8
_________1
 62
     7
 10
162.13300000000001
 20
229.172
 30
0.0
 11
162.197
 21
229.04400000000001
 31
0.0
  0
LINE
  5
21B
  8
_________1
 62
     7
 10
162.197
 20
230.11099999999999
 30
0.0
 11
162.13300000000001
 21
229.983
 31
0.0
  0
LINE
  5
21C
  8
_________1
 62
     7
 10
162.13300000000001
 20
229.983
 30
0.0
 11
162.197
 21
229.85499999999999
 31
0.0
  0
LINE
  5
21D
  8
_________1
 62
     7
 10
163.166
 20
231.09299999999999
 30
0.0
 11
163.166
 21
228.06200000000001
 31
0.0
  0
LINE
  5
21E
  8
_________1
 62
     7
 10
162.56
 20
228.126
 30
0.0
 11
162.56
 21
231.029
 31
0.0
  0
LINE
  5
21F
  8
_________1
 62
     7
 10
162.90100000000001
 20
229.577
 30
0.0
 11
162.90100000000001
 21
231.221
 31
0.0
  0
LINE
  5
220
  8
_________1
 62
     7
 10
162.90100000000001
 20
231.09299999999999
 30
0.0
 11
162.90100000000001
 21
227.934
 31
0.0
  0
LINE
  5
221
  8
_________1
 62
     7
 10
162.56
 20
230.41
 30
0.0
 11
162.47399999999999
 21
230.41
 31
0.0
  0
LINE
  5
222
  8
_________1
 62
     7
 10
162.56
 20
228.745
 30
0.0
 11
162.47399999999999
 21
228.745
 31
0.0
  0
LINE
  5
223
  8
_________1
 62
     7
 10
162.47399999999999
 20
228.745
 30
0.0
 11
162.47399999999999
 21
230.41
 31
0.0
  0
LINE
  5
224
  8
_________1
 62
     7
 10
158.14400000000001
 20
111.407
 30
0.0
 11
158.166
 21
111.364
 31
0.0
  0
LINE
  5
225
  8
_________1
 62
     7
 10
158.166
 20
111.364
 30
0.0
 11
158.208
 21
111.343
 31
0.0
  0
LINE
  5
226
  8
_________1
 62
     7
 10
158.208
 20
111.343
 30
0.0
 11
158.14400000000001
 21
111.236
 31
0.0
  0
LINE
  5
227
  8
_________1
 62
     7
 10
158.14400000000001
 20
111.194
 30
0.0
 11
158.208
 21
111.087
 31
0.0
  0
LINE
  5
228
  8
_________1
 62
     7
 10
158.208
 20
111.087
 30
0.0
 11
158.315
 21
111.065
 31
0.0
  0
LINE
  5
229
  8
_________1
 62
     7
 10
158.14400000000001
 20
111.236
 30
0.0
 11
158.14400000000001
 21
110.66
 31
0.0
  0
LINE
  5
22A
  8
_________1
 62
     7
 10
158.315
 20
111.065
 30
0.0
 11
158.18700000000001
 21
110.874
 31
0.0
  0
LINE
  5
22B
  8
_________1
 62
     7
 10
158.18700000000001
 20
110.874
 30
0.0
 11
158.14400000000001
 21
110.66
 31
0.0
  0
LINE
  5
22C
  8
_________1
 62
     7
 10
158.14400000000001
 20
110.66
 30
0.0
 11
158.18700000000001
 21
110.447
 31
0.0
  0
LINE
  5
22D
  8
_________1
 62
     7
 10
158.18700000000001
 20
110.447
 30
0.0
 11
158.315
 21
110.276
 31
0.0
  0
LINE
  5
22E
  8
_________1
 62
     7
 10
158.14400000000001
 20
110.084
 30
0.0
 11
158.14400000000001
 21
110.66
 31
0.0
  0
LINE
  5
22F
  8
_________1
 62
     7
 10
158.315
 20
110.276
 30
0.0
 11
158.208
 21
110.23399999999999
 31
0.0
  0
LINE
  5
230
  8
_________1
 62
     7
 10
158.208
 20
110.23399999999999
 30
0.0
 11
158.14400000000001
 21
110.148
 31
0.0
  0
LINE
  5
231
  8
_________1
 62
     7
 10
160.08500000000001
 20
109.999
 30
0.0
 11
158.208
 21
109.999
 31
0.0
  0
LINE
  5
232
  8
_________1
 62
     7
 10
158.208
 20
109.999
 30
0.0
 11
158.14400000000001
 21
110.084
 31
0.0
  0
LINE
  5
233
  8
_________1
 62
     7
 10
158.208
 20
109.999
 30
0.0
 11
158.166
 21
109.97799999999999
 31
0.0
  0
LINE
  5
234
  8
_________1
 62
     7
 10
158.166
 20
109.97799999999999
 30
0.0
 11
158.14400000000001
 21
109.935
 31
0.0
  0
LINE
  5
235
  8
_________1
 62
     7
 10
158.208
 20
111.343
 30
0.0
 11
160.08500000000001
 21
111.343
 31
0.0
  0
LINE
  5
236
  8
_________1
 62
     7
 10
160.149
 20
110.084
 30
0.0
 11
160.08500000000001
 21
109.999
 31
0.0
  0
LINE
  5
237
  8
_________1
 62
     7
 10
160.149
 20
110.148
 30
0.0
 11
160.08500000000001
 21
110.23399999999999
 31
0.0
  0
LINE
  5
238
  8
_________1
 62
     7
 10
160.08500000000001
 20
110.23399999999999
 30
0.0
 11
159.97799999999989
 21
110.276
 31
0.0
  0
LINE
  5
239
  8
_________1
 62
     7
 10
159.97799999999989
 20
110.276
 30
0.0
 11
160.107
 21
110.447
 31
0.0
  0
LINE
  5
23A
  8
_________1
 62
     7
 10
160.107
 20
110.447
 30
0.0
 11
160.149
 21
110.66
 31
0.0
  0
LINE
  5
23B
  8
_________1
 62
     7
 10
160.149
 20
110.66
 30
0.0
 11
160.149
 21
110.084
 31
0.0
  0
LINE
  5
23C
  8
_________1
 62
     7
 10
160.149
 20
111.236
 30
0.0
 11
160.149
 21
110.66
 31
0.0
  0
LINE
  5
23D
  8
_________1
 62
     7
 10
160.149
 20
110.66
 30
0.0
 11
160.107
 21
110.874
 31
0.0
  0
LINE
  5
23E
  8
_________1
 62
     7
 10
160.107
 20
110.874
 30
0.0
 11
159.97799999999989
 21
111.065
 31
0.0
  0
LINE
  5
23F
  8
_________1
 62
     7
 10
159.97799999999989
 20
111.065
 30
0.0
 11
160.08500000000001
 21
111.087
 31
0.0
  0
LINE
  5
240
  8
_________1
 62
     7
 10
160.08500000000001
 20
111.087
 30
0.0
 11
160.149
 21
111.194
 31
0.0
  0
LINE
  5
241
  8
_________1
 62
     7
 10
160.149
 20
111.236
 30
0.0
 11
160.08500000000001
 21
111.343
 31
0.0
  0
LINE
  5
242
  8
_________1
 62
     7
 10
158.102
 20
110.66
 30
0.0
 11
158.102
 21
112.66500000000001
 31
0.0
  0
LINE
  5
243
  8
_________1
 62
     7
 10
158.102
 20
112.66500000000001
 30
0.0
 11
157.995
 21
112.66500000000001
 31
0.0
  0
LINE
  5
244
  8
_________1
 62
     7
 10
158.14400000000001
 20
112.623
 30
0.0
 11
158.102
 21
112.66500000000001
 31
0.0
  0
LINE
  5
245
  8
_________1
 62
     7
 10
157.952
 20
112.623
 30
0.0
 11
157.995
 21
112.66500000000001
 31
0.0
  0
LINE
  5
246
  8
_________1
 62
     7
 10
157.995
 20
112.66500000000001
 30
0.0
 11
157.995
 21
110.66
 31
0.0
  0
LINE
  5
247
  8
_________1
 62
     7
 10
158.14400000000001
 20
112.623
 30
0.0
 11
158.14400000000001
 21
108.69799999999999
 31
0.0
  0
LINE
  5
248
  8
_________1
 62
     7
 10
157.995
 20
110.66
 30
0.0
 11
157.995
 21
108.67700000000001
 31
0.0
  0
LINE
  5
249
  8
_________1
 62
     7
 10
157.995
 20
108.67700000000001
 30
0.0
 11
157.952
 21
108.69799999999999
 31
0.0
  0
LINE
  5
24A
  8
_________1
 62
     7
 10
158.14400000000001
 20
108.69799999999999
 30
0.0
 11
158.102
 21
108.67700000000001
 31
0.0
  0
LINE
  5
24B
  8
_________1
 62
     7
 10
158.102
 20
108.67700000000001
 30
0.0
 11
157.995
 21
108.67700000000001
 31
0.0
  0
LINE
  5
24C
  8
_________1
 62
     7
 10
158.102
 20
108.67700000000001
 30
0.0
 11
158.102
 21
110.66
 31
0.0
  0
LINE
  5
24D
  8
_________1
 62
     7
 10
158.315
 20
111.065
 30
0.0
 11
159.97799999999989
 21
111.065
 31
0.0
  0
LINE
  5
24E
  8
_________1
 62
     7
 10
158.315
 20
110.276
 30
0.0
 11
159.97799999999989
 21
110.276
 31
0.0
  0
LINE
  5
24F
  8
_________1
 62
     7
 10
157.952
 20
108.69799999999999
 30
0.0
 11
157.952
 21
112.623
 31
0.0
  0
LINE
  5
250
  8
_________1
 62
     7
 10
160.17099999999999
 20
111.364
 30
0.0
 11
160.149
 21
111.194
 31
0.0
  0
LINE
  5
251
  8
_________1
 62
     7
 10
160.149
 20
111.194
 30
0.0
 11
160.21299999999999
 21
111.023
 31
0.0
  0
LINE
  5
252
  8
_________1
 62
     7
 10
160.149
 20
111.3
 30
0.0
 11
160.149
 21
110.042
 31
0.0
  0
LINE
  5
253
  8
_________1
 62
     7
 10
160.21299999999999
 20
110.297
 30
0.0
 11
160.149
 21
110.148
 31
0.0
  0
LINE
  5
254
  8
_________1
 62
     7
 10
160.149
 20
110.148
 30
0.0
 11
160.17099999999999
 21
109.97799999999999
 31
0.0
  0
LINE
  5
255
  8
_________1
 62
     7
 10
160.21299999999999
 20
111.023
 30
0.0
 11
160.149
 21
110.66
 31
0.0
  0
LINE
  5
256
  8
_________1
 62
     7
 10
160.149
 20
110.66
 30
0.0
 11
160.21299999999999
 21
110.297
 31
0.0
  0
LINE
  5
257
  8
_________1
 62
     7
 10
160.21299999999999
 20
109.935
 30
0.0
 11
160.149
 21
110.042
 31
0.0
  0
LINE
  5
258
  8
_________1
 62
     7
 10
160.21299999999999
 20
111.407
 30
0.0
 11
160.149
 21
111.3
 31
0.0
  0
LINE
  5
259
  8
_________1
 62
     7
 10
160.768
 20
111.023
 30
0.0
 11
160.81
 21
111.194
 31
0.0
  0
LINE
  5
25A
  8
_________1
 62
     7
 10
160.81
 20
111.194
 30
0.0
 11
160.78899999999999
 21
111.364
 31
0.0
  0
LINE
  5
25B
  8
_________1
 62
     7
 10
160.768
 20
110.297
 30
0.0
 11
160.81
 21
110.66
 31
0.0
  0
LINE
  5
25C
  8
_________1
 62
     7
 10
160.81
 20
110.66
 30
0.0
 11
160.768
 21
111.023
 31
0.0
  0
LINE
  5
25D
  8
_________1
 62
     7
 10
160.78899999999999
 20
109.97799999999999
 30
0.0
 11
160.81
 21
110.148
 31
0.0
  0
LINE
  5
25E
  8
_________1
 62
     7
 10
160.81
 20
110.148
 30
0.0
 11
160.768
 21
110.297
 31
0.0
  0
LINE
  5
25F
  8
_________1
 62
     7
 10
160.768
 20
109.935
 30
0.0
 11
160.81
 21
110.042
 31
0.0
  0
LINE
  5
260
  8
_________1
 62
     7
 10
160.768
 20
111.407
 30
0.0
 11
160.81
 21
111.3
 31
0.0
  0
LINE
  5
261
  8
_________1
 62
     7
 10
160.768
 20
111.023
 30
0.0
 11
160.21299999999999
 21
111.023
 31
0.0
  0
LINE
  5
262
  8
_________1
 62
     7
 10
160.768
 20
109.935
 30
0.0
 11
160.21299999999999
 21
109.935
 31
0.0
  0
LINE
  5
263
  8
_________1
 62
     7
 10
160.768
 20
110.297
 30
0.0
 11
160.21299999999999
 21
110.297
 31
0.0
  0
LINE
  5
264
  8
_________1
 62
     7
 10
160.768
 20
111.407
 30
0.0
 11
160.21299999999999
 21
111.407
 31
0.0
  0
LINE
  5
265
  8
_________1
 62
     7
 10
160.81
 20
110.042
 30
0.0
 11
160.81
 21
111.3
 31
0.0
  0
LINE
  5
266
  8
_________1
 62
     7
 10
158.14400000000001
 20
155.07400000000001
 30
0.0
 11
158.166
 21
155.03200000000001
 31
0.0
  0
LINE
  5
267
  8
_________1
 62
     7
 10
158.166
 20
155.03200000000001
 30
0.0
 11
158.208
 21
155.011
 31
0.0
  0
LINE
  5
268
  8
_________1
 62
     7
 10
158.208
 20
155.011
 30
0.0
 11
158.14400000000001
 21
154.904
 31
0.0
  0
LINE
  5
269
  8
_________1
 62
     7
 10
158.14400000000001
 20
154.86099999999999
 30
0.0
 11
158.208
 21
154.77600000000001
 31
0.0
  0
LINE
  5
26A
  8
_________1
 62
     7
 10
158.208
 20
154.77600000000001
 30
0.0
 11
158.315
 21
154.733
 31
0.0
  0
LINE
  5
26B
  8
_________1
 62
     7
 10
158.14400000000001
 20
154.904
 30
0.0
 11
158.14400000000001
 21
154.328
 31
0.0
  0
LINE
  5
26C
  8
_________1
 62
     7
 10
158.315
 20
154.733
 30
0.0
 11
158.18700000000001
 21
154.56200000000001
 31
0.0
  0
LINE
  5
26D
  8
_________1
 62
     7
 10
158.18700000000001
 20
154.56200000000001
 30
0.0
 11
158.14400000000001
 21
154.328
 31
0.0
  0
LINE
  5
26E
  8
_________1
 62
     7
 10
158.14400000000001
 20
154.328
 30
0.0
 11
158.18700000000001
 21
154.11500000000001
 31
0.0
  0
LINE
  5
26F
  8
_________1
 62
     7
 10
158.18700000000001
 20
154.11500000000001
 30
0.0
 11
158.315
 21
153.94399999999999
 31
0.0
  0
LINE
  5
270
  8
_________1
 62
     7
 10
158.14400000000001
 20
153.75200000000001
 30
0.0
 11
158.14400000000001
 21
154.328
 31
0.0
  0
LINE
  5
271
  8
_________1
 62
     7
 10
158.315
 20
153.94399999999999
 30
0.0
 11
158.208
 21
153.90100000000001
 31
0.0
  0
LINE
  5
272
  8
_________1
 62
     7
 10
158.208
 20
153.90100000000001
 30
0.0
 11
158.14400000000001
 21
153.816
 31
0.0
  0
LINE
  5
273
  8
_________1
 62
     7
 10
160.08500000000001
 20
153.667
 30
0.0
 11
158.208
 21
153.667
 31
0.0
  0
LINE
  5
274
  8
_________1
 62
     7
 10
158.208
 20
153.667
 30
0.0
 11
158.14400000000001
 21
153.75200000000001
 31
0.0
  0
LINE
  5
275
  8
_________1
 62
     7
 10
158.208
 20
153.667
 30
0.0
 11
158.166
 21
153.64500000000001
 31
0.0
  0
LINE
  5
276
  8
_________1
 62
     7
 10
158.166
 20
153.64500000000001
 30
0.0
 11
158.14400000000001
 21
153.60300000000001
 31
0.0
  0
LINE
  5
277
  8
_________1
 62
     7
 10
158.208
 20
155.011
 30
0.0
 11
160.08500000000001
 21
155.011
 31
0.0
  0
LINE
  5
278
  8
_________1
 62
     7
 10
160.149
 20
153.75200000000001
 30
0.0
 11
160.08500000000001
 21
153.667
 31
0.0
  0
LINE
  5
279
  8
_________1
 62
     7
 10
160.149
 20
153.816
 30
0.0
 11
160.08500000000001
 21
153.90100000000001
 31
0.0
  0
LINE
  5
27A
  8
_________1
 62
     7
 10
160.08500000000001
 20
153.90100000000001
 30
0.0
 11
159.97799999999989
 21
153.94399999999999
 31
0.0
  0
LINE
  5
27B
  8
_________1
 62
     7
 10
159.97799999999989
 20
153.94399999999999
 30
0.0
 11
160.107
 21
154.11500000000001
 31
0.0
  0
LINE
  5
27C
  8
_________1
 62
     7
 10
160.107
 20
154.11500000000001
 30
0.0
 11
160.149
 21
154.328
 31
0.0
  0
LINE
  5
27D
  8
_________1
 62
     7
 10
160.149
 20
154.328
 30
0.0
 11
160.149
 21
153.75200000000001
 31
0.0
  0
LINE
  5
27E
  8
_________1
 62
     7
 10
160.149
 20
154.904
 30
0.0
 11
160.149
 21
154.328
 31
0.0
  0
LINE
  5
27F
  8
_________1
 62
     7
 10
160.149
 20
154.328
 30
0.0
 11
160.107
 21
154.56200000000001
 31
0.0
  0
LINE
  5
280
  8
_________1
 62
     7
 10
160.107
 20
154.56200000000001
 30
0.0
 11
159.97799999999989
 21
154.733
 31
0.0
  0
LINE
  5
281
  8
_________1
 62
     7
 10
159.97799999999989
 20
154.733
 30
0.0
 11
160.08500000000001
 21
154.77600000000001
 31
0.0
  0
LINE
  5
282
  8
_________1
 62
     7
 10
160.08500000000001
 20
154.77600000000001
 30
0.0
 11
160.149
 21
154.86099999999999
 31
0.0
  0
LINE
  5
283
  8
_________1
 62
     7
 10
160.149
 20
154.904
 30
0.0
 11
160.08500000000001
 21
155.011
 31
0.0
  0
LINE
  5
284
  8
_________1
 62
     7
 10
158.102
 20
154.328
 30
0.0
 11
158.102
 21
156.333
 31
0.0
  0
LINE
  5
285
  8
_________1
 62
     7
 10
158.102
 20
156.333
 30
0.0
 11
157.995
 21
156.333
 31
0.0
  0
LINE
  5
286
  8
_________1
 62
     7
 10
158.14400000000001
 20
156.291
 30
0.0
 11
158.102
 21
156.333
 31
0.0
  0
LINE
  5
287
  8
_________1
 62
     7
 10
157.952
 20
156.291
 30
0.0
 11
157.995
 21
156.333
 31
0.0
  0
LINE
  5
288
  8
_________1
 62
     7
 10
157.995
 20
156.333
 30
0.0
 11
157.995
 21
154.328
 31
0.0
  0
LINE
  5
289
  8
_________1
 62
     7
 10
158.14400000000001
 20
156.291
 30
0.0
 11
158.14400000000001
 21
152.387
 31
0.0
  0
LINE
  5
28A
  8
_________1
 62
     7
 10
157.995
 20
154.328
 30
0.0
 11
157.995
 21
152.34399999999999
 31
0.0
  0
LINE
  5
28B
  8
_________1
 62
     7
 10
157.995
 20
152.34399999999999
 30
0.0
 11
157.952
 21
152.387
 31
0.0
  0
LINE
  5
28C
  8
_________1
 62
     7
 10
158.14400000000001
 20
152.387
 30
0.0
 11
158.102
 21
152.34399999999999
 31
0.0
  0
LINE
  5
28D
  8
_________1
 62
     7
 10
158.102
 20
152.34399999999999
 30
0.0
 11
157.995
 21
152.34399999999999
 31
0.0
  0
LINE
  5
28E
  8
_________1
 62
     7
 10
158.102
 20
152.34399999999999
 30
0.0
 11
158.102
 21
154.328
 31
0.0
  0
LINE
  5
28F
  8
_________1
 62
     7
 10
158.315
 20
154.733
 30
0.0
 11
159.97799999999989
 21
154.733
 31
0.0
  0
LINE
  5
290
  8
_________1
 62
     7
 10
158.315
 20
153.94399999999999
 30
0.0
 11
159.97799999999989
 21
153.94399999999999
 31
0.0
  0
LINE
  5
291
  8
_________1
 62
     7
 10
157.952
 20
152.387
 30
0.0
 11
157.952
 21
156.291
 31
0.0
  0
LINE
  5
292
  8
_________1
 62
     7
 10
160.17099999999999
 20
155.011
 30
0.0
 11
160.149
 21
154.86099999999999
 31
0.0
  0
LINE
  5
293
  8
_________1
 62
     7
 10
160.149
 20
154.86099999999999
 30
0.0
 11
160.21299999999999
 21
154.691
 31
0.0
  0
LINE
  5
294
  8
_________1
 62
     7
 10
160.149
 20
154.96799999999999
 30
0.0
 11
160.149
 21
153.709
 31
0.0
  0
LINE
  5
295
  8
_________1
 62
     7
 10
160.21299999999999
 20
153.965
 30
0.0
 11
160.149
 21
153.816
 31
0.0
  0
LINE
  5
296
  8
_________1
 62
     7
 10
160.149
 20
153.816
 30
0.0
 11
160.17099999999999
 21
153.64500000000001
 31
0.0
  0
LINE
  5
297
  8
_________1
 62
     7
 10
160.21299999999999
 20
154.691
 30
0.0
 11
160.149
 21
154.328
 31
0.0
  0
LINE
  5
298
  8
_________1
 62
     7
 10
160.149
 20
154.328
 30
0.0
 11
160.21299999999999
 21
153.965
 31
0.0
  0
LINE
  5
299
  8
_________1
 62
     7
 10
160.21299999999999
 20
153.60300000000001
 30
0.0
 11
160.149
 21
153.709
 31
0.0
  0
LINE
  5
29A
  8
_________1
 62
     7
 10
160.21299999999999
 20
155.07400000000001
 30
0.0
 11
160.149
 21
154.96799999999999
 31
0.0
  0
LINE
  5
29B
  8
_________1
 62
     7
 10
160.768
 20
154.691
 30
0.0
 11
160.81
 21
154.86099999999999
 31
0.0
  0
LINE
  5
29C
  8
_________1
 62
     7
 10
160.81
 20
154.86099999999999
 30
0.0
 11
160.78899999999999
 21
155.011
 31
0.0
  0
LINE
  5
29D
  8
_________1
 62
     7
 10
160.768
 20
153.965
 30
0.0
 11
160.81
 21
154.328
 31
0.0
  0
LINE
  5
29E
  8
_________1
 62
     7
 10
160.81
 20
154.328
 30
0.0
 11
160.768
 21
154.691
 31
0.0
  0
LINE
  5
29F
  8
_________1
 62
     7
 10
160.78899999999999
 20
153.64500000000001
 30
0.0
 11
160.81
 21
153.816
 31
0.0
  0
LINE
  5
2A0
  8
_________1
 62
     7
 10
160.81
 20
153.816
 30
0.0
 11
160.768
 21
153.965
 31
0.0
  0
LINE
  5
2A1
  8
_________1
 62
     7
 10
160.768
 20
153.60300000000001
 30
0.0
 11
160.81
 21
153.709
 31
0.0
  0
LINE
  5
2A2
  8
_________1
 62
     7
 10
160.768
 20
155.07400000000001
 30
0.0
 11
160.81
 21
154.96799999999999
 31
0.0
  0
LINE
  5
2A3
  8
_________1
 62
     7
 10
160.768
 20
154.691
 30
0.0
 11
160.21299999999999
 21
154.691
 31
0.0
  0
LINE
  5
2A4
  8
_________1
 62
     7
 10
160.768
 20
153.60300000000001
 30
0.0
 11
160.21299999999999
 21
153.60300000000001
 31
0.0
  0
LINE
  5
2A5
  8
_________1
 62
     7
 10
160.768
 20
153.965
 30
0.0
 11
160.21299999999999
 21
153.965
 31
0.0
  0
LINE
  5
2A6
  8
_________1
 62
     7
 10
160.768
 20
155.07400000000001
 30
0.0
 11
160.21299999999999
 21
155.07400000000001
 31
0.0
  0
LINE
  5
2A7
  8
_________1
 62
     7
 10
160.81
 20
153.709
 30
0.0
 11
160.81
 21
154.96799999999999
 31
0.0
  0
LINE
  5
2A8
  8
_________1
 62
     7
 10
131.053
 20
174.44300000000001
 30
0.0
 11
131.37299999999999
 21
174.059
 31
0.0
  0
LINE
  5
2A9
  8
_________1
 62
     7
 10
131.39500000000001
 20
174.37899999999999
 30
0.0
 11
131.715
 21
173.995
 31
0.0
  0
LINE
  5
2AA
  8
_________1
 62
     7
 10
131.715
 20
174.33600000000001
 30
0.0
 11
132.03399999999999
 21
173.93100000000001
 31
0.0
  0
LINE
  5
2AB
  8
_________1
 62
     7
 10
132.01300000000001
 20
174.27199999999999
 30
0.0
 11
132.333
 21
173.88900000000001
 31
0.0
  0
LINE
  5
2AC
  8
_________1
 62
     7
 10
132.333
 20
174.22999999999999
 30
0.0
 11
132.65299999999999
 21
173.82400000000001
 31
0.0
  0
LINE
  5
2AD
  8
_________1
 62
     7
 10
132.65299999999999
 20
174.166
 30
0.0
 11
132.97399999999999
 21
173.75999999999999
 31
0.0
  0
LINE
  5
2AE
  8
_________1
 62
     7
 10
132.97399999999999
 20
174.101
 30
0.0
 11
133.29300000000001
 21
173.71799999999999
 31
0.0
  0
LINE
  5
2AF
  8
_________1
 62
     7
 10
133.22900000000001
 20
174.059
 30
0.0
 11
133.55000000000001
 21
173.654
 31
0.0
  0
LINE
  5
2B0
  8
_________1
 62
     7
 10
133.52799999999999
 20
173.995
 30
0.0
 11
133.84800000000001
 21
173.61099999999999
 31
0.0
  0
LINE
  5
2B1
  8
_________1
 62
     7
 10
133.84800000000001
 20
173.952
 30
0.0
 11
134.14699999999999
 21
173.547
 31
0.0
  0
LINE
  5
2B2
  8
_________1
 62
     7
 10
134.125
 20
173.88900000000001
 30
0.0
 11
134.44499999999999
 21
173.50399999999999
 31
0.0
  0
LINE
  5
2B3
  8
_________1
 62
     7
 10
134.46600000000001
 20
173.846
 30
0.0
 11
134.76499999999999
 21
173.441
 31
0.0
  0
LINE
  5
2B4
  8
_________1
 62
     7
 10
157.952
 20
226.334
 30
0.0
 11
157.952
 21
232.928
 31
0.0
  0
LINE
  5
2B5
  8
_________1
 62
     7
 10
157.952
 20
226.334
 30
0.0
 11
157.90899999999999
 21
226.291
 31
0.0
  0
LINE
  5
2B6
  8
_________1
 62
     7
 10
157.90899999999999
 20
232.971
 30
0.0
 11
157.035
 21
232.971
 31
0.0
  0
LINE
  5
2B7
  8
_________1
 62
     7
 10
157.90899999999999
 20
226.291
 30
0.0
 11
156.80000000000001
 21
226.291
 31
0.0
  0
LINE
  5
2B8
  8
_________1
 62
     7
 10
157.952
 20
232.928
 30
0.0
 11
157.90899999999999
 21
232.971
 31
0.0
  0
LINE
  5
2B9
  8
_________1
 62
     7
 10
157.952
 20
248.17599999999999
 30
0.0
 11
157.952
 21
241.56100000000001
 31
0.0
  0
LINE
  5
2BA
  8
_________1
 62
     7
 10
157.952
 20
248.17599999999999
 30
0.0
 11
157.90899999999999
 21
248.197
 31
0.0
  0
LINE
  5
2BB
  8
_________1
 62
     7
 10
157.90899999999999
 20
241.53899999999999
 30
0.0
 11
157.035
 21
241.53899999999999
 31
0.0
  0
LINE
  5
2BC
  8
_________1
 62
     7
 10
157.90899999999999
 20
248.197
 30
0.0
 11
156.80000000000001
 21
248.197
 31
0.0
  0
LINE
  5
2BD
  8
_________1
 62
     7
 10
157.952
 20
241.56100000000001
 30
0.0
 11
157.90899999999999
 21
241.53899999999999
 31
0.0
  0
LINE
  5
2BE
  8
_________1
 62
     7
 10
162.56
 20
152.87700000000001
 30
0.0
 11
162.58099999999999
 21
152.792
 31
0.0
  0
LINE
  5
2BF
  8
_________1
 62
     7
 10
162.58099999999999
 20
152.792
 30
0.0
 11
162.666
 21
152.70699999999999
 31
0.0
  0
LINE
  5
2C0
  8
_________1
 62
     7
 10
162.666
 20
152.70699999999999
 30
0.0
 11
162.773
 21
152.68600000000001
 31
0.0
  0
LINE
  5
2C1
  8
_________1
 62
     7
 10
162.773
 20
152.68600000000001
 30
0.0
 11
162.90100000000001
 21
152.68600000000001
 31
0.0
  0
LINE
  5
2C2
  8
_________1
 62
     7
 10
163.166
 20
152.81299999999999
 30
0.0
 11
162.90100000000001
 21
152.81299999999999
 31
0.0
  0
LINE
  5
2C3
  8
_________1
 62
     7
 10
162.90100000000001
 20
155.99199999999999
 30
0.0
 11
162.773
 21
155.99199999999999
 31
0.0
  0
LINE
  5
2C4
  8
_________1
 62
     7
 10
163.166
 20
155.84200000000001
 30
0.0
 11
162.90100000000001
 21
155.84200000000001
 31
0.0
  0
LINE
  5
2C5
  8
_________1
 62
     7
 10
162.773
 20
155.99199999999999
 30
0.0
 11
162.666
 21
155.94900000000001
 31
0.0
  0
LINE
  5
2C6
  8
_________1
 62
     7
 10
162.666
 20
155.94900000000001
 30
0.0
 11
162.58099999999999
 21
155.88499999999999
 31
0.0
  0
LINE
  5
2C7
  8
_________1
 62
     7
 10
162.58099999999999
 20
155.88499999999999
 30
0.0
 11
162.56
 21
155.77799999999999
 31
0.0
  0
LINE
  5
2C8
  8
_________1
 62
     7
 10
162.13300000000001
 20
154.71199999999999
 30
0.0
 11
162.048
 21
154.71199999999999
 31
0.0
  0
LINE
  5
2C9
  8
_________1
 62
     7
 10
162.13300000000001
 20
153.965
 30
0.0
 11
162.048
 21
153.965
 31
0.0
  0
LINE
  5
2CA
  8
_________1
 62
     7
 10
162.048
 20
153.94399999999999
 30
0.0
 11
160.149
 21
153.94399999999999
 31
0.0
  0
LINE
  5
2CB
  8
_________1
 62
     7
 10
162.048
 20
154.733
 30
0.0
 11
160.149
 21
154.733
 31
0.0
  0
LINE
  5
2CC
  8
_________1
 62
     7
 10
162.048
 20
154.66900000000001
 30
0.0
 11
160.149
 21
154.66900000000001
 31
0.0
  0
LINE
  5
2CD
  8
_________1
 62
     7
 10
162.048
 20
154.00800000000001
 30
0.0
 11
160.149
 21
154.00800000000001
 31
0.0
  0
LINE
  5
2CE
  8
_________1
 62
     7
 10
162.048
 20
154.733
 30
0.0
 11
162.048
 21
153.94399999999999
 31
0.0
  0
LINE
  5
2CF
  8
_________1
 62
     7
 10
162.47399999999999
 20
154.60499999999999
 30
0.0
 11
162.197
 21
154.60499999999999
 31
0.0
  0
LINE
  5
2D0
  8
_________1
 62
     7
 10
162.47399999999999
 20
154.072
 30
0.0
 11
162.197
 21
154.072
 31
0.0
  0
LINE
  5
2D1
  8
_________1
 62
     7
 10
162.47399999999999
 20
154.88200000000001
 30
0.0
 11
162.197
 21
154.88200000000001
 31
0.0
  0
LINE
  5
2D2
  8
_________1
 62
     7
 10
162.47399999999999
 20
153.79499999999999
 30
0.0
 11
162.197
 21
153.79499999999999
 31
0.0
  0
LINE
  5
2D3
  8
_________1
 62
     7
 10
162.13300000000001
 20
154.733
 30
0.0
 11
162.13300000000001
 21
153.923
 31
0.0
  0
LINE
  5
2D4
  8
_________1
 62
     7
 10
162.197
 20
154.60499999999999
 30
0.0
 11
162.13300000000001
 21
154.328
 31
0.0
  0
LINE
  5
2D5
  8
_________1
 62
     7
 10
162.13300000000001
 20
154.328
 30
0.0
 11
162.197
 21
154.072
 31
0.0
  0
LINE
  5
2D6
  8
_________1
 62
     7
 10
162.13300000000001
 20
154.029
 30
0.0
 11
162.13300000000001
 21
153.923
 31
0.0
  0
LINE
  5
2D7
  8
_________1
 62
     7
 10
162.13300000000001
 20
153.923
 30
0.0
 11
162.197
 21
154.072
 31
0.0
  0
LINE
  5
2D8
  8
_________1
 62
     7
 10
162.13300000000001
 20
153.923
 30
0.0
 11
162.197
 21
153.79499999999999
 31
0.0
  0
LINE
  5
2D9
  8
_________1
 62
     7
 10
162.197
 20
154.88200000000001
 30
0.0
 11
162.13300000000001
 21
154.733
 31
0.0
  0
LINE
  5
2DA
  8
_________1
 62
     7
 10
162.13300000000001
 20
154.733
 30
0.0
 11
162.197
 21
154.60499999999999
 31
0.0
  0
LINE
  5
2DB
  8
_________1
 62
     7
 10
163.166
 20
155.84200000000001
 30
0.0
 11
163.166
 21
152.81299999999999
 31
0.0
  0
LINE
  5
2DC
  8
_________1
 62
     7
 10
162.56
 20
152.87700000000001
 30
0.0
 11
162.56
 21
155.77799999999999
 31
0.0
  0
LINE
  5
2DD
  8
_________1
 62
     7
 10
162.90100000000001
 20
154.328
 30
0.0
 11
162.90100000000001
 21
155.99199999999999
 31
0.0
  0
LINE
  5
2DE
  8
_________1
 62
     7
 10
162.90100000000001
 20
155.84200000000001
 30
0.0
 11
162.90100000000001
 21
152.68600000000001
 31
0.0
  0
LINE
  5
2DF
  8
_________1
 62
     7
 10
162.56
 20
155.16
 30
0.0
 11
162.47399999999999
 21
155.16
 31
0.0
  0
LINE
  5
2E0
  8
_________1
 62
     7
 10
162.56
 20
153.49600000000001
 30
0.0
 11
162.47399999999999
 21
153.49600000000001
 31
0.0
  0
LINE
  5
2E1
  8
_________1
 62
     7
 10
162.47399999999999
 20
153.49600000000001
 30
0.0
 11
162.47399999999999
 21
155.16
 31
0.0
  0
LINE
  5
2E2
  8
_________1
 62
     7
 10
157.952
 20
157.65600000000001
 30
0.0
 11
157.90899999999999
 21
157.67699999999999
 31
0.0
  0
LINE
  5
2E3
  8
_________1
 62
     7
 10
157.952
 20
151.04300000000001
 30
0.0
 11
157.952
 21
157.65600000000001
 31
0.0
  0
LINE
  5
2E4
  8
_________1
 62
     7
 10
157.952
 20
151.04300000000001
 30
0.0
 11
157.90899999999999
 21
151.02199999999999
 31
0.0
  0
LINE
  5
2E5
  8
_________1
 62
     7
 10
157.90899999999999
 20
157.67699999999999
 30
0.0
 11
156.971
 21
157.67699999999999
 31
0.0
  0
LINE
  5
2E6
  8
_________1
 62
     7
 10
157.90899999999999
 20
151.02199999999999
 30
0.0
 11
156.821
 21
151.02199999999999
 31
0.0
  0
LINE
  5
2E7
  8
_________1
 62
     7
 10
162.56
 20
109.20999999999999
 30
0.0
 11
162.58099999999999
 21
109.124
 31
0.0
  0
LINE
  5
2E8
  8
_________1
 62
     7
 10
162.58099999999999
 20
109.124
 30
0.0
 11
162.666
 21
109.039
 31
0.0
  0
LINE
  5
2E9
  8
_________1
 62
     7
 10
162.666
 20
109.039
 30
0.0
 11
162.773
 21
109.018
 31
0.0
  0
LINE
  5
2EA
  8
_________1
 62
     7
 10
162.773
 20
109.018
 30
0.0
 11
162.90100000000001
 21
109.018
 31
0.0
  0
LINE
  5
2EB
  8
_________1
 62
     7
 10
163.166
 20
109.146
 30
0.0
 11
162.90100000000001
 21
109.146
 31
0.0
  0
LINE
  5
2EC
  8
_________1
 62
     7
 10
162.90100000000001
 20
112.324
 30
0.0
 11
162.773
 21
112.324
 31
0.0
  0
LINE
  5
2ED
  8
_________1
 62
     7
 10
163.166
 20
112.175
 30
0.0
 11
162.90100000000001
 21
112.175
 31
0.0
  0
LINE
  5
2EE
  8
_________1
 62
     7
 10
162.773
 20
112.324
 30
0.0
 11
162.666
 21
112.282
 31
0.0
  0
LINE
  5
2EF
  8
_________1
 62
     7
 10
162.666
 20
112.282
 30
0.0
 11
162.58099999999999
 21
112.217
 31
0.0
  0
LINE
  5
2F0
  8
_________1
 62
     7
 10
162.58099999999999
 20
112.217
 30
0.0
 11
162.56
 21
112.111
 31
0.0
  0
LINE
  5
2F1
  8
_________1
 62
     7
 10
162.13300000000001
 20
111.023
 30
0.0
 11
162.048
 21
111.023
 31
0.0
  0
LINE
  5
2F2
  8
_________1
 62
     7
 10
162.13300000000001
 20
110.297
 30
0.0
 11
162.048
 21
110.297
 31
0.0
  0
LINE
  5
2F3
  8
_________1
 62
     7
 10
162.048
 20
110.255
 30
0.0
 11
160.149
 21
110.255
 31
0.0
  0
LINE
  5
2F4
  8
_________1
 62
     7
 10
162.048
 20
111.065
 30
0.0
 11
160.149
 21
111.065
 31
0.0
  0
LINE
  5
2F5
  8
_________1
 62
     7
 10
162.048
 20
111.002
 30
0.0
 11
160.149
 21
111.002
 31
0.0
  0
LINE
  5
2F6
  8
_________1
 62
     7
 10
162.048
 20
110.34
 30
0.0
 11
160.149
 21
110.34
 31
0.0
  0
LINE
  5
2F7
  8
_________1
 62
     7
 10
162.048
 20
111.065
 30
0.0
 11
162.048
 21
110.255
 31
0.0
  0
LINE
  5
2F8
  8
_________1
 62
     7
 10
162.47399999999999
 20
110.938
 30
0.0
 11
162.197
 21
110.938
 31
0.0
  0
LINE
  5
2F9
  8
_________1
 62
     7
 10
162.47399999999999
 20
110.405
 30
0.0
 11
162.197
 21
110.405
 31
0.0
  0
LINE
  5
2FA
  8
_________1
 62
     7
 10
162.47399999999999
 20
111.215
 30
0.0
 11
162.197
 21
111.215
 31
0.0
  0
LINE
  5
2FB
  8
_________1
 62
     7
 10
162.47399999999999
 20
110.127
 30
0.0
 11
162.197
 21
110.127
 31
0.0
  0
LINE
  5
2FC
  8
_________1
 62
     7
 10
162.13300000000001
 20
111.065
 30
0.0
 11
162.13300000000001
 21
110.255
 31
0.0
  0
LINE
  5
2FD
  8
_________1
 62
     7
 10
162.197
 20
110.938
 30
0.0
 11
162.13300000000001
 21
110.66
 31
0.0
  0
LINE
  5
2FE
  8
_________1
 62
     7
 10
162.13300000000001
 20
110.66
 30
0.0
 11
162.197
 21
110.405
 31
0.0
  0
LINE
  5
2FF
  8
_________1
 62
     7
 10
162.13300000000001
 20
110.34
 30
0.0
 11
162.13300000000001
 21
110.255
 31
0.0
  0
LINE
  5
300
  8
_________1
 62
     7
 10
162.13300000000001
 20
110.255
 30
0.0
 11
162.197
 21
110.405
 31
0.0
  0
LINE
  5
301
  8
_________1
 62
     7
 10
162.13300000000001
 20
110.255
 30
0.0
 11
162.197
 21
110.127
 31
0.0
  0
LINE
  5
302
  8
_________1
 62
     7
 10
162.197
 20
111.215
 30
0.0
 11
162.13300000000001
 21
111.065
 31
0.0
  0
LINE
  5
303
  8
_________1
 62
     7
 10
162.13300000000001
 20
111.065
 30
0.0
 11
162.197
 21
110.938
 31
0.0
  0
LINE
  5
304
  8
_________1
 62
     7
 10
163.166
 20
112.175
 30
0.0
 11
163.166
 21
109.146
 31
0.0
  0
LINE
  5
305
  8
_________1
 62
     7
 10
162.56
 20
109.20999999999999
 30
0.0
 11
162.56
 21
112.111
 31
0.0
  0
LINE
  5
306
  8
_________1
 62
     7
 10
162.90100000000001
 20
110.66
 30
0.0
 11
162.90100000000001
 21
112.324
 31
0.0
  0
LINE
  5
307
  8
_________1
 62
     7
 10
162.90100000000001
 20
112.175
 30
0.0
 11
162.90100000000001
 21
109.018
 31
0.0
  0
LINE
  5
308
  8
_________1
 62
     7
 10
162.56
 20
111.492
 30
0.0
 11
162.47399999999999
 21
111.492
 31
0.0
  0
LINE
  5
309
  8
_________1
 62
     7
 10
162.56
 20
109.82899999999999
 30
0.0
 11
162.47399999999999
 21
109.82899999999999
 31
0.0
  0
LINE
  5
30A
  8
_________1
 62
     7
 10
162.47399999999999
 20
109.82899999999999
 30
0.0
 11
162.47399999999999
 21
111.492
 31
0.0
  0
LINE
  5
30B
  8
_________1
 62
     7
 10
157.952
 20
113.92400000000001
 30
0.0
 11
157.90899999999999
 21
113.967
 31
0.0
  0
LINE
  5
30C
  8
_________1
 62
     7
 10
157.952
 20
107.333
 30
0.0
 11
157.952
 21
113.92400000000001
 31
0.0
  0
LINE
  5
30D
  8
_________1
 62
     7
 10
157.952
 20
107.333
 30
0.0
 11
157.90899999999999
 21
107.29000000000001
 31
0.0
  0
LINE
  5
30E
  8
_________1
 62
     7
 10
157.90899999999999
 20
113.946
 30
0.0
 11
156.03200000000001
 21
113.946
 31
0.0
  0
LINE
  5
30F
  8
_________1
 62
     7
 10
157.90899999999999
 20
107.29000000000001
 30
0.0
 11
155.755
 21
107.29000000000001
 31
0.0
  0
ARC
  5
310
  8
_________1
 62
     7
 10
-36.550750000000001
 20
237.24421100000001
 30
0.0
 40
193.64841699999999
 50
356.604221
 51
3.3957790000000001
  0
ARC
  5
311
  8
_________1
 62
     7
 10
-52.778185999999991
 20
237.24421100000001
 30
0.0
 40
209.528841
 50
356.867614
 51
3.132385999999999
  0
LINE
  5
312
  8
_________1
 62
     7
 10
129.83799999999999
 20
212.244
 30
0.0
 11
129.83799999999999
 21
262.245
 31
0.0
  0
LINE
  5
313
  8
_________1
 62
     7
 10
127.833
 20
213.46000000000001
 30
0.0
 11
127.833
 21
261.02800000000002
 31
0.0
  0
ARC
  5
314
  8
_________1
 62
     7
 10
247.79238799999999
 20
237.24421100000001
 30
0.0
 40
123.626914
 50
169.673057
 51
190.326943
  0
ARC
  5
315
  8
_________1
 62
     7
 10
150.64931000000001
 20
226.22137499999999
 30
0.0
 40
5.8039879999999986
 50
283.03387400000003
 51
355.78593699999999
  0
LINE
  5
316
  8
_________1
 62
     7
 10
151.958
 20
220.56700000000001
 30
0.0
 11
129.90199999999999
 21
215.82900000000001
 31
0.0
  0
LINE
  5
317
  8
_________1
 62
     7
 10
137.47399999999999
 20
217.45099999999999
 30
0.0
 11
140.39599999999999
 21
217.899
 31
0.0
  0
LINE
  5
318
  8
_________1
 62
     7
 10
140.39599999999999
 20
217.899
 30
0.0
 11
140.56700000000001
 21
217.94200000000001
 31
0.0
  0
LINE
  5
319
  8
_________1
 62
     7
 10
140.56700000000001
 20
217.94200000000001
 30
0.0
 11
140.71700000000001
 21
218.04900000000001
 31
0.0
  0
LINE
  5
31A
  8
_________1
 62
     7
 10
140.71700000000001
 20
218.04900000000001
 30
0.0
 11
140.82300000000001
 21
218.17599999999999
 31
0.0
  0
LINE
  5
31B
  8
_________1
 62
     7
 10
129.83799999999999
 20
215.06100000000001
 30
0.0
 11
130.904
 21
215.40199999999999
 31
0.0
  0
LINE
  5
31C
  8
_________1
 62
     7
 10
126.38200000000001
 20
215.637
 30
0.0
 11
126.254
 21
215.46600000000001
 31
0.0
  0
LINE
  5
31D
  8
_________1
 62
     7
 10
126.254
 20
215.46600000000001
 30
0.0
 11
126.19
 21
215.274
 31
0.0
  0
LINE
  5
31E
  8
_________1
 62
     7
 10
126.19
 20
215.274
 30
0.0
 11
126.16800000000001
 21
215.08199999999999
 31
0.0
  0
ARC
  5
31F
  8
_________1
 62
     7
 10
126.31499100000001
 20
212.95427100000001
 30
0.0
 40
1.603321999999999
 50
0.5528960000000001
 51
60.701931000000002
  0
ARC
  5
320
  8
_________1
 62
     7
 10
126.19629500000001
 20
212.78465
 30
0.0
 40
1.809445
 50
60.052507999999989
 51
80.706220000000002
  0
LINE
  5
321
  8
_________1
 62
     7
 10
126.16800000000001
 20
215.08199999999999
 30
0.0
 11
126.211
 21
214.869
 31
0.0
  0
LINE
  5
322
  8
_________1
 62
     7
 10
126.211
 20
214.869
 30
0.0
 11
126.318
 21
214.69800000000001
 31
0.0
  0
LINE
  5
323
  8
_________1
 62
     7
 10
126.318
 20
214.69800000000001
 30
0.0
 11
126.489
 21
214.56999999999999
 31
0.0
  0
LINE
  5
324
  8
_________1
 62
     7
 10
129.83799999999999
 20
212.244
 30
0.0
 11
128.55799999999999
 21
212.32900000000001
 31
0.0
  0
LINE
  5
325
  8
_________1
 62
     7
 10
127.91800000000001
 20
212.97
 30
0.0
 11
127.95999999999999
 21
212.77799999999999
 31
0.0
  0
LINE
  5
326
  8
_________1
 62
     7
 10
127.95999999999999
 20
212.77799999999999
 30
0.0
 11
128.04599999999999
 21
212.607
 31
0.0
  0
LINE
  5
327
  8
_________1
 62
     7
 10
128.04599999999999
 20
212.607
 30
0.0
 11
128.19499999999999
 21
212.45699999999999
 31
0.0
  0
LINE
  5
328
  8
_________1
 62
     7
 10
128.19499999999999
 20
212.45699999999999
 30
0.0
 11
128.36600000000001
 21
212.351
 31
0.0
  0
LINE
  5
329
  8
_________1
 62
     7
 10
128.36600000000001
 20
212.351
 30
0.0
 11
128.55799999999999
 21
212.32900000000001
 31
0.0
  0
LINE
  5
32A
  8
_________1
 62
     7
 10
130.904
 20
215.40199999999999
 30
0.0
 11
131.80000000000001
 21
215.72200000000001
 31
0.0
  0
LINE
  5
32B
  8
_________1
 62
     7
 10
131.80000000000001
 20
215.72200000000001
 30
0.0
 11
132.65299999999999
 21
216.107
 31
0.0
  0
LINE
  5
32C
  8
_________1
 62
     7
 10
132.65299999999999
 20
216.107
 30
0.0
 11
133.464
 21
216.59700000000001
 31
0.0
  0
LINE
  5
32D
  8
_________1
 62
     7
 10
126.38200000000001
 20
215.637
 30
0.0
 11
127.833
 21
216.982
 31
0.0
  0
LINE
  5
32E
  8
_________1
 62
     7
 10
156.7579999999999
 20
225.774
 30
0.0
 11
156.43799999999999
 21
225.79499999999999
 31
0.0
  0
LINE
  5
32F
  8
_________1
 62
     7
 10
157.67400000000001
 20
235.37700000000001
 30
0.0
 11
157.67400000000001
 21
239.11199999999999
 31
0.0
  0
LINE
  5
330
  8
_________1
 62
     7
 10
157.333
 20
234.63499999999999
 30
0.0
 11
157.52500000000001
 21
234.84899999999999
 31
0.0
  0
LINE
  5
331
  8
_________1
 62
     7
 10
157.52500000000001
 20
234.84899999999999
 30
0.0
 11
157.63200000000001
 21
235.10499999999999
 31
0.0
  0
LINE
  5
332
  8
_________1
 62
     7
 10
157.63200000000001
 20
235.10499999999999
 30
0.0
 11
157.67400000000001
 21
235.38200000000001
 31
0.0
  0
LINE
  5
333
  8
_________1
 62
     7
 10
157.077
 20
234.39500000000001
 30
0.0
 11
157.333
 21
234.63
 31
0.0
  0
LINE
  5
334
  8
_________1
 62
     7
 10
157.077
 20
240.09299999999999
 30
0.0
 11
157.333
 21
239.858
 31
0.0
  0
LINE
  5
335
  8
_________1
 62
     7
 10
157.67400000000001
 20
239.11199999999999
 30
0.0
 11
157.63200000000001
 21
239.38900000000001
 31
0.0
  0
LINE
  5
336
  8
_________1
 62
     7
 10
157.63200000000001
 20
239.38900000000001
 30
0.0
 11
157.52500000000001
 21
239.64500000000001
 31
0.0
  0
LINE
  5
337
  8
_________1
 62
     7
 10
157.52500000000001
 20
239.64500000000001
 30
0.0
 11
157.333
 21
239.858
 31
0.0
  0
LINE
  5
338
  8
_________1
 62
     7
 10
151.958
 20
253.922
 30
0.0
 11
129.90199999999999
 21
258.66000000000003
 31
0.0
  0
ARC
  5
339
  8
_________1
 62
     7
 10
150.61318299999999
 20
248.236467
 30
0.0
 40
5.8423309999999988
 50
4.4871109999999987
 51
76.689347999999995
  0
LINE
  5
33A
  8
_________1
 62
     7
 10
156.43799999999999
 20
248.69399999999999
 30
0.0
 11
156.7579999999999
 21
248.715
 31
0.0
  0
LINE
  5
33B
  8
_________1
 62
     7
 10
140.82300000000001
 20
256.31200000000001
 30
0.0
 11
140.71700000000001
 21
256.44
 31
0.0
  0
LINE
  5
33C
  8
_________1
 62
     7
 10
140.71700000000001
 20
256.44
 30
0.0
 11
140.56700000000001
 21
256.54700000000003
 31
0.0
  0
LINE
  5
33D
  8
_________1
 62
     7
 10
140.56700000000001
 20
256.54700000000003
 30
0.0
 11
140.39599999999999
 21
256.589
 31
0.0
  0
LINE
  5
33E
  8
_________1
 62
     7
 10
140.39599999999999
 20
256.589
 30
0.0
 11
137.47399999999999
 21
257.03800000000001
 31
0.0
  0
ARC
  5
33F
  8
_________1
 62
     7
 10
126.18589799999999
 20
261.69424299999997
 30
0.0
 40
1.8014209999999991
 50
279.670839
 51
325.43628699999999
  0
ARC
  5
340
  8
_________1
 62
     7
 10
126.363148
 20
261.51612999999998
 30
0.0
 40
1.555091999999999
 50
327.13568800000002
 51
0.106613
  0
LINE
  5
341
  8
_________1
 62
     7
 10
126.489
 20
259.91800000000001
 30
0.0
 11
126.318
 21
259.79000000000002
 31
0.0
  0
LINE
  5
342
  8
_________1
 62
     7
 10
126.318
 20
259.79000000000002
 30
0.0
 11
126.211
 21
259.62
 31
0.0
  0
LINE
  5
343
  8
_________1
 62
     7
 10
126.211
 20
259.62
 30
0.0
 11
126.16800000000001
 21
259.40600000000001
 31
0.0
  0
LINE
  5
344
  8
_________1
 62
     7
 10
126.489
 20
259.91800000000001
 30
0.0
 11
126.29600000000001
 21
259.74799999999999
 31
0.0
  0
LINE
  5
345
  8
_________1
 62
     7
 10
126.29600000000001
 20
259.74799999999999
 30
0.0
 11
126.19
 21
259.53399999999999
 31
0.0
  0
LINE
  5
346
  8
_________1
 62
     7
 10
129.83799999999999
 20
259.42700000000002
 30
0.0
 11
130.904
 21
259.08600000000001
 31
0.0
  0
LINE
  5
347
  8
_________1
 62
     7
 10
126.38200000000001
 20
258.851
 30
0.0
 11
127.833
 21
257.50700000000001
 31
0.0
  0
LINE
  5
348
  8
_________1
 62
     7
 10
126.16800000000001
 20
259.40600000000001
 30
0.0
 11
126.19
 21
259.214
 31
0.0
  0
LINE
  5
349
  8
_________1
 62
     7
 10
126.19
 20
259.214
 30
0.0
 11
126.254
 21
259.02199999999999
 31
0.0
  0
LINE
  5
34A
  8
_________1
 62
     7
 10
126.254
 20
259.02199999999999
 30
0.0
 11
126.38200000000001
 21
258.851
 31
0.0
  0
LINE
  5
34B
  8
_________1
 62
     7
 10
133.464
 20
257.89100000000002
 30
0.0
 11
132.65299999999999
 21
258.38200000000001
 31
0.0
  0
LINE
  5
34C
  8
_________1
 62
     7
 10
132.65299999999999
 20
258.38200000000001
 30
0.0
 11
131.80000000000001
 21
258.76600000000002
 31
0.0
  0
LINE
  5
34D
  8
_________1
 62
     7
 10
131.80000000000001
 20
258.76600000000002
 30
0.0
 11
130.904
 21
259.08600000000001
 31
0.0
  0
LINE
  5
34E
  8
_________1
 62
     7
 10
129.83799999999999
 20
262.245
 30
0.0
 11
128.536
 21
262.15899999999999
 31
0.0
  0
LINE
  5
34F
  8
_________1
 62
     7
 10
128.536
 20
262.15899999999999
 30
0.0
 11
128.32300000000001
 21
262.11599999999999
 31
0.0
  0
LINE
  5
350
  8
_________1
 62
     7
 10
128.32300000000001
 20
262.11599999999999
 30
0.0
 11
128.15299999999999
 21
262.00999999999999
 31
0.0
  0
LINE
  5
351
  8
_________1
 62
     7
 10
128.15299999999999
 20
262.00999999999999
 30
0.0
 11
128.00299999999999
 21
261.839
 31
0.0
  0
LINE
  5
352
  8
_________1
 62
     7
 10
128.00299999999999
 20
261.839
 30
0.0
 11
127.93899999999999
 21
261.625
 31
0.0
  0
LINE
  5
353
  8
_________1
 62
     7
 10
127.93899999999999
 20
261.625
 30
0.0
 11
127.91800000000001
 21
261.41199999999998
 31
0.0
  0
ARC
  5
354
  8
_________1
 62
     7
 10
18.767022000000001
 20
129.46168599999999
 30
0.0
 40
32.995725
 50
2.916974999999999
 51
16.012841999999999
  0
LINE
  5
355
  8
_________1
 62
     7
 10
90.073499999999996
 20
121.22199999999999
 30
0.0
 11
90.435900000000004
 21
119.81399999999999
 31
0.0
  0
LINE
  5
356
  8
_________1
 62
     7
 10
90.435900000000004
 20
119.81399999999999
 30
0.0
 11
90.884100000000004
 21
118.42700000000001
 31
0.0
  0
LINE
  5
357
  8
_________1
 62
     7
 10
73.584400000000002
 20
168.89699999999999
 30
0.0
 11
72.005899999999997
 21
168.982
 31
0.0
  0
LINE
  5
358
  8
_________1
 62
     7
 10
72.005899999999997
 20
168.982
 30
0.0
 11
70.427300000000002
 21
169.00399999999999
 31
0.0
  0
LINE
  5
359
  8
_________1
 62
     7
 10
70.427300000000002
 20
169.00399999999999
 30
0.0
 11
68.869799999999998
 21
168.982
 31
0.0
  0
LINE
  5
35A
  8
_________1
 62
     7
 10
68.869799999999998
 20
168.982
 30
0.0
 11
67.291600000000003
 21
168.89699999999999
 31
0.0
  0
LINE
  5
35B
  8
_________1
 62
     7
 10
73.840400000000002
 20
174.221
 30
0.0
 11
72.134
 21
174.30600000000001
 31
0.0
  0
LINE
  5
35C
  8
_________1
 62
     7
 10
72.134
 20
174.30600000000001
 30
0.0
 11
70.427300000000002
 21
174.328
 31
0.0
  0
LINE
  5
35D
  8
_________1
 62
     7
 10
70.427300000000002
 20
174.328
 30
0.0
 11
68.7423
 21
174.30600000000001
 31
0.0
  0
LINE
  5
35E
  8
_________1
 62
     7
 10
68.7423
 20
174.30600000000001
 30
0.0
 11
67.035600000000002
 21
174.221
 31
0.0
  0
LINE
  5
35F
  8
_________1
 62
     7
 10
73.520399999999995
 20
176.57599999999999
 30
0.0
 11
71.984499999999997
 21
176.63999999999999
 31
0.0
  0
LINE
  5
360
  8
_________1
 62
     7
 10
71.984499999999997
 20
176.63999999999999
 30
0.0
 11
70.427300000000002
 21
176.661
 31
0.0
  0
LINE
  5
361
  8
_________1
 62
     7
 10
70.427300000000002
 20
176.661
 30
0.0
 11
68.891499999999994
 21
176.63999999999999
 31
0.0
  0
LINE
  5
362
  8
_________1
 62
     7
 10
68.891499999999994
 20
176.63999999999999
 30
0.0
 11
67.355699999999999
 21
176.57599999999999
 31
0.0
  0
ARC
  5
363
  8
_________1
 62
     7
 10
62.131231999999997
 20
109.14119700000001
 30
0.0
 40
11.095431
 50
174.890354
 51
263.36674900000003
  0
ARC
  5
364
  8
_________1
 62
     7
 10
71.251754000000005
 20
107.15695100000001
 30
0.0
 40
23.492968000000001
 50
182.01195699999991
 51
267.988944
  0
ARC
  5
365
  8
_________1
 62
     7
 10
69.594003000000001
 20
107.187645
 30
0.0
 40
23.523955999999998
 50
272.03010599999999
 51
357.91590600000001
  0
LINE
  5
366
  8
_________1
 62
     7
 10
77.103999999999985
 20
97.479900000000015
 30
0.0
 11
78.490600000000001
 21
97.735900000000001
 31
0.0
  0
LINE
  5
367
  8
_________1
 62
     7
 10
78.490600000000001
 20
97.735900000000001
 30
0.0
 11
79.855599999999995
 21
98.077299999999994
 31
0.0
  0
LINE
  5
368
  8
_________1
 62
     7
 10
79.855599999999995
 20
98.077299999999994
 30
0.0
 11
81.199500000000015
 21
98.525199999999998
 31
0.0
  0
LINE
  5
369
  8
_________1
 62
     7
 10
78.341099999999983
 20
103.773
 30
0.0
 11
79.749099999999999
 21
104.114
 31
0.0
  0
LINE
  5
36A
  8
_________1
 62
     7
 10
79.749099999999999
 20
104.114
 30
0.0
 11
81.135400000000004
 21
104.541
 31
0.0
  0
ARC
  5
36B
  8
_________1
 62
     7
 10
78.190026000000003
 20
106.423649
 30
0.0
 40
8.4523820000000001
 50
290.85798
 51
345.191936
  0
ARC
  5
36C
  8
_________1
 62
     7
 10
78.681195999999986
 20
109.192924
 30
0.0
 40
11.154303000000001
 50
276.927009
 51
4.8158890000000003
  0
LINE
  5
36D
  8
_________1
 62
     7
 10
86.361699999999985
 20
104.26300000000001
 30
0.0
 11
86.638999999999996
 21
105.43600000000001
 31
0.0
  0
LINE
  5
36E
  8
_________1
 62
     7
 10
86.638999999999996
 20
105.43600000000001
 30
0.0
 11
86.830899999999986
 21
106.631
 31
0.0
  0
ARC
  5
36F
  8
_________1
 62
     7
 10
79.041406999999992
 20
110.271514
 30
0.0
 40
6.1014049999999997
 50
290.07226500000002
 51
345.69613700000002
  0
ARC
  5
370
  8
_________1
 62
     7
 10
62.234194000000002
 20
106.215773
 30
0.0
 40
7.9836339999999986
 50
194.15527599999999
 51
214.863946
  0
ARC
  5
371
  8
_________1
 62
     7
 10
62.748404999999998
 20
106.507172
 30
0.0
 40
8.5722979999999982
 50
214.49739099999999
 51
242.268428
  0
ARC
  5
372
  8
_________1
 62
     7
 10
62.165481999999997
 20
105.577011
 30
0.0
 40
7.4781880000000003
 50
242.905395
 51
250.55918700000001
  0
ARC
  5
373
  8
_________1
 62
     7
 10
70.427325999999994
 20
145.11146099999999
 30
0.0
 40
48.097188000000003
 50
262.02069799999998
 51
277.97932200000002
  0
LINE
  5
374
  8
_________1
 62
     7
 10
59.67649999999999
 20
98.525199999999998
 30
0.0
 11
61.020400000000002
 21
98.077299999999994
 31
0.0
  0
LINE
  5
375
  8
_________1
 62
     7
 10
61.020400000000002
 20
98.077299999999994
 30
0.0
 11
62.36399999999999
 21
97.735900000000001
 31
0.0
  0
LINE
  5
376
  8
_________1
 62
     7
 10
62.36399999999999
 20
97.735900000000001
 30
0.0
 11
63.750700000000002
 21
97.479900000000015
 31
0.0
  0
ARC
  5
377
  8
_________1
 62
     7
 10
70.427154000000002
 20
143.829275
 30
0.0
 40
40.830781999999999
 50
258.824027
 51
281.17599300000001
  0
LINE
  5
378
  8
_________1
 62
     7
 10
54.045099999999998
 20
106.631
 30
0.0
 11
54.237000000000002
 21
105.43600000000001
 31
0.0
  0
LINE
  5
379
  8
_________1
 62
     7
 10
54.237000000000002
 20
105.43600000000001
 30
0.0
 11
54.493000000000002
 21
104.26300000000001
 31
0.0
  0
ARC
  5
37A
  8
_________1
 62
     7
 10
63.423788999999992
 20
110.9160389999999
 30
0.0
 40
7.8248740000000003
 50
195.96297999999999
 51
207.11356499999999
  0
ARC
  5
37B
  8
_________1
 62
     7
 10
61.531835999999998
 20
110.02793200000001
 30
0.0
 40
5.7365259999999996
 50
207.830298
 51
241.56985499999999
  0
ARC
  5
37C
  8
_________1
 62
     7
 10
62.589116000000011
 20
111.85435699999999
 30
0.0
 40
7.8462690000000004
 50
241.13002200000011
 51
248.294918
  0
ARC
  5
37D
  8
_________1
 62
     7
 10
63.863126000000001
 20
114.953599
 30
0.0
 40
11.197003
 50
248.10307
 51
254.441059
  0
ARC
  5
37E
  8
_________1
 62
     7
 10
65.734815999999995
 20
121.28470900000001
 30
0.0
 40
17.798462000000001
 50
254.10333700000001
 51
257.142563
  0
ARC
  5
37F
  8
_________1
 62
     7
 10
68.017662000000001
 20
131.03022799999999
 30
0.0
 40
27.807680000000001
 50
257.02516900000001
 51
258.583054
  0
ARC
  5
380
  8
_________1
 62
     7
 10
62.187337999999997
 20
157.725528
 30
0.0
 40
1.275989
 50
93.562207999999998
 51
118.595434
  0
ARC
  5
381
  8
_________1
 62
     7
 10
62.19767499999999
 20
158.01441700000001
 30
0.0
 40
1.037798999999999
 50
126.75776
 51
248.497556
  0
ARC
  5
382
  8
_________1
 62
     7
 10
62.203509999999987
 20
158.29814500000001
 30
0.0
 40
1.307639999999999
 50
252.82055399999999
 51
265.813895
  0
ARC
  5
383
  8
_________1
 62
     7
 10
61.994701999999997
 20
158.27150499999999
 30
0.0
 40
1.2825299999999991
 50
275.070652
 51
299.94811399999998
  0
ARC
  5
384
  8
_________1
 62
     7
 10
61.981283999999988
 20
157.97416200000001
 30
0.0
 40
1.043931999999999
 50
308.76798400000001
 51
74.738155000000006
  0
ARC
  5
385
  8
_________1
 62
     7
 10
62.021119999999989
 20
157.64983799999999
 30
0.0
 40
1.3520119999999991
 50
79.992041
 51
86.313192000000001
  0
LINE
  5
386
  8
_________1
 62
     7
 10
50.973100000000002
 20
157.625
 30
0.0
 11
50.759799999999998
 21
151.256
 31
0.0
  0
LINE
  5
387
  8
_________1
 62
     7
 10
50.759799999999998
 20
151.256
 30
0.0
 11
50.588999999999999
 21
144.92099999999999
 31
0.0
  0
LINE
  5
388
  8
_________1
 62
     7
 10
50.588999999999999
 20
144.92099999999999
 30
0.0
 11
50.482500000000002
 21
138.56399999999999
 31
0.0
  0
ARC
  5
389
  8
_________1
 62
     7
 10
68.843548999999996
 20
157.76363799999999
 30
0.0
 40
1.238014999999999
 50
93.714950999999999
 51
119.036717
  0
ARC
  5
38A
  8
_________1
 62
     7
 10
68.871919999999974
 20
158.01632499999999
 30
0.0
 40
1.041350999999999
 50
127.17692700000001
 51
249.17570499999999
  0
ARC
  5
38B
  8
_________1
 62
     7
 10
68.874184
 20
158.308572
 30
0.0
 40
1.3192429999999991
 50
253.600427
 51
265.18007299999999
  0
ARC
  5
38C
  8
_________1
 62
     7
 10
68.677350000000004
 20
158.238204
 30
0.0
 40
1.2471769999999991
 50
273.95331599999997
 51
299.53825799999998
  0
ARC
  5
38D
  8
_________1
 62
     7
 10
68.642838999999995
 20
157.97480100000001
 30
0.0
 40
1.047299999999999
 50
308.31953800000002
 51
73.498073000000005
  0
ARC
  5
38E
  8
_________1
 62
     7
 10
68.705946999999995
 20
157.70378700000001
 30
0.0
 40
1.2965349999999991
 50
79.585347999999996
 51
87.46311
  0
ARC
  5
38F
  8
_________1
 62
     7
 10
65.518951000000001
 20
157.73952499999999
 30
0.0
 40
1.2622530000000001
 50
93.766154
 51
118.917272
  0
ARC
  5
390
  8
_________1
 62
     7
 10
65.524333999999996
 20
158.00949900000001
 30
0.0
 40
1.037396999999999
 50
126.408861
 51
244.14235099999999
  0
ARC
  5
391
  8
_________1
 62
     7
 10
65.521511000000004
 20
158.223533
 30
0.0
 40
1.232507
 50
248.60445000000001
 51
266.02355999999997
  0
ARC
  5
392
  8
_________1
 62
     7
 10
65.334333000000001
 20
158.25808599999999
 30
0.0
 40
1.268178
 50
274.600078
 51
299.66653400000001
  0
ARC
  5
393
  8
_________1
 62
     7
 10
65.315280000000001
 20
157.97554099999999
 30
0.0
 40
1.0438810000000001
 50
308.28338300000001
 51
73.325558999999998
  0
ARC
  5
394
  8
_________1
 62
     7
 10
65.348256999999975
 20
157.64095599999999
 30
0.0
 40
1.3609299999999991
 50
78.705219999999997
 51
86.301706999999979
  0
ARC
  5
395
  8
_________1
 62
     7
 10
75.519623999999993
 20
157.724897
 30
0.0
 40
1.276621
 50
93.561673999999996
 51
118.58824799999999
  0
ARC
  5
396
  8
_________1
 62
     7
 10
75.529696000000001
 20
158.01441600000001
 30
0.0
 40
1.0377379999999989
 50
126.75312700000001
 51
248.505898
  0
ARC
  5
397
  8
_________1
 62
     7
 10
75.535814000000002
 20
158.29890900000001
 30
0.0
 40
1.3084049999999989
 50
252.82543899999999
 51
265.81441899999999
  0
ARC
  5
398
  8
_________1
 62
     7
 10
75.327000999999996
 20
158.27086199999999
 30
0.0
 40
1.281887
 50
275.07144499999998
 51
299.95571999999999
  0
ARC
  5
399
  8
_________1
 62
     7
 10
75.313259999999985
 20
157.97414599999999
 30
0.0
 40
1.0440119999999999
 50
308.774901
 51
74.725393000000011
  0
ARC
  5
39A
  8
_________1
 62
     7
 10
75.353414999999998
 20
157.65063900000001
 30
0.0
 40
1.3512109999999999
 50
79.989231000000004
 51
86.312546999999995
  0
ARC
  5
39B
  8
_________1
 62
     7
 10
78.850865999999996
 20
157.73952499999999
 30
0.0
 40
1.2622530000000001
 50
93.766154
 51
118.917272
  0
ARC
  5
39C
  8
_________1
 62
     7
 10
78.856247999999994
 20
158.00949900000001
 30
0.0
 40
1.037396999999999
 50
126.408861
 51
244.14235099999999
  0
ARC
  5
39D
  8
_________1
 62
     7
 10
78.853425000000001
 20
158.223533
 30
0.0
 40
1.232507
 50
248.60445000000001
 51
266.02355999999997
  0
ARC
  5
39E
  8
_________1
 62
     7
 10
78.666212000000002
 20
158.25872100000001
 30
0.0
 40
1.2688129999999991
 50
274.59935999999999
 51
299.65899999999999
  0
ARC
  5
39F
  8
_________1
 62
     7
 10
78.643916000000004
 20
157.97332800000001
 30
0.0
 40
1.0442670000000001
 50
308.50563399999999
 51
74.772829000000002
  0
ARC
  5
3A0
  8
_________1
 62
     7
 10
78.677316000000005
 20
157.615635
 30
0.0
 40
1.386382999999999
 50
79.994527000000005
 51
86.251428000000004
  0
ARC
  5
3A1
  8
_________1
 62
     7
 10
72.157685999999998
 20
157.79743300000001
 30
0.0
 40
1.203451
 50
93.161332999999999
 51
119.03356100000001
  0
ARC
  5
3A2
  8
_________1
 62
     7
 10
72.098293999999996
 20
158.004088
 30
0.0
 40
0.9951170000000001
 50
121.81943800000001
 51
191.381012
  0
ARC
  5
3A3
  8
_________1
 62
     7
 10
72.118087000000003
 20
158.01550599999999
 30
0.0
 40
1.016799999999999
 50
191.79168000000001
 51
260.03009600000001
  0
ARC
  5
3A4
  8
_________1
 62
     7
 10
72.197202000000004
 20
158.34678299999999
 30
0.0
 40
1.3569269999999991
 50
259.16168599999997
 51
265.52455300000003
  0
ARC
  5
3A5
  8
_________1
 62
     7
 10
72.016194999999996
 20
158.24397400000001
 30
0.0
 40
1.2522359999999999
 50
273.43929500000002
 51
299.10854
  0
ARC
  5
3A6
  8
_________1
 62
     7
 10
71.969278000000003
 20
157.96680599999999
 30
0.0
 40
1.0477549999999991
 50
308.7690970000001
 51
78.231887999999998
  0
ARC
  5
3A7
  8
_________1
 62
     7
 10
72.039505000000005
 20
157.62191300000001
 30
0.0
 40
1.378112999999999
 50
84.024565999999993
 51
87.845316999999994
  0
ARC
  5
3A8
  8
_________1
 62
     7
 10
72.119511000000003
 20
155.05567400000001
 30
0.0
 40
13.918848000000001
 50
4.2957539999999996
 51
83.958574999999996
  0
ARC
  5
3A9
  8
_________1
 62
     7
 10
71.442118999999991
 20
156.23279400000001
 30
0.0
 40
20.449124999999999
 50
357.111154
 51
84.16698199999999
  0
LINE
  5
3AA
  8
_________1
 62
     7
 10
90.393199999999993
 20
138.71299999999999
 30
0.0
 11
90.286699999999996
 21
145.006
 31
0.0
  0
LINE
  5
3AB
  8
_________1
 62
     7
 10
90.286699999999996
 20
145.006
 30
0.0
 11
90.116200000000006
 21
151.29900000000001
 31
0.0
  0
LINE
  5
3AC
  8
_________1
 62
     7
 10
90.116200000000006
 20
151.29900000000001
 30
0.0
 11
89.881600000000006
 21
157.625
 31
0.0
  0
ARC
  5
3AD
  8
_________1
 62
     7
 10
69.484618000000012
 20
156.189257
 30
0.0
 40
20.497643
 50
95.961685000000003
 51
182.76017899999999
  0
ARC
  5
3AE
  8
_________1
 62
     7
 10
68.726840999999993
 20
155.08444499999999
 30
0.0
 40
13.887141
 50
95.932202000000004
 51
175.81343000000001
  0
ARC
  5
3AF
  8
_________1
 62
     7
 10
72.244939999999986
 20
128.10730599999999
 30
0.0
 40
24.144120000000001
 50
154.33677599999999
 51
181.55973299999999
  0
ARC
  5
3B0
  8
_________1
 62
     7
 10
72.883636999999993
 20
128.03199599999999
 30
0.0
 40
24.780704
 50
181.34547699999999
 51
202.64477500000001
  0
LINE
  5
3B1
  8
_________1
 62
     7
 10
50.482500000000002
 20
138.56399999999999
 30
0.0
 11
49.010800000000003
 21
155.202
 31
0.0
  0
ARC
  5
3B2
  8
_________1
 62
     7
 10
60.454609999999988
 20
134.495102
 30
0.0
 40
1.1678029999999999
 50
90.500451999999996
 51
117.578852
  0
ARC
  5
3B3
  8
_________1
 62
     7
 10
60.384528000000003
 20
134.714855
 30
0.0
 40
0.941408
 50
119.990887
 51
172.589159
  0
ARC
  5
3B4
  8
_________1
 62
     7
 10
60.510525000000001
 20
134.689784
 30
0.0
 40
1.069620999999999
 50
172.12793300000001
 51
231.995631
  0
ARC
  5
3B5
  8
_________1
 62
     7
 10
60.451368000000002
 20
134.70203599999999
 30
0.0
 40
1.044255999999999
 50
234.968457
 51
269.618247
  0
ARC
  5
3B6
  8
_________1
 62
     7
 10
60.378430000000002
 20
134.82687799999999
 30
0.0
 40
1.1709350000000001
 50
273.23021699999998
 51
299.94243
  0
ARC
  5
3B7
  8
_________1
 62
     7
 10
60.431851999999992
 20
134.65498500000001
 30
0.0
 40
0.9961049999999998
 50
302.21537599999999
 51
359.84806400000002
  0
ARC
  5
3B8
  8
_________1
 62
     7
 10
60.392789999999998
 20
134.669172
 30
0.0
 40
1.0353000000000001
 50
359.06864400000001
 51
48.283180999999999
  0
ARC
  5
3B9
  8
_________1
 62
     7
 10
60.479057999999988
 20
134.70280199999999
 30
0.0
 40
0.953716
 50
50.808146000000001
 51
81.479167000000004
  0
ARC
  5
3BA
  8
_________1
 62
     7
 10
60.414302999999997
 20
134.42276100000001
 30
0.0
 40
1.240464999999999
 50
80.437646999999998
 51
88.609215000000006
  0
LINE
  5
3BB
  8
_________1
 62
     7
 10
49.991900000000001
 20
118.42700000000001
 30
0.0
 11
50.41879999999999
 21
119.81399999999999
 31
0.0
  0
LINE
  5
3BC
  8
_________1
 62
     7
 10
50.41879999999999
 20
119.81399999999999
 30
0.0
 11
50.802599999999991
 21
121.2
 31
0.0
  0
LINE
  5
3BD
  8
_________1
 62
     7
 10
54.87680000000001
 20
156.0979999999999
 30
0.0
 11
54.599400000000003
 21
147.63
 31
0.0
  0
LINE
  5
3BE
  8
_________1
 62
     7
 10
54.599400000000003
 20
147.63
 30
0.0
 11
54.450299999999999
 21
139.13999999999999
 31
0.0
  0
LINE
  5
3BF
  8
_________1
 62
     7
 10
54.450299999999999
 20
139.13999999999999
 30
0.0
 11
54.386200000000002
 21
130.672
 31
0.0
  0
ARC
  5
3C0
  8
_________1
 62
     7
 10
67.136729000000003
 20
134.47268800000001
 30
0.0
 40
1.1907499999999991
 50
91.782628000000003
 51
118.20037000000001
  0
ARC
  5
3C1
  8
_________1
 62
     7
 10
67.063012000000001
 20
134.698025
 30
0.0
 40
0.9582239999999999
 50
120.683629
 51
178.65966
  0
ARC
  5
3C2
  8
_________1
 62
     7
 10
67.164777999999984
 20
134.715542
 30
0.0
 40
1.059739999999999
 50
179.73522399999999
 51
266.47860900000012
  0
ARC
  5
3C3
  8
_________1
 62
     7
 10
67.043625000000006
 20
134.83492699999999
 30
0.0
 40
1.178458
 50
272.72674799999999
 51
299.49885
  0
ARC
  5
3C4
  8
_________1
 62
     7
 10
67.100712000000001
 20
134.653277
 30
0.0
 40
0.9930429999999999
 50
301.79344900000001
 51
358.61234300000001
  0
ARC
  5
3C5
  8
_________1
 62
     7
 10
67.055458000000002
 20
134.668859
 30
0.0
 40
1.038762
 50
357.81356299999999
 51
47.11413499999999
  0
ARC
  5
3C6
  8
_________1
 62
     7
 10
67.149198999999996
 20
134.70913400000001
 30
0.0
 40
0.946358
 50
49.613919000000003
 51
80.488084000000001
  0
ARC
  5
3C7
  8
_________1
 62
     7
 10
67.081692000000004
 20
134.43075999999999
 30
0.0
 40
1.2322319999999991
 50
79.531272000000001
 51
89.163217000000003
  0
ARC
  5
3C8
  8
_________1
 62
     7
 10
70.469603000000006
 20
134.47633300000001
 30
0.0
 40
1.187281
 50
92.040589000000011
 51
118.405987
  0
ARC
  5
3C9
  8
_________1
 62
     7
 10
70.396911000000003
 20
134.69734
 30
0.0
 40
0.9591879999999999
 50
120.86761799999999
 51
178.60528400000001
  0
ARC
  5
3CA
  8
_________1
 62
     7
 10
70.497540000000001
 20
134.715022
 30
0.0
 40
1.059547999999999
 50
179.69367099999999
 51
266.20038599999998
  0
ARC
  5
3CB
  8
_________1
 62
     7
 10
70.351268999999974
 20
134.88938200000001
 30
0.0
 40
1.2339249999999991
 50
273.53388000000001
 51
299.42985800000002
  0
ARC
  5
3CC
  8
_________1
 62
     7
 10
70.287790999999999
 20
134.62267700000001
 30
0.0
 40
1.049501
 50
309.65666199999998
 51
82.359674999999996
  0
ARC
  5
3CD
  8
_________1
 62
     7
 10
80.473883999999998
 20
134.476764
 30
0.0
 40
1.1868499999999991
 50
92.041561000000002
 51
118.411297
  0
ARC
  5
3CE
  8
_________1
 62
     7
 10
80.401480000000006
 20
134.697261
 30
0.0
 40
0.9593489999999999
 50
120.87441699999999
 51
178.600786
  0
ARC
  5
3CF
  8
_________1
 62
     7
 10
80.501789999999986
 20
134.71486299999989
 30
0.0
 40
1.0593879999999991
 50
179.68504899999999
 51
266.201233
  0
ARC
  5
3D0
  8
_________1
 62
     7
 10
80.375540000000001
 20
134.83492699999999
 30
0.0
 40
1.178458
 50
272.72674799999999
 51
299.49885
  0
ARC
  5
3D1
  8
_________1
 62
     7
 10
80.432626999999997
 20
134.653277
 30
0.0
 40
0.9930429999999999
 50
301.79344900000001
 51
358.61234300000001
  0
ARC
  5
3D2
  8
_________1
 62
     7
 10
80.387372999999997
 20
134.668859
 30
0.0
 40
1.038762
 50
357.81356299999999
 51
47.11413499999999
  0
ARC
  5
3D3
  8
_________1
 62
     7
 10
80.481114000000005
 20
134.70913400000001
 30
0.0
 40
0.946358
 50
49.613919000000003
 51
80.488084000000001
  0
ARC
  5
3D4
  8
_________1
 62
     7
 10
80.413606999999999
 20
134.43075999999999
 30
0.0
 40
1.2322319999999991
 50
79.531272000000001
 51
89.163217000000003
  0
ARC
  5
3D5
  8
_________1
 62
     7
 10
77.124122999999997
 20
134.50251
 30
0.0
 40
1.1605259999999991
 50
90.995317000000014
 51
118.009646
  0
ARC
  5
3D6
  8
_________1
 62
     7
 10
77.055563000000006
 20
134.71417500000001
 30
0.0
 40
0.9422590000000001
 50
120.374036
 51
172.61756500000001
  0
ARC
  5
3D7
  8
_________1
 62
     7
 10
77.180848999999995
 20
134.689528
 30
0.0
 40
1.069706
 50
172.170593
 51
231.69968900000001
  0
ARC
  5
3D8
  8
_________1
 62
     7
 10
77.121144999999999
 20
134.69971799999999
 30
0.0
 40
1.042055999999999
 50
234.62444300000001
 51
269.05530800000003
  0
ARC
  5
3D9
  8
_________1
 62
     7
 10
77.024519999999995
 20
134.861006
 30
0.0
 40
1.205822999999999
 50
273.77758599999999
 51
299.91271899999998
  0
ARC
  5
3DA
  8
_________1
 62
     7
 10
76.951172
 20
134.62244100000001
 30
0.0
 40
1.0515799999999991
 50
309.90936699999997
 51
81.645519999999976
  0
ARC
  5
3DB
  8
_________1
 62
     7
 10
73.786524999999997
 20
134.495102
 30
0.0
 40
1.1678029999999999
 50
90.500451999999996
 51
117.578852
  0
ARC
  5
3DC
  8
_________1
 62
     7
 10
73.716442999999984
 20
134.714855
 30
0.0
 40
0.941408
 50
119.990887
 51
172.589159
  0
ARC
  5
3DD
  8
_________1
 62
     7
 10
73.842439999999996
 20
134.689784
 30
0.0
 40
1.069620999999999
 50
172.12793300000001
 51
231.995631
  0
ARC
  5
3DE
  8
_________1
 62
     7
 10
73.783282999999983
 20
134.70203599999999
 30
0.0
 40
1.044255999999999
 50
234.968457
 51
269.618247
  0
ARC
  5
3DF
  8
_________1
 62
     7
 10
73.710319999999996
 20
134.8274909999999
 30
0.0
 40
1.1715489999999991
 50
273.229739
 51
299.93444799999997
  0
ARC
  5
3E0
  8
_________1
 62
     7
 10
73.763881999999995
 20
134.65513899999999
 30
0.0
 40
0.9962489999999998
 50
302.21186899999998
 51
359.83920799999999
  0
ARC
  5
3E1
  8
_________1
 62
     7
 10
73.725137000000004
 20
134.66916800000001
 30
0.0
 40
1.0351259999999991
 50
359.06868300000002
 51
48.294280000000001
  0
ARC
  5
3E2
  8
_________1
 62
     7
 10
73.811115999999998
 20
134.702665
 30
0.0
 40
0.953838
 50
50.812209999999993
 51
81.485979999999984
  0
ARC
  5
3E3
  8
_________1
 62
     7
 10
73.746206999999998
 20
134.42206200000001
 30
0.0
 40
1.2411650000000001
 50
80.440336000000002
 51
88.609521999999984
  0
ARC
  5
3E4
  8
_________1
 62
     7
 10
67.84586800000001
 20
128.007137
 30
0.0
 40
24.900751
 50
337.95717400000001
 51
24.759516000000009
  0
LINE
  5
3E5
  8
_________1
 62
     7
 10
90.393199999999993
 20
138.58500000000001
 30
0.0
 11
89.924300000000002
 21
136.751
 31
0.0
  0
LINE
  5
3E6
  8
_________1
 62
     7
 10
89.924300000000002
 20
136.751
 30
0.0
 11
89.561499999999995
 21
134.916
 31
0.0
  0
LINE
  5
3E7
  8
_________1
 62
     7
 10
89.561499999999995
 20
134.916
 30
0.0
 11
89.305499999999995
 21
133.03899999999999
 31
0.0
  0
LINE
  5
3E8
  8
_________1
 62
     7
 10
89.305499999999995
 20
133.03899999999999
 30
0.0
 11
89.134699999999995
 21
131.16200000000001
 31
0.0
  0
LINE
  5
3E9
  8
_________1
 62
     7
 10
86.468100000000007
 20
130.672
 30
0.0
 11
86.425799999999995
 21
139.13999999999999
 31
0.0
  0
LINE
  5
3EA
  8
_________1
 62
     7
 10
86.425799999999995
 20
139.13999999999999
 30
0.0
 11
86.255199999999988
 21
147.63
 31
0.0
  0
LINE
  5
3EB
  8
_________1
 62
     7
 10
86.255199999999988
 20
147.63
 30
0.0
 11
85.999300000000005
 21
156.0979999999999
 31
0.0
  0
ARC
  5
3EC
  8
_________1
 62
     7
 10
63.791856000000003
 20
134.50308100000001
 30
0.0
 40
1.159954999999999
 50
90.995417000000003
 51
118.016672
  0
ARC
  5
3ED
  8
_________1
 62
     7
 10
63.72348800000001
 20
134.71431000000001
 30
0.0
 40
0.942168
 50
120.380765
 51
172.62509499999999
  0
ARC
  5
3EE
  8
_________1
 62
     7
 10
63.848748999999991
 20
134.689415
 30
0.0
 40
1.0696229999999991
 50
172.163895
 51
231.69561200000001
  0
ARC
  5
3EF
  8
_________1
 62
     7
 10
63.788905
 20
134.69930600000001
 30
0.0
 40
1.0416449999999999
 50
234.617187
 51
269.05383399999999
  0
ARC
  5
3F0
  8
_________1
 62
     7
 10
63.692231000000007
 20
134.861636
 30
0.0
 40
1.2064539999999999
 50
273.777017
 51
299.90476699999999
  0
ARC
  5
3F1
  8
_________1
 62
     7
 10
63.619133999999988
 20
134.62245200000001
 30
0.0
 40
1.051536
 50
309.90556700000002
 51
81.657360999999995
  0
ARC
  5
3F2
  8
_________1
 62
     7
 10
-72.673660999999996
 20
128.937782
 30
0.0
 40
159.09867700000001
 50
353.775128
 51
357.84107499999999
  0
ARC
  5
3F3
  8
_________1
 62
     7
 10
-110.1416
 20
130.77691999999999
 30
0.0
 40
196.60976599999989
 50
357.71682499999997
 51
359.96929999999998
  0
ARC
  5
3F4
  8
_________1
 62
     7
 10
249.17826199999999
 20
131.221036
 30
0.0
 40
194.792866
 50
180.16163700000001
 51
184.22791799999999
  0
ARC
  5
3F5
  8
_________1
 62
     7
 10
222.862212
 20
129.61331899999999
 30
0.0
 40
168.430239
 50
184.34248099999999
 51
186.109827
  0
ARC
  5
3F6
  8
_________1
 62
     7
 10
78.843214000000003
 20
151.12982600000001
 30
0.0
 40
1.216623
 50
93.546498
 51
119.57692400000001
  0
ARC
  5
3F7
  8
_________1
 62
     7
 10
78.784994999999995
 20
151.33287799999999
 30
0.0
 40
1.0125090000000001
 50
122.384373
 51
191.753062
  0
ARC
  5
3F8
  8
_________1
 62
     7
 10
78.764803999999998
 20
151.33552299999999
 30
0.0
 40
0.9933030000000001
 50
192.139679
 51
259.90445599999998
  0
ARC
  5
3F9
  8
_________1
 62
     7
 10
78.815149000000005
 20
151.623221
 30
0.0
 40
1.2853719999999991
 50
259.94304899999997
 51
267.89588100000009
  0
ARC
  5
3FA
  8
_________1
 62
     7
 10
78.72264100000001
 20
151.528391
 30
0.0
 40
1.190537
 50
272.18133599999999
 51
298.52643399999999
  0
ARC
  5
3FB
  8
_________1
 62
     7
 10
78.794624999999996
 20
151.31177400000001
 30
0.0
 40
0.9666780000000002
 50
300.90999099999999
 51
358.36201799999998
  0
ARC
  5
3FC
  8
_________1
 62
     7
 10
78.706764000000007
 20
151.29172500000001
 30
0.0
 40
1.0541709999999991
 50
359.58785699999999
 51
86.672296000000017
  0
ARC
  5
3FD
  8
_________1
 62
     7
 10
78.850865999999996
 20
144.40761000000001
 30
0.0
 40
1.2622530000000001
 50
93.766154
 51
118.917272
  0
ARC
  5
3FE
  8
_________1
 62
     7
 10
78.856337999999994
 20
144.67746199999999
 30
0.0
 40
1.0375490000000001
 50
126.408844
 51
244.1408990000001
  0
ARC
  5
3FF
  8
_________1
 62
     7
 10
78.853878000000009
 20
144.891929
 30
0.0
 40
1.2331920000000001
 50
248.59431499999999
 51
266.00467700000002
  0
ARC
  5
400
  8
_________1
 62
     7
 10
78.665701999999996
 20
144.92723699999999
 30
0.0
 40
1.2696270000000001
 50
274.61948999999998
 51
299.66456699999998
  0
ARC
  5
401
  8
_________1
 62
     7
 10
78.647046000000003
 20
144.643461
 30
0.0
 40
1.044095999999999
 50
308.29391500000003
 51
73.318089999999984
  0
ARC
  5
402
  8
_________1
 62
     7
 10
78.680184999999994
 20
144.308652
 30
0.0
 40
1.361318
 50
78.707189999999997
 51
86.303308000000015
  0
ARC
  5
403
  8
_________1
 62
     7
 10
78.789599999999993
 20
137.83425500000001
 30
0.0
 40
1.156447999999999
 50
91.07244399999999
 51
118.216711
  0
ARC
  5
404
  8
_________1
 62
     7
 10
78.725018999999989
 20
138.036044
 30
0.0
 40
0.9488850000000001
 50
120.54209299999999
 51
172.590791
  0
ARC
  5
405
  8
_________1
 62
     7
 10
78.831438000000006
 20
138.010413
 30
0.0
 40
1.0577849999999991
 50
171.95735999999999
 51
226.62446600000001
  0
ARC
  5
406
  8
_________1
 62
     7
 10
78.721182999999996
 20
137.96199899999999
 30
0.0
 40
0.9480339999999999
 50
229.45952500000001
 51
260.33586700000001
  0
ARC
  5
407
  8
_________1
 62
     7
 10
78.786675999999986
 20
138.23245900000001
 30
0.0
 40
1.2258
 50
259.44023900000008
 51
269.124953
  0
ARC
  5
408
  8
_________1
 62
     7
 10
78.747148999999993
 20
138.16129699999999
 30
0.0
 40
1.154682999999999
 50
271.03248100000002
 51
298.20890100000003
  0
ARC
  5
409
  8
_________1
 62
     7
 10
78.811227000000002
 20
137.96055999999999
 30
0.0
 40
0.948277
 50
300.53084899999999
 51
352.59771599999999
  0
ARC
  5
40A
  8
_________1
 62
     7
 10
78.702342000000002
 20
137.98718700000001
 30
0.0
 40
1.0597579999999991
 50
351.92850299999998
 51
45.243544999999997
  0
ARC
  5
40B
  8
_________1
 62
     7
 10
78.806326999999996
 20
138.026095
 30
0.0
 40
0.960038
 50
48.016550000000009
 51
85.089051999999995
  0
ARC
  5
40C
  8
_________1
 62
     7
 10
78.743852000000004
 20
137.697453
 30
0.0
 40
1.2932719999999991
 50
83.577641
 51
88.932078000000004
  0
LINE
  5
40D
  8
_________1
 62
     7
 10
90.393199999999993
 20
138.56399999999999
 30
0.0
 11
91.865300000000005
 21
155.202
 31
0.0
  0
LINE
  5
40E
  8
_________1
 62
     7
 10
90.393199999999993
 20
138.71299999999999
 30
0.0
 11
90.457599999999985
 21
138.43600000000001
 31
0.0
  0
ARC
  5
40F
  8
_________1
 62
     7
 10
80.544925000000006
 20
141.062318
 30
0.0
 40
1.2821979999999991
 50
95.070483999999993
 51
119.953844
  0
ARC
  5
410
  8
_________1
 62
     7
 10
80.558606999999995
 20
141.359342
 30
0.0
 40
1.0440370000000001
 50
128.77807100000001
 51
254.72844699999999
  0
ARC
  5
411
  8
_________1
 62
     7
 10
80.518524999999997
 20
141.68633299999999
 30
0.0
 40
1.3546849999999999
 50
260.01404500000001
 51
266.32113900000002
  0
ARC
  5
412
  8
_________1
 62
     7
 10
80.376453999999995
 20
141.541145
 30
0.0
 40
1.207964
 50
272.616693
 51
298.60369200000002
  0
ARC
  5
413
  8
_________1
 62
     7
 10
80.444796999999994
 20
141.323463
 30
0.0
 40
0.985124
 50
301.17604699999998
 51
5.3146449999999987
  0
ARC
  5
414
  8
_________1
 62
     7
 10
80.405560999999992
 20
141.31034199999999
 30
0.0
 40
1.0254499999999991
 50
5.8415589999999993
 51
78.435057
  0
ARC
  5
415
  8
_________1
 62
     7
 10
80.340291000000008
 20
141.00160099999999
 30
0.0
 40
1.34101
 50
78.347515999999999
 51
86.095611000000005
  0
ARC
  5
416
  8
_________1
 62
     7
 10
80.462085000000002
 20
147.83581599999999
 30
0.0
 40
1.1593610000000001
 50
91.506625999999983
 51
118.491474
  0
ARC
  5
417
  8
_________1
 62
     7
 10
80.395380999999986
 20
148.037373
 30
0.0
 40
0.951135
 50
120.752413
 51
172.473208
  0
ARC
  5
418
  8
_________1
 62
     7
 10
80.494915000000006
 20
148.01420200000001
 30
0.0
 40
1.0528939999999991
 50
171.93265700000001
 51
226.62022400000009
  0
ARC
  5
419
  8
_________1
 62
     7
 10
80.405734999999979
 20
147.98885300000001
 30
0.0
 40
0.9743719999999999
 50
229.40899300000001
 51
266.18244399999998
  0
ARC
  5
41A
  8
_________1
 62
     7
 10
80.467177000000007
 20
148.33347800000001
 30
0.0
 40
1.3228789999999999
 50
264.52076799999998
 51
268.45906000000002
  0
ARC
  5
41B
  8
_________1
 62
     7
 10
80.422824000000006
 20
148.14673199999999
 30
0.0
 40
1.1356889999999991
 50
270.44288999999998
 51
298.04216400000013
  0
ARC
  5
41C
  8
_________1
 62
     7
 10
80.487629999999996
 20
147.94873799999999
 30
0.0
 40
0.9311629999999999
 50
300.25066600000002
 51
346.32643300000001
  0
ARC
  5
41D
  8
_________1
 62
     7
 10
80.343153000000015
 20
147.99330900000001
 30
0.0
 40
1.082120999999999
 50
345.84168
 51
39.473596000000001
  0
ARC
  5
41E
  8
_________1
 62
     7
 10
80.481701000000001
 20
148.05150699999999
 30
0.0
 40
0.939168
 50
42.107247999999998
 51
85.69579499999999
  0
ARC
  5
41F
  8
_________1
 62
     7
 10
80.420950000000005
 20
147.72407100000001
 30
0.0
 40
1.27075
 50
84.072188999999995
 51
89.519684999999996
  0
ARC
  5
420
  8
_________1
 62
     7
 10
80.508801000000005
 20
154.451741
 30
0.0
 40
1.222113
 50
93.621646999999996
 51
119.366455
  0
ARC
  5
421
  8
_________1
 62
     7
 10
80.556448000000003
 20
154.692744
 30
0.0
 40
1.047688999999999
 50
128.13484800000001
 51
253.26106899999999
  0
ARC
  5
422
  8
_________1
 62
     7
 10
80.513242000000005
 20
154.98085599999999
 30
0.0
 40
1.317034
 50
258.67901599999999
 51
266.44611500000002
  0
ARC
  5
423
  8
_________1
 62
     7
 10
80.383504000000002
 20
154.848084
 30
0.0
 40
1.1827080000000001
 50
272.330759
 51
298.92365799999999
  0
ARC
  5
424
  8
_________1
 62
     7
 10
80.448417000000006
 20
154.64681200000001
 30
0.0
 40
0.9759879999999999
 50
301.30357099999998
 51
358.61333000000002
  0
ARC
  5
425
  8
_________1
 62
     7
 10
80.380267000000003
 20
154.62880899999999
 30
0.0
 40
1.043868
 50
359.69177999999999
 51
87.181135999999995
  0
ARC
  5
426
  8
_________1
 62
     7
 10
63.858664000000012
 20
141.09382199999999
 30
0.0
 40
1.248707999999999
 50
93.993285000000014
 51
119.54872899999999
  0
ARC
  5
427
  8
_________1
 62
     7
 10
63.914143999999993
 20
141.373863
 30
0.0
 40
1.0491369999999991
 50
129.78110799999999
 51
262.19697200000002
  0
ARC
  5
428
  8
_________1
 62
     7
 10
63.69196500000001
 20
141.57006699999999
 30
0.0
 40
1.2381969999999991
 50
273.69238200000001
 51
299.02028799999999
  0
ARC
  5
429
  8
_________1
 62
     7
 10
63.663490000000003
 20
141.31708699999999
 30
0.0
 40
1.0413110000000001
 50
307.17049500000002
 51
69.192233999999985
  0
ARC
  5
42A
  8
_________1
 62
     7
 10
63.661211000000002
 20
141.02652599999999
 30
0.0
 40
1.317613999999999
 50
73.592269999999999
 51
85.189606999999995
  0
ARC
  5
42B
  8
_________1
 62
     7
 10
75.46423399999999
 20
137.80841100000001
 30
0.0
 40
1.182331
 50
91.159092999999999
 51
117.977384
  0
ARC
  5
42C
  8
_________1
 62
     7
 10
75.398692000000011
 20
138.0216419999999
 30
0.0
 40
0.9641949999999999
 50
120.48286
 51
178.643911
  0
ARC
  5
42D
  8
_________1
 62
     7
 10
75.465745999999996
 20
138.00805500000001
 30
0.0
 40
1.031620999999999
 50
177.97763900000001
 51
231.738159
  0
ARC
  5
42E
  8
_________1
 62
     7
 10
75.408369999999991
 20
138.00761
 30
0.0
 40
0.9967469999999998
 50
234.31283500000001
 51
264.82231000000002
  0
ARC
  5
42F
  8
_________1
 62
     7
 10
75.467134000000001
 20
138.32707300000001
 30
0.0
 40
1.3205439999999991
 50
263.53382299999998
 51
268.83636799999999
  0
ARC
  5
430
  8
_________1
 62
     7
 10
75.409790999999998
 20
138.16694099999989
 30
0.0
 40
1.160541
 50
271.50722100000002
 51
298.46228200000002
  0
ARC
  5
431
  8
_________1
 62
     7
 10
75.476860000000002
 20
137.96387200000001
 30
0.0
 40
0.9508049999999999
 50
300.74171799999999
 51
352.47575999999998
  0
ARC
  5
432
  8
_________1
 62
     7
 10
75.376897999999997
 20
137.98715300000001
 30
0.0
 40
1.0530029999999999
 50
351.93208499999997
 51
46.617849
  0
ARC
  5
433
  8
_________1
 62
     7
 10
75.465894999999989
 20
138.01247499999999
 30
0.0
 40
0.9746179999999998
 50
49.39902
 51
86.166364999999999
  0
ARC
  5
434
  8
_________1
 62
     7
 10
75.405265
 20
137.681659
 30
0.0
 40
1.3093109999999999
 50
84.486761000000001
 51
88.465937999999994
  0
ARC
  5
435
  8
_________1
 62
     7
 10
72.106162999999995
 20
137.86989700000001
 30
0.0
 40
1.1207009999999991
 50
90.758938999999984
 51
118.44853000000001
  0
ARC
  5
436
  8
_________1
 62
     7
 10
72.046277000000003
 20
138.05478299999999
 30
0.0
 40
0.9302879999999998
 50
120.630521
 51
166.51555099999999
  0
ARC
  5
437
  8
_________1
 62
     7
 10
72.199303
 20
138.004684
 30
0.0
 40
1.090856
 50
165.830895
 51
214.03932399999999
  0
ARC
  5
438
  8
_________1
 62
     7
 10
72.042311999999995
 20
137.93667500000001
 30
0.0
 40
0.923234
 50
215.99592999999999
 51
260.36247600000002
  0
ARC
  5
439
  8
_________1
 62
     7
 10
72.103121000000002
 20
138.19221099999999
 30
0.0
 40
1.1854679999999991
 50
259.53256099999999
 51
269.42952100000002
  0
ARC
  5
43A
  8
_________1
 62
     7
 10
72.095818999999992
 20
138.14082999999999
 30
0.0
 40
1.134037999999999
 50
269.77262400000001
 51
297.60712599999999
  0
ARC
  5
43B
  8
_________1
 62
     7
 10
72.160512999999995
 20
137.938726
 30
0.0
 40
0.9256770000000001
 50
299.85626000000002
 51
345.05160699999999
  0
ARC
  5
43C
  8
_________1
 62
     7
 10
72.001480000000001
 20
137.992831
 30
0.0
 40
1.093342
 50
344.46195
 51
33.100054
  0
ARC
  5
43D
  8
_________1
 62
     7
 10
72.161704999999998
 20
138.06162599999999
 30
0.0
 40
0.922034
 50
34.956389999999999
 51
79.683018999999987
  0
ARC
  5
43E
  8
_________1
 62
     7
 10
72.100656999999998
 20
137.80547100000001
 30
0.0
 40
1.185065
 50
78.997176999999994
 51
90.451496999999989
  0
ARC
  5
43F
  8
_________1
 62
     7
 10
68.793821999999992
 20
137.83114
 30
0.0
 40
1.159761
 50
91.506337999999985
 51
118.486452
  0
ARC
  5
440
  8
_________1
 62
     7
 10
68.726919999999993
 20
138.03325599999999
 30
0.0
 40
0.9509499999999999
 50
120.752331
 51
172.48136
  0
ARC
  5
441
  8
_________1
 62
     7
 10
68.826763999999997
 20
138.010075
 30
0.0
 40
1.053015
 50
171.94173799999999
 51
226.624988
  0
ARC
  5
442
  8
_________1
 62
     7
 10
68.737580000000008
 20
137.9845949999999
 30
0.0
 40
0.9743950000000001
 50
229.408962
 51
266.177165
  0
ARC
  5
443
  8
_________1
 62
     7
 10
68.798889000000003
 20
138.328397
 30
0.0
 40
1.3220730000000001
 50
264.519203
 51
268.45896199999999
  0
ARC
  5
444
  8
_________1
 62
     7
 10
68.754149999999996
 20
138.14300299999999
 30
0.0
 40
1.136237999999999
 50
270.4631490000001
 51
298.0505950000001
  0
ARC
  5
445
  8
_________1
 62
     7
 10
68.819046
 20
137.944793
 30
0.0
 40
0.9314879999999998
 50
300.26154100000002
 51
346.32668799999999
  0
ARC
  5
446
  8
_________1
 62
     7
 10
68.675099000000003
 20
137.989293
 30
0.0
 40
1.081914
 50
345.83882299999999
 51
39.478113
  0
ARC
  5
447
  8
_________1
 62
     7
 10
68.813875999999993
 20
138.04783499999999
 30
0.0
 40
0.9385639999999998
 50
42.106759999999987
 51
85.720115000000007
  0
ARC
  5
448
  8
_________1
 62
     7
 10
68.752746000000002
 20
137.71485200000001
 30
0.0
 40
1.275692
 50
84.098088000000004
 51
89.524383
  0
ARC
  5
449
  8
_________1
 62
     7
 10
65.457685999999995
 20
137.83425500000001
 30
0.0
 40
1.156447999999999
 50
91.07244399999999
 51
118.216711
  0
ARC
  5
44A
  8
_________1
 62
     7
 10
65.393104000000008
 20
138.036044
 30
0.0
 40
0.9488850000000001
 50
120.54209299999999
 51
172.590791
  0
ARC
  5
44B
  8
_________1
 62
     7
 10
65.499522999999996
 20
138.010413
 30
0.0
 40
1.0577849999999991
 50
171.95735999999999
 51
226.62446600000001
  0
ARC
  5
44C
  8
_________1
 62
     7
 10
65.389268000000001
 20
137.96199899999999
 30
0.0
 40
0.9480339999999999
 50
229.45952500000001
 51
260.33586700000001
  0
ARC
  5
44D
  8
_________1
 62
     7
 10
65.454761000000005
 20
138.23245900000001
 30
0.0
 40
1.2258
 50
259.44023900000008
 51
269.124953
  0
ARC
  5
44E
  8
_________1
 62
     7
 10
65.415242000000006
 20
138.16073
 30
0.0
 40
1.154115999999999
 50
271.03258799999998
 51
298.21597000000003
  0
ARC
  5
44F
  8
_________1
 62
     7
 10
65.479127000000005
 20
137.96042499999999
 30
0.0
 40
0.948187
 50
300.53759100000008
 51
352.60519900000003
  0
ARC
  5
450
  8
_________1
 62
     7
 10
65.370031999999995
 20
137.98720800000001
 30
0.0
 40
1.0598959999999991
 50
351.92842000000002
 51
45.234405000000002
  0
ARC
  5
451
  8
_________1
 62
     7
 10
65.474376000000007
 20
138.02646999999999
 30
0.0
 40
0.9596639999999999
 50
48.007844000000013
 51
85.086899000000003
  0
ARC
  5
452
  8
_________1
 62
     7
 10
65.411943999999991
 20
137.69815600000001
 30
0.0
 40
1.2925679999999991
 50
83.575896999999998
 51
88.931820000000016
  0
ARC
  5
453
  8
_________1
 62
     7
 10
75.519623999999993
 20
144.39298199999999
 30
0.0
 40
1.276621
 50
93.561673999999996
 51
118.58824799999999
  0
ARC
  5
454
  8
_________1
 62
     7
 10
75.529952000000009
 20
144.68239
 30
0.0
 40
1.037979999999999
 50
126.760796
 51
248.495971
  0
ARC
  5
455
  8
_________1
 62
     7
 10
75.535832999999997
 20
144.96503799999999
 30
0.0
 40
1.306799
 50
252.80278000000001
 51
265.80840699999999
  0
ARC
  5
456
  8
_________1
 62
     7
 10
75.327021000000002
 20
144.93839399999999
 30
0.0
 40
1.2816769999999991
 50
275.07135499999998
 51
299.96006899999998
  0
ARC
  5
457
  8
_________1
 62
     7
 10
75.312993999999989
 20
144.642031
 30
0.0
 40
1.0442750000000001
 50
308.78203300000001
 51
74.714209999999994
  0
ARC
  5
458
  8
_________1
 62
     7
 10
75.353414999999998
 20
144.318724
 30
0.0
 40
1.3512109999999999
 50
79.989231000000004
 51
86.312546999999995
  0
ARC
  5
459
  8
_________1
 62
     7
 10
72.157609999999991
 20
144.46669
 30
0.0
 40
1.2022759999999999
 50
93.160792000000001
 51
119.060498
  0
ARC
  5
45A
  8
_________1
 62
     7
 10
72.098892000000006
 20
144.67174900000001
 30
0.0
 40
0.995683
 50
121.839721
 51
191.36849599999999
  0
ARC
  5
45B
  8
_________1
 62
     7
 10
72.11811999999999
 20
144.68327500000001
 30
0.0
 40
1.0168330000000001
 50
191.791674
 51
260.028549
  0
ARC
  5
45C
  8
_________1
 62
     7
 10
72.197202000000004
 20
145.01452399999999
 30
0.0
 40
1.3569269999999991
 50
259.16168599999997
 51
265.52455300000003
  0
ARC
  5
45D
  8
_________1
 62
     7
 10
72.016209000000003
 20
144.911517
 30
0.0
 40
1.2520370000000001
 50
273.43920600000001
 51
299.11288500000001
  0
ARC
  5
45E
  8
_________1
 62
     7
 10
71.969021999999995
 20
144.63468599999999
 30
0.0
 40
1.0480080000000001
 50
308.77598
 51
78.220445999999995
  0
ARC
  5
45F
  8
_________1
 62
     7
 10
72.039505000000005
 20
144.289998
 30
0.0
 40
1.378112999999999
 50
84.024565999999993
 51
87.845316999999994
  0
ARC
  5
460
  8
_________1
 62
     7
 10
68.843533999999991
 20
144.431928
 30
0.0
 40
1.2378100000000001
 50
93.714860000000002
 51
119.04116999999999
  0
ARC
  5
461
  8
_________1
 62
     7
 10
68.87203199999999
 20
144.684236
 30
0.0
 40
1.041539999999999
 50
127.176759
 51
249.173079
  0
ARC
  5
462
  8
_________1
 62
     7
 10
68.873796999999996
 20
144.97397000000001
 30
0.0
 40
1.3168770000000001
 50
253.58766499999999
 51
265.18827900000002
  0
ARC
  5
463
  8
_________1
 62
     7
 10
68.676869999999994
 20
144.90658400000001
 30
0.0
 40
1.2478489999999991
 50
273.97327300000001
 51
299.54610600000001
  0
ARC
  5
464
  8
_________1
 62
     7
 10
68.642613999999995
 20
144.64275000000001
 30
0.0
 40
1.0474939999999999
 50
308.326888
 51
73.488338999999996
  0
ARC
  5
465
  8
_________1
 62
     7
 10
68.705946999999995
 20
144.37187299999999
 30
0.0
 40
1.2965349999999991
 50
79.585347999999996
 51
87.46311
  0
ARC
  5
466
  8
_________1
 62
     7
 10
65.518951000000001
 20
144.40761000000001
 30
0.0
 40
1.2622530000000001
 50
93.766154
 51
118.917272
  0
ARC
  5
467
  8
_________1
 62
     7
 10
65.524422999999999
 20
144.67746199999999
 30
0.0
 40
1.0375490000000001
 50
126.408844
 51
244.1408990000001
  0
ARC
  5
468
  8
_________1
 62
     7
 10
65.521963
 20
144.891929
 30
0.0
 40
1.2331920000000001
 50
248.59431499999999
 51
266.00467700000002
  0
ARC
  5
469
  8
_________1
 62
     7
 10
65.333822999999995
 20
144.926602
 30
0.0
 40
1.2689909999999991
 50
274.62021099999998
 51
299.67210299999999
  0
ARC
  5
46A
  8
_________1
 62
     7
 10
65.314897999999999
 20
144.64345700000001
 30
0.0
 40
1.044154
 50
308.29830500000003
 51
73.308140000000009
  0
ARC
  5
46B
  8
_________1
 62
     7
 10
65.348256999999975
 20
144.30904200000001
 30
0.0
 40
1.3609299999999991
 50
78.705219999999997
 51
86.301706999999979
  0
ARC
  5
46C
  8
_________1
 62
     7
 10
77.190933000000001
 20
141.09370899999999
 30
0.0
 40
1.248821999999999
 50
93.993341999999998
 51
119.547383
  0
ARC
  5
46D
  8
_________1
 62
     7
 10
77.246383999999992
 20
141.373865
 30
0.0
 40
1.0491369999999991
 50
129.78129300000001
 51
262.19802299999998
  0
ARC
  5
46E
  8
_________1
 62
     7
 10
77.02422
 20
141.56961699999999
 30
0.0
 40
1.237747999999999
 50
273.69392399999998
 51
299.02578599999998
  0
ARC
  5
46F
  8
_________1
 62
     7
 10
76.995633999999995
 20
141.31711100000001
 30
0.0
 40
1.041328
 50
307.16960599999999
 51
69.186083999999994
  0
ARC
  5
470
  8
_________1
 62
     7
 10
76.99345799999999
 20
141.026499
 30
0.0
 40
1.3176419999999991
 50
73.59229599999999
 51
85.189155
  0
ARC
  5
471
  8
_________1
 62
     7
 10
73.850971000000001
 20
141.08971700000001
 30
0.0
 40
1.252008999999999
 50
93.418070000000014
 51
119.096418
  0
ARC
  5
472
  8
_________1
 62
     7
 10
73.897891999999999
 20
141.36668700000001
 30
0.0
 40
1.0476430000000001
 50
128.750238
 51
258.25587300000001
  0
ARC
  5
473
  8
_________1
 62
     7
 10
73.828991000000002
 20
141.71950100000001
 30
0.0
 40
1.3860609999999991
 50
264.02262999999999
 51
267.82241599999998
  0
ARC
  5
474
  8
_________1
 62
     7
 10
73.709988999999993
 20
141.535327
 30
0.0
 40
1.2027179999999991
 50
273.16177499999998
 51
299.04361299999999
  0
ARC
  5
475
  8
_________1
 62
     7
 10
73.768893000000006
 20
141.3294699999999
 30
0.0
 40
0.9953299999999998
 50
301.8332299999999
 51
11.382868999999999
  0
ARC
  5
476
  8
_________1
 62
     7
 10
73.749546999999993
 20
141.31830400000001
 30
0.0
 40
1.0165239999999991
 50
11.784668999999999
 51
80.029006999999993
  0
ARC
  5
477
  8
_________1
 62
     7
 10
73.670392000000007
 20
140.98395400000001
 30
0.0
 40
1.359677
 50
79.183347999999995
 51
85.531513000000004
  0
ARC
  5
478
  8
_________1
 62
     7
 10
70.540643000000003
 20
141.061881
 30
0.0
 40
1.282632999999999
 50
95.068492000000006
 51
119.948446
  0
ARC
  5
479
  8
_________1
 62
     7
 10
70.554218999999975
 20
141.35936100000001
 30
0.0
 40
1.0440259999999999
 50
128.77903499999999
 51
254.73462499999999
  0
ARC
  5
47A
  8
_________1
 62
     7
 10
70.514248999999992
 20
141.68633299999999
 30
0.0
 40
1.3546849999999999
 50
260.01404500000001
 51
266.32113900000002
  0
ARC
  5
47B
  8
_________1
 62
     7
 10
70.348063999999994
 20
141.60721000000001
 30
0.0
 40
1.2752349999999999
 50
273.56355600000001
 51
298.60613799999999
  0
ARC
  5
47C
  8
_________1
 62
     7
 10
70.337291000000008
 20
141.31909999999999
 30
0.0
 40
1.037971999999999
 50
306.770197
 51
68.480958999999999
  0
ARC
  5
47D
  8
_________1
 62
     7
 10
70.332422999999991
 20
141.03707499999999
 30
0.0
 40
1.305876
 50
72.825300999999996
 51
85.83238399999999
  0
ARC
  5
47E
  8
_________1
 62
     7
 10
67.201422999999991
 20
141.074859
 30
0.0
 40
1.2687250000000001
 50
94.599308999999991
 51
119.661975
  0
ARC
  5
47F
  8
_________1
 62
     7
 10
67.220146999999983
 20
141.3579
 30
0.0
 40
1.043814
 50
128.276161
 51
253.336456
  0
ARC
  5
480
  8
_________1
 62
     7
 10
67.186941000000004
 20
141.69198800000001
 30
0.0
 40
1.360349
 50
258.71917200000001
 51
266.32250199999999
  0
ARC
  5
481
  8
_________1
 62
     7
 10
67.044533999999999
 20
141.540716
 30
0.0
 40
1.2075359999999999
 50
272.61786899999998
 51
298.60893499999997
  0
ARC
  5
482
  8
_________1
 62
     7
 10
67.112678000000002
 20
141.32350400000001
 30
0.0
 40
0.9852059999999999
 50
301.17936200000003
 51
5.3118569999999989
  0
ARC
  5
483
  8
_________1
 62
     7
 10
67.073643999999987
 20
141.310474
 30
0.0
 40
1.025320999999999
 50
5.8348910000000007
 51
78.433435000000003
  0
ARC
  5
484
  8
_________1
 62
     7
 10
67.008375999999984
 20
141.00160099999999
 30
0.0
 40
1.34101
 50
78.347515999999999
 51
86.095611000000005
  0
ARC
  5
485
  8
_________1
 62
     7
 10
62.131976000000002
 20
137.80894599999999
 30
0.0
 40
1.181795999999999
 50
91.159690999999995
 51
117.983862
  0
ARC
  5
486
  8
_________1
 62
     7
 10
62.066732000000002
 20
138.021692
 30
0.0
 40
0.964235
 50
120.492842
 51
178.64698100000001
  0
ARC
  5
487
  8
_________1
 62
     7
 10
62.133887999999999
 20
138.008048
 30
0.0
 40
1.031763999999999
 50
177.97752500000001
 51
231.727473
  0
ARC
  5
488
  8
_________1
 62
     7
 10
62.076152999999998
 20
138.00722400000001
 30
0.0
 40
0.9963639999999999
 50
234.305454
 51
264.81942400000003
  0
ARC
  5
489
  8
_________1
 62
     7
 10
62.134878999999998
 20
138.32665
 30
0.0
 40
1.320120999999999
 50
263.532715
 51
268.83579600000002
  0
ARC
  5
48A
  8
_________1
 62
     7
 10
62.077519999999993
 20
138.16754
 30
0.0
 40
1.1611400000000001
 50
271.50704600000012
 51
298.454793
  0
ARC
  5
48B
  8
_________1
 62
     7
 10
62.144696000000003
 20
137.964055
 30
0.0
 40
0.950985
 50
300.738381
 51
352.46606100000002
  0
ARC
  5
48C
  8
_________1
 62
     7
 10
62.045192
 20
137.98719399999999
 30
0.0
 40
1.0527109999999991
 50
351.92757999999998
 51
46.631382999999992
  0
ARC
  5
48D
  8
_________1
 62
     7
 10
62.133752999999999
 20
138.01230000000001
 30
0.0
 40
0.974787
 50
49.403275000000001
 51
86.172352000000004
  0
ARC
  5
48E
  8
_________1
 62
     7
 10
62.073005000000002
 20
137.681039
 30
0.0
 40
1.3099299999999989
 50
84.488156000000004
 51
88.466627000000017
  0
ARC
  5
48F
  8
_________1
 62
     7
 10
62.187337999999997
 20
144.39361400000001
 30
0.0
 40
1.275989
 50
93.562207999999998
 51
118.595434
  0
ARC
  5
490
  8
_________1
 62
     7
 10
62.197930999999997
 20
144.68239199999999
 30
0.0
 40
1.0380409999999991
 50
126.76542999999999
 51
248.487629
  0
ARC
  5
491
  8
_________1
 62
     7
 10
62.203530000000008
 20
144.96427600000001
 30
0.0
 40
1.3060350000000001
 50
252.79789
 51
265.80788200000001
  0
ARC
  5
492
  8
_________1
 62
     7
 10
61.994723
 20
144.93903599999999
 30
0.0
 40
1.2823199999999999
 50
275.070562
 51
299.95246200000003
  0
ARC
  5
493
  8
_________1
 62
     7
 10
61.981017999999999
 20
144.64204699999999
 30
0.0
 40
1.0441940000000001
 50
308.77511299999998
 51
74.726973000000001
  0
ARC
  5
494
  8
_________1
 62
     7
 10
62.021119999999989
 20
144.31792300000001
 30
0.0
 40
1.3520119999999991
 50
79.992041
 51
86.313192000000001
  0
ARC
  5
495
  8
_________1
 62
     7
 10
60.519056999999989
 20
141.08971700000001
 30
0.0
 40
1.252008999999999
 50
93.418070000000014
 51
119.096418
  0
ARC
  5
496
  8
_________1
 62
     7
 10
60.565977000000011
 20
141.36668700000001
 30
0.0
 40
1.0476430000000001
 50
128.750238
 51
258.25587300000001
  0
ARC
  5
497
  8
_________1
 62
     7
 10
60.497076
 20
141.71950100000001
 30
0.0
 40
1.3860609999999991
 50
264.02262999999999
 51
267.82241599999998
  0
ARC
  5
498
  8
_________1
 62
     7
 10
60.378073999999998
 20
141.535327
 30
0.0
 40
1.2027179999999991
 50
273.16177499999998
 51
299.04361299999999
  0
ARC
  5
499
  8
_________1
 62
     7
 10
60.436978000000003
 20
141.3294699999999
 30
0.0
 40
0.9953299999999998
 50
301.8332299999999
 51
11.382868999999999
  0
ARC
  5
49A
  8
_________1
 62
     7
 10
60.417631999999998
 20
141.31830400000001
 30
0.0
 40
1.0165239999999991
 50
11.784668999999999
 51
80.029006999999993
  0
ARC
  5
49B
  8
_________1
 62
     7
 10
60.338476999999997
 20
140.98395400000001
 30
0.0
 40
1.359677
 50
79.183347999999995
 51
85.531513000000004
  0
ARC
  5
49C
  8
_________1
 62
     7
 10
63.819783999999999
 20
154.490296
 30
0.0
 40
1.1820959999999989
 50
92.331057000000015
 51
118.931264
  0
ARC
  5
49D
  8
_________1
 62
     7
 10
63.755106000000012
 20
154.69105500000001
 30
0.0
 40
0.9759439999999999
 50
121.31038599999999
 51
178.61902599999999
  0
ARC
  5
49E
  8
_________1
 62
     7
 10
63.823292000000002
 20
154.70894100000001
 30
0.0
 40
1.0438609999999999
 50
179.69071299999999
 51
267.16730699999999
  0
ARC
  5
49F
  8
_________1
 62
     7
 10
63.694491999999997
 20
154.886222
 30
0.0
 40
1.2223079999999991
 50
273.62176799999997
 51
299.36412300000001
  0
ARC
  5
4A0
  8
_________1
 62
     7
 10
63.647004000000003
 20
154.64505399999999
 30
0.0
 40
1.047645999999999
 50
308.129299
 51
73.263357999999997
  0
ARC
  5
4A1
  8
_________1
 62
     7
 10
63.689999
 20
154.355379
 30
0.0
 40
1.3185679999999991
 50
78.685348000000005
 51
86.447348000000005
  0
ARC
  5
4A2
  8
_________1
 62
     7
 10
63.781293999999988
 20
147.85911100000001
 30
0.0
 40
1.135705999999999
 50
90.48377099999999
 51
118.07265700000001
  0
ARC
  5
4A3
  8
_________1
 62
     7
 10
63.716783999999997
 20
148.056646
 30
0.0
 40
0.9317499999999999
 50
120.289311
 51
166.337492
  0
ARC
  5
4A4
  8
_________1
 62
     7
 10
63.861185999999989
 20
148.01214999999999
 30
0.0
 40
1.0826139999999991
 50
165.85432599999999
 51
219.45166499999999
  0
ARC
  5
4A5
  8
_________1
 62
     7
 10
63.721074000000002
 20
147.952991
 30
0.0
 40
0.937837
 50
222.101091
 51
265.72593000000001
  0
ARC
  5
4A6
  8
_________1
 62
     7
 10
63.781700999999998
 20
148.281002
 30
0.0
 40
1.269963999999999
 50
264.10097999999999
 51
269.54901799999999
  0
ARC
  5
4A7
  8
_________1
 62
     7
 10
63.741164000000012
 20
148.172721
 30
0.0
 40
1.1620449999999991
 50
271.506013
 51
298.44345499999991
  0
ARC
  5
4A8
  8
_________1
 62
     7
 10
63.808928000000002
 20
147.968174
 30
0.0
 40
0.9506669999999999
 50
300.724581
 51
352.47303399999998
  0
ARC
  5
4A9
  8
_________1
 62
     7
 10
63.709117999999997
 20
147.99130199999999
 30
0.0
 40
1.0526930000000001
 50
351.9366839999999
 51
46.645750999999997
  0
ARC
  5
4AA
  8
_________1
 62
     7
 10
63.797235000000001
 20
148.01596499999999
 30
0.0
 40
0.9754080000000001
 50
49.415883999999998
 51
86.165052000000003
  0
ARC
  5
4AB
  8
_________1
 62
     7
 10
63.736651999999999
 20
147.685315
 30
0.0
 40
1.3099299999999989
 50
84.488156000000004
 51
88.466627000000017
  0
ARC
  5
4AC
  8
_________1
 62
     7
 10
65.511298999999994
 20
151.12982600000001
 30
0.0
 40
1.216623
 50
93.546498
 51
119.57692400000001
  0
ARC
  5
4AD
  8
_________1
 62
     7
 10
65.45308
 20
151.33287799999999
 30
0.0
 40
1.0125090000000001
 50
122.384373
 51
191.753062
  0
ARC
  5
4AE
  8
_________1
 62
     7
 10
65.43289
 20
151.33552299999999
 30
0.0
 40
0.9933030000000001
 50
192.139679
 51
259.90445599999998
  0
ARC
  5
4AF
  8
_________1
 62
     7
 10
65.483233999999996
 20
151.623221
 30
0.0
 40
1.2853719999999991
 50
259.94304899999997
 51
267.89588100000009
  0
ARC
  5
4B0
  8
_________1
 62
     7
 10
65.390726000000001
 20
151.52785700000001
 30
0.0
 40
1.1900040000000001
 50
272.182301
 51
298.53299500000003
  0
ARC
  5
4B1
  8
_________1
 62
     7
 10
65.462508
 20
151.31166499999989
 30
0.0
 40
0.966619
 50
300.916786
 51
358.36839800000001
  0
ARC
  5
4B2
  8
_________1
 62
     7
 10
65.374594999999999
 20
151.29174399999999
 30
0.0
 40
1.0541670000000001
 50
359.58684199999999
 51
86.658431999999991
  0
ARC
  5
4B3
  8
_________1
 62
     7
 10
68.845938000000004
 20
151.129367
 30
0.0
 40
1.217557
 50
93.890098999999992
 51
119.804855
  0
ARC
  5
4B4
  8
_________1
 62
     7
 10
68.914692000000002
 20
151.37903600000001
 30
0.0
 40
1.0512719999999991
 50
129.871554
 51
261.72209400000003
  0
ARC
  5
4B5
  8
_________1
 62
     7
 10
68.751331000000008
 20
151.42535699999999
 30
0.0
 40
1.086706999999999
 50
270.63292000000001
 51
303.545005
  0
ARC
  5
4B6
  8
_________1
 62
     7
 10
68.773149000000004
 20
151.31683100000001
 30
0.0
 40
0.985086
 50
305.97612700000002
 51
358.02381000000003
  0
ARC
  5
4B7
  8
_________1
 62
     7
 10
68.729325000000003
 20
151.31255999999999
 30
0.0
 40
1.0287539999999999
 50
358.34571
 51
76.019781000000009
  0
ARC
  5
4B8
  8
_________1
 62
     7
 10
68.660049000000001
 20
150.97019499999999
 30
0.0
 40
1.3778010000000001
 50
76.663825000000003
 51
85.700820999999976
  0
ARC
  5
4B9
  8
_________1
 62
     7
 10
72.156109000000001
 20
151.172281
 30
0.0
 40
1.1736279999999999
 50
93.164652000000004
 51
119.815867
  0
ARC
  5
4BA
  8
_________1
 62
     7
 10
72.098772999999994
 20
151.35272800000001
 30
0.0
 40
0.989367
 50
122.13145799999999
 51
180.01406499999999
  0
ARC
  5
4BB
  8
_________1
 62
     7
 10
72.149065000000007
 20
151.33784
 30
0.0
 40
1.0397620000000001
 50
179.19296199999999
 51
228.22216
  0
ARC
  5
4BC
  8
_________1
 62
     7
 10
72.064280000000011
 20
151.303382
 30
0.0
 40
0.9584239999999999
 50
230.630224
 51
261.11095899999998
  0
ARC
  5
4BD
  8
_________1
 62
     7
 10
72.128349999999998
 20
151.576774
 30
0.0
 40
1.238612
 50
260.13692400000002
 51
268.28675099999998
  0
ARC
  5
4BE
  8
_________1
 62
     7
 10
72.075792000000007
 20
151.500134
 30
0.0
 40
1.1615219999999991
 50
270.76592599999998
 51
297.90039200000001
  0
ARC
  5
4BF
  8
_________1
 62
     7
 10
72.141643000000002
 20
151.29305600000001
 30
0.0
 40
0.9484899999999999
 50
300.238922
 51
352.47866499999998
  0
ARC
  5
4C0
  8
_________1
 62
     7
 10
72.021167000000005
 20
151.32130900000001
 30
0.0
 40
1.071698
 50
351.824298
 51
45.084781999999997
  0
ARC
  5
4C1
  8
_________1
 62
     7
 10
72.110668000000004
 20
151.3507139999999
 30
0.0
 40
0.9886000000000002
 50
47.55556099999999
 51
84.055977999999996
  0
ARC
  5
4C2
  8
_________1
 62
     7
 10
72.042830000000009
 20
151.02376799999999
 30
0.0
 40
1.321240999999999
 50
82.598088000000004
 51
87.896837000000005
  0
ARC
  5
4C3
  8
_________1
 62
     7
 10
75.565725999999984
 20
150.959487
 30
0.0
 40
1.3902989999999991
 50
95.175295999999989
 51
114.73009399999999
  0
ARC
  5
4C4
  8
_________1
 62
     7
 10
75.587304000000003
 20
151.37134900000001
 30
0.0
 40
1.043042
 50
125.331767
 51
261.89881400000002
  0
ARC
  5
4C5
  8
_________1
 62
     7
 10
75.387474999999995
 20
151.528786
 30
0.0
 40
1.1912430000000001
 50
272.54241100000002
 51
298.767112
  0
ARC
  5
4C6
  8
_________1
 62
     7
 10
75.458737999999997
 20
151.314885
 30
0.0
 40
0.970289
 50
301.15769799999998
 51
359.53686499999998
  0
ARC
  5
4C7
  8
_________1
 62
     7
 10
75.376705999999999
 20
151.29366899999999
 30
0.0
 40
1.052373999999999
 50
0.7280910000000002
 51
86.534645999999995
  0
ARC
  5
4C8
  8
_________1
 62
     7
 10
67.120908
 20
147.83927600000001
 30
0.0
 40
1.1556949999999999
 50
91.052105000000012
 51
118.212858
  0
ARC
  5
4C9
  8
_________1
 62
     7
 10
67.056753999999998
 20
148.04043300000001
 30
0.0
 40
0.948891
 50
120.542063
 51
172.58918899999989
  0
ARC
  5
4CA
  8
_________1
 62
     7
 10
67.164630000000002
 20
148.01398599999999
 30
0.0
 40
1.059348999999999
 50
171.92328800000001
 51
225.259637
  0
ARC
  5
4CB
  8
_________1
 62
     7
 10
67.060756999999995
 20
147.975334
 30
0.0
 40
0.959909
 50
228.04071200000001
 51
265.12028500000002
  0
ARC
  5
4CC
  8
_________1
 62
     7
 10
67.123120999999998
 20
148.304901
 30
0.0
 40
1.2940359999999991
 50
263.61013700000001
 51
268.96241400000002
  0
ARC
  5
4CD
  8
_________1
 62
     7
 10
67.090908999999996
 20
148.14673199999999
 30
0.0
 40
1.1356889999999991
 50
270.44288999999998
 51
298.04216400000013
  0
ARC
  5
4CE
  8
_________1
 62
     7
 10
67.155715000000001
 20
147.94873799999999
 30
0.0
 40
0.9311629999999999
 50
300.25066600000002
 51
346.32643300000001
  0
ARC
  5
4CF
  8
_________1
 62
     7
 10
67.011238000000006
 20
147.99330900000001
 30
0.0
 40
1.082120999999999
 50
345.84168
 51
39.473596000000001
  0
ARC
  5
4D0
  8
_________1
 62
     7
 10
67.149785999999992
 20
148.05150699999999
 30
0.0
 40
0.939168
 50
42.107247999999998
 51
85.69579499999999
  0
ARC
  5
4D1
  8
_________1
 62
     7
 10
67.089034999999996
 20
147.72407100000001
 30
0.0
 40
1.27075
 50
84.072188999999995
 51
89.519684999999996
  0
ARC
  5
4D2
  8
_________1
 62
     7
 10
70.457820999999996
 20
147.835217
 30
0.0
 40
1.1599589999999991
 50
91.506450999999998
 51
118.48397900000001
  0
ARC
  5
4D3
  8
_________1
 62
     7
 10
70.391008999999997
 20
148.0371899999999
 30
0.0
 40
0.9513149999999999
 50
120.749076
 51
172.46351000000001
  0
ARC
  5
4D4
  8
_________1
 62
     7
 10
70.490086000000005
 20
148.014161
 30
0.0
 40
1.052602
 50
171.92815200000001
 51
226.633758
  0
ARC
  5
4D5
  8
_________1
 62
     7
 10
70.401342
 20
147.98902799999999
 30
0.0
 40
0.9745409999999999
 50
229.41324700000001
 51
266.18842699999999
  0
ARC
  5
4D6
  8
_________1
 62
     7
 10
70.462901000000002
 20
148.334102
 30
0.0
 40
1.3235030000000001
 50
264.522153
 51
268.45974999999999
  0
ARC
  5
4D7
  8
_________1
 62
     7
 10
70.40338100000001
 20
148.193254
 30
0.0
 40
1.1824190000000001
 50
271.16041200000001
 51
297.96193799999998
  0
ARC
  5
4D8
  8
_________1
 62
     7
 10
70.468761999999984
 20
147.979457
 30
0.0
 40
0.9638620000000001
 50
300.48900800000001
 51
358.65657499999998
  0
ARC
  5
4D9
  8
_________1
 62
     7
 10
70.400875999999997
 20
147.99328399999999
 30
0.0
 40
1.0321260000000001
 50
357.97754700000002
 51
51.710492999999992
  0
ARC
  5
4DA
  8
_________1
 62
     7
 10
70.458939999999998
 20
147.99454399999999
 30
0.0
 40
0.9961649999999998
 50
54.287683999999999
 51
84.803453000000005
  0
ARC
  5
4DB
  8
_________1
 62
     7
 10
70.399841000000009
 20
147.67079899999999
 30
0.0
 40
1.3242629999999991
 50
83.525517000000008
 51
88.81069699999999
  0
ARC
  5
4DC
  8
_________1
 62
     7
 10
73.77221999999999
 20
147.85890900000001
 30
0.0
 40
1.1358740000000001
 50
89.792946999999998
 51
117.58886099999999
  0
ARC
  5
4DD
  8
_________1
 62
     7
 10
73.707253000000009
 20
148.0625
 30
0.0
 40
0.9260729999999998
 50
119.86054900000001
 51
165.04869299999999
  0
ARC
  5
4DE
  8
_________1
 62
     7
 10
73.866070999999991
 20
148.00854000000001
 30
0.0
 40
1.093493
 50
164.464011
 51
213.1008490000001
  0
ARC
  5
4DF
  8
_________1
 62
     7
 10
73.705304999999996
 20
147.93951799999999
 30
0.0
 40
0.921611
 50
214.96481600000001
 51
259.714562
  0
ARC
  5
4E0
  8
_________1
 62
     7
 10
73.766342000000009
 20
148.19550000000001
 30
0.0
 40
1.184464999999999
 50
259.02037300000001
 51
270.48290600000001
  0
ARC
  5
4E1
  8
_________1
 62
     7
 10
73.761870000000002
 20
148.13130000000001
 30
0.0
 40
1.1203160000000001
 50
270.739284
 51
298.42871700000001
  0
ARC
  5
4E2
  8
_________1
 62
     7
 10
73.821765999999997
 20
147.94602699999999
 30
0.0
 40
0.9295489999999999
 50
300.61919599999999
 51
346.53421800000001
  0
ARC
  5
4E3
  8
_________1
 62
     7
 10
73.667259000000001
 20
147.996612
 30
0.0
 40
1.091669
 50
345.84059500000001
 51
34.020791000000003
  0
ARC
  5
4E4
  8
_________1
 62
     7
 10
73.825143999999995
 20
148.06518
 30
0.0
 40
0.9229829999999999
 50
35.976872
 51
80.351422000000014
  0
ARC
  5
4E5
  8
_________1
 62
     7
 10
73.764161999999999
 20
147.80623299999999
 30
0.0
 40
1.1886060000000001
 50
79.545481000000009
 51
89.413658999999996
  0
ARC
  5
4E6
  8
_________1
 62
     7
 10
77.113557
 20
147.858555
 30
0.0
 40
1.1362620000000001
 50
90.483760000000004
 51
118.06564899999999
  0
ARC
  5
4E7
  8
_________1
 62
     7
 10
77.048866000000004
 20
148.05650299999999
 30
0.0
 40
0.9318519999999999
 50
120.282602
 51
166.32995
  0
ARC
  5
4E8
  8
_________1
 62
     7
 10
77.192836999999997
 20
148.01211599999999
 30
0.0
 40
1.082271999999999
 50
165.84791999999999
 51
219.464236
  0
ARC
  5
4E9
  8
_________1
 62
     7
 10
77.053202999999996
 20
147.953159
 30
0.0
 40
0.9379959999999998
 50
222.106053
 51
265.732642
  0
ARC
  5
4EA
  8
_________1
 62
     7
 10
77.113962999999998
 20
148.28169199999999
 30
0.0
 40
1.270654
 50
264.10258199999998
 51
269.54911400000009
  0
ARC
  5
4EB
  8
_________1
 62
     7
 10
77.073433999999992
 20
148.172146
 30
0.0
 40
1.16147
 50
271.50620199999997
 51
298.45062899999999
  0
ARC
  5
4EC
  8
_________1
 62
     7
 10
77.140884999999983
 20
147.96812399999999
 30
0.0
 40
0.9507100000000001
 50
300.73484300000001
 51
352.476427
  0
ARC
  5
4ED
  8
_________1
 62
     7
 10
77.040824999999998
 20
147.99126100000001
 30
0.0
 40
1.0529850000000001
 50
351.94118900000001
 51
46.632218000000002
  0
ARC
  5
4EE
  8
_________1
 62
     7
 10
77.129460999999992
 20
148.01634899999999
 30
0.0
 40
0.975026
 50
49.407437000000002
 51
86.162880000000001
  0
ARC
  5
4EF
  8
_________1
 62
     7
 10
77.068899999999999
 20
147.68561099999999
 30
0.0
 40
1.3096350000000001
 50
84.487343999999993
 51
88.465770999999989
  0
ARC
  5
4F0
  8
_________1
 62
     7
 10
67.173893000000007
 20
154.44329300000001
 30
0.0
 40
1.2303599999999999
 50
93.457689999999999
 51
119.15917399999999
  0
ARC
  5
4F1
  8
_________1
 62
     7
 10
67.219226000000006
 20
154.692836
 30
0.0
 40
1.0470099999999991
 50
128.01438899999999
 51
253.48964000000001
  0
ARC
  5
4F2
  8
_________1
 62
     7
 10
67.176664999999986
 20
154.982688
 30
0.0
 40
1.318581999999999
 50
258.84988600000003
 51
266.653233
  0
ARC
  5
4F3
  8
_________1
 62
     7
 10
67.051589000000007
 20
154.848084
 30
0.0
 40
1.1827080000000001
 50
272.330759
 51
298.92365799999999
  0
ARC
  5
4F4
  8
_________1
 62
     7
 10
67.116501999999997
 20
154.64681200000001
 30
0.0
 40
0.9759879999999999
 50
301.30357099999998
 51
358.61333000000002
  0
ARC
  5
4F5
  8
_________1
 62
     7
 10
67.048352000000008
 20
154.62880899999999
 30
0.0
 40
1.043868
 50
359.69177999999999
 51
87.181135999999995
  0
ARC
  5
4F6
  8
_________1
 62
     7
 10
70.504518000000004
 20
154.451324
 30
0.0
 40
1.2225280000000001
 50
93.620120000000014
 51
119.36123000000001
  0
ARC
  5
4F7
  8
_________1
 62
     7
 10
70.552012000000005
 20
154.69275300000001
 30
0.0
 40
1.0476529999999999
 50
128.13314099999999
 51
253.269294
  0
ARC
  5
4F8
  8
_________1
 62
     7
 10
70.509004000000004
 20
154.98120800000001
 30
0.0
 40
1.317388
 50
258.68016899999998
 51
266.44540899999998
  0
ARC
  5
4F9
  8
_________1
 62
     7
 10
70.361767
 20
154.89791399999999
 30
0.0
 40
1.2333019999999999
 50
273.04715099999999
 51
298.84796499999999
  0
ARC
  5
4FA
  8
_________1
 62
     7
 10
70.315118999999996
 20
154.64452900000001
 30
0.0
 40
1.0466569999999991
 50
307.81363900000002
 51
73.820439000000007
  0
ARC
  5
4FB
  8
_________1
 62
     7
 10
70.358145999999991
 20
154.34553
 30
0.0
 40
1.3276859999999999
 50
79.207059000000015
 51
87.013176999999999
  0
ARC
  5
4FC
  8
_________1
 62
     7
 10
73.81724100000001
 20
154.47602499999999
 30
0.0
 40
1.1960879999999989
 50
91.960360000000009
 51
118.50513100000001
  0
ARC
  5
4FD
  8
_________1
 62
     7
 10
73.748142999999999
 20
154.68993699999999
 30
0.0
 40
0.9760089999999999
 50
120.93415899999999
 51
178.54207500000001
  0
ARC
  5
4FE
  8
_________1
 62
     7
 10
73.817357000000001
 20
154.710465
 30
0.0
 40
1.0449159999999991
 50
179.764002
 51
267.749505
  0
ARC
  5
4FF
  8
_________1
 62
     7
 10
73.715487999999993
 20
154.846282
 30
0.0
 40
1.1814949999999991
 50
272.95158500000008
 51
299.368269
  0
ARC
  5
500
  8
_________1
 62
     7
 10
73.780152000000001
 20
154.64977500000001
 30
0.0
 40
0.9793469999999999
 50
301.71009900000001
 51
359.78328800000003
  0
ARC
  5
501
  8
_________1
 62
     7
 10
73.717375000000004
 20
154.630854
 30
0.0
 40
1.0422279999999999
 50
0.836583
 51
86.757503999999997
  0
ARC
  5
502
  8
_________1
 62
     7
 10
77.152062000000001
 20
154.48968400000001
 30
0.0
 40
1.1827080000000001
 50
92.330739000000023
 51
118.923638
  0
ARC
  5
503
  8
_________1
 62
     7
 10
77.087148999999997
 20
154.690956
 30
0.0
 40
0.9759879999999999
 50
121.303551
 51
178.61331000000001
  0
ARC
  5
504
  8
_________1
 62
     7
 10
77.155298999999985
 20
154.70895899999999
 30
0.0
 40
1.0438670000000001
 50
179.691743
 51
267.181173
  0
ARC
  5
505
  8
_________1
 62
     7
 10
77.026756999999989
 20
154.88613799999999
 30
0.0
 40
1.2222239999999991
 50
273.62172500000008
 51
299.36513100000002
  0
ARC
  5
506
  8
_________1
 62
     7
 10
76.979140999999998
 20
154.645028
 30
0.0
 40
1.0476920000000001
 50
308.13470799999999
 51
73.259904000000006
  0
ARC
  5
507
  8
_________1
 62
     7
 10
77.022336999999993
 20
154.356525
 30
0.0
 40
1.31742
 50
78.680994999999996
 51
86.447675999999987
  0
ARC
  5
508
  8
_________1
 62
     7
 10
62.233455999999997
 20
150.95984300000001
 30
0.0
 40
1.3899440000000001
 50
95.176186999999985
 51
114.731233
  0
ARC
  5
509
  8
_________1
 62
     7
 10
62.255356999999997
 20
151.371398
 30
0.0
 40
1.0431349999999999
 50
125.341594
 51
261.88219099999998
  0
ARC
  5
50A
  8
_________1
 62
     7
 10
62.055194999999998
 20
151.52940899999999
 30
0.0
 40
1.1918649999999991
 50
272.542055
 51
298.75946299999998
  0
ARC
  5
50B
  8
_________1
 62
     7
 10
62.126593000000007
 20
151.31503900000001
 30
0.0
 40
0.970434
 50
301.15425800000003
 51
359.52784500000001
  0
ARC
  5
50C
  8
_________1
 62
     7
 10
62.044702999999998
 20
151.29365100000001
 30
0.0
 40
1.0523769999999999
 50
0.7290840000000001
 51
86.548607999999987
  0
ARC
  5
50D
  8
_________1
 62
     7
 10
60.440306000000007
 20
147.85890900000001
 30
0.0
 40
1.1358740000000001
 50
89.792946999999998
 51
117.58886099999999
  0
ARC
  5
50E
  8
_________1
 62
     7
 10
60.375337999999999
 20
148.0625
 30
0.0
 40
0.9260729999999998
 50
119.86054900000001
 51
165.04869299999999
  0
ARC
  5
50F
  8
_________1
 62
     7
 10
60.534156999999993
 20
148.00854000000001
 30
0.0
 40
1.093493
 50
164.464011
 51
213.1008490000001
  0
ARC
  5
510
  8
_________1
 62
     7
 10
60.373390000000001
 20
147.93951799999999
 30
0.0
 40
0.921611
 50
214.96481600000001
 51
259.714562
  0
ARC
  5
511
  8
_________1
 62
     7
 10
60.434426999999992
 20
148.19550000000001
 30
0.0
 40
1.184464999999999
 50
259.02037300000001
 51
270.48290600000001
  0
ARC
  5
512
  8
_________1
 62
     7
 10
60.429960999999992
 20
148.13074599999999
 30
0.0
 40
1.119761
 50
270.73934200000002
 51
298.43590399999999
  0
ARC
  5
513
  8
_________1
 62
     7
 10
60.489673000000003
 20
147.94588400000001
 30
0.0
 40
0.9294489999999999
 50
300.62602299999998
 51
346.54176699999999
  0
ARC
  5
514
  8
_________1
 62
     7
 10
60.334702
 20
147.99658199999999
 30
0.0
 40
1.092044
 50
345.84718199999998
 51
34.009431999999997
  0
ARC
  5
515
  8
_________1
 62
     7
 10
60.493188000000004
 20
148.065518
 30
0.0
 40
0.9226469999999999
 50
35.966042999999999
 51
80.348713000000004
  0
ARC
  5
516
  8
_________1
 62
     7
 10
60.432255000000012
 20
147.80691200000001
 30
0.0
 40
1.187926
 50
79.542497999999995
 51
89.413739000000007
  0
ARC
  5
517
  8
_________1
 62
     7
 10
60.485326000000001
 20
154.47602499999999
 30
0.0
 40
1.1960879999999989
 50
91.960360000000009
 51
118.50513100000001
  0
ARC
  5
518
  8
_________1
 62
     7
 10
60.416227999999997
 20
154.68993699999999
 30
0.0
 40
0.9760089999999999
 50
120.93415899999999
 51
178.54207500000001
  0
ARC
  5
519
  8
_________1
 62
     7
 10
60.485442999999997
 20
154.710465
 30
0.0
 40
1.0449159999999991
 50
179.764002
 51
267.749505
  0
ARC
  5
51A
  8
_________1
 62
     7
 10
60.383594000000002
 20
154.84568899999999
 30
0.0
 40
1.1809019999999999
 50
272.95202799999998
 51
299.37577700000003
  0
ARC
  5
51B
  8
_________1
 62
     7
 10
60.448027000000003
 20
154.6496709999999
 30
0.0
 40
0.979298
 50
301.71704199999999
 51
359.78936599999997
  0
ARC
  5
51C
  8
_________1
 62
     7
 10
60.385204999999999
 20
154.63087200000001
 30
0.0
 40
1.042224
 50
0.8355799999999998
 51
86.743460999999996
  0
ARC
  5
51D
  8
_________1
 62
     7
 10
68.973326999999983
 20
156.27442400000001
 30
0.0
 40
18.050840000000001
 50
96.162441999999999
 51
175.708619
  0
ARC
  5
51E
  8
_________1
 62
     7
 10
71.989964999999984
 20
156.38193999999999
 30
0.0
 40
17.934733999999999
 50
3.9748139999999998
 51
84.077884999999995
  0
LINE
  5
51F
  8
_________1
 62
     7
 10
128.494
 20
178.90100000000001
 30
0.0
 11
128.32300000000001
 21
178.858
 31
0.0
  0
LINE
  5
520
  8
_________1
 62
     7
 10
128.32300000000001
 20
178.858
 30
0.0
 11
128.21700000000001
 21
178.75200000000001
 31
0.0
  0
LINE
  5
521
  8
_________1
 62
     7
 10
128.21700000000001
 20
178.75200000000001
 30
0.0
 11
128.17400000000001
 21
178.58099999999999
 31
0.0
  0
LINE
  5
522
  8
_________1
 62
     7
 10
128.17400000000001
 20
178.58099999999999
 30
0.0
 11
128.21700000000001
 21
178.411
 31
0.0
  0
LINE
  5
523
  8
_________1
 62
     7
 10
128.21700000000001
 20
178.411
 30
0.0
 11
128.32300000000001
 21
178.28299999999999
 31
0.0
  0
LINE
  5
524
  8
_________1
 62
     7
 10
128.32300000000001
 20
178.28299999999999
 30
0.0
 11
128.494
 21
178.24000000000001
 31
0.0
  0
LINE
  5
525
  8
_________1
 62
     7
 10
128.494
 20
178.24000000000001
 30
0.0
 11
128.66399999999999
 21
178.28299999999999
 31
0.0
  0
LINE
  5
526
  8
_________1
 62
     7
 10
128.66399999999999
 20
178.28299999999999
 30
0.0
 11
128.792
 21
178.411
 31
0.0
  0
LINE
  5
527
  8
_________1
 62
     7
 10
128.792
 20
178.411
 30
0.0
 11
128.83500000000001
 21
178.58099999999999
 31
0.0
  0
LINE
  5
528
  8
_________1
 62
     7
 10
128.83500000000001
 20
178.58099999999999
 30
0.0
 11
128.792
 21
178.75200000000001
 31
0.0
  0
LINE
  5
529
  8
_________1
 62
     7
 10
128.792
 20
178.75200000000001
 30
0.0
 11
128.66399999999999
 21
178.858
 31
0.0
  0
LINE
  5
52A
  8
_________1
 62
     7
 10
128.66399999999999
 20
178.858
 30
0.0
 11
128.494
 21
178.90100000000001
 31
0.0
  0
LINE
  5
52B
  8
_________1
 62
     7
 10
128.45099999999999
 20
179.24299999999999
 30
0.0
 11
128.25899999999999
 21
179.1999999999999
 31
0.0
  0
LINE
  5
52C
  8
_________1
 62
     7
 10
128.25899999999999
 20
179.1999999999999
 30
0.0
 11
128.08799999999999
 21
179.09299999999999
 31
0.0
  0
LINE
  5
52D
  8
_________1
 62
     7
 10
128.08799999999999
 20
179.09299999999999
 30
0.0
 11
127.95999999999999
 21
178.965
 31
0.0
  0
LINE
  5
52E
  8
_________1
 62
     7
 10
127.95999999999999
 20
178.965
 30
0.0
 11
127.85299999999999
 21
178.773
 31
0.0
  0
LINE
  5
52F
  8
_________1
 62
     7
 10
127.85299999999999
 20
178.773
 30
0.0
 11
127.833
 21
178.58099999999999
 31
0.0
  0
LINE
  5
530
  8
_________1
 62
     7
 10
128.47200000000001
 20
178.90100000000001
 30
0.0
 11
128.30099999999999
 21
178.858
 31
0.0
  0
LINE
  5
531
  8
_________1
 62
     7
 10
128.30099999999999
 20
178.858
 30
0.0
 11
128.19499999999999
 21
178.709
 31
0.0
  0
LINE
  5
532
  8
_________1
 62
     7
 10
128.19499999999999
 20
178.709
 30
0.0
 11
128.17400000000001
 21
178.53899999999999
 31
0.0
  0
LINE
  5
533
  8
_________1
 62
     7
 10
128.17400000000001
 20
178.53899999999999
 30
0.0
 11
128.238
 21
177.899
 31
0.0
  0
LINE
  5
534
  8
_________1
 62
     7
 10
128.238
 20
177.899
 30
0.0
 11
128.36600000000001
 21
177.25899999999999
 31
0.0
  0
LINE
  5
535
  8
_________1
 62
     7
 10
128.45099999999999
 20
179.24299999999999
 30
0.0
 11
129.83799999999999
 21
179.328
 31
0.0
  0
LINE
  5
536
  8
_________1
 62
     7
 10
128.47200000000001
 20
178.90100000000001
 30
0.0
 11
129.83799999999999
 21
179.00800000000001
 31
0.0
  0
LINE
  5
537
  8
_________1
 62
     7
 10
129.75200000000001
 20
175.38200000000001
 30
0.0
 11
129.64599999999999
 21
175.744
 31
0.0
  0
LINE
  5
538
  8
_________1
 62
     7
 10
129.64599999999999
 20
175.744
 30
0.0
 11
129.45400000000001
 21
176.06399999999999
 31
0.0
  0
LINE
  5
539
  8
_________1
 62
     7
 10
129.45400000000001
 20
176.06399999999999
 30
0.0
 11
129.19800000000001
 21
176.34100000000001
 31
0.0
  0
LINE
  5
53A
  8
_________1
 62
     7
 10
129.19800000000001
 20
176.34100000000001
 30
0.0
 11
128.899
 21
176.55500000000001
 31
0.0
  0
LINE
  5
53B
  8
_________1
 62
     7
 10
128.899
 20
176.55500000000001
 30
0.0
 11
128.536
 21
176.68299999999999
 31
0.0
  0
LINE
  5
53C
  8
_________1
 62
     7
 10
128.04599999999999
 20
177.173
 30
0.0
 11
128.15299999999999
 21
176.93899999999999
 31
0.0
  0
LINE
  5
53D
  8
_________1
 62
     7
 10
128.15299999999999
 20
176.93899999999999
 30
0.0
 11
128.32300000000001
 21
176.78899999999999
 31
0.0
  0
LINE
  5
53E
  8
_________1
 62
     7
 10
128.32300000000001
 20
176.78899999999999
 30
0.0
 11
128.536
 21
176.68299999999999
 31
0.0
  0
LINE
  5
53F
  8
_________1
 62
     7
 10
129.816
 20
174.8479999999999
 30
0.0
 11
129.75200000000001
 21
175.38200000000001
 31
0.0
  0
ARC
  5
540
  8
_________1
 62
     7
 10
127.128272
 20
174.844359
 30
0.0
 40
3.007693999999999
 50
0.4822500000000001
 51
17.471879000000001
  0
ARC
  5
541
  8
_________1
 62
     7
 10
128.09048100000001
 20
175.10698500000001
 30
0.0
 40
2.0113929999999991
 50
18.565259000000001
 51
46.936014
  0
ARC
  5
542
  8
_________1
 62
     7
 10
128.25233899999989
 20
175.21276499999999
 30
0.0
 40
1.824173
 50
48.381762000000009
 51
72.950507000000002
  0
ARC
  5
543
  8
_________1
 62
     7
 10
128.100674
 20
174.81387799999999
 30
0.0
 40
2.2501720000000001
 50
72.236311999999984
 51
76.610871000000003
  0
LINE
  5
544
  8
_________1
 62
     7
 10
129.83799999999999
 20
176.107
 30
0.0
 11
129.83799999999999
 21
179.328
 31
0.0
  0
LINE
  5
545
  8
_________1
 62
     7
 10
129.83799999999999
 20
179.328
 30
0.0
 11
129.83799999999999
 21
176.107
 31
0.0
  0
LINE
  5
546
  8
_________1
 62
     7
 10
127.833
 20
178.58099999999999
 30
0.0
 11
127.89700000000001
 21
177.85599999999999
 31
0.0
  0
LINE
  5
547
  8
_________1
 62
     7
 10
127.89700000000001
 20
177.85599999999999
 30
0.0
 11
128.04599999999999
 21
177.173
 31
0.0
  0
LINE
  5
548
  8
_________1
 62
     7
 10
128.36600000000001
 20
177.25899999999999
 30
0.0
 11
128.45099999999999
 21
177.08799999999999
 31
0.0
  0
LINE
  5
549
  8
_________1
 62
     7
 10
128.45099999999999
 20
177.08799999999999
 30
0.0
 11
128.62200000000001
 21
177.00299999999999
 31
0.0
  0
LINE
  5
54A
  8
_________1
 62
     7
 10
55.3887
 20
111.687
 30
0.0
 11
55.6023
 21
110.172
 31
0.0
  0
LINE
  5
54B
  8
_________1
 62
     7
 10
55.6023
 20
110.172
 30
0.0
 11
55.921999999999997
 21
108.679
 31
0.0
  0
ARC
  5
54C
  8
_________1
 62
     7
 10
82.855888000000007
 20
106.147869
 30
0.0
 40
35.083103000000001
 50
159.51209399999999
 51
179.698995
  0
ARC
  5
54D
  8
_________1
 62
     7
 10
-98.684771999999995
 20
130.12224000000001
 30
0.0
 40
151.09324799999999
 50
352.39624500000008
 51
356.57922400000001
  0
ARC
  5
54E
  8
_________1
 62
     7
 10
-121.070684
 20
131.77284499999999
 30
0.0
 40
173.53804299999999
 50
356.47623499999997
 51
359.79132200000009
  0
ARC
  5
54F
  8
_________1
 62
     7
 10
249.05083099999999
 20
131.126003
 30
0.0
 40
196.58462399999999
 50
179.995667
 51
184.47082
  0
ARC
  5
550
  8
_________1
 62
     7
 10
225.001743
 20
129.59377900000001
 30
0.0
 40
172.48962299999999
 50
184.58611300000001
 51
187.75042999999999
  0
LINE
  5
551
  8
_________1
 62
     7
 10
84.932599999999994
 20
108.679
 30
0.0
 11
85.274100000000004
 21
110.172
 31
0.0
  0
LINE
  5
552
  8
_________1
 62
     7
 10
85.274100000000004
 20
110.172
 30
0.0
 11
85.487000000000009
 21
111.687
 31
0.0
  0
ARC
  5
553
  8
_________1
 62
     7
 10
59.278967000000002
 20
106.25977
 30
0.0
 40
33.823509999999999
 50
0.122637
 51
18.892429
  0
ARC
  5
554
  8
_________1
 62
     7
 10
64.23803199999999
 20
107.785614
 30
0.0
 40
28.638000000000002
 50
19.216671000000002
 51
21.263301999999999
  0
ARC
  5
555
  8
_________1
 62
     7
 10
247.92479499999999
 20
131.114011
 30
0.0
 40
159.51499200000001
 50
179.99035799999999
 51
187.559348
  0
ARC
  5
556
  8
_________1
 62
     7
 10
-82.668785999999997
 20
129.387224
 30
0.0
 40
171.01813300000001
 50
352.25233300000002
 51
356.74653499999999
  0
ARC
  5
557
  8
_________1
 62
     7
 10
-106.808114
 20
131.131812
 30
0.0
 40
195.21791899999999
 50
356.63741499999998
 51
0.002638
  0
LINE
  5
558
  8
_________1
 62
     7
 10
128.17400000000001
 20
178.58099999999999
 30
0.0
 11
128.494
 21
178.90100000000001
 31
0.0
  0
LINE
  5
559
  8
_________1
 62
     7
 10
128.238
 20
178.36799999999999
 30
0.0
 11
128.70699999999999
 21
178.83699999999999
 31
0.0
  0
LINE
  5
55A
  8
_________1
 62
     7
 10
128.429
 20
178.261
 30
0.0
 11
128.83500000000001
 21
178.64599999999999
 31
0.0
  0
LINE
  5
55B
  8
_________1
 62
     7
 10
129.816
 20
174.8479999999999
 30
0.0
 11
129.85900000000001
 21
174.63499999999999
 31
0.0
  0
LINE
  5
55C
  8
_________1
 62
     7
 10
129.85900000000001
 20
174.63499999999999
 30
0.0
 11
129.98699999999999
 21
174.44300000000001
 31
0.0
  0
LINE
  5
55D
  8
_________1
 62
     7
 10
129.98699999999999
 20
174.44300000000001
 30
0.0
 11
130.15799999999999
 21
174.315
 31
0.0
  0
LINE
  5
55E
  8
_________1
 62
     7
 10
130.15799999999999
 20
174.315
 30
0.0
 11
130.34899999999999
 21
174.22999999999999
 31
0.0
  0
LINE
  5
55F
  8
_________1
 62
     7
 10
130.136
 20
174.87
 30
0.0
 11
130.179
 21
174.74199999999999
 31
0.0
  0
LINE
  5
560
  8
_________1
 62
     7
 10
130.179
 20
174.74199999999999
 30
0.0
 11
130.285
 21
174.614
 31
0.0
  0
LINE
  5
561
  8
_________1
 62
     7
 10
130.285
 20
174.614
 30
0.0
 11
130.41399999999999
 21
174.571
 31
0.0
  0
LINE
  5
562
  8
_________1
 62
     7
 10
130.477
 20
174.22999999999999
 30
0.0
 11
129.816
 21
174.87
 31
0.0
  0
LINE
  5
563
  8
_________1
 62
     7
 10
130.81899999999999
 20
174.18700000000001
 30
0.0
 11
130.41399999999999
 21
174.571
 31
0.0
  0
LINE
  5
564
  8
_________1
 62
     7
 10
130.15799999999999
 20
174.827
 30
0.0
 11
129.774
 21
175.21100000000001
 31
0.0
  0
LINE
  5
565
  8
_________1
 62
     7
 10
131.203
 20
174.08000000000001
 30
0.0
 11
130.77600000000001
 21
174.50700000000001
 31
0.0
  0
LINE
  5
566
  8
_________1
 62
     7
 10
128.62200000000001
 20
176.661
 30
0.0
 11
128.024
 21
177.28
 31
0.0
  0
LINE
  5
567
  8
_________1
 62
     7
 10
130.11500000000001
 20
175.16800000000001
 30
0.0
 11
129.71000000000001
 21
175.57400000000001
 31
0.0
  0
LINE
  5
568
  8
_________1
 62
     7
 10
130.072
 20
175.53099999999989
 30
0.0
 11
128.55799999999999
 21
177.024
 31
0.0
  0
LINE
  5
569
  8
_________1
 62
     7
 10
128.387
 20
177.19499999999999
 30
0.0
 11
127.93899999999999
 21
177.643
 31
0.0
  0
LINE
  5
56A
  8
_________1
 62
     7
 10
129.90199999999999
 20
175.97900000000001
 30
0.0
 11
129.02699999999999
 21
176.85300000000001
 31
0.0
  0
LINE
  5
56B
  8
_________1
 62
     7
 10
128.28100000000001
 20
177.59999999999999
 30
0.0
 11
127.875
 21
178.005
 31
0.0
  0
LINE
  5
56C
  8
_________1
 62
     7
 10
128.21700000000001
 20
177.96299999999999
 30
0.0
 11
127.85299999999999
 21
178.346
 31
0.0
  0
LINE
  5
56D
  8
_________1
 62
     7
 10
128.19499999999999
 20
178.304
 30
0.0
 11
127.833
 21
178.64599999999999
 31
0.0
  0
LINE
  5
56E
  8
_________1
 62
     7
 10
128.17400000000001
 20
178.624
 30
0.0
 11
127.89700000000001
 21
178.88
 31
0.0
  0
LINE
  5
56F
  8
_________1
 62
     7
 10
128.25899999999999
 20
178.81599999999989
 30
0.0
 11
128.024
 21
179.05099999999999
 31
0.0
  0
LINE
  5
570
  8
_________1
 62
     7
 10
128.47200000000001
 20
178.90100000000001
 30
0.0
 11
128.21700000000001
 21
179.179
 31
0.0
  0
LINE
  5
571
  8
_________1
 62
     7
 10
128.75
 20
178.923
 30
0.0
 11
128.429
 21
179.24299999999999
 31
0.0
  0
LINE
  5
572
  8
_________1
 62
     7
 10
129.02699999999999
 20
178.94399999999999
 30
0.0
 11
128.72900000000001
 21
179.26400000000001
 31
0.0
  0
LINE
  5
573
  8
_________1
 62
     7
 10
129.304
 20
178.965
 30
0.0
 11
129.006
 21
179.285
 31
0.0
  0
LINE
  5
574
  8
_________1
 62
     7
 10
129.60300000000001
 20
178.98699999999999
 30
0.0
 11
129.28299999999999
 21
179.30600000000001
 31
0.0
  0
LINE
  5
575
  8
_________1
 62
     7
 10
129.83799999999999
 20
179.05099999999999
 30
0.0
 11
129.56
 21
179.30600000000001
 31
0.0
  0
LINE
  5
576
  8
_________1
 62
     7
 10
157.26900000000001
 20
160.834
 30
0.0
 11
157.61099999999999
 21
160.834
 31
0.0
  0
LINE
  5
577
  8
_________1
 62
     7
 10
156.608
 20
159.852
 30
0.0
 11
157.077
 21
160.322
 31
0.0
  0
LINE
  5
578
  8
_________1
 62
     7
 10
157.077
 20
160.322
 30
0.0
 11
157.20599999999999
 21
160.51400000000001
 31
0.0
  0
LINE
  5
579
  8
_________1
 62
     7
 10
157.20599999999999
 20
160.51400000000001
 30
0.0
 11
157.26900000000001
 21
160.74799999999999
 31
0.0
  0
LINE
  5
57A
  8
_________1
 62
     7
 10
156.608
 20
159.852
 30
0.0
 11
156.47999999999999
 21
159.63900000000001
 31
0.0
  0
LINE
  5
57B
  8
_________1
 62
     7
 10
156.47999999999999
 20
159.63900000000001
 30
0.0
 11
156.416
 21
159.405
 31
0.0
  0
LINE
  5
57C
  8
_________1
 62
     7
 10
157.31200000000001
 20
160.08699999999999
 30
0.0
 11
156.84299999999999
 21
159.61799999999999
 31
0.0
  0
LINE
  5
57D
  8
_________1
 62
     7
 10
156.84299999999999
 20
159.61799999999999
 30
0.0
 11
156.7579999999999
 21
159.405
 31
0.0
  0
LINE
  5
57E
  8
_________1
 62
     7
 10
157.31200000000001
 20
160.08699999999999
 30
0.0
 11
157.46100000000001
 21
160.279
 31
0.0
  0
LINE
  5
57F
  8
_________1
 62
     7
 10
157.46100000000001
 20
160.279
 30
0.0
 11
157.547
 21
160.49299999999999
 31
0.0
  0
LINE
  5
580
  8
_________1
 62
     7
 10
157.547
 20
160.49299999999999
 30
0.0
 11
157.59
 21
160.727
 31
0.0
  0
LINE
  5
581
  8
_________1
 62
     7
 10
156.416
 20
165.93199999999999
 30
0.0
 11
156.47999999999999
 21
165.697
 31
0.0
  0
LINE
  5
582
  8
_________1
 62
     7
 10
156.47999999999999
 20
165.697
 30
0.0
 11
156.63
 21
165.48400000000001
 31
0.0
  0
LINE
  5
583
  8
_________1
 62
     7
 10
157.35499999999999
 20
165.27099999999999
 30
0.0
 11
156.864
 21
165.74000000000001
 31
0.0
  0
LINE
  5
584
  8
_________1
 62
     7
 10
156.864
 20
165.74000000000001
 30
0.0
 11
156.7579999999999
 21
165.953
 31
0.0
  0
LINE
  5
585
  8
_________1
 62
     7
 10
156.7579999999999
 20
165.953
 30
0.0
 11
156.7579999999999
 21
165.97399999999999
 31
0.0
  0
LINE
  5
586
  8
_________1
 62
     7
 10
157.333
 20
164.50299999999999
 30
0.0
 11
157.67400000000001
 21
164.50299999999999
 31
0.0
  0
LINE
  5
587
  8
_________1
 62
     7
 10
157.333
 20
164.56700000000001
 30
0.0
 11
157.26900000000001
 21
164.80199999999999
 31
0.0
  0
LINE
  5
588
  8
_________1
 62
     7
 10
157.26900000000001
 20
164.80199999999999
 30
0.0
 11
157.12
 21
165.01499999999999
 31
0.0
  0
LINE
  5
589
  8
_________1
 62
     7
 10
157.12
 20
165.01499999999999
 30
0.0
 11
156.63
 21
165.48400000000001
 31
0.0
  0
LINE
  5
58A
  8
_________1
 62
     7
 10
157.67400000000001
 20
164.56700000000001
 30
0.0
 11
157.63200000000001
 21
164.82300000000001
 31
0.0
  0
LINE
  5
58B
  8
_________1
 62
     7
 10
157.63200000000001
 20
164.82300000000001
 30
0.0
 11
157.52500000000001
 21
165.05699999999999
 31
0.0
  0
LINE
  5
58C
  8
_________1
 62
     7
 10
157.52500000000001
 20
165.05699999999999
 30
0.0
 11
157.35499999999999
 21
165.27099999999999
 31
0.0
  0
LINE
  5
58D
  8
_________1
 62
     7
 10
153.77099999999999
 20
170.262
 30
0.0
 11
152.0
 21
170.71000000000001
 31
0.0
  0
LINE
  5
58E
  8
_________1
 62
     7
 10
152.0
 20
170.71000000000001
 30
0.0
 11
150.23099999999999
 21
171.05099999999999
 31
0.0
  0
LINE
  5
58F
  8
_________1
 62
     7
 10
150.23099999999999
 20
171.05099999999999
 30
0.0
 11
148.4379999999999
 21
171.30699999999999
 31
0.0
  0
LINE
  5
590
  8
_________1
 62
     7
 10
153.66499999999999
 20
169.94200000000001
 30
0.0
 11
151.93700000000001
 21
170.369
 31
0.0
  0
LINE
  5
591
  8
_________1
 62
     7
 10
151.93700000000001
 20
170.369
 30
0.0
 11
150.166
 21
170.73099999999999
 31
0.0
  0
LINE
  5
592
  8
_________1
 62
     7
 10
150.166
 20
170.73099999999999
 30
0.0
 11
148.39599999999999
 21
170.98699999999999
 31
0.0
  0
LINE
  5
593
  8
_________1
 62
     7
 10
130.34899999999999
 20
174.22999999999999
 30
0.0
 11
148.39599999999999
 21
170.98699999999999
 31
0.0
  0
LINE
  5
594
  8
_________1
 62
     7
 10
130.41399999999999
 20
174.571
 30
0.0
 11
148.46000000000001
 21
171.30699999999999
 31
0.0
  0
ARC
  5
595
  8
_________1
 62
     7
 10
151.69560000000001
 20
165.63056499999999
 30
0.0
 40
5.0737220000000001
 50
3.8855659999999999
 51
65.319760000000002
  0
ARC
  5
596
  8
_________1
 62
     7
 10
151.73763199999999
 20
165.67097899999999
 30
0.0
 40
4.6858639999999987
 50
6.3344279999999991
 51
65.712806999999984
  0
LINE
  5
597
  8
_________1
 62
     7
 10
157.26900000000001
 20
160.74799999999999
 30
0.0
 11
157.35499999999999
 21
162.64699999999999
 31
0.0
  0
LINE
  5
598
  8
_________1
 62
     7
 10
157.35499999999999
 20
162.64699999999999
 30
0.0
 11
157.333
 21
164.56700000000001
 31
0.0
  0
LINE
  5
599
  8
_________1
 62
     7
 10
157.59
 20
160.727
 30
0.0
 11
157.696
 21
162.64699999999999
 31
0.0
  0
LINE
  5
59A
  8
_________1
 62
     7
 10
157.696
 20
162.64699999999999
 30
0.0
 11
157.67400000000001
 21
164.56700000000001
 31
0.0
  0
LINE
  5
59B
  8
_________1
 62
     7
 10
156.459
 20
161.25999999999999
 30
0.0
 11
156.5
 21
162.90299999999999
 31
0.0
  0
LINE
  5
59C
  8
_________1
 62
     7
 10
156.5
 20
162.90299999999999
 30
0.0
 11
156.50200000000001
 21
164.54499999999999
 31
0.0
  0
LINE
  5
59D
  8
_________1
 62
     7
 10
156.50200000000001
 20
164.54499999999999
 30
0.0
 11
156.39500000000001
 21
166.18799999999999
 31
0.0
  0
LINE
  5
59E
  8
_________1
 62
     7
 10
134.851
 20
173.41900000000001
 30
0.0
 11
134.76499999999999
 21
173.52600000000001
 31
0.0
  0
LINE
  5
59F
  8
_________1
 62
     7
 10
135.21299999999999
 20
173.35499999999999
 30
0.0
 11
134.80799999999999
 21
173.78200000000001
 31
0.0
  0
LINE
  5
5A0
  8
_________1
 62
     7
 10
135.57599999999999
 20
173.291
 30
0.0
 11
135.16999999999999
 21
173.71799999999999
 31
0.0
  0
LINE
  5
5A1
  8
_________1
 62
     7
 10
135.93799999999999
 20
173.227
 30
0.0
 11
135.53299999999999
 21
173.63300000000001
 31
0.0
  0
LINE
  5
5A2
  8
_________1
 62
     7
 10
136.322
 20
173.16300000000001
 30
0.0
 11
135.89500000000001
 21
173.56800000000001
 31
0.0
  0
LINE
  5
5A3
  8
_________1
 62
     7
 10
136.685
 20
173.09899999999999
 30
0.0
 11
136.25899999999999
 21
173.50399999999999
 31
0.0
  0
LINE
  5
5A4
  8
_________1
 62
     7
 10
137.047
 20
173.035
 30
0.0
 11
136.62100000000001
 21
173.441
 31
0.0
  0
LINE
  5
5A5
  8
_________1
 62
     7
 10
137.41
 20
172.971
 30
0.0
 11
137.005
 21
173.37700000000001
 31
0.0
  0
LINE
  5
5A6
  8
_________1
 62
     7
 10
137.773
 20
172.90700000000001
 30
0.0
 11
137.36799999999999
 21
173.31200000000001
 31
0.0
  0
LINE
  5
5A7
  8
_________1
 62
     7
 10
138.13499999999999
 20
172.822
 30
0.0
 11
137.72999999999999
 21
173.24799999999999
 31
0.0
  0
LINE
  5
5A8
  8
_________1
 62
     7
 10
138.49799999999999
 20
172.75800000000001
 30
0.0
 11
138.09299999999999
 21
173.184
 31
0.0
  0
LINE
  5
5A9
  8
_________1
 62
     7
 10
138.88200000000001
 20
172.69399999999999
 30
0.0
 11
138.45500000000001
 21
173.12100000000001
 31
0.0
  0
LINE
  5
5AA
  8
_________1
 62
     7
 10
139.244
 20
172.63
 30
0.0
 11
138.81800000000001
 21
173.05699999999999
 31
0.0
  0
LINE
  5
5AB
  8
_________1
 62
     7
 10
139.608
 20
172.56599999999989
 30
0.0
 11
139.18100000000001
 21
172.971
 31
0.0
  0
LINE
  5
5AC
  8
_________1
 62
     7
 10
139.97
 20
172.50200000000001
 30
0.0
 11
139.565
 21
172.90700000000001
 31
0.0
  0
LINE
  5
5AD
  8
_________1
 62
     7
 10
140.333
 20
172.43799999999999
 30
0.0
 11
139.92699999999999
 21
172.84299999999999
 31
0.0
  0
LINE
  5
5AE
  8
_________1
 62
     7
 10
140.69499999999999
 20
172.374
 30
0.0
 11
140.28999999999999
 21
172.779
 31
0.0
  0
LINE
  5
5AF
  8
_________1
 62
     7
 10
141.05799999999999
 20
172.31
 30
0.0
 11
140.65199999999999
 21
172.715
 31
0.0
  0
LINE
  5
5B0
  8
_________1
 62
     7
 10
141.41999999999999
 20
172.24600000000001
 30
0.0
 11
141.0149999999999
 21
172.65100000000001
 31
0.0
  0
LINE
  5
5B1
  8
_________1
 62
     7
 10
141.804
 20
172.18199999999999
 30
0.0
 11
141.37799999999999
 21
172.58699999999999
 31
0.0
  0
LINE
  5
5B2
  8
_________1
 62
     7
 10
142.167
 20
172.09700000000001
 30
0.0
 11
141.74000000000001
 21
172.523
 31
0.0
  0
LINE
  5
5B3
  8
_________1
 62
     7
 10
142.53
 20
172.03299999999999
 30
0.0
 11
142.10300000000001
 21
172.459
 31
0.0
  0
LINE
  5
5B4
  8
_________1
 62
     7
 10
142.892
 20
171.96899999999999
 30
0.0
 11
142.48699999999999
 21
172.39500000000001
 31
0.0
  0
LINE
  5
5B5
  8
_________1
 62
     7
 10
143.255
 20
171.905
 30
0.0
 11
142.84999999999999
 21
172.33099999999999
 31
0.0
  0
LINE
  5
5B6
  8
_________1
 62
     7
 10
143.61799999999999
 20
171.84099999999989
 30
0.0
 11
143.21199999999999
 21
172.24600000000001
 31
0.0
  0
LINE
  5
5B7
  8
_________1
 62
     7
 10
143.97999999999999
 20
171.77699999999999
 30
0.0
 11
143.57499999999999
 21
172.18199999999999
 31
0.0
  0
LINE
  5
5B8
  8
_________1
 62
     7
 10
144.34299999999999
 20
171.71299999999999
 30
0.0
 11
143.93700000000001
 21
172.11799999999999
 31
0.0
  0
LINE
  5
5B9
  8
_________1
 62
     7
 10
144.727
 20
171.648
 30
0.0
 11
144.30000000000001
 21
172.054
 31
0.0
  0
LINE
  5
5BA
  8
_________1
 62
     7
 10
145.089
 20
171.584
 30
0.0
 11
144.66300000000001
 21
171.99000000000001
 31
0.0
  0
LINE
  5
5BB
  8
_________1
 62
     7
 10
145.452
 20
171.52099999999999
 30
0.0
 11
145.02500000000001
 21
171.92599999999999
 31
0.0
  0
LINE
  5
5BC
  8
_________1
 62
     7
 10
145.815
 20
171.435
 30
0.0
 11
145.40899999999999
 21
171.86199999999999
 31
0.0
  0
LINE
  5
5BD
  8
_________1
 62
     7
 10
146.17699999999999
 20
171.37200000000001
 30
0.0
 11
145.77199999999999
 21
171.798
 31
0.0
  0
LINE
  5
5BE
  8
_________1
 62
     7
 10
146.53999999999999
 20
171.30699999999999
 30
0.0
 11
146.13499999999999
 21
171.73400000000001
 31
0.0
  0
LINE
  5
5BF
  8
_________1
 62
     7
 10
146.90299999999999
 20
171.24299999999999
 30
0.0
 11
146.49700000000001
 21
171.66999999999999
 31
0.0
  0
LINE
  5
5C0
  8
_________1
 62
     7
 10
147.2649999999999
 20
171.179
 30
0.0
 11
146.85900000000001
 21
171.584
 31
0.0
  0
LINE
  5
5C1
  8
_________1
 62
     7
 10
147.649
 20
171.11500000000001
 30
0.0
 11
147.22300000000001
 21
171.52099999999999
 31
0.0
  0
LINE
  5
5C2
  8
_________1
 62
     7
 10
148.012
 20
171.05099999999999
 30
0.0
 11
147.58500000000001
 21
171.45699999999999
 31
0.0
  0
LINE
  5
5C3
  8
_________1
 62
     7
 10
148.375
 20
170.98699999999999
 30
0.0
 11
147.94800000000001
 21
171.393
 31
0.0
  0
LINE
  5
5C4
  8
_________1
 62
     7
 10
148.71600000000001
 20
170.94499999999999
 30
0.0
 11
148.33199999999999
 21
171.32900000000001
 31
0.0
  0
LINE
  5
5C5
  8
_________1
 62
     7
 10
149.05699999999999
 20
170.90199999999999
 30
0.0
 11
148.673
 21
171.286
 31
0.0
  0
LINE
  5
5C6
  8
_________1
 62
     7
 10
149.399
 20
170.83799999999999
 30
0.0
 11
149.01400000000001
 21
171.24299999999999
 31
0.0
  0
LINE
  5
5C7
  8
_________1
 62
     7
 10
149.761
 20
170.79499999999999
 30
0.0
 11
149.35599999999999
 21
171.20099999999999
 31
0.0
  0
LINE
  5
5C8
  8
_________1
 62
     7
 10
150.124
 20
170.73099999999999
 30
0.0
 11
149.71799999999999
 21
171.137
 31
0.0
  0
LINE
  5
5C9
  8
_________1
 62
     7
 10
150.48599999999999
 20
170.667
 30
0.0
 11
150.059
 21
171.072
 31
0.0
  0
LINE
  5
5CA
  8
_________1
 62
     7
 10
150.84899999999999
 20
170.60400000000001
 30
0.0
 11
150.422
 21
171.03
 31
0.0
  0
LINE
  5
5CB
  8
_________1
 62
     7
 10
151.21100000000001
 20
170.53899999999999
 30
0.0
 11
150.785
 21
170.94499999999999
 31
0.0
  0
LINE
  5
5CC
  8
_________1
 62
     7
 10
157.547
 20
164.50299999999999
 30
0.0
 11
157.31200000000001
 21
164.73699999999999
 31
0.0
  0
LINE
  5
5CD
  8
_________1
 62
     7
 10
151.595
 20
170.45400000000001
 30
0.0
 11
151.1689999999999
 21
170.88099999999989
 31
0.0
  0
LINE
  5
5CE
  8
_________1
 62
     7
 10
157.654
 20
164.69499999999999
 30
0.0
 11
156.416
 21
165.91
 31
0.0
  0
LINE
  5
5CF
  8
_________1
 62
     7
 10
151.97999999999999
 20
170.369
 30
0.0
 11
151.53200000000001
 21
170.81700000000001
 31
0.0
  0
LINE
  5
5D0
  8
_________1
 62
     7
 10
156.779
 20
165.86799999999999
 30
0.0
 11
156.39500000000001
 21
166.25200000000001
 31
0.0
  0
LINE
  5
5D1
  8
_________1
 62
     7
 10
152.363
 20
170.28399999999999
 30
0.0
 11
151.916
 21
170.73099999999999
 31
0.0
  0
LINE
  5
5D2
  8
_________1
 62
     7
 10
156.73599999999999
 20
166.209
 30
0.0
 11
156.33099999999999
 21
166.614
 31
0.0
  0
LINE
  5
5D3
  8
_________1
 62
     7
 10
152.76900000000001
 20
170.17699999999999
 30
0.0
 11
152.321
 21
170.625
 31
0.0
  0
LINE
  5
5D4
  8
_________1
 62
     7
 10
156.69300000000001
 20
166.55000000000001
 30
0.0
 11
156.245
 21
166.99799999999999
 31
0.0
  0
LINE
  5
5D5
  8
_________1
 62
     7
 10
153.17400000000001
 20
170.06999999999999
 30
0.0
 11
152.70500000000001
 21
170.53899999999999
 31
0.0
  0
LINE
  5
5D6
  8
_________1
 62
     7
 10
156.608
 20
166.935
 30
0.0
 11
156.07499999999999
 21
167.46799999999999
 31
0.0
  0
LINE
  5
5D7
  8
_________1
 62
     7
 10
153.58000000000001
 20
169.964
 30
0.0
 11
153.11000000000001
 21
170.43299999999999
 31
0.0
  0
LINE
  5
5D8
  8
_________1
 62
     7
 10
156.459
 20
167.38200000000001
 30
0.0
 11
155.77600000000001
 21
168.065
 31
0.0
  0
LINE
  5
5D9
  8
_________1
 62
     7
 10
154.155
 20
169.68600000000001
 30
0.0
 11
153.5149999999999
 21
170.32599999999999
 31
0.0
  0
LINE
  5
5DA
  8
_________1
 62
     7
 10
156.245
 20
167.89400000000001
 30
0.0
 11
153.98500000000001
 21
170.15599999999989
 31
0.0
  0
LINE
  5
5DB
  8
_________1
 62
     7
 10
155.77600000000001
 20
168.66200000000001
 30
0.0
 11
154.75299999999999
 21
169.68600000000001
 31
0.0
  0
LINE
  5
5DC
  8
_________1
 62
     7
 10
140.82300000000001
 20
119.81399999999999
 30
0.0
 11
140.82300000000001
 21
130.672
 31
0.0
  0
ARC
  5
5DD
  8
_________1
 62
     7
 10
-1342.7563029999999
 20
168.931253
 30
0.0
 40
1484.1579690000001
 50
358.10348499999998
 51
358.22799500000002
  0
ARC
  5
5DE
  8
_________1
 62
     7
 10
-201.19051899999999
 20
133.441248
 30
0.0
 40
342.04070300000001
 50
358.25698999999997
 51
358.96704999999997
  0
ARC
  5
5DF
  8
_________1
 62
     7
 10
-54.430661000000001
 20
130.60345899999999
 30
0.0
 40
195.25362999999999
 50
359.02328199999999
 51
0.019988
  0
LINE
  5
5E0
  8
_________1
 62
     7
 10
128.04599999999999
 20
128.005
 30
0.0
 11
127.833
 21
122.52200000000001
 31
0.0
  0
LINE
  5
5E1
  8
_________1
 62
     7
 10
132.845
 20
119.81399999999999
 30
0.0
 11
133.16499999999999
 21
120.155
 31
0.0
  0
LINE
  5
5E2
  8
_________1
 62
     7
 10
133.16499999999999
 20
120.155
 30
0.0
 11
133.464
 21
120.517
 31
0.0
  0
LINE
  5
5E3
  8
_________1
 62
     7
 10
128.83500000000001
 20
148.50399999999999
 30
0.0
 11
128.494
 21
146.22200000000001
 31
0.0
  0
LINE
  5
5E4
  8
_________1
 62
     7
 10
128.494
 20
146.22200000000001
 30
0.0
 11
128.238
 21
143.93899999999999
 31
0.0
  0
LINE
  5
5E5
  8
_________1
 62
     7
 10
128.238
 20
143.93899999999999
 30
0.0
 11
128.08799999999999
 21
141.636
 31
0.0
  0
LINE
  5
5E6
  8
_________1
 62
     7
 10
128.08799999999999
 20
141.636
 30
0.0
 11
128.04599999999999
 21
139.33199999999999
 31
0.0
  0
LINE
  5
5E7
  8
_________1
 62
     7
 10
131.245
 20
137.09200000000001
 30
0.0
 11
128.536
 21
137.86000000000001
 31
0.0
  0
LINE
  5
5E8
  8
_________1
 62
     7
 10
128.04599999999999
 20
138.52099999999999
 30
0.0
 11
128.06700000000001
 21
138.30799999999999
 31
0.0
  0
LINE
  5
5E9
  8
_________1
 62
     7
 10
128.06700000000001
 20
138.30799999999999
 30
0.0
 11
128.17400000000001
 21
138.11600000000001
 31
0.0
  0
LINE
  5
5EA
  8
_________1
 62
     7
 10
128.17400000000001
 20
138.11600000000001
 30
0.0
 11
128.32300000000001
 21
137.96700000000001
 31
0.0
  0
LINE
  5
5EB
  8
_________1
 62
     7
 10
128.32300000000001
 20
137.96700000000001
 30
0.0
 11
128.536
 21
137.86000000000001
 31
0.0
  0
ARC
  5
5EC
  8
_________1
 62
     7
 10
130.30394200000001
 20
133.441317
 30
0.0
 40
3.749277999999999
 50
33.164284000000002
 51
66.63582199999999
  0
ARC
  5
5ED
  8
_________1
 62
     7
 10
129.432445
 20
131.54507699999999
 30
0.0
 40
5.8358419999999986
 50
66.164193000000012
 51
71.903261999999998
  0
LINE
  5
5EE
  8
_________1
 62
     7
 10
127.833
 20
123.248
 30
0.0
 11
127.833
 21
178.58099999999999
 31
0.0
  0
LINE
  5
5EF
  8
_________1
 62
     7
 10
128.04599999999999
 20
177.173
 30
0.0
 11
128.04599999999999
 21
128.005
 31
0.0
  0
LINE
  5
5F0
  8
_________1
 62
     7
 10
155.499
 20
119.81399999999999
 30
0.0
 11
156.459
 21
161.25999999999999
 31
0.0
  0
ARC
  5
5F1
  8
_________1
 62
     7
 10
29.530975999999999
 20
165.395646
 30
0.0
 40
100.730028
 50
350.34644200000002
 51
5.3846499999999988
  0
ARC
  5
5F2
  8
_________1
 62
     7
 10
121.975809
 20
127.988511
 30
0.0
 40
13.703718
 50
326.96263099999999
 51
33.200819000000003
  0
LINE
  5
5F3
  8
_________1
 62
     7
 10
156.7579999999999
 20
159.36199999999999
 30
0.0
 11
157.09899999999999
 21
159.703
 31
0.0
  0
LINE
  5
5F4
  8
_________1
 62
     7
 10
156.7579999999999
 20
159.042
 30
0.0
 11
157.09899999999999
 21
159.38300000000001
 31
0.0
  0
LINE
  5
5F5
  8
_________1
 62
     7
 10
156.73599999999999
 20
158.74299999999999
 30
0.0
 11
157.077
 21
159.084
 31
0.0
  0
LINE
  5
5F6
  8
_________1
 62
     7
 10
156.73599999999999
 20
158.44499999999999
 30
0.0
 11
157.077
 21
158.786
 31
0.0
  0
LINE
  5
5F7
  8
_________1
 62
     7
 10
156.73599999999999
 20
158.124
 30
0.0
 11
157.077
 21
158.46600000000001
 31
0.0
  0
LINE
  5
5F8
  8
_________1
 62
     7
 10
156.715
 20
157.82599999999999
 30
0.0
 11
157.05600000000001
 21
158.167
 31
0.0
  0
LINE
  5
5F9
  8
_________1
 62
     7
 10
156.715
 20
157.52699999999999
 30
0.0
 11
157.05600000000001
 21
157.869
 31
0.0
  0
LINE
  5
5FA
  8
_________1
 62
     7
 10
156.715
 20
157.20699999999999
 30
0.0
 11
157.05600000000001
 21
157.54900000000001
 31
0.0
  0
LINE
  5
5FB
  8
_________1
 62
     7
 10
156.69300000000001
 20
156.90899999999999
 30
0.0
 11
157.035
 21
157.25
 31
0.0
  0
LINE
  5
5FC
  8
_________1
 62
     7
 10
156.69300000000001
 20
156.61000000000001
 30
0.0
 11
157.035
 21
156.952
 31
0.0
  0
LINE
  5
5FD
  8
_________1
 62
     7
 10
156.69300000000001
 20
156.28999999999999
 30
0.0
 11
157.035
 21
156.63200000000001
 31
0.0
  0
LINE
  5
5FE
  8
_________1
 62
     7
 10
156.672
 20
155.99100000000001
 30
0.0
 11
157.01400000000001
 21
156.333
 31
0.0
  0
LINE
  5
5FF
  8
_________1
 62
     7
 10
156.672
 20
155.67099999999999
 30
0.0
 11
157.01400000000001
 21
156.01300000000001
 31
0.0
  0
LINE
  5
600
  8
_________1
 62
     7
 10
156.672
 20
155.37299999999999
 30
0.0
 11
157.01400000000001
 21
155.714
 31
0.0
  0
LINE
  5
601
  8
_________1
 62
     7
 10
156.65100000000001
 20
155.07400000000001
 30
0.0
 11
156.99199999999999
 21
155.416
 31
0.0
  0
LINE
  5
602
  8
_________1
 62
     7
 10
156.65100000000001
 20
154.75399999999999
 30
0.0
 11
156.99199999999999
 21
155.095
 31
0.0
  0
LINE
  5
603
  8
_________1
 62
     7
 10
156.65100000000001
 20
154.45599999999999
 30
0.0
 11
156.99199999999999
 21
154.797
 31
0.0
  0
LINE
  5
604
  8
_________1
 62
     7
 10
156.63
 20
154.15700000000001
 30
0.0
 11
156.971
 21
154.49799999999999
 31
0.0
  0
LINE
  5
605
  8
_________1
 62
     7
 10
156.63
 20
153.83699999999999
 30
0.0
 11
156.971
 21
154.178
 31
0.0
  0
LINE
  5
606
  8
_________1
 62
     7
 10
156.608
 20
153.53800000000001
 30
0.0
 11
156.971
 21
153.88
 31
0.0
  0
LINE
  5
607
  8
_________1
 62
     7
 10
156.608
 20
153.21799999999999
 30
0.0
 11
156.94999999999999
 21
153.56
 31
0.0
  0
LINE
  5
608
  8
_________1
 62
     7
 10
156.608
 20
152.91900000000001
 30
0.0
 11
156.94999999999999
 21
153.261
 31
0.0
  0
LINE
  5
609
  8
_________1
 62
     7
 10
156.58699999999999
 20
152.62100000000001
 30
0.0
 11
156.928
 21
152.96199999999999
 31
0.0
  0
LINE
  5
60A
  8
_________1
 62
     7
 10
156.58699999999999
 20
152.30099999999999
 30
0.0
 11
156.928
 21
152.642
 31
0.0
  0
LINE
  5
60B
  8
_________1
 62
     7
 10
156.58699999999999
 20
152.00299999999999
 30
0.0
 11
156.928
 21
152.34399999999999
 31
0.0
  0
LINE
  5
60C
  8
_________1
 62
     7
 10
156.566
 20
151.70400000000001
 30
0.0
 11
156.90700000000001
 21
152.04499999999999
 31
0.0
  0
LINE
  5
60D
  8
_________1
 62
     7
 10
156.566
 20
151.38399999999999
 30
0.0
 11
156.90700000000001
 21
151.72499999999999
 31
0.0
  0
LINE
  5
60E
  8
_________1
 62
     7
 10
156.566
 20
151.08500000000001
 30
0.0
 11
156.90700000000001
 21
151.42699999999999
 31
0.0
  0
LINE
  5
60F
  8
_________1
 62
     7
 10
156.54400000000001
 20
150.76599999999999
 30
0.0
 11
156.88499999999999
 21
151.107
 31
0.0
  0
LINE
  5
610
  8
_________1
 62
     7
 10
156.54400000000001
 20
150.46700000000001
 30
0.0
 11
156.88499999999999
 21
150.80799999999999
 31
0.0
  0
LINE
  5
611
  8
_________1
 62
     7
 10
156.54400000000001
 20
150.16800000000001
 30
0.0
 11
156.88499999999999
 21
150.50899999999999
 31
0.0
  0
LINE
  5
612
  8
_________1
 62
     7
 10
156.523
 20
149.8479999999999
 30
0.0
 11
156.864
 21
150.19
 31
0.0
  0
LINE
  5
613
  8
_________1
 62
     7
 10
156.523
 20
149.54900000000001
 30
0.0
 11
156.864
 21
149.89099999999999
 31
0.0
  0
LINE
  5
614
  8
_________1
 62
     7
 10
156.523
 20
149.251
 30
0.0
 11
156.864
 21
149.59200000000001
 31
0.0
  0
LINE
  5
615
  8
_________1
 62
     7
 10
156.50200000000001
 20
148.93100000000001
 30
0.0
 11
156.84299999999999
 21
149.27199999999999
 31
0.0
  0
LINE
  5
616
  8
_________1
 62
     7
 10
156.50200000000001
 20
148.63200000000001
 30
0.0
 11
156.84299999999999
 21
148.9729999999999
 31
0.0
  0
LINE
  5
617
  8
_________1
 62
     7
 10
156.50200000000001
 20
148.333
 30
0.0
 11
156.84299999999999
 21
148.67500000000001
 31
0.0
  0
LINE
  5
618
  8
_________1
 62
     7
 10
156.47999999999999
 20
148.01400000000001
 30
0.0
 11
156.821
 21
148.35499999999999
 31
0.0
  0
LINE
  5
619
  8
_________1
 62
     7
 10
156.47999999999999
 20
147.715
 30
0.0
 11
156.821
 21
148.05600000000001
 31
0.0
  0
LINE
  5
61A
  8
_________1
 62
     7
 10
156.47999999999999
 20
147.39500000000001
 30
0.0
 11
156.821
 21
147.73599999999999
 31
0.0
  0
LINE
  5
61B
  8
_________1
 62
     7
 10
156.459
 20
147.09700000000001
 30
0.0
 11
156.80000000000001
 21
147.43799999999999
 31
0.0
  0
LINE
  5
61C
  8
_________1
 62
     7
 10
156.459
 20
146.798
 30
0.0
 11
156.80000000000001
 21
147.13900000000001
 31
0.0
  0
LINE
  5
61D
  8
_________1
 62
     7
 10
156.459
 20
146.47800000000001
 30
0.0
 11
156.80000000000001
 21
146.81899999999999
 31
0.0
  0
LINE
  5
61E
  8
_________1
 62
     7
 10
156.43799999999999
 20
146.179
 30
0.0
 11
156.779
 21
146.52000000000001
 31
0.0
  0
LINE
  5
61F
  8
_________1
 62
     7
 10
156.43799999999999
 20
145.88
 30
0.0
 11
156.779
 21
146.22200000000001
 31
0.0
  0
LINE
  5
620
  8
_________1
 62
     7
 10
156.43799999999999
 20
145.56100000000001
 30
0.0
 11
156.779
 21
145.90199999999999
 31
0.0
  0
LINE
  5
621
  8
_________1
 62
     7
 10
156.416
 20
145.262
 30
0.0
 11
156.7579999999999
 21
145.60300000000001
 31
0.0
  0
LINE
  5
622
  8
_________1
 62
     7
 10
156.416
 20
144.94200000000001
 30
0.0
 11
156.7579999999999
 21
145.28299999999999
 31
0.0
  0
LINE
  5
623
  8
_________1
 62
     7
 10
156.416
 20
144.643
 30
0.0
 11
156.7579999999999
 21
144.98500000000001
 31
0.0
  0
LINE
  5
624
  8
_________1
 62
     7
 10
156.39500000000001
 20
144.345
 30
0.0
 11
156.73599999999999
 21
144.68600000000001
 31
0.0
  0
LINE
  5
625
  8
_________1
 62
     7
 10
156.39500000000001
 20
144.02500000000001
 30
0.0
 11
156.73599999999999
 21
144.36600000000001
 31
0.0
  0
LINE
  5
626
  8
_________1
 62
     7
 10
156.39500000000001
 20
143.726
 30
0.0
 11
156.73599999999999
 21
144.06700000000001
 31
0.0
  0
LINE
  5
627
  8
_________1
 62
     7
 10
156.374
 20
143.42699999999999
 30
0.0
 11
156.715
 21
143.76900000000001
 31
0.0
  0
LINE
  5
628
  8
_________1
 62
     7
 10
156.374
 20
143.107
 30
0.0
 11
156.715
 21
143.44900000000001
 31
0.0
  0
LINE
  5
629
  8
_________1
 62
     7
 10
156.374
 20
142.809
 30
0.0
 11
156.715
 21
143.15000000000001
 31
0.0
  0
LINE
  5
62A
  8
_________1
 62
     7
 10
156.35300000000001
 20
142.50999999999999
 30
0.0
 11
156.69300000000001
 21
142.851
 31
0.0
  0
LINE
  5
62B
  8
_________1
 62
     7
 10
156.35300000000001
 20
142.19
 30
0.0
 11
156.69300000000001
 21
142.53100000000001
 31
0.0
  0
LINE
  5
62C
  8
_________1
 62
     7
 10
156.35300000000001
 20
141.892
 30
0.0
 11
156.69300000000001
 21
142.233
 31
0.0
  0
LINE
  5
62D
  8
_________1
 62
     7
 10
156.33099999999999
 20
141.571
 30
0.0
 11
156.672
 21
141.91300000000001
 31
0.0
  0
LINE
  5
62E
  8
_________1
 62
     7
 10
156.33099999999999
 20
141.273
 30
0.0
 11
156.672
 21
141.614
 31
0.0
  0
LINE
  5
62F
  8
_________1
 62
     7
 10
156.33099999999999
 20
140.97399999999999
 30
0.0
 11
156.672
 21
141.316
 31
0.0
  0
LINE
  5
630
  8
_________1
 62
     7
 10
156.31
 20
140.654
 30
0.0
 11
156.65100000000001
 21
140.99600000000001
 31
0.0
  0
LINE
  5
631
  8
_________1
 62
     7
 10
156.31
 20
140.35599999999999
 30
0.0
 11
156.65100000000001
 21
140.697
 31
0.0
  0
LINE
  5
632
  8
_________1
 62
     7
 10
156.31
 20
140.05699999999999
 30
0.0
 11
156.65100000000001
 21
140.399
 31
0.0
  0
LINE
  5
633
  8
_________1
 62
     7
 10
156.28800000000001
 20
139.73699999999999
 30
0.0
 11
156.63
 21
140.078
 31
0.0
  0
LINE
  5
634
  8
_________1
 62
     7
 10
156.28800000000001
 20
139.43799999999999
 30
0.0
 11
156.63
 21
139.78
 31
0.0
  0
LINE
  5
635
  8
_________1
 62
     7
 10
156.28800000000001
 20
139.11799999999999
 30
0.0
 11
156.63
 21
139.46000000000001
 31
0.0
  0
LINE
  5
636
  8
_________1
 62
     7
 10
156.267
 20
138.81999999999999
 30
0.0
 11
156.608
 21
139.161
 31
0.0
  0
LINE
  5
637
  8
_________1
 62
     7
 10
156.267
 20
138.52099999999999
 30
0.0
 11
156.608
 21
138.863
 31
0.0
  0
LINE
  5
638
  8
_________1
 62
     7
 10
156.267
 20
138.20099999999999
 30
0.0
 11
156.608
 21
138.542
 31
0.0
  0
LINE
  5
639
  8
_________1
 62
     7
 10
156.245
 20
137.90299999999999
 30
0.0
 11
156.58699999999999
 21
138.244
 31
0.0
  0
LINE
  5
63A
  8
_________1
 62
     7
 10
156.245
 20
137.60400000000001
 30
0.0
 11
156.58699999999999
 21
137.94499999999999
 31
0.0
  0
LINE
  5
63B
  8
_________1
 62
     7
 10
156.245
 20
137.28399999999999
 30
0.0
 11
156.58699999999999
 21
137.625
 31
0.0
  0
LINE
  5
63C
  8
_________1
 62
     7
 10
156.22399999999999
 20
136.98500000000001
 30
0.0
 11
156.566
 21
137.327
 31
0.0
  0
LINE
  5
63D
  8
_________1
 62
     7
 10
156.22399999999999
 20
136.68700000000001
 30
0.0
 11
156.566
 21
137.02799999999999
 31
0.0
  0
LINE
  5
63E
  8
_________1
 62
     7
 10
156.22399999999999
 20
136.36699999999999
 30
0.0
 11
156.566
 21
136.708
 31
0.0
  0
LINE
  5
63F
  8
_________1
 62
     7
 10
156.203
 20
136.06800000000001
 30
0.0
 11
156.54400000000001
 21
136.40899999999999
 31
0.0
  0
LINE
  5
640
  8
_________1
 62
     7
 10
156.203
 20
135.74799999999999
 30
0.0
 11
156.54400000000001
 21
136.089
 31
0.0
  0
LINE
  5
641
  8
_________1
 62
     7
 10
156.203
 20
135.44999999999999
 30
0.0
 11
156.54400000000001
 21
135.791
 31
0.0
  0
LINE
  5
642
  8
_________1
 62
     7
 10
156.18199999999999
 20
135.15100000000001
 30
0.0
 11
156.523
 21
135.49199999999999
 31
0.0
  0
LINE
  5
643
  8
_________1
 62
     7
 10
156.18199999999999
 20
134.83099999999999
 30
0.0
 11
156.523
 21
135.172
 31
0.0
  0
LINE
  5
644
  8
_________1
 62
     7
 10
156.18199999999999
 20
134.53200000000001
 30
0.0
 11
156.523
 21
134.874
 31
0.0
  0
LINE
  5
645
  8
_________1
 62
     7
 10
156.161
 20
134.23400000000001
 30
0.0
 11
156.50200000000001
 21
134.57499999999999
 31
0.0
  0
LINE
  5
646
  8
_________1
 62
     7
 10
156.161
 20
133.91300000000001
 30
0.0
 11
156.50200000000001
 21
134.255
 31
0.0
  0
LINE
  5
647
  8
_________1
 62
     7
 10
156.161
 20
133.61500000000001
 30
0.0
 11
156.50200000000001
 21
133.95599999999999
 31
0.0
  0
LINE
  5
648
  8
_________1
 62
     7
 10
156.13900000000001
 20
133.29499999999999
 30
0.0
 11
156.47999999999999
 21
133.636
 31
0.0
  0
LINE
  5
649
  8
_________1
 62
     7
 10
156.13900000000001
 20
132.99600000000001
 30
0.0
 11
156.47999999999999
 21
133.33799999999999
 31
0.0
  0
LINE
  5
64A
  8
_________1
 62
     7
 10
156.13900000000001
 20
132.69800000000001
 30
0.0
 11
156.47999999999999
 21
133.03899999999999
 31
0.0
  0
LINE
  5
64B
  8
_________1
 62
     7
 10
156.11799999999999
 20
132.37799999999999
 30
0.0
 11
156.459
 21
132.71899999999999
 31
0.0
  0
LINE
  5
64C
  8
_________1
 62
     7
 10
156.11799999999999
 20
132.07900000000001
 30
0.0
 11
156.459
 21
132.41999999999999
 31
0.0
  0
LINE
  5
64D
  8
_________1
 62
     7
 10
156.11799999999999
 20
131.78100000000001
 30
0.0
 11
156.459
 21
132.12200000000001
 31
0.0
  0
LINE
  5
64E
  8
_________1
 62
     7
 10
156.09700000000001
 20
131.46100000000001
 30
0.0
 11
156.43799999999999
 21
131.80199999999999
 31
0.0
  0
LINE
  5
64F
  8
_________1
 62
     7
 10
156.09700000000001
 20
131.16200000000001
 30
0.0
 11
156.43799999999999
 21
131.50299999999999
 31
0.0
  0
LINE
  5
650
  8
_________1
 62
     7
 10
156.09700000000001
 20
130.863
 30
0.0
 11
156.43799999999999
 21
131.20500000000001
 31
0.0
  0
LINE
  5
651
  8
_________1
 62
     7
 10
156.07499999999999
 20
130.54300000000001
 30
0.0
 11
156.416
 21
130.88399999999999
 31
0.0
  0
LINE
  5
652
  8
_________1
 62
     7
 10
156.07499999999999
 20
130.245
 30
0.0
 11
156.416
 21
130.58600000000001
 31
0.0
  0
LINE
  5
653
  8
_________1
 62
     7
 10
156.07499999999999
 20
129.92500000000001
 30
0.0
 11
156.416
 21
130.26599999999999
 31
0.0
  0
LINE
  5
654
  8
_________1
 62
     7
 10
156.054
 20
129.626
 30
0.0
 11
156.39500000000001
 21
129.96700000000001
 31
0.0
  0
LINE
  5
655
  8
_________1
 62
     7
 10
156.054
 20
129.327
 30
0.0
 11
156.39500000000001
 21
129.66900000000001
 31
0.0
  0
LINE
  5
656
  8
_________1
 62
     7
 10
156.054
 20
129.00800000000001
 30
0.0
 11
156.39500000000001
 21
129.34899999999999
 31
0.0
  0
LINE
  5
657
  8
_________1
 62
     7
 10
156.03200000000001
 20
128.709
 30
0.0
 11
156.374
 21
129.05000000000001
 31
0.0
  0
LINE
  5
658
  8
_________1
 62
     7
 10
156.03200000000001
 20
128.41
 30
0.0
 11
156.374
 21
128.75200000000001
 31
0.0
  0
LINE
  5
659
  8
_________1
 62
     7
 10
156.03200000000001
 20
128.09
 30
0.0
 11
156.374
 21
128.43199999999999
 31
0.0
  0
LINE
  5
65A
  8
_________1
 62
     7
 10
156.011
 20
127.791
 30
0.0
 11
156.35300000000001
 21
128.13300000000001
 31
0.0
  0
LINE
  5
65B
  8
_________1
 62
     7
 10
156.011
 20
127.47199999999999
 30
0.0
 11
156.35300000000001
 21
127.813
 31
0.0
  0
LINE
  5
65C
  8
_________1
 62
     7
 10
156.011
 20
127.173
 30
0.0
 11
156.35300000000001
 21
127.514
 31
0.0
  0
LINE
  5
65D
  8
_________1
 62
     7
 10
155.99000000000001
 20
126.874
 30
0.0
 11
156.33099999999999
 21
127.215
 31
0.0
  0
LINE
  5
65E
  8
_________1
 62
     7
 10
155.99000000000001
 20
126.554
 30
0.0
 11
156.33099999999999
 21
126.896
 31
0.0
  0
LINE
  5
65F
  8
_________1
 62
     7
 10
155.99000000000001
 20
126.256
 30
0.0
 11
156.33099999999999
 21
126.59699999999999
 31
0.0
  0
LINE
  5
660
  8
_________1
 62
     7
 10
155.96799999999999
 20
125.95699999999999
 30
0.0
 11
156.31
 21
126.298
 31
0.0
  0
LINE
  5
661
  8
_________1
 62
     7
 10
155.96799999999999
 20
125.637
 30
0.0
 11
156.31
 21
125.979
 31
0.0
  0
LINE
  5
662
  8
_________1
 62
     7
 10
155.96799999999999
 20
125.339
 30
0.0
 11
156.31
 21
125.68000000000001
 31
0.0
  0
LINE
  5
663
  8
_________1
 62
     7
 10
155.947
 20
125.04000000000001
 30
0.0
 11
156.28800000000001
 21
125.381
 31
0.0
  0
LINE
  5
664
  8
_________1
 62
     7
 10
155.947
 20
124.72
 30
0.0
 11
156.28800000000001
 21
125.06100000000001
 31
0.0
  0
LINE
  5
665
  8
_________1
 62
     7
 10
155.947
 20
124.42100000000001
 30
0.0
 11
156.28800000000001
 21
124.76300000000001
 31
0.0
  0
LINE
  5
666
  8
_________1
 62
     7
 10
155.92599999999999
 20
124.101
 30
0.0
 11
156.267
 21
124.443
 31
0.0
  0
LINE
  5
667
  8
_________1
 62
     7
 10
155.92599999999999
 20
123.803
 30
0.0
 11
156.267
 21
124.14400000000001
 31
0.0
  0
LINE
  5
668
  8
_________1
 62
     7
 10
155.92599999999999
 20
123.504
 30
0.0
 11
156.267
 21
123.845
 31
0.0
  0
LINE
  5
669
  8
_________1
 62
     7
 10
155.904
 20
123.184
 30
0.0
 11
156.245
 21
123.52500000000001
 31
0.0
  0
LINE
  5
66A
  8
_________1
 62
     7
 10
155.904
 20
122.886
 30
0.0
 11
156.245
 21
123.227
 31
0.0
  0
LINE
  5
66B
  8
_________1
 62
     7
 10
155.904
 20
122.587
 30
0.0
 11
156.245
 21
122.928
 31
0.0
  0
LINE
  5
66C
  8
_________1
 62
     7
 10
155.88300000000001
 20
122.267
 30
0.0
 11
156.22399999999999
 21
122.608
 31
0.0
  0
LINE
  5
66D
  8
_________1
 62
     7
 10
155.88300000000001
 20
121.968
 30
0.0
 11
156.22399999999999
 21
122.31
 31
0.0
  0
LINE
  5
66E
  8
_________1
 62
     7
 10
155.88300000000001
 20
121.648
 30
0.0
 11
156.22399999999999
 21
121.989
 31
0.0
  0
LINE
  5
66F
  8
_________1
 62
     7
 10
155.86199999999999
 20
121.349
 30
0.0
 11
156.203
 21
121.691
 31
0.0
  0
LINE
  5
670
  8
_________1
 62
     7
 10
155.86199999999999
 20
121.051
 30
0.0
 11
156.203
 21
121.392
 31
0.0
  0
LINE
  5
671
  8
_________1
 62
     7
 10
155.86199999999999
 20
120.73099999999999
 30
0.0
 11
156.203
 21
121.072
 31
0.0
  0
LINE
  5
672
  8
_________1
 62
     7
 10
155.84
 20
120.432
 30
0.0
 11
156.18199999999999
 21
120.774
 31
0.0
  0
LINE
  5
673
  8
_________1
 62
     7
 10
155.84
 20
120.134
 30
0.0
 11
156.18199999999999
 21
120.47499999999999
 31
0.0
  0
LINE
  5
674
  8
_________1
 62
     7
 10
155.84
 20
119.81399999999999
 30
0.0
 11
156.18199999999999
 21
120.155
 31
0.0
  0
LINE
  5
675
  8
_________1
 62
     7
 10
156.11799999999999
 20
119.81399999999999
 30
0.0
 11
156.161
 21
119.85599999999999
 31
0.0
  0
LINE
  5
676
  8
_________1
 62
     7
 10
155.542
 20
119.81399999999999
 30
0.0
 11
155.499
 21
119.85599999999999
 31
0.0
  0
LINE
  5
677
  8
_________1
 62
     7
 10
155.84
 20
119.81399999999999
 30
0.0
 11
155.499
 21
120.155
 31
0.0
  0
LINE
  5
678
  8
_________1
 62
     7
 10
155.84
 20
120.11199999999999
 30
0.0
 11
155.52099999999999
 21
120.432
 31
0.0
  0
LINE
  5
679
  8
_________1
 62
     7
 10
155.84
 20
120.411
 30
0.0
 11
155.52099999999999
 21
120.73099999999999
 31
0.0
  0
LINE
  5
67A
  8
_________1
 62
     7
 10
155.86199999999999
 20
120.688
 30
0.0
 11
155.52099999999999
 21
121.03
 31
0.0
  0
LINE
  5
67B
  8
_________1
 62
     7
 10
155.86199999999999
 20
120.98699999999999
 30
0.0
 11
155.542
 21
121.307
 31
0.0
  0
LINE
  5
67C
  8
_________1
 62
     7
 10
155.86199999999999
 20
121.286
 30
0.0
 11
155.542
 21
121.60599999999999
 31
0.0
  0
LINE
  5
67D
  8
_________1
 62
     7
 10
155.86199999999999
 20
121.584
 30
0.0
 11
155.542
 21
121.904
 31
0.0
  0
LINE
  5
67E
  8
_________1
 62
     7
 10
155.88300000000001
 20
121.86199999999999
 30
0.0
 11
155.56299999999999
 21
122.203
 31
0.0
  0
LINE
  5
67F
  8
_________1
 62
     7
 10
155.88300000000001
 20
122.16
 30
0.0
 11
155.56299999999999
 21
122.48
 31
0.0
  0
LINE
  5
680
  8
_________1
 62
     7
 10
155.88300000000001
 20
122.459
 30
0.0
 11
155.56299999999999
 21
122.779
 31
0.0
  0
LINE
  5
681
  8
_________1
 62
     7
 10
155.904
 20
122.736
 30
0.0
 11
155.56299999999999
 21
123.077
 31
0.0
  0
LINE
  5
682
  8
_________1
 62
     7
 10
155.904
 20
123.035
 30
0.0
 11
155.58500000000001
 21
123.355
 31
0.0
  0
LINE
  5
683
  8
_________1
 62
     7
 10
155.904
 20
123.333
 30
0.0
 11
155.58500000000001
 21
123.65300000000001
 31
0.0
  0
LINE
  5
684
  8
_________1
 62
     7
 10
155.92599999999999
 20
123.63200000000001
 30
0.0
 11
155.58500000000001
 21
123.952
 31
0.0
  0
LINE
  5
685
  8
_________1
 62
     7
 10
155.92599999999999
 20
123.90900000000001
 30
0.0
 11
155.60599999999999
 21
124.229
 31
0.0
  0
LINE
  5
686
  8
_________1
 62
     7
 10
155.92599999999999
 20
124.208
 30
0.0
 11
155.60599999999999
 21
124.52800000000001
 31
0.0
  0
LINE
  5
687
  8
_________1
 62
     7
 10
155.947
 20
124.50700000000001
 30
0.0
 11
155.60599999999999
 21
124.827
 31
0.0
  0
LINE
  5
688
  8
_________1
 62
     7
 10
155.947
 20
124.78400000000001
 30
0.0
 11
155.62700000000001
 21
125.125
 31
0.0
  0
LINE
  5
689
  8
_________1
 62
     7
 10
155.947
 20
125.083
 30
0.0
 11
155.62700000000001
 21
125.40300000000001
 31
0.0
  0
LINE
  5
68A
  8
_________1
 62
     7
 10
155.96799999999999
 20
125.381
 30
0.0
 11
155.62700000000001
 21
125.70099999999999
 31
0.0
  0
LINE
  5
68B
  8
_________1
 62
     7
 10
155.96799999999999
 20
125.65900000000001
 30
0.0
 11
155.649
 21
126.0
 31
0.0
  0
LINE
  5
68C
  8
_________1
 62
     7
 10
155.96799999999999
 20
125.95699999999999
 30
0.0
 11
155.649
 21
126.277
 31
0.0
  0
LINE
  5
68D
  8
_________1
 62
     7
 10
155.99000000000001
 20
126.256
 30
0.0
 11
155.649
 21
126.57599999999999
 31
0.0
  0
LINE
  5
68E
  8
_________1
 62
     7
 10
155.99000000000001
 20
126.554
 30
0.0
 11
155.66999999999999
 21
126.874
 31
0.0
  0
LINE
  5
68F
  8
_________1
 62
     7
 10
155.99000000000001
 20
126.83199999999999
 30
0.0
 11
155.66999999999999
 21
127.173
 31
0.0
  0
LINE
  5
690
  8
_________1
 62
     7
 10
156.011
 20
127.13
 30
0.0
 11
155.66999999999999
 21
127.45
 31
0.0
  0
LINE
  5
691
  8
_________1
 62
     7
 10
156.011
 20
127.429
 30
0.0
 11
155.691
 21
127.749
 31
0.0
  0
LINE
  5
692
  8
_________1
 62
     7
 10
156.011
 20
127.706
 30
0.0
 11
155.691
 21
128.047
 31
0.0
  0
LINE
  5
693
  8
_________1
 62
     7
 10
156.03200000000001
 20
128.005
 30
0.0
 11
155.691
 21
128.32499999999999
 31
0.0
  0
LINE
  5
694
  8
_________1
 62
     7
 10
156.03200000000001
 20
128.303
 30
0.0
 11
155.71299999999999
 21
128.62299999999999
 31
0.0
  0
LINE
  5
695
  8
_________1
 62
     7
 10
156.03200000000001
 20
128.602
 30
0.0
 11
155.71299999999999
 21
128.922
 31
0.0
  0
LINE
  5
696
  8
_________1
 62
     7
 10
156.03200000000001
 20
128.87899999999999
 30
0.0
 11
155.71299999999999
 21
129.221
 31
0.0
  0
LINE
  5
697
  8
_________1
 62
     7
 10
156.054
 20
129.178
 30
0.0
 11
155.73400000000001
 21
129.49799999999999
 31
0.0
  0
LINE
  5
698
  8
_________1
 62
     7
 10
156.054
 20
129.477
 30
0.0
 11
155.73400000000001
 21
129.797
 31
0.0
  0
LINE
  5
699
  8
_________1
 62
     7
 10
156.054
 20
129.75399999999999
 30
0.0
 11
155.73400000000001
 21
130.096
 31
0.0
  0
LINE
  5
69A
  8
_________1
 62
     7
 10
156.07499999999999
 20
130.053
 30
0.0
 11
155.73400000000001
 21
130.37299999999999
 31
0.0
  0
LINE
  5
69B
  8
_________1
 62
     7
 10
156.07499999999999
 20
130.352
 30
0.0
 11
155.755
 21
130.672
 31
0.0
  0
LINE
  5
69C
  8
_________1
 62
     7
 10
156.07499999999999
 20
130.65000000000001
 30
0.0
 11
155.755
 21
130.97
 31
0.0
  0
LINE
  5
69D
  8
_________1
 62
     7
 10
156.09700000000001
 20
130.92699999999999
 30
0.0
 11
155.755
 21
131.26900000000001
 31
0.0
  0
LINE
  5
69E
  8
_________1
 62
     7
 10
156.09700000000001
 20
131.226
 30
0.0
 11
155.77600000000001
 21
131.54599999999999
 31
0.0
  0
LINE
  5
69F
  8
_________1
 62
     7
 10
156.09700000000001
 20
131.52500000000001
 30
0.0
 11
155.77600000000001
 21
131.84399999999999
 31
0.0
  0
LINE
  5
6A0
  8
_________1
 62
     7
 10
156.11799999999999
 20
131.80199999999999
 30
0.0
 11
155.77600000000001
 21
132.143
 31
0.0
  0
LINE
  5
6A1
  8
_________1
 62
     7
 10
156.11799999999999
 20
132.101
 30
0.0
 11
155.798
 21
132.41999999999999
 31
0.0
  0
LINE
  5
6A2
  8
_________1
 62
     7
 10
156.11799999999999
 20
132.399
 30
0.0
 11
155.798
 21
132.71899999999999
 31
0.0
  0
LINE
  5
6A3
  8
_________1
 62
     7
 10
156.13900000000001
 20
132.69800000000001
 30
0.0
 11
155.798
 21
133.018
 31
0.0
  0
LINE
  5
6A4
  8
_________1
 62
     7
 10
156.13900000000001
 20
132.97499999999999
 30
0.0
 11
155.81899999999999
 21
133.316
 31
0.0
  0
LINE
  5
6A5
  8
_________1
 62
     7
 10
156.13900000000001
 20
133.274
 30
0.0
 11
155.81899999999999
 21
133.59399999999999
 31
0.0
  0
LINE
  5
6A6
  8
_________1
 62
     7
 10
156.161
 20
133.572
 30
0.0
 11
155.81899999999999
 21
133.892
 31
0.0
  0
LINE
  5
6A7
  8
_________1
 62
     7
 10
156.161
 20
133.84999999999999
 30
0.0
 11
155.84
 21
134.191
 31
0.0
  0
LINE
  5
6A8
  8
_________1
 62
     7
 10
156.161
 20
134.148
 30
0.0
 11
155.84
 21
134.46799999999999
 31
0.0
  0
LINE
  5
6A9
  8
_________1
 62
     7
 10
156.18199999999999
 20
134.447
 30
0.0
 11
155.84
 21
134.767
 31
0.0
  0
LINE
  5
6AA
  8
_________1
 62
     7
 10
156.18199999999999
 20
134.74600000000001
 30
0.0
 11
155.86199999999999
 21
135.065
 31
0.0
  0
LINE
  5
6AB
  8
_________1
 62
     7
 10
156.18199999999999
 20
135.023
 30
0.0
 11
155.86199999999999
 21
135.364
 31
0.0
  0
LINE
  5
6AC
  8
_________1
 62
     7
 10
156.203
 20
135.321
 30
0.0
 11
155.86199999999999
 21
135.642
 31
0.0
  0
LINE
  5
6AD
  8
_________1
 62
     7
 10
156.203
 20
135.62
 30
0.0
 11
155.88300000000001
 21
135.94
 31
0.0
  0
LINE
  5
6AE
  8
_________1
 62
     7
 10
156.203
 20
135.89699999999999
 30
0.0
 11
155.88300000000001
 21
136.239
 31
0.0
  0
LINE
  5
6AF
  8
_________1
 62
     7
 10
156.22399999999999
 20
136.196
 30
0.0
 11
155.88300000000001
 21
136.51599999999999
 31
0.0
  0
LINE
  5
6B0
  8
_________1
 62
     7
 10
156.22399999999999
 20
136.495
 30
0.0
 11
155.904
 21
136.815
 31
0.0
  0
LINE
  5
6B1
  8
_________1
 62
     7
 10
156.22399999999999
 20
136.79300000000001
 30
0.0
 11
155.904
 21
137.113
 31
0.0
  0
LINE
  5
6B2
  8
_________1
 62
     7
 10
156.22399999999999
 20
137.071
 30
0.0
 11
155.904
 21
137.41200000000001
 31
0.0
  0
LINE
  5
6B3
  8
_________1
 62
     7
 10
156.245
 20
137.369
 30
0.0
 11
155.92599999999999
 21
137.68899999999999
 31
0.0
  0
LINE
  5
6B4
  8
_________1
 62
     7
 10
156.245
 20
137.66800000000001
 30
0.0
 11
155.92599999999999
 21
137.988
 31
0.0
  0
LINE
  5
6B5
  8
_________1
 62
     7
 10
156.245
 20
137.94499999999999
 30
0.0
 11
155.92599999999999
 21
138.28700000000001
 31
0.0
  0
LINE
  5
6B6
  8
_________1
 62
     7
 10
156.267
 20
138.244
 30
0.0
 11
155.92599999999999
 21
138.56399999999999
 31
0.0
  0
LINE
  5
6B7
  8
_________1
 62
     7
 10
156.267
 20
138.542
 30
0.0
 11
155.947
 21
138.863
 31
0.0
  0
LINE
  5
6B8
  8
_________1
 62
     7
 10
156.267
 20
138.84100000000001
 30
0.0
 11
155.947
 21
139.161
 31
0.0
  0
LINE
  5
6B9
  8
_________1
 62
     7
 10
156.28800000000001
 20
139.11799999999999
 30
0.0
 11
155.947
 21
139.46000000000001
 31
0.0
  0
LINE
  5
6BA
  8
_________1
 62
     7
 10
156.28800000000001
 20
139.417
 30
0.0
 11
155.96799999999999
 21
139.73699999999999
 31
0.0
  0
LINE
  5
6BB
  8
_________1
 62
     7
 10
156.28800000000001
 20
139.71600000000001
 30
0.0
 11
155.96799999999999
 21
140.036
 31
0.0
  0
LINE
  5
6BC
  8
_________1
 62
     7
 10
156.31
 20
139.99299999999999
 30
0.0
 11
155.96799999999999
 21
140.334
 31
0.0
  0
LINE
  5
6BD
  8
_________1
 62
     7
 10
156.31
 20
140.292
 30
0.0
 11
155.99000000000001
 21
140.61199999999999
 31
0.0
  0
LINE
  5
6BE
  8
_________1
 62
     7
 10
156.31
 20
140.59
 30
0.0
 11
155.99000000000001
 21
140.91
 31
0.0
  0
LINE
  5
6BF
  8
_________1
 62
     7
 10
156.33099999999999
 20
140.88900000000001
 30
0.0
 11
155.99000000000001
 21
141.209
 31
0.0
  0
LINE
  5
6C0
  8
_________1
 62
     7
 10
156.33099999999999
 20
141.166
 30
0.0
 11
156.011
 21
141.50800000000001
 31
0.0
  0
LINE
  5
6C1
  8
_________1
 62
     7
 10
156.33099999999999
 20
141.465
 30
0.0
 11
156.011
 21
141.785
 31
0.0
  0
LINE
  5
6C2
  8
_________1
 62
     7
 10
156.35300000000001
 20
141.76300000000001
 30
0.0
 11
156.011
 21
142.084
 31
0.0
  0
LINE
  5
6C3
  8
_________1
 62
     7
 10
156.35300000000001
 20
142.041
 30
0.0
 11
156.03200000000001
 21
142.38200000000001
 31
0.0
  0
LINE
  5
6C4
  8
_________1
 62
     7
 10
156.35300000000001
 20
142.339
 30
0.0
 11
156.03200000000001
 21
142.66
 31
0.0
  0
LINE
  5
6C5
  8
_________1
 62
     7
 10
156.374
 20
142.63800000000001
 30
0.0
 11
156.03200000000001
 21
142.958
 31
0.0
  0
LINE
  5
6C6
  8
_________1
 62
     7
 10
156.374
 20
142.93700000000001
 30
0.0
 11
156.054
 21
143.25700000000001
 31
0.0
  0
LINE
  5
6C7
  8
_________1
 62
     7
 10
156.374
 20
143.214
 30
0.0
 11
156.054
 21
143.55500000000001
 31
0.0
  0
LINE
  5
6C8
  8
_________1
 62
     7
 10
156.39500000000001
 20
143.51300000000001
 30
0.0
 11
156.054
 21
143.833
 31
0.0
  0
LINE
  5
6C9
  8
_________1
 62
     7
 10
156.39500000000001
 20
143.81100000000001
 30
0.0
 11
156.07499999999999
 21
144.131
 31
0.0
  0
LINE
  5
6CA
  8
_________1
 62
     7
 10
156.39500000000001
 20
144.089
 30
0.0
 11
156.07499999999999
 21
144.43000000000001
 31
0.0
  0
LINE
  5
6CB
  8
_________1
 62
     7
 10
156.39500000000001
 20
144.387
 30
0.0
 11
156.07499999999999
 21
144.70699999999999
 31
0.0
  0
LINE
  5
6CC
  8
_________1
 62
     7
 10
156.416
 20
144.68600000000001
 30
0.0
 11
156.09700000000001
 21
145.006
 31
0.0
  0
LINE
  5
6CD
  8
_________1
 62
     7
 10
156.416
 20
144.98500000000001
 30
0.0
 11
156.09700000000001
 21
145.304
 31
0.0
  0
LINE
  5
6CE
  8
_________1
 62
     7
 10
156.416
 20
145.262
 30
0.0
 11
156.09700000000001
 21
145.58199999999999
 31
0.0
  0
LINE
  5
6CF
  8
_________1
 62
     7
 10
156.43799999999999
 20
145.56100000000001
 30
0.0
 11
156.09700000000001
 21
145.88
 31
0.0
  0
LINE
  5
6D0
  8
_________1
 62
     7
 10
156.43799999999999
 20
145.85900000000001
 30
0.0
 11
156.11799999999999
 21
146.179
 31
0.0
  0
LINE
  5
6D1
  8
_________1
 62
     7
 10
156.43799999999999
 20
146.136
 30
0.0
 11
156.11799999999999
 21
146.47800000000001
 31
0.0
  0
LINE
  5
6D2
  8
_________1
 62
     7
 10
156.459
 20
146.435
 30
0.0
 11
156.11799999999999
 21
146.755
 31
0.0
  0
LINE
  5
6D3
  8
_________1
 62
     7
 10
156.459
 20
146.73400000000001
 30
0.0
 11
156.13900000000001
 21
147.054
 31
0.0
  0
LINE
  5
6D4
  8
_________1
 62
     7
 10
156.459
 20
147.011
 30
0.0
 11
156.13900000000001
 21
147.352
 31
0.0
  0
LINE
  5
6D5
  8
_________1
 62
     7
 10
156.47999999999999
 20
147.309
 30
0.0
 11
156.13900000000001
 21
147.63
 31
0.0
  0
LINE
  5
6D6
  8
_________1
 62
     7
 10
156.47999999999999
 20
147.608
 30
0.0
 11
156.161
 21
147.928
 31
0.0
  0
LINE
  5
6D7
  8
_________1
 62
     7
 10
156.47999999999999
 20
147.90700000000001
 30
0.0
 11
156.161
 21
148.227
 31
0.0
  0
LINE
  5
6D8
  8
_________1
 62
     7
 10
156.50200000000001
 20
148.184
 30
0.0
 11
156.161
 21
148.52600000000001
 31
0.0
  0
LINE
  5
6D9
  8
_________1
 62
     7
 10
156.50200000000001
 20
148.483
 30
0.0
 11
156.18199999999999
 21
148.803
 31
0.0
  0
LINE
  5
6DA
  8
_________1
 62
     7
 10
156.50200000000001
 20
148.78200000000001
 30
0.0
 11
156.18199999999999
 21
149.102
 31
0.0
  0
LINE
  5
6DB
  8
_________1
 62
     7
 10
156.523
 20
149.059
 30
0.0
 11
156.18199999999999
 21
149.40000000000001
 31
0.0
  0
LINE
  5
6DC
  8
_________1
 62
     7
 10
156.523
 20
149.358
 30
0.0
 11
156.203
 21
149.678
 31
0.0
  0
LINE
  5
6DD
  8
_________1
 62
     7
 10
156.523
 20
149.65600000000001
 30
0.0
 11
156.203
 21
149.976
 31
0.0
  0
LINE
  5
6DE
  8
_________1
 62
     7
 10
156.54400000000001
 20
149.95500000000001
 30
0.0
 11
156.203
 21
150.27500000000001
 31
0.0
  0
LINE
  5
6DF
  8
_________1
 62
     7
 10
156.54400000000001
 20
150.232
 30
0.0
 11
156.22399999999999
 21
150.57299999999989
 31
0.0
  0
LINE
  5
6E0
  8
_________1
 62
     7
 10
156.54400000000001
 20
150.53100000000001
 30
0.0
 11
156.22399999999999
 21
150.851
 31
0.0
  0
LINE
  5
6E1
  8
_________1
 62
     7
 10
156.566
 20
150.82900000000001
 30
0.0
 11
156.22399999999999
 21
151.149
 31
0.0
  0
LINE
  5
6E2
  8
_________1
 62
     7
 10
156.566
 20
151.107
 30
0.0
 11
156.245
 21
151.44800000000001
 31
0.0
  0
LINE
  5
6E3
  8
_________1
 62
     7
 10
156.566
 20
151.405
 30
0.0
 11
156.245
 21
151.72499999999999
 31
0.0
  0
LINE
  5
6E4
  8
_________1
 62
     7
 10
156.566
 20
151.70400000000001
 30
0.0
 11
156.245
 21
152.024
 31
0.0
  0
LINE
  5
6E5
  8
_________1
 62
     7
 10
156.58699999999999
 20
152.00299999999999
 30
0.0
 11
156.267
 21
152.322
 31
0.0
  0
LINE
  5
6E6
  8
_________1
 62
     7
 10
156.58699999999999
 20
152.28
 30
0.0
 11
156.267
 21
152.62100000000001
 31
0.0
  0
LINE
  5
6E7
  8
_________1
 62
     7
 10
156.58699999999999
 20
152.578
 30
0.0
 11
156.267
 21
152.898
 31
0.0
  0
LINE
  5
6E8
  8
_________1
 62
     7
 10
156.608
 20
152.87700000000001
 30
0.0
 11
156.267
 21
153.197
 31
0.0
  0
LINE
  5
6E9
  8
_________1
 62
     7
 10
156.608
 20
153.154
 30
0.0
 11
156.28800000000001
 21
153.495
 31
0.0
  0
LINE
  5
6EA
  8
_________1
 62
     7
 10
156.608
 20
153.453
 30
0.0
 11
156.28800000000001
 21
153.773
 31
0.0
  0
LINE
  5
6EB
  8
_________1
 62
     7
 10
156.63
 20
153.75200000000001
 30
0.0
 11
156.28800000000001
 21
154.072
 31
0.0
  0
LINE
  5
6EC
  8
_________1
 62
     7
 10
156.63
 20
154.05000000000001
 30
0.0
 11
156.31
 21
154.37
 31
0.0
  0
LINE
  5
6ED
  8
_________1
 62
     7
 10
156.63
 20
154.327
 30
0.0
 11
156.31
 21
154.66900000000001
 31
0.0
  0
LINE
  5
6EE
  8
_________1
 62
     7
 10
156.65100000000001
 20
154.626
 30
0.0
 11
156.31
 21
154.946
 31
0.0
  0
LINE
  5
6EF
  8
_________1
 62
     7
 10
156.65100000000001
 20
154.92500000000001
 30
0.0
 11
156.33099999999999
 21
155.245
 31
0.0
  0
LINE
  5
6F0
  8
_________1
 62
     7
 10
156.65100000000001
 20
155.202
 30
0.0
 11
156.33099999999999
 21
155.54400000000001
 31
0.0
  0
LINE
  5
6F1
  8
_________1
 62
     7
 10
156.672
 20
155.501
 30
0.0
 11
156.33099999999999
 21
155.821
 31
0.0
  0
LINE
  5
6F2
  8
_________1
 62
     7
 10
156.672
 20
155.80000000000001
 30
0.0
 11
156.35300000000001
 21
156.119
 31
0.0
  0
LINE
  5
6F3
  8
_________1
 62
     7
 10
156.672
 20
156.0979999999999
 30
0.0
 11
156.35300000000001
 21
156.41800000000001
 31
0.0
  0
LINE
  5
6F4
  8
_________1
 62
     7
 10
156.69300000000001
 20
156.376
 30
0.0
 11
156.35300000000001
 21
156.71700000000001
 31
0.0
  0
LINE
  5
6F5
  8
_________1
 62
     7
 10
156.69300000000001
 20
156.67400000000001
 30
0.0
 11
156.374
 21
156.994
 31
0.0
  0
LINE
  5
6F6
  8
_________1
 62
     7
 10
156.69300000000001
 20
156.97300000000001
 30
0.0
 11
156.374
 21
157.29300000000001
 31
0.0
  0
LINE
  5
6F7
  8
_________1
 62
     7
 10
156.715
 20
157.25
 30
0.0
 11
156.374
 21
157.59100000000001
 31
0.0
  0
LINE
  5
6F8
  8
_________1
 62
     7
 10
156.715
 20
157.54900000000001
 30
0.0
 11
156.39500000000001
 21
157.869
 31
0.0
  0
LINE
  5
6F9
  8
_________1
 62
     7
 10
156.715
 20
157.84700000000001
 30
0.0
 11
156.39500000000001
 21
158.167
 31
0.0
  0
LINE
  5
6FA
  8
_________1
 62
     7
 10
156.73599999999999
 20
158.14599999999999
 30
0.0
 11
156.39500000000001
 21
158.46600000000001
 31
0.0
  0
LINE
  5
6FB
  8
_________1
 62
     7
 10
156.73599999999999
 20
158.423
 30
0.0
 11
156.416
 21
158.76499999999999
 31
0.0
  0
LINE
  5
6FC
  8
_________1
 62
     7
 10
156.73599999999999
 20
158.72200000000001
 30
0.0
 11
156.416
 21
159.042
 31
0.0
  0
LINE
  5
6FD
  8
_________1
 62
     7
 10
156.7579999999999
 20
159.02099999999999
 30
0.0
 11
156.416
 21
159.34
 31
0.0
  0
LINE
  5
6FE
  8
_________1
 62
     7
 10
156.7579999999999
 20
159.298
 30
0.0
 11
156.459
 21
159.59700000000001
 31
0.0
  0
LINE
  5
6FF
  8
_________1
 62
     7
 10
156.80000000000001
 20
159.554
 30
0.0
 11
156.566
 21
159.78800000000001
 31
0.0
  0
LINE
  5
700
  8
_________1
 62
     7
 10
156.94999999999999
 20
159.72399999999999
 30
0.0
 11
156.715
 21
159.959
 31
0.0
  0
LINE
  5
701
  8
_________1
 62
     7
 10
157.09899999999999
 20
159.874
 30
0.0
 11
156.864
 21
160.108
 31
0.0
  0
LINE
  5
702
  8
_________1
 62
     7
 10
157.24799999999999
 20
160.023
 30
0.0
 11
157.01400000000001
 21
160.25800000000001
 31
0.0
  0
LINE
  5
703
  8
_________1
 62
     7
 10
157.376
 20
160.172
 30
0.0
 11
157.142
 21
160.40700000000001
 31
0.0
  0
LINE
  5
704
  8
_________1
 62
     7
 10
157.50399999999999
 20
160.364
 30
0.0
 11
157.24799999999999
 21
160.62
 31
0.0
  0
LINE
  5
705
  8
_________1
 62
     7
 10
157.56800000000001
 20
160.578
 30
0.0
 11
157.31200000000001
 21
160.834
 31
0.0
  0
LINE
  5
706
  8
_________1
 62
     7
 10
127.833
 20
80.094800000000006
 30
0.0
 11
127.833
 21
119.81399999999999
 31
0.0
  0
LINE
  5
707
  8
_________1
 62
     7
 10
155.92599999999999
 20
109.809
 30
0.0
 11
157.09899999999999
 21
159.874
 31
0.0
  0
ARC
  5
708
  8
_________1
 62
     7
 10
42.445213000000003
 20
123.127116
 30
0.0
 40
85.387670999999983
 50
348.96308399999998
 51
0.081139
  0
LINE
  5
709
  8
_________1
 62
     7
 10
129.83799999999999
 20
79.326899999999995
 30
0.0
 11
129.83799999999999
 21
119.81399999999999
 31
0.0
  0
LINE
  5
70A
  8
_________1
 62
     7
 10
141.33500000000001
 20
119.664
 30
0.0
 11
141.33500000000001
 21
96.861199999999997
 31
0.0
  0
ARC
  5
70B
  8
_________1
 62
     7
 10
700.82998899999996
 20
186.86199999999999
 30
0.0
 40
566.68765399999995
 50
188.946718
 51
189.13837599999999
  0
ARC
  5
70C
  8
_________1
 62
     7
 10
232.04907600000001
 20
112.91730099999999
 30
0.0
 40
92.110748999999984
 50
187.51614900000001
 51
188.85819799999999
  0
ARC
  5
70D
  8
_________1
 62
     7
 10
189.910146
 20
107.267083
 30
0.0
 40
49.594875999999999
 50
184.68532999999999
 51
187.41254799999999
  0
ARC
  5
70E
  8
_________1
 62
     7
 10
174.342659
 20
105.901374
 30
0.0
 40
33.967973000000001
 50
180.28043799999989
 51
184.53428600000001
  0
ARC
  5
70F
  8
_________1
 62
     7
 10
190.97332800000001
 20
106.458012
 30
0.0
 40
50.603398999999989
 50
178.238302
 51
180.818535
  0
ARC
  5
710
  8
_________1
 62
     7
 10
214.514263
 20
105.872589
 30
0.0
 40
74.151333999999991
 50
176.746995
 51
178.34536199999999
  0
ARC
  5
711
  8
_________1
 62
     7
 10
255.53521699999999
 20
103.68248800000001
 30
0.0
 40
115.230555
 50
176.22042200000001
 51
176.81718100000001
  0
ARC
  5
712
  8
_________1
 62
     7
 10
340.60083600000002
 20
98.022851000000003
 30
0.0
 40
200.48423600000001
 50
175.740689
 51
176.20899600000001
  0
ARC
  5
713
  8
_________1
 62
     7
 10
-856.23560899999995
 20
188.319727
 30
0.0
 40
999.7537699999998
 50
355.67433299999999
 51
355.85597000000001
  0
ARC
  5
714
  8
_________1
 62
     7
 10
17.314972999999998
 20
124.80373899999999
 30
0.0
 40
123.897334
 50
355.959428
 51
357.11946599999999
  0
ARC
  5
715
  8
_________1
 62
     7
 10
66.159267
 20
122.21374299999999
 30
0.0
 40
74.984716000000006
 50
357.22041900000011
 51
358.051693
  0
LINE
  5
716
  8
_________1
 62
     7
 10
155.60599999999999
 20
109.809
 30
0.0
 11
156.7579999999999
 21
159.405
 31
0.0
  0
LINE
  5
717
  8
_________1
 62
     7
 10
129.83799999999999
 20
79.326899999999995
 30
0.0
 11
129.83799999999999
 21
90.419200000000004
 31
0.0
  0
ARC
  5
718
  8
_________1
 62
     7
 10
238.31131999999999
 20
85.035704999999993
 30
0.0
 40
114.148031
 50
169.01828699999999
 51
180.38126
  0
ARC
  5
719
  8
_________1
 62
     7
 10
124.443939
 20
80.073196999999993
 30
0.0
 40
3.3891369999999998
 50
0.7328720000000001
 51
30.180243000000001
  0
ARC
  5
71A
  8
_________1
 62
     7
 10
124.06767000000001
 20
79.894083999999992
 30
0.0
 40
3.8046009999999999
 50
29.663322000000001
 51
68.946600000000004
  0
ARC
  5
71B
  8
_________1
 62
     7
 10
124.31254800000001
 20
80.370056000000005
 30
0.0
 40
3.272937999999999
 50
69.95400699999999
 51
82.463127
  0
LINE
  5
71C
  8
_________1
 62
     7
 10
127.833
 20
80.116500000000016
 30
0.0
 11
127.875
 21
79.924300000000002
 31
0.0
  0
LINE
  5
71D
  8
_________1
 62
     7
 10
127.875
 20
79.924300000000002
 30
0.0
 11
127.95999999999999
 21
79.753399999999999
 31
0.0
  0
LINE
  5
71E
  8
_________1
 62
     7
 10
127.95999999999999
 20
79.753399999999999
 30
0.0
 11
128.08799999999999
 21
79.626000000000005
 31
0.0
  0
LINE
  5
71F
  8
_________1
 62
     7
 10
128.08799999999999
 20
79.626000000000005
 30
0.0
 11
128.238
 21
79.518799999999999
 31
0.0
  0
LINE
  5
720
  8
_________1
 62
     7
 10
128.238
 20
79.518799999999999
 30
0.0
 11
128.429
 21
79.476399999999984
 31
0.0
  0
LINE
  5
721
  8
_________1
 62
     7
 10
128.429
 20
79.476399999999984
 30
0.0
 11
129.83799999999999
 21
79.326899999999995
 31
0.0
  0
LINE
  5
722
  8
_________1
 62
     7
 10
124.166
 20
84.276200000000003
 30
0.0
 11
124.209
 21
84.041200000000003
 31
0.0
  0
LINE
  5
723
  8
_________1
 62
     7
 10
124.209
 20
84.041200000000003
 30
0.0
 11
124.337
 21
83.849299999999999
 31
0.0
  0
LINE
  5
724
  8
_________1
 62
     7
 10
124.337
 20
83.849299999999999
 30
0.0
 11
124.50700000000001
 21
83.700199999999995
 31
0.0
  0
LINE
  5
725
  8
_________1
 62
     7
 10
124.50700000000001
 20
83.700199999999995
 30
0.0
 11
124.742
 21
83.614699999999999
 31
0.0
  0
LINE
  5
726
  8
_________1
 62
     7
 10
140.65199999999999
 20
96.498800000000017
 30
0.0
 11
129.83799999999999
 21
90.034999999999997
 31
0.0
  0
ARC
  5
727
  8
_________1
 62
     7
 10
138.563805
 20
124.718063
 30
0.0
 40
27.086988000000002
 50
282.87359800000002
 51
290.38762500000001
  0
ARC
  5
728
  8
_________1
 62
     7
 10
136.260952
 20
131.28863699999999
 30
0.0
 40
34.048456999999999
 50
290.168205
 51
295.91754400000002
  0
ARC
  5
729
  8
_________1
 62
     7
 10
132.715746
 20
138.90547699999999
 30
0.0
 40
42.448987000000002
 50
295.72789899999998
 51
298.12466799999999
  0
LINE
  5
72A
  8
_________1
 62
     7
 10
140.65199999999999
 20
96.498800000000017
 30
0.0
 11
141.33500000000001
 21
96.861199999999997
 31
0.0
  0
LINE
  5
72B
  8
_________1
 62
     7
 10
141.33500000000001
 20
96.861199999999997
 30
0.0
 11
144.59899999999999
 21
98.311899999999994
 31
0.0
  0
ARC
  5
72C
  8
_________1
 62
     7
 10
148.38011299999999
 20
107.22885599999999
 30
0.0
 40
7.2051729999999994
 50
286.995564
 51
336.06826999999998
  0
LINE
  5
72D
  8
_________1
 62
     7
 10
155.286
 20
104.242
 30
0.0
 11
155.60599999999999
 21
106.07599999999999
 31
0.0
  0
LINE
  5
72E
  8
_________1
 62
     7
 10
155.60599999999999
 20
106.07599999999999
 30
0.0
 11
155.81899999999999
 21
107.932
 31
0.0
  0
LINE
  5
72F
  8
_________1
 62
     7
 10
155.81899999999999
 20
107.932
 30
0.0
 11
155.92599999999999
 21
109.788
 31
0.0
  0
LINE
  5
730
  8
_________1
 62
     7
 10
154.96600000000001
 20
104.306
 30
0.0
 11
155.22200000000001
 21
105.821
 31
0.0
  0
LINE
  5
731
  8
_________1
 62
     7
 10
155.22200000000001
 20
105.821
 30
0.0
 11
155.435
 21
107.33499999999999
 31
0.0
  0
LINE
  5
732
  8
_________1
 62
     7
 10
155.435
 20
107.33499999999999
 30
0.0
 11
155.56299999999999
 21
108.871
 31
0.0
  0
LINE
  5
733
  8
_________1
 62
     7
 10
155.56299999999999
 20
108.871
 30
0.0
 11
155.60599999999999
 21
110.407
 31
0.0
  0
LINE
  5
734
  8
_________1
 62
     7
 10
155.286
 20
104.242
 30
0.0
 11
154.96600000000001
 21
104.306
 31
0.0
  0
INSERT
  5
735
  8
_________1
 62
     7
  2
AIGNBL02010007
 10
0.0
 20
0.0
 30
0.0
  0
INSERT
  5
736
  8
_________1
 62
     7
  2
AIGNBL02010008
 10
0.0
 20
0.0
 30
0.0
  0
LINE
  5
737
  8
_________1
 62
     7
 10
73.706699999999998
 20
165.102
 30
0.0
 11
71.723699999999994
 21
163.95699999999999
 31
0.0
  0
LINE
  5
738
  8
_________1
 62
     7
 10
71.723699999999994
 20
163.95699999999999
 30
0.0
 11
72.868200000000002
 21
165.94
 31
0.0
  0
LINE
  5
739
  8
_________1
 62
     7
 10
72.868200000000002
 20
165.94
 30
0.0
 11
73.706699999999998
 21
165.102
 31
0.0
  0
LINE
  5
73A
  8
_________1
 62
     7
 10
67.150000000000006
 20
160.22200000000001
 30
0.0
 11
69.132999999999996
 21
161.36600000000001
 31
0.0
  0
LINE
  5
73B
  8
_________1
 62
     7
 10
69.132999999999996
 20
161.36600000000001
 30
0.0
 11
67.987799999999993
 21
159.38399999999999
 31
0.0
  0
LINE
  5
73C
  8
_________1
 62
     7
 10
67.987799999999993
 20
159.38399999999999
 30
0.0
 11
67.150000000000006
 21
160.22200000000001
 31
0.0
  0
LINE
  5
73D
  8
_________1
 62
     7
 10
74.117400000000004
 20
166.351
 30
0.0
 11
67.239599999999996
 21
159.47300000000001
 31
0.0
  0
LINE
  5
73E
  8
_________1
 62
     7
 10
67.239599999999996
 20
159.47300000000001
 30
0.0
 11
59.836199999999998
 21
159.47300000000001
 31
0.0
  0
INSERT
  5
73F
  8
_________1
 62
     7
  2
AIGNBL02010009
 10
0.0
 20
0.0
 30
0.0
  0
INSERT
  5
740
  8
_________1
 62
     7
  2
AIGNBL0201000A
 10
0.0
 20
0.0
 30
0.0
  0
INSERT
  5
741
  8
_________1
 62
     7
  2
AIGNBL0201000B
 10
0.0
 20
0.0
 30
0.0
  0
INSERT
  5
742
  8
_________1
 62
     7
  2
AIGNBL0201000C
 10
0.0
 20
0.0
 30
0.0
  0
LINE
  5
743
  8
_________1
 62
     7
 10
45.427100000000003
 20
193.25399999999999
 30
0.0
 11
45.427100000000003
 21
180.029
 31
0.0
  0
LINE
  5
744
  8
_________1
 62
     7
 10
95.427199999999999
 20
193.25399999999999
 30
0.0
 11
95.427199999999999
 21
180.029
 31
0.0
  0
LINE
  5
745
  8
_________1
  6
AIGENLINE001
 62
     7
 10
75.438900000000004
 20
162.661
 30
0.0
 11
66.573999999999984
 21
162.661
 31
0.0
  0
LINE
  5
746
  8
_________1
  6
AIGENLINE001
 62
     7
 10
70.427300000000002
 20
75.925899999999999
 30
0.0
 11
70.427300000000002
 21
188.971
 31
0.0
  0
INSERT
  5
747
  8
_________1
 62
     7
  2
AIGNBL0201000D
 10
0.0
 20
0.0
 30
0.0
  0
LINE
  5
748
  8
_________1
 62
     7
 10
32.64950000000001
 20
79.327299999999994
 30
0.0
 11
44.7271
 21
79.327299999999994
 31
0.0
  0
LINE
  5
749
  8
_________1
 62
     7
 10
96.127200000000016
 20
179.30799999999999
 30
0.0
 11
111.133
 21
179.30799999999999
 31
0.0
  0
LINE
  5
74A
  8
_________1
 62
     7
 10
76.506100000000004
 20
174.328
 30
0.0
 11
103.758
 21
174.328
 31
0.0
  0
LINE
  5
74B
  8
_________1
 62
     7
 10
76.138999999999996
 20
162.661
 30
0.0
 11
111.148
 21
162.661
 31
0.0
  0
LINE
  5
74C
  8
_________1
 62
     7
 10
32.64950000000001
 20
179.32900000000001
 30
0.0
 11
44.7271
 21
179.32900000000001
 31
0.0
  0
INSERT
  5
74D
  8
_________1
 62
     7
  2
AIGNBL0201000E
 10
0.0
 20
0.0
 30
0.0
  0
INSERT
  5
74E
  8
_________1
 62
     7
  2
AIGNBL0201000F
 10
0.0
 20
0.0
 30
0.0
  0
INSERT
  5
74F
  8
_________1
 62
     7
  2
AIGNBL02010010
 10
0.0
 20
0.0
 30
0.0
  0
INSERT
  5
750
  8
_________1
 62
     7
  2
AIGNBL02010011
 10
0.0
 20
0.0
 30
0.0
  0
INSERT
  5
751
  8
_________1
 62
     7
  2
AIGNBL02010012
 10
0.0
 20
0.0
 30
0.0
  0
INSERT
  5
752
  8
_________1
 62
     7
  2
AIGNBL02010013
 10
0.0
 20
0.0
 30
0.0
  0
INSERT
  5
753
  8
_________1
 62
     7
  2
AIGNBL02010014
 10
0.0
 20
0.0
 30
0.0
  0
LINE
  5
754
  8
_________1
 62
     7
 10
124.166
 20
83.226100000000002
 30
0.0
 11
124.166
 21
72.410499999999999
 31
0.0
  0
LINE
  5
755
  8
_________1
 62
     7
 10
174.28700000000001
 20
154.328
 30
0.0
 11
164.83099999999999
 21
154.328
 31
0.0
  0
LINE
  5
756
  8
_________1
  6
AIGENLINE001
 62
     7
 10
164.131
 20
154.328
 30
0.0
 11
154.57300000000001
 21
154.328
 31
0.0
  0
LINE
  5
757
  8
_________1
 62
     7
 10
174.28700000000001
 20
110.66
 30
0.0
 11
164.83099999999999
 21
110.66
 31
0.0
  0
LINE
  5
758
  8
_________1
 62
     7
 10
174.28700000000001
 20
178.661
 30
0.0
 11
130.32300000000001
 21
178.661
 31
0.0
  0
LINE
  5
759
  8
_________1
 62
     7
 10
174.28700000000001
 20
79.326899999999995
 30
0.0
 11
130.32300000000001
 21
79.326899999999995
 31
0.0
  0
LINE
  5
75A
  8
_________1
 62
     7
 10
129.83799999999999
 20
185.25899999999999
 30
0.0
 11
129.83799999999999
 21
180.02799999999999
 31
0.0
  0
LINE
  5
75B
  8
_________1
 62
     7
 10
163.166
 20
192.602
 30
0.0
 11
163.166
 21
156.54300000000001
 31
0.0
  0
LINE
  5
75C
  8
_________1
 62
     7
 10
127.833
 20
192.58699999999999
 30
0.0
 11
127.833
 21
179.696
 31
0.0
  0
LINE
  5
75D
  8
_________1
 62
     7
 10
163.166
 20
108.446
 30
0.0
 11
163.166
 21
72.410499999999999
 31
0.0
  0
LINE
  5
75E
  8
_________2
 62
     7
 10
210.001
 20
148.482
 30
0.0
 11
188.251
 21
148.482
 31
0.0
  0
LINE
  5
75F
  8
_________2
 62
     7
 10
105.0
 20
16.979900000000001
 30
0.0
 11
105.0
 21
-0.000344512
 31
0.0
  0
LINE
  5
760
  8
_________2
 62
     7
 10
105.0
 20
297.00200000000001
 30
0.0
 11
105.0
 21
279.98200000000003
 31
0.0
  0
LINE
  5
761
  8
_________2
 62
     7
 10
21.749700000000001
 20
148.482
 30
0.0
 11
-0.000689023
 21
148.482
 31
0.0
  0
INSERT
  5
762
  8
_________2
 62
     7
  2
AIGNBL03010002
 10
0.0
 20
0.0
 30
0.0
  0
TEXT
  5
763
  8
_________2
 62
     7
 10
109.30500000000001
 20
22.750499999999999
 30
0.0
 40
3.0923400000000001
  1
図番
 41
0.5
  0
LINE
  5
764
  8
_________2
 62
     7
 10
108.25
 20
26.979700000000001
 30
0.0
 11
188.251
 21
26.979700000000001
 31
0.0
  0
TEXT
  5
765
  8
_________2
 62
     7
 10
109.30500000000001
 20
32.750300000000003
 30
0.0
 40
3.0923400000000001
  1
品番
 41
0.5
  0
TEXT
  5
766
  8
_________2
 62
     7
 10
109.30500000000001
 20
52.889099999999999
 30
0.0
 40
3.0923400000000001
  1
名称
 41
0.5
  0
TEXT
  5
767
  8
_________2
 62
     7
 10
96.545258333333337
 20
47.892999999999986
 30
0.0
 40
3.6545800000000002
  1
mm
 41
0.5
 72
     1
 11
98.067999999999998
 21
47.892999999999986
 31
0.0
  0
TEXT
  5
768
  8
_________2
 62
     7
 10
90.343400000000003
 20
52.889099999999999
 30
0.0
 40
3.0923400000000001
  1
単位
 41
0.5
  0
TEXT
  5
769
  8
_________2
 62
     7
 10
90.343400000000003
 20
40.481900000000003
 30
0.0
 40
3.0923400000000001
  1
尺度
 41
0.5
  0
TEXT
  5
76A
  8
_________2
 62
     7
 10
94.639861999999994
 20
34.288899999999998
 30
0.0
 40
3.6545800000000002
  1
1 ： 15
 41
0.5
 72
     1
 11
98.659899999999993
 21
34.288899999999998
 31
0.0
  0
TEXT
  5
76B
  8
_________2
 62
     7
 10
137.91878750000001
 20
30.178899999999999
 30
0.0
 40
3.9357000000000002
  1
CEY21540TV6
 41
0.5
 72
     1
 11
148.25
 21
30.178899999999999
 31
0.0
  0
TEXT
  5
76C
  8
_________2
 62
     7
 10
137.91878750000001
 20
20.1784
 30
0.0
 40
3.9357000000000002
  1
CEY21540TV6
 41
0.5
 72
     1
 11
148.25
 21
20.1784
 31
0.0
  0
TEXT
  5
76D
  8
_________2
 62
     7
 10
29.286899999999999
 20
21.778300000000002
 30
0.0
 40
3.9357000000000002
  1
満水容量：154L、重量：19.9kg
 41
0.5
  0
TEXT
  5
76E
  8
_________2
 62
     7
 10
113.879
 20
45.296700000000001
 30
0.0
 40
3.9357000000000002
  1
アクリル製バスタブ（1500サイズ）
 41
0.5
  0
TEXT
  5
76F
  8
_________2
 62
     7
 10
44.125500333333328
 20
34.674100000000003
 30
0.0
 40
3.6545800000000002
  1
土山
 41
0.5
 72
     1
 11
46.0137
 21
34.674100000000003
 31
0.0
  0
TEXT
  5
770
  8
_________2
 62
     7
 10
25.49059066666667
 20
34.674100000000003
 30
0.0
 40
3.6545800000000002
  1
木場
 41
0.5
 72
     1
 11
27.439699999999998
 21
34.674100000000003
 31
0.0
  0
TEXT
  5
771
  8
_________2
 62
     7
 10
72.486000000000004
 20
34.288899999999998
 30
0.0
 40
3.6545800000000002
  1
21.06.15
 41
0.5
  0
TEXT
  5
772
  8
_________2
 62
     7
 10
71.293300000000002
 20
40.481900000000003
 30
0.0
 40
3.0923400000000001
  1
日付
 41
0.5
  0
TEXT
  5
773
  8
_________2
 62
     7
 10
34.339599999999997
 20
40.481900000000003
 30
0.0
 40
3.0923400000000001
  1
検図
 41
0.5
  0
TEXT
  5
774
  8
_________2
 62
     7
 10
22.7212
 20
26.282499999999999
 30
0.0
 40
3.0923400000000001
  1
備考
 41
0.5
  0
TEXT
  5
775
  8
_________2
 62
     7
 10
22.7212
 20
40.481900000000003
 30
0.0
 40
3.0923400000000001
  1
製図
 41
0.5
  0
TEXT
  5
776
  8
_________2
 62
     7
 10
28.488665333333341
 20
49.00780000000001
 30
0.0
 40
4.4979399999999989
  1
セラトレーディング株式会社
 41
0.5
 72
     1
 11
45.880699999999997
 21
49.00780000000001
 31
0.0
  0
LINE
  5
777
  8
_________2
 62
     7
 10
188.251
 20
16.979900000000001
 30
0.0
 11
21.749700000000001
 21
16.979900000000001
 31
0.0
  0
LINE
  5
778
  8
_________2
 62
     7
 10
21.749700000000001
 20
16.979900000000001
 30
0.0
 11
21.749700000000001
 21
279.98200000000003
 31
0.0
  0
LINE
  5
779
  8
_________2
 62
     7
 10
21.749700000000001
 20
279.98200000000003
 30
0.0
 11
188.251
 21
279.98200000000003
 31
0.0
  0
LINE
  5
77A
  8
_________2
 62
     7
 10
188.251
 20
279.98200000000003
 30
0.0
 11
188.251
 21
16.979900000000001
 31
0.0
  0
LINE
  5
77B
  8
_________2
 62
     7
 10
70.250100000000003
 20
30.48
 30
0.0
 11
70.250100000000003
 21
56.979799999999997
 31
0.0
  0
LINE
  5
77C
  8
_________2
 62
     7
 10
89.249899999999997
 20
30.48
 30
0.0
 11
89.249899999999997
 21
56.979799999999997
 31
0.0
  0
LINE
  5
77D
  8
_________2
 62
     7
 10
108.25
 20
16.979900000000001
 30
0.0
 11
108.25
 21
56.979799999999997
 31
0.0
  0
LINE
  5
77E
  8
_________2
 62
     7
 10
33.249499999999998
 20
30.48
 30
0.0
 11
33.249499999999998
 21
44.4803
 31
0.0
  0
LINE
  5
77F
  8
_________2
 62
     7
 10
21.749700000000001
 20
30.48
 30
0.0
 11
108.25
 21
30.48
 31
0.0
  0
LINE
  5
780
  8
_________2
 62
     7
 10
21.749700000000001
 20
44.4803
 30
0.0
 11
108.25
 21
44.4803
 31
0.0
  0
LINE
  5
781
  8
_________2
 62
     7
 10
108.25
 20
36.979500000000002
 30
0.0
 11
188.251
 21
36.979500000000002
 31
0.0
  0
LINE
  5
782
  8
_________2
 62
     7
 10
21.749700000000001
 20
56.979799999999997
 30
0.0
 11
188.251
 21
56.979799999999997
 31
0.0
  0
ENDSEC
  0
EOF
