  0
SECTION
  2
HEADER
  9
$ACADVER
  1
AC1009
  9
$INSBASE
 10
0.0
 20
0.0
 30
0.0
  9
$EXTMIN
 10
-0.000689023
 20
-0.000344512
 30
0.0
  9
$EXTMAX
 10
210.00099999999989
 20
297.00200000000001
 30
0.0
  9
$LIMMIN
 10
0.0
 20
0.0
  9
$LIMMAX
 10
12.0
 20
9.0
  9
$ORTHOMODE
 70
     0
  9
$REGENMODE
 70
     1
  9
$FILLMODE
 70
     1
  9
$QTEXTMODE
 70
     0
  9
$MIRRTEXT
 70
     1
  9
$DRAGMODE
 70
     2
  9
$LTSCALE
 40
1.0
  9
$OSMODE
 70
    37
  9
$ATTMODE
 70
     1
  9
$TEXTSIZE
 40
0.0
  9
$TRACEWID
 40
0.05
  9
$TEXTSTYLE
  7
STANDARD
  9
$CLAYER
  8
0
  9
$CELTYPE
  6
CONTINUOUS
  9
$CECOLOR
 62
   256
  9
$DIMSCALE
 40
1.0
  9
$DIMASZ
 40
0.18
  9
$DIMEXO
 40
0.0625
  9
$DIMDLI
 40
0.38
  9
$DIMRND
 40
0.0
  9
$DIMDLE
 40
0.0
  9
$DIMEXE
 40
0.18
  9
$DIMTP
 40
0.0
  9
$DIMTM
 40
0.0
  9
$DIMTXT
 40
0.18
  9
$DIMCEN
 40
0.09
  9
$DIMTSZ
 40
0.0
  9
$DIMTOL
 70
     0
  9
$DIMLIM
 70
     0
  9
$DIMTIH
 70
     1
  9
$DIMTOH
 70
     1
  9
$DIMSE1
 70
     0
  9
$DIMSE2
 70
     0
  9
$DIMTAD
 70
     0
  9
$DIMZIN
 70
     0
  9
$DIMBLK
  1

  9
$DIMASO
 70
     1
  9
$DIMSHO
 70
     1
  9
$DIMPOST
  1

  9
$DIMAPOST
  1

  9
$DIMALT
 70
     0
  9
$DIMALTD
 70
     2
  9
$DIMALTF
 40
25.399999999999999
  9
$DIMLFAC
 40
1.0
  9
$DIMTOFL
 70
     0
  9
$DIMTVP
 40
0.0
  9
$DIMTIX
 70
     0
  9
$DIMSOXD
 70
     0
  9
$DIMSAH
 70
     0
  9
$DIMBLK1
  1

  9
$DIMBLK2
  1

  9
$DIMSTYLE
  2
STANDARD
  9
$DIMCLRD
 70
     0
  9
$DIMCLRE
 70
     0
  9
$DIMCLRT
 70
     0
  9
$DIMTFAC
 40
1.0
  9
$DIMGAP
 40
0.09
  9
$LUNITS
 70
     2
  9
$LUPREC
 70
     4
  9
$SKETCHINC
 40
0.1
  9
$FILLETRAD
 40
0.0
  9
$AUNITS
 70
     0
  9
$AUPREC
 70
     0
  9
$MENU
  1
.
  9
$ELEVATION
 40
0.0
  9
$PELEVATION
 40
0.0
  9
$THICKNESS
 40
0.0
  9
$LIMCHECK
 70
     0
  9
$BLIPMODE
 70
     0
  9
$CHAMFERA
 40
0.0
  9
$CHAMFERB
 40
0.0
  9
$SKPOLY
 70
     0
  9
$TDCREATE
 40
2444972.375
  9
$TDUPDATE
 40
2456738.2462737728
  9
$TDINDWG
 40
0.0000105556
  9
$TDUSRTIMER
 40
0.0000105556
  9
$USRTIMER
 70
     1
  9
$ANGBASE
 50
0.0
  9
$ANGDIR
 70
     0
  9
$PDMODE
 70
     0
  9
$PDSIZE
 40
0.0
  9
$PLINEWID
 40
0.0
  9
$COORDS
 70
     1
  9
$SPLFRAME
 70
     0
  9
$SPLINETYPE
 70
     6
  9
$SPLINESEGS
 70
     8
  9
$ATTDIA
 70
     0
  9
$ATTREQ
 70
     1
  9
$HANDLING
 70
     1
  9
$HANDSEED
  5
745
  9
$SURFTAB1
 70
     6
  9
$SURFTAB2
 70
     6
  9
$SURFTYPE
 70
     6
  9
$SURFU
 70
     6
  9
$SURFV
 70
     6
  9
$UCSNAME
  2

  9
$UCSORG
 10
0.0
 20
0.0
 30
0.0
  9
$UCSXDIR
 10
1.0
 20
0.0
 30
0.0
  9
$UCSYDIR
 10
0.0
 20
1.0
 30
0.0
  9
$PUCSNAME
  2

  9
$PUCSORG
 10
0.0
 20
0.0
 30
0.0
  9
$PUCSXDIR
 10
1.0
 20
0.0
 30
0.0
  9
$PUCSYDIR
 10
0.0
 20
1.0
 30
0.0
  9
$USERI1
 70
     0
  9
$USERI2
 70
     0
  9
$USERI3
 70
     0
  9
$USERI4
 70
     0
  9
$USERI5
 70
     0
  9
$USERR1
 40
0.0
  9
$USERR2
 40
0.0
  9
$USERR3
 40
0.0
  9
$USERR4
 40
0.0
  9
$USERR5
 40
0.0
  9
$WORLDVIEW
 70
     1
  9
$SHADEDGE
 70
     3
  9
$SHADEDIF
 70
    70
  9
$TILEMODE
 70
     1
  9
$MAXACTVP
 70
    48
  9
$PLIMCHECK
 70
     0
  9
$PEXTMIN
 10
1.0000000000000000E+020
 20
1.0000000000000000E+020
 30
1.0000000000000000E+020
  9
$PEXTMAX
 10
-1.0000000000000000E+020
 20
-1.0000000000000000E+020
 30
-1.0000000000000000E+020
  9
$PLIMMIN
 10
0.0
 20
0.0
  9
$PLIMMAX
 10
12.0
 20
9.0
  9
$UNITMODE
 70
     0
  9
$VISRETAIN
 70
     1
  9
$PLINEGEN
 70
     0
  9
$PSLTSCALE
 70
     1
  0
ENDSEC
  0
SECTION
  2
TABLES
  0
TABLE
  2
VPORT
 70
     2
  0
VPORT
  2
*ACTIVE
 70
     0
 10
0.0
 20
0.0
 11
1.0
 21
1.0
 12
206.70668023396189
 22
148.50082774399999
 13
0.0
 23
0.0
 14
1.0
 24
1.0
 15
0.0
 25
0.0
 16
0.0
 26
0.0
 36
1.0
 17
0.0
 27
0.0
 37
0.0
 40
299.4535330499258
 41
2.2894736842105261
 42
50.0
 43
0.0
 44
0.0
 50
0.0
 51
0.0
 71
     0
 72
   100
 73
     1
 74
     1
 75
     0
 76
     0
 77
     0
 78
     0
  0
ENDTAB
  0
TABLE
  2
LTYPE
 70
     3
  0
LTYPE
  2
CONTINUOUS
 70
     0
  3
Solid line
 72
    65
 73
     0
 40
0.0
  0
LTYPE
  2
AIGENLINE001
 70
     0
  3
generate AI->DXF Converter
 72
    65
 73
     4
 40
5.8561449999999988
 49
3.5278
 49
-0.776115
 49
0.776115
 49
-0.776115
  0
LTYPE
  2
AIGENLINE002
 70
     0
  3
generate AI->DXF Converter
 72
    65
 73
     6
 40
7.4083750000000004
 49
3.5278
 49
-0.776115
 49
0.776115
 49
-0.776115
 49
0.776115
 49
-0.776115
  0
ENDTAB
  0
TABLE
  2
LAYER
 70
     2
  0
LAYER
  2
0
 70
     0
 62
     7
  6
CONTINUOUS
  0
LAYER
  2
_________2
 70
     0
 62
     7
  6
CONTINUOUS
  0
ENDTAB
  0
TABLE
  2
STYLE
 70
     1
  0
STYLE
  2
STANDARD
 70
     0
 40
0.0
 41
0.0
 50
0.0
 71
     0
 42
0.0
  3
TXT
  4
EXTFONT.SHX
  0
ENDTAB
  0
TABLE
  2
VIEW
 70
     0
  0
ENDTAB
  0
TABLE
  2
UCS
 70
     0
  0
ENDTAB
  0
TABLE
  2
APPID
 70
     1
  0
APPID
  2
ACAD
 70
     0
  0
ENDTAB
  0
TABLE
  2
DIMSTYLE
 70
     1
  0
DIMSTYLE
  2
STANDARD
 70
     0
  3

  4

  5

  6

  7

 40
1.0
 41
0.18
 42
0.0625
 43
0.38
 44
0.18
 45
0.0
 46
0.0
 47
0.0
 48
0.0
140
0.18
141
0.09
142
0.0
143
25.399999999999999
144
1.0
145
0.0
146
1.0
147
0.09
 71
     0
 72
     0
 73
     1
 74
     1
 75
     0
 76
     0
 77
     0
 78
     0
170
     0
171
     2
172
     0
173
     0
174
     0
175
     0
176
     0
177
     0
178
     0
  0
ENDTAB
  0
ENDSEC
  0
SECTION
  2
BLOCKS
  0
BLOCK
  8
0
  2
$MODEL_SPACE
 70
     0
 10
0.0
 20
0.0
 30
0.0
  3
$MODEL_SPACE
  1

  0
ENDBLK
  5
1A
  8
0
  0
BLOCK
 67
     1
  8
0
  2
$PAPER_SPACE
 70
     0
 10
0.0
 20
0.0
 30
0.0
  3
$PAPER_SPACE
  1

  0
ENDBLK
  5
17
 67
     1
  8
0
  0
ENDSEC
  0
SECTION
  2
ENTITIES
  0
TEXT
  5
23
  8
0
 62
     7
 10
172.87999999999991
 20
218.97828749999991
 30
0.0
 40
3.0923400000000001
  1
260
 50
90.0
 41
0.5
 72
     1
 11
172.87999999999991
 21
220.91099999999989
 31
0.0
  0
TEXT
  5
24
  8
0
 62
     7
 10
172.87999999999991
 20
235.31128749999999
 30
0.0
 40
3.0923400000000001
  1
230
 50
90.0
 41
0.5
 72
     1
 11
172.87999999999991
 21
237.244
 31
0.0
  0
TEXT
  5
25
  8
0
 62
     7
 10
172.87999999999991
 20
251.64528749999999
 30
0.0
 40
3.0923400000000001
  1
260
 50
90.0
 41
0.5
 72
     1
 11
172.87999999999991
 21
253.57799999999989
 31
0.0
  0
TEXT
  5
26
  8
0
 62
     7
 10
180.72799999999989
 20
127.26644
 30
0.0
 40
3.0923400000000001
  1
A-A
 50
90.0
 41
0.5
 72
     1
 11
180.72799999999989
 21
129.32799999999989
 31
0.0
  0
TEXT
  5
27
  8
0
 62
     7
 10
140.2322874999999
 20
164.0929999999999
 30
0.0
 40
3.0923400000000001
  1
430
 41
0.5
 72
     1
 11
142.16499999999991
 21
164.0929999999999
 31
0.0
  0
TEXT
  5
28
  8
0
 62
     7
 10
134.16074499999991
 20
185.26599999999999
 30
0.0
 40
3.0923400000000001
  1
30
 41
0.5
 72
     2
 11
136.47999999999999
 21
185.26599999999999
 31
0.0
  0
TEXT
  5
29
  8
0
 62
     7
 10
143.56728749999991
 20
192.595
 30
0.0
 40
3.0923400000000001
  1
530
 41
0.5
 72
     1
 11
145.5
 21
192.595
 31
0.0
  0
TEXT
  5
2A
  8
0
 62
     7
 10
172.87999999999991
 20
130.4324399999999
 30
0.0
 40
3.0923400000000001
  1
655
 50
90.0
 41
0.5
 72
     1
 11
172.87999999999991
 21
132.494
 31
0.0
  0
TEXT
  5
2B
  8
0
 62
     7
 10
172.87999999999991
 20
164.43343999999999
 30
0.0
 40
3.0923400000000001
  1
375
 50
90.0
 41
0.5
 72
     1
 11
172.87999999999991
 21
166.495
 31
0.0
  0
TEXT
  5
2C
  8
0
 62
     7
 10
172.87999999999991
 20
93.060887500000007
 30
0.0
 40
3.0923400000000001
  1
470
 50
90.0
 41
0.5
 72
     1
 11
172.87999999999991
 21
94.993600000000015
 31
0.0
  0
TEXT
  5
2D
  8
0
 62
     7
 10
141.60444000000001
 20
73.802999999999997
 30
0.0
 40
3.0923400000000001
  1
585
 41
0.5
 72
     1
 11
143.666
 21
73.802999999999997
 31
0.0
  0
TEXT
  5
2E
  8
0
 62
     7
 10
78.513400000000004
 20
187.41260999999989
 30
0.0
 40
3.0923400000000001
  1
A
 50
90.0
 41
0.5
 72
     1
 11
78.513400000000004
 21
187.92799999999991
 31
0.0
  0
TEXT
  5
2F
  8
0
 62
     7
 10
104.41200000000001
 20
75.808410000000009
 30
0.0
 40
3.0923400000000001
  1
A
 50
90.0
 41
0.5
 72
     1
 11
104.41200000000001
 21
76.323800000000006
 31
0.0
  0
TEXT
  5
30
  8
0
 62
     7
 10
40.091000000000001
 20
175.540525
 30
0.0
 40
3.0923400000000001
  1
75
 50
90.0
 41
0.5
 72
     1
 11
40.091000000000001
 21
176.82900000000001
 31
0.0
  0
TEXT
  5
31
  8
0
 62
     7
 10
109.7409999999999
 20
169.0622875
 30
0.0
 40
3.0923400000000001
  1
250
 50
90.0
 41
0.5
 72
     1
 11
109.7409999999999
 21
170.995
 31
0.0
  0
TEXT
  5
32
  8
0
 62
     7
 10
102.285
 20
175.87152499999991
 30
0.0
 40
3.0923400000000001
  1
65
 50
90.0
 41
0.5
 72
     1
 11
102.285
 21
177.16
 31
0.0
  0
TEXT
  5
33
  8
0
 62
     7
 10
91.897824999999983
 20
185.81999999999999
 30
0.0
 40
3.0923400000000001
  1
65
 41
0.5
 72
     1
 11
93.186300000000003
 21
185.81999999999999
 31
0.0
  0
TEXT
  5
34
  8
0
 62
     7
 10
68.494287499999999
 20
193.261
 30
0.0
 40
3.0923400000000001
  1
750
 41
0.5
 72
     1
 11
70.426999999999992
 21
193.261
 31
0.0
  0
TEXT
  5
35
  8
0
 62
     7
 10
63.723134999999999
 20
129.74399999999989
 30
0.0
 40
3.0923400000000001
  1
515
 41
0.5
 72
     1
 11
65.527000000000001
 21
129.74399999999989
 31
0.0
  0
TEXT
  5
36
  8
0
 62
     7
 10
32.641999999999989
 20
127.008745
 30
0.0
 40
3.0923400000000001
  1
1500
 50
90.0
 41
0.5
 72
     1
 11
32.641999999999989
 21
129.32799999999989
 31
0.0
  0
TEXT
  5
37
  8
0
 62
     7
 10
76.576899999999995
 20
182.4199999999999
 30
0.0
 40
3.0923400000000001
  1
%%c44
 41
0.5
  0
TEXT
  5
38
  8
0
 62
     7
 10
60.498199999999997
 20
160.173
 30
0.0
 40
3.0923400000000001
  1
%%c55
 41
0.5
  0
LINE
  5
39
  8
0
 62
     7
 10
174.16499999999991
 20
227.36699999999999
 30
0.0
 11
173.57299999999989
 21
229.578
 31
0.0
  0
LINE
  5
3A
  8
0
 62
     7
 10
173.57299999999989
 20
229.578
 30
0.0
 11
172.97999999999999
 21
227.36699999999999
 31
0.0
  0
LINE
  5
3B
  8
0
 62
     7
 10
172.97999999999999
 20
227.36699999999999
 30
0.0
 11
174.16499999999991
 21
227.36699999999999
 31
0.0
  0
LINE
  5
3C
  8
0
 62
     7
 10
172.995
 20
214.45500000000001
 30
0.0
 11
173.58699999999999
 21
212.244
 31
0.0
  0
LINE
  5
3D
  8
0
 62
     7
 10
173.58699999999999
 20
212.244
 30
0.0
 11
174.18000000000001
 21
214.45500000000001
 31
0.0
  0
LINE
  5
3E
  8
0
 62
     7
 10
174.18000000000001
 20
214.45500000000001
 30
0.0
 11
172.995
 21
214.45500000000001
 31
0.0
  0
LINE
  5
3F
  8
0
 62
     7
 10
173.58000000000001
 20
229.578
 30
0.0
 11
173.58000000000001
 21
212.244
 31
0.0
  0
LINE
  5
40
  8
0
 62
     7
 10
174.16499999999991
 20
242.70099999999999
 30
0.0
 11
173.57299999999989
 21
244.91099999999989
 31
0.0
  0
LINE
  5
41
  8
0
 62
     7
 10
173.57299999999989
 20
244.91099999999989
 30
0.0
 11
172.97999999999999
 21
242.70099999999999
 31
0.0
  0
LINE
  5
42
  8
0
 62
     7
 10
172.97999999999999
 20
242.70099999999999
 30
0.0
 11
174.16499999999991
 21
242.70099999999999
 31
0.0
  0
LINE
  5
43
  8
0
 62
     7
 10
172.995
 20
231.78899999999999
 30
0.0
 11
173.58699999999999
 21
229.578
 31
0.0
  0
LINE
  5
44
  8
0
 62
     7
 10
173.58699999999999
 20
229.578
 30
0.0
 11
174.18000000000001
 21
231.78899999999999
 31
0.0
  0
LINE
  5
45
  8
0
 62
     7
 10
174.18000000000001
 20
231.78899999999999
 30
0.0
 11
172.995
 21
231.78899999999999
 31
0.0
  0
LINE
  5
46
  8
0
 62
     7
 10
173.58000000000001
 20
244.91099999999989
 30
0.0
 11
173.58000000000001
 21
229.578
 31
0.0
  0
LINE
  5
47
  8
0
 62
     7
 10
174.16499999999991
 20
260.03399999999999
 30
0.0
 11
173.57299999999989
 21
262.245
 31
0.0
  0
LINE
  5
48
  8
0
 62
     7
 10
173.57299999999989
 20
262.245
 30
0.0
 11
172.97999999999999
 21
260.03399999999999
 31
0.0
  0
LINE
  5
49
  8
0
 62
     7
 10
172.97999999999999
 20
260.03399999999999
 30
0.0
 11
174.16499999999991
 21
260.03399999999999
 31
0.0
  0
LINE
  5
4A
  8
0
 62
     7
 10
172.995
 20
247.12200000000001
 30
0.0
 11
173.58699999999999
 21
244.91099999999989
 31
0.0
  0
LINE
  5
4B
  8
0
 62
     7
 10
173.58699999999999
 20
244.91099999999989
 30
0.0
 11
174.18000000000001
 21
247.12200000000001
 31
0.0
  0
LINE
  5
4C
  8
0
 62
     7
 10
174.18000000000001
 20
247.12200000000001
 30
0.0
 11
172.995
 21
247.12200000000001
 31
0.0
  0
LINE
  5
4D
  8
0
 62
     7
 10
173.58000000000001
 20
262.245
 30
0.0
 11
173.58000000000001
 21
244.91099999999989
 31
0.0
  0
LINE
  5
4E
  8
0
  6
AIGENLINE001
 62
     7
 10
159.71600000000001
 20
237.244
 30
0.0
 11
121.74799999999991
 21
237.244
 31
0.0
  0
LINE
  5
4F
  8
0
 62
     7
 10
174.28700000000001
 20
212.244
 30
0.0
 11
130.32299999999989
 21
212.244
 31
0.0
  0
LINE
  5
50
  8
0
 62
     7
 10
174.28700000000001
 20
262.245
 30
0.0
 11
130.32299999999989
 21
262.245
 31
0.0
  0
LINE
  5
51
  8
0
 62
     7
 10
174.28700000000001
 20
244.91099999999989
 30
0.0
 11
164.8309999999999
 21
244.91099999999989
 31
0.0
  0
LINE
  5
52
  8
0
 62
     7
 10
174.28700000000001
 20
229.578
 30
0.0
 11
164.8309999999999
 21
229.578
 31
0.0
  0
LINE
  5
53
  8
0
  6
AIGENLINE002
 62
     7
 10
164.13099999999989
 20
244.91099999999989
 30
0.0
 11
154.57299999999989
 21
244.91099999999989
 31
0.0
  0
LINE
  5
54
  8
0
  6
AIGENLINE002
 62
     7
 10
164.13099999999989
 20
229.578
 30
0.0
 11
154.57299999999989
 21
229.578
 31
0.0
  0
LINE
  5
55
  8
0
  6
AIGENLINE002
 62
     7
 10
164.13099999999989
 20
110.66
 30
0.0
 11
154.57299999999989
 21
110.66
 31
0.0
  0
LINE
  5
56
  8
0
  6
AIGENLINE002
 62
     7
 10
158.82299999999989
 20
162.6579999999999
 30
0.0
 11
154.2229999999999
 21
162.6579999999999
 31
0.0
  0
LINE
  5
57
  8
0
 62
     7
 10
130.072
 20
119.81399999999989
 30
0.0
 11
130.072
 21
137.09200000000001
 31
0.0
  0
ARC
  5
58
  8
0
 62
     7
 10
130.279976
 20
137.08420599999991
 30
0.0
 40
0.208006
 50
92.213549000000015
 51
177.78642099999999
  0
ARC
  5
59
  8
0
 62
     7
 10
130.272165
 20
137.08825100000001
 30
0.0
 40
0.203806
 50
73.970658999999998
 51
90.062691000000001
  0
LINE
  5
5A
  8
0
 62
     7
 10
130.32799999999989
 20
137.28399999999991
 30
0.0
 11
131.928
 21
136.81499999999991
 31
0.0
  0
LINE
  5
5B
  8
0
 62
     7
 10
131.928
 20
136.81499999999991
 30
0.0
 11
131.9129999999999
 21
136.81899999999999
 31
0.0
  0
ARC
  5
5C
  8
0
 62
     7
 10
131.85022399999991
 20
136.62303600000001
 30
0.0
 40
0.205992
 50
1.2400679999999991
 51
72.400904999999995
  0
LINE
  5
5D
  8
0
 62
     7
 10
132.05600000000001
 20
136.62700000000001
 30
0.0
 11
132.05600000000001
 21
136.62299999999991
 31
0.0
  0
LINE
  5
5E
  8
0
 62
     7
 10
132.05600000000001
 20
136.62299999999991
 30
0.0
 11
132.05600000000001
 21
119.81399999999989
 31
0.0
  0
ARC
  5
5F
  8
0
 62
     7
 10
107.092626
 20
128.6666679999999
 30
0.0
 40
18.117046999999989
 50
152.3471889999999
 51
167.877656
  0
ARC
  5
60
  8
0
 62
     7
 10
109.35649699999991
 20
128.0533209999999
 30
0.0
 40
20.459617000000001
 50
167.529675
 51
180.143869
  0
ARC
  5
61
  8
0
 62
     7
 10
109.58465200000001
 20
128.00796800000001
 30
0.0
 40
20.68770799999999
 50
180.01667599999999
 51
198.5122659999999
  0
ARC
  5
62
  8
0
 62
     7
 10
107.183673
 20
127.3444039999999
 30
0.0
 40
18.200766000000002
 50
198.9312679999999
 51
207.51456200000001
  0
ARC
  5
63
  8
0
 62
     7
 10
108.522577
 20
128.24056399999989
 30
0.0
 40
18.268756
 50
157.26415800000001
 51
175.95884599999991
  0
ARC
  5
64
  8
0
 62
     7
 10
110.09621899999991
 20
128.00682299999991
 30
0.0
 40
19.855335
 50
175.6060379999999
 51
180.01407
  0
ARC
  5
65
  8
0
 62
     7
 10
109.72189399999991
 20
128.00932900000001
 30
0.0
 40
19.481010000000001
 50
180.02171200000001
 51
199.2184409999999
  0
ARC
  5
66
  8
0
 62
     7
 10
107.91020899999999
 20
127.512382
 30
0.0
 40
17.607167999999991
 50
199.6320429999999
 51
202.71363700000001
  0
ARC
  5
67
  8
0
 62
     7
 10
33.771056000000002
 20
128.663454
 30
0.0
 40
18.126408999999988
 50
12.12636
 51
27.648755999999992
  0
ARC
  5
68
  8
0
 62
     7
 10
31.516006000000001
 20
128.05331399999989
 30
0.0
 40
20.459681
 50
359.85617000000002
 51
12.470285000000001
  0
ARC
  5
69
  8
0
 62
     7
 10
31.285686999999999
 20
128.00797800000001
 30
0.0
 40
20.689937
 50
341.48979300000002
 51
359.98331899999999
  0
ARC
  5
6A
  8
0
 62
     7
 10
33.682175999999991
 20
127.34587999999999
 30
0.0
 40
18.207712000000001
 50
332.49160899999993
 51
341.07134100000002
  0
ARC
  5
6B
  8
0
 62
     7
 10
32.356265
 20
128.24304599999999
 30
0.0
 40
18.262328
 50
4.0347540000000013
 51
22.735831000000001
  0
ARC
  5
6C
  8
0
 62
     7
 10
30.76473
 20
128.00644800000001
 30
0.0
 40
19.866952999999999
 50
359.98703799999998
 51
4.3924500000000002
  0
ARC
  5
6D
  8
0
 62
     7
 10
31.156835999999998
 20
128.00952899999999
 30
0.0
 40
19.474848000000001
 50
340.61008299999997
 51
359.97771299999999
  0
ARC
  5
6E
  8
0
 62
     7
 10
32.969340000000003
 20
127.50961599999989
 30
0.0
 40
17.59966
 50
337.285911
 51
340.18626399999999
  0
ARC
  5
6F
  8
0
 62
     7
 10
70.344668999999996
 20
162.57821000000001
 30
0.0
 40
2.2508099999999991
 50
2.1045729999999989
 51
87.895416999999995
  0
ARC
  5
70
  8
0
 62
     7
 10
70.344272000000004
 20
162.743922
 30
0.0
 40
2.2512209999999988
 50
272.114307
 51
357.88570299999998
  0
ARC
  5
71
  8
0
 62
     7
 10
70.427325999999994
 20
162.66086699999991
 30
0.0
 40
2.1666340000000002
 50
179.99996999999991
 51
270.00002000000001
  0
ARC
  5
72
  8
0
 62
     7
 10
70.510369999999995
 20
162.57782299999991
 30
0.0
 40
2.251209999999999
 50
92.114024000000001
 51
177.8859459999999
  0
ARC
  5
73
  8
0
 62
     7
 10
70.427325999999994
 20
162.66086699999991
 30
0.0
 40
1.833491999999999
 50
0.00001
 51
89.999980000000008
  0
ARC
  5
74
  8
0
 62
     7
 10
70.427498
 20
162.6610399999999
 30
0.0
 40
1.833318999999999
 50
269.99463600000001
 51
359.99460699999992
  0
ARC
  5
75
  8
0
 62
     7
 10
70.427325999999994
 20
162.66086699999991
 30
0.0
 40
1.8331470000000001
 50
179.99996999999991
 51
270.00002000000001
  0
ARC
  5
76
  8
0
 62
     7
 10
70.427498999999997
 20
162.6610389999999
 30
0.0
 40
1.833318999999999
 50
90.005382999999995
 51
180.005393
  0
ARC
  5
77
  8
0
 62
     7
 10
91.094067999999993
 20
174.99421399999989
 30
0.0
 40
1.466758999999999
 50
0.006739
 51
90.006709000000015
  0
ARC
  5
78
  8
0
 62
     7
 10
91.094067999999993
 20
174.99455900000001
 30
0.0
 40
1.466758999999999
 50
269.993291
 51
359.99326100000002
  0
ARC
  5
79
  8
0
 62
     7
 10
91.093896000000001
 20
174.99438699999999
 30
0.0
 40
1.4665859999999999
 50
179.99996999999991
 51
270.00002000000001
  0
ARC
  5
7A
  8
0
 62
     7
 10
91.093896000000001
 20
174.99438699999999
 30
0.0
 40
1.4665870000000001
 50
90.0
 51
179.99996999999991
  0
ARC
  5
7B
  8
0
 62
     7
 10
94.735352000000006
 20
178.6354979999999
 30
0.0
 40
0.6926280000000001
 50
2.112112999999999
 51
87.887877999999986
  0
LINE
  5
7C
  8
0
 62
     7
 10
95.427499999999995
 20
178.66099999999989
 30
0.0
 11
95.427499999999995
 21
79.993899999999996
 31
0.0
  0
ARC
  5
7D
  8
0
 62
     7
 10
94.735356999999993
 20
80.019422000000006
 30
0.0
 40
0.6926220000000001
 50
272.11172399999998
 51
357.88828599999999
  0
LINE
  5
7E
  8
0
 62
     7
 10
94.760900000000007
 20
79.327299999999994
 30
0.0
 11
46.093800000000002
 21
79.327299999999994
 31
0.0
  0
ARC
  5
7F
  8
0
 62
     7
 10
46.119301
 20
80.019426999999993
 30
0.0
 40
0.692627
 50
182.1121149999999
 51
267.88791499999991
  0
LINE
  5
80
  8
0
 62
     7
 10
45.427100000000003
 20
79.993899999999996
 30
0.0
 11
45.427100000000003
 21
178.66099999999989
 31
0.0
  0
ARC
  5
81
  8
0
 62
     7
 10
46.119301
 20
178.63549900000001
 30
0.0
 40
0.692627
 50
92.112085000000008
 51
177.88788500000001
  0
LINE
  5
82
  8
0
 62
     7
 10
46.093800000000002
 20
179.328
 30
0.0
 11
94.760900000000007
 21
179.328
 31
0.0
  0
LINE
  5
83
  8
0
  6
AIGENLINE002
 62
     7
 10
70.427300000000002
 20
119.81399999999989
 30
0.0
 11
100.5419999999999
 21
119.81399999999989
 31
0.0
  0
LINE
  5
84
  8
0
  6
AIGENLINE002
 62
     7
 10
100.5419999999999
 20
119.81399999999989
 30
0.0
 11
100.5419999999999
 21
115.31999999999999
 31
0.0
  0
LINE
  5
85
  8
0
  6
AIGENLINE002
 62
     7
 10
158.762
 20
119.81399999999989
 30
0.0
 11
124.89700000000001
 21
119.81399999999989
 31
0.0
  0
LINE
  5
86
  8
0
 62
     7
 10
158.14400000000001
 20
245.6579999999999
 30
0.0
 11
158.166
 21
245.59399999999999
 31
0.0
  0
LINE
  5
87
  8
0
 62
     7
 10
158.166
 20
245.59399999999999
 30
0.0
 11
158.20799999999991
 21
245.57299999999989
 31
0.0
  0
LINE
  5
88
  8
0
 62
     7
 10
158.20799999999991
 20
245.57299999999989
 30
0.0
 11
158.14400000000001
 21
245.488
 31
0.0
  0
LINE
  5
89
  8
0
 62
     7
 10
158.14400000000001
 20
245.42299999999989
 30
0.0
 11
158.20799999999991
 21
245.33799999999999
 31
0.0
  0
LINE
  5
8A
  8
0
 62
     7
 10
158.20799999999991
 20
245.33799999999999
 30
0.0
 11
158.315
 21
245.31700000000001
 31
0.0
  0
LINE
  5
8B
  8
0
 62
     7
 10
158.14400000000001
 20
245.488
 30
0.0
 11
158.14400000000001
 21
244.91099999999989
 31
0.0
  0
LINE
  5
8C
  8
0
 62
     7
 10
158.315
 20
245.31700000000001
 30
0.0
 11
158.18700000000001
 21
245.12499999999989
 31
0.0
  0
LINE
  5
8D
  8
0
 62
     7
 10
158.18700000000001
 20
245.12499999999989
 30
0.0
 11
158.14400000000001
 21
244.91099999999989
 31
0.0
  0
LINE
  5
8E
  8
0
 62
     7
 10
158.14400000000001
 20
244.91099999999989
 30
0.0
 11
158.18700000000001
 21
244.69799999999989
 31
0.0
  0
LINE
  5
8F
  8
0
 62
     7
 10
158.18700000000001
 20
244.69799999999989
 30
0.0
 11
158.315
 21
244.50599999999989
 31
0.0
  0
LINE
  5
90
  8
0
 62
     7
 10
158.14400000000001
 20
244.33500000000001
 30
0.0
 11
158.14400000000001
 21
244.91099999999989
 31
0.0
  0
LINE
  5
91
  8
0
 62
     7
 10
158.315
 20
244.50599999999989
 30
0.0
 11
158.20799999999991
 21
244.48500000000001
 31
0.0
  0
LINE
  5
92
  8
0
 62
     7
 10
158.20799999999991
 20
244.48500000000001
 30
0.0
 11
158.14400000000001
 21
244.39899999999989
 31
0.0
  0
LINE
  5
93
  8
0
 62
     7
 10
160.08500000000001
 20
244.24999999999989
 30
0.0
 11
158.20799999999991
 21
244.24999999999989
 31
0.0
  0
LINE
  5
94
  8
0
 62
     7
 10
158.20799999999991
 20
244.24999999999989
 30
0.0
 11
158.14400000000001
 21
244.33500000000001
 31
0.0
  0
LINE
  5
95
  8
0
 62
     7
 10
158.20799999999991
 20
244.24999999999989
 30
0.0
 11
158.166
 21
244.22799999999989
 31
0.0
  0
LINE
  5
96
  8
0
 62
     7
 10
158.166
 20
244.22799999999989
 30
0.0
 11
158.14400000000001
 21
244.16399999999999
 31
0.0
  0
LINE
  5
97
  8
0
 62
     7
 10
158.20799999999991
 20
245.57299999999989
 30
0.0
 11
160.08500000000001
 21
245.57299999999989
 31
0.0
  0
LINE
  5
98
  8
0
 62
     7
 10
160.149
 20
244.33500000000001
 30
0.0
 11
160.08500000000001
 21
244.24999999999989
 31
0.0
  0
LINE
  5
99
  8
0
 62
     7
 10
160.149
 20
244.39899999999989
 30
0.0
 11
160.08500000000001
 21
244.48500000000001
 31
0.0
  0
LINE
  5
9A
  8
0
 62
     7
 10
160.08500000000001
 20
244.48500000000001
 30
0.0
 11
159.97799999999989
 21
244.50599999999989
 31
0.0
  0
LINE
  5
9B
  8
0
 62
     7
 10
159.97799999999989
 20
244.50599999999989
 30
0.0
 11
160.10699999999991
 21
244.69799999999989
 31
0.0
  0
LINE
  5
9C
  8
0
 62
     7
 10
160.10699999999991
 20
244.69799999999989
 30
0.0
 11
160.149
 21
244.91099999999989
 31
0.0
  0
LINE
  5
9D
  8
0
 62
     7
 10
160.149
 20
244.91099999999989
 30
0.0
 11
160.149
 21
244.33500000000001
 31
0.0
  0
LINE
  5
9E
  8
0
 62
     7
 10
160.149
 20
245.488
 30
0.0
 11
160.149
 21
244.91099999999989
 31
0.0
  0
LINE
  5
9F
  8
0
 62
     7
 10
160.149
 20
244.91099999999989
 30
0.0
 11
160.10699999999991
 21
245.12499999999989
 31
0.0
  0
LINE
  5
A0
  8
0
 62
     7
 10
160.10699999999991
 20
245.12499999999989
 30
0.0
 11
159.97799999999989
 21
245.31700000000001
 31
0.0
  0
LINE
  5
A1
  8
0
 62
     7
 10
159.97799999999989
 20
245.31700000000001
 30
0.0
 11
160.08500000000001
 21
245.33799999999999
 31
0.0
  0
LINE
  5
A2
  8
0
 62
     7
 10
160.08500000000001
 20
245.33799999999999
 30
0.0
 11
160.149
 21
245.42299999999989
 31
0.0
  0
LINE
  5
A3
  8
0
 62
     7
 10
160.149
 20
245.488
 30
0.0
 11
160.08500000000001
 21
245.57299999999989
 31
0.0
  0
LINE
  5
A4
  8
0
 62
     7
 10
158.102
 20
244.91099999999989
 30
0.0
 11
158.102
 21
246.917
 31
0.0
  0
LINE
  5
A5
  8
0
 62
     7
 10
158.102
 20
246.917
 30
0.0
 11
157.995
 21
246.917
 31
0.0
  0
LINE
  5
A6
  8
0
 62
     7
 10
158.14400000000001
 20
246.875
 30
0.0
 11
158.102
 21
246.917
 31
0.0
  0
LINE
  5
A7
  8
0
 62
     7
 10
157.952
 20
246.875
 30
0.0
 11
157.995
 21
246.917
 31
0.0
  0
LINE
  5
A8
  8
0
 62
     7
 10
157.995
 20
246.917
 30
0.0
 11
157.995
 21
244.91099999999989
 31
0.0
  0
LINE
  5
A9
  8
0
 62
     7
 10
158.14400000000001
 20
246.875
 30
0.0
 11
158.14400000000001
 21
242.94799999999989
 31
0.0
  0
LINE
  5
AA
  8
0
 62
     7
 10
157.995
 20
244.91099999999989
 30
0.0
 11
157.995
 21
242.905
 31
0.0
  0
LINE
  5
AB
  8
0
 62
     7
 10
157.995
 20
242.905
 30
0.0
 11
157.952
 21
242.94799999999989
 31
0.0
  0
LINE
  5
AC
  8
0
 62
     7
 10
158.14400000000001
 20
242.94799999999989
 30
0.0
 11
158.102
 21
242.905
 31
0.0
  0
LINE
  5
AD
  8
0
 62
     7
 10
158.102
 20
242.905
 30
0.0
 11
157.995
 21
242.905
 31
0.0
  0
LINE
  5
AE
  8
0
 62
     7
 10
158.102
 20
242.905
 30
0.0
 11
158.102
 21
244.91099999999989
 31
0.0
  0
LINE
  5
AF
  8
0
 62
     7
 10
158.315
 20
245.31700000000001
 30
0.0
 11
159.97799999999989
 21
245.31700000000001
 31
0.0
  0
LINE
  5
B0
  8
0
 62
     7
 10
158.315
 20
244.50599999999989
 30
0.0
 11
159.97799999999989
 21
244.50599999999989
 31
0.0
  0
LINE
  5
B1
  8
0
 62
     7
 10
157.952
 20
242.94799999999989
 30
0.0
 11
157.952
 21
246.875
 31
0.0
  0
LINE
  5
B2
  8
0
 62
     7
 10
160.17099999999991
 20
245.59399999999999
 30
0.0
 11
160.149
 21
245.42299999999989
 31
0.0
  0
LINE
  5
B3
  8
0
 62
     7
 10
160.149
 20
245.42299999999989
 30
0.0
 11
160.21299999999999
 21
245.27399999999989
 31
0.0
  0
LINE
  5
B4
  8
0
 62
     7
 10
160.149
 20
245.5509999999999
 30
0.0
 11
160.149
 21
244.2709999999999
 31
0.0
  0
LINE
  5
B5
  8
0
 62
     7
 10
160.21299999999999
 20
244.54799999999989
 30
0.0
 11
160.149
 21
244.3779999999999
 31
0.0
  0
LINE
  5
B6
  8
0
 62
     7
 10
160.149
 20
244.3779999999999
 30
0.0
 11
160.17099999999991
 21
244.22799999999989
 31
0.0
  0
LINE
  5
B7
  8
0
 62
     7
 10
160.21299999999999
 20
245.27399999999989
 30
0.0
 11
160.149
 21
244.91099999999989
 31
0.0
  0
LINE
  5
B8
  8
0
 62
     7
 10
160.149
 20
244.91099999999989
 30
0.0
 11
160.21299999999999
 21
244.54799999999989
 31
0.0
  0
LINE
  5
B9
  8
0
 62
     7
 10
160.21299999999999
 20
244.18599999999989
 30
0.0
 11
160.149
 21
244.2709999999999
 31
0.0
  0
LINE
  5
BA
  8
0
 62
     7
 10
160.21299999999999
 20
245.637
 30
0.0
 11
160.149
 21
245.5509999999999
 31
0.0
  0
LINE
  5
BB
  8
0
 62
     7
 10
160.768
 20
245.27399999999989
 30
0.0
 11
160.81
 21
245.42299999999989
 31
0.0
  0
LINE
  5
BC
  8
0
 62
     7
 10
160.81
 20
245.42299999999989
 30
0.0
 11
160.7889999999999
 21
245.59399999999999
 31
0.0
  0
LINE
  5
BD
  8
0
 62
     7
 10
160.768
 20
244.54799999999989
 30
0.0
 11
160.81
 21
244.91099999999989
 31
0.0
  0
LINE
  5
BE
  8
0
 62
     7
 10
160.81
 20
244.91099999999989
 30
0.0
 11
160.768
 21
245.27399999999989
 31
0.0
  0
LINE
  5
BF
  8
0
 62
     7
 10
160.7889999999999
 20
244.22799999999989
 30
0.0
 11
160.81
 21
244.3779999999999
 31
0.0
  0
LINE
  5
C0
  8
0
 62
     7
 10
160.81
 20
244.3779999999999
 30
0.0
 11
160.768
 21
244.54799999999989
 31
0.0
  0
LINE
  5
C1
  8
0
 62
     7
 10
160.768
 20
244.18599999999989
 30
0.0
 11
160.81
 21
244.2709999999999
 31
0.0
  0
LINE
  5
C2
  8
0
 62
     7
 10
160.768
 20
245.637
 30
0.0
 11
160.81
 21
245.5509999999999
 31
0.0
  0
LINE
  5
C3
  8
0
 62
     7
 10
160.768
 20
245.27399999999989
 30
0.0
 11
160.21299999999999
 21
245.27399999999989
 31
0.0
  0
LINE
  5
C4
  8
0
 62
     7
 10
160.768
 20
244.18599999999989
 30
0.0
 11
160.21299999999999
 21
244.18599999999989
 31
0.0
  0
LINE
  5
C5
  8
0
 62
     7
 10
160.768
 20
244.54799999999989
 30
0.0
 11
160.21299999999999
 21
244.54799999999989
 31
0.0
  0
LINE
  5
C6
  8
0
 62
     7
 10
160.768
 20
245.637
 30
0.0
 11
160.21299999999999
 21
245.637
 31
0.0
  0
LINE
  5
C7
  8
0
 62
     7
 10
160.81
 20
244.2709999999999
 30
0.0
 11
160.81
 21
245.5509999999999
 31
0.0
  0
LINE
  5
C8
  8
0
 62
     7
 10
162.56
 20
243.46000000000001
 30
0.0
 11
162.58099999999999
 21
243.35400000000001
 31
0.0
  0
LINE
  5
C9
  8
0
 62
     7
 10
162.58099999999999
 20
243.35400000000001
 30
0.0
 11
162.666
 21
243.2889999999999
 31
0.0
  0
LINE
  5
CA
  8
0
 62
     7
 10
162.666
 20
243.2889999999999
 30
0.0
 11
162.77299999999991
 21
243.26799999999989
 31
0.0
  0
LINE
  5
CB
  8
0
 62
     7
 10
162.77299999999991
 20
243.26799999999989
 30
0.0
 11
162.90100000000001
 21
243.26799999999989
 31
0.0
  0
LINE
  5
CC
  8
0
 62
     7
 10
163.166
 20
243.3959999999999
 30
0.0
 11
162.90100000000001
 21
243.3959999999999
 31
0.0
  0
LINE
  5
CD
  8
0
 62
     7
 10
162.90100000000001
 20
246.554
 30
0.0
 11
162.77299999999991
 21
246.554
 31
0.0
  0
LINE
  5
CE
  8
0
 62
     7
 10
163.166
 20
246.4259999999999
 30
0.0
 11
162.90100000000001
 21
246.4259999999999
 31
0.0
  0
LINE
  5
CF
  8
0
 62
     7
 10
162.77299999999991
 20
246.554
 30
0.0
 11
162.666
 21
246.5329999999999
 31
0.0
  0
LINE
  5
D0
  8
0
 62
     7
 10
162.666
 20
246.5329999999999
 30
0.0
 11
162.58099999999999
 21
246.46899999999999
 31
0.0
  0
LINE
  5
D1
  8
0
 62
     7
 10
162.58099999999999
 20
246.46899999999999
 30
0.0
 11
162.56
 21
246.363
 31
0.0
  0
LINE
  5
D2
  8
0
 62
     7
 10
162.1329999999999
 20
245.27399999999989
 30
0.0
 11
162.048
 21
245.27399999999989
 31
0.0
  0
LINE
  5
D3
  8
0
 62
     7
 10
162.1329999999999
 20
244.54799999999989
 30
0.0
 11
162.048
 21
244.54799999999989
 31
0.0
  0
LINE
  5
D4
  8
0
 62
     7
 10
162.048
 20
244.50599999999989
 30
0.0
 11
160.81
 21
244.50599999999989
 31
0.0
  0
LINE
  5
D5
  8
0
 62
     7
 10
162.048
 20
245.31700000000001
 30
0.0
 11
160.81
 21
245.31700000000001
 31
0.0
  0
LINE
  5
D6
  8
0
 62
     7
 10
162.048
 20
245.2529999999999
 30
0.0
 11
160.81
 21
245.2529999999999
 31
0.0
  0
LINE
  5
D7
  8
0
 62
     7
 10
162.048
 20
244.56999999999991
 30
0.0
 11
160.81
 21
244.56999999999991
 31
0.0
  0
LINE
  5
D8
  8
0
 62
     7
 10
162.048
 20
245.31700000000001
 30
0.0
 11
162.048
 21
244.50599999999989
 31
0.0
  0
LINE
  5
D9
  8
0
 62
     7
 10
162.4739999999999
 20
245.18799999999999
 30
0.0
 11
162.197
 21
245.18799999999999
 31
0.0
  0
LINE
  5
DA
  8
0
 62
     7
 10
162.4739999999999
 20
244.63399999999999
 30
0.0
 11
162.197
 21
244.63399999999999
 31
0.0
  0
LINE
  5
DB
  8
0
 62
     7
 10
162.4739999999999
 20
245.44499999999999
 30
0.0
 11
162.197
 21
245.44499999999999
 31
0.0
  0
LINE
  5
DC
  8
0
 62
     7
 10
162.4739999999999
 20
244.3779999999999
 30
0.0
 11
162.197
 21
244.3779999999999
 31
0.0
  0
LINE
  5
DD
  8
0
 62
     7
 10
162.1329999999999
 20
245.31700000000001
 30
0.0
 11
162.1329999999999
 21
244.50599999999989
 31
0.0
  0
LINE
  5
DE
  8
0
 62
     7
 10
162.197
 20
245.18799999999999
 30
0.0
 11
162.1329999999999
 21
244.91099999999989
 31
0.0
  0
LINE
  5
DF
  8
0
 62
     7
 10
162.1329999999999
 20
244.91099999999989
 30
0.0
 11
162.197
 21
244.63399999999999
 31
0.0
  0
LINE
  5
E0
  8
0
 62
     7
 10
162.1329999999999
 20
244.59100000000001
 30
0.0
 11
162.1329999999999
 21
244.50599999999989
 31
0.0
  0
LINE
  5
E1
  8
0
 62
     7
 10
162.1329999999999
 20
244.50599999999989
 30
0.0
 11
162.197
 21
244.63399999999999
 31
0.0
  0
LINE
  5
E2
  8
0
 62
     7
 10
162.1329999999999
 20
244.50599999999989
 30
0.0
 11
162.197
 21
244.3779999999999
 31
0.0
  0
LINE
  5
E3
  8
0
 62
     7
 10
162.197
 20
245.44499999999999
 30
0.0
 11
162.1329999999999
 21
245.31700000000001
 31
0.0
  0
LINE
  5
E4
  8
0
 62
     7
 10
162.1329999999999
 20
245.31700000000001
 30
0.0
 11
162.197
 21
245.18799999999999
 31
0.0
  0
LINE
  5
E5
  8
0
 62
     7
 10
163.166
 20
246.4259999999999
 30
0.0
 11
163.166
 21
243.3959999999999
 31
0.0
  0
LINE
  5
E6
  8
0
 62
     7
 10
162.56
 20
243.46000000000001
 30
0.0
 11
162.56
 21
246.363
 31
0.0
  0
LINE
  5
E7
  8
0
 62
     7
 10
162.90100000000001
 20
244.91099999999989
 30
0.0
 11
162.90100000000001
 21
246.554
 31
0.0
  0
LINE
  5
E8
  8
0
 62
     7
 10
162.90100000000001
 20
246.4259999999999
 30
0.0
 11
162.90100000000001
 21
243.26799999999989
 31
0.0
  0
LINE
  5
E9
  8
0
 62
     7
 10
162.56
 20
245.74299999999999
 30
0.0
 11
162.4739999999999
 21
245.74299999999999
 31
0.0
  0
LINE
  5
EA
  8
0
 62
     7
 10
162.56
 20
244.07900000000001
 30
0.0
 11
162.4739999999999
 21
244.07900000000001
 31
0.0
  0
LINE
  5
EB
  8
0
 62
     7
 10
162.4739999999999
 20
244.07900000000001
 30
0.0
 11
162.4739999999999
 21
245.74299999999999
 31
0.0
  0
LINE
  5
EC
  8
0
 62
     7
 10
158.14400000000001
 20
230.3249999999999
 30
0.0
 11
158.166
 21
230.28200000000001
 31
0.0
  0
LINE
  5
ED
  8
0
 62
     7
 10
158.166
 20
230.28200000000001
 30
0.0
 11
158.20799999999991
 21
230.25999999999991
 31
0.0
  0
LINE
  5
EE
  8
0
 62
     7
 10
158.20799999999991
 20
230.25999999999991
 30
0.0
 11
158.14400000000001
 21
230.154
 31
0.0
  0
LINE
  5
EF
  8
0
 62
     7
 10
158.14400000000001
 20
230.1109999999999
 30
0.0
 11
158.20799999999991
 21
230.00399999999999
 31
0.0
  0
LINE
  5
F0
  8
0
 62
     7
 10
158.20799999999991
 20
230.00399999999999
 30
0.0
 11
158.315
 21
229.983
 31
0.0
  0
LINE
  5
F1
  8
0
 62
     7
 10
158.14400000000001
 20
230.154
 30
0.0
 11
158.14400000000001
 21
229.577
 31
0.0
  0
LINE
  5
F2
  8
0
 62
     7
 10
158.315
 20
229.983
 30
0.0
 11
158.18700000000001
 21
229.79099999999991
 31
0.0
  0
LINE
  5
F3
  8
0
 62
     7
 10
158.18700000000001
 20
229.79099999999991
 30
0.0
 11
158.14400000000001
 21
229.577
 31
0.0
  0
LINE
  5
F4
  8
0
 62
     7
 10
158.14400000000001
 20
229.577
 30
0.0
 11
158.18700000000001
 21
229.36399999999989
 31
0.0
  0
LINE
  5
F5
  8
0
 62
     7
 10
158.18700000000001
 20
229.36399999999989
 30
0.0
 11
158.315
 21
229.172
 31
0.0
  0
LINE
  5
F6
  8
0
 62
     7
 10
158.14400000000001
 20
229.00099999999989
 30
0.0
 11
158.14400000000001
 21
229.577
 31
0.0
  0
LINE
  5
F7
  8
0
 62
     7
 10
158.315
 20
229.172
 30
0.0
 11
158.20799999999991
 21
229.15000000000001
 31
0.0
  0
LINE
  5
F8
  8
0
 62
     7
 10
158.20799999999991
 20
229.15000000000001
 30
0.0
 11
158.14400000000001
 21
229.06499999999991
 31
0.0
  0
LINE
  5
F9
  8
0
 62
     7
 10
160.08500000000001
 20
228.91599999999991
 30
0.0
 11
158.20799999999991
 21
228.91599999999991
 31
0.0
  0
LINE
  5
FA
  8
0
 62
     7
 10
158.20799999999991
 20
228.91599999999991
 30
0.0
 11
158.14400000000001
 21
229.00099999999989
 31
0.0
  0
LINE
  5
FB
  8
0
 62
     7
 10
158.20799999999991
 20
228.91599999999991
 30
0.0
 11
158.166
 21
228.89400000000001
 31
0.0
  0
LINE
  5
FC
  8
0
 62
     7
 10
158.166
 20
228.89400000000001
 30
0.0
 11
158.14400000000001
 21
228.852
 31
0.0
  0
LINE
  5
FD
  8
0
 62
     7
 10
158.20799999999991
 20
230.25999999999991
 30
0.0
 11
160.08500000000001
 21
230.25999999999991
 31
0.0
  0
LINE
  5
FE
  8
0
 62
     7
 10
160.149
 20
229.00099999999989
 30
0.0
 11
160.08500000000001
 21
228.91599999999991
 31
0.0
  0
LINE
  5
FF
  8
0
 62
     7
 10
160.149
 20
229.06499999999991
 30
0.0
 11
160.08500000000001
 21
229.15000000000001
 31
0.0
  0
LINE
  5
100
  8
0
 62
     7
 10
160.08500000000001
 20
229.15000000000001
 30
0.0
 11
159.97799999999989
 21
229.172
 31
0.0
  0
LINE
  5
101
  8
0
 62
     7
 10
159.97799999999989
 20
229.172
 30
0.0
 11
160.10699999999991
 21
229.36399999999989
 31
0.0
  0
LINE
  5
102
  8
0
 62
     7
 10
160.10699999999991
 20
229.36399999999989
 30
0.0
 11
160.149
 21
229.577
 31
0.0
  0
LINE
  5
103
  8
0
 62
     7
 10
160.149
 20
229.577
 30
0.0
 11
160.149
 21
229.00099999999989
 31
0.0
  0
LINE
  5
104
  8
0
 62
     7
 10
160.149
 20
230.154
 30
0.0
 11
160.149
 21
229.577
 31
0.0
  0
LINE
  5
105
  8
0
 62
     7
 10
160.149
 20
229.577
 30
0.0
 11
160.10699999999991
 21
229.79099999999991
 31
0.0
  0
LINE
  5
106
  8
0
 62
     7
 10
160.10699999999991
 20
229.79099999999991
 30
0.0
 11
159.97799999999989
 21
229.983
 31
0.0
  0
LINE
  5
107
  8
0
 62
     7
 10
159.97799999999989
 20
229.983
 30
0.0
 11
160.08500000000001
 21
230.00399999999999
 31
0.0
  0
LINE
  5
108
  8
0
 62
     7
 10
160.08500000000001
 20
230.00399999999999
 30
0.0
 11
160.149
 21
230.1109999999999
 31
0.0
  0
LINE
  5
109
  8
0
 62
     7
 10
160.149
 20
230.154
 30
0.0
 11
160.08500000000001
 21
230.25999999999991
 31
0.0
  0
LINE
  5
10A
  8
0
 62
     7
 10
158.102
 20
229.577
 30
0.0
 11
158.102
 21
231.584
 31
0.0
  0
LINE
  5
10B
  8
0
 62
     7
 10
158.102
 20
231.584
 30
0.0
 11
157.995
 21
231.584
 31
0.0
  0
LINE
  5
10C
  8
0
 62
     7
 10
158.14400000000001
 20
231.54099999999991
 30
0.0
 11
158.102
 21
231.584
 31
0.0
  0
LINE
  5
10D
  8
0
 62
     7
 10
157.952
 20
231.54099999999991
 30
0.0
 11
157.995
 21
231.584
 31
0.0
  0
LINE
  5
10E
  8
0
 62
     7
 10
157.995
 20
231.584
 30
0.0
 11
157.995
 21
229.577
 31
0.0
  0
LINE
  5
10F
  8
0
 62
     7
 10
158.14400000000001
 20
231.54099999999991
 30
0.0
 11
158.14400000000001
 21
227.614
 31
0.0
  0
LINE
  5
110
  8
0
 62
     7
 10
157.995
 20
229.577
 30
0.0
 11
157.995
 21
227.572
 31
0.0
  0
LINE
  5
111
  8
0
 62
     7
 10
157.995
 20
227.572
 30
0.0
 11
157.952
 21
227.614
 31
0.0
  0
LINE
  5
112
  8
0
 62
     7
 10
158.14400000000001
 20
227.614
 30
0.0
 11
158.102
 21
227.572
 31
0.0
  0
LINE
  5
113
  8
0
 62
     7
 10
158.102
 20
227.572
 30
0.0
 11
157.995
 21
227.572
 31
0.0
  0
LINE
  5
114
  8
0
 62
     7
 10
158.102
 20
227.572
 30
0.0
 11
158.102
 21
229.577
 31
0.0
  0
LINE
  5
115
  8
0
 62
     7
 10
158.315
 20
229.983
 30
0.0
 11
159.97799999999989
 21
229.983
 31
0.0
  0
LINE
  5
116
  8
0
 62
     7
 10
158.315
 20
229.172
 30
0.0
 11
159.97799999999989
 21
229.172
 31
0.0
  0
LINE
  5
117
  8
0
 62
     7
 10
157.952
 20
227.614
 30
0.0
 11
157.952
 21
231.54099999999991
 31
0.0
  0
LINE
  5
118
  8
0
 62
     7
 10
160.17099999999991
 20
230.25999999999991
 30
0.0
 11
160.149
 21
230.1109999999999
 31
0.0
  0
LINE
  5
119
  8
0
 62
     7
 10
160.149
 20
230.1109999999999
 30
0.0
 11
160.21299999999999
 21
229.93999999999991
 31
0.0
  0
LINE
  5
11A
  8
0
 62
     7
 10
160.149
 20
230.2179999999999
 30
0.0
 11
160.149
 21
228.93700000000001
 31
0.0
  0
LINE
  5
11B
  8
0
 62
     7
 10
160.21299999999999
 20
229.21499999999989
 30
0.0
 11
160.149
 21
229.06499999999991
 31
0.0
  0
LINE
  5
11C
  8
0
 62
     7
 10
160.149
 20
229.06499999999991
 30
0.0
 11
160.17099999999991
 21
228.89400000000001
 31
0.0
  0
LINE
  5
11D
  8
0
 62
     7
 10
160.21299999999999
 20
229.93999999999991
 30
0.0
 11
160.149
 21
229.577
 31
0.0
  0
LINE
  5
11E
  8
0
 62
     7
 10
160.149
 20
229.577
 30
0.0
 11
160.21299999999999
 21
229.21499999999989
 31
0.0
  0
LINE
  5
11F
  8
0
 62
     7
 10
160.21299999999999
 20
228.852
 30
0.0
 11
160.149
 21
228.93700000000001
 31
0.0
  0
LINE
  5
120
  8
0
 62
     7
 10
160.21299999999999
 20
230.303
 30
0.0
 11
160.149
 21
230.2179999999999
 31
0.0
  0
LINE
  5
121
  8
0
 62
     7
 10
160.768
 20
229.93999999999991
 30
0.0
 11
160.81
 21
230.1109999999999
 31
0.0
  0
LINE
  5
122
  8
0
 62
     7
 10
160.81
 20
230.1109999999999
 30
0.0
 11
160.7889999999999
 21
230.25999999999991
 31
0.0
  0
LINE
  5
123
  8
0
 62
     7
 10
160.768
 20
229.21499999999989
 30
0.0
 11
160.81
 21
229.577
 31
0.0
  0
LINE
  5
124
  8
0
 62
     7
 10
160.81
 20
229.577
 30
0.0
 11
160.768
 21
229.93999999999991
 31
0.0
  0
LINE
  5
125
  8
0
 62
     7
 10
160.7889999999999
 20
228.89400000000001
 30
0.0
 11
160.81
 21
229.06499999999991
 31
0.0
  0
LINE
  5
126
  8
0
 62
     7
 10
160.81
 20
229.06499999999991
 30
0.0
 11
160.768
 21
229.21499999999989
 31
0.0
  0
LINE
  5
127
  8
0
 62
     7
 10
160.768
 20
228.852
 30
0.0
 11
160.81
 21
228.93700000000001
 31
0.0
  0
LINE
  5
128
  8
0
 62
     7
 10
160.768
 20
230.303
 30
0.0
 11
160.81
 21
230.2179999999999
 31
0.0
  0
LINE
  5
129
  8
0
 62
     7
 10
160.768
 20
229.93999999999991
 30
0.0
 11
160.21299999999999
 21
229.93999999999991
 31
0.0
  0
LINE
  5
12A
  8
0
 62
     7
 10
160.768
 20
228.852
 30
0.0
 11
160.21299999999999
 21
228.852
 31
0.0
  0
LINE
  5
12B
  8
0
 62
     7
 10
160.768
 20
229.21499999999989
 30
0.0
 11
160.21299999999999
 21
229.21499999999989
 31
0.0
  0
LINE
  5
12C
  8
0
 62
     7
 10
160.768
 20
230.303
 30
0.0
 11
160.21299999999999
 21
230.303
 31
0.0
  0
LINE
  5
12D
  8
0
 62
     7
 10
160.81
 20
228.93700000000001
 30
0.0
 11
160.81
 21
230.2179999999999
 31
0.0
  0
LINE
  5
12E
  8
0
 62
     7
 10
162.56
 20
228.12599999999989
 30
0.0
 11
162.58099999999999
 21
228.02000000000001
 31
0.0
  0
LINE
  5
12F
  8
0
 62
     7
 10
162.58099999999999
 20
228.02000000000001
 30
0.0
 11
162.666
 21
227.95599999999999
 31
0.0
  0
LINE
  5
130
  8
0
 62
     7
 10
162.666
 20
227.95599999999999
 30
0.0
 11
162.77299999999991
 21
227.934
 31
0.0
  0
LINE
  5
131
  8
0
 62
     7
 10
162.77299999999991
 20
227.934
 30
0.0
 11
162.90100000000001
 21
227.934
 31
0.0
  0
LINE
  5
132
  8
0
 62
     7
 10
163.166
 20
228.06200000000001
 30
0.0
 11
162.90100000000001
 21
228.06200000000001
 31
0.0
  0
LINE
  5
133
  8
0
 62
     7
 10
162.90100000000001
 20
231.22099999999989
 30
0.0
 11
162.77299999999991
 21
231.22099999999989
 31
0.0
  0
LINE
  5
134
  8
0
 62
     7
 10
163.166
 20
231.0929999999999
 30
0.0
 11
162.90100000000001
 21
231.0929999999999
 31
0.0
  0
LINE
  5
135
  8
0
 62
     7
 10
162.77299999999991
 20
231.22099999999989
 30
0.0
 11
162.666
 21
231.1999999999999
 31
0.0
  0
LINE
  5
136
  8
0
 62
     7
 10
162.666
 20
231.1999999999999
 30
0.0
 11
162.58099999999999
 21
231.13499999999999
 31
0.0
  0
LINE
  5
137
  8
0
 62
     7
 10
162.58099999999999
 20
231.13499999999999
 30
0.0
 11
162.56
 21
231.029
 31
0.0
  0
LINE
  5
138
  8
0
 62
     7
 10
162.1329999999999
 20
229.93999999999991
 30
0.0
 11
162.048
 21
229.93999999999991
 31
0.0
  0
LINE
  5
139
  8
0
 62
     7
 10
162.1329999999999
 20
229.21499999999989
 30
0.0
 11
162.048
 21
229.21499999999989
 31
0.0
  0
LINE
  5
13A
  8
0
 62
     7
 10
162.048
 20
229.172
 30
0.0
 11
160.81
 21
229.172
 31
0.0
  0
LINE
  5
13B
  8
0
 62
     7
 10
162.048
 20
229.983
 30
0.0
 11
160.81
 21
229.983
 31
0.0
  0
LINE
  5
13C
  8
0
 62
     7
 10
162.048
 20
229.91900000000001
 30
0.0
 11
160.81
 21
229.91900000000001
 31
0.0
  0
LINE
  5
13D
  8
0
 62
     7
 10
162.048
 20
229.2359999999999
 30
0.0
 11
160.81
 21
229.2359999999999
 31
0.0
  0
LINE
  5
13E
  8
0
 62
     7
 10
162.048
 20
229.983
 30
0.0
 11
162.048
 21
229.172
 31
0.0
  0
LINE
  5
13F
  8
0
 62
     7
 10
162.4739999999999
 20
229.85499999999999
 30
0.0
 11
162.197
 21
229.85499999999999
 31
0.0
  0
LINE
  5
140
  8
0
 62
     7
 10
162.4739999999999
 20
229.30000000000001
 30
0.0
 11
162.197
 21
229.30000000000001
 31
0.0
  0
LINE
  5
141
  8
0
 62
     7
 10
162.4739999999999
 20
230.1109999999999
 30
0.0
 11
162.197
 21
230.1109999999999
 31
0.0
  0
LINE
  5
142
  8
0
 62
     7
 10
162.4739999999999
 20
229.04400000000001
 30
0.0
 11
162.197
 21
229.04400000000001
 31
0.0
  0
LINE
  5
143
  8
0
 62
     7
 10
162.1329999999999
 20
229.983
 30
0.0
 11
162.1329999999999
 21
229.172
 31
0.0
  0
LINE
  5
144
  8
0
 62
     7
 10
162.197
 20
229.85499999999999
 30
0.0
 11
162.1329999999999
 21
229.577
 31
0.0
  0
LINE
  5
145
  8
0
 62
     7
 10
162.1329999999999
 20
229.577
 30
0.0
 11
162.197
 21
229.30000000000001
 31
0.0
  0
LINE
  5
146
  8
0
 62
     7
 10
162.1329999999999
 20
229.25800000000001
 30
0.0
 11
162.1329999999999
 21
229.172
 31
0.0
  0
LINE
  5
147
  8
0
 62
     7
 10
162.1329999999999
 20
229.172
 30
0.0
 11
162.197
 21
229.30000000000001
 31
0.0
  0
LINE
  5
148
  8
0
 62
     7
 10
162.1329999999999
 20
229.172
 30
0.0
 11
162.197
 21
229.04400000000001
 31
0.0
  0
LINE
  5
149
  8
0
 62
     7
 10
162.197
 20
230.1109999999999
 30
0.0
 11
162.1329999999999
 21
229.983
 31
0.0
  0
LINE
  5
14A
  8
0
 62
     7
 10
162.1329999999999
 20
229.983
 30
0.0
 11
162.197
 21
229.85499999999999
 31
0.0
  0
LINE
  5
14B
  8
0
 62
     7
 10
163.166
 20
231.0929999999999
 30
0.0
 11
163.166
 21
228.06200000000001
 31
0.0
  0
LINE
  5
14C
  8
0
 62
     7
 10
162.56
 20
228.12599999999989
 30
0.0
 11
162.56
 21
231.029
 31
0.0
  0
LINE
  5
14D
  8
0
 62
     7
 10
162.90100000000001
 20
229.577
 30
0.0
 11
162.90100000000001
 21
231.22099999999989
 31
0.0
  0
LINE
  5
14E
  8
0
 62
     7
 10
162.90100000000001
 20
231.0929999999999
 30
0.0
 11
162.90100000000001
 21
227.934
 31
0.0
  0
LINE
  5
14F
  8
0
 62
     7
 10
162.56
 20
230.41
 30
0.0
 11
162.4739999999999
 21
230.41
 31
0.0
  0
LINE
  5
150
  8
0
 62
     7
 10
162.56
 20
228.745
 30
0.0
 11
162.4739999999999
 21
228.745
 31
0.0
  0
LINE
  5
151
  8
0
 62
     7
 10
162.4739999999999
 20
228.745
 30
0.0
 11
162.4739999999999
 21
230.41
 31
0.0
  0
LINE
  5
152
  8
0
 62
     7
 10
158.14400000000001
 20
111.407
 30
0.0
 11
158.166
 21
111.3639999999999
 31
0.0
  0
LINE
  5
153
  8
0
 62
     7
 10
158.166
 20
111.3639999999999
 30
0.0
 11
158.20799999999991
 21
111.3429999999999
 31
0.0
  0
LINE
  5
154
  8
0
 62
     7
 10
158.20799999999991
 20
111.3429999999999
 30
0.0
 11
158.14400000000001
 21
111.236
 31
0.0
  0
LINE
  5
155
  8
0
 62
     7
 10
158.14400000000001
 20
111.194
 30
0.0
 11
158.20799999999991
 21
111.087
 31
0.0
  0
LINE
  5
156
  8
0
 62
     7
 10
158.20799999999991
 20
111.087
 30
0.0
 11
158.315
 21
111.0649999999999
 31
0.0
  0
LINE
  5
157
  8
0
 62
     7
 10
158.14400000000001
 20
111.236
 30
0.0
 11
158.14400000000001
 21
110.66
 31
0.0
  0
LINE
  5
158
  8
0
 62
     7
 10
158.315
 20
111.0649999999999
 30
0.0
 11
158.18700000000001
 21
110.874
 31
0.0
  0
LINE
  5
159
  8
0
 62
     7
 10
158.18700000000001
 20
110.874
 30
0.0
 11
158.14400000000001
 21
110.66
 31
0.0
  0
LINE
  5
15A
  8
0
 62
     7
 10
158.14400000000001
 20
110.66
 30
0.0
 11
158.18700000000001
 21
110.447
 31
0.0
  0
LINE
  5
15B
  8
0
 62
     7
 10
158.18700000000001
 20
110.447
 30
0.0
 11
158.315
 21
110.276
 31
0.0
  0
LINE
  5
15C
  8
0
 62
     7
 10
158.14400000000001
 20
110.084
 30
0.0
 11
158.14400000000001
 21
110.66
 31
0.0
  0
LINE
  5
15D
  8
0
 62
     7
 10
158.315
 20
110.276
 30
0.0
 11
158.20799999999991
 21
110.2339999999999
 31
0.0
  0
LINE
  5
15E
  8
0
 62
     7
 10
158.20799999999991
 20
110.2339999999999
 30
0.0
 11
158.14400000000001
 21
110.148
 31
0.0
  0
LINE
  5
15F
  8
0
 62
     7
 10
160.08500000000001
 20
109.999
 30
0.0
 11
158.20799999999991
 21
109.999
 31
0.0
  0
LINE
  5
160
  8
0
 62
     7
 10
158.20799999999991
 20
109.999
 30
0.0
 11
158.14400000000001
 21
110.084
 31
0.0
  0
LINE
  5
161
  8
0
 62
     7
 10
158.20799999999991
 20
109.999
 30
0.0
 11
158.166
 21
109.97799999999989
 31
0.0
  0
LINE
  5
162
  8
0
 62
     7
 10
158.166
 20
109.97799999999989
 30
0.0
 11
158.14400000000001
 21
109.935
 31
0.0
  0
LINE
  5
163
  8
0
 62
     7
 10
158.20799999999991
 20
111.3429999999999
 30
0.0
 11
160.08500000000001
 21
111.3429999999999
 31
0.0
  0
LINE
  5
164
  8
0
 62
     7
 10
160.149
 20
110.084
 30
0.0
 11
160.08500000000001
 21
109.999
 31
0.0
  0
LINE
  5
165
  8
0
 62
     7
 10
160.149
 20
110.148
 30
0.0
 11
160.08500000000001
 21
110.2339999999999
 31
0.0
  0
LINE
  5
166
  8
0
 62
     7
 10
160.08500000000001
 20
110.2339999999999
 30
0.0
 11
159.97799999999989
 21
110.276
 31
0.0
  0
LINE
  5
167
  8
0
 62
     7
 10
159.97799999999989
 20
110.276
 30
0.0
 11
160.10699999999991
 21
110.447
 31
0.0
  0
LINE
  5
168
  8
0
 62
     7
 10
160.10699999999991
 20
110.447
 30
0.0
 11
160.149
 21
110.66
 31
0.0
  0
LINE
  5
169
  8
0
 62
     7
 10
160.149
 20
110.66
 30
0.0
 11
160.149
 21
110.084
 31
0.0
  0
LINE
  5
16A
  8
0
 62
     7
 10
160.149
 20
111.236
 30
0.0
 11
160.149
 21
110.66
 31
0.0
  0
LINE
  5
16B
  8
0
 62
     7
 10
160.149
 20
110.66
 30
0.0
 11
160.10699999999991
 21
110.874
 31
0.0
  0
LINE
  5
16C
  8
0
 62
     7
 10
160.10699999999991
 20
110.874
 30
0.0
 11
159.97799999999989
 21
111.0649999999999
 31
0.0
  0
LINE
  5
16D
  8
0
 62
     7
 10
159.97799999999989
 20
111.0649999999999
 30
0.0
 11
160.08500000000001
 21
111.087
 31
0.0
  0
LINE
  5
16E
  8
0
 62
     7
 10
160.08500000000001
 20
111.087
 30
0.0
 11
160.149
 21
111.194
 31
0.0
  0
LINE
  5
16F
  8
0
 62
     7
 10
160.149
 20
111.236
 30
0.0
 11
160.08500000000001
 21
111.3429999999999
 31
0.0
  0
LINE
  5
170
  8
0
 62
     7
 10
158.102
 20
110.66
 30
0.0
 11
158.102
 21
112.66500000000001
 31
0.0
  0
LINE
  5
171
  8
0
 62
     7
 10
158.102
 20
112.66500000000001
 30
0.0
 11
157.995
 21
112.66500000000001
 31
0.0
  0
LINE
  5
172
  8
0
 62
     7
 10
158.14400000000001
 20
112.62299999999991
 30
0.0
 11
158.102
 21
112.66500000000001
 31
0.0
  0
LINE
  5
173
  8
0
 62
     7
 10
157.952
 20
112.62299999999991
 30
0.0
 11
157.995
 21
112.66500000000001
 31
0.0
  0
LINE
  5
174
  8
0
 62
     7
 10
157.995
 20
112.66500000000001
 30
0.0
 11
157.995
 21
110.66
 31
0.0
  0
LINE
  5
175
  8
0
 62
     7
 10
158.14400000000001
 20
112.62299999999991
 30
0.0
 11
158.14400000000001
 21
108.69799999999999
 31
0.0
  0
LINE
  5
176
  8
0
 62
     7
 10
157.995
 20
110.66
 30
0.0
 11
157.995
 21
108.67700000000001
 31
0.0
  0
LINE
  5
177
  8
0
 62
     7
 10
157.995
 20
108.67700000000001
 30
0.0
 11
157.952
 21
108.69799999999999
 31
0.0
  0
LINE
  5
178
  8
0
 62
     7
 10
158.14400000000001
 20
108.69799999999999
 30
0.0
 11
158.102
 21
108.67700000000001
 31
0.0
  0
LINE
  5
179
  8
0
 62
     7
 10
158.102
 20
108.67700000000001
 30
0.0
 11
157.995
 21
108.67700000000001
 31
0.0
  0
LINE
  5
17A
  8
0
 62
     7
 10
158.102
 20
108.67700000000001
 30
0.0
 11
158.102
 21
110.66
 31
0.0
  0
LINE
  5
17B
  8
0
 62
     7
 10
158.315
 20
111.0649999999999
 30
0.0
 11
159.97799999999989
 21
111.0649999999999
 31
0.0
  0
LINE
  5
17C
  8
0
 62
     7
 10
158.315
 20
110.276
 30
0.0
 11
159.97799999999989
 21
110.276
 31
0.0
  0
LINE
  5
17D
  8
0
 62
     7
 10
157.952
 20
108.69799999999999
 30
0.0
 11
157.952
 21
112.62299999999991
 31
0.0
  0
LINE
  5
17E
  8
0
 62
     7
 10
160.17099999999991
 20
111.3639999999999
 30
0.0
 11
160.149
 21
111.194
 31
0.0
  0
LINE
  5
17F
  8
0
 62
     7
 10
160.149
 20
111.194
 30
0.0
 11
160.21299999999999
 21
111.023
 31
0.0
  0
LINE
  5
180
  8
0
 62
     7
 10
160.149
 20
111.2999999999999
 30
0.0
 11
160.149
 21
110.0419999999999
 31
0.0
  0
LINE
  5
181
  8
0
 62
     7
 10
160.21299999999999
 20
110.297
 30
0.0
 11
160.149
 21
110.148
 31
0.0
  0
LINE
  5
182
  8
0
 62
     7
 10
160.149
 20
110.148
 30
0.0
 11
160.17099999999991
 21
109.97799999999989
 31
0.0
  0
LINE
  5
183
  8
0
 62
     7
 10
160.21299999999999
 20
111.023
 30
0.0
 11
160.149
 21
110.66
 31
0.0
  0
LINE
  5
184
  8
0
 62
     7
 10
160.149
 20
110.66
 30
0.0
 11
160.21299999999999
 21
110.297
 31
0.0
  0
LINE
  5
185
  8
0
 62
     7
 10
160.21299999999999
 20
109.935
 30
0.0
 11
160.149
 21
110.0419999999999
 31
0.0
  0
LINE
  5
186
  8
0
 62
     7
 10
160.21299999999999
 20
111.407
 30
0.0
 11
160.149
 21
111.2999999999999
 31
0.0
  0
LINE
  5
187
  8
0
 62
     7
 10
160.768
 20
111.023
 30
0.0
 11
160.81
 21
111.194
 31
0.0
  0
LINE
  5
188
  8
0
 62
     7
 10
160.81
 20
111.194
 30
0.0
 11
160.7889999999999
 21
111.3639999999999
 31
0.0
  0
LINE
  5
189
  8
0
 62
     7
 10
160.768
 20
110.297
 30
0.0
 11
160.81
 21
110.66
 31
0.0
  0
LINE
  5
18A
  8
0
 62
     7
 10
160.81
 20
110.66
 30
0.0
 11
160.768
 21
111.023
 31
0.0
  0
LINE
  5
18B
  8
0
 62
     7
 10
160.7889999999999
 20
109.97799999999989
 30
0.0
 11
160.81
 21
110.148
 31
0.0
  0
LINE
  5
18C
  8
0
 62
     7
 10
160.81
 20
110.148
 30
0.0
 11
160.768
 21
110.297
 31
0.0
  0
LINE
  5
18D
  8
0
 62
     7
 10
160.768
 20
109.935
 30
0.0
 11
160.81
 21
110.0419999999999
 31
0.0
  0
LINE
  5
18E
  8
0
 62
     7
 10
160.768
 20
111.407
 30
0.0
 11
160.81
 21
111.2999999999999
 31
0.0
  0
LINE
  5
18F
  8
0
 62
     7
 10
160.768
 20
111.023
 30
0.0
 11
160.21299999999999
 21
111.023
 31
0.0
  0
LINE
  5
190
  8
0
 62
     7
 10
160.768
 20
109.935
 30
0.0
 11
160.21299999999999
 21
109.935
 31
0.0
  0
LINE
  5
191
  8
0
 62
     7
 10
160.768
 20
110.297
 30
0.0
 11
160.21299999999999
 21
110.297
 31
0.0
  0
LINE
  5
192
  8
0
 62
     7
 10
160.768
 20
111.407
 30
0.0
 11
160.21299999999999
 21
111.407
 31
0.0
  0
LINE
  5
193
  8
0
 62
     7
 10
160.81
 20
110.0419999999999
 30
0.0
 11
160.81
 21
111.2999999999999
 31
0.0
  0
LINE
  5
194
  8
0
 62
     7
 10
158.14400000000001
 20
155.0739999999999
 30
0.0
 11
158.166
 21
155.03200000000001
 31
0.0
  0
LINE
  5
195
  8
0
 62
     7
 10
158.166
 20
155.03200000000001
 30
0.0
 11
158.20799999999991
 21
155.011
 31
0.0
  0
LINE
  5
196
  8
0
 62
     7
 10
158.20799999999991
 20
155.011
 30
0.0
 11
158.14400000000001
 21
154.90399999999991
 31
0.0
  0
LINE
  5
197
  8
0
 62
     7
 10
158.14400000000001
 20
154.86099999999999
 30
0.0
 11
158.20799999999991
 21
154.77600000000001
 31
0.0
  0
LINE
  5
198
  8
0
 62
     7
 10
158.20799999999991
 20
154.77600000000001
 30
0.0
 11
158.315
 21
154.733
 31
0.0
  0
LINE
  5
199
  8
0
 62
     7
 10
158.14400000000001
 20
154.90399999999991
 30
0.0
 11
158.14400000000001
 21
154.328
 31
0.0
  0
LINE
  5
19A
  8
0
 62
     7
 10
158.315
 20
154.733
 30
0.0
 11
158.18700000000001
 21
154.56200000000001
 31
0.0
  0
LINE
  5
19B
  8
0
 62
     7
 10
158.18700000000001
 20
154.56200000000001
 30
0.0
 11
158.14400000000001
 21
154.328
 31
0.0
  0
LINE
  5
19C
  8
0
 62
     7
 10
158.14400000000001
 20
154.328
 30
0.0
 11
158.18700000000001
 21
154.11500000000001
 31
0.0
  0
LINE
  5
19D
  8
0
 62
     7
 10
158.18700000000001
 20
154.11500000000001
 30
0.0
 11
158.315
 21
153.9439999999999
 31
0.0
  0
LINE
  5
19E
  8
0
 62
     7
 10
158.14400000000001
 20
153.75200000000001
 30
0.0
 11
158.14400000000001
 21
154.328
 31
0.0
  0
LINE
  5
19F
  8
0
 62
     7
 10
158.315
 20
153.9439999999999
 30
0.0
 11
158.20799999999991
 21
153.90100000000001
 31
0.0
  0
LINE
  5
1A0
  8
0
 62
     7
 10
158.20799999999991
 20
153.90100000000001
 30
0.0
 11
158.14400000000001
 21
153.81599999999989
 31
0.0
  0
LINE
  5
1A1
  8
0
 62
     7
 10
160.08500000000001
 20
153.66699999999989
 30
0.0
 11
158.20799999999991
 21
153.66699999999989
 31
0.0
  0
LINE
  5
1A2
  8
0
 62
     7
 10
158.20799999999991
 20
153.66699999999989
 30
0.0
 11
158.14400000000001
 21
153.75200000000001
 31
0.0
  0
LINE
  5
1A3
  8
0
 62
     7
 10
158.20799999999991
 20
153.66699999999989
 30
0.0
 11
158.166
 21
153.64500000000001
 31
0.0
  0
LINE
  5
1A4
  8
0
 62
     7
 10
158.166
 20
153.64500000000001
 30
0.0
 11
158.14400000000001
 21
153.60299999999989
 31
0.0
  0
LINE
  5
1A5
  8
0
 62
     7
 10
158.20799999999991
 20
155.011
 30
0.0
 11
160.08500000000001
 21
155.011
 31
0.0
  0
LINE
  5
1A6
  8
0
 62
     7
 10
160.149
 20
153.75200000000001
 30
0.0
 11
160.08500000000001
 21
153.66699999999989
 31
0.0
  0
LINE
  5
1A7
  8
0
 62
     7
 10
160.149
 20
153.81599999999989
 30
0.0
 11
160.08500000000001
 21
153.90100000000001
 31
0.0
  0
LINE
  5
1A8
  8
0
 62
     7
 10
160.08500000000001
 20
153.90100000000001
 30
0.0
 11
159.97799999999989
 21
153.9439999999999
 31
0.0
  0
LINE
  5
1A9
  8
0
 62
     7
 10
159.97799999999989
 20
153.9439999999999
 30
0.0
 11
160.10699999999991
 21
154.11500000000001
 31
0.0
  0
LINE
  5
1AA
  8
0
 62
     7
 10
160.10699999999991
 20
154.11500000000001
 30
0.0
 11
160.149
 21
154.328
 31
0.0
  0
LINE
  5
1AB
  8
0
 62
     7
 10
160.149
 20
154.328
 30
0.0
 11
160.149
 21
153.75200000000001
 31
0.0
  0
LINE
  5
1AC
  8
0
 62
     7
 10
160.149
 20
154.90399999999991
 30
0.0
 11
160.149
 21
154.328
 31
0.0
  0
LINE
  5
1AD
  8
0
 62
     7
 10
160.149
 20
154.328
 30
0.0
 11
160.10699999999991
 21
154.56200000000001
 31
0.0
  0
LINE
  5
1AE
  8
0
 62
     7
 10
160.10699999999991
 20
154.56200000000001
 30
0.0
 11
159.97799999999989
 21
154.733
 31
0.0
  0
LINE
  5
1AF
  8
0
 62
     7
 10
159.97799999999989
 20
154.733
 30
0.0
 11
160.08500000000001
 21
154.77600000000001
 31
0.0
  0
LINE
  5
1B0
  8
0
 62
     7
 10
160.08500000000001
 20
154.77600000000001
 30
0.0
 11
160.149
 21
154.86099999999999
 31
0.0
  0
LINE
  5
1B1
  8
0
 62
     7
 10
160.149
 20
154.90399999999991
 30
0.0
 11
160.08500000000001
 21
155.011
 31
0.0
  0
LINE
  5
1B2
  8
0
 62
     7
 10
158.102
 20
154.328
 30
0.0
 11
158.102
 21
156.333
 31
0.0
  0
LINE
  5
1B3
  8
0
 62
     7
 10
158.102
 20
156.333
 30
0.0
 11
157.995
 21
156.333
 31
0.0
  0
LINE
  5
1B4
  8
0
 62
     7
 10
158.14400000000001
 20
156.291
 30
0.0
 11
158.102
 21
156.333
 31
0.0
  0
LINE
  5
1B5
  8
0
 62
     7
 10
157.952
 20
156.291
 30
0.0
 11
157.995
 21
156.333
 31
0.0
  0
LINE
  5
1B6
  8
0
 62
     7
 10
157.995
 20
156.333
 30
0.0
 11
157.995
 21
154.328
 31
0.0
  0
LINE
  5
1B7
  8
0
 62
     7
 10
158.14400000000001
 20
156.291
 30
0.0
 11
158.14400000000001
 21
152.387
 31
0.0
  0
LINE
  5
1B8
  8
0
 62
     7
 10
157.995
 20
154.328
 30
0.0
 11
157.995
 21
152.34399999999991
 31
0.0
  0
LINE
  5
1B9
  8
0
 62
     7
 10
157.995
 20
152.34399999999991
 30
0.0
 11
157.952
 21
152.387
 31
0.0
  0
LINE
  5
1BA
  8
0
 62
     7
 10
158.14400000000001
 20
152.387
 30
0.0
 11
158.102
 21
152.34399999999991
 31
0.0
  0
LINE
  5
1BB
  8
0
 62
     7
 10
158.102
 20
152.34399999999991
 30
0.0
 11
157.995
 21
152.34399999999991
 31
0.0
  0
LINE
  5
1BC
  8
0
 62
     7
 10
158.102
 20
152.34399999999991
 30
0.0
 11
158.102
 21
154.328
 31
0.0
  0
LINE
  5
1BD
  8
0
 62
     7
 10
158.315
 20
154.733
 30
0.0
 11
159.97799999999989
 21
154.733
 31
0.0
  0
LINE
  5
1BE
  8
0
 62
     7
 10
158.315
 20
153.9439999999999
 30
0.0
 11
159.97799999999989
 21
153.9439999999999
 31
0.0
  0
LINE
  5
1BF
  8
0
 62
     7
 10
157.952
 20
152.387
 30
0.0
 11
157.952
 21
156.291
 31
0.0
  0
LINE
  5
1C0
  8
0
 62
     7
 10
160.17099999999991
 20
155.011
 30
0.0
 11
160.149
 21
154.86099999999999
 31
0.0
  0
LINE
  5
1C1
  8
0
 62
     7
 10
160.149
 20
154.86099999999999
 30
0.0
 11
160.21299999999999
 21
154.691
 31
0.0
  0
LINE
  5
1C2
  8
0
 62
     7
 10
160.149
 20
154.9679999999999
 30
0.0
 11
160.149
 21
153.709
 31
0.0
  0
LINE
  5
1C3
  8
0
 62
     7
 10
160.21299999999999
 20
153.96499999999989
 30
0.0
 11
160.149
 21
153.81599999999989
 31
0.0
  0
LINE
  5
1C4
  8
0
 62
     7
 10
160.149
 20
153.81599999999989
 30
0.0
 11
160.17099999999991
 21
153.64500000000001
 31
0.0
  0
LINE
  5
1C5
  8
0
 62
     7
 10
160.21299999999999
 20
154.691
 30
0.0
 11
160.149
 21
154.328
 31
0.0
  0
LINE
  5
1C6
  8
0
 62
     7
 10
160.149
 20
154.328
 30
0.0
 11
160.21299999999999
 21
153.96499999999989
 31
0.0
  0
LINE
  5
1C7
  8
0
 62
     7
 10
160.21299999999999
 20
153.60299999999989
 30
0.0
 11
160.149
 21
153.709
 31
0.0
  0
LINE
  5
1C8
  8
0
 62
     7
 10
160.21299999999999
 20
155.0739999999999
 30
0.0
 11
160.149
 21
154.9679999999999
 31
0.0
  0
LINE
  5
1C9
  8
0
 62
     7
 10
160.768
 20
154.691
 30
0.0
 11
160.81
 21
154.86099999999999
 31
0.0
  0
LINE
  5
1CA
  8
0
 62
     7
 10
160.81
 20
154.86099999999999
 30
0.0
 11
160.7889999999999
 21
155.011
 31
0.0
  0
LINE
  5
1CB
  8
0
 62
     7
 10
160.768
 20
153.96499999999989
 30
0.0
 11
160.81
 21
154.328
 31
0.0
  0
LINE
  5
1CC
  8
0
 62
     7
 10
160.81
 20
154.328
 30
0.0
 11
160.768
 21
154.691
 31
0.0
  0
LINE
  5
1CD
  8
0
 62
     7
 10
160.7889999999999
 20
153.64500000000001
 30
0.0
 11
160.81
 21
153.81599999999989
 31
0.0
  0
LINE
  5
1CE
  8
0
 62
     7
 10
160.81
 20
153.81599999999989
 30
0.0
 11
160.768
 21
153.96499999999989
 31
0.0
  0
LINE
  5
1CF
  8
0
 62
     7
 10
160.768
 20
153.60299999999989
 30
0.0
 11
160.81
 21
153.709
 31
0.0
  0
LINE
  5
1D0
  8
0
 62
     7
 10
160.768
 20
155.0739999999999
 30
0.0
 11
160.81
 21
154.9679999999999
 31
0.0
  0
LINE
  5
1D1
  8
0
 62
     7
 10
160.768
 20
154.691
 30
0.0
 11
160.21299999999999
 21
154.691
 31
0.0
  0
LINE
  5
1D2
  8
0
 62
     7
 10
160.768
 20
153.60299999999989
 30
0.0
 11
160.21299999999999
 21
153.60299999999989
 31
0.0
  0
LINE
  5
1D3
  8
0
 62
     7
 10
160.768
 20
153.96499999999989
 30
0.0
 11
160.21299999999999
 21
153.96499999999989
 31
0.0
  0
LINE
  5
1D4
  8
0
 62
     7
 10
160.768
 20
155.0739999999999
 30
0.0
 11
160.21299999999999
 21
155.0739999999999
 31
0.0
  0
LINE
  5
1D5
  8
0
 62
     7
 10
160.81
 20
153.709
 30
0.0
 11
160.81
 21
154.9679999999999
 31
0.0
  0
LINE
  5
1D6
  8
0
 62
     7
 10
131.05299999999991
 20
174.4429999999999
 30
0.0
 11
131.37299999999991
 21
174.059
 31
0.0
  0
LINE
  5
1D7
  8
0
 62
     7
 10
131.39500000000001
 20
174.37899999999999
 30
0.0
 11
131.715
 21
173.995
 31
0.0
  0
LINE
  5
1D8
  8
0
 62
     7
 10
131.715
 20
174.3359999999999
 30
0.0
 11
132.03399999999991
 21
173.9309999999999
 31
0.0
  0
LINE
  5
1D9
  8
0
 62
     7
 10
132.01300000000001
 20
174.27199999999999
 30
0.0
 11
132.333
 21
173.88900000000001
 31
0.0
  0
LINE
  5
1DA
  8
0
 62
     7
 10
132.333
 20
174.22999999999999
 30
0.0
 11
132.65299999999991
 21
173.82400000000001
 31
0.0
  0
LINE
  5
1DB
  8
0
 62
     7
 10
132.65299999999991
 20
174.16599999999991
 30
0.0
 11
132.9739999999999
 21
173.75999999999999
 31
0.0
  0
LINE
  5
1DC
  8
0
 62
     7
 10
132.9739999999999
 20
174.10099999999991
 30
0.0
 11
133.29300000000001
 21
173.7179999999999
 31
0.0
  0
LINE
  5
1DD
  8
0
 62
     7
 10
133.2289999999999
 20
174.059
 30
0.0
 11
133.55000000000001
 21
173.654
 31
0.0
  0
LINE
  5
1DE
  8
0
 62
     7
 10
133.52799999999999
 20
173.995
 30
0.0
 11
133.8479999999999
 21
173.61099999999999
 31
0.0
  0
LINE
  5
1DF
  8
0
 62
     7
 10
133.8479999999999
 20
173.95199999999991
 30
0.0
 11
134.14699999999999
 21
173.547
 31
0.0
  0
LINE
  5
1E0
  8
0
 62
     7
 10
134.125
 20
173.88900000000001
 30
0.0
 11
134.44499999999991
 21
173.50399999999999
 31
0.0
  0
LINE
  5
1E1
  8
0
 62
     7
 10
134.46600000000001
 20
173.84599999999989
 30
0.0
 11
134.7649999999999
 21
173.44099999999989
 31
0.0
  0
LINE
  5
1E2
  8
0
 62
     7
 10
157.952
 20
226.33399999999989
 30
0.0
 11
157.952
 21
232.928
 31
0.0
  0
LINE
  5
1E3
  8
0
 62
     7
 10
157.952
 20
226.33399999999989
 30
0.0
 11
157.90899999999991
 21
226.291
 31
0.0
  0
LINE
  5
1E4
  8
0
 62
     7
 10
157.90899999999991
 20
232.97099999999989
 30
0.0
 11
157.03499999999991
 21
232.97099999999989
 31
0.0
  0
LINE
  5
1E5
  8
0
 62
     7
 10
157.90899999999991
 20
226.291
 30
0.0
 11
156.80000000000001
 21
226.291
 31
0.0
  0
LINE
  5
1E6
  8
0
 62
     7
 10
157.952
 20
232.928
 30
0.0
 11
157.90899999999991
 21
232.97099999999989
 31
0.0
  0
LINE
  5
1E7
  8
0
 62
     7
 10
157.952
 20
248.1759999999999
 30
0.0
 11
157.952
 21
241.56100000000001
 31
0.0
  0
LINE
  5
1E8
  8
0
 62
     7
 10
157.952
 20
248.1759999999999
 30
0.0
 11
157.90899999999991
 21
248.197
 31
0.0
  0
LINE
  5
1E9
  8
0
 62
     7
 10
157.90899999999991
 20
241.53899999999999
 30
0.0
 11
157.03499999999991
 21
241.53899999999999
 31
0.0
  0
LINE
  5
1EA
  8
0
 62
     7
 10
157.90899999999991
 20
248.197
 30
0.0
 11
156.80000000000001
 21
248.197
 31
0.0
  0
LINE
  5
1EB
  8
0
 62
     7
 10
157.952
 20
241.56100000000001
 30
0.0
 11
157.90899999999991
 21
241.53899999999999
 31
0.0
  0
LINE
  5
1EC
  8
0
 62
     7
 10
162.56
 20
152.87700000000001
 30
0.0
 11
162.58099999999999
 21
152.79199999999989
 31
0.0
  0
LINE
  5
1ED
  8
0
 62
     7
 10
162.58099999999999
 20
152.79199999999989
 30
0.0
 11
162.666
 21
152.70699999999991
 31
0.0
  0
LINE
  5
1EE
  8
0
 62
     7
 10
162.666
 20
152.70699999999991
 30
0.0
 11
162.77299999999991
 21
152.68600000000001
 31
0.0
  0
LINE
  5
1EF
  8
0
 62
     7
 10
162.77299999999991
 20
152.68600000000001
 30
0.0
 11
162.90100000000001
 21
152.68600000000001
 31
0.0
  0
LINE
  5
1F0
  8
0
 62
     7
 10
163.166
 20
152.8129999999999
 30
0.0
 11
162.90100000000001
 21
152.8129999999999
 31
0.0
  0
LINE
  5
1F1
  8
0
 62
     7
 10
162.90100000000001
 20
155.99199999999999
 30
0.0
 11
162.77299999999991
 21
155.99199999999999
 31
0.0
  0
LINE
  5
1F2
  8
0
 62
     7
 10
163.166
 20
155.84200000000001
 30
0.0
 11
162.90100000000001
 21
155.84200000000001
 31
0.0
  0
LINE
  5
1F3
  8
0
 62
     7
 10
162.77299999999991
 20
155.99199999999999
 30
0.0
 11
162.666
 21
155.9489999999999
 31
0.0
  0
LINE
  5
1F4
  8
0
 62
     7
 10
162.666
 20
155.9489999999999
 30
0.0
 11
162.58099999999999
 21
155.88499999999991
 31
0.0
  0
LINE
  5
1F5
  8
0
 62
     7
 10
162.58099999999999
 20
155.88499999999991
 30
0.0
 11
162.56
 21
155.77799999999991
 31
0.0
  0
LINE
  5
1F6
  8
0
 62
     7
 10
162.1329999999999
 20
154.71199999999999
 30
0.0
 11
162.048
 21
154.71199999999999
 31
0.0
  0
LINE
  5
1F7
  8
0
 62
     7
 10
162.1329999999999
 20
153.96499999999989
 30
0.0
 11
162.048
 21
153.96499999999989
 31
0.0
  0
LINE
  5
1F8
  8
0
 62
     7
 10
162.048
 20
153.9439999999999
 30
0.0
 11
160.149
 21
153.9439999999999
 31
0.0
  0
LINE
  5
1F9
  8
0
 62
     7
 10
162.048
 20
154.733
 30
0.0
 11
160.149
 21
154.733
 31
0.0
  0
LINE
  5
1FA
  8
0
 62
     7
 10
162.048
 20
154.6689999999999
 30
0.0
 11
160.149
 21
154.6689999999999
 31
0.0
  0
LINE
  5
1FB
  8
0
 62
     7
 10
162.048
 20
154.0079999999999
 30
0.0
 11
160.149
 21
154.0079999999999
 31
0.0
  0
LINE
  5
1FC
  8
0
 62
     7
 10
162.048
 20
154.733
 30
0.0
 11
162.048
 21
153.9439999999999
 31
0.0
  0
LINE
  5
1FD
  8
0
 62
     7
 10
162.4739999999999
 20
154.6049999999999
 30
0.0
 11
162.197
 21
154.6049999999999
 31
0.0
  0
LINE
  5
1FE
  8
0
 62
     7
 10
162.4739999999999
 20
154.072
 30
0.0
 11
162.197
 21
154.072
 31
0.0
  0
LINE
  5
1FF
  8
0
 62
     7
 10
162.4739999999999
 20
154.88200000000001
 30
0.0
 11
162.197
 21
154.88200000000001
 31
0.0
  0
LINE
  5
200
  8
0
 62
     7
 10
162.4739999999999
 20
153.7949999999999
 30
0.0
 11
162.197
 21
153.7949999999999
 31
0.0
  0
LINE
  5
201
  8
0
 62
     7
 10
162.1329999999999
 20
154.733
 30
0.0
 11
162.1329999999999
 21
153.923
 31
0.0
  0
LINE
  5
202
  8
0
 62
     7
 10
162.197
 20
154.6049999999999
 30
0.0
 11
162.1329999999999
 21
154.328
 31
0.0
  0
LINE
  5
203
  8
0
 62
     7
 10
162.1329999999999
 20
154.328
 30
0.0
 11
162.197
 21
154.072
 31
0.0
  0
LINE
  5
204
  8
0
 62
     7
 10
162.1329999999999
 20
154.02899999999991
 30
0.0
 11
162.1329999999999
 21
153.923
 31
0.0
  0
LINE
  5
205
  8
0
 62
     7
 10
162.1329999999999
 20
153.923
 30
0.0
 11
162.197
 21
154.072
 31
0.0
  0
LINE
  5
206
  8
0
 62
     7
 10
162.1329999999999
 20
153.923
 30
0.0
 11
162.197
 21
153.7949999999999
 31
0.0
  0
LINE
  5
207
  8
0
 62
     7
 10
162.197
 20
154.88200000000001
 30
0.0
 11
162.1329999999999
 21
154.733
 31
0.0
  0
LINE
  5
208
  8
0
 62
     7
 10
162.1329999999999
 20
154.733
 30
0.0
 11
162.197
 21
154.6049999999999
 31
0.0
  0
LINE
  5
209
  8
0
 62
     7
 10
163.166
 20
155.84200000000001
 30
0.0
 11
163.166
 21
152.8129999999999
 31
0.0
  0
LINE
  5
20A
  8
0
 62
     7
 10
162.56
 20
152.87700000000001
 30
0.0
 11
162.56
 21
155.77799999999991
 31
0.0
  0
LINE
  5
20B
  8
0
 62
     7
 10
162.90100000000001
 20
154.328
 30
0.0
 11
162.90100000000001
 21
155.99199999999999
 31
0.0
  0
LINE
  5
20C
  8
0
 62
     7
 10
162.90100000000001
 20
155.84200000000001
 30
0.0
 11
162.90100000000001
 21
152.68600000000001
 31
0.0
  0
LINE
  5
20D
  8
0
 62
     7
 10
162.56
 20
155.16
 30
0.0
 11
162.4739999999999
 21
155.16
 31
0.0
  0
LINE
  5
20E
  8
0
 62
     7
 10
162.56
 20
153.49600000000001
 30
0.0
 11
162.4739999999999
 21
153.49600000000001
 31
0.0
  0
LINE
  5
20F
  8
0
 62
     7
 10
162.4739999999999
 20
153.49600000000001
 30
0.0
 11
162.4739999999999
 21
155.16
 31
0.0
  0
LINE
  5
210
  8
0
 62
     7
 10
157.952
 20
157.65600000000001
 30
0.0
 11
157.90899999999991
 21
157.67699999999999
 31
0.0
  0
LINE
  5
211
  8
0
 62
     7
 10
157.952
 20
151.04300000000001
 30
0.0
 11
157.952
 21
157.65600000000001
 31
0.0
  0
LINE
  5
212
  8
0
 62
     7
 10
157.952
 20
151.04300000000001
 30
0.0
 11
157.90899999999991
 21
151.02199999999999
 31
0.0
  0
LINE
  5
213
  8
0
 62
     7
 10
157.90899999999991
 20
157.67699999999999
 30
0.0
 11
156.971
 21
157.67699999999999
 31
0.0
  0
LINE
  5
214
  8
0
 62
     7
 10
157.90899999999991
 20
151.02199999999999
 30
0.0
 11
156.821
 21
151.02199999999999
 31
0.0
  0
LINE
  5
215
  8
0
 62
     7
 10
162.56
 20
109.20999999999999
 30
0.0
 11
162.58099999999999
 21
109.1239999999999
 31
0.0
  0
LINE
  5
216
  8
0
 62
     7
 10
162.58099999999999
 20
109.1239999999999
 30
0.0
 11
162.666
 21
109.0389999999999
 31
0.0
  0
LINE
  5
217
  8
0
 62
     7
 10
162.666
 20
109.0389999999999
 30
0.0
 11
162.77299999999991
 21
109.0179999999999
 31
0.0
  0
LINE
  5
218
  8
0
 62
     7
 10
162.77299999999991
 20
109.0179999999999
 30
0.0
 11
162.90100000000001
 21
109.0179999999999
 31
0.0
  0
LINE
  5
219
  8
0
 62
     7
 10
163.166
 20
109.146
 30
0.0
 11
162.90100000000001
 21
109.146
 31
0.0
  0
LINE
  5
21A
  8
0
 62
     7
 10
162.90100000000001
 20
112.324
 30
0.0
 11
162.77299999999991
 21
112.324
 31
0.0
  0
LINE
  5
21B
  8
0
 62
     7
 10
163.166
 20
112.175
 30
0.0
 11
162.90100000000001
 21
112.175
 31
0.0
  0
LINE
  5
21C
  8
0
 62
     7
 10
162.77299999999991
 20
112.324
 30
0.0
 11
162.666
 21
112.282
 31
0.0
  0
LINE
  5
21D
  8
0
 62
     7
 10
162.666
 20
112.282
 30
0.0
 11
162.58099999999999
 21
112.217
 31
0.0
  0
LINE
  5
21E
  8
0
 62
     7
 10
162.58099999999999
 20
112.217
 30
0.0
 11
162.56
 21
112.111
 31
0.0
  0
LINE
  5
21F
  8
0
 62
     7
 10
162.1329999999999
 20
111.023
 30
0.0
 11
162.048
 21
111.023
 31
0.0
  0
LINE
  5
220
  8
0
 62
     7
 10
162.1329999999999
 20
110.297
 30
0.0
 11
162.048
 21
110.297
 31
0.0
  0
LINE
  5
221
  8
0
 62
     7
 10
162.048
 20
110.2549999999999
 30
0.0
 11
160.149
 21
110.2549999999999
 31
0.0
  0
LINE
  5
222
  8
0
 62
     7
 10
162.048
 20
111.0649999999999
 30
0.0
 11
160.149
 21
111.0649999999999
 31
0.0
  0
LINE
  5
223
  8
0
 62
     7
 10
162.048
 20
111.002
 30
0.0
 11
160.149
 21
111.002
 31
0.0
  0
LINE
  5
224
  8
0
 62
     7
 10
162.048
 20
110.34
 30
0.0
 11
160.149
 21
110.34
 31
0.0
  0
LINE
  5
225
  8
0
 62
     7
 10
162.048
 20
111.0649999999999
 30
0.0
 11
162.048
 21
110.2549999999999
 31
0.0
  0
LINE
  5
226
  8
0
 62
     7
 10
162.4739999999999
 20
110.9379999999999
 30
0.0
 11
162.197
 21
110.9379999999999
 31
0.0
  0
LINE
  5
227
  8
0
 62
     7
 10
162.4739999999999
 20
110.4049999999999
 30
0.0
 11
162.197
 21
110.4049999999999
 31
0.0
  0
LINE
  5
228
  8
0
 62
     7
 10
162.4739999999999
 20
111.2149999999999
 30
0.0
 11
162.197
 21
111.2149999999999
 31
0.0
  0
LINE
  5
229
  8
0
 62
     7
 10
162.4739999999999
 20
110.127
 30
0.0
 11
162.197
 21
110.127
 31
0.0
  0
LINE
  5
22A
  8
0
 62
     7
 10
162.1329999999999
 20
111.0649999999999
 30
0.0
 11
162.1329999999999
 21
110.2549999999999
 31
0.0
  0
LINE
  5
22B
  8
0
 62
     7
 10
162.197
 20
110.9379999999999
 30
0.0
 11
162.1329999999999
 21
110.66
 31
0.0
  0
LINE
  5
22C
  8
0
 62
     7
 10
162.1329999999999
 20
110.66
 30
0.0
 11
162.197
 21
110.4049999999999
 31
0.0
  0
LINE
  5
22D
  8
0
 62
     7
 10
162.1329999999999
 20
110.34
 30
0.0
 11
162.1329999999999
 21
110.2549999999999
 31
0.0
  0
LINE
  5
22E
  8
0
 62
     7
 10
162.1329999999999
 20
110.2549999999999
 30
0.0
 11
162.197
 21
110.4049999999999
 31
0.0
  0
LINE
  5
22F
  8
0
 62
     7
 10
162.1329999999999
 20
110.2549999999999
 30
0.0
 11
162.197
 21
110.127
 31
0.0
  0
LINE
  5
230
  8
0
 62
     7
 10
162.197
 20
111.2149999999999
 30
0.0
 11
162.1329999999999
 21
111.0649999999999
 31
0.0
  0
LINE
  5
231
  8
0
 62
     7
 10
162.1329999999999
 20
111.0649999999999
 30
0.0
 11
162.197
 21
110.9379999999999
 31
0.0
  0
LINE
  5
232
  8
0
 62
     7
 10
163.166
 20
112.175
 30
0.0
 11
163.166
 21
109.146
 31
0.0
  0
LINE
  5
233
  8
0
 62
     7
 10
162.56
 20
109.20999999999999
 30
0.0
 11
162.56
 21
112.111
 31
0.0
  0
LINE
  5
234
  8
0
 62
     7
 10
162.90100000000001
 20
110.66
 30
0.0
 11
162.90100000000001
 21
112.324
 31
0.0
  0
LINE
  5
235
  8
0
 62
     7
 10
162.90100000000001
 20
112.175
 30
0.0
 11
162.90100000000001
 21
109.0179999999999
 31
0.0
  0
LINE
  5
236
  8
0
 62
     7
 10
162.56
 20
111.492
 30
0.0
 11
162.4739999999999
 21
111.492
 31
0.0
  0
LINE
  5
237
  8
0
 62
     7
 10
162.56
 20
109.82899999999989
 30
0.0
 11
162.4739999999999
 21
109.82899999999989
 31
0.0
  0
LINE
  5
238
  8
0
 62
     7
 10
162.4739999999999
 20
109.82899999999989
 30
0.0
 11
162.4739999999999
 21
111.492
 31
0.0
  0
LINE
  5
239
  8
0
 62
     7
 10
157.952
 20
113.92400000000001
 30
0.0
 11
157.90899999999991
 21
113.967
 31
0.0
  0
LINE
  5
23A
  8
0
 62
     7
 10
157.952
 20
107.333
 30
0.0
 11
157.952
 21
113.92400000000001
 31
0.0
  0
LINE
  5
23B
  8
0
 62
     7
 10
157.952
 20
107.333
 30
0.0
 11
157.90899999999991
 21
107.29000000000001
 31
0.0
  0
LINE
  5
23C
  8
0
 62
     7
 10
157.90899999999991
 20
113.9459999999999
 30
0.0
 11
156.03200000000001
 21
113.9459999999999
 31
0.0
  0
LINE
  5
23D
  8
0
 62
     7
 10
157.90899999999991
 20
107.29000000000001
 30
0.0
 11
155.75499999999991
 21
107.29000000000001
 31
0.0
  0
ARC
  5
23E
  8
0
 62
     7
 10
-36.550750000000001
 20
237.24421099999989
 30
0.0
 40
193.64841699999991
 50
356.60422099999988
 51
3.3957790000000001
  0
ARC
  5
23F
  8
0
 62
     7
 10
-52.778185999999991
 20
237.24421099999989
 30
0.0
 40
209.528841
 50
356.86761399999989
 51
3.132385999999999
  0
LINE
  5
240
  8
0
 62
     7
 10
129.83799999999991
 20
212.244
 30
0.0
 11
129.83799999999991
 21
262.245
 31
0.0
  0
LINE
  5
241
  8
0
 62
     7
 10
127.8329999999999
 20
213.46000000000001
 30
0.0
 11
127.8329999999999
 21
261.02800000000002
 31
0.0
  0
ARC
  5
242
  8
0
 62
     7
 10
247.79238799999999
 20
237.24421099999989
 30
0.0
 40
123.6269139999999
 50
169.67305699999989
 51
190.32694299999989
  0
ARC
  5
243
  8
0
 62
     7
 10
150.64931000000001
 20
226.22137499999991
 30
0.0
 40
5.8039879999999986
 50
283.03387400000003
 51
355.78593699999999
  0
LINE
  5
244
  8
0
 62
     7
 10
151.95799999999991
 20
220.56700000000001
 30
0.0
 11
129.90199999999999
 21
215.82900000000001
 31
0.0
  0
LINE
  5
245
  8
0
 62
     7
 10
137.4739999999999
 20
217.45099999999999
 30
0.0
 11
140.39599999999999
 21
217.899
 31
0.0
  0
LINE
  5
246
  8
0
 62
     7
 10
140.39599999999999
 20
217.899
 30
0.0
 11
140.56700000000001
 21
217.94199999999989
 31
0.0
  0
LINE
  5
247
  8
0
 62
     7
 10
140.56700000000001
 20
217.94199999999989
 30
0.0
 11
140.71700000000001
 21
218.04900000000001
 31
0.0
  0
LINE
  5
248
  8
0
 62
     7
 10
140.71700000000001
 20
218.04900000000001
 30
0.0
 11
140.82299999999989
 21
218.17599999999999
 31
0.0
  0
LINE
  5
249
  8
0
 62
     7
 10
129.83799999999991
 20
215.06099999999989
 30
0.0
 11
130.90399999999991
 21
215.40199999999999
 31
0.0
  0
LINE
  5
24A
  8
0
 62
     7
 10
126.38200000000001
 20
215.63699999999989
 30
0.0
 11
126.25399999999991
 21
215.46599999999989
 31
0.0
  0
LINE
  5
24B
  8
0
 62
     7
 10
126.25399999999991
 20
215.46599999999989
 30
0.0
 11
126.19
 21
215.274
 31
0.0
  0
LINE
  5
24C
  8
0
 62
     7
 10
126.19
 20
215.274
 30
0.0
 11
126.16799999999991
 21
215.08199999999991
 31
0.0
  0
ARC
  5
24D
  8
0
 62
     7
 10
126.31499099999991
 20
212.95427099999989
 30
0.0
 40
1.603321999999999
 50
0.5528960000000001
 51
60.701931000000002
  0
ARC
  5
24E
  8
0
 62
     7
 10
126.19629500000001
 20
212.78464999999991
 30
0.0
 40
1.809445
 50
60.052507999999989
 51
80.706220000000002
  0
LINE
  5
24F
  8
0
 62
     7
 10
126.16799999999991
 20
215.08199999999991
 30
0.0
 11
126.211
 21
214.869
 31
0.0
  0
LINE
  5
250
  8
0
 62
     7
 10
126.211
 20
214.869
 30
0.0
 11
126.3179999999999
 21
214.69799999999989
 31
0.0
  0
LINE
  5
251
  8
0
 62
     7
 10
126.3179999999999
 20
214.69799999999989
 30
0.0
 11
126.4889999999999
 21
214.56999999999999
 31
0.0
  0
LINE
  5
252
  8
0
 62
     7
 10
129.83799999999991
 20
212.244
 30
0.0
 11
128.55799999999991
 21
212.32899999999989
 31
0.0
  0
LINE
  5
253
  8
0
 62
     7
 10
127.91799999999991
 20
212.97
 30
0.0
 11
127.95999999999999
 21
212.77799999999999
 31
0.0
  0
LINE
  5
254
  8
0
 62
     7
 10
127.95999999999999
 20
212.77799999999999
 30
0.0
 11
128.04599999999991
 21
212.60699999999991
 31
0.0
  0
LINE
  5
255
  8
0
 62
     7
 10
128.04599999999991
 20
212.60699999999991
 30
0.0
 11
128.19499999999991
 21
212.45699999999991
 31
0.0
  0
LINE
  5
256
  8
0
 62
     7
 10
128.19499999999991
 20
212.45699999999991
 30
0.0
 11
128.36600000000001
 21
212.351
 31
0.0
  0
LINE
  5
257
  8
0
 62
     7
 10
128.36600000000001
 20
212.351
 30
0.0
 11
128.55799999999991
 21
212.32899999999989
 31
0.0
  0
LINE
  5
258
  8
0
 62
     7
 10
130.90399999999991
 20
215.40199999999999
 30
0.0
 11
131.80000000000001
 21
215.72200000000001
 31
0.0
  0
LINE
  5
259
  8
0
 62
     7
 10
131.80000000000001
 20
215.72200000000001
 30
0.0
 11
132.65299999999991
 21
216.107
 31
0.0
  0
LINE
  5
25A
  8
0
 62
     7
 10
132.65299999999991
 20
216.107
 30
0.0
 11
133.464
 21
216.59700000000001
 31
0.0
  0
LINE
  5
25B
  8
0
 62
     7
 10
126.38200000000001
 20
215.63699999999989
 30
0.0
 11
127.8329999999999
 21
216.982
 31
0.0
  0
LINE
  5
25C
  8
0
 62
     7
 10
156.7579999999999
 20
225.774
 30
0.0
 11
156.4379999999999
 21
225.79499999999999
 31
0.0
  0
LINE
  5
25D
  8
0
 62
     7
 10
157.67400000000001
 20
235.37700000000001
 30
0.0
 11
157.67400000000001
 21
239.11199999999991
 31
0.0
  0
LINE
  5
25E
  8
0
 62
     7
 10
157.333
 20
234.63499999999999
 30
0.0
 11
157.52500000000001
 21
234.84899999999999
 31
0.0
  0
LINE
  5
25F
  8
0
 62
     7
 10
157.52500000000001
 20
234.84899999999999
 30
0.0
 11
157.63200000000001
 21
235.1049999999999
 31
0.0
  0
LINE
  5
260
  8
0
 62
     7
 10
157.63200000000001
 20
235.1049999999999
 30
0.0
 11
157.67400000000001
 21
235.38200000000001
 31
0.0
  0
LINE
  5
261
  8
0
 62
     7
 10
157.07699999999991
 20
234.3949999999999
 30
0.0
 11
157.333
 21
234.62999999999991
 31
0.0
  0
LINE
  5
262
  8
0
 62
     7
 10
157.07699999999991
 20
240.0929999999999
 30
0.0
 11
157.333
 21
239.85799999999989
 31
0.0
  0
LINE
  5
263
  8
0
 62
     7
 10
157.67400000000001
 20
239.11199999999991
 30
0.0
 11
157.63200000000001
 21
239.38900000000001
 31
0.0
  0
LINE
  5
264
  8
0
 62
     7
 10
157.63200000000001
 20
239.38900000000001
 30
0.0
 11
157.52500000000001
 21
239.64500000000001
 31
0.0
  0
LINE
  5
265
  8
0
 62
     7
 10
157.52500000000001
 20
239.64500000000001
 30
0.0
 11
157.333
 21
239.85799999999989
 31
0.0
  0
LINE
  5
266
  8
0
 62
     7
 10
151.95799999999991
 20
253.92199999999991
 30
0.0
 11
129.90199999999999
 21
258.66000000000003
 31
0.0
  0
ARC
  5
267
  8
0
 62
     7
 10
150.61318299999999
 20
248.23646699999989
 30
0.0
 40
5.8423309999999988
 50
4.4871109999999987
 51
76.689347999999995
  0
LINE
  5
268
  8
0
 62
     7
 10
156.4379999999999
 20
248.69399999999999
 30
0.0
 11
156.7579999999999
 21
248.715
 31
0.0
  0
LINE
  5
269
  8
0
 62
     7
 10
140.82299999999989
 20
256.31200000000001
 30
0.0
 11
140.71700000000001
 21
256.44
 31
0.0
  0
LINE
  5
26A
  8
0
 62
     7
 10
140.71700000000001
 20
256.44
 30
0.0
 11
140.56700000000001
 21
256.54700000000003
 31
0.0
  0
LINE
  5
26B
  8
0
 62
     7
 10
140.56700000000001
 20
256.54700000000003
 30
0.0
 11
140.39599999999999
 21
256.589
 31
0.0
  0
LINE
  5
26C
  8
0
 62
     7
 10
140.39599999999999
 20
256.589
 30
0.0
 11
137.4739999999999
 21
257.03800000000001
 31
0.0
  0
ARC
  5
26D
  8
0
 62
     7
 10
126.1858979999999
 20
261.69424299999997
 30
0.0
 40
1.8014209999999991
 50
279.670839
 51
325.43628699999999
  0
ARC
  5
26E
  8
0
 62
     7
 10
126.3631479999999
 20
261.51612999999998
 30
0.0
 40
1.555091999999999
 50
327.13568800000002
 51
0.106613
  0
LINE
  5
26F
  8
0
 62
     7
 10
126.4889999999999
 20
259.91800000000001
 30
0.0
 11
126.3179999999999
 21
259.79000000000002
 31
0.0
  0
LINE
  5
270
  8
0
 62
     7
 10
126.3179999999999
 20
259.79000000000002
 30
0.0
 11
126.211
 21
259.62
 31
0.0
  0
LINE
  5
271
  8
0
 62
     7
 10
126.211
 20
259.62
 30
0.0
 11
126.16799999999991
 21
259.40600000000001
 31
0.0
  0
LINE
  5
272
  8
0
 62
     7
 10
126.4889999999999
 20
259.91800000000001
 30
0.0
 11
126.29600000000001
 21
259.74799999999999
 31
0.0
  0
LINE
  5
273
  8
0
 62
     7
 10
126.29600000000001
 20
259.74799999999999
 30
0.0
 11
126.19
 21
259.53399999999988
 31
0.0
  0
LINE
  5
274
  8
0
 62
     7
 10
129.83799999999991
 20
259.42700000000002
 30
0.0
 11
130.90399999999991
 21
259.08600000000001
 31
0.0
  0
LINE
  5
275
  8
0
 62
     7
 10
126.38200000000001
 20
258.85099999999989
 30
0.0
 11
127.8329999999999
 21
257.50700000000001
 31
0.0
  0
LINE
  5
276
  8
0
 62
     7
 10
126.16799999999991
 20
259.40600000000001
 30
0.0
 11
126.19
 21
259.214
 31
0.0
  0
LINE
  5
277
  8
0
 62
     7
 10
126.19
 20
259.214
 30
0.0
 11
126.25399999999991
 21
259.02199999999988
 31
0.0
  0
LINE
  5
278
  8
0
 62
     7
 10
126.25399999999991
 20
259.02199999999988
 30
0.0
 11
126.38200000000001
 21
258.85099999999989
 31
0.0
  0
LINE
  5
279
  8
0
 62
     7
 10
133.464
 20
257.89099999999991
 30
0.0
 11
132.65299999999991
 21
258.38200000000001
 31
0.0
  0
LINE
  5
27A
  8
0
 62
     7
 10
132.65299999999991
 20
258.38200000000001
 30
0.0
 11
131.80000000000001
 21
258.76599999999991
 31
0.0
  0
LINE
  5
27B
  8
0
 62
     7
 10
131.80000000000001
 20
258.76599999999991
 30
0.0
 11
130.90399999999991
 21
259.08600000000001
 31
0.0
  0
LINE
  5
27C
  8
0
 62
     7
 10
129.83799999999991
 20
262.245
 30
0.0
 11
128.536
 21
262.15899999999988
 31
0.0
  0
LINE
  5
27D
  8
0
 62
     7
 10
128.536
 20
262.15899999999988
 30
0.0
 11
128.32299999999989
 21
262.11599999999987
 31
0.0
  0
LINE
  5
27E
  8
0
 62
     7
 10
128.32299999999989
 20
262.11599999999987
 30
0.0
 11
128.15299999999991
 21
262.00999999999988
 31
0.0
  0
LINE
  5
27F
  8
0
 62
     7
 10
128.15299999999991
 20
262.00999999999988
 30
0.0
 11
128.0029999999999
 21
261.839
 31
0.0
  0
LINE
  5
280
  8
0
 62
     7
 10
128.0029999999999
 20
261.839
 30
0.0
 11
127.93899999999999
 21
261.62499999999989
 31
0.0
  0
LINE
  5
281
  8
0
 62
     7
 10
127.93899999999999
 20
261.62499999999989
 30
0.0
 11
127.91799999999991
 21
261.41199999999998
 31
0.0
  0
ARC
  5
282
  8
0
 62
     7
 10
18.767022000000001
 20
129.46168599999999
 30
0.0
 40
32.995725
 50
2.916974999999999
 51
16.012841999999999
  0
LINE
  5
283
  8
0
 62
     7
 10
90.073499999999996
 20
121.22199999999999
 30
0.0
 11
90.435900000000004
 21
119.81399999999989
 31
0.0
  0
LINE
  5
284
  8
0
 62
     7
 10
90.435900000000004
 20
119.81399999999989
 30
0.0
 11
90.884100000000004
 21
118.42700000000001
 31
0.0
  0
LINE
  5
285
  8
0
 62
     7
 10
73.584400000000002
 20
168.89699999999999
 30
0.0
 11
72.005899999999997
 21
168.982
 31
0.0
  0
LINE
  5
286
  8
0
 62
     7
 10
72.005899999999997
 20
168.982
 30
0.0
 11
70.427300000000002
 21
169.00399999999999
 31
0.0
  0
LINE
  5
287
  8
0
 62
     7
 10
70.427300000000002
 20
169.00399999999999
 30
0.0
 11
68.869799999999998
 21
168.982
 31
0.0
  0
LINE
  5
288
  8
0
 62
     7
 10
68.869799999999998
 20
168.982
 30
0.0
 11
67.291600000000003
 21
168.89699999999999
 31
0.0
  0
LINE
  5
289
  8
0
 62
     7
 10
73.840400000000002
 20
174.22099999999989
 30
0.0
 11
72.134
 21
174.3059999999999
 31
0.0
  0
LINE
  5
28A
  8
0
 62
     7
 10
72.134
 20
174.3059999999999
 30
0.0
 11
70.427300000000002
 21
174.328
 31
0.0
  0
LINE
  5
28B
  8
0
 62
     7
 10
70.427300000000002
 20
174.328
 30
0.0
 11
68.7423
 21
174.3059999999999
 31
0.0
  0
LINE
  5
28C
  8
0
 62
     7
 10
68.7423
 20
174.3059999999999
 30
0.0
 11
67.035600000000002
 21
174.22099999999989
 31
0.0
  0
LINE
  5
28D
  8
0
 62
     7
 10
73.520399999999995
 20
176.57599999999999
 30
0.0
 11
71.984499999999997
 21
176.6399999999999
 31
0.0
  0
LINE
  5
28E
  8
0
 62
     7
 10
71.984499999999997
 20
176.6399999999999
 30
0.0
 11
70.427300000000002
 21
176.66099999999989
 31
0.0
  0
LINE
  5
28F
  8
0
 62
     7
 10
70.427300000000002
 20
176.66099999999989
 30
0.0
 11
68.891499999999994
 21
176.6399999999999
 31
0.0
  0
LINE
  5
290
  8
0
 62
     7
 10
68.891499999999994
 20
176.6399999999999
 30
0.0
 11
67.355699999999999
 21
176.57599999999999
 31
0.0
  0
ARC
  5
291
  8
0
 62
     7
 10
62.131231999999997
 20
109.14119700000001
 30
0.0
 40
11.095431
 50
174.890354
 51
263.36674900000003
  0
ARC
  5
292
  8
0
 62
     7
 10
71.251754000000005
 20
107.15695100000001
 30
0.0
 40
23.492967999999991
 50
182.01195699999991
 51
267.988944
  0
ARC
  5
293
  8
0
 62
     7
 10
69.594003000000001
 20
107.1876449999999
 30
0.0
 40
23.523955999999991
 50
272.03010599999999
 51
357.91590600000001
  0
LINE
  5
294
  8
0
 62
     7
 10
77.103999999999985
 20
97.479900000000015
 30
0.0
 11
78.490600000000001
 21
97.735900000000001
 31
0.0
  0
LINE
  5
295
  8
0
 62
     7
 10
78.490600000000001
 20
97.735900000000001
 30
0.0
 11
79.855599999999995
 21
98.077299999999994
 31
0.0
  0
LINE
  5
296
  8
0
 62
     7
 10
79.855599999999995
 20
98.077299999999994
 30
0.0
 11
81.199500000000015
 21
98.525199999999998
 31
0.0
  0
LINE
  5
297
  8
0
 62
     7
 10
78.341099999999983
 20
103.773
 30
0.0
 11
79.749099999999999
 21
104.1139999999999
 31
0.0
  0
LINE
  5
298
  8
0
 62
     7
 10
79.749099999999999
 20
104.1139999999999
 30
0.0
 11
81.135400000000004
 21
104.5409999999999
 31
0.0
  0
ARC
  5
299
  8
0
 62
     7
 10
78.190026000000003
 20
106.423649
 30
0.0
 40
8.4523820000000001
 50
290.85798
 51
345.191936
  0
ARC
  5
29A
  8
0
 62
     7
 10
78.681195999999986
 20
109.192924
 30
0.0
 40
11.154303000000001
 50
276.927009
 51
4.8158890000000003
  0
LINE
  5
29B
  8
0
 62
     7
 10
86.361699999999985
 20
104.26299999999991
 30
0.0
 11
86.638999999999996
 21
105.43600000000001
 31
0.0
  0
LINE
  5
29C
  8
0
 62
     7
 10
86.638999999999996
 20
105.43600000000001
 30
0.0
 11
86.830899999999986
 21
106.631
 31
0.0
  0
ARC
  5
29D
  8
0
 62
     7
 10
79.041406999999992
 20
110.2715139999999
 30
0.0
 40
6.1014049999999997
 50
290.07226500000002
 51
345.69613700000002
  0
ARC
  5
29E
  8
0
 62
     7
 10
62.234194000000002
 20
106.215773
 30
0.0
 40
7.9836339999999986
 50
194.15527599999999
 51
214.863946
  0
ARC
  5
29F
  8
0
 62
     7
 10
62.748404999999998
 20
106.5071719999999
 30
0.0
 40
8.5722979999999982
 50
214.49739099999999
 51
242.26842799999989
  0
ARC
  5
2A0
  8
0
 62
     7
 10
62.165481999999997
 20
105.577011
 30
0.0
 40
7.4781880000000003
 50
242.905395
 51
250.55918699999989
  0
ARC
  5
2A1
  8
0
 62
     7
 10
70.427325999999994
 20
145.11146099999999
 30
0.0
 40
48.097188000000003
 50
262.02069799999992
 51
277.97932200000002
  0
LINE
  5
2A2
  8
0
 62
     7
 10
59.67649999999999
 20
98.525199999999998
 30
0.0
 11
61.020400000000002
 21
98.077299999999994
 31
0.0
  0
LINE
  5
2A3
  8
0
 62
     7
 10
61.020400000000002
 20
98.077299999999994
 30
0.0
 11
62.36399999999999
 21
97.735900000000001
 31
0.0
  0
LINE
  5
2A4
  8
0
 62
     7
 10
62.36399999999999
 20
97.735900000000001
 30
0.0
 11
63.750700000000002
 21
97.479900000000015
 31
0.0
  0
ARC
  5
2A5
  8
0
 62
     7
 10
70.427154000000002
 20
143.829275
 30
0.0
 40
40.830781999999999
 50
258.824027
 51
281.17599300000001
  0
LINE
  5
2A6
  8
0
 62
     7
 10
54.045099999999998
 20
106.631
 30
0.0
 11
54.237000000000002
 21
105.43600000000001
 31
0.0
  0
LINE
  5
2A7
  8
0
 62
     7
 10
54.237000000000002
 20
105.43600000000001
 30
0.0
 11
54.493000000000002
 21
104.26299999999991
 31
0.0
  0
ARC
  5
2A8
  8
0
 62
     7
 10
63.423788999999992
 20
110.9160389999999
 30
0.0
 40
7.8248740000000003
 50
195.96297999999999
 51
207.11356499999991
  0
ARC
  5
2A9
  8
0
 62
     7
 10
61.531835999999998
 20
110.02793200000001
 30
0.0
 40
5.7365259999999996
 50
207.830298
 51
241.56985499999999
  0
ARC
  5
2AA
  8
0
 62
     7
 10
62.589116000000011
 20
111.85435699999999
 30
0.0
 40
7.8462690000000004
 50
241.130022
 51
248.294918
  0
ARC
  5
2AB
  8
0
 62
     7
 10
63.863126000000001
 20
114.9535989999999
 30
0.0
 40
11.197003
 50
248.10307
 51
254.441059
  0
ARC
  5
2AC
  8
0
 62
     7
 10
65.734815999999995
 20
121.28470900000001
 30
0.0
 40
17.798462000000001
 50
254.10333700000001
 51
257.14256299999988
  0
ARC
  5
2AD
  8
0
 62
     7
 10
68.017662000000001
 20
131.03022799999991
 30
0.0
 40
27.807680000000001
 50
257.02516900000001
 51
258.58305399999989
  0
ARC
  5
2AE
  8
0
 62
     7
 10
62.187337999999997
 20
157.72552799999991
 30
0.0
 40
1.275989
 50
93.562207999999998
 51
118.595434
  0
ARC
  5
2AF
  8
0
 62
     7
 10
62.19767499999999
 20
158.0144169999999
 30
0.0
 40
1.037798999999999
 50
126.75776
 51
248.497556
  0
ARC
  5
2B0
  8
0
 62
     7
 10
62.203509999999987
 20
158.29814500000001
 30
0.0
 40
1.307639999999999
 50
252.82055399999999
 51
265.813895
  0
ARC
  5
2B1
  8
0
 62
     7
 10
61.994701999999997
 20
158.27150499999999
 30
0.0
 40
1.2825299999999991
 50
275.070652
 51
299.94811399999998
  0
ARC
  5
2B2
  8
0
 62
     7
 10
61.981283999999988
 20
157.97416200000001
 30
0.0
 40
1.043931999999999
 50
308.76798400000001
 51
74.738155000000006
  0
ARC
  5
2B3
  8
0
 62
     7
 10
62.021119999999989
 20
157.6498379999999
 30
0.0
 40
1.3520119999999991
 50
79.992041
 51
86.313192000000001
  0
LINE
  5
2B4
  8
0
 62
     7
 10
50.973100000000002
 20
157.62499999999989
 30
0.0
 11
50.759799999999998
 21
151.256
 31
0.0
  0
LINE
  5
2B5
  8
0
 62
     7
 10
50.759799999999998
 20
151.256
 30
0.0
 11
50.588999999999999
 21
144.92099999999991
 31
0.0
  0
LINE
  5
2B6
  8
0
 62
     7
 10
50.588999999999999
 20
144.92099999999991
 30
0.0
 11
50.482500000000002
 21
138.56399999999991
 31
0.0
  0
ARC
  5
2B7
  8
0
 62
     7
 10
68.843548999999996
 20
157.7636379999999
 30
0.0
 40
1.238014999999999
 50
93.714950999999999
 51
119.036717
  0
ARC
  5
2B8
  8
0
 62
     7
 10
68.871919999999974
 20
158.01632499999999
 30
0.0
 40
1.041350999999999
 50
127.17692700000001
 51
249.17570499999999
  0
ARC
  5
2B9
  8
0
 62
     7
 10
68.874184
 20
158.30857199999991
 30
0.0
 40
1.3192429999999991
 50
253.60042699999991
 51
265.18007299999999
  0
ARC
  5
2BA
  8
0
 62
     7
 10
68.677350000000004
 20
158.23820399999991
 30
0.0
 40
1.2471769999999991
 50
273.95331599999997
 51
299.53825799999993
  0
ARC
  5
2BB
  8
0
 62
     7
 10
68.642838999999995
 20
157.97480100000001
 30
0.0
 40
1.047299999999999
 50
308.31953799999991
 51
73.498073000000005
  0
ARC
  5
2BC
  8
0
 62
     7
 10
68.705946999999995
 20
157.70378700000001
 30
0.0
 40
1.2965349999999991
 50
79.585347999999996
 51
87.46311
  0
ARC
  5
2BD
  8
0
 62
     7
 10
65.518951000000001
 20
157.7395249999999
 30
0.0
 40
1.2622530000000001
 50
93.766154
 51
118.917272
  0
ARC
  5
2BE
  8
0
 62
     7
 10
65.524333999999996
 20
158.00949900000001
 30
0.0
 40
1.037396999999999
 50
126.408861
 51
244.14235099999991
  0
ARC
  5
2BF
  8
0
 62
     7
 10
65.521511000000004
 20
158.223533
 30
0.0
 40
1.232507
 50
248.6044499999999
 51
266.02355999999997
  0
ARC
  5
2C0
  8
0
 62
     7
 10
65.334333000000001
 20
158.25808599999999
 30
0.0
 40
1.268178
 50
274.600078
 51
299.66653400000001
  0
ARC
  5
2C1
  8
0
 62
     7
 10
65.315280000000001
 20
157.97554099999991
 30
0.0
 40
1.0438810000000001
 50
308.28338300000001
 51
73.325558999999998
  0
ARC
  5
2C2
  8
0
 62
     7
 10
65.348256999999975
 20
157.64095599999999
 30
0.0
 40
1.3609299999999991
 50
78.705219999999997
 51
86.301706999999979
  0
ARC
  5
2C3
  8
0
 62
     7
 10
75.519623999999993
 20
157.724897
 30
0.0
 40
1.276621
 50
93.561673999999996
 51
118.58824799999989
  0
ARC
  5
2C4
  8
0
 62
     7
 10
75.529696000000001
 20
158.0144159999999
 30
0.0
 40
1.0377379999999989
 50
126.75312700000001
 51
248.505898
  0
ARC
  5
2C5
  8
0
 62
     7
 10
75.535814000000002
 20
158.29890900000001
 30
0.0
 40
1.3084049999999989
 50
252.82543899999999
 51
265.81441899999987
  0
ARC
  5
2C6
  8
0
 62
     7
 10
75.327000999999996
 20
158.27086199999999
 30
0.0
 40
1.281887
 50
275.07144499999998
 51
299.95571999999999
  0
ARC
  5
2C7
  8
0
 62
     7
 10
75.313259999999985
 20
157.97414599999991
 30
0.0
 40
1.0440119999999999
 50
308.774901
 51
74.725393000000011
  0
ARC
  5
2C8
  8
0
 62
     7
 10
75.353414999999998
 20
157.6506389999999
 30
0.0
 40
1.3512109999999999
 50
79.989231000000004
 51
86.312546999999995
  0
ARC
  5
2C9
  8
0
 62
     7
 10
78.850865999999996
 20
157.7395249999999
 30
0.0
 40
1.2622530000000001
 50
93.766154
 51
118.917272
  0
ARC
  5
2CA
  8
0
 62
     7
 10
78.856247999999994
 20
158.00949900000001
 30
0.0
 40
1.037396999999999
 50
126.408861
 51
244.14235099999991
  0
ARC
  5
2CB
  8
0
 62
     7
 10
78.853425000000001
 20
158.223533
 30
0.0
 40
1.232507
 50
248.6044499999999
 51
266.02355999999997
  0
ARC
  5
2CC
  8
0
 62
     7
 10
78.666212000000002
 20
158.25872099999989
 30
0.0
 40
1.2688129999999991
 50
274.59935999999988
 51
299.65899999999988
  0
ARC
  5
2CD
  8
0
 62
     7
 10
78.643916000000004
 20
157.97332800000001
 30
0.0
 40
1.0442670000000001
 50
308.50563399999987
 51
74.772829000000002
  0
ARC
  5
2CE
  8
0
 62
     7
 10
78.677316000000005
 20
157.61563499999991
 30
0.0
 40
1.386382999999999
 50
79.994527000000005
 51
86.251428000000004
  0
ARC
  5
2CF
  8
0
 62
     7
 10
72.157685999999998
 20
157.79743300000001
 30
0.0
 40
1.203451
 50
93.161332999999999
 51
119.03356099999991
  0
ARC
  5
2D0
  8
0
 62
     7
 10
72.098293999999996
 20
158.004088
 30
0.0
 40
0.9951170000000001
 50
121.81943799999991
 51
191.38101199999991
  0
ARC
  5
2D1
  8
0
 62
     7
 10
72.118087000000003
 20
158.01550599999999
 30
0.0
 40
1.016799999999999
 50
191.79168000000001
 51
260.03009600000001
  0
ARC
  5
2D2
  8
0
 62
     7
 10
72.197202000000004
 20
158.34678299999999
 30
0.0
 40
1.3569269999999991
 50
259.16168599999992
 51
265.52455299999991
  0
ARC
  5
2D3
  8
0
 62
     7
 10
72.016194999999996
 20
158.24397400000001
 30
0.0
 40
1.2522359999999999
 50
273.43929500000002
 51
299.10854
  0
ARC
  5
2D4
  8
0
 62
     7
 10
71.969278000000003
 20
157.96680599999999
 30
0.0
 40
1.0477549999999991
 50
308.76909699999999
 51
78.231887999999998
  0
ARC
  5
2D5
  8
0
 62
     7
 10
72.039505000000005
 20
157.62191299999989
 30
0.0
 40
1.378112999999999
 50
84.024565999999993
 51
87.845316999999994
  0
ARC
  5
2D6
  8
0
 62
     7
 10
72.119511000000003
 20
155.05567400000001
 30
0.0
 40
13.918848000000001
 50
4.2957539999999996
 51
83.958574999999996
  0
ARC
  5
2D7
  8
0
 62
     7
 10
71.442118999999991
 20
156.2327939999999
 30
0.0
 40
20.449124999999999
 50
357.11115399999989
 51
84.16698199999999
  0
LINE
  5
2D8
  8
0
 62
     7
 10
90.393199999999993
 20
138.71299999999991
 30
0.0
 11
90.286699999999996
 21
145.006
 31
0.0
  0
LINE
  5
2D9
  8
0
 62
     7
 10
90.286699999999996
 20
145.006
 30
0.0
 11
90.116200000000006
 21
151.29900000000001
 31
0.0
  0
LINE
  5
2DA
  8
0
 62
     7
 10
90.116200000000006
 20
151.29900000000001
 30
0.0
 11
89.881600000000006
 21
157.62499999999989
 31
0.0
  0
ARC
  5
2DB
  8
0
 62
     7
 10
69.484618000000012
 20
156.18925699999991
 30
0.0
 40
20.497643
 50
95.961685000000003
 51
182.76017899999991
  0
ARC
  5
2DC
  8
0
 62
     7
 10
68.726840999999993
 20
155.0844449999999
 30
0.0
 40
13.887141
 50
95.932202000000004
 51
175.81343000000001
  0
ARC
  5
2DD
  8
0
 62
     7
 10
72.244939999999986
 20
128.10730599999991
 30
0.0
 40
24.144120000000001
 50
154.33677599999999
 51
181.55973299999991
  0
ARC
  5
2DE
  8
0
 62
     7
 10
72.883636999999993
 20
128.03199599999991
 30
0.0
 40
24.780704
 50
181.3454769999999
 51
202.6447749999999
  0
LINE
  5
2DF
  8
0
 62
     7
 10
50.482500000000002
 20
138.56399999999991
 30
0.0
 11
49.010800000000003
 21
155.20199999999991
 31
0.0
  0
ARC
  5
2E0
  8
0
 62
     7
 10
60.454609999999988
 20
134.495102
 30
0.0
 40
1.1678029999999999
 50
90.500451999999996
 51
117.578852
  0
ARC
  5
2E1
  8
0
 62
     7
 10
60.384528000000003
 20
134.714855
 30
0.0
 40
0.941408
 50
119.990887
 51
172.589159
  0
ARC
  5
2E2
  8
0
 62
     7
 10
60.510525000000001
 20
134.689784
 30
0.0
 40
1.069620999999999
 50
172.12793300000001
 51
231.995631
  0
ARC
  5
2E3
  8
0
 62
     7
 10
60.451368000000002
 20
134.70203599999999
 30
0.0
 40
1.044255999999999
 50
234.96845699999989
 51
269.618247
  0
ARC
  5
2E4
  8
0
 62
     7
 10
60.378430000000002
 20
134.82687799999991
 30
0.0
 40
1.1709350000000001
 50
273.23021699999998
 51
299.94243
  0
ARC
  5
2E5
  8
0
 62
     7
 10
60.431851999999992
 20
134.65498500000001
 30
0.0
 40
0.9961049999999998
 50
302.21537599999999
 51
359.84806400000002
  0
ARC
  5
2E6
  8
0
 62
     7
 10
60.392789999999998
 20
134.669172
 30
0.0
 40
1.0353000000000001
 50
359.06864400000001
 51
48.283180999999999
  0
ARC
  5
2E7
  8
0
 62
     7
 10
60.479057999999988
 20
134.70280199999991
 30
0.0
 40
0.953716
 50
50.808146000000001
 51
81.479167000000004
  0
ARC
  5
2E8
  8
0
 62
     7
 10
60.414302999999997
 20
134.42276100000001
 30
0.0
 40
1.240464999999999
 50
80.437646999999998
 51
88.609215000000006
  0
LINE
  5
2E9
  8
0
 62
     7
 10
49.991900000000001
 20
118.42700000000001
 30
0.0
 11
50.41879999999999
 21
119.81399999999989
 31
0.0
  0
LINE
  5
2EA
  8
0
 62
     7
 10
50.41879999999999
 20
119.81399999999989
 30
0.0
 11
50.802599999999991
 21
121.1999999999999
 31
0.0
  0
LINE
  5
2EB
  8
0
 62
     7
 10
54.87680000000001
 20
156.0979999999999
 30
0.0
 11
54.599400000000003
 21
147.62999999999991
 31
0.0
  0
LINE
  5
2EC
  8
0
 62
     7
 10
54.599400000000003
 20
147.62999999999991
 30
0.0
 11
54.450299999999999
 21
139.1399999999999
 31
0.0
  0
LINE
  5
2ED
  8
0
 62
     7
 10
54.450299999999999
 20
139.1399999999999
 30
0.0
 11
54.386200000000002
 21
130.672
 31
0.0
  0
ARC
  5
2EE
  8
0
 62
     7
 10
67.136729000000003
 20
134.47268799999989
 30
0.0
 40
1.1907499999999991
 50
91.782628000000003
 51
118.20036999999989
  0
ARC
  5
2EF
  8
0
 62
     7
 10
67.063012000000001
 20
134.698025
 30
0.0
 40
0.9582239999999999
 50
120.683629
 51
178.65966
  0
ARC
  5
2F0
  8
0
 62
     7
 10
67.164777999999984
 20
134.71554199999991
 30
0.0
 40
1.059739999999999
 50
179.7352239999999
 51
266.47860900000001
  0
ARC
  5
2F1
  8
0
 62
     7
 10
67.043625000000006
 20
134.83492699999991
 30
0.0
 40
1.178458
 50
272.72674799999999
 51
299.49885
  0
ARC
  5
2F2
  8
0
 62
     7
 10
67.100712000000001
 20
134.653277
 30
0.0
 40
0.9930429999999999
 50
301.79344900000001
 51
358.61234300000001
  0
ARC
  5
2F3
  8
0
 62
     7
 10
67.055458000000002
 20
134.668859
 30
0.0
 40
1.038762
 50
357.81356299999987
 51
47.11413499999999
  0
ARC
  5
2F4
  8
0
 62
     7
 10
67.149198999999996
 20
134.70913400000001
 30
0.0
 40
0.946358
 50
49.613919000000003
 51
80.488084000000001
  0
ARC
  5
2F5
  8
0
 62
     7
 10
67.081692000000004
 20
134.43075999999999
 30
0.0
 40
1.2322319999999991
 50
79.531272000000001
 51
89.163217000000003
  0
ARC
  5
2F6
  8
0
 62
     7
 10
70.469603000000006
 20
134.47633300000001
 30
0.0
 40
1.187281
 50
92.040589000000011
 51
118.405987
  0
ARC
  5
2F7
  8
0
 62
     7
 10
70.396911000000003
 20
134.69733999999991
 30
0.0
 40
0.9591879999999999
 50
120.86761799999989
 51
178.60528400000001
  0
ARC
  5
2F8
  8
0
 62
     7
 10
70.497540000000001
 20
134.715022
 30
0.0
 40
1.059547999999999
 50
179.69367099999991
 51
266.20038599999992
  0
ARC
  5
2F9
  8
0
 62
     7
 10
70.351268999999974
 20
134.88938200000001
 30
0.0
 40
1.2339249999999991
 50
273.5338799999999
 51
299.42985800000002
  0
ARC
  5
2FA
  8
0
 62
     7
 10
70.287790999999999
 20
134.62267700000001
 30
0.0
 40
1.049501
 50
309.65666199999993
 51
82.359674999999996
  0
ARC
  5
2FB
  8
0
 62
     7
 10
80.473883999999998
 20
134.476764
 30
0.0
 40
1.1868499999999991
 50
92.041561000000002
 51
118.411297
  0
ARC
  5
2FC
  8
0
 62
     7
 10
80.401480000000006
 20
134.69726099999991
 30
0.0
 40
0.9593489999999999
 50
120.87441699999989
 51
178.600786
  0
ARC
  5
2FD
  8
0
 62
     7
 10
80.501789999999986
 20
134.71486299999989
 30
0.0
 40
1.0593879999999991
 50
179.68504899999991
 51
266.201233
  0
ARC
  5
2FE
  8
0
 62
     7
 10
80.375540000000001
 20
134.83492699999991
 30
0.0
 40
1.178458
 50
272.72674799999999
 51
299.49885
  0
ARC
  5
2FF
  8
0
 62
     7
 10
80.432626999999997
 20
134.653277
 30
0.0
 40
0.9930429999999999
 50
301.79344900000001
 51
358.61234300000001
  0
ARC
  5
300
  8
0
 62
     7
 10
80.387372999999997
 20
134.668859
 30
0.0
 40
1.038762
 50
357.81356299999987
 51
47.11413499999999
  0
ARC
  5
301
  8
0
 62
     7
 10
80.481114000000005
 20
134.70913400000001
 30
0.0
 40
0.946358
 50
49.613919000000003
 51
80.488084000000001
  0
ARC
  5
302
  8
0
 62
     7
 10
80.413606999999999
 20
134.43075999999999
 30
0.0
 40
1.2322319999999991
 50
79.531272000000001
 51
89.163217000000003
  0
ARC
  5
303
  8
0
 62
     7
 10
77.124122999999997
 20
134.50250999999989
 30
0.0
 40
1.1605259999999991
 50
90.995317000000014
 51
118.0096459999999
  0
ARC
  5
304
  8
0
 62
     7
 10
77.055563000000006
 20
134.71417500000001
 30
0.0
 40
0.9422590000000001
 50
120.374036
 51
172.6175649999999
  0
ARC
  5
305
  8
0
 62
     7
 10
77.180848999999995
 20
134.689528
 30
0.0
 40
1.069706
 50
172.17059299999991
 51
231.69968899999989
  0
ARC
  5
306
  8
0
 62
     7
 10
77.121144999999999
 20
134.69971799999999
 30
0.0
 40
1.042055999999999
 50
234.62444300000001
 51
269.05530800000003
  0
ARC
  5
307
  8
0
 62
     7
 10
77.024519999999995
 20
134.861006
 30
0.0
 40
1.205822999999999
 50
273.77758599999993
 51
299.91271899999992
  0
ARC
  5
308
  8
0
 62
     7
 10
76.951172
 20
134.6224409999999
 30
0.0
 40
1.0515799999999991
 50
309.90936699999992
 51
81.645519999999976
  0
ARC
  5
309
  8
0
 62
     7
 10
73.786524999999997
 20
134.495102
 30
0.0
 40
1.1678029999999999
 50
90.500451999999996
 51
117.578852
  0
ARC
  5
30A
  8
0
 62
     7
 10
73.716442999999984
 20
134.714855
 30
0.0
 40
0.941408
 50
119.990887
 51
172.589159
  0
ARC
  5
30B
  8
0
 62
     7
 10
73.842439999999996
 20
134.689784
 30
0.0
 40
1.069620999999999
 50
172.12793300000001
 51
231.995631
  0
ARC
  5
30C
  8
0
 62
     7
 10
73.783282999999983
 20
134.70203599999999
 30
0.0
 40
1.044255999999999
 50
234.96845699999989
 51
269.618247
  0
ARC
  5
30D
  8
0
 62
     7
 10
73.710319999999996
 20
134.8274909999999
 30
0.0
 40
1.1715489999999991
 50
273.22973899999988
 51
299.93444799999992
  0
ARC
  5
30E
  8
0
 62
     7
 10
73.763881999999995
 20
134.65513899999991
 30
0.0
 40
0.9962489999999998
 50
302.21186899999992
 51
359.83920799999993
  0
ARC
  5
30F
  8
0
 62
     7
 10
73.725137000000004
 20
134.6691679999999
 30
0.0
 40
1.0351259999999991
 50
359.06868300000002
 51
48.294280000000001
  0
ARC
  5
310
  8
0
 62
     7
 10
73.811115999999998
 20
134.70266499999991
 30
0.0
 40
0.953838
 50
50.812209999999993
 51
81.485979999999984
  0
ARC
  5
311
  8
0
 62
     7
 10
73.746206999999998
 20
134.42206200000001
 30
0.0
 40
1.2411650000000001
 50
80.440336000000002
 51
88.609521999999984
  0
ARC
  5
312
  8
0
 62
     7
 10
67.84586800000001
 20
128.00713699999989
 30
0.0
 40
24.900751
 50
337.95717400000001
 51
24.759516000000001
  0
LINE
  5
313
  8
0
 62
     7
 10
90.393199999999993
 20
138.58500000000001
 30
0.0
 11
89.924300000000002
 21
136.751
 31
0.0
  0
LINE
  5
314
  8
0
 62
     7
 10
89.924300000000002
 20
136.751
 30
0.0
 11
89.561499999999995
 21
134.91599999999991
 31
0.0
  0
LINE
  5
315
  8
0
 62
     7
 10
89.561499999999995
 20
134.91599999999991
 30
0.0
 11
89.305499999999995
 21
133.0389999999999
 31
0.0
  0
LINE
  5
316
  8
0
 62
     7
 10
89.305499999999995
 20
133.0389999999999
 30
0.0
 11
89.134699999999995
 21
131.16200000000001
 31
0.0
  0
LINE
  5
317
  8
0
 62
     7
 10
86.468100000000007
 20
130.672
 30
0.0
 11
86.425799999999995
 21
139.1399999999999
 31
0.0
  0
LINE
  5
318
  8
0
 62
     7
 10
86.425799999999995
 20
139.1399999999999
 30
0.0
 11
86.255199999999988
 21
147.62999999999991
 31
0.0
  0
LINE
  5
319
  8
0
 62
     7
 10
86.255199999999988
 20
147.62999999999991
 30
0.0
 11
85.999300000000005
 21
156.0979999999999
 31
0.0
  0
ARC
  5
31A
  8
0
 62
     7
 10
63.791856000000003
 20
134.50308100000001
 30
0.0
 40
1.159954999999999
 50
90.995417000000003
 51
118.016672
  0
ARC
  5
31B
  8
0
 62
     7
 10
63.72348800000001
 20
134.71431000000001
 30
0.0
 40
0.942168
 50
120.3807649999999
 51
172.6250949999999
  0
ARC
  5
31C
  8
0
 62
     7
 10
63.848748999999991
 20
134.689415
 30
0.0
 40
1.0696229999999991
 50
172.163895
 51
231.6956119999999
  0
ARC
  5
31D
  8
0
 62
     7
 10
63.788905
 20
134.69930600000001
 30
0.0
 40
1.0416449999999999
 50
234.617187
 51
269.05383399999988
  0
ARC
  5
31E
  8
0
 62
     7
 10
63.692231000000007
 20
134.861636
 30
0.0
 40
1.2064539999999999
 50
273.777017
 51
299.90476699999988
  0
ARC
  5
31F
  8
0
 62
     7
 10
63.619133999999988
 20
134.62245200000001
 30
0.0
 40
1.051536
 50
309.90556700000002
 51
81.657360999999995
  0
ARC
  5
320
  8
0
 62
     7
 10
-72.673660999999996
 20
128.937782
 30
0.0
 40
159.09867700000001
 50
353.775128
 51
357.84107499999988
  0
ARC
  5
321
  8
0
 62
     7
 10
-110.1415999999999
 20
130.7769199999999
 30
0.0
 40
196.60976599999989
 50
357.71682499999991
 51
359.96929999999992
  0
ARC
  5
322
  8
0
 62
     7
 10
249.17826199999999
 20
131.22103599999991
 30
0.0
 40
194.792866
 50
180.16163700000001
 51
184.22791799999999
  0
ARC
  5
323
  8
0
 62
     7
 10
222.862212
 20
129.6133189999999
 30
0.0
 40
168.430239
 50
184.34248099999999
 51
186.109827
  0
ARC
  5
324
  8
0
 62
     7
 10
78.843214000000003
 20
151.12982600000001
 30
0.0
 40
1.216623
 50
93.546498
 51
119.57692400000001
  0
ARC
  5
325
  8
0
 62
     7
 10
78.784994999999995
 20
151.33287799999991
 30
0.0
 40
1.0125090000000001
 50
122.384373
 51
191.75306199999989
  0
ARC
  5
326
  8
0
 62
     7
 10
78.764803999999998
 20
151.33552299999991
 30
0.0
 40
0.9933030000000001
 50
192.139679
 51
259.90445599999993
  0
ARC
  5
327
  8
0
 62
     7
 10
78.815149000000005
 20
151.623221
 30
0.0
 40
1.2853719999999991
 50
259.94304899999997
 51
267.89588099999997
  0
ARC
  5
328
  8
0
 62
     7
 10
78.72264100000001
 20
151.52839099999991
 30
0.0
 40
1.190537
 50
272.18133599999999
 51
298.52643399999999
  0
ARC
  5
329
  8
0
 62
     7
 10
78.794624999999996
 20
151.31177400000001
 30
0.0
 40
0.9666780000000002
 50
300.90999099999988
 51
358.36201799999998
  0
ARC
  5
32A
  8
0
 62
     7
 10
78.706764000000007
 20
151.29172500000001
 30
0.0
 40
1.0541709999999991
 50
359.58785699999987
 51
86.672296000000017
  0
ARC
  5
32B
  8
0
 62
     7
 10
78.850865999999996
 20
144.40761000000001
 30
0.0
 40
1.2622530000000001
 50
93.766154
 51
118.917272
  0
ARC
  5
32C
  8
0
 62
     7
 10
78.856337999999994
 20
144.67746199999999
 30
0.0
 40
1.0375490000000001
 50
126.4088439999999
 51
244.14089899999999
  0
ARC
  5
32D
  8
0
 62
     7
 10
78.853878000000009
 20
144.891929
 30
0.0
 40
1.2331920000000001
 50
248.59431499999999
 51
266.00467700000002
  0
ARC
  5
32E
  8
0
 62
     7
 10
78.665701999999996
 20
144.92723699999999
 30
0.0
 40
1.2696270000000001
 50
274.61948999999993
 51
299.66456699999992
  0
ARC
  5
32F
  8
0
 62
     7
 10
78.647046000000003
 20
144.643461
 30
0.0
 40
1.044095999999999
 50
308.29391499999991
 51
73.318089999999984
  0
ARC
  5
330
  8
0
 62
     7
 10
78.680184999999994
 20
144.308652
 30
0.0
 40
1.361318
 50
78.707189999999997
 51
86.303308000000015
  0
ARC
  5
331
  8
0
 62
     7
 10
78.789599999999993
 20
137.83425500000001
 30
0.0
 40
1.156447999999999
 50
91.07244399999999
 51
118.2167109999999
  0
ARC
  5
332
  8
0
 62
     7
 10
78.725018999999989
 20
138.036044
 30
0.0
 40
0.9488850000000001
 50
120.54209299999999
 51
172.590791
  0
ARC
  5
333
  8
0
 62
     7
 10
78.831438000000006
 20
138.010413
 30
0.0
 40
1.0577849999999991
 50
171.95735999999999
 51
226.62446600000001
  0
ARC
  5
334
  8
0
 62
     7
 10
78.721182999999996
 20
137.96199899999991
 30
0.0
 40
0.9480339999999999
 50
229.4595249999999
 51
260.33586699999989
  0
ARC
  5
335
  8
0
 62
     7
 10
78.786675999999986
 20
138.23245900000001
 30
0.0
 40
1.2258
 50
259.44023900000002
 51
269.12495299999989
  0
ARC
  5
336
  8
0
 62
     7
 10
78.747148999999993
 20
138.16129699999991
 30
0.0
 40
1.154682999999999
 50
271.03248100000002
 51
298.20890099999991
  0
ARC
  5
337
  8
0
 62
     7
 10
78.811227000000002
 20
137.96055999999999
 30
0.0
 40
0.948277
 50
300.53084899999999
 51
352.59771599999999
  0
ARC
  5
338
  8
0
 62
     7
 10
78.702342000000002
 20
137.98718700000001
 30
0.0
 40
1.0597579999999991
 50
351.92850299999992
 51
45.243544999999997
  0
ARC
  5
339
  8
0
 62
     7
 10
78.806326999999996
 20
138.026095
 30
0.0
 40
0.960038
 50
48.016550000000009
 51
85.089051999999995
  0
ARC
  5
33A
  8
0
 62
     7
 10
78.743852000000004
 20
137.697453
 30
0.0
 40
1.2932719999999991
 50
83.577641
 51
88.932078000000004
  0
LINE
  5
33B
  8
0
 62
     7
 10
90.393199999999993
 20
138.56399999999991
 30
0.0
 11
91.865300000000005
 21
155.20199999999991
 31
0.0
  0
LINE
  5
33C
  8
0
 62
     7
 10
90.393199999999993
 20
138.71299999999991
 30
0.0
 11
90.457599999999985
 21
138.43600000000001
 31
0.0
  0
ARC
  5
33D
  8
0
 62
     7
 10
80.544925000000006
 20
141.06231799999989
 30
0.0
 40
1.2821979999999991
 50
95.070483999999993
 51
119.9538439999999
  0
ARC
  5
33E
  8
0
 62
     7
 10
80.558606999999995
 20
141.35934199999991
 30
0.0
 40
1.0440370000000001
 50
128.7780709999999
 51
254.72844699999999
  0
ARC
  5
33F
  8
0
 62
     7
 10
80.518524999999997
 20
141.68633299999999
 30
0.0
 40
1.3546849999999999
 50
260.01404500000001
 51
266.32113900000002
  0
ARC
  5
340
  8
0
 62
     7
 10
80.376453999999995
 20
141.541145
 30
0.0
 40
1.207964
 50
272.616693
 51
298.60369199999991
  0
ARC
  5
341
  8
0
 62
     7
 10
80.444796999999994
 20
141.32346299999989
 30
0.0
 40
0.985124
 50
301.17604699999998
 51
5.3146449999999987
  0
ARC
  5
342
  8
0
 62
     7
 10
80.405560999999992
 20
141.31034199999991
 30
0.0
 40
1.0254499999999991
 50
5.8415589999999993
 51
78.435057
  0
ARC
  5
343
  8
0
 62
     7
 10
80.340291000000008
 20
141.00160099999991
 30
0.0
 40
1.34101
 50
78.347515999999999
 51
86.095611000000005
  0
ARC
  5
344
  8
0
 62
     7
 10
80.462085000000002
 20
147.83581599999991
 30
0.0
 40
1.1593610000000001
 50
91.506625999999983
 51
118.491474
  0
ARC
  5
345
  8
0
 62
     7
 10
80.395380999999986
 20
148.03737299999989
 30
0.0
 40
0.951135
 50
120.7524129999999
 51
172.473208
  0
ARC
  5
346
  8
0
 62
     7
 10
80.494915000000006
 20
148.01420200000001
 30
0.0
 40
1.0528939999999991
 50
171.93265699999989
 51
226.62022400000001
  0
ARC
  5
347
  8
0
 62
     7
 10
80.405734999999979
 20
147.98885300000001
 30
0.0
 40
0.9743719999999999
 50
229.4089929999999
 51
266.18244399999992
  0
ARC
  5
348
  8
0
 62
     7
 10
80.467177000000007
 20
148.33347800000001
 30
0.0
 40
1.3228789999999999
 50
264.52076799999998
 51
268.45906000000002
  0
ARC
  5
349
  8
0
 62
     7
 10
80.422824000000006
 20
148.14673199999999
 30
0.0
 40
1.1356889999999991
 50
270.44288999999992
 51
298.04216400000001
  0
ARC
  5
34A
  8
0
 62
     7
 10
80.487629999999996
 20
147.94873799999991
 30
0.0
 40
0.9311629999999999
 50
300.25066600000002
 51
346.32643300000001
  0
ARC
  5
34B
  8
0
 62
     7
 10
80.343153000000015
 20
147.99330900000001
 30
0.0
 40
1.082120999999999
 50
345.84168
 51
39.473596000000001
  0
ARC
  5
34C
  8
0
 62
     7
 10
80.481701000000001
 20
148.05150699999999
 30
0.0
 40
0.939168
 50
42.107247999999998
 51
85.69579499999999
  0
ARC
  5
34D
  8
0
 62
     7
 10
80.420950000000005
 20
147.72407100000001
 30
0.0
 40
1.27075
 50
84.072188999999995
 51
89.519684999999996
  0
ARC
  5
34E
  8
0
 62
     7
 10
80.508801000000005
 20
154.451741
 30
0.0
 40
1.222113
 50
93.621646999999996
 51
119.366455
  0
ARC
  5
34F
  8
0
 62
     7
 10
80.556448000000003
 20
154.692744
 30
0.0
 40
1.047688999999999
 50
128.13484800000001
 51
253.26106899999991
  0
ARC
  5
350
  8
0
 62
     7
 10
80.513242000000005
 20
154.98085599999999
 30
0.0
 40
1.317034
 50
258.67901599999999
 51
266.44611499999991
  0
ARC
  5
351
  8
0
 62
     7
 10
80.383504000000002
 20
154.848084
 30
0.0
 40
1.1827080000000001
 50
272.330759
 51
298.92365799999999
  0
ARC
  5
352
  8
0
 62
     7
 10
80.448417000000006
 20
154.64681200000001
 30
0.0
 40
0.9759879999999999
 50
301.30357099999998
 51
358.61332999999991
  0
ARC
  5
353
  8
0
 62
     7
 10
80.380267000000003
 20
154.62880899999999
 30
0.0
 40
1.043868
 50
359.69177999999988
 51
87.181135999999995
  0
ARC
  5
354
  8
0
 62
     7
 10
63.858664000000012
 20
141.09382199999999
 30
0.0
 40
1.248707999999999
 50
93.993285000000014
 51
119.54872899999999
  0
ARC
  5
355
  8
0
 62
     7
 10
63.914143999999993
 20
141.373863
 30
0.0
 40
1.0491369999999991
 50
129.78110799999999
 51
262.19697200000002
  0
ARC
  5
356
  8
0
 62
     7
 10
63.69196500000001
 20
141.57006699999991
 30
0.0
 40
1.2381969999999991
 50
273.69238200000001
 51
299.02028799999999
  0
ARC
  5
357
  8
0
 62
     7
 10
63.663490000000003
 20
141.31708699999999
 30
0.0
 40
1.0413110000000001
 50
307.17049500000002
 51
69.192233999999985
  0
ARC
  5
358
  8
0
 62
     7
 10
63.661211000000002
 20
141.0265259999999
 30
0.0
 40
1.317613999999999
 50
73.592269999999999
 51
85.189606999999995
  0
ARC
  5
359
  8
0
 62
     7
 10
75.46423399999999
 20
137.80841100000001
 30
0.0
 40
1.182331
 50
91.159092999999999
 51
117.977384
  0
ARC
  5
35A
  8
0
 62
     7
 10
75.398692000000011
 20
138.0216419999999
 30
0.0
 40
0.9641949999999999
 50
120.48286
 51
178.643911
  0
ARC
  5
35B
  8
0
 62
     7
 10
75.465745999999996
 20
138.00805500000001
 30
0.0
 40
1.031620999999999
 50
177.9776389999999
 51
231.738159
  0
ARC
  5
35C
  8
0
 62
     7
 10
75.408369999999991
 20
138.00760999999989
 30
0.0
 40
0.9967469999999998
 50
234.31283500000001
 51
264.82231000000002
  0
ARC
  5
35D
  8
0
 62
     7
 10
75.467134000000001
 20
138.3270729999999
 30
0.0
 40
1.3205439999999991
 50
263.53382299999993
 51
268.83636799999999
  0
ARC
  5
35E
  8
0
 62
     7
 10
75.409790999999998
 20
138.16694099999989
 30
0.0
 40
1.160541
 50
271.50722100000002
 51
298.4622819999999
  0
ARC
  5
35F
  8
0
 62
     7
 10
75.476860000000002
 20
137.96387200000001
 30
0.0
 40
0.9508049999999999
 50
300.74171799999999
 51
352.47575999999998
  0
ARC
  5
360
  8
0
 62
     7
 10
75.376897999999997
 20
137.98715300000001
 30
0.0
 40
1.0530029999999999
 50
351.93208499999997
 51
46.617849
  0
ARC
  5
361
  8
0
 62
     7
 10
75.465894999999989
 20
138.01247499999999
 30
0.0
 40
0.9746179999999998
 50
49.39902
 51
86.166364999999999
  0
ARC
  5
362
  8
0
 62
     7
 10
75.405265
 20
137.681659
 30
0.0
 40
1.3093109999999999
 50
84.486761000000001
 51
88.465937999999994
  0
ARC
  5
363
  8
0
 62
     7
 10
72.106162999999995
 20
137.86989700000001
 30
0.0
 40
1.1207009999999991
 50
90.758938999999984
 51
118.44853000000001
  0
ARC
  5
364
  8
0
 62
     7
 10
72.046277000000003
 20
138.05478299999999
 30
0.0
 40
0.9302879999999998
 50
120.630521
 51
166.5155509999999
  0
ARC
  5
365
  8
0
 62
     7
 10
72.199303
 20
138.004684
 30
0.0
 40
1.090856
 50
165.830895
 51
214.03932399999991
  0
ARC
  5
366
  8
0
 62
     7
 10
72.042311999999995
 20
137.93667500000001
 30
0.0
 40
0.923234
 50
215.9959299999999
 51
260.3624759999999
  0
ARC
  5
367
  8
0
 62
     7
 10
72.103121000000002
 20
138.19221099999999
 30
0.0
 40
1.1854679999999991
 50
259.53256099999987
 51
269.42952100000002
  0
ARC
  5
368
  8
0
 62
     7
 10
72.095818999999992
 20
138.14082999999991
 30
0.0
 40
1.134037999999999
 50
269.77262400000001
 51
297.60712599999988
  0
ARC
  5
369
  8
0
 62
     7
 10
72.160512999999995
 20
137.938726
 30
0.0
 40
0.9256770000000001
 50
299.85625999999991
 51
345.05160699999988
  0
ARC
  5
36A
  8
0
 62
     7
 10
72.001480000000001
 20
137.99283099999991
 30
0.0
 40
1.093342
 50
344.46194999999989
 51
33.100054
  0
ARC
  5
36B
  8
0
 62
     7
 10
72.161704999999998
 20
138.0616259999999
 30
0.0
 40
0.922034
 50
34.956389999999999
 51
79.683018999999987
  0
ARC
  5
36C
  8
0
 62
     7
 10
72.100656999999998
 20
137.8054709999999
 30
0.0
 40
1.185065
 50
78.997176999999994
 51
90.451496999999989
  0
ARC
  5
36D
  8
0
 62
     7
 10
68.793821999999992
 20
137.83114
 30
0.0
 40
1.159761
 50
91.506337999999985
 51
118.486452
  0
ARC
  5
36E
  8
0
 62
     7
 10
68.726919999999993
 20
138.03325599999999
 30
0.0
 40
0.9509499999999999
 50
120.752331
 51
172.48136
  0
ARC
  5
36F
  8
0
 62
     7
 10
68.826763999999997
 20
138.01007499999989
 30
0.0
 40
1.053015
 50
171.9417379999999
 51
226.624988
  0
ARC
  5
370
  8
0
 62
     7
 10
68.737580000000008
 20
137.9845949999999
 30
0.0
 40
0.9743950000000001
 50
229.408962
 51
266.17716499999989
  0
ARC
  5
371
  8
0
 62
     7
 10
68.798889000000003
 20
138.32839699999991
 30
0.0
 40
1.3220730000000001
 50
264.519203
 51
268.45896199999999
  0
ARC
  5
372
  8
0
 62
     7
 10
68.754149999999996
 20
138.14300299999991
 30
0.0
 40
1.136237999999999
 50
270.46314899999999
 51
298.05059499999999
  0
ARC
  5
373
  8
0
 62
     7
 10
68.819046
 20
137.94479299999989
 30
0.0
 40
0.9314879999999998
 50
300.26154100000002
 51
346.32668799999988
  0
ARC
  5
374
  8
0
 62
     7
 10
68.675099000000003
 20
137.989293
 30
0.0
 40
1.081914
 50
345.83882299999999
 51
39.478113
  0
ARC
  5
375
  8
0
 62
     7
 10
68.813875999999993
 20
138.04783499999999
 30
0.0
 40
0.9385639999999998
 50
42.106759999999987
 51
85.720115000000007
  0
ARC
  5
376
  8
0
 62
     7
 10
68.752746000000002
 20
137.71485200000001
 30
0.0
 40
1.275692
 50
84.098088000000004
 51
89.524383
  0
ARC
  5
377
  8
0
 62
     7
 10
65.457685999999995
 20
137.83425500000001
 30
0.0
 40
1.156447999999999
 50
91.07244399999999
 51
118.2167109999999
  0
ARC
  5
378
  8
0
 62
     7
 10
65.393104000000008
 20
138.036044
 30
0.0
 40
0.9488850000000001
 50
120.54209299999999
 51
172.590791
  0
ARC
  5
379
  8
0
 62
     7
 10
65.499522999999996
 20
138.010413
 30
0.0
 40
1.0577849999999991
 50
171.95735999999999
 51
226.62446600000001
  0
ARC
  5
37A
  8
0
 62
     7
 10
65.389268000000001
 20
137.96199899999991
 30
0.0
 40
0.9480339999999999
 50
229.4595249999999
 51
260.33586699999989
  0
ARC
  5
37B
  8
0
 62
     7
 10
65.454761000000005
 20
138.23245900000001
 30
0.0
 40
1.2258
 50
259.44023900000002
 51
269.12495299999989
  0
ARC
  5
37C
  8
0
 62
     7
 10
65.415242000000006
 20
138.16072999999989
 30
0.0
 40
1.154115999999999
 50
271.03258799999992
 51
298.21597000000003
  0
ARC
  5
37D
  8
0
 62
     7
 10
65.479127000000005
 20
137.9604249999999
 30
0.0
 40
0.948187
 50
300.53759100000008
 51
352.60519900000003
  0
ARC
  5
37E
  8
0
 62
     7
 10
65.370031999999995
 20
137.98720800000001
 30
0.0
 40
1.0598959999999991
 50
351.92842000000002
 51
45.234405000000002
  0
ARC
  5
37F
  8
0
 62
     7
 10
65.474376000000007
 20
138.0264699999999
 30
0.0
 40
0.9596639999999999
 50
48.007844000000013
 51
85.086899000000003
  0
ARC
  5
380
  8
0
 62
     7
 10
65.411943999999991
 20
137.69815600000001
 30
0.0
 40
1.2925679999999991
 50
83.575896999999998
 51
88.931820000000016
  0
ARC
  5
381
  8
0
 62
     7
 10
75.519623999999993
 20
144.39298199999999
 30
0.0
 40
1.276621
 50
93.561673999999996
 51
118.58824799999989
  0
ARC
  5
382
  8
0
 62
     7
 10
75.529952000000009
 20
144.68239
 30
0.0
 40
1.037979999999999
 50
126.760796
 51
248.495971
  0
ARC
  5
383
  8
0
 62
     7
 10
75.535832999999997
 20
144.96503799999999
 30
0.0
 40
1.306799
 50
252.80278000000001
 51
265.80840699999999
  0
ARC
  5
384
  8
0
 62
     7
 10
75.327021000000002
 20
144.9383939999999
 30
0.0
 40
1.2816769999999991
 50
275.07135499999993
 51
299.96006899999992
  0
ARC
  5
385
  8
0
 62
     7
 10
75.312993999999989
 20
144.642031
 30
0.0
 40
1.0442750000000001
 50
308.78203300000001
 51
74.714209999999994
  0
ARC
  5
386
  8
0
 62
     7
 10
75.353414999999998
 20
144.318724
 30
0.0
 40
1.3512109999999999
 50
79.989231000000004
 51
86.312546999999995
  0
ARC
  5
387
  8
0
 62
     7
 10
72.157609999999991
 20
144.46669
 30
0.0
 40
1.2022759999999999
 50
93.160792000000001
 51
119.060498
  0
ARC
  5
388
  8
0
 62
     7
 10
72.098892000000006
 20
144.67174900000001
 30
0.0
 40
0.995683
 50
121.839721
 51
191.36849599999999
  0
ARC
  5
389
  8
0
 62
     7
 10
72.11811999999999
 20
144.68327500000001
 30
0.0
 40
1.0168330000000001
 50
191.791674
 51
260.028549
  0
ARC
  5
38A
  8
0
 62
     7
 10
72.197202000000004
 20
145.01452399999991
 30
0.0
 40
1.3569269999999991
 50
259.16168599999992
 51
265.52455299999991
  0
ARC
  5
38B
  8
0
 62
     7
 10
72.016209000000003
 20
144.91151699999989
 30
0.0
 40
1.2520370000000001
 50
273.43920600000001
 51
299.11288499999989
  0
ARC
  5
38C
  8
0
 62
     7
 10
71.969021999999995
 20
144.63468599999999
 30
0.0
 40
1.0480080000000001
 50
308.77598
 51
78.220445999999995
  0
ARC
  5
38D
  8
0
 62
     7
 10
72.039505000000005
 20
144.28999799999991
 30
0.0
 40
1.378112999999999
 50
84.024565999999993
 51
87.845316999999994
  0
ARC
  5
38E
  8
0
 62
     7
 10
68.843533999999991
 20
144.431928
 30
0.0
 40
1.2378100000000001
 50
93.714860000000002
 51
119.04116999999999
  0
ARC
  5
38F
  8
0
 62
     7
 10
68.87203199999999
 20
144.68423599999991
 30
0.0
 40
1.041539999999999
 50
127.176759
 51
249.173079
  0
ARC
  5
390
  8
0
 62
     7
 10
68.873796999999996
 20
144.97397000000001
 30
0.0
 40
1.3168770000000001
 50
253.58766499999999
 51
265.18827900000002
  0
ARC
  5
391
  8
0
 62
     7
 10
68.676869999999994
 20
144.90658400000001
 30
0.0
 40
1.2478489999999991
 50
273.97327300000001
 51
299.54610600000001
  0
ARC
  5
392
  8
0
 62
     7
 10
68.642613999999995
 20
144.64275000000001
 30
0.0
 40
1.0474939999999999
 50
308.32688799999988
 51
73.488338999999996
  0
ARC
  5
393
  8
0
 62
     7
 10
68.705946999999995
 20
144.37187299999999
 30
0.0
 40
1.2965349999999991
 50
79.585347999999996
 51
87.46311
  0
ARC
  5
394
  8
0
 62
     7
 10
65.518951000000001
 20
144.40761000000001
 30
0.0
 40
1.2622530000000001
 50
93.766154
 51
118.917272
  0
ARC
  5
395
  8
0
 62
     7
 10
65.524422999999999
 20
144.67746199999999
 30
0.0
 40
1.0375490000000001
 50
126.4088439999999
 51
244.14089899999999
  0
ARC
  5
396
  8
0
 62
     7
 10
65.521963
 20
144.891929
 30
0.0
 40
1.2331920000000001
 50
248.59431499999999
 51
266.00467700000002
  0
ARC
  5
397
  8
0
 62
     7
 10
65.333822999999995
 20
144.926602
 30
0.0
 40
1.2689909999999991
 50
274.62021099999998
 51
299.67210299999988
  0
ARC
  5
398
  8
0
 62
     7
 10
65.314897999999999
 20
144.64345700000001
 30
0.0
 40
1.044154
 50
308.29830499999991
 51
73.308140000000009
  0
ARC
  5
399
  8
0
 62
     7
 10
65.348256999999975
 20
144.30904200000001
 30
0.0
 40
1.3609299999999991
 50
78.705219999999997
 51
86.301706999999979
  0
ARC
  5
39A
  8
0
 62
     7
 10
77.190933000000001
 20
141.09370899999999
 30
0.0
 40
1.248821999999999
 50
93.993341999999998
 51
119.547383
  0
ARC
  5
39B
  8
0
 62
     7
 10
77.246383999999992
 20
141.37386499999991
 30
0.0
 40
1.0491369999999991
 50
129.78129300000001
 51
262.19802299999992
  0
ARC
  5
39C
  8
0
 62
     7
 10
77.02422
 20
141.56961699999991
 30
0.0
 40
1.237747999999999
 50
273.69392399999998
 51
299.02578599999993
  0
ARC
  5
39D
  8
0
 62
     7
 10
76.995633999999995
 20
141.31711100000001
 30
0.0
 40
1.041328
 50
307.16960599999987
 51
69.186083999999994
  0
ARC
  5
39E
  8
0
 62
     7
 10
76.99345799999999
 20
141.02649899999989
 30
0.0
 40
1.3176419999999991
 50
73.59229599999999
 51
85.189155
  0
ARC
  5
39F
  8
0
 62
     7
 10
73.850971000000001
 20
141.08971699999989
 30
0.0
 40
1.252008999999999
 50
93.418070000000014
 51
119.0964179999999
  0
ARC
  5
3A0
  8
0
 62
     7
 10
73.897891999999999
 20
141.36668700000001
 30
0.0
 40
1.0476430000000001
 50
128.750238
 51
258.25587300000001
  0
ARC
  5
3A1
  8
0
 62
     7
 10
73.828991000000002
 20
141.71950100000001
 30
0.0
 40
1.3860609999999991
 50
264.02262999999999
 51
267.82241599999998
  0
ARC
  5
3A2
  8
0
 62
     7
 10
73.709988999999993
 20
141.53532699999991
 30
0.0
 40
1.2027179999999991
 50
273.16177499999992
 51
299.04361299999988
  0
ARC
  5
3A3
  8
0
 62
     7
 10
73.768893000000006
 20
141.3294699999999
 30
0.0
 40
0.9953299999999998
 50
301.8332299999999
 51
11.382868999999991
  0
ARC
  5
3A4
  8
0
 62
     7
 10
73.749546999999993
 20
141.31830400000001
 30
0.0
 40
1.0165239999999991
 50
11.784668999999999
 51
80.029006999999993
  0
ARC
  5
3A5
  8
0
 62
     7
 10
73.670392000000007
 20
140.98395400000001
 30
0.0
 40
1.359677
 50
79.183347999999995
 51
85.531513000000004
  0
ARC
  5
3A6
  8
0
 62
     7
 10
70.540643000000003
 20
141.061881
 30
0.0
 40
1.282632999999999
 50
95.068492000000006
 51
119.9484459999999
  0
ARC
  5
3A7
  8
0
 62
     7
 10
70.554218999999975
 20
141.35936100000001
 30
0.0
 40
1.0440259999999999
 50
128.77903499999999
 51
254.73462499999991
  0
ARC
  5
3A8
  8
0
 62
     7
 10
70.514248999999992
 20
141.68633299999999
 30
0.0
 40
1.3546849999999999
 50
260.01404500000001
 51
266.32113900000002
  0
ARC
  5
3A9
  8
0
 62
     7
 10
70.348063999999994
 20
141.60721000000001
 30
0.0
 40
1.2752349999999999
 50
273.56355599999989
 51
298.60613799999987
  0
ARC
  5
3AA
  8
0
 62
     7
 10
70.337291000000008
 20
141.31909999999991
 30
0.0
 40
1.037971999999999
 50
306.77019699999988
 51
68.480958999999999
  0
ARC
  5
3AB
  8
0
 62
     7
 10
70.332422999999991
 20
141.03707499999999
 30
0.0
 40
1.305876
 50
72.825300999999996
 51
85.83238399999999
  0
ARC
  5
3AC
  8
0
 62
     7
 10
67.201422999999991
 20
141.074859
 30
0.0
 40
1.2687250000000001
 50
94.599308999999991
 51
119.661975
  0
ARC
  5
3AD
  8
0
 62
     7
 10
67.220146999999983
 20
141.3579
 30
0.0
 40
1.043814
 50
128.276161
 51
253.33645599999991
  0
ARC
  5
3AE
  8
0
 62
     7
 10
67.186941000000004
 20
141.6919879999999
 30
0.0
 40
1.360349
 50
258.71917200000001
 51
266.32250199999999
  0
ARC
  5
3AF
  8
0
 62
     7
 10
67.044533999999999
 20
141.54071599999989
 30
0.0
 40
1.2075359999999999
 50
272.61786899999993
 51
298.60893499999997
  0
ARC
  5
3B0
  8
0
 62
     7
 10
67.112678000000002
 20
141.32350400000001
 30
0.0
 40
0.9852059999999999
 50
301.17936200000003
 51
5.3118569999999989
  0
ARC
  5
3B1
  8
0
 62
     7
 10
67.073643999999987
 20
141.310474
 30
0.0
 40
1.025320999999999
 50
5.8348910000000007
 51
78.433435000000003
  0
ARC
  5
3B2
  8
0
 62
     7
 10
67.008375999999984
 20
141.00160099999991
 30
0.0
 40
1.34101
 50
78.347515999999999
 51
86.095611000000005
  0
ARC
  5
3B3
  8
0
 62
     7
 10
62.131976000000002
 20
137.80894599999991
 30
0.0
 40
1.181795999999999
 50
91.159690999999995
 51
117.983862
  0
ARC
  5
3B4
  8
0
 62
     7
 10
62.066732000000002
 20
138.021692
 30
0.0
 40
0.964235
 50
120.4928419999999
 51
178.64698100000001
  0
ARC
  5
3B5
  8
0
 62
     7
 10
62.133887999999999
 20
138.00804799999989
 30
0.0
 40
1.031763999999999
 50
177.97752500000001
 51
231.727473
  0
ARC
  5
3B6
  8
0
 62
     7
 10
62.076152999999998
 20
138.00722400000001
 30
0.0
 40
0.9963639999999999
 50
234.305454
 51
264.81942400000003
  0
ARC
  5
3B7
  8
0
 62
     7
 10
62.134878999999998
 20
138.32664999999989
 30
0.0
 40
1.320120999999999
 50
263.532715
 51
268.83579600000002
  0
ARC
  5
3B8
  8
0
 62
     7
 10
62.077519999999993
 20
138.16753999999989
 30
0.0
 40
1.1611400000000001
 50
271.507046
 51
298.454793
  0
ARC
  5
3B9
  8
0
 62
     7
 10
62.144696000000003
 20
137.96405499999989
 30
0.0
 40
0.950985
 50
300.738381
 51
352.46606099999991
  0
ARC
  5
3BA
  8
0
 62
     7
 10
62.045192
 20
137.9871939999999
 30
0.0
 40
1.0527109999999991
 50
351.92757999999992
 51
46.631382999999992
  0
ARC
  5
3BB
  8
0
 62
     7
 10
62.133752999999999
 20
138.01230000000001
 30
0.0
 40
0.974787
 50
49.403275000000001
 51
86.172352000000004
  0
ARC
  5
3BC
  8
0
 62
     7
 10
62.073005000000002
 20
137.68103899999991
 30
0.0
 40
1.3099299999999989
 50
84.488156000000004
 51
88.466627000000017
  0
ARC
  5
3BD
  8
0
 62
     7
 10
62.187337999999997
 20
144.3936139999999
 30
0.0
 40
1.275989
 50
93.562207999999998
 51
118.595434
  0
ARC
  5
3BE
  8
0
 62
     7
 10
62.197930999999997
 20
144.68239199999991
 30
0.0
 40
1.0380409999999991
 50
126.76542999999999
 51
248.487629
  0
ARC
  5
3BF
  8
0
 62
     7
 10
62.203530000000008
 20
144.96427600000001
 30
0.0
 40
1.3060350000000001
 50
252.79788999999991
 51
265.80788200000001
  0
ARC
  5
3C0
  8
0
 62
     7
 10
61.994723
 20
144.93903599999999
 30
0.0
 40
1.2823199999999999
 50
275.070562
 51
299.95246200000003
  0
ARC
  5
3C1
  8
0
 62
     7
 10
61.981017999999999
 20
144.64204699999991
 30
0.0
 40
1.0441940000000001
 50
308.77511299999998
 51
74.726973000000001
  0
ARC
  5
3C2
  8
0
 62
     7
 10
62.021119999999989
 20
144.31792300000001
 30
0.0
 40
1.3520119999999991
 50
79.992041
 51
86.313192000000001
  0
ARC
  5
3C3
  8
0
 62
     7
 10
60.519056999999989
 20
141.08971699999989
 30
0.0
 40
1.252008999999999
 50
93.418070000000014
 51
119.0964179999999
  0
ARC
  5
3C4
  8
0
 62
     7
 10
60.565977000000011
 20
141.36668700000001
 30
0.0
 40
1.0476430000000001
 50
128.750238
 51
258.25587300000001
  0
ARC
  5
3C5
  8
0
 62
     7
 10
60.497076
 20
141.71950100000001
 30
0.0
 40
1.3860609999999991
 50
264.02262999999999
 51
267.82241599999998
  0
ARC
  5
3C6
  8
0
 62
     7
 10
60.378073999999998
 20
141.53532699999991
 30
0.0
 40
1.2027179999999991
 50
273.16177499999992
 51
299.04361299999988
  0
ARC
  5
3C7
  8
0
 62
     7
 10
60.436978000000003
 20
141.3294699999999
 30
0.0
 40
0.9953299999999998
 50
301.8332299999999
 51
11.382868999999991
  0
ARC
  5
3C8
  8
0
 62
     7
 10
60.417631999999998
 20
141.31830400000001
 30
0.0
 40
1.0165239999999991
 50
11.784668999999999
 51
80.029006999999993
  0
ARC
  5
3C9
  8
0
 62
     7
 10
60.338476999999997
 20
140.98395400000001
 30
0.0
 40
1.359677
 50
79.183347999999995
 51
85.531513000000004
  0
ARC
  5
3CA
  8
0
 62
     7
 10
63.819783999999999
 20
154.49029599999989
 30
0.0
 40
1.1820959999999989
 50
92.331057000000015
 51
118.931264
  0
ARC
  5
3CB
  8
0
 62
     7
 10
63.755106000000012
 20
154.69105499999989
 30
0.0
 40
0.9759439999999999
 50
121.31038599999999
 51
178.61902599999991
  0
ARC
  5
3CC
  8
0
 62
     7
 10
63.823292000000002
 20
154.7089409999999
 30
0.0
 40
1.0438609999999999
 50
179.6907129999999
 51
267.16730699999999
  0
ARC
  5
3CD
  8
0
 62
     7
 10
63.694491999999997
 20
154.886222
 30
0.0
 40
1.2223079999999991
 50
273.62176799999997
 51
299.36412300000001
  0
ARC
  5
3CE
  8
0
 62
     7
 10
63.647004000000003
 20
154.64505399999999
 30
0.0
 40
1.047645999999999
 50
308.129299
 51
73.263357999999997
  0
ARC
  5
3CF
  8
0
 62
     7
 10
63.689999
 20
154.35537899999991
 30
0.0
 40
1.3185679999999991
 50
78.685348000000005
 51
86.447348000000005
  0
ARC
  5
3D0
  8
0
 62
     7
 10
63.781293999999988
 20
147.85911100000001
 30
0.0
 40
1.135705999999999
 50
90.48377099999999
 51
118.07265700000001
  0
ARC
  5
3D1
  8
0
 62
     7
 10
63.716783999999997
 20
148.056646
 30
0.0
 40
0.9317499999999999
 50
120.289311
 51
166.337492
  0
ARC
  5
3D2
  8
0
 62
     7
 10
63.861185999999989
 20
148.01214999999991
 30
0.0
 40
1.0826139999999991
 50
165.85432599999999
 51
219.45166499999999
  0
ARC
  5
3D3
  8
0
 62
     7
 10
63.721074000000002
 20
147.95299099999991
 30
0.0
 40
0.937837
 50
222.101091
 51
265.72593000000001
  0
ARC
  5
3D4
  8
0
 62
     7
 10
63.781700999999998
 20
148.281002
 30
0.0
 40
1.269963999999999
 50
264.10097999999988
 51
269.54901799999988
  0
ARC
  5
3D5
  8
0
 62
     7
 10
63.741164000000012
 20
148.172721
 30
0.0
 40
1.1620449999999991
 50
271.50601299999988
 51
298.44345499999991
  0
ARC
  5
3D6
  8
0
 62
     7
 10
63.808928000000002
 20
147.968174
 30
0.0
 40
0.9506669999999999
 50
300.724581
 51
352.47303399999998
  0
ARC
  5
3D7
  8
0
 62
     7
 10
63.709117999999997
 20
147.99130199999991
 30
0.0
 40
1.0526930000000001
 50
351.9366839999999
 51
46.645750999999997
  0
ARC
  5
3D8
  8
0
 62
     7
 10
63.797235000000001
 20
148.01596499999999
 30
0.0
 40
0.9754080000000001
 50
49.415883999999998
 51
86.165052000000003
  0
ARC
  5
3D9
  8
0
 62
     7
 10
63.736651999999999
 20
147.68531499999989
 30
0.0
 40
1.3099299999999989
 50
84.488156000000004
 51
88.466627000000017
  0
ARC
  5
3DA
  8
0
 62
     7
 10
65.511298999999994
 20
151.12982600000001
 30
0.0
 40
1.216623
 50
93.546498
 51
119.57692400000001
  0
ARC
  5
3DB
  8
0
 62
     7
 10
65.45308
 20
151.33287799999991
 30
0.0
 40
1.0125090000000001
 50
122.384373
 51
191.75306199999989
  0
ARC
  5
3DC
  8
0
 62
     7
 10
65.43289
 20
151.33552299999991
 30
0.0
 40
0.9933030000000001
 50
192.139679
 51
259.90445599999993
  0
ARC
  5
3DD
  8
0
 62
     7
 10
65.483233999999996
 20
151.623221
 30
0.0
 40
1.2853719999999991
 50
259.94304899999997
 51
267.89588099999997
  0
ARC
  5
3DE
  8
0
 62
     7
 10
65.390726000000001
 20
151.52785700000001
 30
0.0
 40
1.1900040000000001
 50
272.182301
 51
298.53299500000003
  0
ARC
  5
3DF
  8
0
 62
     7
 10
65.462508
 20
151.31166499999989
 30
0.0
 40
0.966619
 50
300.916786
 51
358.3683979999999
  0
ARC
  5
3E0
  8
0
 62
     7
 10
65.374594999999999
 20
151.29174399999999
 30
0.0
 40
1.0541670000000001
 50
359.58684199999988
 51
86.658431999999991
  0
ARC
  5
3E1
  8
0
 62
     7
 10
68.845938000000004
 20
151.129367
 30
0.0
 40
1.217557
 50
93.890098999999992
 51
119.804855
  0
ARC
  5
3E2
  8
0
 62
     7
 10
68.914692000000002
 20
151.37903600000001
 30
0.0
 40
1.0512719999999991
 50
129.871554
 51
261.72209399999991
  0
ARC
  5
3E3
  8
0
 62
     7
 10
68.751331000000008
 20
151.42535699999999
 30
0.0
 40
1.086706999999999
 50
270.63292000000001
 51
303.545005
  0
ARC
  5
3E4
  8
0
 62
     7
 10
68.773149000000004
 20
151.31683100000001
 30
0.0
 40
0.985086
 50
305.97612700000002
 51
358.02381000000003
  0
ARC
  5
3E5
  8
0
 62
     7
 10
68.729325000000003
 20
151.31255999999999
 30
0.0
 40
1.0287539999999999
 50
358.34570999999988
 51
76.019781000000009
  0
ARC
  5
3E6
  8
0
 62
     7
 10
68.660049000000001
 20
150.97019499999999
 30
0.0
 40
1.3778010000000001
 50
76.663825000000003
 51
85.700820999999976
  0
ARC
  5
3E7
  8
0
 62
     7
 10
72.156109000000001
 20
151.172281
 30
0.0
 40
1.1736279999999999
 50
93.164652000000004
 51
119.8158669999999
  0
ARC
  5
3E8
  8
0
 62
     7
 10
72.098772999999994
 20
151.35272800000001
 30
0.0
 40
0.989367
 50
122.13145799999999
 51
180.0140649999999
  0
ARC
  5
3E9
  8
0
 62
     7
 10
72.149065000000007
 20
151.33784
 30
0.0
 40
1.0397620000000001
 50
179.19296199999999
 51
228.22216
  0
ARC
  5
3EA
  8
0
 62
     7
 10
72.064280000000011
 20
151.30338199999991
 30
0.0
 40
0.9584239999999999
 50
230.630224
 51
261.11095899999992
  0
ARC
  5
3EB
  8
0
 62
     7
 10
72.128349999999998
 20
151.576774
 30
0.0
 40
1.238612
 50
260.13692400000002
 51
268.28675099999992
  0
ARC
  5
3EC
  8
0
 62
     7
 10
72.075792000000007
 20
151.50013399999989
 30
0.0
 40
1.1615219999999991
 50
270.76592599999992
 51
297.90039200000001
  0
ARC
  5
3ED
  8
0
 62
     7
 10
72.141643000000002
 20
151.29305600000001
 30
0.0
 40
0.9484899999999999
 50
300.23892199999989
 51
352.47866499999992
  0
ARC
  5
3EE
  8
0
 62
     7
 10
72.021167000000005
 20
151.32130900000001
 30
0.0
 40
1.071698
 50
351.824298
 51
45.084781999999997
  0
ARC
  5
3EF
  8
0
 62
     7
 10
72.110668000000004
 20
151.3507139999999
 30
0.0
 40
0.9886000000000002
 50
47.55556099999999
 51
84.055977999999996
  0
ARC
  5
3F0
  8
0
 62
     7
 10
72.042830000000009
 20
151.0237679999999
 30
0.0
 40
1.321240999999999
 50
82.598088000000004
 51
87.896837000000005
  0
ARC
  5
3F1
  8
0
 62
     7
 10
75.565725999999984
 20
150.959487
 30
0.0
 40
1.3902989999999991
 50
95.175295999999989
 51
114.73009399999999
  0
ARC
  5
3F2
  8
0
 62
     7
 10
75.587304000000003
 20
151.37134900000001
 30
0.0
 40
1.043042
 50
125.3317669999999
 51
261.89881400000002
  0
ARC
  5
3F3
  8
0
 62
     7
 10
75.387474999999995
 20
151.52878599999991
 30
0.0
 40
1.1912430000000001
 50
272.5424109999999
 51
298.76711199999988
  0
ARC
  5
3F4
  8
0
 62
     7
 10
75.458737999999997
 20
151.314885
 30
0.0
 40
0.970289
 50
301.15769799999998
 51
359.53686499999992
  0
ARC
  5
3F5
  8
0
 62
     7
 10
75.376705999999999
 20
151.29366899999999
 30
0.0
 40
1.052373999999999
 50
0.7280910000000002
 51
86.534645999999995
  0
ARC
  5
3F6
  8
0
 62
     7
 10
67.120908
 20
147.83927600000001
 30
0.0
 40
1.1556949999999999
 50
91.052105000000012
 51
118.212858
  0
ARC
  5
3F7
  8
0
 62
     7
 10
67.056753999999998
 20
148.04043300000001
 30
0.0
 40
0.948891
 50
120.542063
 51
172.58918899999989
  0
ARC
  5
3F8
  8
0
 62
     7
 10
67.164630000000002
 20
148.01398599999999
 30
0.0
 40
1.059348999999999
 50
171.9232879999999
 51
225.259637
  0
ARC
  5
3F9
  8
0
 62
     7
 10
67.060756999999995
 20
147.975334
 30
0.0
 40
0.959909
 50
228.04071200000001
 51
265.12028500000002
  0
ARC
  5
3FA
  8
0
 62
     7
 10
67.123120999999998
 20
148.304901
 30
0.0
 40
1.2940359999999991
 50
263.6101369999999
 51
268.96241400000002
  0
ARC
  5
3FB
  8
0
 62
     7
 10
67.090908999999996
 20
148.14673199999999
 30
0.0
 40
1.1356889999999991
 50
270.44288999999992
 51
298.04216400000001
  0
ARC
  5
3FC
  8
0
 62
     7
 10
67.155715000000001
 20
147.94873799999991
 30
0.0
 40
0.9311629999999999
 50
300.25066600000002
 51
346.32643300000001
  0
ARC
  5
3FD
  8
0
 62
     7
 10
67.011238000000006
 20
147.99330900000001
 30
0.0
 40
1.082120999999999
 50
345.84168
 51
39.473596000000001
  0
ARC
  5
3FE
  8
0
 62
     7
 10
67.149785999999992
 20
148.05150699999999
 30
0.0
 40
0.939168
 50
42.107247999999998
 51
85.69579499999999
  0
ARC
  5
3FF
  8
0
 62
     7
 10
67.089034999999996
 20
147.72407100000001
 30
0.0
 40
1.27075
 50
84.072188999999995
 51
89.519684999999996
  0
ARC
  5
400
  8
0
 62
     7
 10
70.457820999999996
 20
147.83521699999989
 30
0.0
 40
1.1599589999999991
 50
91.506450999999998
 51
118.48397900000001
  0
ARC
  5
401
  8
0
 62
     7
 10
70.391008999999997
 20
148.0371899999999
 30
0.0
 40
0.9513149999999999
 50
120.7490759999999
 51
172.46351000000001
  0
ARC
  5
402
  8
0
 62
     7
 10
70.490086000000005
 20
148.01416099999989
 30
0.0
 40
1.052602
 50
171.92815200000001
 51
226.633758
  0
ARC
  5
403
  8
0
 62
     7
 10
70.401342
 20
147.98902799999999
 30
0.0
 40
0.9745409999999999
 50
229.41324700000001
 51
266.18842699999988
  0
ARC
  5
404
  8
0
 62
     7
 10
70.462901000000002
 20
148.334102
 30
0.0
 40
1.3235030000000001
 50
264.522153
 51
268.45974999999987
  0
ARC
  5
405
  8
0
 62
     7
 10
70.40338100000001
 20
148.193254
 30
0.0
 40
1.1824190000000001
 50
271.16041200000001
 51
297.96193799999992
  0
ARC
  5
406
  8
0
 62
     7
 10
70.468761999999984
 20
147.97945699999991
 30
0.0
 40
0.9638620000000001
 50
300.48900800000001
 51
358.65657499999992
  0
ARC
  5
407
  8
0
 62
     7
 10
70.400875999999997
 20
147.99328399999999
 30
0.0
 40
1.0321260000000001
 50
357.97754700000002
 51
51.710492999999992
  0
ARC
  5
408
  8
0
 62
     7
 10
70.458939999999998
 20
147.99454399999991
 30
0.0
 40
0.9961649999999998
 50
54.287683999999999
 51
84.803453000000005
  0
ARC
  5
409
  8
0
 62
     7
 10
70.399841000000009
 20
147.6707989999999
 30
0.0
 40
1.3242629999999991
 50
83.525517000000008
 51
88.81069699999999
  0
ARC
  5
40A
  8
0
 62
     7
 10
73.77221999999999
 20
147.85890900000001
 30
0.0
 40
1.1358740000000001
 50
89.792946999999998
 51
117.58886099999999
  0
ARC
  5
40B
  8
0
 62
     7
 10
73.707253000000009
 20
148.0625
 30
0.0
 40
0.9260729999999998
 50
119.86054900000001
 51
165.0486929999999
  0
ARC
  5
40C
  8
0
 62
     7
 10
73.866070999999991
 20
148.0085399999999
 30
0.0
 40
1.093493
 50
164.464011
 51
213.10084900000001
  0
ARC
  5
40D
  8
0
 62
     7
 10
73.705304999999996
 20
147.93951799999999
 30
0.0
 40
0.921611
 50
214.9648159999999
 51
259.714562
  0
ARC
  5
40E
  8
0
 62
     7
 10
73.766342000000009
 20
148.19550000000001
 30
0.0
 40
1.184464999999999
 50
259.02037300000001
 51
270.48290600000001
  0
ARC
  5
40F
  8
0
 62
     7
 10
73.761870000000002
 20
148.13130000000001
 30
0.0
 40
1.1203160000000001
 50
270.739284
 51
298.42871699999989
  0
ARC
  5
410
  8
0
 62
     7
 10
73.821765999999997
 20
147.94602699999999
 30
0.0
 40
0.9295489999999999
 50
300.61919599999987
 51
346.53421800000001
  0
ARC
  5
411
  8
0
 62
     7
 10
73.667259000000001
 20
147.996612
 30
0.0
 40
1.091669
 50
345.84059499999989
 51
34.020790999999988
  0
ARC
  5
412
  8
0
 62
     7
 10
73.825143999999995
 20
148.06517999999991
 30
0.0
 40
0.9229829999999999
 50
35.976872
 51
80.351422000000014
  0
ARC
  5
413
  8
0
 62
     7
 10
73.764161999999999
 20
147.80623299999999
 30
0.0
 40
1.1886060000000001
 50
79.545481000000009
 51
89.413658999999996
  0
ARC
  5
414
  8
0
 62
     7
 10
77.113557
 20
147.858555
 30
0.0
 40
1.1362620000000001
 50
90.483760000000004
 51
118.06564899999999
  0
ARC
  5
415
  8
0
 62
     7
 10
77.048866000000004
 20
148.05650299999991
 30
0.0
 40
0.9318519999999999
 50
120.282602
 51
166.32994999999991
  0
ARC
  5
416
  8
0
 62
     7
 10
77.192836999999997
 20
148.01211599999991
 30
0.0
 40
1.082271999999999
 50
165.8479199999999
 51
219.464236
  0
ARC
  5
417
  8
0
 62
     7
 10
77.053202999999996
 20
147.953159
 30
0.0
 40
0.9379959999999998
 50
222.10605299999989
 51
265.73264199999988
  0
ARC
  5
418
  8
0
 62
     7
 10
77.113962999999998
 20
148.28169199999991
 30
0.0
 40
1.270654
 50
264.10258199999993
 51
269.54911399999997
  0
ARC
  5
419
  8
0
 62
     7
 10
77.073433999999992
 20
148.17214599999991
 30
0.0
 40
1.16147
 50
271.50620199999997
 51
298.45062899999999
  0
ARC
  5
41A
  8
0
 62
     7
 10
77.140884999999983
 20
147.9681239999999
 30
0.0
 40
0.9507100000000001
 50
300.73484300000001
 51
352.47642699999989
  0
ARC
  5
41B
  8
0
 62
     7
 10
77.040824999999998
 20
147.99126100000001
 30
0.0
 40
1.0529850000000001
 50
351.94118900000001
 51
46.632218000000002
  0
ARC
  5
41C
  8
0
 62
     7
 10
77.129460999999992
 20
148.01634899999991
 30
0.0
 40
0.975026
 50
49.407437000000002
 51
86.162880000000001
  0
ARC
  5
41D
  8
0
 62
     7
 10
77.068899999999999
 20
147.68561099999999
 30
0.0
 40
1.3096350000000001
 50
84.487343999999993
 51
88.465770999999989
  0
ARC
  5
41E
  8
0
 62
     7
 10
67.173893000000007
 20
154.4432929999999
 30
0.0
 40
1.2303599999999999
 50
93.457689999999999
 51
119.15917399999989
  0
ARC
  5
41F
  8
0
 62
     7
 10
67.219226000000006
 20
154.692836
 30
0.0
 40
1.0470099999999991
 50
128.01438899999991
 51
253.48964000000001
  0
ARC
  5
420
  8
0
 62
     7
 10
67.176664999999986
 20
154.98268799999991
 30
0.0
 40
1.318581999999999
 50
258.84988599999991
 51
266.65323299999989
  0
ARC
  5
421
  8
0
 62
     7
 10
67.051589000000007
 20
154.848084
 30
0.0
 40
1.1827080000000001
 50
272.330759
 51
298.92365799999999
  0
ARC
  5
422
  8
0
 62
     7
 10
67.116501999999997
 20
154.64681200000001
 30
0.0
 40
0.9759879999999999
 50
301.30357099999998
 51
358.61332999999991
  0
ARC
  5
423
  8
0
 62
     7
 10
67.048352000000008
 20
154.62880899999999
 30
0.0
 40
1.043868
 50
359.69177999999988
 51
87.181135999999995
  0
ARC
  5
424
  8
0
 62
     7
 10
70.504518000000004
 20
154.451324
 30
0.0
 40
1.2225280000000001
 50
93.620120000000014
 51
119.36123000000001
  0
ARC
  5
425
  8
0
 62
     7
 10
70.552012000000005
 20
154.69275300000001
 30
0.0
 40
1.0476529999999999
 50
128.13314099999991
 51
253.269294
  0
ARC
  5
426
  8
0
 62
     7
 10
70.509004000000004
 20
154.98120800000001
 30
0.0
 40
1.317388
 50
258.68016899999992
 51
266.44540899999993
  0
ARC
  5
427
  8
0
 62
     7
 10
70.361767
 20
154.8979139999999
 30
0.0
 40
1.2333019999999999
 50
273.04715099999999
 51
298.84796499999999
  0
ARC
  5
428
  8
0
 62
     7
 10
70.315118999999996
 20
154.64452900000001
 30
0.0
 40
1.0466569999999991
 50
307.81363900000002
 51
73.820439000000007
  0
ARC
  5
429
  8
0
 62
     7
 10
70.358145999999991
 20
154.34552999999991
 30
0.0
 40
1.3276859999999999
 50
79.207059000000015
 51
87.013176999999999
  0
ARC
  5
42A
  8
0
 62
     7
 10
73.81724100000001
 20
154.47602499999991
 30
0.0
 40
1.1960879999999989
 50
91.960360000000009
 51
118.50513100000001
  0
ARC
  5
42B
  8
0
 62
     7
 10
73.748142999999999
 20
154.68993699999999
 30
0.0
 40
0.9760089999999999
 50
120.93415899999999
 51
178.54207500000001
  0
ARC
  5
42C
  8
0
 62
     7
 10
73.817357000000001
 20
154.710465
 30
0.0
 40
1.0449159999999991
 50
179.764002
 51
267.749505
  0
ARC
  5
42D
  8
0
 62
     7
 10
73.715487999999993
 20
154.846282
 30
0.0
 40
1.1814949999999991
 50
272.95158500000002
 51
299.36826899999988
  0
ARC
  5
42E
  8
0
 62
     7
 10
73.780152000000001
 20
154.64977500000001
 30
0.0
 40
0.9793469999999999
 50
301.71009900000001
 51
359.78328799999991
  0
ARC
  5
42F
  8
0
 62
     7
 10
73.717375000000004
 20
154.630854
 30
0.0
 40
1.0422279999999999
 50
0.836583
 51
86.757503999999997
  0
ARC
  5
430
  8
0
 62
     7
 10
77.152062000000001
 20
154.48968400000001
 30
0.0
 40
1.1827080000000001
 50
92.330739000000023
 51
118.923638
  0
ARC
  5
431
  8
0
 62
     7
 10
77.087148999999997
 20
154.690956
 30
0.0
 40
0.9759879999999999
 50
121.303551
 51
178.61331000000001
  0
ARC
  5
432
  8
0
 62
     7
 10
77.155298999999985
 20
154.70895899999999
 30
0.0
 40
1.0438670000000001
 50
179.691743
 51
267.18117299999989
  0
ARC
  5
433
  8
0
 62
     7
 10
77.026756999999989
 20
154.8861379999999
 30
0.0
 40
1.2222239999999991
 50
273.62172500000008
 51
299.36513100000002
  0
ARC
  5
434
  8
0
 62
     7
 10
76.979140999999998
 20
154.64502799999991
 30
0.0
 40
1.0476920000000001
 50
308.13470799999999
 51
73.259904000000006
  0
ARC
  5
435
  8
0
 62
     7
 10
77.022336999999993
 20
154.356525
 30
0.0
 40
1.31742
 50
78.680994999999996
 51
86.447675999999987
  0
ARC
  5
436
  8
0
 62
     7
 10
62.233455999999997
 20
150.95984300000001
 30
0.0
 40
1.3899440000000001
 50
95.176186999999985
 51
114.731233
  0
ARC
  5
437
  8
0
 62
     7
 10
62.255356999999997
 20
151.371398
 30
0.0
 40
1.0431349999999999
 50
125.341594
 51
261.88219099999998
  0
ARC
  5
438
  8
0
 62
     7
 10
62.055194999999998
 20
151.52940899999999
 30
0.0
 40
1.1918649999999991
 50
272.54205499999989
 51
298.75946299999993
  0
ARC
  5
439
  8
0
 62
     7
 10
62.126593000000007
 20
151.3150389999999
 30
0.0
 40
0.970434
 50
301.15425800000003
 51
359.52784500000001
  0
ARC
  5
43A
  8
0
 62
     7
 10
62.044702999999998
 20
151.29365100000001
 30
0.0
 40
1.0523769999999999
 50
0.7290840000000001
 51
86.548607999999987
  0
ARC
  5
43B
  8
0
 62
     7
 10
60.440306000000007
 20
147.85890900000001
 30
0.0
 40
1.1358740000000001
 50
89.792946999999998
 51
117.58886099999999
  0
ARC
  5
43C
  8
0
 62
     7
 10
60.375337999999999
 20
148.0625
 30
0.0
 40
0.9260729999999998
 50
119.86054900000001
 51
165.0486929999999
  0
ARC
  5
43D
  8
0
 62
     7
 10
60.534156999999993
 20
148.0085399999999
 30
0.0
 40
1.093493
 50
164.464011
 51
213.10084900000001
  0
ARC
  5
43E
  8
0
 62
     7
 10
60.373390000000001
 20
147.93951799999999
 30
0.0
 40
0.921611
 50
214.9648159999999
 51
259.714562
  0
ARC
  5
43F
  8
0
 62
     7
 10
60.434426999999992
 20
148.19550000000001
 30
0.0
 40
1.184464999999999
 50
259.02037300000001
 51
270.48290600000001
  0
ARC
  5
440
  8
0
 62
     7
 10
60.429960999999992
 20
148.1307459999999
 30
0.0
 40
1.119761
 50
270.73934199999991
 51
298.43590399999999
  0
ARC
  5
441
  8
0
 62
     7
 10
60.489673000000003
 20
147.94588400000001
 30
0.0
 40
0.9294489999999999
 50
300.62602299999992
 51
346.54176699999988
  0
ARC
  5
442
  8
0
 62
     7
 10
60.334702
 20
147.99658199999999
 30
0.0
 40
1.092044
 50
345.84718199999992
 51
34.009431999999997
  0
ARC
  5
443
  8
0
 62
     7
 10
60.493188000000004
 20
148.065518
 30
0.0
 40
0.9226469999999999
 50
35.966042999999999
 51
80.348713000000004
  0
ARC
  5
444
  8
0
 62
     7
 10
60.432255000000012
 20
147.80691200000001
 30
0.0
 40
1.187926
 50
79.542497999999995
 51
89.413739000000007
  0
ARC
  5
445
  8
0
 62
     7
 10
60.485326000000001
 20
154.47602499999991
 30
0.0
 40
1.1960879999999989
 50
91.960360000000009
 51
118.50513100000001
  0
ARC
  5
446
  8
0
 62
     7
 10
60.416227999999997
 20
154.68993699999999
 30
0.0
 40
0.9760089999999999
 50
120.93415899999999
 51
178.54207500000001
  0
ARC
  5
447
  8
0
 62
     7
 10
60.485442999999997
 20
154.710465
 30
0.0
 40
1.0449159999999991
 50
179.764002
 51
267.749505
  0
ARC
  5
448
  8
0
 62
     7
 10
60.383594000000002
 20
154.84568899999991
 30
0.0
 40
1.1809019999999999
 50
272.95202799999998
 51
299.37577700000003
  0
ARC
  5
449
  8
0
 62
     7
 10
60.448027000000003
 20
154.6496709999999
 30
0.0
 40
0.979298
 50
301.71704199999988
 51
359.78936599999997
  0
ARC
  5
44A
  8
0
 62
     7
 10
60.385204999999999
 20
154.63087200000001
 30
0.0
 40
1.042224
 50
0.8355799999999998
 51
86.743460999999996
  0
ARC
  5
44B
  8
0
 62
     7
 10
68.973326999999983
 20
156.27442400000001
 30
0.0
 40
18.050840000000001
 50
96.162441999999999
 51
175.708619
  0
ARC
  5
44C
  8
0
 62
     7
 10
71.989964999999984
 20
156.3819399999999
 30
0.0
 40
17.934733999999992
 50
3.9748139999999998
 51
84.077884999999995
  0
LINE
  5
44D
  8
0
 62
     7
 10
128.49399999999989
 20
178.9009999999999
 30
0.0
 11
128.32299999999989
 21
178.858
 31
0.0
  0
LINE
  5
44E
  8
0
 62
     7
 10
128.32299999999989
 20
178.858
 30
0.0
 11
128.21700000000001
 21
178.75200000000001
 31
0.0
  0
LINE
  5
44F
  8
0
 62
     7
 10
128.21700000000001
 20
178.75200000000001
 30
0.0
 11
128.17400000000001
 21
178.5809999999999
 31
0.0
  0
LINE
  5
450
  8
0
 62
     7
 10
128.17400000000001
 20
178.5809999999999
 30
0.0
 11
128.21700000000001
 21
178.41099999999989
 31
0.0
  0
LINE
  5
451
  8
0
 62
     7
 10
128.21700000000001
 20
178.41099999999989
 30
0.0
 11
128.32299999999989
 21
178.2829999999999
 31
0.0
  0
LINE
  5
452
  8
0
 62
     7
 10
128.32299999999989
 20
178.2829999999999
 30
0.0
 11
128.49399999999989
 21
178.24000000000001
 31
0.0
  0
LINE
  5
453
  8
0
 62
     7
 10
128.49399999999989
 20
178.24000000000001
 30
0.0
 11
128.66399999999999
 21
178.2829999999999
 31
0.0
  0
LINE
  5
454
  8
0
 62
     7
 10
128.66399999999999
 20
178.2829999999999
 30
0.0
 11
128.79199999999989
 21
178.41099999999989
 31
0.0
  0
LINE
  5
455
  8
0
 62
     7
 10
128.79199999999989
 20
178.41099999999989
 30
0.0
 11
128.83500000000001
 21
178.5809999999999
 31
0.0
  0
LINE
  5
456
  8
0
 62
     7
 10
128.83500000000001
 20
178.5809999999999
 30
0.0
 11
128.79199999999989
 21
178.75200000000001
 31
0.0
  0
LINE
  5
457
  8
0
 62
     7
 10
128.79199999999989
 20
178.75200000000001
 30
0.0
 11
128.66399999999999
 21
178.858
 31
0.0
  0
LINE
  5
458
  8
0
 62
     7
 10
128.66399999999999
 20
178.858
 30
0.0
 11
128.49399999999989
 21
178.9009999999999
 31
0.0
  0
LINE
  5
459
  8
0
 62
     7
 10
128.45099999999999
 20
179.24299999999991
 30
0.0
 11
128.2589999999999
 21
179.1999999999999
 31
0.0
  0
LINE
  5
45A
  8
0
 62
     7
 10
128.2589999999999
 20
179.1999999999999
 30
0.0
 11
128.08799999999999
 21
179.0929999999999
 31
0.0
  0
LINE
  5
45B
  8
0
 62
     7
 10
128.08799999999999
 20
179.0929999999999
 30
0.0
 11
127.95999999999999
 21
178.96499999999989
 31
0.0
  0
LINE
  5
45C
  8
0
 62
     7
 10
127.95999999999999
 20
178.96499999999989
 30
0.0
 11
127.85299999999989
 21
178.77299999999991
 31
0.0
  0
LINE
  5
45D
  8
0
 62
     7
 10
127.85299999999989
 20
178.77299999999991
 30
0.0
 11
127.8329999999999
 21
178.5809999999999
 31
0.0
  0
LINE
  5
45E
  8
0
 62
     7
 10
128.47200000000001
 20
178.9009999999999
 30
0.0
 11
128.30099999999999
 21
178.858
 31
0.0
  0
LINE
  5
45F
  8
0
 62
     7
 10
128.30099999999999
 20
178.858
 30
0.0
 11
128.19499999999991
 21
178.709
 31
0.0
  0
LINE
  5
460
  8
0
 62
     7
 10
128.19499999999991
 20
178.709
 30
0.0
 11
128.17400000000001
 21
178.53899999999999
 31
0.0
  0
LINE
  5
461
  8
0
 62
     7
 10
128.17400000000001
 20
178.53899999999999
 30
0.0
 11
128.238
 21
177.899
 31
0.0
  0
LINE
  5
462
  8
0
 62
     7
 10
128.238
 20
177.899
 30
0.0
 11
128.36600000000001
 21
177.25899999999999
 31
0.0
  0
LINE
  5
463
  8
0
 62
     7
 10
128.45099999999999
 20
179.24299999999991
 30
0.0
 11
129.83799999999991
 21
179.328
 31
0.0
  0
LINE
  5
464
  8
0
 62
     7
 10
128.47200000000001
 20
178.9009999999999
 30
0.0
 11
129.83799999999991
 21
179.0079999999999
 31
0.0
  0
LINE
  5
465
  8
0
 62
     7
 10
129.75200000000001
 20
175.38200000000001
 30
0.0
 11
129.64599999999999
 21
175.744
 31
0.0
  0
LINE
  5
466
  8
0
 62
     7
 10
129.64599999999999
 20
175.744
 30
0.0
 11
129.45400000000001
 21
176.06399999999999
 31
0.0
  0
LINE
  5
467
  8
0
 62
     7
 10
129.45400000000001
 20
176.06399999999999
 30
0.0
 11
129.19799999999989
 21
176.34099999999989
 31
0.0
  0
LINE
  5
468
  8
0
 62
     7
 10
129.19799999999989
 20
176.34099999999989
 30
0.0
 11
128.899
 21
176.55500000000001
 31
0.0
  0
LINE
  5
469
  8
0
 62
     7
 10
128.899
 20
176.55500000000001
 30
0.0
 11
128.536
 21
176.68299999999991
 31
0.0
  0
LINE
  5
46A
  8
0
 62
     7
 10
128.04599999999991
 20
177.17299999999989
 30
0.0
 11
128.15299999999991
 21
176.93899999999999
 31
0.0
  0
LINE
  5
46B
  8
0
 62
     7
 10
128.15299999999991
 20
176.93899999999999
 30
0.0
 11
128.32299999999989
 21
176.78899999999999
 31
0.0
  0
LINE
  5
46C
  8
0
 62
     7
 10
128.32299999999989
 20
176.78899999999999
 30
0.0
 11
128.536
 21
176.68299999999991
 31
0.0
  0
LINE
  5
46D
  8
0
 62
     7
 10
129.81599999999989
 20
174.8479999999999
 30
0.0
 11
129.75200000000001
 21
175.38200000000001
 31
0.0
  0
ARC
  5
46E
  8
0
 62
     7
 10
127.128272
 20
174.84435899999991
 30
0.0
 40
3.007693999999999
 50
0.4822500000000001
 51
17.471879000000001
  0
ARC
  5
46F
  8
0
 62
     7
 10
128.09048100000001
 20
175.10698500000001
 30
0.0
 40
2.0113929999999991
 50
18.565259000000001
 51
46.936014
  0
ARC
  5
470
  8
0
 62
     7
 10
128.25233899999989
 20
175.21276499999999
 30
0.0
 40
1.824173
 50
48.381762000000009
 51
72.950507000000002
  0
ARC
  5
471
  8
0
 62
     7
 10
128.100674
 20
174.81387799999999
 30
0.0
 40
2.2501720000000001
 50
72.236311999999984
 51
76.610871000000003
  0
LINE
  5
472
  8
0
 62
     7
 10
129.83799999999991
 20
176.107
 30
0.0
 11
129.83799999999991
 21
179.328
 31
0.0
  0
LINE
  5
473
  8
0
 62
     7
 10
129.83799999999991
 20
179.328
 30
0.0
 11
129.83799999999991
 21
176.107
 31
0.0
  0
LINE
  5
474
  8
0
 62
     7
 10
127.8329999999999
 20
178.5809999999999
 30
0.0
 11
127.89700000000001
 21
177.85599999999991
 31
0.0
  0
LINE
  5
475
  8
0
 62
     7
 10
127.89700000000001
 20
177.85599999999991
 30
0.0
 11
128.04599999999991
 21
177.17299999999989
 31
0.0
  0
LINE
  5
476
  8
0
 62
     7
 10
128.36600000000001
 20
177.25899999999999
 30
0.0
 11
128.45099999999999
 21
177.08799999999999
 31
0.0
  0
LINE
  5
477
  8
0
 62
     7
 10
128.45099999999999
 20
177.08799999999999
 30
0.0
 11
128.62200000000001
 21
177.00299999999999
 31
0.0
  0
LINE
  5
478
  8
0
 62
     7
 10
55.3887
 20
111.687
 30
0.0
 11
55.6023
 21
110.172
 31
0.0
  0
LINE
  5
479
  8
0
 62
     7
 10
55.6023
 20
110.172
 30
0.0
 11
55.921999999999997
 21
108.679
 31
0.0
  0
ARC
  5
47A
  8
0
 62
     7
 10
82.855888000000007
 20
106.1478689999999
 30
0.0
 40
35.083103000000001
 50
159.51209399999991
 51
179.69899499999991
  0
ARC
  5
47B
  8
0
 62
     7
 10
-98.684771999999995
 20
130.12223999999989
 30
0.0
 40
151.0932479999999
 50
352.39624500000002
 51
356.57922400000001
  0
ARC
  5
47C
  8
0
 62
     7
 10
-121.070684
 20
131.7728449999999
 30
0.0
 40
173.53804299999999
 50
356.47623499999997
 51
359.79132199999998
  0
ARC
  5
47D
  8
0
 62
     7
 10
249.05083099999999
 20
131.12600299999991
 30
0.0
 40
196.58462399999991
 50
179.995667
 51
184.47082
  0
ARC
  5
47E
  8
0
 62
     7
 10
225.001743
 20
129.59377900000001
 30
0.0
 40
172.48962299999991
 50
184.5861129999999
 51
187.75042999999991
  0
LINE
  5
47F
  8
0
 62
     7
 10
84.932599999999994
 20
108.679
 30
0.0
 11
85.274100000000004
 21
110.172
 31
0.0
  0
LINE
  5
480
  8
0
 62
     7
 10
85.274100000000004
 20
110.172
 30
0.0
 11
85.487000000000009
 21
111.687
 31
0.0
  0
ARC
  5
481
  8
0
 62
     7
 10
59.278967000000002
 20
106.2597699999999
 30
0.0
 40
33.823509999999992
 50
0.122637
 51
18.892429
  0
ARC
  5
482
  8
0
 62
     7
 10
64.23803199999999
 20
107.7856139999999
 30
0.0
 40
28.638000000000002
 50
19.216670999999991
 51
21.263301999999989
  0
ARC
  5
483
  8
0
 62
     7
 10
247.92479499999999
 20
131.11401099999989
 30
0.0
 40
159.51499200000001
 50
179.99035799999999
 51
187.559348
  0
ARC
  5
484
  8
0
 62
     7
 10
-82.668785999999997
 20
129.38722399999989
 30
0.0
 40
171.01813300000001
 50
352.25233300000002
 51
356.74653499999988
  0
ARC
  5
485
  8
0
 62
     7
 10
-106.8081139999999
 20
131.131812
 30
0.0
 40
195.21791899999999
 50
356.63741499999992
 51
0.002638
  0
LINE
  5
486
  8
0
 62
     7
 10
128.17400000000001
 20
178.5809999999999
 30
0.0
 11
128.49399999999989
 21
178.9009999999999
 31
0.0
  0
LINE
  5
487
  8
0
 62
     7
 10
128.238
 20
178.36799999999991
 30
0.0
 11
128.70699999999991
 21
178.83699999999999
 31
0.0
  0
LINE
  5
488
  8
0
 62
     7
 10
128.429
 20
178.261
 30
0.0
 11
128.83500000000001
 21
178.6459999999999
 31
0.0
  0
LINE
  5
489
  8
0
 62
     7
 10
129.81599999999989
 20
174.8479999999999
 30
0.0
 11
129.85900000000001
 21
174.63499999999991
 31
0.0
  0
LINE
  5
48A
  8
0
 62
     7
 10
129.85900000000001
 20
174.63499999999991
 30
0.0
 11
129.98699999999999
 21
174.4429999999999
 31
0.0
  0
LINE
  5
48B
  8
0
 62
     7
 10
129.98699999999999
 20
174.4429999999999
 30
0.0
 11
130.1579999999999
 21
174.31499999999991
 31
0.0
  0
LINE
  5
48C
  8
0
 62
     7
 10
130.1579999999999
 20
174.31499999999991
 30
0.0
 11
130.3489999999999
 21
174.22999999999999
 31
0.0
  0
LINE
  5
48D
  8
0
 62
     7
 10
130.136
 20
174.87
 30
0.0
 11
130.179
 21
174.74199999999999
 31
0.0
  0
LINE
  5
48E
  8
0
 62
     7
 10
130.179
 20
174.74199999999999
 30
0.0
 11
130.285
 21
174.614
 31
0.0
  0
LINE
  5
48F
  8
0
 62
     7
 10
130.285
 20
174.614
 30
0.0
 11
130.4139999999999
 21
174.571
 31
0.0
  0
LINE
  5
490
  8
0
 62
     7
 10
130.47699999999989
 20
174.22999999999999
 30
0.0
 11
129.81599999999989
 21
174.87
 31
0.0
  0
LINE
  5
491
  8
0
 62
     7
 10
130.8189999999999
 20
174.18700000000001
 30
0.0
 11
130.4139999999999
 21
174.571
 31
0.0
  0
LINE
  5
492
  8
0
 62
     7
 10
130.1579999999999
 20
174.82699999999991
 30
0.0
 11
129.774
 21
175.2109999999999
 31
0.0
  0
LINE
  5
493
  8
0
 62
     7
 10
131.203
 20
174.08000000000001
 30
0.0
 11
130.77600000000001
 21
174.50700000000001
 31
0.0
  0
LINE
  5
494
  8
0
 62
     7
 10
128.62200000000001
 20
176.66099999999989
 30
0.0
 11
128.024
 21
177.28
 31
0.0
  0
LINE
  5
495
  8
0
 62
     7
 10
130.11500000000001
 20
175.16800000000001
 30
0.0
 11
129.71000000000001
 21
175.57400000000001
 31
0.0
  0
LINE
  5
496
  8
0
 62
     7
 10
130.072
 20
175.53099999999989
 30
0.0
 11
128.55799999999991
 21
177.024
 31
0.0
  0
LINE
  5
497
  8
0
 62
     7
 10
128.387
 20
177.19499999999991
 30
0.0
 11
127.93899999999999
 21
177.64299999999989
 31
0.0
  0
LINE
  5
498
  8
0
 62
     7
 10
129.90199999999999
 20
175.97900000000001
 30
0.0
 11
129.02699999999999
 21
176.85299999999989
 31
0.0
  0
LINE
  5
499
  8
0
 62
     7
 10
128.28100000000001
 20
177.59999999999991
 30
0.0
 11
127.875
 21
178.00499999999991
 31
0.0
  0
LINE
  5
49A
  8
0
 62
     7
 10
128.21700000000001
 20
177.96299999999999
 30
0.0
 11
127.85299999999989
 21
178.34599999999989
 31
0.0
  0
LINE
  5
49B
  8
0
 62
     7
 10
128.19499999999991
 20
178.30399999999989
 30
0.0
 11
127.8329999999999
 21
178.6459999999999
 31
0.0
  0
LINE
  5
49C
  8
0
 62
     7
 10
128.17400000000001
 20
178.624
 30
0.0
 11
127.89700000000001
 21
178.87999999999991
 31
0.0
  0
LINE
  5
49D
  8
0
 62
     7
 10
128.2589999999999
 20
178.81599999999989
 30
0.0
 11
128.024
 21
179.0509999999999
 31
0.0
  0
LINE
  5
49E
  8
0
 62
     7
 10
128.47200000000001
 20
178.9009999999999
 30
0.0
 11
128.21700000000001
 21
179.17899999999989
 31
0.0
  0
LINE
  5
49F
  8
0
 62
     7
 10
128.75
 20
178.923
 30
0.0
 11
128.429
 21
179.24299999999991
 31
0.0
  0
LINE
  5
4A0
  8
0
 62
     7
 10
129.02699999999999
 20
178.94399999999999
 30
0.0
 11
128.7289999999999
 21
179.26400000000001
 31
0.0
  0
LINE
  5
4A1
  8
0
 62
     7
 10
129.30399999999989
 20
178.96499999999989
 30
0.0
 11
129.00599999999989
 21
179.285
 31
0.0
  0
LINE
  5
4A2
  8
0
 62
     7
 10
129.60299999999989
 20
178.98699999999999
 30
0.0
 11
129.2829999999999
 21
179.3059999999999
 31
0.0
  0
LINE
  5
4A3
  8
0
 62
     7
 10
129.83799999999991
 20
179.0509999999999
 30
0.0
 11
129.56
 21
179.3059999999999
 31
0.0
  0
LINE
  5
4A4
  8
0
 62
     7
 10
157.26900000000001
 20
160.834
 30
0.0
 11
157.6109999999999
 21
160.834
 31
0.0
  0
LINE
  5
4A5
  8
0
 62
     7
 10
156.608
 20
159.852
 30
0.0
 11
157.07699999999991
 21
160.322
 31
0.0
  0
LINE
  5
4A6
  8
0
 62
     7
 10
157.07699999999991
 20
160.322
 30
0.0
 11
157.20599999999999
 21
160.51400000000001
 31
0.0
  0
LINE
  5
4A7
  8
0
 62
     7
 10
157.20599999999999
 20
160.51400000000001
 30
0.0
 11
157.26900000000001
 21
160.74799999999991
 31
0.0
  0
LINE
  5
4A8
  8
0
 62
     7
 10
156.608
 20
159.852
 30
0.0
 11
156.4799999999999
 21
159.63900000000001
 31
0.0
  0
LINE
  5
4A9
  8
0
 62
     7
 10
156.4799999999999
 20
159.63900000000001
 30
0.0
 11
156.416
 21
159.405
 31
0.0
  0
LINE
  5
4AA
  8
0
 62
     7
 10
157.31200000000001
 20
160.08699999999999
 30
0.0
 11
156.84299999999999
 21
159.61799999999991
 31
0.0
  0
LINE
  5
4AB
  8
0
 62
     7
 10
156.84299999999999
 20
159.61799999999991
 30
0.0
 11
156.7579999999999
 21
159.405
 31
0.0
  0
LINE
  5
4AC
  8
0
 62
     7
 10
157.31200000000001
 20
160.08699999999999
 30
0.0
 11
157.46100000000001
 21
160.27899999999991
 31
0.0
  0
LINE
  5
4AD
  8
0
 62
     7
 10
157.46100000000001
 20
160.27899999999991
 30
0.0
 11
157.54699999999991
 21
160.49299999999991
 31
0.0
  0
LINE
  5
4AE
  8
0
 62
     7
 10
157.54699999999991
 20
160.49299999999991
 30
0.0
 11
157.59
 21
160.72699999999989
 31
0.0
  0
LINE
  5
4AF
  8
0
 62
     7
 10
156.416
 20
165.93199999999999
 30
0.0
 11
156.4799999999999
 21
165.697
 31
0.0
  0
LINE
  5
4B0
  8
0
 62
     7
 10
156.4799999999999
 20
165.697
 30
0.0
 11
156.63
 21
165.48400000000001
 31
0.0
  0
LINE
  5
4B1
  8
0
 62
     7
 10
157.35499999999999
 20
165.2709999999999
 30
0.0
 11
156.864
 21
165.74000000000001
 31
0.0
  0
LINE
  5
4B2
  8
0
 62
     7
 10
156.864
 20
165.74000000000001
 30
0.0
 11
156.7579999999999
 21
165.953
 31
0.0
  0
LINE
  5
4B3
  8
0
 62
     7
 10
156.7579999999999
 20
165.953
 30
0.0
 11
156.7579999999999
 21
165.97399999999999
 31
0.0
  0
LINE
  5
4B4
  8
0
 62
     7
 10
157.333
 20
164.50299999999999
 30
0.0
 11
157.67400000000001
 21
164.50299999999999
 31
0.0
  0
LINE
  5
4B5
  8
0
 62
     7
 10
157.333
 20
164.56700000000001
 30
0.0
 11
157.26900000000001
 21
164.80199999999999
 31
0.0
  0
LINE
  5
4B6
  8
0
 62
     7
 10
157.26900000000001
 20
164.80199999999999
 30
0.0
 11
157.12
 21
165.01499999999999
 31
0.0
  0
LINE
  5
4B7
  8
0
 62
     7
 10
157.12
 20
165.01499999999999
 30
0.0
 11
156.63
 21
165.48400000000001
 31
0.0
  0
LINE
  5
4B8
  8
0
 62
     7
 10
157.67400000000001
 20
164.56700000000001
 30
0.0
 11
157.63200000000001
 21
164.82299999999989
 31
0.0
  0
LINE
  5
4B9
  8
0
 62
     7
 10
157.63200000000001
 20
164.82299999999989
 30
0.0
 11
157.52500000000001
 21
165.05699999999999
 31
0.0
  0
LINE
  5
4BA
  8
0
 62
     7
 10
157.52500000000001
 20
165.05699999999999
 30
0.0
 11
157.35499999999999
 21
165.2709999999999
 31
0.0
  0
LINE
  5
4BB
  8
0
 62
     7
 10
153.77099999999999
 20
170.262
 30
0.0
 11
152.0
 21
170.71000000000001
 31
0.0
  0
LINE
  5
4BC
  8
0
 62
     7
 10
152.0
 20
170.71000000000001
 30
0.0
 11
150.23099999999999
 21
171.05099999999999
 31
0.0
  0
LINE
  5
4BD
  8
0
 62
     7
 10
150.23099999999999
 20
171.05099999999999
 30
0.0
 11
148.4379999999999
 21
171.30699999999999
 31
0.0
  0
LINE
  5
4BE
  8
0
 62
     7
 10
153.66499999999991
 20
169.94200000000001
 30
0.0
 11
151.93700000000001
 21
170.369
 31
0.0
  0
LINE
  5
4BF
  8
0
 62
     7
 10
151.93700000000001
 20
170.369
 30
0.0
 11
150.166
 21
170.73099999999991
 31
0.0
  0
LINE
  5
4C0
  8
0
 62
     7
 10
150.166
 20
170.73099999999991
 30
0.0
 11
148.39599999999999
 21
170.98699999999999
 31
0.0
  0
LINE
  5
4C1
  8
0
 62
     7
 10
130.3489999999999
 20
174.22999999999999
 30
0.0
 11
148.39599999999999
 21
170.98699999999999
 31
0.0
  0
LINE
  5
4C2
  8
0
 62
     7
 10
130.4139999999999
 20
174.571
 30
0.0
 11
148.46000000000001
 21
171.30699999999999
 31
0.0
  0
ARC
  5
4C3
  8
0
 62
     7
 10
151.69560000000001
 20
165.63056499999999
 30
0.0
 40
5.0737220000000001
 50
3.8855659999999999
 51
65.319760000000002
  0
ARC
  5
4C4
  8
0
 62
     7
 10
151.73763199999999
 20
165.67097899999999
 30
0.0
 40
4.6858639999999987
 50
6.3344279999999991
 51
65.712806999999984
  0
LINE
  5
4C5
  8
0
 62
     7
 10
157.26900000000001
 20
160.74799999999991
 30
0.0
 11
157.35499999999999
 21
162.64699999999999
 31
0.0
  0
LINE
  5
4C6
  8
0
 62
     7
 10
157.35499999999999
 20
162.64699999999999
 30
0.0
 11
157.333
 21
164.56700000000001
 31
0.0
  0
LINE
  5
4C7
  8
0
 62
     7
 10
157.59
 20
160.72699999999989
 30
0.0
 11
157.69599999999991
 21
162.64699999999999
 31
0.0
  0
LINE
  5
4C8
  8
0
 62
     7
 10
157.69599999999991
 20
162.64699999999999
 30
0.0
 11
157.67400000000001
 21
164.56700000000001
 31
0.0
  0
LINE
  5
4C9
  8
0
 62
     7
 10
156.459
 20
161.25999999999999
 30
0.0
 11
156.49999999999989
 21
162.90299999999999
 31
0.0
  0
LINE
  5
4CA
  8
0
 62
     7
 10
156.49999999999989
 20
162.90299999999999
 30
0.0
 11
156.50200000000001
 21
164.5449999999999
 31
0.0
  0
LINE
  5
4CB
  8
0
 62
     7
 10
156.50200000000001
 20
164.5449999999999
 30
0.0
 11
156.39500000000001
 21
166.18799999999999
 31
0.0
  0
LINE
  5
4CC
  8
0
 62
     7
 10
134.851
 20
173.41900000000001
 30
0.0
 11
134.7649999999999
 21
173.5259999999999
 31
0.0
  0
LINE
  5
4CD
  8
0
 62
     7
 10
135.21299999999999
 20
173.3549999999999
 30
0.0
 11
134.80799999999991
 21
173.78200000000001
 31
0.0
  0
LINE
  5
4CE
  8
0
 62
     7
 10
135.57599999999991
 20
173.29099999999991
 30
0.0
 11
135.1699999999999
 21
173.7179999999999
 31
0.0
  0
LINE
  5
4CF
  8
0
 62
     7
 10
135.9379999999999
 20
173.22699999999989
 30
0.0
 11
135.5329999999999
 21
173.6329999999999
 31
0.0
  0
LINE
  5
4D0
  8
0
 62
     7
 10
136.322
 20
173.1629999999999
 30
0.0
 11
135.89500000000001
 21
173.5679999999999
 31
0.0
  0
LINE
  5
4D1
  8
0
 62
     7
 10
136.685
 20
173.09899999999999
 30
0.0
 11
136.2589999999999
 21
173.50399999999999
 31
0.0
  0
LINE
  5
4D2
  8
0
 62
     7
 10
137.047
 20
173.035
 30
0.0
 11
136.62100000000001
 21
173.44099999999989
 31
0.0
  0
LINE
  5
4D3
  8
0
 62
     7
 10
137.41
 20
172.97099999999989
 30
0.0
 11
137.00499999999991
 21
173.3769999999999
 31
0.0
  0
LINE
  5
4D4
  8
0
 62
     7
 10
137.77299999999991
 20
172.90700000000001
 30
0.0
 11
137.36799999999999
 21
173.31200000000001
 31
0.0
  0
LINE
  5
4D5
  8
0
 62
     7
 10
138.13499999999991
 20
172.822
 30
0.0
 11
137.7299999999999
 21
173.24799999999991
 31
0.0
  0
LINE
  5
4D6
  8
0
 62
     7
 10
138.49799999999991
 20
172.7579999999999
 30
0.0
 11
138.0929999999999
 21
173.184
 31
0.0
  0
LINE
  5
4D7
  8
0
 62
     7
 10
138.88200000000001
 20
172.69399999999999
 30
0.0
 11
138.45500000000001
 21
173.1209999999999
 31
0.0
  0
LINE
  5
4D8
  8
0
 62
     7
 10
139.244
 20
172.62999999999991
 30
0.0
 11
138.8179999999999
 21
173.05699999999999
 31
0.0
  0
LINE
  5
4D9
  8
0
 62
     7
 10
139.60799999999989
 20
172.56599999999989
 30
0.0
 11
139.18100000000001
 21
172.97099999999989
 31
0.0
  0
LINE
  5
4DA
  8
0
 62
     7
 10
139.96999999999991
 20
172.50200000000001
 30
0.0
 11
139.565
 21
172.90700000000001
 31
0.0
  0
LINE
  5
4DB
  8
0
 62
     7
 10
140.33299999999991
 20
172.43799999999999
 30
0.0
 11
139.92699999999999
 21
172.8429999999999
 31
0.0
  0
LINE
  5
4DC
  8
0
 62
     7
 10
140.69499999999991
 20
172.374
 30
0.0
 11
140.28999999999991
 21
172.779
 31
0.0
  0
LINE
  5
4DD
  8
0
 62
     7
 10
141.05799999999991
 20
172.31
 30
0.0
 11
140.65199999999999
 21
172.71499999999989
 31
0.0
  0
LINE
  5
4DE
  8
0
 62
     7
 10
141.4199999999999
 20
172.2459999999999
 30
0.0
 11
141.0149999999999
 21
172.6509999999999
 31
0.0
  0
LINE
  5
4DF
  8
0
 62
     7
 10
141.80399999999989
 20
172.18199999999999
 30
0.0
 11
141.3779999999999
 21
172.58699999999999
 31
0.0
  0
LINE
  5
4E0
  8
0
 62
     7
 10
142.16699999999989
 20
172.09700000000001
 30
0.0
 11
141.74000000000001
 21
172.52299999999991
 31
0.0
  0
LINE
  5
4E1
  8
0
 62
     7
 10
142.53
 20
172.0329999999999
 30
0.0
 11
142.10299999999989
 21
172.459
 31
0.0
  0
LINE
  5
4E2
  8
0
 62
     7
 10
142.89199999999991
 20
171.96899999999999
 30
0.0
 11
142.48699999999999
 21
172.39500000000001
 31
0.0
  0
LINE
  5
4E3
  8
0
 62
     7
 10
143.25499999999991
 20
171.905
 30
0.0
 11
142.84999999999991
 21
172.3309999999999
 31
0.0
  0
LINE
  5
4E4
  8
0
 62
     7
 10
143.61799999999999
 20
171.84099999999989
 30
0.0
 11
143.21199999999999
 21
172.2459999999999
 31
0.0
  0
LINE
  5
4E5
  8
0
 62
     7
 10
143.9799999999999
 20
171.77699999999999
 30
0.0
 11
143.5749999999999
 21
172.18199999999999
 31
0.0
  0
LINE
  5
4E6
  8
0
 62
     7
 10
144.34299999999999
 20
171.71299999999999
 30
0.0
 11
143.93700000000001
 21
172.11799999999991
 31
0.0
  0
LINE
  5
4E7
  8
0
 62
     7
 10
144.727
 20
171.64799999999991
 30
0.0
 11
144.30000000000001
 21
172.05399999999989
 31
0.0
  0
LINE
  5
4E8
  8
0
 62
     7
 10
145.089
 20
171.584
 30
0.0
 11
144.6629999999999
 21
171.99000000000001
 31
0.0
  0
LINE
  5
4E9
  8
0
 62
     7
 10
145.452
 20
171.5209999999999
 30
0.0
 11
145.02500000000001
 21
171.92599999999999
 31
0.0
  0
LINE
  5
4EA
  8
0
 62
     7
 10
145.815
 20
171.435
 30
0.0
 11
145.40899999999991
 21
171.86199999999999
 31
0.0
  0
LINE
  5
4EB
  8
0
 62
     7
 10
146.17699999999999
 20
171.37200000000001
 30
0.0
 11
145.77199999999999
 21
171.798
 31
0.0
  0
LINE
  5
4EC
  8
0
 62
     7
 10
146.53999999999991
 20
171.30699999999999
 30
0.0
 11
146.13499999999991
 21
171.73400000000001
 31
0.0
  0
LINE
  5
4ED
  8
0
 62
     7
 10
146.90299999999991
 20
171.24299999999991
 30
0.0
 11
146.49700000000001
 21
171.6699999999999
 31
0.0
  0
LINE
  5
4EE
  8
0
 62
     7
 10
147.2649999999999
 20
171.179
 30
0.0
 11
146.85900000000001
 21
171.584
 31
0.0
  0
LINE
  5
4EF
  8
0
 62
     7
 10
147.649
 20
171.11500000000001
 30
0.0
 11
147.2229999999999
 21
171.5209999999999
 31
0.0
  0
LINE
  5
4F0
  8
0
 62
     7
 10
148.012
 20
171.05099999999999
 30
0.0
 11
147.58500000000001
 21
171.45699999999991
 31
0.0
  0
LINE
  5
4F1
  8
0
 62
     7
 10
148.375
 20
170.98699999999999
 30
0.0
 11
147.94799999999989
 21
171.39299999999989
 31
0.0
  0
LINE
  5
4F2
  8
0
 62
     7
 10
148.71600000000001
 20
170.94499999999991
 30
0.0
 11
148.33199999999991
 21
171.32900000000001
 31
0.0
  0
LINE
  5
4F3
  8
0
 62
     7
 10
149.05699999999999
 20
170.90199999999999
 30
0.0
 11
148.673
 21
171.28599999999989
 31
0.0
  0
LINE
  5
4F4
  8
0
 62
     7
 10
149.399
 20
170.83799999999999
 30
0.0
 11
149.01400000000001
 21
171.24299999999991
 31
0.0
  0
LINE
  5
4F5
  8
0
 62
     7
 10
149.76099999999991
 20
170.7949999999999
 30
0.0
 11
149.35599999999991
 21
171.20099999999999
 31
0.0
  0
LINE
  5
4F6
  8
0
 62
     7
 10
150.12399999999991
 20
170.73099999999991
 30
0.0
 11
149.7179999999999
 21
171.137
 31
0.0
  0
LINE
  5
4F7
  8
0
 62
     7
 10
150.4859999999999
 20
170.667
 30
0.0
 11
150.059
 21
171.072
 31
0.0
  0
LINE
  5
4F8
  8
0
 62
     7
 10
150.8489999999999
 20
170.60400000000001
 30
0.0
 11
150.422
 21
171.03
 31
0.0
  0
LINE
  5
4F9
  8
0
 62
     7
 10
151.21100000000001
 20
170.53899999999999
 30
0.0
 11
150.78499999999991
 21
170.94499999999991
 31
0.0
  0
LINE
  5
4FA
  8
0
 62
     7
 10
157.54699999999991
 20
164.50299999999999
 30
0.0
 11
157.31200000000001
 21
164.73699999999999
 31
0.0
  0
LINE
  5
4FB
  8
0
 62
     7
 10
151.595
 20
170.45400000000001
 30
0.0
 11
151.1689999999999
 21
170.88099999999989
 31
0.0
  0
LINE
  5
4FC
  8
0
 62
     7
 10
157.654
 20
164.69499999999991
 30
0.0
 11
156.416
 21
165.91
 31
0.0
  0
LINE
  5
4FD
  8
0
 62
     7
 10
151.97999999999999
 20
170.369
 30
0.0
 11
151.53200000000001
 21
170.81700000000001
 31
0.0
  0
LINE
  5
4FE
  8
0
 62
     7
 10
156.779
 20
165.86799999999991
 30
0.0
 11
156.39500000000001
 21
166.25200000000001
 31
0.0
  0
LINE
  5
4FF
  8
0
 62
     7
 10
152.36299999999989
 20
170.28399999999999
 30
0.0
 11
151.916
 21
170.73099999999991
 31
0.0
  0
LINE
  5
500
  8
0
 62
     7
 10
156.7359999999999
 20
166.209
 30
0.0
 11
156.33099999999999
 21
166.614
 31
0.0
  0
LINE
  5
501
  8
0
 62
     7
 10
152.76899999999989
 20
170.17699999999999
 30
0.0
 11
152.32099999999991
 21
170.625
 31
0.0
  0
LINE
  5
502
  8
0
 62
     7
 10
156.6929999999999
 20
166.55000000000001
 30
0.0
 11
156.245
 21
166.99799999999991
 31
0.0
  0
LINE
  5
503
  8
0
 62
     7
 10
153.17400000000001
 20
170.06999999999991
 30
0.0
 11
152.70500000000001
 21
170.53899999999999
 31
0.0
  0
LINE
  5
504
  8
0
 62
     7
 10
156.608
 20
166.935
 30
0.0
 11
156.0749999999999
 21
167.4679999999999
 31
0.0
  0
LINE
  5
505
  8
0
 62
     7
 10
153.58000000000001
 20
169.964
 30
0.0
 11
153.11000000000001
 21
170.43299999999991
 31
0.0
  0
LINE
  5
506
  8
0
 62
     7
 10
156.459
 20
167.38200000000001
 30
0.0
 11
155.77600000000001
 21
168.06499999999991
 31
0.0
  0
LINE
  5
507
  8
0
 62
     7
 10
154.15499999999989
 20
169.68599999999989
 30
0.0
 11
153.5149999999999
 21
170.32599999999999
 31
0.0
  0
LINE
  5
508
  8
0
 62
     7
 10
156.245
 20
167.89400000000001
 30
0.0
 11
153.98500000000001
 21
170.15599999999989
 31
0.0
  0
LINE
  5
509
  8
0
 62
     7
 10
155.77600000000001
 20
168.66200000000001
 30
0.0
 11
154.7529999999999
 21
169.68599999999989
 31
0.0
  0
LINE
  5
50A
  8
0
 62
     7
 10
140.82299999999989
 20
119.81399999999989
 30
0.0
 11
140.82299999999989
 21
130.672
 31
0.0
  0
ARC
  5
50B
  8
0
 62
     7
 10
-1342.7563029999999
 20
168.931253
 30
0.0
 40
1484.157968999999
 50
358.10348499999998
 51
358.22799500000002
  0
ARC
  5
50C
  8
0
 62
     7
 10
-201.19051899999991
 20
133.441248
 30
0.0
 40
342.04070300000001
 50
358.25698999999992
 51
358.96704999999997
  0
ARC
  5
50D
  8
0
 62
     7
 10
-54.430661000000001
 20
130.60345899999999
 30
0.0
 40
195.25362999999999
 50
359.02328199999999
 51
0.019988
  0
LINE
  5
50E
  8
0
 62
     7
 10
128.04599999999991
 20
128.00499999999991
 30
0.0
 11
127.8329999999999
 21
122.52199999999991
 31
0.0
  0
LINE
  5
50F
  8
0
 62
     7
 10
132.84499999999991
 20
119.81399999999989
 30
0.0
 11
133.16499999999999
 21
120.155
 31
0.0
  0
LINE
  5
510
  8
0
 62
     7
 10
133.16499999999999
 20
120.155
 30
0.0
 11
133.464
 21
120.517
 31
0.0
  0
LINE
  5
511
  8
0
 62
     7
 10
128.83500000000001
 20
148.50399999999991
 30
0.0
 11
128.49399999999989
 21
146.22200000000001
 31
0.0
  0
LINE
  5
512
  8
0
 62
     7
 10
128.49399999999989
 20
146.22200000000001
 30
0.0
 11
128.238
 21
143.93899999999991
 31
0.0
  0
LINE
  5
513
  8
0
 62
     7
 10
128.238
 20
143.93899999999991
 30
0.0
 11
128.08799999999999
 21
141.636
 31
0.0
  0
LINE
  5
514
  8
0
 62
     7
 10
128.08799999999999
 20
141.636
 30
0.0
 11
128.04599999999991
 21
139.33199999999991
 31
0.0
  0
LINE
  5
515
  8
0
 62
     7
 10
131.245
 20
137.09200000000001
 30
0.0
 11
128.536
 21
137.86000000000001
 31
0.0
  0
LINE
  5
516
  8
0
 62
     7
 10
128.04599999999991
 20
138.52099999999999
 30
0.0
 11
128.06700000000001
 21
138.30799999999991
 31
0.0
  0
LINE
  5
517
  8
0
 62
     7
 10
128.06700000000001
 20
138.30799999999991
 30
0.0
 11
128.17400000000001
 21
138.11600000000001
 31
0.0
  0
LINE
  5
518
  8
0
 62
     7
 10
128.17400000000001
 20
138.11600000000001
 30
0.0
 11
128.32299999999989
 21
137.96700000000001
 31
0.0
  0
LINE
  5
519
  8
0
 62
     7
 10
128.32299999999989
 20
137.96700000000001
 30
0.0
 11
128.536
 21
137.86000000000001
 31
0.0
  0
ARC
  5
51A
  8
0
 62
     7
 10
130.30394200000001
 20
133.44131699999991
 30
0.0
 40
3.749277999999999
 50
33.164284000000002
 51
66.63582199999999
  0
ARC
  5
51B
  8
0
 62
     7
 10
129.43244499999989
 20
131.54507699999991
 30
0.0
 40
5.8358419999999986
 50
66.164193000000012
 51
71.903261999999998
  0
LINE
  5
51C
  8
0
 62
     7
 10
127.8329999999999
 20
123.248
 30
0.0
 11
127.8329999999999
 21
178.5809999999999
 31
0.0
  0
LINE
  5
51D
  8
0
 62
     7
 10
128.04599999999991
 20
177.17299999999989
 30
0.0
 11
128.04599999999991
 21
128.00499999999991
 31
0.0
  0
LINE
  5
51E
  8
0
 62
     7
 10
155.499
 20
119.81399999999989
 30
0.0
 11
156.459
 21
161.25999999999999
 31
0.0
  0
ARC
  5
51F
  8
0
 62
     7
 10
29.530975999999999
 20
165.395646
 30
0.0
 40
100.730028
 50
350.34644199999991
 51
5.3846499999999988
  0
ARC
  5
520
  8
0
 62
     7
 10
121.975809
 20
127.988511
 30
0.0
 40
13.703718
 50
326.96263099999999
 51
33.200819000000003
  0
LINE
  5
521
  8
0
 62
     7
 10
156.7579999999999
 20
159.36199999999999
 30
0.0
 11
157.0989999999999
 21
159.703
 31
0.0
  0
LINE
  5
522
  8
0
 62
     7
 10
156.7579999999999
 20
159.04199999999989
 30
0.0
 11
157.0989999999999
 21
159.3829999999999
 31
0.0
  0
LINE
  5
523
  8
0
 62
     7
 10
156.7359999999999
 20
158.74299999999991
 30
0.0
 11
157.07699999999991
 21
159.084
 31
0.0
  0
LINE
  5
524
  8
0
 62
     7
 10
156.7359999999999
 20
158.44499999999991
 30
0.0
 11
157.07699999999991
 21
158.786
 31
0.0
  0
LINE
  5
525
  8
0
 62
     7
 10
156.7359999999999
 20
158.124
 30
0.0
 11
157.07699999999991
 21
158.46600000000001
 31
0.0
  0
LINE
  5
526
  8
0
 62
     7
 10
156.71499999999989
 20
157.82599999999999
 30
0.0
 11
157.05600000000001
 21
158.167
 31
0.0
  0
LINE
  5
527
  8
0
 62
     7
 10
156.71499999999989
 20
157.52699999999999
 30
0.0
 11
157.05600000000001
 21
157.86899999999989
 31
0.0
  0
LINE
  5
528
  8
0
 62
     7
 10
156.71499999999989
 20
157.20699999999999
 30
0.0
 11
157.05600000000001
 21
157.54900000000001
 31
0.0
  0
LINE
  5
529
  8
0
 62
     7
 10
156.6929999999999
 20
156.90899999999991
 30
0.0
 11
157.03499999999991
 21
157.24999999999989
 31
0.0
  0
LINE
  5
52A
  8
0
 62
     7
 10
156.6929999999999
 20
156.61000000000001
 30
0.0
 11
157.03499999999991
 21
156.95199999999991
 31
0.0
  0
LINE
  5
52B
  8
0
 62
     7
 10
156.6929999999999
 20
156.28999999999991
 30
0.0
 11
157.03499999999991
 21
156.63200000000001
 31
0.0
  0
LINE
  5
52C
  8
0
 62
     7
 10
156.672
 20
155.99100000000001
 30
0.0
 11
157.01400000000001
 21
156.333
 31
0.0
  0
LINE
  5
52D
  8
0
 62
     7
 10
156.672
 20
155.67099999999991
 30
0.0
 11
157.01400000000001
 21
156.01300000000001
 31
0.0
  0
LINE
  5
52E
  8
0
 62
     7
 10
156.672
 20
155.37299999999991
 30
0.0
 11
157.01400000000001
 21
155.71399999999991
 31
0.0
  0
LINE
  5
52F
  8
0
 62
     7
 10
156.65100000000001
 20
155.0739999999999
 30
0.0
 11
156.99199999999999
 21
155.41599999999991
 31
0.0
  0
LINE
  5
530
  8
0
 62
     7
 10
156.65100000000001
 20
154.75399999999991
 30
0.0
 11
156.99199999999999
 21
155.095
 31
0.0
  0
LINE
  5
531
  8
0
 62
     7
 10
156.65100000000001
 20
154.45599999999999
 30
0.0
 11
156.99199999999999
 21
154.797
 31
0.0
  0
LINE
  5
532
  8
0
 62
     7
 10
156.63
 20
154.15700000000001
 30
0.0
 11
156.971
 21
154.49799999999991
 31
0.0
  0
LINE
  5
533
  8
0
 62
     7
 10
156.63
 20
153.83699999999999
 30
0.0
 11
156.971
 21
154.17799999999991
 31
0.0
  0
LINE
  5
534
  8
0
 62
     7
 10
156.608
 20
153.5379999999999
 30
0.0
 11
156.971
 21
153.87999999999991
 31
0.0
  0
LINE
  5
535
  8
0
 62
     7
 10
156.608
 20
153.2179999999999
 30
0.0
 11
156.9499999999999
 21
153.56
 31
0.0
  0
LINE
  5
536
  8
0
 62
     7
 10
156.608
 20
152.9189999999999
 30
0.0
 11
156.9499999999999
 21
153.261
 31
0.0
  0
LINE
  5
537
  8
0
 62
     7
 10
156.58699999999999
 20
152.62100000000001
 30
0.0
 11
156.928
 21
152.96199999999999
 31
0.0
  0
LINE
  5
538
  8
0
 62
     7
 10
156.58699999999999
 20
152.30099999999999
 30
0.0
 11
156.928
 21
152.64199999999991
 31
0.0
  0
LINE
  5
539
  8
0
 62
     7
 10
156.58699999999999
 20
152.00299999999999
 30
0.0
 11
156.928
 21
152.34399999999991
 31
0.0
  0
LINE
  5
53A
  8
0
 62
     7
 10
156.566
 20
151.70400000000001
 30
0.0
 11
156.90700000000001
 21
152.0449999999999
 31
0.0
  0
LINE
  5
53B
  8
0
 62
     7
 10
156.566
 20
151.3839999999999
 30
0.0
 11
156.90700000000001
 21
151.72499999999991
 31
0.0
  0
LINE
  5
53C
  8
0
 62
     7
 10
156.566
 20
151.08500000000001
 30
0.0
 11
156.90700000000001
 21
151.42699999999999
 31
0.0
  0
LINE
  5
53D
  8
0
 62
     7
 10
156.5439999999999
 20
150.76599999999999
 30
0.0
 11
156.88499999999991
 21
151.107
 31
0.0
  0
LINE
  5
53E
  8
0
 62
     7
 10
156.5439999999999
 20
150.46700000000001
 30
0.0
 11
156.88499999999991
 21
150.80799999999991
 31
0.0
  0
LINE
  5
53F
  8
0
 62
     7
 10
156.5439999999999
 20
150.16800000000001
 30
0.0
 11
156.88499999999991
 21
150.5089999999999
 31
0.0
  0
LINE
  5
540
  8
0
 62
     7
 10
156.52299999999991
 20
149.8479999999999
 30
0.0
 11
156.864
 21
150.19
 31
0.0
  0
LINE
  5
541
  8
0
 62
     7
 10
156.52299999999991
 20
149.54900000000001
 30
0.0
 11
156.864
 21
149.89099999999991
 31
0.0
  0
LINE
  5
542
  8
0
 62
     7
 10
156.52299999999991
 20
149.251
 30
0.0
 11
156.864
 21
149.59200000000001
 31
0.0
  0
LINE
  5
543
  8
0
 62
     7
 10
156.50200000000001
 20
148.93100000000001
 30
0.0
 11
156.84299999999999
 21
149.27199999999999
 31
0.0
  0
LINE
  5
544
  8
0
 62
     7
 10
156.50200000000001
 20
148.63200000000001
 30
0.0
 11
156.84299999999999
 21
148.9729999999999
 31
0.0
  0
LINE
  5
545
  8
0
 62
     7
 10
156.50200000000001
 20
148.333
 30
0.0
 11
156.84299999999999
 21
148.67500000000001
 31
0.0
  0
LINE
  5
546
  8
0
 62
     7
 10
156.4799999999999
 20
148.01400000000001
 30
0.0
 11
156.821
 21
148.3549999999999
 31
0.0
  0
LINE
  5
547
  8
0
 62
     7
 10
156.4799999999999
 20
147.71499999999989
 30
0.0
 11
156.821
 21
148.05600000000001
 31
0.0
  0
LINE
  5
548
  8
0
 62
     7
 10
156.4799999999999
 20
147.39500000000001
 30
0.0
 11
156.821
 21
147.73599999999999
 31
0.0
  0
LINE
  5
549
  8
0
 62
     7
 10
156.459
 20
147.09700000000001
 30
0.0
 11
156.80000000000001
 21
147.4379999999999
 31
0.0
  0
LINE
  5
54A
  8
0
 62
     7
 10
156.459
 20
146.798
 30
0.0
 11
156.80000000000001
 21
147.13900000000001
 31
0.0
  0
LINE
  5
54B
  8
0
 62
     7
 10
156.459
 20
146.47799999999989
 30
0.0
 11
156.80000000000001
 21
146.8189999999999
 31
0.0
  0
LINE
  5
54C
  8
0
 62
     7
 10
156.4379999999999
 20
146.179
 30
0.0
 11
156.779
 21
146.52000000000001
 31
0.0
  0
LINE
  5
54D
  8
0
 62
     7
 10
156.4379999999999
 20
145.87999999999991
 30
0.0
 11
156.779
 21
146.22200000000001
 31
0.0
  0
LINE
  5
54E
  8
0
 62
     7
 10
156.4379999999999
 20
145.56100000000001
 30
0.0
 11
156.779
 21
145.90199999999999
 31
0.0
  0
LINE
  5
54F
  8
0
 62
     7
 10
156.416
 20
145.262
 30
0.0
 11
156.7579999999999
 21
145.60299999999989
 31
0.0
  0
LINE
  5
550
  8
0
 62
     7
 10
156.416
 20
144.94200000000001
 30
0.0
 11
156.7579999999999
 21
145.2829999999999
 31
0.0
  0
LINE
  5
551
  8
0
 62
     7
 10
156.416
 20
144.643
 30
0.0
 11
156.7579999999999
 21
144.98500000000001
 31
0.0
  0
LINE
  5
552
  8
0
 62
     7
 10
156.39500000000001
 20
144.345
 30
0.0
 11
156.7359999999999
 21
144.68600000000001
 31
0.0
  0
LINE
  5
553
  8
0
 62
     7
 10
156.39500000000001
 20
144.02499999999989
 30
0.0
 11
156.7359999999999
 21
144.36600000000001
 31
0.0
  0
LINE
  5
554
  8
0
 62
     7
 10
156.39500000000001
 20
143.726
 30
0.0
 11
156.7359999999999
 21
144.06700000000001
 31
0.0
  0
LINE
  5
555
  8
0
 62
     7
 10
156.37399999999991
 20
143.42699999999999
 30
0.0
 11
156.71499999999989
 21
143.76900000000001
 31
0.0
  0
LINE
  5
556
  8
0
 62
     7
 10
156.37399999999991
 20
143.107
 30
0.0
 11
156.71499999999989
 21
143.4489999999999
 31
0.0
  0
LINE
  5
557
  8
0
 62
     7
 10
156.37399999999991
 20
142.809
 30
0.0
 11
156.71499999999989
 21
143.14999999999989
 31
0.0
  0
LINE
  5
558
  8
0
 62
     7
 10
156.35299999999989
 20
142.50999999999999
 30
0.0
 11
156.6929999999999
 21
142.85099999999991
 31
0.0
  0
LINE
  5
559
  8
0
 62
     7
 10
156.35299999999989
 20
142.18999999999991
 30
0.0
 11
156.6929999999999
 21
142.53100000000001
 31
0.0
  0
LINE
  5
55A
  8
0
 62
     7
 10
156.35299999999989
 20
141.89199999999991
 30
0.0
 11
156.6929999999999
 21
142.233
 31
0.0
  0
LINE
  5
55B
  8
0
 62
     7
 10
156.33099999999999
 20
141.57099999999991
 30
0.0
 11
156.672
 21
141.9129999999999
 31
0.0
  0
LINE
  5
55C
  8
0
 62
     7
 10
156.33099999999999
 20
141.27299999999991
 30
0.0
 11
156.672
 21
141.614
 31
0.0
  0
LINE
  5
55D
  8
0
 62
     7
 10
156.33099999999999
 20
140.97399999999999
 30
0.0
 11
156.672
 21
141.31599999999989
 31
0.0
  0
LINE
  5
55E
  8
0
 62
     7
 10
156.31
 20
140.65399999999991
 30
0.0
 11
156.65100000000001
 21
140.99600000000001
 31
0.0
  0
LINE
  5
55F
  8
0
 62
     7
 10
156.31
 20
140.35599999999991
 30
0.0
 11
156.65100000000001
 21
140.697
 31
0.0
  0
LINE
  5
560
  8
0
 62
     7
 10
156.31
 20
140.05699999999999
 30
0.0
 11
156.65100000000001
 21
140.399
 31
0.0
  0
LINE
  5
561
  8
0
 62
     7
 10
156.2879999999999
 20
139.73699999999999
 30
0.0
 11
156.63
 21
140.078
 31
0.0
  0
LINE
  5
562
  8
0
 62
     7
 10
156.2879999999999
 20
139.4379999999999
 30
0.0
 11
156.63
 21
139.77999999999989
 31
0.0
  0
LINE
  5
563
  8
0
 62
     7
 10
156.2879999999999
 20
139.11799999999999
 30
0.0
 11
156.63
 21
139.46000000000001
 31
0.0
  0
LINE
  5
564
  8
0
 62
     7
 10
156.26699999999991
 20
138.81999999999991
 30
0.0
 11
156.608
 21
139.161
 31
0.0
  0
LINE
  5
565
  8
0
 62
     7
 10
156.26699999999991
 20
138.52099999999999
 30
0.0
 11
156.608
 21
138.863
 31
0.0
  0
LINE
  5
566
  8
0
 62
     7
 10
156.26699999999991
 20
138.20099999999991
 30
0.0
 11
156.608
 21
138.542
 31
0.0
  0
LINE
  5
567
  8
0
 62
     7
 10
156.245
 20
137.90299999999991
 30
0.0
 11
156.58699999999999
 21
138.244
 31
0.0
  0
LINE
  5
568
  8
0
 62
     7
 10
156.245
 20
137.6039999999999
 30
0.0
 11
156.58699999999999
 21
137.94499999999999
 31
0.0
  0
LINE
  5
569
  8
0
 62
     7
 10
156.245
 20
137.28399999999991
 30
0.0
 11
156.58699999999999
 21
137.62499999999989
 31
0.0
  0
LINE
  5
56A
  8
0
 62
     7
 10
156.2239999999999
 20
136.98500000000001
 30
0.0
 11
156.566
 21
137.32699999999991
 31
0.0
  0
LINE
  5
56B
  8
0
 62
     7
 10
156.2239999999999
 20
136.68700000000001
 30
0.0
 11
156.566
 21
137.02799999999991
 31
0.0
  0
LINE
  5
56C
  8
0
 62
     7
 10
156.2239999999999
 20
136.36699999999999
 30
0.0
 11
156.566
 21
136.708
 31
0.0
  0
LINE
  5
56D
  8
0
 62
     7
 10
156.203
 20
136.0679999999999
 30
0.0
 11
156.5439999999999
 21
136.40899999999999
 31
0.0
  0
LINE
  5
56E
  8
0
 62
     7
 10
156.203
 20
135.74799999999999
 30
0.0
 11
156.5439999999999
 21
136.08899999999991
 31
0.0
  0
LINE
  5
56F
  8
0
 62
     7
 10
156.203
 20
135.4499999999999
 30
0.0
 11
156.5439999999999
 21
135.79099999999991
 31
0.0
  0
LINE
  5
570
  8
0
 62
     7
 10
156.18199999999999
 20
135.15100000000001
 30
0.0
 11
156.52299999999991
 21
135.49199999999999
 31
0.0
  0
LINE
  5
571
  8
0
 62
     7
 10
156.18199999999999
 20
134.83099999999999
 30
0.0
 11
156.52299999999991
 21
135.172
 31
0.0
  0
LINE
  5
572
  8
0
 62
     7
 10
156.18199999999999
 20
134.53200000000001
 30
0.0
 11
156.52299999999991
 21
134.874
 31
0.0
  0
LINE
  5
573
  8
0
 62
     7
 10
156.16099999999989
 20
134.23400000000001
 30
0.0
 11
156.50200000000001
 21
134.57499999999999
 31
0.0
  0
LINE
  5
574
  8
0
 62
     7
 10
156.16099999999989
 20
133.9129999999999
 30
0.0
 11
156.50200000000001
 21
134.25499999999991
 31
0.0
  0
LINE
  5
575
  8
0
 62
     7
 10
156.16099999999989
 20
133.61500000000001
 30
0.0
 11
156.50200000000001
 21
133.95599999999999
 31
0.0
  0
LINE
  5
576
  8
0
 62
     7
 10
156.13900000000001
 20
133.2949999999999
 30
0.0
 11
156.4799999999999
 21
133.63599999999991
 31
0.0
  0
LINE
  5
577
  8
0
 62
     7
 10
156.13900000000001
 20
132.99600000000001
 30
0.0
 11
156.4799999999999
 21
133.33799999999999
 31
0.0
  0
LINE
  5
578
  8
0
 62
     7
 10
156.13900000000001
 20
132.69799999999989
 30
0.0
 11
156.4799999999999
 21
133.0389999999999
 31
0.0
  0
LINE
  5
579
  8
0
 62
     7
 10
156.11799999999999
 20
132.3779999999999
 30
0.0
 11
156.459
 21
132.71899999999991
 31
0.0
  0
LINE
  5
57A
  8
0
 62
     7
 10
156.11799999999999
 20
132.07900000000001
 30
0.0
 11
156.459
 21
132.4199999999999
 31
0.0
  0
LINE
  5
57B
  8
0
 62
     7
 10
156.11799999999999
 20
131.78100000000001
 30
0.0
 11
156.459
 21
132.12200000000001
 31
0.0
  0
LINE
  5
57C
  8
0
 62
     7
 10
156.09700000000001
 20
131.46100000000001
 30
0.0
 11
156.4379999999999
 21
131.80199999999999
 31
0.0
  0
LINE
  5
57D
  8
0
 62
     7
 10
156.09700000000001
 20
131.16200000000001
 30
0.0
 11
156.4379999999999
 21
131.5029999999999
 31
0.0
  0
LINE
  5
57E
  8
0
 62
     7
 10
156.09700000000001
 20
130.86299999999989
 30
0.0
 11
156.4379999999999
 21
131.20500000000001
 31
0.0
  0
LINE
  5
57F
  8
0
 62
     7
 10
156.0749999999999
 20
130.54300000000001
 30
0.0
 11
156.416
 21
130.8839999999999
 31
0.0
  0
LINE
  5
580
  8
0
 62
     7
 10
156.0749999999999
 20
130.245
 30
0.0
 11
156.416
 21
130.58600000000001
 31
0.0
  0
LINE
  5
581
  8
0
 62
     7
 10
156.0749999999999
 20
129.92500000000001
 30
0.0
 11
156.416
 21
130.26599999999991
 31
0.0
  0
LINE
  5
582
  8
0
 62
     7
 10
156.054
 20
129.62599999999989
 30
0.0
 11
156.39500000000001
 21
129.96700000000001
 31
0.0
  0
LINE
  5
583
  8
0
 62
     7
 10
156.054
 20
129.32699999999991
 30
0.0
 11
156.39500000000001
 21
129.6689999999999
 31
0.0
  0
LINE
  5
584
  8
0
 62
     7
 10
156.054
 20
129.0079999999999
 30
0.0
 11
156.39500000000001
 21
129.34899999999999
 31
0.0
  0
LINE
  5
585
  8
0
 62
     7
 10
156.03200000000001
 20
128.709
 30
0.0
 11
156.37399999999991
 21
129.05000000000001
 31
0.0
  0
LINE
  5
586
  8
0
 62
     7
 10
156.03200000000001
 20
128.41
 30
0.0
 11
156.37399999999991
 21
128.75200000000001
 31
0.0
  0
LINE
  5
587
  8
0
 62
     7
 10
156.03200000000001
 20
128.09
 30
0.0
 11
156.37399999999991
 21
128.43199999999999
 31
0.0
  0
LINE
  5
588
  8
0
 62
     7
 10
156.01099999999991
 20
127.791
 30
0.0
 11
156.35299999999989
 21
128.1329999999999
 31
0.0
  0
LINE
  5
589
  8
0
 62
     7
 10
156.01099999999991
 20
127.47199999999999
 30
0.0
 11
156.35299999999989
 21
127.8129999999999
 31
0.0
  0
LINE
  5
58A
  8
0
 62
     7
 10
156.01099999999991
 20
127.1729999999999
 30
0.0
 11
156.35299999999989
 21
127.5139999999999
 31
0.0
  0
LINE
  5
58B
  8
0
 62
     7
 10
155.99000000000001
 20
126.8739999999999
 30
0.0
 11
156.33099999999999
 21
127.215
 31
0.0
  0
LINE
  5
58C
  8
0
 62
     7
 10
155.99000000000001
 20
126.554
 30
0.0
 11
156.33099999999999
 21
126.896
 31
0.0
  0
LINE
  5
58D
  8
0
 62
     7
 10
155.99000000000001
 20
126.256
 30
0.0
 11
156.33099999999999
 21
126.59699999999999
 31
0.0
  0
LINE
  5
58E
  8
0
 62
     7
 10
155.9679999999999
 20
125.95699999999999
 30
0.0
 11
156.31
 21
126.2979999999999
 31
0.0
  0
LINE
  5
58F
  8
0
 62
     7
 10
155.9679999999999
 20
125.6369999999999
 30
0.0
 11
156.31
 21
125.9789999999999
 31
0.0
  0
LINE
  5
590
  8
0
 62
     7
 10
155.9679999999999
 20
125.339
 30
0.0
 11
156.31
 21
125.68000000000001
 31
0.0
  0
LINE
  5
591
  8
0
 62
     7
 10
155.947
 20
125.04000000000001
 30
0.0
 11
156.2879999999999
 21
125.381
 31
0.0
  0
LINE
  5
592
  8
0
 62
     7
 10
155.947
 20
124.72
 30
0.0
 11
156.2879999999999
 21
125.06099999999989
 31
0.0
  0
LINE
  5
593
  8
0
 62
     7
 10
155.947
 20
124.42100000000001
 30
0.0
 11
156.2879999999999
 21
124.76300000000001
 31
0.0
  0
LINE
  5
594
  8
0
 62
     7
 10
155.92599999999999
 20
124.1009999999999
 30
0.0
 11
156.26699999999991
 21
124.4429999999999
 31
0.0
  0
LINE
  5
595
  8
0
 62
     7
 10
155.92599999999999
 20
123.8029999999999
 30
0.0
 11
156.26699999999991
 21
124.14399999999991
 31
0.0
  0
LINE
  5
596
  8
0
 62
     7
 10
155.92599999999999
 20
123.50399999999991
 30
0.0
 11
156.26699999999991
 21
123.845
 31
0.0
  0
LINE
  5
597
  8
0
 62
     7
 10
155.90399999999991
 20
123.184
 30
0.0
 11
156.245
 21
123.52500000000001
 31
0.0
  0
LINE
  5
598
  8
0
 62
     7
 10
155.90399999999991
 20
122.886
 30
0.0
 11
156.245
 21
123.2269999999999
 31
0.0
  0
LINE
  5
599
  8
0
 62
     7
 10
155.90399999999991
 20
122.587
 30
0.0
 11
156.245
 21
122.9279999999999
 31
0.0
  0
LINE
  5
59A
  8
0
 62
     7
 10
155.8829999999999
 20
122.267
 30
0.0
 11
156.2239999999999
 21
122.6079999999999
 31
0.0
  0
LINE
  5
59B
  8
0
 62
     7
 10
155.8829999999999
 20
121.9679999999999
 30
0.0
 11
156.2239999999999
 21
122.31
 31
0.0
  0
LINE
  5
59C
  8
0
 62
     7
 10
155.8829999999999
 20
121.648
 30
0.0
 11
156.2239999999999
 21
121.9889999999999
 31
0.0
  0
LINE
  5
59D
  8
0
 62
     7
 10
155.86199999999991
 20
121.3489999999999
 30
0.0
 11
156.203
 21
121.691
 31
0.0
  0
LINE
  5
59E
  8
0
 62
     7
 10
155.86199999999991
 20
121.0509999999999
 30
0.0
 11
156.203
 21
121.392
 31
0.0
  0
LINE
  5
59F
  8
0
 62
     7
 10
155.86199999999991
 20
120.73099999999999
 30
0.0
 11
156.203
 21
121.072
 31
0.0
  0
LINE
  5
5A0
  8
0
 62
     7
 10
155.83999999999989
 20
120.432
 30
0.0
 11
156.18199999999999
 21
120.774
 31
0.0
  0
LINE
  5
5A1
  8
0
 62
     7
 10
155.83999999999989
 20
120.134
 30
0.0
 11
156.18199999999999
 21
120.47499999999989
 31
0.0
  0
LINE
  5
5A2
  8
0
 62
     7
 10
155.83999999999989
 20
119.81399999999989
 30
0.0
 11
156.18199999999999
 21
120.155
 31
0.0
  0
LINE
  5
5A3
  8
0
 62
     7
 10
156.11799999999999
 20
119.81399999999989
 30
0.0
 11
156.16099999999989
 21
119.85599999999999
 31
0.0
  0
LINE
  5
5A4
  8
0
 62
     7
 10
155.54199999999989
 20
119.81399999999989
 30
0.0
 11
155.499
 21
119.85599999999999
 31
0.0
  0
LINE
  5
5A5
  8
0
 62
     7
 10
155.83999999999989
 20
119.81399999999989
 30
0.0
 11
155.499
 21
120.155
 31
0.0
  0
LINE
  5
5A6
  8
0
 62
     7
 10
155.83999999999989
 20
120.11199999999999
 30
0.0
 11
155.52099999999999
 21
120.432
 31
0.0
  0
LINE
  5
5A7
  8
0
 62
     7
 10
155.83999999999989
 20
120.411
 30
0.0
 11
155.52099999999999
 21
120.73099999999999
 31
0.0
  0
LINE
  5
5A8
  8
0
 62
     7
 10
155.86199999999991
 20
120.6879999999999
 30
0.0
 11
155.52099999999999
 21
121.0299999999999
 31
0.0
  0
LINE
  5
5A9
  8
0
 62
     7
 10
155.86199999999991
 20
120.98699999999999
 30
0.0
 11
155.54199999999989
 21
121.307
 31
0.0
  0
LINE
  5
5AA
  8
0
 62
     7
 10
155.86199999999991
 20
121.286
 30
0.0
 11
155.54199999999989
 21
121.60599999999999
 31
0.0
  0
LINE
  5
5AB
  8
0
 62
     7
 10
155.86199999999991
 20
121.584
 30
0.0
 11
155.54199999999989
 21
121.9039999999999
 31
0.0
  0
LINE
  5
5AC
  8
0
 62
     7
 10
155.8829999999999
 20
121.86199999999999
 30
0.0
 11
155.5629999999999
 21
122.2029999999999
 31
0.0
  0
LINE
  5
5AD
  8
0
 62
     7
 10
155.8829999999999
 20
122.16
 30
0.0
 11
155.5629999999999
 21
122.48
 31
0.0
  0
LINE
  5
5AE
  8
0
 62
     7
 10
155.8829999999999
 20
122.459
 30
0.0
 11
155.5629999999999
 21
122.7789999999999
 31
0.0
  0
LINE
  5
5AF
  8
0
 62
     7
 10
155.90399999999991
 20
122.736
 30
0.0
 11
155.5629999999999
 21
123.077
 31
0.0
  0
LINE
  5
5B0
  8
0
 62
     7
 10
155.90399999999991
 20
123.035
 30
0.0
 11
155.58500000000001
 21
123.355
 31
0.0
  0
LINE
  5
5B1
  8
0
 62
     7
 10
155.90399999999991
 20
123.333
 30
0.0
 11
155.58500000000001
 21
123.65299999999991
 31
0.0
  0
LINE
  5
5B2
  8
0
 62
     7
 10
155.92599999999999
 20
123.63200000000001
 30
0.0
 11
155.58500000000001
 21
123.952
 31
0.0
  0
LINE
  5
5B3
  8
0
 62
     7
 10
155.92599999999999
 20
123.90900000000001
 30
0.0
 11
155.60599999999991
 21
124.229
 31
0.0
  0
LINE
  5
5B4
  8
0
 62
     7
 10
155.92599999999999
 20
124.208
 30
0.0
 11
155.60599999999991
 21
124.52799999999991
 31
0.0
  0
LINE
  5
5B5
  8
0
 62
     7
 10
155.947
 20
124.50700000000001
 30
0.0
 11
155.60599999999991
 21
124.827
 31
0.0
  0
LINE
  5
5B6
  8
0
 62
     7
 10
155.947
 20
124.78399999999991
 30
0.0
 11
155.62700000000001
 21
125.1249999999999
 31
0.0
  0
LINE
  5
5B7
  8
0
 62
     7
 10
155.947
 20
125.083
 30
0.0
 11
155.62700000000001
 21
125.40299999999991
 31
0.0
  0
LINE
  5
5B8
  8
0
 62
     7
 10
155.9679999999999
 20
125.381
 30
0.0
 11
155.62700000000001
 21
125.70099999999999
 31
0.0
  0
LINE
  5
5B9
  8
0
 62
     7
 10
155.9679999999999
 20
125.65899999999991
 30
0.0
 11
155.649
 21
126.0
 31
0.0
  0
LINE
  5
5BA
  8
0
 62
     7
 10
155.9679999999999
 20
125.95699999999999
 30
0.0
 11
155.649
 21
126.2769999999999
 31
0.0
  0
LINE
  5
5BB
  8
0
 62
     7
 10
155.99000000000001
 20
126.256
 30
0.0
 11
155.649
 21
126.57599999999989
 31
0.0
  0
LINE
  5
5BC
  8
0
 62
     7
 10
155.99000000000001
 20
126.554
 30
0.0
 11
155.66999999999999
 21
126.8739999999999
 31
0.0
  0
LINE
  5
5BD
  8
0
 62
     7
 10
155.99000000000001
 20
126.83199999999999
 30
0.0
 11
155.66999999999999
 21
127.1729999999999
 31
0.0
  0
LINE
  5
5BE
  8
0
 62
     7
 10
156.01099999999991
 20
127.1299999999999
 30
0.0
 11
155.66999999999999
 21
127.4499999999999
 31
0.0
  0
LINE
  5
5BF
  8
0
 62
     7
 10
156.01099999999991
 20
127.429
 30
0.0
 11
155.691
 21
127.749
 31
0.0
  0
LINE
  5
5C0
  8
0
 62
     7
 10
156.01099999999991
 20
127.706
 30
0.0
 11
155.691
 21
128.047
 31
0.0
  0
LINE
  5
5C1
  8
0
 62
     7
 10
156.03200000000001
 20
128.00499999999991
 30
0.0
 11
155.691
 21
128.3249999999999
 31
0.0
  0
LINE
  5
5C2
  8
0
 62
     7
 10
156.03200000000001
 20
128.30299999999991
 30
0.0
 11
155.71299999999991
 21
128.62299999999991
 31
0.0
  0
LINE
  5
5C3
  8
0
 62
     7
 10
156.03200000000001
 20
128.602
 30
0.0
 11
155.71299999999991
 21
128.922
 31
0.0
  0
LINE
  5
5C4
  8
0
 62
     7
 10
156.03200000000001
 20
128.87899999999991
 30
0.0
 11
155.71299999999991
 21
129.221
 31
0.0
  0
LINE
  5
5C5
  8
0
 62
     7
 10
156.054
 20
129.17799999999991
 30
0.0
 11
155.73400000000001
 21
129.49799999999999
 31
0.0
  0
LINE
  5
5C6
  8
0
 62
     7
 10
156.054
 20
129.47699999999989
 30
0.0
 11
155.73400000000001
 21
129.797
 31
0.0
  0
LINE
  5
5C7
  8
0
 62
     7
 10
156.054
 20
129.75399999999991
 30
0.0
 11
155.73400000000001
 21
130.096
 31
0.0
  0
LINE
  5
5C8
  8
0
 62
     7
 10
156.0749999999999
 20
130.05299999999991
 30
0.0
 11
155.73400000000001
 21
130.37299999999991
 31
0.0
  0
LINE
  5
5C9
  8
0
 62
     7
 10
156.0749999999999
 20
130.352
 30
0.0
 11
155.75499999999991
 21
130.672
 31
0.0
  0
LINE
  5
5CA
  8
0
 62
     7
 10
156.0749999999999
 20
130.64999999999989
 30
0.0
 11
155.75499999999991
 21
130.97
 31
0.0
  0
LINE
  5
5CB
  8
0
 62
     7
 10
156.09700000000001
 20
130.92699999999999
 30
0.0
 11
155.75499999999991
 21
131.26900000000001
 31
0.0
  0
LINE
  5
5CC
  8
0
 62
     7
 10
156.09700000000001
 20
131.22599999999991
 30
0.0
 11
155.77600000000001
 21
131.54599999999991
 31
0.0
  0
LINE
  5
5CD
  8
0
 62
     7
 10
156.09700000000001
 20
131.52500000000001
 30
0.0
 11
155.77600000000001
 21
131.84399999999999
 31
0.0
  0
LINE
  5
5CE
  8
0
 62
     7
 10
156.11799999999999
 20
131.80199999999999
 30
0.0
 11
155.77600000000001
 21
132.143
 31
0.0
  0
LINE
  5
5CF
  8
0
 62
     7
 10
156.11799999999999
 20
132.101
 30
0.0
 11
155.798
 21
132.4199999999999
 31
0.0
  0
LINE
  5
5D0
  8
0
 62
     7
 10
156.11799999999999
 20
132.399
 30
0.0
 11
155.798
 21
132.71899999999991
 31
0.0
  0
LINE
  5
5D1
  8
0
 62
     7
 10
156.13900000000001
 20
132.69799999999989
 30
0.0
 11
155.798
 21
133.018
 31
0.0
  0
LINE
  5
5D2
  8
0
 62
     7
 10
156.13900000000001
 20
132.97499999999991
 30
0.0
 11
155.8189999999999
 21
133.316
 31
0.0
  0
LINE
  5
5D3
  8
0
 62
     7
 10
156.13900000000001
 20
133.274
 30
0.0
 11
155.8189999999999
 21
133.59399999999991
 31
0.0
  0
LINE
  5
5D4
  8
0
 62
     7
 10
156.16099999999989
 20
133.572
 30
0.0
 11
155.8189999999999
 21
133.89199999999991
 31
0.0
  0
LINE
  5
5D5
  8
0
 62
     7
 10
156.16099999999989
 20
133.84999999999999
 30
0.0
 11
155.83999999999989
 21
134.191
 31
0.0
  0
LINE
  5
5D6
  8
0
 62
     7
 10
156.16099999999989
 20
134.148
 30
0.0
 11
155.83999999999989
 21
134.4679999999999
 31
0.0
  0
LINE
  5
5D7
  8
0
 62
     7
 10
156.18199999999999
 20
134.447
 30
0.0
 11
155.83999999999989
 21
134.76699999999991
 31
0.0
  0
LINE
  5
5D8
  8
0
 62
     7
 10
156.18199999999999
 20
134.74600000000001
 30
0.0
 11
155.86199999999991
 21
135.06499999999991
 31
0.0
  0
LINE
  5
5D9
  8
0
 62
     7
 10
156.18199999999999
 20
135.023
 30
0.0
 11
155.86199999999991
 21
135.364
 31
0.0
  0
LINE
  5
5DA
  8
0
 62
     7
 10
156.203
 20
135.321
 30
0.0
 11
155.86199999999991
 21
135.64199999999991
 31
0.0
  0
LINE
  5
5DB
  8
0
 62
     7
 10
156.203
 20
135.62
 30
0.0
 11
155.8829999999999
 21
135.93999999999991
 31
0.0
  0
LINE
  5
5DC
  8
0
 62
     7
 10
156.203
 20
135.89699999999999
 30
0.0
 11
155.8829999999999
 21
136.23899999999989
 31
0.0
  0
LINE
  5
5DD
  8
0
 62
     7
 10
156.2239999999999
 20
136.196
 30
0.0
 11
155.8829999999999
 21
136.51599999999991
 31
0.0
  0
LINE
  5
5DE
  8
0
 62
     7
 10
156.2239999999999
 20
136.495
 30
0.0
 11
155.90399999999991
 21
136.81499999999991
 31
0.0
  0
LINE
  5
5DF
  8
0
 62
     7
 10
156.2239999999999
 20
136.79300000000001
 30
0.0
 11
155.90399999999991
 21
137.11299999999989
 31
0.0
  0
LINE
  5
5E0
  8
0
 62
     7
 10
156.2239999999999
 20
137.071
 30
0.0
 11
155.90399999999991
 21
137.41200000000001
 31
0.0
  0
LINE
  5
5E1
  8
0
 62
     7
 10
156.245
 20
137.369
 30
0.0
 11
155.92599999999999
 21
137.68899999999991
 31
0.0
  0
LINE
  5
5E2
  8
0
 62
     7
 10
156.245
 20
137.66800000000001
 30
0.0
 11
155.92599999999999
 21
137.98799999999989
 31
0.0
  0
LINE
  5
5E3
  8
0
 62
     7
 10
156.245
 20
137.94499999999999
 30
0.0
 11
155.92599999999999
 21
138.28700000000001
 31
0.0
  0
LINE
  5
5E4
  8
0
 62
     7
 10
156.26699999999991
 20
138.244
 30
0.0
 11
155.92599999999999
 21
138.56399999999991
 31
0.0
  0
LINE
  5
5E5
  8
0
 62
     7
 10
156.26699999999991
 20
138.542
 30
0.0
 11
155.947
 21
138.863
 31
0.0
  0
LINE
  5
5E6
  8
0
 62
     7
 10
156.26699999999991
 20
138.84100000000001
 30
0.0
 11
155.947
 21
139.161
 31
0.0
  0
LINE
  5
5E7
  8
0
 62
     7
 10
156.2879999999999
 20
139.11799999999999
 30
0.0
 11
155.947
 21
139.46000000000001
 31
0.0
  0
LINE
  5
5E8
  8
0
 62
     7
 10
156.2879999999999
 20
139.417
 30
0.0
 11
155.9679999999999
 21
139.73699999999999
 31
0.0
  0
LINE
  5
5E9
  8
0
 62
     7
 10
156.2879999999999
 20
139.71600000000001
 30
0.0
 11
155.9679999999999
 21
140.036
 31
0.0
  0
LINE
  5
5EA
  8
0
 62
     7
 10
156.31
 20
139.99299999999991
 30
0.0
 11
155.9679999999999
 21
140.334
 31
0.0
  0
LINE
  5
5EB
  8
0
 62
     7
 10
156.31
 20
140.29199999999989
 30
0.0
 11
155.99000000000001
 21
140.61199999999999
 31
0.0
  0
LINE
  5
5EC
  8
0
 62
     7
 10
156.31
 20
140.59
 30
0.0
 11
155.99000000000001
 21
140.91
 31
0.0
  0
LINE
  5
5ED
  8
0
 62
     7
 10
156.33099999999999
 20
140.88900000000001
 30
0.0
 11
155.99000000000001
 21
141.209
 31
0.0
  0
LINE
  5
5EE
  8
0
 62
     7
 10
156.33099999999999
 20
141.16599999999991
 30
0.0
 11
156.01099999999991
 21
141.5079999999999
 31
0.0
  0
LINE
  5
5EF
  8
0
 62
     7
 10
156.33099999999999
 20
141.46499999999989
 30
0.0
 11
156.01099999999991
 21
141.785
 31
0.0
  0
LINE
  5
5F0
  8
0
 62
     7
 10
156.35299999999989
 20
141.76300000000001
 30
0.0
 11
156.01099999999991
 21
142.084
 31
0.0
  0
LINE
  5
5F1
  8
0
 62
     7
 10
156.35299999999989
 20
142.04099999999991
 30
0.0
 11
156.03200000000001
 21
142.38200000000001
 31
0.0
  0
LINE
  5
5F2
  8
0
 62
     7
 10
156.35299999999989
 20
142.33899999999991
 30
0.0
 11
156.03200000000001
 21
142.66
 31
0.0
  0
LINE
  5
5F3
  8
0
 62
     7
 10
156.37399999999991
 20
142.63799999999989
 30
0.0
 11
156.03200000000001
 21
142.958
 31
0.0
  0
LINE
  5
5F4
  8
0
 62
     7
 10
156.37399999999991
 20
142.93700000000001
 30
0.0
 11
156.054
 21
143.25700000000001
 31
0.0
  0
LINE
  5
5F5
  8
0
 62
     7
 10
156.37399999999991
 20
143.21399999999991
 30
0.0
 11
156.054
 21
143.55500000000001
 31
0.0
  0
LINE
  5
5F6
  8
0
 62
     7
 10
156.39500000000001
 20
143.51300000000001
 30
0.0
 11
156.054
 21
143.833
 31
0.0
  0
LINE
  5
5F7
  8
0
 62
     7
 10
156.39500000000001
 20
143.81099999999989
 30
0.0
 11
156.0749999999999
 21
144.131
 31
0.0
  0
LINE
  5
5F8
  8
0
 62
     7
 10
156.39500000000001
 20
144.089
 30
0.0
 11
156.0749999999999
 21
144.43000000000001
 31
0.0
  0
LINE
  5
5F9
  8
0
 62
     7
 10
156.39500000000001
 20
144.38699999999989
 30
0.0
 11
156.0749999999999
 21
144.70699999999991
 31
0.0
  0
LINE
  5
5FA
  8
0
 62
     7
 10
156.416
 20
144.68600000000001
 30
0.0
 11
156.09700000000001
 21
145.006
 31
0.0
  0
LINE
  5
5FB
  8
0
 62
     7
 10
156.416
 20
144.98500000000001
 30
0.0
 11
156.09700000000001
 21
145.304
 31
0.0
  0
LINE
  5
5FC
  8
0
 62
     7
 10
156.416
 20
145.262
 30
0.0
 11
156.09700000000001
 21
145.58199999999991
 31
0.0
  0
LINE
  5
5FD
  8
0
 62
     7
 10
156.4379999999999
 20
145.56100000000001
 30
0.0
 11
156.09700000000001
 21
145.87999999999991
 31
0.0
  0
LINE
  5
5FE
  8
0
 62
     7
 10
156.4379999999999
 20
145.85900000000001
 30
0.0
 11
156.11799999999999
 21
146.179
 31
0.0
  0
LINE
  5
5FF
  8
0
 62
     7
 10
156.4379999999999
 20
146.13599999999991
 30
0.0
 11
156.11799999999999
 21
146.47799999999989
 31
0.0
  0
LINE
  5
600
  8
0
 62
     7
 10
156.459
 20
146.435
 30
0.0
 11
156.11799999999999
 21
146.75499999999991
 31
0.0
  0
LINE
  5
601
  8
0
 62
     7
 10
156.459
 20
146.73400000000001
 30
0.0
 11
156.13900000000001
 21
147.05399999999989
 31
0.0
  0
LINE
  5
602
  8
0
 62
     7
 10
156.459
 20
147.011
 30
0.0
 11
156.13900000000001
 21
147.352
 31
0.0
  0
LINE
  5
603
  8
0
 62
     7
 10
156.4799999999999
 20
147.309
 30
0.0
 11
156.13900000000001
 21
147.62999999999991
 31
0.0
  0
LINE
  5
604
  8
0
 62
     7
 10
156.4799999999999
 20
147.608
 30
0.0
 11
156.16099999999989
 21
147.92799999999991
 31
0.0
  0
LINE
  5
605
  8
0
 62
     7
 10
156.4799999999999
 20
147.90700000000001
 30
0.0
 11
156.16099999999989
 21
148.22699999999989
 31
0.0
  0
LINE
  5
606
  8
0
 62
     7
 10
156.50200000000001
 20
148.184
 30
0.0
 11
156.16099999999989
 21
148.52600000000001
 31
0.0
  0
LINE
  5
607
  8
0
 62
     7
 10
156.50200000000001
 20
148.483
 30
0.0
 11
156.18199999999999
 21
148.803
 31
0.0
  0
LINE
  5
608
  8
0
 62
     7
 10
156.50200000000001
 20
148.78200000000001
 30
0.0
 11
156.18199999999999
 21
149.10199999999989
 31
0.0
  0
LINE
  5
609
  8
0
 62
     7
 10
156.52299999999991
 20
149.059
 30
0.0
 11
156.18199999999999
 21
149.39999999999989
 31
0.0
  0
LINE
  5
60A
  8
0
 62
     7
 10
156.52299999999991
 20
149.358
 30
0.0
 11
156.203
 21
149.678
 31
0.0
  0
LINE
  5
60B
  8
0
 62
     7
 10
156.52299999999991
 20
149.65600000000001
 30
0.0
 11
156.203
 21
149.976
 31
0.0
  0
LINE
  5
60C
  8
0
 62
     7
 10
156.5439999999999
 20
149.95500000000001
 30
0.0
 11
156.203
 21
150.27499999999989
 31
0.0
  0
LINE
  5
60D
  8
0
 62
     7
 10
156.5439999999999
 20
150.232
 30
0.0
 11
156.2239999999999
 21
150.57299999999989
 31
0.0
  0
LINE
  5
60E
  8
0
 62
     7
 10
156.5439999999999
 20
150.53100000000001
 30
0.0
 11
156.2239999999999
 21
150.851
 31
0.0
  0
LINE
  5
60F
  8
0
 62
     7
 10
156.566
 20
150.82900000000001
 30
0.0
 11
156.2239999999999
 21
151.149
 31
0.0
  0
LINE
  5
610
  8
0
 62
     7
 10
156.566
 20
151.107
 30
0.0
 11
156.245
 21
151.44799999999989
 31
0.0
  0
LINE
  5
611
  8
0
 62
     7
 10
156.566
 20
151.405
 30
0.0
 11
156.245
 21
151.72499999999991
 31
0.0
  0
LINE
  5
612
  8
0
 62
     7
 10
156.566
 20
151.70400000000001
 30
0.0
 11
156.245
 21
152.024
 31
0.0
  0
LINE
  5
613
  8
0
 62
     7
 10
156.58699999999999
 20
152.00299999999999
 30
0.0
 11
156.26699999999991
 21
152.322
 31
0.0
  0
LINE
  5
614
  8
0
 62
     7
 10
156.58699999999999
 20
152.28
 30
0.0
 11
156.26699999999991
 21
152.62100000000001
 31
0.0
  0
LINE
  5
615
  8
0
 62
     7
 10
156.58699999999999
 20
152.578
 30
0.0
 11
156.26699999999991
 21
152.89799999999991
 31
0.0
  0
LINE
  5
616
  8
0
 62
     7
 10
156.608
 20
152.87700000000001
 30
0.0
 11
156.26699999999991
 21
153.197
 31
0.0
  0
LINE
  5
617
  8
0
 62
     7
 10
156.608
 20
153.15399999999991
 30
0.0
 11
156.2879999999999
 21
153.495
 31
0.0
  0
LINE
  5
618
  8
0
 62
     7
 10
156.608
 20
153.453
 30
0.0
 11
156.2879999999999
 21
153.77299999999991
 31
0.0
  0
LINE
  5
619
  8
0
 62
     7
 10
156.63
 20
153.75200000000001
 30
0.0
 11
156.2879999999999
 21
154.072
 31
0.0
  0
LINE
  5
61A
  8
0
 62
     7
 10
156.63
 20
154.05000000000001
 30
0.0
 11
156.31
 21
154.37
 31
0.0
  0
LINE
  5
61B
  8
0
 62
     7
 10
156.63
 20
154.32699999999991
 30
0.0
 11
156.31
 21
154.6689999999999
 31
0.0
  0
LINE
  5
61C
  8
0
 62
     7
 10
156.65100000000001
 20
154.626
 30
0.0
 11
156.31
 21
154.946
 31
0.0
  0
LINE
  5
61D
  8
0
 62
     7
 10
156.65100000000001
 20
154.92500000000001
 30
0.0
 11
156.33099999999999
 21
155.245
 31
0.0
  0
LINE
  5
61E
  8
0
 62
     7
 10
156.65100000000001
 20
155.20199999999991
 30
0.0
 11
156.33099999999999
 21
155.5439999999999
 31
0.0
  0
LINE
  5
61F
  8
0
 62
     7
 10
156.672
 20
155.501
 30
0.0
 11
156.33099999999999
 21
155.821
 31
0.0
  0
LINE
  5
620
  8
0
 62
     7
 10
156.672
 20
155.80000000000001
 30
0.0
 11
156.35299999999989
 21
156.119
 31
0.0
  0
LINE
  5
621
  8
0
 62
     7
 10
156.672
 20
156.0979999999999
 30
0.0
 11
156.35299999999989
 21
156.41800000000001
 31
0.0
  0
LINE
  5
622
  8
0
 62
     7
 10
156.6929999999999
 20
156.376
 30
0.0
 11
156.35299999999989
 21
156.71700000000001
 31
0.0
  0
LINE
  5
623
  8
0
 62
     7
 10
156.6929999999999
 20
156.67400000000001
 30
0.0
 11
156.37399999999991
 21
156.994
 31
0.0
  0
LINE
  5
624
  8
0
 62
     7
 10
156.6929999999999
 20
156.9729999999999
 30
0.0
 11
156.37399999999991
 21
157.29300000000001
 31
0.0
  0
LINE
  5
625
  8
0
 62
     7
 10
156.71499999999989
 20
157.24999999999989
 30
0.0
 11
156.37399999999991
 21
157.59100000000001
 31
0.0
  0
LINE
  5
626
  8
0
 62
     7
 10
156.71499999999989
 20
157.54900000000001
 30
0.0
 11
156.39500000000001
 21
157.86899999999989
 31
0.0
  0
LINE
  5
627
  8
0
 62
     7
 10
156.71499999999989
 20
157.84700000000001
 30
0.0
 11
156.39500000000001
 21
158.167
 31
0.0
  0
LINE
  5
628
  8
0
 62
     7
 10
156.7359999999999
 20
158.14599999999999
 30
0.0
 11
156.39500000000001
 21
158.46600000000001
 31
0.0
  0
LINE
  5
629
  8
0
 62
     7
 10
156.7359999999999
 20
158.42299999999989
 30
0.0
 11
156.416
 21
158.76499999999999
 31
0.0
  0
LINE
  5
62A
  8
0
 62
     7
 10
156.7359999999999
 20
158.72200000000001
 30
0.0
 11
156.416
 21
159.04199999999989
 31
0.0
  0
LINE
  5
62B
  8
0
 62
     7
 10
156.7579999999999
 20
159.02099999999999
 30
0.0
 11
156.416
 21
159.34
 31
0.0
  0
LINE
  5
62C
  8
0
 62
     7
 10
156.7579999999999
 20
159.298
 30
0.0
 11
156.459
 21
159.59700000000001
 31
0.0
  0
LINE
  5
62D
  8
0
 62
     7
 10
156.80000000000001
 20
159.55399999999989
 30
0.0
 11
156.566
 21
159.7879999999999
 31
0.0
  0
LINE
  5
62E
  8
0
 62
     7
 10
156.9499999999999
 20
159.72399999999999
 30
0.0
 11
156.71499999999989
 21
159.959
 31
0.0
  0
LINE
  5
62F
  8
0
 62
     7
 10
157.0989999999999
 20
159.874
 30
0.0
 11
156.864
 21
160.108
 31
0.0
  0
LINE
  5
630
  8
0
 62
     7
 10
157.24799999999991
 20
160.02299999999991
 30
0.0
 11
157.01400000000001
 21
160.2579999999999
 31
0.0
  0
LINE
  5
631
  8
0
 62
     7
 10
157.376
 20
160.172
 30
0.0
 11
157.14199999999991
 21
160.40700000000001
 31
0.0
  0
LINE
  5
632
  8
0
 62
     7
 10
157.50399999999991
 20
160.364
 30
0.0
 11
157.24799999999991
 21
160.62
 31
0.0
  0
LINE
  5
633
  8
0
 62
     7
 10
157.56800000000001
 20
160.578
 30
0.0
 11
157.31200000000001
 21
160.834
 31
0.0
  0
LINE
  5
634
  8
0
 62
     7
 10
127.8329999999999
 20
80.094800000000006
 30
0.0
 11
127.8329999999999
 21
119.81399999999989
 31
0.0
  0
LINE
  5
635
  8
0
 62
     7
 10
155.92599999999999
 20
109.809
 30
0.0
 11
157.0989999999999
 21
159.874
 31
0.0
  0
ARC
  5
636
  8
0
 62
     7
 10
42.445213000000003
 20
123.1271159999999
 30
0.0
 40
85.387670999999983
 50
348.96308399999992
 51
0.081139
  0
LINE
  5
637
  8
0
 62
     7
 10
129.83799999999991
 20
79.326899999999995
 30
0.0
 11
129.83799999999991
 21
119.81399999999989
 31
0.0
  0
LINE
  5
638
  8
0
 62
     7
 10
141.33500000000001
 20
119.664
 30
0.0
 11
141.33500000000001
 21
96.861199999999997
 31
0.0
  0
ARC
  5
639
  8
0
 62
     7
 10
700.82998899999996
 20
186.86199999999991
 30
0.0
 40
566.68765399999995
 50
188.94671799999989
 51
189.13837599999999
  0
ARC
  5
63A
  8
0
 62
     7
 10
232.0490759999999
 20
112.9173009999999
 30
0.0
 40
92.110748999999984
 50
187.51614900000001
 51
188.8581979999999
  0
ARC
  5
63B
  8
0
 62
     7
 10
189.91014599999991
 20
107.267083
 30
0.0
 40
49.594875999999999
 50
184.68532999999999
 51
187.41254799999999
  0
ARC
  5
63C
  8
0
 62
     7
 10
174.342659
 20
105.901374
 30
0.0
 40
33.967973000000001
 50
180.28043799999989
 51
184.53428600000001
  0
ARC
  5
63D
  8
0
 62
     7
 10
190.97332800000001
 20
106.458012
 30
0.0
 40
50.603398999999989
 50
178.238302
 51
180.818535
  0
ARC
  5
63E
  8
0
 62
     7
 10
214.514263
 20
105.87258899999991
 30
0.0
 40
74.151333999999991
 50
176.74699499999991
 51
178.34536199999999
  0
ARC
  5
63F
  8
0
 62
     7
 10
255.5352169999999
 20
103.68248800000001
 30
0.0
 40
115.230555
 50
176.2204219999999
 51
176.81718100000001
  0
ARC
  5
640
  8
0
 62
     7
 10
340.60083600000002
 20
98.022851000000003
 30
0.0
 40
200.48423600000001
 50
175.740689
 51
176.2089959999999
  0
ARC
  5
641
  8
0
 62
     7
 10
-856.23560899999995
 20
188.319727
 30
0.0
 40
999.7537699999998
 50
355.67433299999988
 51
355.8559699999999
  0
ARC
  5
642
  8
0
 62
     7
 10
17.314972999999998
 20
124.80373899999989
 30
0.0
 40
123.897334
 50
355.959428
 51
357.11946599999987
  0
ARC
  5
643
  8
0
 62
     7
 10
66.159267
 20
122.21374299999989
 30
0.0
 40
74.984716000000006
 50
357.22041899999999
 51
358.05169299999989
  0
LINE
  5
644
  8
0
 62
     7
 10
155.60599999999991
 20
109.809
 30
0.0
 11
156.7579999999999
 21
159.405
 31
0.0
  0
LINE
  5
645
  8
0
 62
     7
 10
129.83799999999991
 20
79.326899999999995
 30
0.0
 11
129.83799999999991
 21
90.419200000000004
 31
0.0
  0
ARC
  5
646
  8
0
 62
     7
 10
238.31131999999999
 20
85.035704999999993
 30
0.0
 40
114.148031
 50
169.01828699999999
 51
180.38126
  0
ARC
  5
647
  8
0
 62
     7
 10
124.4439389999999
 20
80.073196999999993
 30
0.0
 40
3.3891369999999998
 50
0.7328720000000001
 51
30.180243000000001
  0
ARC
  5
648
  8
0
 62
     7
 10
124.06766999999989
 20
79.894083999999992
 30
0.0
 40
3.8046009999999999
 50
29.663322000000001
 51
68.946600000000004
  0
ARC
  5
649
  8
0
 62
     7
 10
124.31254800000001
 20
80.370056000000005
 30
0.0
 40
3.272937999999999
 50
69.95400699999999
 51
82.463127
  0
LINE
  5
64A
  8
0
 62
     7
 10
127.8329999999999
 20
80.116500000000016
 30
0.0
 11
127.875
 21
79.924300000000002
 31
0.0
  0
LINE
  5
64B
  8
0
 62
     7
 10
127.875
 20
79.924300000000002
 30
0.0
 11
127.95999999999999
 21
79.753399999999999
 31
0.0
  0
LINE
  5
64C
  8
0
 62
     7
 10
127.95999999999999
 20
79.753399999999999
 30
0.0
 11
128.08799999999999
 21
79.626000000000005
 31
0.0
  0
LINE
  5
64D
  8
0
 62
     7
 10
128.08799999999999
 20
79.626000000000005
 30
0.0
 11
128.238
 21
79.518799999999999
 31
0.0
  0
LINE
  5
64E
  8
0
 62
     7
 10
128.238
 20
79.518799999999999
 30
0.0
 11
128.429
 21
79.476399999999984
 31
0.0
  0
LINE
  5
64F
  8
0
 62
     7
 10
128.429
 20
79.476399999999984
 30
0.0
 11
129.83799999999991
 21
79.326899999999995
 31
0.0
  0
LINE
  5
650
  8
0
 62
     7
 10
124.1659999999999
 20
84.276200000000003
 30
0.0
 11
124.209
 21
84.041200000000003
 31
0.0
  0
LINE
  5
651
  8
0
 62
     7
 10
124.209
 20
84.041200000000003
 30
0.0
 11
124.337
 21
83.849299999999999
 31
0.0
  0
LINE
  5
652
  8
0
 62
     7
 10
124.337
 20
83.849299999999999
 30
0.0
 11
124.50700000000001
 21
83.700199999999995
 31
0.0
  0
LINE
  5
653
  8
0
 62
     7
 10
124.50700000000001
 20
83.700199999999995
 30
0.0
 11
124.7419999999999
 21
83.614699999999999
 31
0.0
  0
LINE
  5
654
  8
0
 62
     7
 10
140.65199999999999
 20
96.498800000000017
 30
0.0
 11
129.83799999999991
 21
90.034999999999997
 31
0.0
  0
ARC
  5
655
  8
0
 62
     7
 10
138.563805
 20
124.7180629999999
 30
0.0
 40
27.086988000000002
 50
282.87359800000002
 51
290.38762500000001
  0
ARC
  5
656
  8
0
 62
     7
 10
136.260952
 20
131.28863699999999
 30
0.0
 40
34.048456999999999
 50
290.168205
 51
295.91754400000002
  0
ARC
  5
657
  8
0
 62
     7
 10
132.715746
 20
138.90547699999991
 30
0.0
 40
42.448987000000002
 50
295.72789899999998
 51
298.12466799999999
  0
LINE
  5
658
  8
0
 62
     7
 10
140.65199999999999
 20
96.498800000000017
 30
0.0
 11
141.33500000000001
 21
96.861199999999997
 31
0.0
  0
LINE
  5
659
  8
0
 62
     7
 10
141.33500000000001
 20
96.861199999999997
 30
0.0
 11
144.5989999999999
 21
98.311899999999994
 31
0.0
  0
ARC
  5
65A
  8
0
 62
     7
 10
148.38011299999991
 20
107.22885599999999
 30
0.0
 40
7.2051729999999994
 50
286.995564
 51
336.06826999999998
  0
LINE
  5
65B
  8
0
 62
     7
 10
155.286
 20
104.242
 30
0.0
 11
155.60599999999991
 21
106.07599999999999
 31
0.0
  0
LINE
  5
65C
  8
0
 62
     7
 10
155.60599999999991
 20
106.07599999999999
 30
0.0
 11
155.8189999999999
 21
107.932
 31
0.0
  0
LINE
  5
65D
  8
0
 62
     7
 10
155.8189999999999
 20
107.932
 30
0.0
 11
155.92599999999999
 21
109.7879999999999
 31
0.0
  0
LINE
  5
65E
  8
0
 62
     7
 10
154.96600000000001
 20
104.306
 30
0.0
 11
155.22200000000001
 21
105.821
 31
0.0
  0
LINE
  5
65F
  8
0
 62
     7
 10
155.22200000000001
 20
105.821
 30
0.0
 11
155.435
 21
107.33499999999999
 31
0.0
  0
LINE
  5
660
  8
0
 62
     7
 10
155.435
 20
107.33499999999999
 30
0.0
 11
155.5629999999999
 21
108.871
 31
0.0
  0
LINE
  5
661
  8
0
 62
     7
 10
155.5629999999999
 20
108.871
 30
0.0
 11
155.60599999999991
 21
110.407
 31
0.0
  0
LINE
  5
662
  8
0
 62
     7
 10
155.286
 20
104.242
 30
0.0
 11
154.96600000000001
 21
104.306
 31
0.0
  0
LINE
  5
663
  8
0
 62
     7
 10
72.638400000000004
 20
188.51300000000001
 30
0.0
 11
70.427300000000002
 21
187.92099999999999
 31
0.0
  0
LINE
  5
664
  8
0
 62
     7
 10
70.427300000000002
 20
187.92099999999999
 30
0.0
 11
72.638400000000004
 21
187.328
 31
0.0
  0
LINE
  5
665
  8
0
 62
     7
 10
72.638400000000004
 20
187.328
 30
0.0
 11
72.638400000000004
 21
188.51300000000001
 31
0.0
  0
LINE
  5
666
  8
0
 62
     7
 10
75.037199999999999
 20
187.92799999999991
 30
0.0
 11
70.427300000000002
 21
187.92799999999991
 31
0.0
  0
LINE
  5
667
  8
0
 62
     7
 10
96.8626
 20
76.940100000000001
 30
0.0
 11
94.651499999999984
 21
76.347899999999996
 31
0.0
  0
LINE
  5
668
  8
0
 62
     7
 10
94.651499999999984
 20
76.347899999999996
 30
0.0
 11
96.8626
 21
75.755399999999995
 31
0.0
  0
LINE
  5
669
  8
0
 62
     7
 10
96.8626
 20
75.755399999999995
 30
0.0
 11
96.8626
 21
76.940100000000001
 31
0.0
  0
LINE
  5
66A
  8
0
 62
     7
 10
94.651499999999984
 20
76.355199999999996
 30
0.0
 11
100.5419999999999
 21
76.355199999999996
 31
0.0
  0
LINE
  5
66B
  8
0
 62
     7
 10
100.5419999999999
 20
76.355199999999996
 30
0.0
 11
100.5419999999999
 21
79.688999999999993
 31
0.0
  0
LINE
  5
66C
  8
0
 62
     7
 10
94.114199999999997
 20
172.81200000000001
 30
0.0
 11
92.131200000000007
 21
173.95699999999999
 31
0.0
  0
LINE
  5
66D
  8
0
 62
     7
 10
92.131200000000007
 20
173.95699999999999
 30
0.0
 11
93.276000000000025
 21
171.97399999999999
 31
0.0
  0
LINE
  5
66E
  8
0
 62
     7
 10
93.276000000000025
 20
171.97399999999999
 30
0.0
 11
94.114199999999997
 21
172.81200000000001
 31
0.0
  0
LINE
  5
66F
  8
0
 62
     7
 10
88.074299999999994
 20
177.17599999999999
 30
0.0
 11
90.056899999999985
 21
176.03200000000001
 31
0.0
  0
LINE
  5
670
  8
0
 62
     7
 10
90.056899999999985
 20
176.03200000000001
 30
0.0
 11
88.912099999999995
 21
178.01400000000001
 31
0.0
  0
LINE
  5
671
  8
0
 62
     7
 10
88.912099999999995
 20
178.01400000000001
 30
0.0
 11
88.074299999999994
 21
177.17599999999999
 31
0.0
  0
LINE
  5
672
  8
0
 62
     7
 10
94.524900000000002
 20
171.5629999999999
 30
0.0
 11
84.718400000000003
 21
181.37
 31
0.0
  0
LINE
  5
673
  8
0
 62
     7
 10
84.718400000000003
 20
181.37
 30
0.0
 11
76.576899999999995
 21
181.37
 31
0.0
  0
LINE
  5
674
  8
0
 62
     7
 10
73.706699999999998
 20
165.102
 30
0.0
 11
71.723699999999994
 21
163.95699999999991
 31
0.0
  0
LINE
  5
675
  8
0
 62
     7
 10
71.723699999999994
 20
163.95699999999991
 30
0.0
 11
72.868200000000002
 21
165.93999999999991
 31
0.0
  0
LINE
  5
676
  8
0
 62
     7
 10
72.868200000000002
 20
165.93999999999991
 30
0.0
 11
73.706699999999998
 21
165.102
 31
0.0
  0
LINE
  5
677
  8
0
 62
     7
 10
67.150000000000006
 20
160.22200000000001
 30
0.0
 11
69.132999999999996
 21
161.36600000000001
 31
0.0
  0
LINE
  5
678
  8
0
 62
     7
 10
69.132999999999996
 20
161.36600000000001
 30
0.0
 11
67.987799999999993
 21
159.3839999999999
 31
0.0
  0
LINE
  5
679
  8
0
 62
     7
 10
67.987799999999993
 20
159.3839999999999
 30
0.0
 11
67.150000000000006
 21
160.22200000000001
 31
0.0
  0
LINE
  5
67A
  8
0
 62
     7
 10
74.117400000000004
 20
166.351
 30
0.0
 11
67.239599999999996
 21
159.47300000000001
 31
0.0
  0
LINE
  5
67B
  8
0
 62
     7
 10
67.239599999999996
 20
159.47300000000001
 30
0.0
 11
60.498199999999997
 21
159.47300000000001
 31
0.0
  0
LINE
  5
67C
  8
0
 62
     7
 10
102.40000000000001
 20
172.76400000000001
 30
0.0
 11
102.992
 21
174.97499999999991
 31
0.0
  0
LINE
  5
67D
  8
0
 62
     7
 10
102.992
 20
174.97499999999991
 30
0.0
 11
103.58499999999989
 21
172.76400000000001
 31
0.0
  0
LINE
  5
67E
  8
0
 62
     7
 10
103.58499999999989
 20
172.76400000000001
 30
0.0
 11
102.40000000000001
 21
172.76400000000001
 31
0.0
  0
LINE
  5
67F
  8
0
 62
     7
 10
103.56999999999989
 20
181.51900000000001
 30
0.0
 11
102.97799999999989
 21
179.30799999999991
 31
0.0
  0
LINE
  5
680
  8
0
 62
     7
 10
102.97799999999989
 20
179.30799999999991
 30
0.0
 11
102.38500000000001
 21
181.51900000000001
 31
0.0
  0
LINE
  5
681
  8
0
 62
     7
 10
102.38500000000001
 20
181.51900000000001
 30
0.0
 11
103.56999999999989
 21
181.51900000000001
 31
0.0
  0
LINE
  5
682
  8
0
 62
     7
 10
102.9849999999999
 20
182.34
 30
0.0
 11
102.9849999999999
 21
171.02099999999999
 31
0.0
  0
LINE
  5
683
  8
0
 62
     7
 10
40.206099999999999
 20
176.5379999999999
 30
0.0
 11
40.797899999999998
 21
174.328
 31
0.0
  0
LINE
  5
684
  8
0
 62
     7
 10
40.797899999999998
 20
174.328
 30
0.0
 11
41.390500000000003
 21
176.5379999999999
 31
0.0
  0
LINE
  5
685
  8
0
 62
     7
 10
41.390500000000003
 20
176.5379999999999
 30
0.0
 11
40.206099999999999
 21
176.5379999999999
 31
0.0
  0
LINE
  5
686
  8
0
 62
     7
 10
41.375999999999998
 20
177.11799999999999
 30
0.0
 11
40.783499999999989
 21
179.32900000000001
 31
0.0
  0
LINE
  5
687
  8
0
 62
     7
 10
40.783499999999989
 20
179.32900000000001
 30
0.0
 11
40.190899999999999
 21
177.11799999999999
 31
0.0
  0
LINE
  5
688
  8
0
 62
     7
 10
40.190899999999999
 20
177.11799999999999
 30
0.0
 11
41.375999999999998
 21
177.11799999999999
 31
0.0
  0
LINE
  5
689
  8
0
 62
     7
 10
40.79099999999999
 20
174.328
 30
0.0
 11
40.79099999999999
 21
179.32900000000001
 31
0.0
  0
LINE
  5
68A
  8
0
 62
     7
 10
109.85599999999999
 20
164.8709999999999
 30
0.0
 11
110.44799999999989
 21
162.661
 31
0.0
  0
LINE
  5
68B
  8
0
 62
     7
 10
110.44799999999989
 20
162.661
 30
0.0
 11
111.04000000000001
 21
164.8709999999999
 31
0.0
  0
LINE
  5
68C
  8
0
 62
     7
 10
111.04000000000001
 20
164.8709999999999
 30
0.0
 11
109.85599999999999
 21
164.8709999999999
 31
0.0
  0
LINE
  5
68D
  8
0
 62
     7
 10
111.026
 20
177.11799999999999
 30
0.0
 11
110.43300000000001
 21
179.32900000000001
 31
0.0
  0
LINE
  5
68E
  8
0
 62
     7
 10
110.43300000000001
 20
179.32900000000001
 30
0.0
 11
109.84099999999999
 21
177.11799999999999
 31
0.0
  0
LINE
  5
68F
  8
0
 62
     7
 10
109.84099999999999
 20
177.11799999999999
 30
0.0
 11
111.026
 21
177.11799999999999
 31
0.0
  0
LINE
  5
690
  8
0
 62
     7
 10
110.441
 20
162.661
 30
0.0
 11
110.441
 21
179.32900000000001
 31
0.0
  0
LINE
  5
691
  8
0
 62
     7
 10
97.637600000000006
 20
184.535
 30
0.0
 11
95.427199999999999
 21
185.1279999999999
 31
0.0
  0
LINE
  5
692
  8
0
 62
     7
 10
95.427199999999999
 20
185.1279999999999
 30
0.0
 11
97.637600000000006
 21
185.71999999999991
 31
0.0
  0
LINE
  5
693
  8
0
 62
     7
 10
97.637600000000006
 20
185.71999999999991
 30
0.0
 11
97.637600000000006
 21
184.535
 31
0.0
  0
LINE
  5
694
  8
0
 62
     7
 10
88.883200000000002
 20
185.70500000000001
 30
0.0
 11
91.094200000000001
 21
185.11299999999989
 31
0.0
  0
LINE
  5
695
  8
0
 62
     7
 10
91.094200000000001
 20
185.11299999999989
 30
0.0
 11
88.883200000000002
 21
184.5209999999999
 31
0.0
  0
LINE
  5
696
  8
0
 62
     7
 10
88.883200000000002
 20
184.5209999999999
 30
0.0
 11
88.883200000000002
 21
185.70500000000001
 31
0.0
  0
LINE
  5
697
  8
0
 62
     7
 10
88.0625
 20
185.12
 30
0.0
 11
99.177700000000002
 21
185.12
 31
0.0
  0
LINE
  5
698
  8
0
 62
     7
 10
86.224199999999996
 20
128.459
 30
0.0
 11
88.434600000000003
 21
129.05099999999999
 31
0.0
  0
LINE
  5
699
  8
0
 62
     7
 10
88.434600000000003
 20
129.05099999999999
 30
0.0
 11
86.224199999999996
 21
129.64400000000001
 31
0.0
  0
LINE
  5
69A
  8
0
 62
     7
 10
86.224199999999996
 20
129.64400000000001
 30
0.0
 11
86.224199999999996
 21
128.459
 31
0.0
  0
LINE
  5
69B
  8
0
 62
     7
 10
54.675600000000003
 20
129.62899999999991
 30
0.0
 11
52.464500000000001
 21
129.03700000000001
 31
0.0
  0
LINE
  5
69C
  8
0
 62
     7
 10
52.464500000000001
 20
129.03700000000001
 30
0.0
 11
54.675600000000003
 21
128.4439999999999
 31
0.0
  0
LINE
  5
69D
  8
0
 62
     7
 10
54.675600000000003
 20
128.4439999999999
 30
0.0
 11
54.675600000000003
 21
129.62899999999991
 31
0.0
  0
LINE
  5
69E
  8
0
 62
     7
 10
88.434600000000003
 20
129.0439999999999
 30
0.0
 11
52.464500000000001
 21
129.0439999999999
 31
0.0
  0
LINE
  5
69F
  8
0
 62
     7
 10
93.216800000000006
 20
191.976
 30
0.0
 11
95.427199999999999
 21
192.5679999999999
 31
0.0
  0
LINE
  5
6A0
  8
0
 62
     7
 10
95.427199999999999
 20
192.5679999999999
 30
0.0
 11
93.216800000000006
 21
193.16099999999989
 31
0.0
  0
LINE
  5
6A1
  8
0
 62
     7
 10
93.216800000000006
 20
193.16099999999989
 30
0.0
 11
93.216800000000006
 21
191.976
 31
0.0
  0
LINE
  5
6A2
  8
0
 62
     7
 10
47.638199999999991
 20
193.1459999999999
 30
0.0
 11
45.427100000000003
 21
192.55399999999989
 31
0.0
  0
LINE
  5
6A3
  8
0
 62
     7
 10
45.427100000000003
 20
192.55399999999989
 30
0.0
 11
47.638199999999991
 21
191.9609999999999
 31
0.0
  0
LINE
  5
6A4
  8
0
 62
     7
 10
47.638199999999991
 20
191.9609999999999
 30
0.0
 11
47.638199999999991
 21
193.1459999999999
 31
0.0
  0
LINE
  5
6A5
  8
0
 62
     7
 10
95.427199999999999
 20
192.56099999999989
 30
0.0
 11
45.427100000000003
 21
192.56099999999989
 31
0.0
  0
LINE
  5
6A6
  8
0
 62
     7
 10
45.427100000000003
 20
193.25399999999999
 30
0.0
 11
45.427100000000003
 21
180.029
 31
0.0
  0
LINE
  5
6A7
  8
0
 62
     7
 10
95.427199999999999
 20
193.25399999999999
 30
0.0
 11
95.427199999999999
 21
180.029
 31
0.0
  0
LINE
  5
6A8
  8
0
  6
AIGENLINE001
 62
     7
 10
91.094200000000001
 20
177.744
 30
0.0
 11
91.094200000000001
 21
172.244
 31
0.0
  0
LINE
  5
6A9
  8
0
  6
AIGENLINE001
 62
     7
 10
93.844099999999997
 20
174.994
 30
0.0
 11
88.343999999999994
 21
174.994
 31
0.0
  0
LINE
  5
6AA
  8
0
  6
AIGENLINE001
 62
     7
 10
75.438900000000004
 20
162.661
 30
0.0
 11
66.573999999999984
 21
162.661
 31
0.0
  0
LINE
  5
6AB
  8
0
  6
AIGENLINE001
 62
     7
 10
70.427300000000002
 20
75.925899999999999
 30
0.0
 11
70.427300000000002
 21
188.97099999999989
 31
0.0
  0
LINE
  5
6AC
  8
0
 62
     7
 10
33.927
 20
177.119
 30
0.0
 11
33.33509999999999
 21
179.32900000000001
 31
0.0
  0
LINE
  5
6AD
  8
0
 62
     7
 10
33.33509999999999
 20
179.32900000000001
 30
0.0
 11
32.742600000000003
 21
177.119
 31
0.0
  0
LINE
  5
6AE
  8
0
 62
     7
 10
32.742600000000003
 20
177.119
 30
0.0
 11
33.927
 21
177.119
 31
0.0
  0
LINE
  5
6AF
  8
0
 62
     7
 10
32.756999999999998
 20
81.538300000000007
 30
0.0
 11
33.349600000000002
 21
79.327299999999994
 31
0.0
  0
LINE
  5
6B0
  8
0
 62
     7
 10
33.349600000000002
 20
79.327299999999994
 30
0.0
 11
33.9422
 21
81.538300000000007
 31
0.0
  0
LINE
  5
6B1
  8
0
 62
     7
 10
33.9422
 20
81.538300000000007
 30
0.0
 11
32.756999999999998
 21
81.538300000000007
 31
0.0
  0
LINE
  5
6B2
  8
0
 62
     7
 10
33.341999999999999
 20
179.32900000000001
 30
0.0
 11
33.341999999999999
 21
79.327299999999994
 31
0.0
  0
LINE
  5
6B3
  8
0
 62
     7
 10
32.649500000000003
 20
79.327299999999994
 30
0.0
 11
44.7271
 21
79.327299999999994
 31
0.0
  0
LINE
  5
6B4
  8
0
 62
     7
 10
96.127200000000016
 20
179.30799999999991
 30
0.0
 11
111.1329999999999
 21
179.30799999999991
 31
0.0
  0
LINE
  5
6B5
  8
0
 62
     7
 10
91.094200000000001
 20
178.44399999999999
 30
0.0
 11
91.094200000000001
 21
185.828
 31
0.0
  0
LINE
  5
6B6
  8
0
 62
     7
 10
94.544200000000004
 20
174.994
 30
0.0
 11
103.678
 21
174.994
 31
0.0
  0
LINE
  5
6B7
  8
0
 62
     7
 10
40.097900000000003
 20
174.328
 30
0.0
 11
65.176999999999992
 21
174.328
 31
0.0
  0
LINE
  5
6B8
  8
0
 62
     7
 10
76.138999999999996
 20
162.661
 30
0.0
 11
111.148
 21
162.661
 31
0.0
  0
LINE
  5
6B9
  8
0
 62
     7
 10
32.649500000000003
 20
179.32900000000001
 30
0.0
 11
44.7271
 21
179.32900000000001
 31
0.0
  0
LINE
  5
6BA
  8
0
 62
     7
 10
174.16499999999991
 20
152.11699999999999
 30
0.0
 11
173.57299999999989
 21
154.328
 31
0.0
  0
LINE
  5
6BB
  8
0
 62
     7
 10
173.57299999999989
 20
154.328
 30
0.0
 11
172.97999999999999
 21
152.11699999999999
 31
0.0
  0
LINE
  5
6BC
  8
0
 62
     7
 10
172.97999999999999
 20
152.11699999999999
 30
0.0
 11
174.16499999999991
 21
152.11699999999999
 31
0.0
  0
LINE
  5
6BD
  8
0
 62
     7
 10
172.995
 20
112.871
 30
0.0
 11
173.58699999999999
 21
110.66
 31
0.0
  0
LINE
  5
6BE
  8
0
 62
     7
 10
173.58699999999999
 20
110.66
 30
0.0
 11
174.18000000000001
 21
112.871
 31
0.0
  0
LINE
  5
6BF
  8
0
 62
     7
 10
174.18000000000001
 20
112.871
 30
0.0
 11
172.995
 21
112.871
 31
0.0
  0
LINE
  5
6C0
  8
0
 62
     7
 10
173.58000000000001
 20
154.328
 30
0.0
 11
173.58000000000001
 21
110.66
 31
0.0
  0
LINE
  5
6C1
  8
0
 62
     7
 10
125.4079999999999
 20
183.98099999999991
 30
0.0
 11
127.6179999999999
 21
184.57299999999989
 31
0.0
  0
LINE
  5
6C2
  8
0
 62
     7
 10
127.6179999999999
 20
184.57299999999989
 30
0.0
 11
125.4079999999999
 21
185.166
 31
0.0
  0
LINE
  5
6C3
  8
0
 62
     7
 10
125.4079999999999
 20
185.166
 30
0.0
 11
125.4079999999999
 21
183.98099999999991
 31
0.0
  0
LINE
  5
6C4
  8
0
 62
     7
 10
131.834
 20
185.1509999999999
 30
0.0
 11
129.62299999999991
 21
184.559
 31
0.0
  0
LINE
  5
6C5
  8
0
 62
     7
 10
129.62299999999991
 20
184.559
 30
0.0
 11
131.834
 21
183.96599999999989
 31
0.0
  0
LINE
  5
6C6
  8
0
 62
     7
 10
131.834
 20
183.96599999999989
 30
0.0
 11
131.834
 21
185.1509999999999
 31
0.0
  0
LINE
  5
6C7
  8
0
 62
     7
 10
136.47999999999999
 20
184.56599999999989
 30
0.0
 11
123.95699999999999
 21
184.56599999999989
 31
0.0
  0
LINE
  5
6C8
  8
0
 62
     7
 10
154.28999999999991
 20
162.80799999999991
 30
0.0
 11
156.49999999999989
 21
163.40000000000001
 31
0.0
  0
LINE
  5
6C9
  8
0
 62
     7
 10
156.49999999999989
 20
163.40000000000001
 30
0.0
 11
154.28999999999991
 21
163.99199999999999
 31
0.0
  0
LINE
  5
6CA
  8
0
 62
     7
 10
154.28999999999991
 20
163.99199999999999
 30
0.0
 11
154.28999999999991
 21
162.80799999999991
 31
0.0
  0
LINE
  5
6CB
  8
0
 62
     7
 10
130.041
 20
163.97799999999989
 30
0.0
 11
127.8299999999999
 21
163.38499999999991
 31
0.0
  0
LINE
  5
6CC
  8
0
 62
     7
 10
127.8299999999999
 20
163.38499999999991
 30
0.0
 11
130.041
 21
162.79300000000001
 31
0.0
  0
LINE
  5
6CD
  8
0
 62
     7
 10
130.041
 20
162.79300000000001
 30
0.0
 11
130.041
 21
163.97799999999989
 31
0.0
  0
LINE
  5
6CE
  8
0
 62
     7
 10
156.49999999999989
 20
163.393
 30
0.0
 11
127.8299999999999
 21
163.393
 31
0.0
  0
LINE
  5
6CF
  8
0
 62
     7
 10
160.95599999999999
 20
191.31
 30
0.0
 11
163.166
 21
191.90199999999999
 31
0.0
  0
LINE
  5
6D0
  8
0
 62
     7
 10
163.166
 20
191.90199999999999
 30
0.0
 11
160.95599999999999
 21
192.494
 31
0.0
  0
LINE
  5
6D1
  8
0
 62
     7
 10
160.95599999999999
 20
192.494
 30
0.0
 11
160.95599999999999
 21
191.31
 31
0.0
  0
LINE
  5
6D2
  8
0
 62
     7
 10
130.0439999999999
 20
192.4799999999999
 30
0.0
 11
127.8329999999999
 21
191.887
 31
0.0
  0
LINE
  5
6D3
  8
0
 62
     7
 10
127.8329999999999
 20
191.887
 30
0.0
 11
130.0439999999999
 21
191.29499999999999
 31
0.0
  0
LINE
  5
6D4
  8
0
 62
     7
 10
130.0439999999999
 20
191.29499999999999
 30
0.0
 11
130.0439999999999
 21
192.4799999999999
 31
0.0
  0
LINE
  5
6D5
  8
0
 62
     7
 10
163.166
 20
191.89500000000001
 30
0.0
 11
127.8329999999999
 21
191.89500000000001
 31
0.0
  0
LINE
  5
6D6
  8
0
 62
     7
 10
174.16499999999991
 20
176.45099999999999
 30
0.0
 11
173.57299999999989
 21
178.66099999999989
 31
0.0
  0
LINE
  5
6D7
  8
0
 62
     7
 10
173.57299999999989
 20
178.66099999999989
 30
0.0
 11
172.97999999999999
 21
176.45099999999999
 31
0.0
  0
LINE
  5
6D8
  8
0
 62
     7
 10
172.97999999999999
 20
176.45099999999999
 30
0.0
 11
174.16499999999991
 21
176.45099999999999
 31
0.0
  0
LINE
  5
6D9
  8
0
 62
     7
 10
172.995
 20
156.5389999999999
 30
0.0
 11
173.58699999999999
 21
154.328
 31
0.0
  0
LINE
  5
6DA
  8
0
 62
     7
 10
173.58699999999999
 20
154.328
 30
0.0
 11
174.18000000000001
 21
156.5389999999999
 31
0.0
  0
LINE
  5
6DB
  8
0
 62
     7
 10
174.18000000000001
 20
156.5389999999999
 30
0.0
 11
172.995
 21
156.5389999999999
 31
0.0
  0
LINE
  5
6DC
  8
0
 62
     7
 10
173.58000000000001
 20
178.66099999999989
 30
0.0
 11
173.58000000000001
 21
154.328
 31
0.0
  0
LINE
  5
6DD
  8
0
 62
     7
 10
174.16499999999991
 20
108.45
 30
0.0
 11
173.57299999999989
 21
110.66
 31
0.0
  0
LINE
  5
6DE
  8
0
 62
     7
 10
173.57299999999989
 20
110.66
 30
0.0
 11
172.97999999999999
 21
108.45
 31
0.0
  0
LINE
  5
6DF
  8
0
 62
     7
 10
172.97999999999999
 20
108.45
 30
0.0
 11
174.16499999999991
 21
108.45
 31
0.0
  0
LINE
  5
6E0
  8
0
 62
     7
 10
172.995
 20
81.537999999999997
 30
0.0
 11
173.58699999999999
 21
79.326899999999995
 31
0.0
  0
LINE
  5
6E1
  8
0
 62
     7
 10
173.58699999999999
 20
79.326899999999995
 30
0.0
 11
174.18000000000001
 21
81.537999999999997
 31
0.0
  0
LINE
  5
6E2
  8
0
 62
     7
 10
174.18000000000001
 20
81.537999999999997
 30
0.0
 11
172.995
 21
81.537999999999997
 31
0.0
  0
LINE
  5
6E3
  8
0
 62
     7
 10
173.58000000000001
 20
110.66
 30
0.0
 11
173.58000000000001
 21
79.326899999999995
 31
0.0
  0
LINE
  5
6E4
  8
0
 62
     7
 10
160.95599999999999
 20
72.518000000000001
 30
0.0
 11
163.166
 21
73.110600000000005
 31
0.0
  0
LINE
  5
6E5
  8
0
 62
     7
 10
163.166
 20
73.110600000000005
 30
0.0
 11
160.95599999999999
 21
73.703100000000006
 31
0.0
  0
LINE
  5
6E6
  8
0
 62
     7
 10
160.95599999999999
 20
73.703100000000006
 30
0.0
 11
160.95599999999999
 21
72.518000000000001
 31
0.0
  0
LINE
  5
6E7
  8
0
 62
     7
 10
126.377
 20
73.688000000000002
 30
0.0
 11
124.1659999999999
 21
73.096100000000007
 31
0.0
  0
LINE
  5
6E8
  8
0
 62
     7
 10
124.1659999999999
 20
73.096100000000007
 30
0.0
 11
126.377
 21
72.503500000000003
 31
0.0
  0
LINE
  5
6E9
  8
0
 62
     7
 10
126.377
 20
72.503500000000003
 30
0.0
 11
126.377
 21
73.688000000000002
 31
0.0
  0
LINE
  5
6EA
  8
0
 62
     7
 10
163.166
 20
73.103000000000009
 30
0.0
 11
124.1659999999999
 21
73.103000000000009
 31
0.0
  0
LINE
  5
6EB
  8
0
 62
     7
 10
124.1659999999999
 20
83.226100000000002
 30
0.0
 11
124.1659999999999
 21
72.410499999999999
 31
0.0
  0
LINE
  5
6EC
  8
0
 62
     7
 10
174.28700000000001
 20
154.328
 30
0.0
 11
164.8309999999999
 21
154.328
 31
0.0
  0
LINE
  5
6ED
  8
0
  6
AIGENLINE001
 62
     7
 10
164.13099999999989
 20
154.328
 30
0.0
 11
154.57299999999989
 21
154.328
 31
0.0
  0
LINE
  5
6EE
  8
0
 62
     7
 10
174.28700000000001
 20
110.66
 30
0.0
 11
164.8309999999999
 21
110.66
 31
0.0
  0
LINE
  5
6EF
  8
0
 62
     7
 10
174.28700000000001
 20
178.66099999999989
 30
0.0
 11
130.32299999999989
 21
178.66099999999989
 31
0.0
  0
LINE
  5
6F0
  8
0
 62
     7
 10
174.28700000000001
 20
79.326899999999995
 30
0.0
 11
130.32299999999989
 21
79.326899999999995
 31
0.0
  0
LINE
  5
6F1
  8
0
 62
     7
 10
129.83799999999991
 20
185.25899999999999
 30
0.0
 11
129.83799999999991
 21
180.02799999999991
 31
0.0
  0
LINE
  5
6F2
  8
0
 62
     7
 10
163.166
 20
192.602
 30
0.0
 11
163.166
 21
156.54300000000001
 31
0.0
  0
LINE
  5
6F3
  8
0
 62
     7
 10
127.8329999999999
 20
192.58699999999999
 30
0.0
 11
127.8329999999999
 21
179.696
 31
0.0
  0
LINE
  5
6F4
  8
0
 62
     7
 10
163.166
 20
108.4459999999999
 30
0.0
 11
163.166
 21
72.410499999999999
 31
0.0
  0
LINE
  5
6F5
  8
_________2
 62
     7
 10
210.00099999999989
 20
148.482
 30
0.0
 11
188.25099999999989
 21
148.482
 31
0.0
  0
LINE
  5
6F6
  8
_________2
 62
     7
 10
105.0
 20
16.979900000000001
 30
0.0
 11
105.0
 21
-0.000344512
 31
0.0
  0
LINE
  5
6F7
  8
_________2
 62
     7
 10
105.0
 20
297.00200000000001
 30
0.0
 11
105.0
 21
279.98200000000003
 31
0.0
  0
LINE
  5
6F8
  8
_________2
 62
     7
 10
21.749700000000001
 20
148.482
 30
0.0
 11
-0.000689023
 21
148.482
 31
0.0
  0
LINE
  5
6F9
  8
_________2
 62
     7
 10
81.441199999999995
 20
50.875799999999991
 30
0.0
 11
79.254900000000006
 21
50.875799999999991
 31
0.0
  0
LINE
  5
6FA
  8
_________2
 62
     7
 10
81.933800000000005
 20
50.875799999999991
 30
0.0
 11
81.681700000000006
 21
50.875799999999991
 31
0.0
  0
LINE
  5
6FB
  8
_________2
 62
     7
 10
82.426500000000004
 20
50.875799999999991
 30
0.0
 11
85.351399999999998
 21
50.875799999999991
 31
0.0
  0
LINE
  5
6FC
  8
_________2
 62
     7
 10
81.933800000000005
 20
50.875799999999991
 30
0.0
 11
82.186000000000007
 21
50.875799999999991
 31
0.0
  0
LINE
  5
6FD
  8
_________2
 62
     7
 10
75.537599999999998
 20
50.875799999999991
 30
0.0
 11
73.350700000000003
 21
50.875799999999991
 31
0.0
  0
LINE
  5
6FE
  8
_________2
 62
     7
 10
76.029600000000002
 20
50.875799999999991
 30
0.0
 11
75.778099999999995
 21
50.875799999999991
 31
0.0
  0
LINE
  5
6FF
  8
_________2
 62
     7
 10
76.029600000000002
 20
51.368400000000001
 30
0.0
 11
76.029600000000002
 21
53.555399999999999
 31
0.0
  0
LINE
  5
700
  8
_________2
 62
     7
 10
76.029600000000002
 20
50.875799999999991
 30
0.0
 11
76.029600000000002
 21
51.128
 31
0.0
  0
LINE
  5
701
  8
_________2
 62
     7
 10
76.522300000000001
 20
50.875799999999991
 30
0.0
 11
78.709199999999996
 21
50.875799999999991
 31
0.0
  0
LINE
  5
702
  8
_________2
 62
     7
 10
76.029600000000002
 20
50.875799999999991
 30
0.0
 11
76.281800000000004
 21
50.875799999999991
 31
0.0
  0
LINE
  5
703
  8
_________2
 62
     7
 10
76.029600000000002
 20
50.383800000000001
 30
0.0
 11
76.029600000000002
 21
48.196800000000003
 31
0.0
  0
LINE
  5
704
  8
_________2
 62
     7
 10
76.029600000000002
 20
50.875799999999991
 30
0.0
 11
76.029600000000002
 21
50.624299999999991
 31
0.0
  0
LINE
  5
705
  8
_________2
 62
     7
 10
79.740700000000004
 20
49.656199999999998
 30
0.0
 11
84.918700000000001
 21
48.791499999999999
 31
0.0
  0
LINE
  5
706
  8
_________2
 62
     7
 10
79.740700000000004
 20
52.095300000000002
 30
0.0
 11
84.918700000000001
 21
52.960799999999992
 31
0.0
  0
LINE
  5
707
  8
_________2
 62
     7
 10
84.918700000000001
 20
48.791499999999999
 30
0.0
 11
84.918700000000001
 21
52.960799999999992
 31
0.0
  0
LINE
  5
708
  8
_________2
 62
     7
 10
79.740700000000004
 20
49.656199999999998
 30
0.0
 11
79.740700000000004
 21
52.095300000000002
 31
0.0
  0
ARC
  5
709
  8
_________2
 62
     7
 10
75.983362999999997
 20
50.828812999999997
 30
0.0
 40
1.2673709999999989
 50
2.1232950000000002
 51
87.909056000000007
  0
ARC
  5
70A
  8
_________2
 62
     7
 10
76.076526999999999
 20
50.828847000000003
 30
0.0
 40
1.267363
 50
92.121785999999986
 51
177.878185
  0
ARC
  5
70B
  8
_________2
 62
     7
 10
76.076526999999999
 20
50.922691999999998
 30
0.0
 40
1.267363
 50
182.12181499999991
 51
267.87821400000001
  0
ARC
  5
70C
  8
_________2
 62
     7
 10
75.982714000000001
 20
50.923374000000003
 30
0.0
 40
1.2680439999999991
 50
272.11916400000001
 51
357.84848499999993
  0
ARC
  5
70D
  8
_________2
 62
     7
 10
76.029604000000006
 20
50.875768999999998
 30
0.0
 40
2.0849849999999992
 50
0.00001
 51
89.999980000000008
  0
ARC
  5
70E
  8
_________2
 62
     7
 10
76.109640999999996
 20
50.796447000000001
 30
0.0
 40
2.1657860000000002
 50
92.117855000000034
 51
177.90105299999991
  0
ARC
  5
70F
  8
_________2
 62
     7
 10
76.109607999999994
 20
50.955773000000001
 30
0.0
 40
2.1657779999999991
 50
182.11700400000001
 51
267.88302499999992
  0
ARC
  5
710
  8
_________2
 62
     7
 10
75.949632999999992
 20
50.956456000000003
 30
0.0
 40
2.1664590000000001
 50
272.11546800000002
 51
357.86560400000002
  0
TEXT
  5
711
  8
_________2
 62
     7
 10
109.30500000000001
 20
22.750499999999992
 30
0.0
 40
3.0923400000000001
  1
図番
 41
0.5
  0
LINE
  5
712
  8
_________2
 62
     7
 10
108.25
 20
26.979700000000001
 30
0.0
 11
188.25099999999989
 21
26.979700000000001
 31
0.0
  0
TEXT
  5
713
  8
_________2
 62
     7
 10
109.30500000000001
 20
32.750300000000003
 30
0.0
 40
3.0923400000000001
  1
品番
 41
0.5
  0
TEXT
  5
714
  8
_________2
 62
     7
 10
109.30500000000001
 20
52.889099999999999
 30
0.0
 40
3.0923400000000001
  1
名称
 41
0.5
  0
TEXT
  5
715
  8
_________2
 62
     7
 10
96.545258333333337
 20
47.892999999999986
 30
0.0
 40
3.6545800000000002
  1
mm
 41
0.5
 72
     1
 11
98.067999999999998
 21
47.892999999999986
 31
0.0
  0
TEXT
  5
716
  8
_________2
 62
     7
 10
90.343400000000003
 20
52.889099999999999
 30
0.0
 40
3.0923400000000001
  1
単位
 41
0.5
  0
TEXT
  5
717
  8
_________2
 62
     7
 10
90.343400000000003
 20
40.481900000000003
 30
0.0
 40
3.0923400000000001
  1
尺度
 41
0.5
  0
TEXT
  5
718
  8
_________2
 62
     7
 10
94.639861999999994
 20
34.288899999999991
 30
0.0
 40
3.6545800000000002
  1
1 ： 15
 41
0.5
 72
     1
 11
98.659899999999993
 21
34.288899999999991
 31
0.0
  0
TEXT
  5
719
  8
_________2
 62
     7
 10
138.90271250000001
 20
30.178899999999992
 30
0.0
 40
3.9357000000000002
  1
CEY21540V7
 41
0.5
 72
     1
 11
148.24999999999989
 21
30.178899999999992
 31
0.0
  0
TEXT
  5
71A
  8
_________2
 62
     7
 10
138.90271250000001
 20
20.1784
 30
0.0
 40
3.9357000000000002
  1
CEY21540V7
 41
0.5
 72
     1
 11
148.24999999999989
 21
20.1784
 31
0.0
  0
TEXT
  5
71B
  8
_________2
 62
     7
 10
29.286899999999989
 20
21.778300000000002
 30
0.0
 40
3.9357000000000002
  1
満水容量：154L、重量：19.9kg
 41
0.5
  0
TEXT
  5
71C
  8
_________2
 62
     7
 10
113.87899999999991
 20
45.296700000000001
 30
0.0
 40
3.9357000000000002
  1
アクリル製バスタブ（1500サイズ）
 41
0.5
  0
TEXT
  5
71D
  8
_________2
 62
     7
 10
44.125500333333328
 20
34.674100000000003
 30
0.0
 40
3.6545800000000002
  1
早川
 41
0.5
 72
     1
 11
46.0137
 21
34.674100000000003
 31
0.0
  0
TEXT
  5
71E
  8
_________2
 62
     7
 10
25.490590666666659
 20
34.674100000000003
 30
0.0
 40
3.6545800000000002
  1
菅原
 41
0.5
 72
     1
 11
27.439699999999998
 21
34.674100000000003
 31
0.0
  0
TEXT
  5
71F
  8
_________2
 62
     7
 10
72.486000000000004
 20
34.288899999999991
 30
0.0
 40
3.6545800000000002
  1
13.12.24
 41
0.5
  0
TEXT
  5
720
  8
_________2
 62
     7
 10
71.293300000000002
 20
40.481900000000003
 30
0.0
 40
3.0923400000000001
  1
日付
 41
0.5
  0
TEXT
  5
721
  8
_________2
 62
     7
 10
34.33959999999999
 20
40.481900000000003
 30
0.0
 40
3.0923400000000001
  1
検図
 41
0.5
  0
TEXT
  5
722
  8
_________2
 62
     7
 10
22.7212
 20
26.282499999999992
 30
0.0
 40
3.0923400000000001
  1
備考
 41
0.5
  0
TEXT
  5
723
  8
_________2
 62
     7
 10
22.7212
 20
40.481900000000003
 30
0.0
 40
3.0923400000000001
  1
製図
 41
0.5
  0
TEXT
  5
724
  8
_________2
 62
     7
 10
28.488665333333341
 20
49.00780000000001
 30
0.0
 40
4.4979399999999989
  1
セラトレーディング株式会社
 41
0.5
 72
     1
 11
45.880699999999997
 21
49.00780000000001
 31
0.0
  0
LINE
  5
725
  8
_________2
 62
     7
 10
188.25099999999989
 20
16.979900000000001
 30
0.0
 11
21.749700000000001
 21
16.979900000000001
 31
0.0
  0
LINE
  5
726
  8
_________2
 62
     7
 10
21.749700000000001
 20
16.979900000000001
 30
0.0
 11
21.749700000000001
 21
279.98200000000003
 31
0.0
  0
LINE
  5
727
  8
_________2
 62
     7
 10
21.749700000000001
 20
279.98200000000003
 30
0.0
 11
188.25099999999989
 21
279.98200000000003
 31
0.0
  0
LINE
  5
728
  8
_________2
 62
     7
 10
188.25099999999989
 20
279.98200000000003
 30
0.0
 11
188.25099999999989
 21
16.979900000000001
 31
0.0
  0
LINE
  5
729
  8
_________2
 62
     7
 10
70.250100000000003
 20
30.48
 30
0.0
 11
70.250100000000003
 21
56.979799999999997
 31
0.0
  0
LINE
  5
72A
  8
_________2
 62
     7
 10
89.249899999999997
 20
30.48
 30
0.0
 11
89.249899999999997
 21
56.979799999999997
 31
0.0
  0
LINE
  5
72B
  8
_________2
 62
     7
 10
108.25
 20
16.979900000000001
 30
0.0
 11
108.25
 21
56.979799999999997
 31
0.0
  0
LINE
  5
72C
  8
_________2
 62
     7
 10
33.249499999999991
 20
30.48
 30
0.0
 11
33.249499999999991
 21
44.4803
 31
0.0
  0
LINE
  5
72D
  8
_________2
 62
     7
 10
21.749700000000001
 20
30.48
 30
0.0
 11
108.25
 21
30.48
 31
0.0
  0
LINE
  5
72E
  8
_________2
 62
     7
 10
21.749700000000001
 20
44.4803
 30
0.0
 11
108.25
 21
44.4803
 31
0.0
  0
LINE
  5
72F
  8
_________2
 62
     7
 10
108.25
 20
36.979500000000002
 30
0.0
 11
188.25099999999989
 21
36.979500000000002
 31
0.0
  0
LINE
  5
730
  8
_________2
 62
     7
 10
21.749700000000001
 20
56.979799999999997
 30
0.0
 11
188.25099999999989
 21
56.979799999999997
 31
0.0
  0
ENDSEC
  0
EOF
