  0
SECTION
  2
HEADER
  9
$ACADVER
  1
AC1009
  9
$INSBASE
 10
0.0
 20
0.0
 30
0.0
  9
$EXTMIN
 10
-0.000689023
 20
-0.000344512
 30
0.0
  9
$EXTMAX
 10
210.00099999999989
 20
297.00200000000001
 30
0.0
  9
$LIMMIN
 10
0.0
 20
0.0
  9
$LIMMAX
 10
12.0
 20
9.0
  9
$ORTHOMODE
 70
     0
  9
$REGENMODE
 70
     1
  9
$FILLMODE
 70
     1
  9
$QTEXTMODE
 70
     0
  9
$MIRRTEXT
 70
     1
  9
$DRAGMODE
 70
     2
  9
$LTSCALE
 40
1.0
  9
$OSMODE
 70
    37
  9
$ATTMODE
 70
     1
  9
$TEXTSIZE
 40
0.0
  9
$TRACEWID
 40
0.05
  9
$TEXTSTYLE
  7
STANDARD
  9
$CLAYER
  8
0
  9
$CELTYPE
  6
CONTINUOUS
  9
$CECOLOR
 62
   256
  9
$DIMSCALE
 40
1.0
  9
$DIMASZ
 40
0.18
  9
$DIMEXO
 40
0.0625
  9
$DIMDLI
 40
0.38
  9
$DIMRND
 40
0.0
  9
$DIMDLE
 40
0.0
  9
$DIMEXE
 40
0.18
  9
$DIMTP
 40
0.0
  9
$DIMTM
 40
0.0
  9
$DIMTXT
 40
0.18
  9
$DIMCEN
 40
0.09
  9
$DIMTSZ
 40
0.0
  9
$DIMTOL
 70
     0
  9
$DIMLIM
 70
     0
  9
$DIMTIH
 70
     1
  9
$DIMTOH
 70
     1
  9
$DIMSE1
 70
     0
  9
$DIMSE2
 70
     0
  9
$DIMTAD
 70
     0
  9
$DIMZIN
 70
     0
  9
$DIMBLK
  1

  9
$DIMASO
 70
     1
  9
$DIMSHO
 70
     1
  9
$DIMPOST
  1

  9
$DIMAPOST
  1

  9
$DIMALT
 70
     0
  9
$DIMALTD
 70
     2
  9
$DIMALTF
 40
25.399999999999999
  9
$DIMLFAC
 40
1.0
  9
$DIMTOFL
 70
     0
  9
$DIMTVP
 40
0.0
  9
$DIMTIX
 70
     0
  9
$DIMSOXD
 70
     0
  9
$DIMSAH
 70
     0
  9
$DIMBLK1
  1

  9
$DIMBLK2
  1

  9
$DIMSTYLE
  2
STANDARD
  9
$DIMCLRD
 70
     0
  9
$DIMCLRE
 70
     0
  9
$DIMCLRT
 70
     0
  9
$DIMTFAC
 40
1.0
  9
$DIMGAP
 40
0.09
  9
$LUNITS
 70
     2
  9
$LUPREC
 70
     4
  9
$SKETCHINC
 40
0.1
  9
$FILLETRAD
 40
0.0
  9
$AUNITS
 70
     0
  9
$AUPREC
 70
     0
  9
$MENU
  1
.
  9
$ELEVATION
 40
0.0
  9
$PELEVATION
 40
0.0
  9
$THICKNESS
 40
0.0
  9
$LIMCHECK
 70
     0
  9
$BLIPMODE
 70
     0
  9
$CHAMFERA
 40
0.0
  9
$CHAMFERB
 40
0.0
  9
$SKPOLY
 70
     0
  9
$TDCREATE
 40
2444972.375
  9
$TDUPDATE
 40
2455980.3555307752
  9
$TDINDWG
 40
0.0000105787
  9
$TDUSRTIMER
 40
0.0000105787
  9
$USRTIMER
 70
     1
  9
$ANGBASE
 50
0.0
  9
$ANGDIR
 70
     0
  9
$PDMODE
 70
     0
  9
$PDSIZE
 40
0.0
  9
$PLINEWID
 40
0.0
  9
$COORDS
 70
     1
  9
$SPLFRAME
 70
     0
  9
$SPLINETYPE
 70
     6
  9
$SPLINESEGS
 70
     8
  9
$ATTDIA
 70
     0
  9
$ATTREQ
 70
     1
  9
$HANDLING
 70
     1
  9
$HANDSEED
  5
43E
  9
$SURFTAB1
 70
     6
  9
$SURFTAB2
 70
     6
  9
$SURFTYPE
 70
     6
  9
$SURFU
 70
     6
  9
$SURFV
 70
     6
  9
$UCSNAME
  2

  9
$UCSORG
 10
0.0
 20
0.0
 30
0.0
  9
$UCSXDIR
 10
1.0
 20
0.0
 30
0.0
  9
$UCSYDIR
 10
0.0
 20
1.0
 30
0.0
  9
$PUCSNAME
  2

  9
$PUCSORG
 10
0.0
 20
0.0
 30
0.0
  9
$PUCSXDIR
 10
1.0
 20
0.0
 30
0.0
  9
$PUCSYDIR
 10
0.0
 20
1.0
 30
0.0
  9
$USERI1
 70
     0
  9
$USERI2
 70
     0
  9
$USERI3
 70
     0
  9
$USERI4
 70
     0
  9
$USERI5
 70
     0
  9
$USERR1
 40
0.0
  9
$USERR2
 40
0.0
  9
$USERR3
 40
0.0
  9
$USERR4
 40
0.0
  9
$USERR5
 40
0.0
  9
$WORLDVIEW
 70
     1
  9
$SHADEDGE
 70
     3
  9
$SHADEDIF
 70
    70
  9
$TILEMODE
 70
     1
  9
$MAXACTVP
 70
    48
  9
$PLIMCHECK
 70
     0
  9
$PEXTMIN
 10
1.0000000000000000E+020
 20
1.0000000000000000E+020
 30
1.0000000000000000E+020
  9
$PEXTMAX
 10
-1.0000000000000000E+020
 20
-1.0000000000000000E+020
 30
-1.0000000000000000E+020
  9
$PLIMMIN
 10
0.0
 20
0.0
  9
$PLIMMAX
 10
12.0
 20
9.0
  9
$UNITMODE
 70
     0
  9
$VISRETAIN
 70
     1
  9
$PLINEGEN
 70
     0
  9
$PSLTSCALE
 70
     1
  0
ENDSEC
  0
SECTION
  2
TABLES
  0
TABLE
  2
VPORT
 70
     2
  0
VPORT
  2
*ACTIVE
 70
     0
 10
0.0
 20
0.0
 11
1.0
 21
1.0
 12
210.01058136432829
 22
148.50082774399999
 13
0.0
 23
0.0
 14
1.0
 24
1.0
 15
0.0
 25
0.0
 16
0.0
 26
0.0
 36
1.0
 17
0.0
 27
0.0
 37
0.0
 40
299.24669472241823
 41
2.2894736842105261
 42
50.0
 43
0.0
 44
0.0
 50
0.0
 51
0.0
 71
     0
 72
   100
 73
     1
 74
     1
 75
     0
 76
     0
 77
     0
 78
     0
  0
ENDTAB
  0
TABLE
  2
LTYPE
 70
     2
  0
LTYPE
  2
CONTINUOUS
 70
     0
  3
Solid line
 72
    65
 73
     0
 40
0.0
  0
LTYPE
  2
AIGENLINE001
 70
     0
  3
generate AI->DXF Converter
 72
    65
 73
     4
 40
5.8561449999999988
 49
3.5278
 49
-0.776115
 49
0.776115
 49
-0.776115
  0
ENDTAB
  0
TABLE
  2
LAYER
 70
     2
  0
LAYER
  2
0
 70
     0
 62
     7
  6
CONTINUOUS
  0
LAYER
  2
_________2
 70
     0
 62
     7
  6
CONTINUOUS
  0
ENDTAB
  0
TABLE
  2
STYLE
 70
     1
  0
STYLE
  2
STANDARD
 70
     0
 40
0.0
 41
0.0
 50
0.0
 71
     0
 42
0.0
  3
TXT
  4
EXTFONT.SHX
  0
ENDTAB
  0
TABLE
  2
VIEW
 70
     0
  0
ENDTAB
  0
TABLE
  2
UCS
 70
     0
  0
ENDTAB
  0
TABLE
  2
APPID
 70
     1
  0
APPID
  2
ACAD
 70
     0
  0
ENDTAB
  0
TABLE
  2
DIMSTYLE
 70
     1
  0
DIMSTYLE
  2
STANDARD
 70
     0
  3

  4

  5

  6

  7

 40
1.0
 41
0.18
 42
0.0625
 43
0.38
 44
0.18
 45
0.0
 46
0.0
 47
0.0
 48
0.0
140
0.18
141
0.09
142
0.0
143
25.399999999999999
144
1.0
145
0.0
146
1.0
147
0.09
 71
     0
 72
     0
 73
     1
 74
     1
 75
     0
 76
     0
 77
     0
 78
     0
170
     0
171
     2
172
     0
173
     0
174
     0
175
     0
176
     0
177
     0
178
     0
  0
ENDTAB
  0
ENDSEC
  0
SECTION
  2
BLOCKS
  0
BLOCK
  8
0
  2
$MODEL_SPACE
 70
     0
 10
0.0
 20
0.0
 30
0.0
  3
$MODEL_SPACE
  1

  0
ENDBLK
  5
1A
  8
0
  0
BLOCK
 67
     1
  8
0
  2
$PAPER_SPACE
 70
     0
 10
0.0
 20
0.0
 30
0.0
  3
$PAPER_SPACE
  1

  0
ENDBLK
  5
17
 67
     1
  8
0
  0
ENDSEC
  0
SECTION
  2
ENTITIES
  0
TEXT
  5
22
  8
0
 62
     7
 10
57.903480000000002
 20
160.84499999999991
 30
0.0
 40
3.0923400000000001
  1
%%c44
 41
0.5
 72
     2
 11
62.026600000000002
 21
160.84499999999991
 31
0.0
  0
TEXT
  5
23
  8
0
 62
     7
 10
77.654679999999999
 20
157.45699999999999
 30
0.0
 40
3.0923400000000001
  1
%%c55
 41
0.5
 72
     2
 11
81.777799999999999
 21
157.45699999999999
 31
0.0
  0
TEXT
  5
24
  8
0
 62
     7
 10
78.566599999999994
 20
71.42801
 30
0.0
 40
3.0923400000000001
  1
A
 50
90.0
 41
0.5
 72
     1
 11
78.566599999999994
 21
71.943399999999997
 31
0.0
  0
TEXT
  5
25
  8
0
 62
     7
 10
78.566599999999994
 20
180.62761
 30
0.0
 40
3.0923400000000001
  1
A
 50
90.0
 41
0.5
 72
     1
 11
78.566599999999994
 21
181.143
 31
0.0
  0
TEXT
  5
26
  8
0
 62
     7
 10
174.58699999999999
 20
127.6344399999999
 30
0.0
 40
3.0923400000000001
  1
A-A
 50
90.0
 41
0.5
 72
     1
 11
174.58699999999999
 21
129.696
 31
0.0
  0
LINE
  5
27
  8
0
 62
     7
 10
55.612499999999997
 20
160.1449999999999
 30
0.0
 11
62.026600000000002
 21
160.1449999999999
 31
0.0
  0
LINE
  5
28
  8
0
 62
     7
 10
45.638800000000003
 20
169.28099999999989
 30
0.0
 11
47.621899999999989
 21
168.13599999999991
 31
0.0
  0
LINE
  5
29
  8
0
 62
     7
 10
47.621899999999989
 20
168.13599999999991
 30
0.0
 11
46.476700000000001
 21
170.119
 31
0.0
  0
LINE
  5
2A
  8
0
 62
     7
 10
46.476700000000001
 20
170.119
 30
0.0
 11
45.638800000000003
 21
169.28099999999989
 31
0.0
  0
LINE
  5
2B
  8
0
 62
     7
 10
52.338900000000002
 20
164.25599999999989
 30
0.0
 11
50.355899999999998
 21
165.4009999999999
 31
0.0
  0
LINE
  5
2C
  8
0
 62
     7
 10
50.355899999999998
 20
165.4009999999999
 30
0.0
 11
51.500399999999999
 21
163.41800000000001
 31
0.0
  0
LINE
  5
2D
  8
0
 62
     7
 10
51.500399999999999
 20
163.41800000000001
 30
0.0
 11
52.338900000000002
 21
164.25599999999989
 31
0.0
  0
LINE
  5
2E
  8
0
 62
     7
 10
55.612499999999997
 20
160.1449999999999
 30
0.0
 11
44.651800000000001
 21
171.10599999999991
 31
0.0
  0
LINE
  5
2F
  8
0
  6
AIGENLINE001
 62
     7
 10
51.281300000000002
 20
167.09399999999999
 30
0.0
 11
45.25439999999999
 21
167.09399999999999
 31
0.0
  0
LINE
  5
30
  8
0
 62
     7
 10
160.89199999999991
 20
247.23099999999991
 30
0.0
 11
160.89199999999991
 21
248.898
 31
0.0
  0
LINE
  5
31
  8
0
 62
     7
 10
160.99199999999999
 20
247.23099999999991
 30
0.0
 11
160.89199999999991
 21
247.23099999999991
 31
0.0
  0
LINE
  5
32
  8
0
 62
     7
 10
160.99199999999999
 20
248.898
 30
0.0
 11
160.89199999999991
 21
248.898
 31
0.0
  0
LINE
  5
33
  8
0
 62
     7
 10
161.3249999999999
 20
249.58099999999999
 30
0.0
 11
161.3249999999999
 21
246.4139999999999
 31
0.0
  0
LINE
  5
34
  8
0
 62
     7
 10
161.3249999999999
 20
248.06399999999999
 30
0.0
 11
161.3249999999999
 21
249.71499999999989
 31
0.0
  0
LINE
  5
35
  8
0
 62
     7
 10
160.99199999999999
 20
246.61500000000001
 30
0.0
 11
160.99199999999999
 21
249.5149999999999
 31
0.0
  0
LINE
  5
36
  8
0
 62
     7
 10
161.59200000000001
 20
249.58099999999999
 30
0.0
 11
161.59200000000001
 21
246.54799999999989
 31
0.0
  0
ARC
  5
37
  8
0
 62
     7
 10
160.73701399999999
 20
248.46756600000001
 30
0.0
 40
0.176008
 50
129.46270699999991
 51
215.34800799999999
  0
ARC
  5
38
  8
0
 62
     7
 10
160.73242400000001
 20
248.471519
 30
0.0
 40
0.17465
 50
217.27715499999991
 51
232.10346699999999
  0
ARC
  5
39
  8
0
 62
     7
 10
160.73622199999991
 20
247.6592509999999
 30
0.0
 40
0.17531
 50
129.3155919999999
 51
215.47333499999991
  0
ARC
  5
3A
  8
0
 62
     7
 10
160.73242400000001
 20
247.66329400000001
 30
0.0
 40
0.17465
 50
217.27715499999991
 51
232.10346699999999
  0
LINE
  5
3B
  8
0
 62
     7
 10
160.559
 20
247.749
 30
0.0
 11
160.559
 21
247.66099999999989
 31
0.0
  0
ARC
  5
3C
  8
0
 62
     7
 10
161.09497300000001
 20
248.064291
 30
0.0
 40
0.541587
 50
150.16907499999991
 51
209.83092500000001
  0
LINE
  5
3D
  8
0
 62
     7
 10
160.559
 20
248.46899999999999
 30
0.0
 11
160.559
 21
247.66099999999989
 31
0.0
  0
LINE
  5
3E
  8
0
 62
     7
 10
160.89199999999991
 20
247.52499999999989
 30
0.0
 11
160.625
 21
247.52499999999989
 31
0.0
  0
LINE
  5
3F
  8
0
 62
     7
 10
160.89199999999991
 20
248.60299999999989
 30
0.0
 11
160.625
 21
248.60299999999989
 31
0.0
  0
LINE
  5
40
  8
0
 62
     7
 10
160.89199999999991
 20
247.7949999999999
 30
0.0
 11
160.625
 21
247.7949999999999
 31
0.0
  0
LINE
  5
41
  8
0
 62
     7
 10
160.89199999999991
 20
248.334
 30
0.0
 11
160.625
 21
248.334
 31
0.0
  0
LINE
  5
42
  8
0
 62
     7
 10
160.465
 20
248.465
 30
0.0
 11
160.465
 21
247.66499999999991
 31
0.0
  0
LINE
  5
43
  8
0
 62
     7
 10
160.465
 20
247.73099999999999
 30
0.0
 11
157.73699999999991
 21
247.73099999999999
 31
0.0
  0
LINE
  5
44
  8
0
 62
     7
 10
160.465
 20
248.39799999999991
 30
0.0
 11
157.73699999999991
 21
248.39799999999991
 31
0.0
  0
LINE
  5
45
  8
0
 62
     7
 10
160.465
 20
248.465
 30
0.0
 11
157.73799999999989
 21
248.465
 31
0.0
  0
LINE
  5
46
  8
0
 62
     7
 10
160.465
 20
247.66499999999991
 30
0.0
 11
157.73799999999989
 21
247.66499999999991
 31
0.0
  0
LINE
  5
47
  8
0
 62
     7
 10
160.559
 20
247.69799999999989
 30
0.0
 11
160.465
 21
247.69799999999989
 31
0.0
  0
LINE
  5
48
  8
0
 62
     7
 10
160.559
 20
248.4309999999999
 30
0.0
 11
160.465
 21
248.4309999999999
 31
0.0
  0
ARC
  5
49
  8
0
 62
     7
 10
161.19968499999999
 20
249.50721300000001
 30
0.0
 40
0.207423
 50
92.064312999999999
 51
177.93565699999999
  0
LINE
  5
4A
  8
0
 62
     7
 10
161.59200000000001
 20
249.58099999999999
 30
0.0
 11
161.3249999999999
 21
249.58099999999999
 31
0.0
  0
LINE
  5
4B
  8
0
 62
     7
 10
161.3249999999999
 20
249.71499999999989
 30
0.0
 11
161.19200000000001
 21
249.71499999999989
 31
0.0
  0
LINE
  5
4C
  8
0
 62
     7
 10
161.59200000000001
 20
246.54799999999989
 30
0.0
 11
161.3249999999999
 21
246.54799999999989
 31
0.0
  0
LINE
  5
4D
  8
0
 62
     7
 10
161.3249999999999
 20
246.4139999999999
 30
0.0
 11
161.19200000000001
 21
246.4139999999999
 31
0.0
  0
ARC
  5
4E
  8
0
 62
     7
 10
161.200096
 20
246.62210999999999
 30
0.0
 40
0.207836
 50
182.074916
 51
267.826413
  0
LINE
  5
4F
  8
0
 62
     7
 10
160.89199999999991
 20
231.22999999999999
 30
0.0
 11
160.89199999999991
 21
232.89699999999999
 31
0.0
  0
LINE
  5
50
  8
0
 62
     7
 10
160.99199999999999
 20
231.22999999999999
 30
0.0
 11
160.89199999999991
 21
231.22999999999999
 31
0.0
  0
LINE
  5
51
  8
0
 62
     7
 10
160.99199999999999
 20
232.89699999999999
 30
0.0
 11
160.89199999999991
 21
232.89699999999999
 31
0.0
  0
LINE
  5
52
  8
0
 62
     7
 10
161.3249999999999
 20
233.5809999999999
 30
0.0
 11
161.3249999999999
 21
230.41399999999999
 31
0.0
  0
LINE
  5
53
  8
0
 62
     7
 10
161.3249999999999
 20
232.06399999999999
 30
0.0
 11
161.3249999999999
 21
233.714
 31
0.0
  0
LINE
  5
54
  8
0
 62
     7
 10
160.99199999999999
 20
230.614
 30
0.0
 11
160.99199999999999
 21
233.5139999999999
 31
0.0
  0
LINE
  5
55
  8
0
 62
     7
 10
161.59200000000001
 20
233.5809999999999
 30
0.0
 11
161.59200000000001
 21
230.547
 31
0.0
  0
ARC
  5
56
  8
0
 62
     7
 10
160.73622199999991
 20
232.466972
 30
0.0
 40
0.17531
 50
129.3155919999999
 51
215.47333499999991
  0
ARC
  5
57
  8
0
 62
     7
 10
160.73242400000001
 20
232.47101599999999
 30
0.0
 40
0.17465
 50
217.27715499999991
 51
232.10346699999999
  0
ARC
  5
58
  8
0
 62
     7
 10
160.73622199999991
 20
231.65874799999989
 30
0.0
 40
0.17531
 50
129.3155919999999
 51
215.47333499999991
  0
ARC
  5
59
  8
0
 62
     7
 10
160.72532899999999
 20
231.6557729999999
 30
0.0
 40
0.164759
 50
216.82937000000001
 51
232.55125200000001
  0
LINE
  5
5A
  8
0
 62
     7
 10
160.559
 20
231.749
 30
0.0
 11
160.559
 21
231.66
 31
0.0
  0
ARC
  5
5B
  8
0
 62
     7
 10
161.09497300000001
 20
232.06378799999999
 30
0.0
 40
0.541587
 50
150.16907499999991
 51
209.83092500000001
  0
LINE
  5
5C
  8
0
 62
     7
 10
160.559
 20
232.4679999999999
 30
0.0
 11
160.559
 21
231.66
 31
0.0
  0
LINE
  5
5D
  8
0
 62
     7
 10
160.89199999999991
 20
231.52500000000001
 30
0.0
 11
160.625
 21
231.52500000000001
 31
0.0
  0
LINE
  5
5E
  8
0
 62
     7
 10
160.89199999999991
 20
232.60299999999989
 30
0.0
 11
160.625
 21
232.60299999999989
 31
0.0
  0
LINE
  5
5F
  8
0
 62
     7
 10
160.89199999999991
 20
231.79400000000001
 30
0.0
 11
160.625
 21
231.79400000000001
 31
0.0
  0
LINE
  5
60
  8
0
 62
     7
 10
160.89199999999991
 20
232.33299999999991
 30
0.0
 11
160.625
 21
232.33299999999991
 31
0.0
  0
LINE
  5
61
  8
0
 62
     7
 10
160.465
 20
232.464
 30
0.0
 11
160.465
 21
231.66399999999999
 31
0.0
  0
LINE
  5
62
  8
0
 62
     7
 10
160.465
 20
231.7299999999999
 30
0.0
 11
157.73699999999991
 21
231.7299999999999
 31
0.0
  0
LINE
  5
63
  8
0
 62
     7
 10
160.465
 20
232.39699999999999
 30
0.0
 11
157.73699999999991
 21
232.39699999999999
 31
0.0
  0
LINE
  5
64
  8
0
 62
     7
 10
160.465
 20
232.464
 30
0.0
 11
157.73799999999989
 21
232.464
 31
0.0
  0
LINE
  5
65
  8
0
 62
     7
 10
160.465
 20
231.66399999999999
 30
0.0
 11
157.73799999999989
 21
231.66399999999999
 31
0.0
  0
LINE
  5
66
  8
0
 62
     7
 10
160.559
 20
231.69699999999989
 30
0.0
 11
160.465
 21
231.69699999999989
 31
0.0
  0
LINE
  5
67
  8
0
 62
     7
 10
160.559
 20
232.43000000000001
 30
0.0
 11
160.465
 21
232.43000000000001
 31
0.0
  0
ARC
  5
68
  8
0
 62
     7
 10
161.19971000000001
 20
233.506699
 30
0.0
 40
0.207436
 50
92.070936000000017
 51
178.02773500000001
  0
LINE
  5
69
  8
0
 62
     7
 10
161.59200000000001
 20
233.5809999999999
 30
0.0
 11
161.3249999999999
 21
233.5809999999999
 31
0.0
  0
LINE
  5
6A
  8
0
 62
     7
 10
161.3249999999999
 20
233.714
 30
0.0
 11
161.19200000000001
 21
233.714
 31
0.0
  0
LINE
  5
6B
  8
0
 62
     7
 10
161.59200000000001
 20
230.547
 30
0.0
 11
161.3249999999999
 21
230.547
 31
0.0
  0
LINE
  5
6C
  8
0
 62
     7
 10
161.3249999999999
 20
230.41399999999999
 30
0.0
 11
161.19200000000001
 21
230.41399999999999
 31
0.0
  0
ARC
  5
6D
  8
0
 62
     7
 10
161.200096
 20
230.621263
 30
0.0
 40
0.207836
 50
182.074916
 51
267.826413
  0
LINE
  5
6E
  8
0
 62
     7
 10
160.89199999999991
 20
152.59
 30
0.0
 11
160.89199999999991
 21
154.25699999999989
 31
0.0
  0
LINE
  5
6F
  8
0
 62
     7
 10
160.99199999999999
 20
152.59
 30
0.0
 11
160.89199999999991
 21
152.59
 31
0.0
  0
LINE
  5
70
  8
0
 62
     7
 10
160.99199999999999
 20
154.25699999999989
 30
0.0
 11
160.89199999999991
 21
154.25699999999989
 31
0.0
  0
LINE
  5
71
  8
0
 62
     7
 10
161.3249999999999
 20
154.94099999999989
 30
0.0
 11
161.3249999999999
 21
151.774
 31
0.0
  0
LINE
  5
72
  8
0
 62
     7
 10
161.3249999999999
 20
153.42400000000001
 30
0.0
 11
161.3249999999999
 21
155.0739999999999
 31
0.0
  0
LINE
  5
73
  8
0
 62
     7
 10
160.99199999999999
 20
151.9739999999999
 30
0.0
 11
160.99199999999999
 21
154.874
 31
0.0
  0
LINE
  5
74
  8
0
 62
     7
 10
161.59200000000001
 20
154.94099999999989
 30
0.0
 11
161.59200000000001
 21
151.9079999999999
 31
0.0
  0
ARC
  5
75
  8
0
 62
     7
 10
160.73648499999999
 20
153.82716499999989
 30
0.0
 40
0.175618
 50
129.34413699999999
 51
215.46657799999991
  0
ARC
  5
76
  8
0
 62
     7
 10
160.71576200000001
 20
153.81588199999999
 30
0.0
 40
0.15222
 50
216.533399
 51
233.46663100000001
  0
ARC
  5
77
  8
0
 62
     7
 10
160.7375429999999
 20
153.01879899999989
 30
0.0
 40
0.1764
 50
129.58090300000001
 51
215.22981200000001
  0
ARC
  5
78
  8
0
 62
     7
 10
160.71576200000001
 20
153.00765699999999
 30
0.0
 40
0.15222
 50
216.533399
 51
233.46663100000001
  0
LINE
  5
79
  8
0
 62
     7
 10
160.55799999999991
 20
153.10900000000001
 30
0.0
 11
160.55799999999991
 21
153.02000000000001
 31
0.0
  0
ARC
  5
7A
  8
0
 62
     7
 10
161.09596599999989
 20
153.42416299999991
 30
0.0
 40
0.542449
 50
150.22128599999999
 51
209.77871400000001
  0
LINE
  5
7B
  8
0
 62
     7
 10
160.55799999999991
 20
153.828
 30
0.0
 11
160.55799999999991
 21
153.02000000000001
 31
0.0
  0
LINE
  5
7C
  8
0
 62
     7
 10
160.89199999999991
 20
152.88499999999999
 30
0.0
 11
160.625
 21
152.88499999999999
 31
0.0
  0
LINE
  5
7D
  8
0
 62
     7
 10
160.89199999999991
 20
153.96299999999999
 30
0.0
 11
160.625
 21
153.96299999999999
 31
0.0
  0
LINE
  5
7E
  8
0
 62
     7
 10
160.89199999999991
 20
153.155
 30
0.0
 11
160.625
 21
153.155
 31
0.0
  0
LINE
  5
7F
  8
0
 62
     7
 10
160.89199999999991
 20
153.6939999999999
 30
0.0
 11
160.625
 21
153.6939999999999
 31
0.0
  0
LINE
  5
80
  8
0
 62
     7
 10
160.465
 20
153.8239999999999
 30
0.0
 11
160.465
 21
153.024
 31
0.0
  0
LINE
  5
81
  8
0
 62
     7
 10
160.465
 20
153.09100000000001
 30
0.0
 11
157.7359999999999
 21
153.09100000000001
 31
0.0
  0
LINE
  5
82
  8
0
 62
     7
 10
160.465
 20
153.7579999999999
 30
0.0
 11
157.7359999999999
 21
153.7579999999999
 31
0.0
  0
LINE
  5
83
  8
0
 62
     7
 10
160.465
 20
153.8239999999999
 30
0.0
 11
157.73699999999991
 21
153.8239999999999
 31
0.0
  0
LINE
  5
84
  8
0
 62
     7
 10
160.465
 20
153.024
 30
0.0
 11
157.73699999999991
 21
153.024
 31
0.0
  0
LINE
  5
85
  8
0
 62
     7
 10
160.55799999999991
 20
153.05799999999999
 30
0.0
 11
160.465
 21
153.05799999999999
 31
0.0
  0
LINE
  5
86
  8
0
 62
     7
 10
160.55799999999991
 20
153.791
 30
0.0
 11
160.465
 21
153.791
 31
0.0
  0
ARC
  5
87
  8
0
 62
     7
 10
161.19912799999989
 20
154.86697899999999
 30
0.0
 40
0.207534
 50
92.099558999999999
 51
178.09764300000001
  0
LINE
  5
88
  8
0
 62
     7
 10
161.59200000000001
 20
154.94099999999989
 30
0.0
 11
161.3249999999999
 21
154.94099999999989
 31
0.0
  0
LINE
  5
89
  8
0
 62
     7
 10
161.3249999999999
 20
155.0739999999999
 30
0.0
 11
161.19200000000001
 21
155.0739999999999
 31
0.0
  0
LINE
  5
8A
  8
0
 62
     7
 10
161.59200000000001
 20
151.9079999999999
 30
0.0
 11
161.3249999999999
 21
151.9079999999999
 31
0.0
  0
LINE
  5
8B
  8
0
 62
     7
 10
161.3249999999999
 20
151.774
 30
0.0
 11
161.19200000000001
 21
151.774
 31
0.0
  0
ARC
  5
8C
  8
0
 62
     7
 10
161.19907900000001
 20
151.981323
 30
0.0
 40
0.207509
 50
182.08635100000001
 51
267.913679
  0
LINE
  5
8D
  8
0
 62
     7
 10
160.88999999999999
 20
106.589
 30
0.0
 11
160.88999999999999
 21
108.2559999999999
 31
0.0
  0
LINE
  5
8E
  8
0
 62
     7
 10
160.99100000000001
 20
106.589
 30
0.0
 11
160.88999999999999
 21
106.589
 31
0.0
  0
LINE
  5
8F
  8
0
 62
     7
 10
160.99100000000001
 20
108.2559999999999
 30
0.0
 11
160.88999999999999
 21
108.2559999999999
 31
0.0
  0
LINE
  5
90
  8
0
 62
     7
 10
161.3239999999999
 20
108.93899999999989
 30
0.0
 11
161.3239999999999
 21
105.77199999999991
 31
0.0
  0
LINE
  5
91
  8
0
 62
     7
 10
161.3239999999999
 20
107.422
 30
0.0
 11
161.3239999999999
 21
109.072
 31
0.0
  0
LINE
  5
92
  8
0
 62
     7
 10
160.99100000000001
 20
105.97199999999989
 30
0.0
 11
160.99100000000001
 21
108.87299999999991
 31
0.0
  0
LINE
  5
93
  8
0
 62
     7
 10
161.59
 20
108.93899999999989
 30
0.0
 11
161.59
 21
105.90600000000001
 31
0.0
  0
ARC
  5
94
  8
0
 62
     7
 10
160.73510699999991
 20
107.825203
 30
0.0
 40
0.175618
 50
129.34413699999999
 51
215.46657799999991
  0
ARC
  5
95
  8
0
 62
     7
 10
160.72938400000001
 20
107.8289199999999
 30
0.0
 40
0.17323
 50
217.56647099999989
 51
232.433559
  0
ARC
  5
96
  8
0
 62
     7
 10
160.73510699999991
 20
107.01697900000001
 30
0.0
 40
0.175618
 50
129.34413699999999
 51
215.46657799999991
  0
ARC
  5
97
  8
0
 62
     7
 10
160.72938400000001
 20
107.0206949999999
 30
0.0
 40
0.17323
 50
217.56647099999989
 51
232.433559
  0
LINE
  5
98
  8
0
 62
     7
 10
160.55799999999991
 20
107.107
 30
0.0
 11
160.55799999999991
 21
107.0179999999999
 31
0.0
  0
ARC
  5
99
  8
0
 62
     7
 10
161.0945879999999
 20
107.4222009999999
 30
0.0
 40
0.542449
 50
150.22128599999999
 51
209.77871400000001
  0
LINE
  5
9A
  8
0
 62
     7
 10
160.55799999999991
 20
107.827
 30
0.0
 11
160.55799999999991
 21
107.0179999999999
 31
0.0
  0
LINE
  5
9B
  8
0
 62
     7
 10
160.88999999999999
 20
106.8829999999999
 30
0.0
 11
160.62399999999991
 21
106.8829999999999
 31
0.0
  0
LINE
  5
9C
  8
0
 62
     7
 10
160.88999999999999
 20
107.9609999999999
 30
0.0
 11
160.62399999999991
 21
107.9609999999999
 31
0.0
  0
LINE
  5
9D
  8
0
 62
     7
 10
160.88999999999999
 20
107.15299999999991
 30
0.0
 11
160.62399999999991
 21
107.15299999999991
 31
0.0
  0
LINE
  5
9E
  8
0
 62
     7
 10
160.88999999999999
 20
107.69199999999999
 30
0.0
 11
160.62399999999991
 21
107.69199999999999
 31
0.0
  0
LINE
  5
9F
  8
0
 62
     7
 10
160.464
 20
107.82299999999999
 30
0.0
 11
160.464
 21
107.02200000000001
 31
0.0
  0
LINE
  5
A0
  8
0
 62
     7
 10
160.464
 20
107.089
 30
0.0
 11
157.73500000000001
 21
107.089
 31
0.0
  0
LINE
  5
A1
  8
0
 62
     7
 10
160.464
 20
107.756
 30
0.0
 11
157.73500000000001
 21
107.756
 31
0.0
  0
LINE
  5
A2
  8
0
 62
     7
 10
160.464
 20
107.82299999999999
 30
0.0
 11
157.73699999999991
 21
107.82299999999999
 31
0.0
  0
LINE
  5
A3
  8
0
 62
     7
 10
160.464
 20
107.02200000000001
 30
0.0
 11
157.73699999999991
 21
107.02200000000001
 31
0.0
  0
LINE
  5
A4
  8
0
 62
     7
 10
160.55799999999991
 20
107.0559999999999
 30
0.0
 11
160.464
 21
107.0559999999999
 31
0.0
  0
LINE
  5
A5
  8
0
 62
     7
 10
160.55799999999991
 20
107.789
 30
0.0
 11
160.464
 21
107.789
 31
0.0
  0
ARC
  5
A6
  8
0
 62
     7
 10
161.19838999999999
 20
108.86504099999991
 30
0.0
 40
0.207509
 50
92.086320999999998
 51
177.91364899999991
  0
LINE
  5
A7
  8
0
 62
     7
 10
161.59
 20
108.93899999999989
 30
0.0
 11
161.3239999999999
 21
108.93899999999989
 31
0.0
  0
LINE
  5
A8
  8
0
 62
     7
 10
161.3239999999999
 20
109.072
 30
0.0
 11
161.19099999999989
 21
109.072
 31
0.0
  0
LINE
  5
A9
  8
0
 62
     7
 10
161.59
 20
105.90600000000001
 30
0.0
 11
161.3239999999999
 21
105.90600000000001
 31
0.0
  0
LINE
  5
AA
  8
0
 62
     7
 10
161.3239999999999
 20
105.77199999999991
 30
0.0
 11
161.19099999999989
 21
105.77199999999991
 31
0.0
  0
ARC
  5
AB
  8
0
 62
     7
 10
161.19902599999989
 20
105.97997099999991
 30
0.0
 40
0.208142
 50
182.058042
 51
267.744756
  0
ARC
  5
AC
  8
0
 62
     7
 10
61.11733199999999
 20
127.8259629999999
 30
0.0
 40
1.3510070000000001
 50
92.115552000000008
 51
177.8540459999999
  0
ARC
  5
AD
  8
0
 62
     7
 10
61.067458999999992
 20
127.87655100000001
 30
0.0
 40
1.3001869999999991
 50
179.99996999999991
 51
270.00002000000001
  0
ARC
  5
AE
  8
0
 62
     7
 10
61.067458999999992
 20
127.876552
 30
0.0
 40
1.3001869999999991
 50
270.00002000000001
 51
359.99998999999991
  0
ARC
  5
AF
  8
0
 62
     7
 10
61.018241000000003
 20
127.8266169999999
 30
0.0
 40
1.35033
 50
2.1192429999999991
 51
87.911118000000016
  0
ARC
  5
B0
  8
0
 62
     7
 10
68.850949
 20
127.826661
 30
0.0
 40
1.3503099999999999
 50
92.117392000000024
 51
177.882578
  0
ARC
  5
B1
  8
0
 62
     7
 10
68.851641999999998
 20
127.9264189999999
 30
0.0
 40
1.351002
 50
182.11535900000001
 51
267.85429900000003
  0
ARC
  5
B2
  8
0
 62
     7
 10
68.801058999999995
 20
127.876552
 30
0.0
 40
1.3001869999999991
 50
270.00002000000001
 51
359.99998999999991
  0
ARC
  5
B3
  8
0
 62
     7
 10
68.751840000000001
 20
127.8266169999999
 30
0.0
 40
1.35033
 50
2.1192429999999991
 51
87.911118000000016
  0
ARC
  5
B4
  8
0
 62
     7
 10
64.984131999999988
 20
127.8259629999999
 30
0.0
 40
1.3510070000000001
 50
92.115552000000008
 51
177.8540459999999
  0
ARC
  5
B5
  8
0
 62
     7
 10
64.934258999999997
 20
127.87655100000001
 30
0.0
 40
1.3001869999999991
 50
179.99996999999991
 51
270.00002000000001
  0
ARC
  5
B6
  8
0
 62
     7
 10
64.934258999999997
 20
127.876552
 30
0.0
 40
1.3001869999999991
 50
270.00002000000001
 51
359.99998999999991
  0
ARC
  5
B7
  8
0
 62
     7
 10
64.885040000000004
 20
127.8266169999999
 30
0.0
 40
1.35033
 50
2.1192429999999991
 51
87.911118000000016
  0
ARC
  5
B8
  8
0
 62
     7
 10
80.452019000000007
 20
127.8259629999999
 30
0.0
 40
1.3510070000000001
 50
92.115552000000008
 51
177.8540459999999
  0
ARC
  5
B9
  8
0
 62
     7
 10
80.402146000000002
 20
127.87655100000001
 30
0.0
 40
1.3001869999999991
 50
179.99996999999991
 51
270.00002000000001
  0
ARC
  5
BA
  8
0
 62
     7
 10
80.402146000000002
 20
127.876552
 30
0.0
 40
1.3001869999999991
 50
270.00002000000001
 51
359.99998999999991
  0
ARC
  5
BB
  8
0
 62
     7
 10
80.352928000000006
 20
127.8266169999999
 30
0.0
 40
1.35033
 50
2.1192429999999991
 51
87.911118000000016
  0
ARC
  5
BC
  8
0
 62
     7
 10
76.585219999999993
 20
127.8259629999999
 30
0.0
 40
1.3510070000000001
 50
92.115552000000008
 51
177.8540459999999
  0
ARC
  5
BD
  8
0
 62
     7
 10
76.535347000000002
 20
127.87655100000001
 30
0.0
 40
1.3001869999999991
 50
179.99996999999991
 51
270.00002000000001
  0
ARC
  5
BE
  8
0
 62
     7
 10
76.485407999999993
 20
127.9257759999999
 30
0.0
 40
1.3503350000000001
 50
272.11945900000001
 51
357.91092200000003
  0
ARC
  5
BF
  8
0
 62
     7
 10
76.485461000000001
 20
127.8266659999999
 30
0.0
 40
1.350306
 50
2.1172140000000002
 51
87.882777000000004
  0
ARC
  5
C0
  8
0
 62
     7
 10
72.717748999999998
 20
127.826661
 30
0.0
 40
1.3503099999999999
 50
92.117392000000024
 51
177.882578
  0
ARC
  5
C1
  8
0
 62
     7
 10
72.718440999999999
 20
127.9264189999999
 30
0.0
 40
1.351002
 50
182.11535900000001
 51
267.85429900000003
  0
ARC
  5
C2
  8
0
 62
     7
 10
72.617952000000002
 20
127.926458
 30
0.0
 40
1.3510159999999991
 50
272.116983
 51
357.88302700000003
  0
ARC
  5
C3
  8
0
 62
     7
 10
72.618639000000002
 20
127.8266169999999
 30
0.0
 40
1.35033
 50
2.1192429999999991
 51
87.911118000000016
  0
ARC
  5
C4
  8
0
 62
     7
 10
61.067459999999997
 20
134.676524
 30
0.0
 40
1.3001869999999991
 50
90.0
 51
179.99996999999991
  0
ARC
  5
C5
  8
0
 62
     7
 10
61.067458999999992
 20
134.676524
 30
0.0
 40
1.3001869999999991
 50
179.99996999999991
 51
270.00002000000001
  0
ARC
  5
C6
  8
0
 62
     7
 10
61.067458999999992
 20
134.676524
 30
0.0
 40
1.3001869999999991
 50
270.00002000000001
 51
359.99998999999991
  0
ARC
  5
C7
  8
0
 62
     7
 10
61.067458999999992
 20
134.676524
 30
0.0
 40
1.3001869999999991
 50
0.00001
 51
89.999980000000008
  0
ARC
  5
C8
  8
0
 62
     7
 10
68.850998000000004
 20
134.62729999999991
 30
0.0
 40
1.3503350000000001
 50
92.119422000000014
 51
177.91091900000001
  0
ARC
  5
C9
  8
0
 62
     7
 10
68.851641999999998
 20
134.72639099999989
 30
0.0
 40
1.351002
 50
182.11535900000001
 51
267.85429900000003
  0
ARC
  5
CA
  8
0
 62
     7
 10
68.801058999999995
 20
134.676524
 30
0.0
 40
1.3001869999999991
 50
270.00002000000001
 51
359.99998999999991
  0
ARC
  5
CB
  8
0
 62
     7
 10
68.801058999999995
 20
134.676524
 30
0.0
 40
1.3001869999999991
 50
0.00001
 51
89.999980000000008
  0
ARC
  5
CC
  8
0
 62
     7
 10
64.934258999999997
 20
134.676524
 30
0.0
 40
1.3001869999999991
 50
90.0
 51
179.99996999999991
  0
ARC
  5
CD
  8
0
 62
     7
 10
64.934258999999997
 20
134.676524
 30
0.0
 40
1.3001869999999991
 50
179.99996999999991
 51
270.00002000000001
  0
ARC
  5
CE
  8
0
 62
     7
 10
64.934258999999997
 20
134.676524
 30
0.0
 40
1.3001869999999991
 50
270.00002000000001
 51
359.99998999999991
  0
ARC
  5
CF
  8
0
 62
     7
 10
64.934258999999997
 20
134.676524
 30
0.0
 40
1.3001869999999991
 50
0.00001
 51
89.999980000000008
  0
ARC
  5
D0
  8
0
 62
     7
 10
63.050780000000003
 20
131.22627199999991
 30
0.0
 40
1.351030999999999
 50
92.117564000000002
 51
177.88240699999989
  0
ARC
  5
D1
  8
0
 62
     7
 10
63.050078000000013
 20
131.32612700000001
 30
0.0
 40
1.3503289999999999
 50
182.11924599999989
 51
267.91115500000001
  0
ARC
  5
D2
  8
0
 62
     7
 10
62.950986999999998
 20
131.32678200000001
 30
0.0
 40
1.3510070000000001
 50
272.11557199999999
 51
357.85406599999988
  0
ARC
  5
D3
  8
0
 62
     7
 10
62.950952999999998
 20
131.22628700000001
 30
0.0
 40
1.3510159999999991
 50
2.1169729999999989
 51
87.883017000000009
  0
ARC
  5
D4
  8
0
 62
     7
 10
66.917580000000001
 20
131.22627199999991
 30
0.0
 40
1.351030999999999
 50
92.117564000000002
 51
177.88240699999989
  0
ARC
  5
D5
  8
0
 62
     7
 10
66.916877999999997
 20
131.32612700000001
 30
0.0
 40
1.3503289999999999
 50
182.11924599999989
 51
267.91115500000001
  0
ARC
  5
D6
  8
0
 62
     7
 10
66.817785999999998
 20
131.32678200000001
 30
0.0
 40
1.3510070000000001
 50
272.11557199999999
 51
357.85406599999988
  0
ARC
  5
D7
  8
0
 62
     7
 10
66.817752999999996
 20
131.22628700000001
 30
0.0
 40
1.3510159999999991
 50
2.1169729999999989
 51
87.883017000000009
  0
ARC
  5
D8
  8
0
 62
     7
 10
70.784397999999996
 20
131.22696999999991
 30
0.0
 40
1.3503350000000001
 50
92.119422000000014
 51
177.91091900000001
  0
ARC
  5
D9
  8
0
 62
     7
 10
70.78434399999999
 20
131.32607899999991
 30
0.0
 40
1.350304999999999
 50
182.1172159999999
 51
267.88281399999988
  0
ARC
  5
DA
  8
0
 62
     7
 10
70.684585999999996
 20
131.32678200000001
 30
0.0
 40
1.3510070000000001
 50
272.11557199999999
 51
357.85406599999988
  0
ARC
  5
DB
  8
0
 62
     7
 10
70.684551999999996
 20
131.22628700000001
 30
0.0
 40
1.3510159999999991
 50
2.1169729999999989
 51
87.883017000000009
  0
ARC
  5
DC
  8
0
 62
     7
 10
80.402146999999985
 20
134.676524
 30
0.0
 40
1.3001869999999991
 50
90.0
 51
179.99996999999991
  0
ARC
  5
DD
  8
0
 62
     7
 10
80.402146000000002
 20
134.676524
 30
0.0
 40
1.3001869999999991
 50
179.99996999999991
 51
270.00002000000001
  0
ARC
  5
DE
  8
0
 62
     7
 10
80.402146000000002
 20
134.676524
 30
0.0
 40
1.3001869999999991
 50
270.00002000000001
 51
359.99998999999991
  0
ARC
  5
DF
  8
0
 62
     7
 10
80.402146000000002
 20
134.676524
 30
0.0
 40
1.3001869999999991
 50
0.00001
 51
89.999980000000008
  0
ARC
  5
E0
  8
0
 62
     7
 10
76.535347000000002
 20
134.676524
 30
0.0
 40
1.3001869999999991
 50
90.0
 51
179.99996999999991
  0
ARC
  5
E1
  8
0
 62
     7
 10
76.535347000000002
 20
134.676524
 30
0.0
 40
1.3001869999999991
 50
179.99996999999991
 51
270.00002000000001
  0
ARC
  5
E2
  8
0
 62
     7
 10
76.485407999999993
 20
134.72574800000001
 30
0.0
 40
1.3503350000000001
 50
272.11945900000001
 51
357.91092200000003
  0
ARC
  5
E3
  8
0
 62
     7
 10
76.484763999999984
 20
134.62665699999999
 30
0.0
 40
1.351002
 50
2.1153559999999998
 51
87.854262000000006
  0
ARC
  5
E4
  8
0
 62
     7
 10
78.518668000000005
 20
131.22627199999991
 30
0.0
 40
1.351030999999999
 50
92.117564000000002
 51
177.88240699999989
  0
ARC
  5
E5
  8
0
 62
     7
 10
78.517966000000001
 20
131.32612700000001
 30
0.0
 40
1.3503289999999999
 50
182.11924599999989
 51
267.91115500000001
  0
ARC
  5
E6
  8
0
 62
     7
 10
78.418874000000002
 20
131.32678200000001
 30
0.0
 40
1.3510070000000001
 50
272.11557199999999
 51
357.85406599999988
  0
ARC
  5
E7
  8
0
 62
     7
 10
78.418841
 20
131.22628700000001
 30
0.0
 40
1.3510159999999991
 50
2.1169729999999989
 51
87.883017000000009
  0
ARC
  5
E8
  8
0
 62
     7
 10
72.71779699999999
 20
134.62729999999991
 30
0.0
 40
1.3503350000000001
 50
92.119422000000014
 51
177.91091900000001
  0
ARC
  5
E9
  8
0
 62
     7
 10
72.718440999999999
 20
134.72639099999989
 30
0.0
 40
1.351002
 50
182.11535900000001
 51
267.85429900000003
  0
ARC
  5
EA
  8
0
 62
     7
 10
72.617952000000002
 20
134.72642999999991
 30
0.0
 40
1.3510159999999991
 50
272.116983
 51
357.88302700000003
  0
ARC
  5
EB
  8
0
 62
     7
 10
72.617941999999999
 20
134.626608
 30
0.0
 40
1.3510260000000001
 50
2.1173850000000001
 51
87.882604999999984
  0
ARC
  5
EC
  8
0
 62
     7
 10
74.651853000000003
 20
131.2262879999999
 30
0.0
 40
1.351014999999999
 50
92.116945999999984
 51
177.88302400000001
  0
ARC
  5
ED
  8
0
 62
     7
 10
74.651166000000003
 20
131.32612700000001
 30
0.0
 40
1.3503289999999999
 50
182.11924599999989
 51
267.91115500000001
  0
ARC
  5
EE
  8
0
 62
     7
 10
74.552056999999991
 20
131.32608400000001
 30
0.0
 40
1.350311
 50
272.11743000000001
 51
357.8825799999999
  0
ARC
  5
EF
  8
0
 62
     7
 10
74.551373999999996
 20
131.22633599999989
 30
0.0
 40
1.3509919999999991
 50
2.114943999999999
 51
87.854673999999989
  0
ARC
  5
F0
  8
0
 62
     7
 10
61.067459999999997
 20
141.47718499999999
 30
0.0
 40
1.3001869999999991
 50
90.0
 51
179.99996999999991
  0
ARC
  5
F1
  8
0
 62
     7
 10
61.067458999999992
 20
141.47718499999999
 30
0.0
 40
1.3001869999999991
 50
179.99996999999991
 51
270.00002000000001
  0
ARC
  5
F2
  8
0
 62
     7
 10
61.067458999999992
 20
141.47718599999999
 30
0.0
 40
1.3001869999999991
 50
270.00002000000001
 51
359.99998999999991
  0
ARC
  5
F3
  8
0
 62
     7
 10
61.067458999999992
 20
141.47718499999999
 30
0.0
 40
1.3001869999999991
 50
0.00001
 51
89.999980000000008
  0
ARC
  5
F4
  8
0
 62
     7
 10
68.850998000000004
 20
141.42796200000001
 30
0.0
 40
1.3503350000000001
 50
92.119422000000014
 51
177.91091900000001
  0
ARC
  5
F5
  8
0
 62
     7
 10
68.851641999999998
 20
141.52705299999991
 30
0.0
 40
1.351002
 50
182.11535900000001
 51
267.85429900000003
  0
ARC
  5
F6
  8
0
 62
     7
 10
68.801058999999995
 20
141.47718599999999
 30
0.0
 40
1.3001869999999991
 50
270.00002000000001
 51
359.99998999999991
  0
ARC
  5
F7
  8
0
 62
     7
 10
68.801058999999995
 20
141.47718499999999
 30
0.0
 40
1.3001869999999991
 50
0.00001
 51
89.999980000000008
  0
ARC
  5
F8
  8
0
 62
     7
 10
64.934258999999997
 20
141.47718499999999
 30
0.0
 40
1.3001869999999991
 50
90.0
 51
179.99996999999991
  0
ARC
  5
F9
  8
0
 62
     7
 10
64.934258999999997
 20
141.47718499999999
 30
0.0
 40
1.3001869999999991
 50
179.99996999999991
 51
270.00002000000001
  0
ARC
  5
FA
  8
0
 62
     7
 10
64.934258999999997
 20
141.47718599999999
 30
0.0
 40
1.3001869999999991
 50
270.00002000000001
 51
359.99998999999991
  0
ARC
  5
FB
  8
0
 62
     7
 10
64.934258999999997
 20
141.47718499999999
 30
0.0
 40
1.3001869999999991
 50
0.00001
 51
89.999980000000008
  0
ARC
  5
FC
  8
0
 62
     7
 10
63.000860000000003
 20
138.07685499999991
 30
0.0
 40
1.3001869999999991
 50
90.0
 51
179.99996999999991
  0
ARC
  5
FD
  8
0
 62
     7
 10
63.000858999999998
 20
138.07685499999991
 30
0.0
 40
1.3001869999999991
 50
179.99996999999991
 51
270.00002000000001
  0
ARC
  5
FE
  8
0
 62
     7
 10
63.000858999999998
 20
138.07685499999991
 30
0.0
 40
1.3001869999999991
 50
270.00002000000001
 51
359.99998999999991
  0
ARC
  5
FF
  8
0
 62
     7
 10
63.000858999999998
 20
138.07685499999991
 30
0.0
 40
1.3001869999999991
 50
0.00001
 51
89.999980000000008
  0
ARC
  5
100
  8
0
 62
     7
 10
66.867659000000003
 20
138.07685499999991
 30
0.0
 40
1.3001869999999991
 50
90.0
 51
179.99996999999991
  0
ARC
  5
101
  8
0
 62
     7
 10
66.867659000000003
 20
138.07685499999991
 30
0.0
 40
1.3001869999999991
 50
179.99996999999991
 51
270.00002000000001
  0
ARC
  5
102
  8
0
 62
     7
 10
66.867659000000003
 20
138.07685499999991
 30
0.0
 40
1.3001869999999991
 50
270.00002000000001
 51
359.99998999999991
  0
ARC
  5
103
  8
0
 62
     7
 10
66.867659000000003
 20
138.07685499999991
 30
0.0
 40
1.3001869999999991
 50
0.00001
 51
89.999980000000008
  0
ARC
  5
104
  8
0
 62
     7
 10
70.784397999999996
 20
138.02763100000001
 30
0.0
 40
1.3503350000000001
 50
92.119422000000014
 51
177.91091900000001
  0
ARC
  5
105
  8
0
 62
     7
 10
70.785041000000007
 20
138.126722
 30
0.0
 40
1.351002
 50
182.11535900000001
 51
267.85429900000003
  0
ARC
  5
106
  8
0
 62
     7
 10
70.734457999999989
 20
138.07685499999991
 30
0.0
 40
1.3001869999999991
 50
270.00002000000001
 51
359.99998999999991
  0
ARC
  5
107
  8
0
 62
     7
 10
70.734457999999989
 20
138.07685499999991
 30
0.0
 40
1.3001869999999991
 50
0.00001
 51
89.999980000000008
  0
ARC
  5
108
  8
0
 62
     7
 10
80.402146999999985
 20
141.47718499999999
 30
0.0
 40
1.3001869999999991
 50
90.0
 51
179.99996999999991
  0
ARC
  5
109
  8
0
 62
     7
 10
80.402146000000002
 20
141.47718499999999
 30
0.0
 40
1.3001869999999991
 50
179.99996999999991
 51
270.00002000000001
  0
ARC
  5
10A
  8
0
 62
     7
 10
80.402146000000002
 20
141.47718599999999
 30
0.0
 40
1.3001869999999991
 50
270.00002000000001
 51
359.99998999999991
  0
ARC
  5
10B
  8
0
 62
     7
 10
80.402146000000002
 20
141.47718499999999
 30
0.0
 40
1.3001869999999991
 50
0.00001
 51
89.999980000000008
  0
ARC
  5
10C
  8
0
 62
     7
 10
76.535347000000002
 20
141.47718499999999
 30
0.0
 40
1.3001869999999991
 50
90.0
 51
179.99996999999991
  0
ARC
  5
10D
  8
0
 62
     7
 10
76.535347000000002
 20
141.47718499999999
 30
0.0
 40
1.3001869999999991
 50
179.99996999999991
 51
270.00002000000001
  0
ARC
  5
10E
  8
0
 62
     7
 10
76.485407999999993
 20
141.52640999999991
 30
0.0
 40
1.3503350000000001
 50
272.11945900000001
 51
357.91092200000003
  0
ARC
  5
10F
  8
0
 62
     7
 10
76.484763999999984
 20
141.4273179999999
 30
0.0
 40
1.351002
 50
2.1153559999999998
 51
87.854262000000006
  0
ARC
  5
110
  8
0
 62
     7
 10
78.468746999999993
 20
138.07685499999991
 30
0.0
 40
1.3001869999999991
 50
90.0
 51
179.99996999999991
  0
ARC
  5
111
  8
0
 62
     7
 10
78.468746999999993
 20
138.07685499999991
 30
0.0
 40
1.3001869999999991
 50
179.99996999999991
 51
270.00002000000001
  0
ARC
  5
112
  8
0
 62
     7
 10
78.468746999999993
 20
138.07685499999991
 30
0.0
 40
1.3001869999999991
 50
270.00002000000001
 51
359.99998999999991
  0
ARC
  5
113
  8
0
 62
     7
 10
78.468746999999993
 20
138.07685499999991
 30
0.0
 40
1.3001869999999991
 50
0.00001
 51
89.999980000000008
  0
ARC
  5
114
  8
0
 62
     7
 10
72.71779699999999
 20
141.42796200000001
 30
0.0
 40
1.3503350000000001
 50
92.119422000000014
 51
177.91091900000001
  0
ARC
  5
115
  8
0
 62
     7
 10
72.718440999999999
 20
141.52705299999991
 30
0.0
 40
1.351002
 50
182.11535900000001
 51
267.85429900000003
  0
ARC
  5
116
  8
0
 62
     7
 10
72.617952000000002
 20
141.5270919999999
 30
0.0
 40
1.3510159999999991
 50
272.116983
 51
357.88302700000003
  0
ARC
  5
117
  8
0
 62
     7
 10
72.617941999999999
 20
141.42726899999991
 30
0.0
 40
1.3510260000000001
 50
2.1173850000000001
 51
87.882604999999984
  0
ARC
  5
118
  8
0
 62
     7
 10
74.651853000000003
 20
138.026949
 30
0.0
 40
1.351014999999999
 50
92.116945999999984
 51
177.88302400000001
  0
ARC
  5
119
  8
0
 62
     7
 10
74.651863000000006
 20
138.12677099999991
 30
0.0
 40
1.3510260000000001
 50
182.11738699999989
 51
267.88264199999992
  0
ARC
  5
11A
  8
0
 62
     7
 10
74.552008000000001
 20
138.126079
 30
0.0
 40
1.3503350000000001
 50
272.11945900000001
 51
357.91092200000003
  0
ARC
  5
11B
  8
0
 62
     7
 10
74.551364000000007
 20
138.02698699999999
 30
0.0
 40
1.351002
 50
2.1153559999999998
 51
87.854262000000006
  0
ARC
  5
11C
  8
0
 62
     7
 10
61.067459999999997
 20
148.27715799999999
 30
0.0
 40
1.3001869999999991
 50
90.0
 51
179.99996999999991
  0
ARC
  5
11D
  8
0
 62
     7
 10
61.116678
 20
148.32709199999999
 30
0.0
 40
1.3503289999999999
 50
182.11924599999989
 51
267.91115500000001
  0
ARC
  5
11E
  8
0
 62
     7
 10
61.017586999999999
 20
148.32774599999991
 30
0.0
 40
1.3510070000000001
 50
272.11557199999999
 51
357.85406599999988
  0
ARC
  5
11F
  8
0
 62
     7
 10
61.067458999999992
 20
148.27715799999999
 30
0.0
 40
1.3001869999999991
 50
0.00001
 51
89.999980000000008
  0
ARC
  5
120
  8
0
 62
     7
 10
68.850998000000004
 20
148.227934
 30
0.0
 40
1.3503350000000001
 50
92.119422000000014
 51
177.91091900000001
  0
ARC
  5
121
  8
0
 62
     7
 10
68.850943999999984
 20
148.327043
 30
0.0
 40
1.350304999999999
 50
182.1172159999999
 51
267.88281399999988
  0
ARC
  5
122
  8
0
 62
     7
 10
68.751186000000004
 20
148.32774599999991
 30
0.0
 40
1.3510070000000001
 50
272.11557199999999
 51
357.85406599999988
  0
ARC
  5
123
  8
0
 62
     7
 10
68.751153000000002
 20
148.22725199999991
 30
0.0
 40
1.3510159999999991
 50
2.1169729999999989
 51
87.883017000000009
  0
ARC
  5
124
  8
0
 62
     7
 10
64.984179999999995
 20
148.227237
 30
0.0
 40
1.351030999999999
 50
92.117564000000002
 51
177.88240699999989
  0
ARC
  5
125
  8
0
 62
     7
 10
64.983478000000005
 20
148.32709199999999
 30
0.0
 40
1.3503289999999999
 50
182.11924599999989
 51
267.91115500000001
  0
ARC
  5
126
  8
0
 62
     7
 10
64.884387000000004
 20
148.32774599999991
 30
0.0
 40
1.3510070000000001
 50
272.11557199999999
 51
357.85406599999988
  0
ARC
  5
127
  8
0
 62
     7
 10
64.884353000000004
 20
148.22725199999991
 30
0.0
 40
1.3510159999999991
 50
2.1169729999999989
 51
87.883017000000009
  0
ARC
  5
128
  8
0
 62
     7
 10
63.050731999999989
 20
144.82692800000001
 30
0.0
 40
1.3510070000000001
 50
92.115552000000008
 51
177.8540459999999
  0
ARC
  5
129
  8
0
 62
     7
 10
63.000858999999998
 20
144.8775159999999
 30
0.0
 40
1.3001869999999991
 50
179.99996999999991
 51
270.00002000000001
  0
ARC
  5
12A
  8
0
 62
     7
 10
63.000858999999998
 20
144.8775169999999
 30
0.0
 40
1.3001869999999991
 50
270.00002000000001
 51
359.99998999999991
  0
ARC
  5
12B
  8
0
 62
     7
 10
62.951639999999998
 20
144.82758200000001
 30
0.0
 40
1.35033
 50
2.1192429999999991
 51
87.911118000000016
  0
ARC
  5
12C
  8
0
 62
     7
 10
66.917531999999994
 20
144.82692800000001
 30
0.0
 40
1.3510070000000001
 50
92.115552000000008
 51
177.8540459999999
  0
ARC
  5
12D
  8
0
 62
     7
 10
66.867659000000003
 20
144.8775159999999
 30
0.0
 40
1.3001869999999991
 50
179.99996999999991
 51
270.00002000000001
  0
ARC
  5
12E
  8
0
 62
     7
 10
66.867659000000003
 20
144.8775169999999
 30
0.0
 40
1.3001869999999991
 50
270.00002000000001
 51
359.99998999999991
  0
ARC
  5
12F
  8
0
 62
     7
 10
66.818439999999995
 20
144.82758200000001
 30
0.0
 40
1.35033
 50
2.1192429999999991
 51
87.911118000000016
  0
ARC
  5
130
  8
0
 62
     7
 10
70.784349000000006
 20
144.82762600000001
 30
0.0
 40
1.3503099999999999
 50
92.117392000000024
 51
177.882578
  0
ARC
  5
131
  8
0
 62
     7
 10
70.785041000000007
 20
144.92738299999999
 30
0.0
 40
1.351002
 50
182.11535900000001
 51
267.85429900000003
  0
ARC
  5
132
  8
0
 62
     7
 10
70.734457999999989
 20
144.8775169999999
 30
0.0
 40
1.3001869999999991
 50
270.00002000000001
 51
359.99998999999991
  0
ARC
  5
133
  8
0
 62
     7
 10
70.685239999999993
 20
144.82758200000001
 30
0.0
 40
1.35033
 50
2.1192429999999991
 51
87.911118000000016
  0
ARC
  5
134
  8
0
 62
     7
 10
80.452067999999997
 20
148.227237
 30
0.0
 40
1.351030999999999
 50
92.117564000000002
 51
177.88240699999989
  0
ARC
  5
135
  8
0
 62
     7
 10
80.451364999999996
 20
148.32709199999999
 30
0.0
 40
1.3503289999999999
 50
182.11924599999989
 51
267.91115500000001
  0
ARC
  5
136
  8
0
 62
     7
 10
80.352273999999994
 20
148.32774599999991
 30
0.0
 40
1.3510070000000001
 50
272.11557199999999
 51
357.85406599999988
  0
ARC
  5
137
  8
0
 62
     7
 10
80.352241000000006
 20
148.22725199999991
 30
0.0
 40
1.3510159999999991
 50
2.1169729999999989
 51
87.883017000000009
  0
ARC
  5
138
  8
0
 62
     7
 10
76.585267999999999
 20
148.227237
 30
0.0
 40
1.351030999999999
 50
92.117564000000002
 51
177.88240699999989
  0
ARC
  5
139
  8
0
 62
     7
 10
76.584565999999995
 20
148.32709199999999
 30
0.0
 40
1.3503289999999999
 50
182.11924599999989
 51
267.91115500000001
  0
ARC
  5
13A
  8
0
 62
     7
 10
76.485455999999999
 20
148.3270489999999
 30
0.0
 40
1.350311
 50
272.11743000000001
 51
357.8825799999999
  0
ARC
  5
13B
  8
0
 62
     7
 10
76.484774000000002
 20
148.22730100000001
 30
0.0
 40
1.3509919999999991
 50
2.114943999999999
 51
87.854673999999989
  0
ARC
  5
13C
  8
0
 62
     7
 10
78.518619999999999
 20
144.82692800000001
 30
0.0
 40
1.3510070000000001
 50
92.115552000000008
 51
177.8540459999999
  0
ARC
  5
13D
  8
0
 62
     7
 10
78.468746999999993
 20
144.8775159999999
 30
0.0
 40
1.3001869999999991
 50
179.99996999999991
 51
270.00002000000001
  0
ARC
  5
13E
  8
0
 62
     7
 10
78.468746999999993
 20
144.8775169999999
 30
0.0
 40
1.3001869999999991
 50
270.00002000000001
 51
359.99998999999991
  0
ARC
  5
13F
  8
0
 62
     7
 10
78.419528
 20
144.82758200000001
 30
0.0
 40
1.35033
 50
2.1192429999999991
 51
87.911118000000016
  0
ARC
  5
140
  8
0
 62
     7
 10
72.71779699999999
 20
148.227934
 30
0.0
 40
1.3503350000000001
 50
92.119422000000014
 51
177.91091900000001
  0
ARC
  5
141
  8
0
 62
     7
 10
72.717743999999996
 20
148.327043
 30
0.0
 40
1.350304999999999
 50
182.1172159999999
 51
267.88281399999988
  0
ARC
  5
142
  8
0
 62
     7
 10
72.618001000000007
 20
148.327731
 30
0.0
 40
1.3509919999999991
 50
272.11495400000001
 51
357.85468399999991
  0
ARC
  5
143
  8
0
 62
     7
 10
72.617952000000002
 20
148.22725199999991
 30
0.0
 40
1.3510159999999991
 50
2.1169729999999989
 51
87.883017000000009
  0
ARC
  5
144
  8
0
 62
     7
 10
74.65180500000001
 20
144.826943
 30
0.0
 40
1.3509919999999991
 50
92.114933999999977
 51
177.85466400000001
  0
ARC
  5
145
  8
0
 62
     7
 10
74.651863000000006
 20
144.92743200000001
 30
0.0
 40
1.3510260000000001
 50
182.11738699999989
 51
267.88264199999992
  0
ARC
  5
146
  8
0
 62
     7
 10
74.552008000000001
 20
144.92673999999991
 30
0.0
 40
1.3503350000000001
 50
272.11945900000001
 51
357.91092200000003
  0
ARC
  5
147
  8
0
 62
     7
 10
74.552062000000006
 20
144.82763099999991
 30
0.0
 40
1.350306
 50
2.1172140000000002
 51
87.882777000000004
  0
ARC
  5
148
  8
0
 62
     7
 10
61.067459999999997
 20
155.07781900000001
 30
0.0
 40
1.3001869999999991
 50
90.0
 51
179.99996999999991
  0
ARC
  5
149
  8
0
 62
     7
 10
61.067458999999992
 20
155.07781900000001
 30
0.0
 40
1.3001869999999991
 50
179.99996999999991
 51
270.00002000000001
  0
ARC
  5
14A
  8
0
 62
     7
 10
61.067458999999992
 20
155.07782
 30
0.0
 40
1.3001869999999991
 50
270.00002000000001
 51
359.99998999999991
  0
ARC
  5
14B
  8
0
 62
     7
 10
61.067458999999992
 20
155.07781900000001
 30
0.0
 40
1.3001869999999991
 50
0.00001
 51
89.999980000000008
  0
ARC
  5
14C
  8
0
 62
     7
 10
68.850998000000004
 20
155.02859599999999
 30
0.0
 40
1.3503350000000001
 50
92.119422000000014
 51
177.91091900000001
  0
ARC
  5
14D
  8
0
 62
     7
 10
68.851641999999998
 20
155.12768700000001
 30
0.0
 40
1.351002
 50
182.11535900000001
 51
267.85429900000003
  0
ARC
  5
14E
  8
0
 62
     7
 10
68.801058999999995
 20
155.07782
 30
0.0
 40
1.3001869999999991
 50
270.00002000000001
 51
359.99998999999991
  0
ARC
  5
14F
  8
0
 62
     7
 10
68.801058999999995
 20
155.07781900000001
 30
0.0
 40
1.3001869999999991
 50
0.00001
 51
89.999980000000008
  0
ARC
  5
150
  8
0
 62
     7
 10
64.934258999999997
 20
155.07781900000001
 30
0.0
 40
1.3001869999999991
 50
90.0
 51
179.99996999999991
  0
ARC
  5
151
  8
0
 62
     7
 10
64.934258999999997
 20
155.07781900000001
 30
0.0
 40
1.3001869999999991
 50
179.99996999999991
 51
270.00002000000001
  0
ARC
  5
152
  8
0
 62
     7
 10
64.934258999999997
 20
155.07782
 30
0.0
 40
1.3001869999999991
 50
270.00002000000001
 51
359.99998999999991
  0
ARC
  5
153
  8
0
 62
     7
 10
64.934258999999997
 20
155.07781900000001
 30
0.0
 40
1.3001869999999991
 50
0.00001
 51
89.999980000000008
  0
ARC
  5
154
  8
0
 62
     7
 10
63.000860000000003
 20
151.67748899999989
 30
0.0
 40
1.3001869999999991
 50
90.0
 51
179.99996999999991
  0
ARC
  5
155
  8
0
 62
     7
 10
63.000858999999998
 20
151.67748899999989
 30
0.0
 40
1.3001869999999991
 50
179.99996999999991
 51
270.00002000000001
  0
ARC
  5
156
  8
0
 62
     7
 10
63.000858999999998
 20
151.67748899999989
 30
0.0
 40
1.3001869999999991
 50
270.00002000000001
 51
359.99998999999991
  0
ARC
  5
157
  8
0
 62
     7
 10
63.000858999999998
 20
151.67748899999989
 30
0.0
 40
1.3001869999999991
 50
0.00001
 51
89.999980000000008
  0
ARC
  5
158
  8
0
 62
     7
 10
66.867659000000003
 20
151.67748899999989
 30
0.0
 40
1.3001869999999991
 50
90.0
 51
179.99996999999991
  0
ARC
  5
159
  8
0
 62
     7
 10
66.867659000000003
 20
151.67748899999989
 30
0.0
 40
1.3001869999999991
 50
179.99996999999991
 51
270.00002000000001
  0
ARC
  5
15A
  8
0
 62
     7
 10
66.867659000000003
 20
151.67748899999989
 30
0.0
 40
1.3001869999999991
 50
270.00002000000001
 51
359.99998999999991
  0
ARC
  5
15B
  8
0
 62
     7
 10
66.867659000000003
 20
151.67748899999989
 30
0.0
 40
1.3001869999999991
 50
0.00001
 51
89.999980000000008
  0
ARC
  5
15C
  8
0
 62
     7
 10
70.784397999999996
 20
151.62826499999991
 30
0.0
 40
1.3503350000000001
 50
92.119422000000014
 51
177.91091900000001
  0
ARC
  5
15D
  8
0
 62
     7
 10
70.785041000000007
 20
151.72735599999999
 30
0.0
 40
1.351002
 50
182.11535900000001
 51
267.85429900000003
  0
ARC
  5
15E
  8
0
 62
     7
 10
70.734457999999989
 20
151.67748899999989
 30
0.0
 40
1.3001869999999991
 50
270.00002000000001
 51
359.99998999999991
  0
ARC
  5
15F
  8
0
 62
     7
 10
70.734457999999989
 20
151.67748899999989
 30
0.0
 40
1.3001869999999991
 50
0.00001
 51
89.999980000000008
  0
ARC
  5
160
  8
0
 62
     7
 10
80.402146999999985
 20
155.07781900000001
 30
0.0
 40
1.3001869999999991
 50
90.0
 51
179.99996999999991
  0
ARC
  5
161
  8
0
 62
     7
 10
80.402146000000002
 20
155.07781900000001
 30
0.0
 40
1.3001869999999991
 50
179.99996999999991
 51
270.00002000000001
  0
ARC
  5
162
  8
0
 62
     7
 10
80.402146000000002
 20
155.07782
 30
0.0
 40
1.3001869999999991
 50
270.00002000000001
 51
359.99998999999991
  0
ARC
  5
163
  8
0
 62
     7
 10
80.402146000000002
 20
155.07781900000001
 30
0.0
 40
1.3001869999999991
 50
0.00001
 51
89.999980000000008
  0
ARC
  5
164
  8
0
 62
     7
 10
76.535347000000002
 20
155.07781900000001
 30
0.0
 40
1.3001869999999991
 50
90.0
 51
179.99996999999991
  0
ARC
  5
165
  8
0
 62
     7
 10
76.535347000000002
 20
155.07781900000001
 30
0.0
 40
1.3001869999999991
 50
179.99996999999991
 51
270.00002000000001
  0
ARC
  5
166
  8
0
 62
     7
 10
76.485407999999993
 20
155.1270439999999
 30
0.0
 40
1.3503350000000001
 50
272.11945900000001
 51
357.91092200000003
  0
ARC
  5
167
  8
0
 62
     7
 10
76.484763999999984
 20
155.027952
 30
0.0
 40
1.351002
 50
2.1153559999999998
 51
87.854262000000006
  0
ARC
  5
168
  8
0
 62
     7
 10
78.468746999999993
 20
151.67748899999989
 30
0.0
 40
1.3001869999999991
 50
90.0
 51
179.99996999999991
  0
ARC
  5
169
  8
0
 62
     7
 10
78.468746999999993
 20
151.67748899999989
 30
0.0
 40
1.3001869999999991
 50
179.99996999999991
 51
270.00002000000001
  0
ARC
  5
16A
  8
0
 62
     7
 10
78.468746999999993
 20
151.67748899999989
 30
0.0
 40
1.3001869999999991
 50
270.00002000000001
 51
359.99998999999991
  0
ARC
  5
16B
  8
0
 62
     7
 10
78.468746999999993
 20
151.67748899999989
 30
0.0
 40
1.3001869999999991
 50
0.00001
 51
89.999980000000008
  0
ARC
  5
16C
  8
0
 62
     7
 10
72.71779699999999
 20
155.02859599999999
 30
0.0
 40
1.3503350000000001
 50
92.119422000000014
 51
177.91091900000001
  0
ARC
  5
16D
  8
0
 62
     7
 10
72.718440999999999
 20
155.12768700000001
 30
0.0
 40
1.351002
 50
182.11535900000001
 51
267.85429900000003
  0
ARC
  5
16E
  8
0
 62
     7
 10
72.617952000000002
 20
155.12772599999991
 30
0.0
 40
1.3510159999999991
 50
272.116983
 51
357.88302700000003
  0
ARC
  5
16F
  8
0
 62
     7
 10
72.617941999999999
 20
155.02790300000001
 30
0.0
 40
1.3510260000000001
 50
2.1173850000000001
 51
87.882604999999984
  0
ARC
  5
170
  8
0
 62
     7
 10
74.651853000000003
 20
151.62758299999999
 30
0.0
 40
1.351014999999999
 50
92.116945999999984
 51
177.88302400000001
  0
ARC
  5
171
  8
0
 62
     7
 10
74.651863000000006
 20
151.727405
 30
0.0
 40
1.3510260000000001
 50
182.11738699999989
 51
267.88264199999992
  0
ARC
  5
172
  8
0
 62
     7
 10
74.552008000000001
 20
151.72671299999999
 30
0.0
 40
1.3503350000000001
 50
272.11945900000001
 51
357.91092200000003
  0
ARC
  5
173
  8
0
 62
     7
 10
74.551364000000007
 20
151.627621
 30
0.0
 40
1.351002
 50
2.1153559999999998
 51
87.854262000000006
  0
LINE
  5
174
  8
0
 62
     7
 10
153.15299999999999
 20
159.32599999999991
 30
0.0
 11
153.23099999999999
 21
163.52699999999999
 31
0.0
  0
LINE
  5
175
  8
0
 62
     7
 10
152.65700000000001
 20
159.541
 30
0.0
 11
152.727
 21
163.32299999999989
 31
0.0
  0
LINE
  5
176
  8
0
 62
     7
 10
43.619
 20
155.51900000000001
 30
0.0
 11
45.83039999999999
 21
154.92599999999999
 31
0.0
  0
LINE
  5
177
  8
0
 62
     7
 10
45.83039999999999
 20
154.92599999999999
 30
0.0
 11
43.619
 21
154.334
 31
0.0
  0
LINE
  5
178
  8
0
 62
     7
 10
43.619
 20
154.334
 30
0.0
 11
43.619
 21
155.51900000000001
 31
0.0
  0
LINE
  5
179
  8
0
 62
     7
 10
50.875399999999999
 20
154.334
 30
0.0
 11
48.663699999999992
 21
154.92599999999999
 31
0.0
  0
LINE
  5
17A
  8
0
 62
     7
 10
48.663699999999992
 20
154.92599999999999
 30
0.0
 11
50.875399999999999
 21
155.51900000000001
 31
0.0
  0
LINE
  5
17B
  8
0
 62
     7
 10
50.875399999999999
 20
155.51900000000001
 30
0.0
 11
50.875399999999999
 21
154.334
 31
0.0
  0
LINE
  5
17C
  8
0
 62
     7
 10
52.368200000000002
 20
154.92599999999999
 30
0.0
 11
37.751800000000003
 21
154.92599999999999
 31
0.0
  0
LINE
  5
17D
  8
0
 62
     7
 10
48.663699999999992
 20
154.22599999999991
 30
0.0
 11
48.663699999999992
 21
161.93700000000001
 31
0.0
  0
LINE
  5
17E
  8
0
 62
     7
 10
113.577
 20
178.97200000000001
 30
0.0
 11
114.169
 21
176.76099999999991
 31
0.0
  0
LINE
  5
17F
  8
0
 62
     7
 10
114.169
 20
176.76099999999991
 30
0.0
 11
114.762
 21
178.97200000000001
 31
0.0
  0
LINE
  5
180
  8
0
 62
     7
 10
114.762
 20
178.97200000000001
 30
0.0
 11
113.577
 21
178.97200000000001
 31
0.0
  0
LINE
  5
181
  8
0
 62
     7
 10
102.91799999999991
 20
163.63800000000001
 30
0.0
 11
103.51000000000001
 21
161.42699999999999
 31
0.0
  0
LINE
  5
182
  8
0
 62
     7
 10
103.51000000000001
 20
161.42699999999999
 30
0.0
 11
104.10299999999989
 21
163.63800000000001
 31
0.0
  0
LINE
  5
183
  8
0
 62
     7
 10
104.10299999999989
 20
163.63800000000001
 30
0.0
 11
102.91799999999991
 21
163.63800000000001
 31
0.0
  0
LINE
  5
184
  8
0
 62
     7
 10
104.08799999999999
 20
174.55000000000001
 30
0.0
 11
103.496
 21
176.76099999999991
 31
0.0
  0
LINE
  5
185
  8
0
 62
     7
 10
103.496
 20
176.76099999999991
 30
0.0
 11
102.90299999999991
 21
174.55000000000001
 31
0.0
  0
LINE
  5
186
  8
0
 62
     7
 10
102.90299999999991
 20
174.55000000000001
 30
0.0
 11
104.08799999999999
 21
174.55000000000001
 31
0.0
  0
LINE
  5
187
  8
0
 62
     7
 10
103.5029999999999
 20
161.42799999999991
 30
0.0
 11
103.5029999999999
 21
176.75999999999991
 31
0.0
  0
TEXT
  5
188
  8
0
 62
     7
 10
102.8029999999999
 20
167.16128749999999
 30
0.0
 40
3.0923400000000001
  1
230
 50
90.0
 41
0.5
 72
     1
 11
102.8029999999999
 21
169.09399999999999
 31
0.0
  0
LINE
  5
189
  8
0
 62
     7
 10
39.104500000000002
 20
169.304
 30
0.0
 11
39.697099999999999
 21
167.09299999999999
 31
0.0
  0
LINE
  5
18A
  8
0
 62
     7
 10
39.697099999999999
 20
167.09299999999999
 30
0.0
 11
40.2896
 21
169.304
 31
0.0
  0
LINE
  5
18B
  8
0
 62
     7
 10
40.2896
 20
169.304
 30
0.0
 11
39.104500000000002
 21
169.304
 31
0.0
  0
LINE
  5
18C
  8
0
 62
     7
 10
40.275100000000002
 20
174.55000000000001
 30
0.0
 11
39.682600000000001
 21
176.76199999999989
 31
0.0
  0
LINE
  5
18D
  8
0
 62
     7
 10
39.682600000000001
 20
176.76199999999989
 30
0.0
 11
39.090000000000003
 21
174.55000000000001
 31
0.0
  0
LINE
  5
18E
  8
0
 62
     7
 10
39.090000000000003
 20
174.55000000000001
 30
0.0
 11
40.275100000000002
 21
174.55000000000001
 31
0.0
  0
LINE
  5
18F
  8
0
 62
     7
 10
39.689500000000002
 20
167.09399999999999
 30
0.0
 11
39.689500000000002
 21
176.76099999999991
 31
0.0
  0
LINE
  5
190
  8
0
 62
     7
 10
38.997
 20
167.09399999999999
 30
0.0
 11
44.346200000000003
 21
167.09399999999999
 31
0.0
  0
LINE
  5
191
  8
0
 62
     7
 10
90.364699999999985
 20
171.17099999999999
 30
0.0
 11
90.364699999999985
 21
188.0509999999999
 31
0.0
  0
LINE
  5
192
  8
0
 62
     7
 10
43.484999999999999
 20
186.7579999999999
 30
0.0
 11
45.6967
 21
187.34999999999991
 31
0.0
  0
LINE
  5
193
  8
0
 62
     7
 10
45.6967
 20
187.34999999999991
 30
0.0
 11
43.484999999999999
 21
187.9429999999999
 31
0.0
  0
LINE
  5
194
  8
0
 62
     7
 10
43.484999999999999
 20
187.9429999999999
 30
0.0
 11
43.484999999999999
 21
186.7579999999999
 31
0.0
  0
LINE
  5
195
  8
0
 62
     7
 10
88.153300000000016
 20
186.7579999999999
 30
0.0
 11
90.364699999999985
 21
187.34999999999991
 31
0.0
  0
LINE
  5
196
  8
0
 62
     7
 10
90.364699999999985
 20
187.34999999999991
 30
0.0
 11
88.153300000000016
 21
187.9429999999999
 31
0.0
  0
LINE
  5
197
  8
0
 62
     7
 10
88.153300000000016
 20
187.9429999999999
 30
0.0
 11
88.153300000000016
 21
186.7579999999999
 31
0.0
  0
LINE
  5
198
  8
0
 62
     7
 10
97.909899999999993
 20
187.9429999999999
 30
0.0
 11
95.698499999999996
 21
187.34999999999991
 31
0.0
  0
LINE
  5
199
  8
0
 62
     7
 10
95.698499999999996
 20
187.34999999999991
 30
0.0
 11
97.909899999999993
 21
186.7579999999999
 31
0.0
  0
LINE
  5
19A
  8
0
 62
     7
 10
97.909899999999993
 20
186.7579999999999
 30
0.0
 11
97.909899999999993
 21
187.9429999999999
 31
0.0
  0
LINE
  5
19B
  8
0
 62
     7
 10
53.241900000000001
 20
187.9429999999999
 30
0.0
 11
51.030500000000004
 21
187.34999999999991
 31
0.0
  0
LINE
  5
19C
  8
0
 62
     7
 10
51.030500000000004
 20
187.34999999999991
 30
0.0
 11
53.241900000000001
 21
186.7579999999999
 31
0.0
  0
LINE
  5
19D
  8
0
 62
     7
 10
53.241900000000001
 20
186.7579999999999
 30
0.0
 11
53.241900000000001
 21
187.9429999999999
 31
0.0
  0
LINE
  5
19E
  8
0
 62
     7
 10
99.353399999999993
 20
187.34999999999991
 30
0.0
 11
41.933599999999998
 21
187.34999999999991
 31
0.0
  0
LINE
  5
19F
  8
0
 62
     7
 10
45.6967
 20
177.45500000000001
 30
0.0
 11
45.6967
 21
195.57900000000001
 31
0.0
  0
LINE
  5
1A0
  8
0
 62
     7
 10
51.030500000000004
 20
171.17099999999999
 30
0.0
 11
51.030500000000004
 21
188.0509999999999
 31
0.0
  0
LINE
  5
1A1
  8
0
 62
     7
 10
168.9559999999999
 20
245.852
 30
0.0
 11
168.364
 21
248.06299999999999
 31
0.0
  0
LINE
  5
1A2
  8
0
 62
     7
 10
168.364
 20
248.06299999999999
 30
0.0
 11
167.7709999999999
 21
245.852
 31
0.0
  0
LINE
  5
1A3
  8
0
 62
     7
 10
167.7709999999999
 20
245.852
 30
0.0
 11
168.9559999999999
 21
245.852
 31
0.0
  0
LINE
  5
1A4
  8
0
 62
     7
 10
168.94200000000001
 20
229.85299999999989
 30
0.0
 11
168.34899999999999
 21
232.065
 31
0.0
  0
LINE
  5
1A5
  8
0
 62
     7
 10
168.34899999999999
 20
232.065
 30
0.0
 11
167.75700000000001
 21
229.85299999999989
 31
0.0
  0
LINE
  5
1A6
  8
0
 62
     7
 10
167.75700000000001
 20
229.85299999999989
 30
0.0
 11
168.94200000000001
 21
229.85299999999989
 31
0.0
  0
LINE
  5
1A7
  8
0
 62
     7
 10
167.7709999999999
 20
217.274
 30
0.0
 11
168.364
 21
215.0619999999999
 31
0.0
  0
LINE
  5
1A8
  8
0
 62
     7
 10
168.364
 20
215.0619999999999
 30
0.0
 11
168.9559999999999
 21
217.274
 31
0.0
  0
LINE
  5
1A9
  8
0
 62
     7
 10
168.9559999999999
 20
217.274
 30
0.0
 11
167.7709999999999
 21
217.274
 31
0.0
  0
LINE
  5
1AA
  8
0
 62
     7
 10
168.357
 20
232.06399999999999
 30
0.0
 11
168.357
 21
215.06299999999999
 31
0.0
  0
TEXT
  5
1AB
  8
0
 62
     7
 10
167.65700000000001
 20
221.50144
 30
0.0
 40
3.0923400000000001
  1
255
 50
90.0
 41
0.5
 72
     1
 11
167.65700000000001
 21
223.56299999999999
 31
0.0
  0
LINE
  5
1AC
  8
0
 62
     7
 10
168.94200000000001
 20
262.85500000000002
 30
0.0
 11
168.34899999999999
 21
265.06599999999992
 31
0.0
  0
LINE
  5
1AD
  8
0
 62
     7
 10
168.34899999999999
 20
265.06599999999992
 30
0.0
 11
167.75700000000001
 21
262.85500000000002
 31
0.0
  0
LINE
  5
1AE
  8
0
 62
     7
 10
167.75700000000001
 20
262.85500000000002
 30
0.0
 11
168.94200000000001
 21
262.85500000000002
 31
0.0
  0
LINE
  5
1AF
  8
0
 62
     7
 10
167.75700000000001
 20
234.2759999999999
 30
0.0
 11
168.34899999999999
 21
232.065
 31
0.0
  0
LINE
  5
1B0
  8
0
 62
     7
 10
168.34899999999999
 20
232.065
 30
0.0
 11
168.94200000000001
 21
234.2759999999999
 31
0.0
  0
LINE
  5
1B1
  8
0
 62
     7
 10
168.94200000000001
 20
234.2759999999999
 30
0.0
 11
167.75700000000001
 21
234.2759999999999
 31
0.0
  0
LINE
  5
1B2
  8
0
 62
     7
 10
167.7709999999999
 20
250.27500000000001
 30
0.0
 11
168.364
 21
248.06299999999999
 31
0.0
  0
LINE
  5
1B3
  8
0
 62
     7
 10
168.364
 20
248.06299999999999
 30
0.0
 11
168.9559999999999
 21
250.27500000000001
 31
0.0
  0
LINE
  5
1B4
  8
0
 62
     7
 10
168.9559999999999
 20
250.27500000000001
 30
0.0
 11
167.7709999999999
 21
250.27500000000001
 31
0.0
  0
LINE
  5
1B5
  8
0
 62
     7
 10
168.357
 20
265.065
 30
0.0
 11
168.357
 21
232.065
 31
0.0
  0
LINE
  5
1B6
  8
0
 62
     7
 10
163.5749999999999
 20
248.06399999999999
 30
0.0
 11
169.05699999999999
 21
248.06399999999999
 31
0.0
  0
LINE
  5
1B7
  8
0
 62
     7
 10
124.648
 20
265.065
 30
0.0
 11
169.05699999999999
 21
265.065
 31
0.0
  0
LINE
  5
1B8
  8
0
 62
     7
 10
163.5749999999999
 20
232.06399999999999
 30
0.0
 11
169.05699999999999
 21
232.06399999999999
 31
0.0
  0
LINE
  5
1B9
  8
0
 62
     7
 10
124.648
 20
215.06299999999999
 30
0.0
 11
169.05699999999999
 21
215.06299999999999
 31
0.0
  0
LINE
  5
1BA
  8
0
 62
     7
 10
126.119
 20
209.04599999999991
 30
0.0
 11
123.907
 21
208.45299999999989
 31
0.0
  0
LINE
  5
1BB
  8
0
 62
     7
 10
123.907
 20
208.45299999999989
 30
0.0
 11
126.119
 21
207.86000000000001
 31
0.0
  0
LINE
  5
1BC
  8
0
 62
     7
 10
126.119
 20
207.86000000000001
 30
0.0
 11
126.119
 21
209.04599999999991
 31
0.0
  0
LINE
  5
1BD
  8
0
 62
     7
 10
119.697
 20
207.86000000000001
 30
0.0
 11
121.90900000000001
 21
208.45299999999989
 31
0.0
  0
LINE
  5
1BE
  8
0
 62
     7
 10
121.90900000000001
 20
208.45299999999989
 30
0.0
 11
119.697
 21
209.04599999999991
 31
0.0
  0
LINE
  5
1BF
  8
0
 62
     7
 10
119.697
 20
209.04599999999991
 30
0.0
 11
119.697
 21
207.86000000000001
 31
0.0
  0
LINE
  5
1C0
  8
0
 62
     7
 10
115.3579999999999
 20
208.45299999999989
 30
0.0
 11
127.58199999999999
 21
208.45299999999989
 31
0.0
  0
LINE
  5
1C1
  8
0
 62
     7
 10
123.907
 20
214.32099999999991
 30
0.0
 11
123.907
 21
207.7529999999999
 31
0.0
  0
LINE
  5
1C2
  8
0
 62
     7
 10
121.90900000000001
 20
214.352
 30
0.0
 11
121.90900000000001
 21
207.7529999999999
 31
0.0
  0
LINE
  5
1C3
  8
0
 62
     7
 10
168.10400000000001
 20
78.964799999999997
 30
0.0
 11
168.697
 21
76.753100000000003
 31
0.0
  0
LINE
  5
1C4
  8
0
 62
     7
 10
168.697
 20
76.753100000000003
 30
0.0
 11
169.28899999999999
 21
78.964799999999997
 31
0.0
  0
LINE
  5
1C5
  8
0
 62
     7
 10
169.28899999999999
 20
78.964799999999997
 30
0.0
 11
168.10400000000001
 21
78.964799999999997
 31
0.0
  0
LINE
  5
1C6
  8
0
 62
     7
 10
114.762
 20
80.996099999999998
 30
0.0
 11
114.169
 21
83.207199999999986
 31
0.0
  0
LINE
  5
1C7
  8
0
 62
     7
 10
114.169
 20
83.207199999999986
 30
0.0
 11
113.577
 21
80.996099999999998
 31
0.0
  0
LINE
  5
1C8
  8
0
 62
     7
 10
113.577
 20
80.996099999999998
 30
0.0
 11
114.762
 21
80.996099999999998
 31
0.0
  0
LINE
  5
1C9
  8
0
 62
     7
 10
169.28899999999999
 20
151.21199999999999
 30
0.0
 11
168.697
 21
153.42299999999989
 31
0.0
  0
LINE
  5
1CA
  8
0
 62
     7
 10
168.697
 20
153.42299999999989
 30
0.0
 11
168.10400000000001
 21
151.21199999999999
 31
0.0
  0
LINE
  5
1CB
  8
0
 62
     7
 10
168.10400000000001
 20
151.21199999999999
 30
0.0
 11
169.28899999999999
 21
151.21199999999999
 31
0.0
  0
LINE
  5
1CC
  8
0
 62
     7
 10
169.27500000000001
 20
105.2119999999999
 30
0.0
 11
168.68199999999999
 21
107.4229999999999
 31
0.0
  0
LINE
  5
1CD
  8
0
 62
     7
 10
168.68199999999999
 20
107.4229999999999
 30
0.0
 11
168.09
 21
105.2119999999999
 31
0.0
  0
LINE
  5
1CE
  8
0
 62
     7
 10
168.09
 20
105.2119999999999
 30
0.0
 11
169.27500000000001
 21
105.2119999999999
 31
0.0
  0
LINE
  5
1CF
  8
0
 62
     7
 10
168.68899999999999
 20
76.754499999999993
 30
0.0
 11
168.68899999999999
 21
107.422
 31
0.0
  0
TEXT
  5
1D0
  8
0
 62
     7
 10
167.989
 20
90.155287499999986
 30
0.0
 40
3.0923400000000001
  1
460
 50
90.0
 41
0.5
 72
     1
 11
167.989
 21
92.087999999999994
 31
0.0
  0
LINE
  5
1D1
  8
0
 62
     7
 10
168.09
 20
109.634
 30
0.0
 11
168.68199999999999
 21
107.4229999999999
 31
0.0
  0
LINE
  5
1D2
  8
0
 62
     7
 10
168.68199999999999
 20
107.4229999999999
 30
0.0
 11
169.27500000000001
 21
109.634
 31
0.0
  0
LINE
  5
1D3
  8
0
 62
     7
 10
169.27500000000001
 20
109.634
 30
0.0
 11
168.09
 21
109.634
 31
0.0
  0
LINE
  5
1D4
  8
0
 62
     7
 10
168.10400000000001
 20
155.63499999999991
 30
0.0
 11
168.697
 21
153.42299999999989
 31
0.0
  0
LINE
  5
1D5
  8
0
 62
     7
 10
168.697
 20
153.42299999999989
 30
0.0
 11
169.28899999999999
 21
155.63499999999991
 31
0.0
  0
LINE
  5
1D6
  8
0
 62
     7
 10
169.28899999999999
 20
155.63499999999991
 30
0.0
 11
168.10400000000001
 21
155.63499999999991
 31
0.0
  0
LINE
  5
1D7
  8
0
 62
     7
 10
169.27500000000001
 20
174.55000000000001
 30
0.0
 11
168.68199999999999
 21
176.76099999999991
 31
0.0
  0
LINE
  5
1D8
  8
0
 62
     7
 10
168.68199999999999
 20
176.76099999999991
 30
0.0
 11
168.09
 21
174.55000000000001
 31
0.0
  0
LINE
  5
1D9
  8
0
 62
     7
 10
168.09
 20
174.55000000000001
 30
0.0
 11
169.27500000000001
 21
174.55000000000001
 31
0.0
  0
LINE
  5
1DA
  8
0
 62
     7
 10
168.68899999999999
 20
107.4229999999999
 30
0.0
 11
168.68899999999999
 21
176.75999999999991
 31
0.0
  0
LINE
  5
1DB
  8
0
 62
     7
 10
124.12
 20
161.2359999999999
 30
0.0
 11
121.9079999999999
 21
160.64400000000001
 31
0.0
  0
LINE
  5
1DC
  8
0
 62
     7
 10
121.9079999999999
 20
160.64400000000001
 30
0.0
 11
124.12
 21
160.05099999999999
 31
0.0
  0
LINE
  5
1DD
  8
0
 62
     7
 10
124.12
 20
160.05099999999999
 30
0.0
 11
124.12
 21
161.2359999999999
 31
0.0
  0
LINE
  5
1DE
  8
0
 62
     7
 10
149.678
 20
160.06599999999989
 30
0.0
 11
151.88900000000001
 21
160.6579999999999
 31
0.0
  0
LINE
  5
1DF
  8
0
 62
     7
 10
151.88900000000001
 20
160.6579999999999
 30
0.0
 11
149.678
 21
161.251
 31
0.0
  0
LINE
  5
1E0
  8
0
 62
     7
 10
149.678
 20
161.251
 30
0.0
 11
149.678
 21
160.06599999999989
 31
0.0
  0
LINE
  5
1E1
  8
0
 62
     7
 10
121.90900000000001
 20
160.65100000000001
 30
0.0
 11
151.88800000000001
 21
160.65100000000001
 31
0.0
  0
LINE
  5
1E2
  8
0
 62
     7
 10
124.6369999999999
 20
176.75999999999991
 30
0.0
 11
169.38999999999999
 21
176.75999999999991
 31
0.0
  0
LINE
  5
1E3
  8
0
 62
     7
 10
163.64099999999991
 20
153.42400000000001
 30
0.0
 11
169.38999999999999
 21
153.42400000000001
 31
0.0
  0
LINE
  5
1E4
  8
0
 62
     7
 10
124.64700000000001
 20
76.754499999999993
 30
0.0
 11
169.38999999999999
 21
76.754499999999993
 31
0.0
  0
LINE
  5
1E5
  8
0
 62
     7
 10
163.64099999999991
 20
107.422
 30
0.0
 11
169.38999999999999
 21
107.422
 31
0.0
  0
LINE
  5
1E6
  8
0
 62
     7
 10
47.907099999999993
 20
195.46499999999989
 30
0.0
 11
45.695700000000002
 21
194.87200000000001
 31
0.0
  0
LINE
  5
1E7
  8
0
 62
     7
 10
45.695700000000002
 20
194.87200000000001
 30
0.0
 11
47.907099999999993
 21
194.28
 31
0.0
  0
LINE
  5
1E8
  8
0
 62
     7
 10
47.907099999999993
 20
194.28
 30
0.0
 11
47.907099999999993
 21
195.46499999999989
 31
0.0
  0
LINE
  5
1E9
  8
0
 62
     7
 10
93.487399999999994
 20
194.29400000000001
 30
0.0
 11
95.699200000000005
 21
194.887
 31
0.0
  0
LINE
  5
1EA
  8
0
 62
     7
 10
95.699200000000005
 20
194.887
 30
0.0
 11
93.487399999999994
 21
195.47900000000001
 31
0.0
  0
LINE
  5
1EB
  8
0
 62
     7
 10
93.487399999999994
 20
195.47900000000001
 30
0.0
 11
93.487399999999994
 21
194.29400000000001
 31
0.0
  0
LINE
  5
1EC
  8
0
 62
     7
 10
45.6967
 20
194.87899999999999
 30
0.0
 11
95.698499999999996
 21
194.87899999999999
 31
0.0
  0
LINE
  5
1ED
  8
0
 62
     7
 10
95.698499999999996
 20
177.529
 30
0.0
 11
95.698499999999996
 21
195.57900000000001
 31
0.0
  0
LINE
  5
1EE
  8
0
 62
     7
 10
33.064900000000002
 20
78.961399999999983
 30
0.0
 11
33.657400000000003
 21
76.750299999999996
 31
0.0
  0
LINE
  5
1EF
  8
0
 62
     7
 10
33.657400000000003
 20
76.750299999999996
 30
0.0
 11
34.25
 21
78.961399999999983
 31
0.0
  0
LINE
  5
1F0
  8
0
 62
     7
 10
34.25
 20
78.961399999999983
 30
0.0
 11
33.064900000000002
 21
78.961399999999983
 31
0.0
  0
LINE
  5
1F1
  8
0
 62
     7
 10
34.235500000000002
 20
174.5449999999999
 30
0.0
 11
33.642899999999997
 21
176.75599999999989
 31
0.0
  0
LINE
  5
1F2
  8
0
 62
     7
 10
33.642899999999997
 20
176.75599999999989
 30
0.0
 11
33.050400000000003
 21
174.5449999999999
 31
0.0
  0
LINE
  5
1F3
  8
0
 62
     7
 10
33.050400000000003
 20
174.5449999999999
 30
0.0
 11
34.235500000000002
 21
174.5449999999999
 31
0.0
  0
LINE
  5
1F4
  8
0
 62
     7
 10
33.650500000000001
 20
76.751000000000005
 30
0.0
 11
33.650500000000001
 21
176.75499999999991
 31
0.0
  0
LINE
  5
1F5
  8
0
 62
     7
 10
44.917400000000001
 20
176.75499999999991
 30
0.0
 11
32.950499999999991
 21
176.75499999999991
 31
0.0
  0
LINE
  5
1F6
  8
0
 62
     7
 10
45.267499999999991
 20
76.751000000000005
 30
0.0
 11
32.950499999999991
 21
76.751000000000005
 31
0.0
  0
LINE
  5
1F7
  8
0
 62
     7
 10
123.929
 20
262.93200000000002
 30
0.0
 11
126.1149999999999
 21
259.70499999999993
 31
0.0
  0
LINE
  5
1F8
  8
0
 62
     7
 10
128.90999999999991
 20
224.5509999999999
 30
0.0
 11
123.929
 21
224.5509999999999
 31
0.0
  0
LINE
  5
1F9
  8
0
 62
     7
 10
123.929
 20
217.19699999999989
 30
0.0
 11
128.90999999999991
 21
224.5509999999999
 31
0.0
  0
LINE
  5
1FA
  8
0
 62
     7
 10
122.7389999999999
 20
175.83199999999991
 30
0.0
 11
128.89099999999999
 21
171.0029999999999
 31
0.0
  0
ARC
  5
1FB
  8
0
 62
     7
 10
48.66366
 20
167.1033459999999
 30
0.0
 40
1.4669309999999991
 50
90.0
 51
179.99996999999991
  0
ARC
  5
1FC
  8
0
 62
     7
 10
48.719070000000002
 20
167.15947199999991
 30
0.0
 40
1.5233760000000001
 50
182.11145300000001
 51
267.91549500000002
  0
ARC
  5
1FD
  8
0
 62
     7
 10
48.607615000000003
 20
167.16010600000001
 30
0.0
 40
1.524033
 50
272.10747299999991
 51
357.86561899999992
  0
ARC
  5
1FE
  8
0
 62
     7
 10
48.663659000000003
 20
167.1033459999999
 30
0.0
 40
1.4669309999999991
 50
0.00001
 51
89.999980000000008
  0
LINE
  5
1FF
  8
0
 62
     7
 10
153.5379999999999
 20
244.7649999999999
 30
0.0
 11
153.505
 21
244.73099999999991
 31
0.0
  0
LINE
  5
200
  8
0
 62
     7
 10
153.5379999999999
 20
247.99799999999991
 30
0.0
 11
153.5379999999999
 21
251.3419999999999
 31
0.0
  0
LINE
  5
201
  8
0
 62
     7
 10
153.5379999999999
 20
247.99799999999991
 30
0.0
 11
153.5379999999999
 21
244.74199999999999
 31
0.0
  0
LINE
  5
202
  8
0
 62
     7
 10
153.5379999999999
 20
251.37599999999989
 30
0.0
 11
153.482
 21
251.43100000000001
 31
0.0
  0
LINE
  5
203
  8
0
 62
     7
 10
153.5379999999999
 20
228.76400000000001
 30
0.0
 11
153.505
 21
228.72999999999999
 31
0.0
  0
LINE
  5
204
  8
0
 62
     7
 10
153.5379999999999
 20
231.99700000000001
 30
0.0
 11
153.5379999999999
 21
235.34099999999989
 31
0.0
  0
LINE
  5
205
  8
0
 62
     7
 10
153.5379999999999
 20
231.99700000000001
 30
0.0
 11
153.5379999999999
 21
228.76400000000001
 31
0.0
  0
LINE
  5
206
  8
0
 62
     7
 10
153.5379999999999
 20
235.34099999999989
 30
0.0
 11
153.482
 21
235.39699999999999
 31
0.0
  0
LINE
  5
207
  8
0
 62
     7
 10
153.5379999999999
 20
244.73099999999991
 30
0.0
 11
153.5379999999999
 21
251.398
 31
0.0
  0
LINE
  5
208
  8
0
 62
     7
 10
153.5379999999999
 20
228.76400000000001
 30
0.0
 11
153.5379999999999
 21
235.34099999999989
 31
0.0
  0
LINE
  5
209
  8
0
 62
     7
 10
153.5379999999999
 20
104.08799999999999
 30
0.0
 11
153.505
 21
104.05500000000001
 31
0.0
  0
LINE
  5
20A
  8
0
 62
     7
 10
153.5379999999999
 20
107.34399999999989
 30
0.0
 11
153.5379999999999
 21
110.6879999999999
 31
0.0
  0
LINE
  5
20B
  8
0
 62
     7
 10
153.5379999999999
 20
107.34399999999989
 30
0.0
 11
153.5379999999999
 21
104.08799999999999
 31
0.0
  0
LINE
  5
20C
  8
0
 62
     7
 10
153.5379999999999
 20
110.6879999999999
 30
0.0
 11
153.505
 21
110.72199999999999
 31
0.0
  0
LINE
  5
20D
  8
0
 62
     7
 10
124.12
 20
185.16200000000001
 30
0.0
 11
121.90900000000001
 21
184.56999999999991
 31
0.0
  0
LINE
  5
20E
  8
0
 62
     7
 10
121.90900000000001
 20
184.56999999999991
 30
0.0
 11
124.12
 21
183.977
 31
0.0
  0
LINE
  5
20F
  8
0
 62
     7
 10
124.12
 20
183.977
 30
0.0
 11
124.12
 21
185.16200000000001
 31
0.0
  0
LINE
  5
210
  8
0
 62
     7
 10
159.38099999999989
 20
183.99199999999999
 30
0.0
 11
161.5929999999999
 21
184.584
 31
0.0
  0
LINE
  5
211
  8
0
 62
     7
 10
161.5929999999999
 20
184.584
 30
0.0
 11
159.38099999999989
 21
185.17699999999999
 31
0.0
  0
LINE
  5
212
  8
0
 62
     7
 10
159.38099999999989
 20
185.17699999999999
 30
0.0
 11
159.38099999999989
 21
183.99199999999999
 31
0.0
  0
LINE
  5
213
  8
0
 62
     7
 10
121.91
 20
184.57699999999991
 30
0.0
 11
161.59200000000001
 21
184.57699999999991
 31
0.0
  0
LINE
  5
214
  8
0
 62
     7
 10
161.59200000000001
 20
156.00200000000001
 30
0.0
 11
161.59200000000001
 21
185.27699999999999
 31
0.0
  0
LINE
  5
215
  8
0
 62
     7
 10
121.91
 20
177.364
 30
0.0
 11
121.91
 21
185.27699999999999
 31
0.0
  0
LINE
  5
216
  8
0
 62
     7
 10
153.5379999999999
 20
244.73099999999991
 30
0.0
 11
152.703
 21
244.73099999999991
 31
0.0
  0
LINE
  5
217
  8
0
 62
     7
 10
153.5379999999999
 20
251.398
 30
0.0
 11
152.703
 21
251.398
 31
0.0
  0
LINE
  5
218
  8
0
 62
     7
 10
153.5379999999999
 20
228.72999999999999
 30
0.0
 11
152.703
 21
228.72999999999999
 31
0.0
  0
LINE
  5
219
  8
0
 62
     7
 10
153.5379999999999
 20
235.39699999999999
 30
0.0
 11
152.703
 21
235.39699999999999
 31
0.0
  0
LINE
  5
21A
  8
0
 62
     7
 10
152.703
 20
252.88200000000001
 30
0.0
 11
152.30199999999999
 21
252.88200000000001
 31
0.0
  0
LINE
  5
21B
  8
0
 62
     7
 10
152.703
 20
227.24799999999991
 30
0.0
 11
152.30199999999999
 21
227.24799999999991
 31
0.0
  0
LINE
  5
21C
  8
0
 62
     7
 10
153.2359999999999
 20
238.108
 30
0.0
 11
153.2359999999999
 21
242.0209999999999
 31
0.0
  0
LINE
  5
21D
  8
0
 62
     7
 10
153.041
 20
237.637
 30
0.0
 11
152.43100000000001
 21
237.02699999999999
 31
0.0
  0
ARC
  5
21E
  8
0
 62
     7
 10
152.83480599999999
 20
236.60256799999999
 30
0.0
 40
0.585514
 50
133.5653749999999
 51
155.400621
  0
ARC
  5
21F
  8
0
 62
     7
 10
152.72811799999991
 20
237.9846169999999
 30
0.0
 40
0.468023
 50
311.96364699999998
 51
329.32421299999999
  0
ARC
  5
220
  8
0
 62
     7
 10
152.53768700000001
 20
238.11484999999999
 30
0.0
 40
0.698407
 50
328.105413
 51
359.42992900000002
  0
ARC
  5
221
  8
0
 62
     7
 10
152.77636699999991
 20
242.04531
 30
0.0
 40
0.460361
 50
356.91339499999998
 51
13.537558000000001
  0
ARC
  5
222
  8
0
 62
     7
 10
152.541899
 20
242.00360299999991
 30
0.0
 40
0.698224
 50
12.360993000000001
 51
44.364234000000003
  0
ARC
  5
223
  8
0
 62
     7
 10
152.84536900000001
 20
243.53257199999999
 30
0.0
 40
0.597917
 50
204.76323099999999
 51
226.167497
  0
LINE
  5
224
  8
0
 62
     7
 10
153.041
 20
242.49199999999999
 30
0.0
 11
152.43100000000001
 21
243.101
 31
0.0
  0
LINE
  5
225
  8
0
 62
     7
 10
153.505
 20
104.05500000000001
 30
0.0
 11
151.46999999999991
 21
104.05500000000001
 31
0.0
  0
LINE
  5
226
  8
0
 62
     7
 10
153.505
 20
110.72199999999999
 30
0.0
 11
151.614
 21
110.72199999999999
 31
0.0
  0
LINE
  5
227
  8
0
 62
     7
 10
153.5379999999999
 20
153.376
 30
0.0
 11
153.5379999999999
 21
150.08699999999999
 31
0.0
  0
LINE
  5
228
  8
0
 62
     7
 10
153.5379999999999
 20
153.376
 30
0.0
 11
153.5379999999999
 21
156.75399999999991
 31
0.0
  0
LINE
  5
229
  8
0
 62
     7
 10
153.5379999999999
 20
150.08699999999999
 30
0.0
 11
152.465
 21
150.08699999999999
 31
0.0
  0
LINE
  5
22A
  8
0
 62
     7
 10
153.5379999999999
 20
156.75399999999991
 30
0.0
 11
152.60900000000001
 21
156.75399999999991
 31
0.0
  0
ARC
  5
22B
  8
0
 62
     7
 10
70.763377000000006
 20
161.3561949999999
 30
0.0
 40
1.9050739999999999
 50
92.113563999999997
 51
177.86487099999991
  0
ARC
  5
22C
  8
0
 62
     7
 10
70.763419999999996
 20
161.49747400000001
 30
0.0
 40
1.9050919999999989
 50
182.11486999999991
 51
267.88515999999993
  0
ARC
  5
22D
  8
0
 62
     7
 10
70.622809000000004
 20
161.49747899999991
 30
0.0
 40
1.9050979999999991
 50
272.11502200000001
 51
357.88498799999991
  0
ARC
  5
22E
  8
0
 62
     7
 10
70.623491000000001
 20
161.356829
 30
0.0
 40
1.9044169999999989
 50
2.116766999999999
 51
87.904758999999999
  0
ARC
  5
22F
  8
0
 62
     7
 10
70.813038000000006
 20
161.31135800000001
 30
0.0
 40
3.117945999999999
 50
92.115511999999995
 51
177.87129999999991
  0
ARC
  5
230
  8
0
 62
     7
 10
70.697940000000003
 20
161.4271699999999
 30
0.0
 40
3.0006970000000002
 50
179.99996999999991
 51
270.00002000000001
  0
ARC
  5
231
  8
0
 62
     7
 10
70.582761000000005
 20
161.54163399999999
 30
0.0
 40
3.1172889999999991
 50
272.11748399999988
 51
357.8956839999999
  0
ARC
  5
232
  8
0
 62
     7
 10
70.582814999999997
 20
161.3120449999999
 30
0.0
 40
3.117259999999999
 50
2.1165050000000001
 51
87.883484999999993
  0
LINE
  5
233
  8
0
 62
     7
 10
153.5379999999999
 20
246.10400000000001
 30
0.0
 11
153.5379999999999
 21
250.02500000000001
 31
0.0
  0
LINE
  5
234
  8
0
 62
     7
 10
153.898
 20
247.66499999999991
 30
0.0
 11
156.911
 21
247.66499999999991
 31
0.0
  0
LINE
  5
235
  8
0
 62
     7
 10
153.898
 20
248.465
 30
0.0
 11
156.911
 21
248.465
 31
0.0
  0
LINE
  5
236
  8
0
 62
     7
 10
153.69799999999989
 20
246.06399999999999
 30
0.0
 11
153.69799999999989
 21
248.06399999999999
 31
0.0
  0
LINE
  5
237
  8
0
 62
     7
 10
153.69799999999989
 20
246.06399999999999
 30
0.0
 11
153.578
 21
246.06399999999999
 31
0.0
  0
LINE
  5
238
  8
0
 62
     7
 10
153.73799999999989
 20
246.10400000000001
 30
0.0
 11
153.69799999999989
 21
246.06399999999999
 31
0.0
  0
LINE
  5
239
  8
0
 62
     7
 10
153.578
 20
246.06399999999999
 30
0.0
 11
153.5379999999999
 21
246.10400000000001
 31
0.0
  0
LINE
  5
23A
  8
0
 62
     7
 10
153.578
 20
248.06399999999999
 30
0.0
 11
153.578
 21
246.06399999999999
 31
0.0
  0
LINE
  5
23B
  8
0
 62
     7
 10
153.73799999999989
 20
246.10400000000001
 30
0.0
 11
153.73799999999989
 21
248.06399999999999
 31
0.0
  0
LINE
  5
23C
  8
0
 62
     7
 10
153.73799999999989
 20
250.02500000000001
 30
0.0
 11
153.73799999999989
 21
248.06399999999999
 31
0.0
  0
LINE
  5
23D
  8
0
 62
     7
 10
153.578
 20
248.06399999999999
 30
0.0
 11
153.578
 21
250.06499999999991
 31
0.0
  0
LINE
  5
23E
  8
0
 62
     7
 10
153.578
 20
250.06499999999991
 30
0.0
 11
153.5379999999999
 21
250.02500000000001
 31
0.0
  0
LINE
  5
23F
  8
0
 62
     7
 10
153.73799999999989
 20
250.02500000000001
 30
0.0
 11
153.69799999999989
 21
250.06499999999991
 31
0.0
  0
LINE
  5
240
  8
0
 62
     7
 10
153.69799999999989
 20
250.06499999999991
 30
0.0
 11
153.578
 21
250.06499999999991
 31
0.0
  0
LINE
  5
241
  8
0
 62
     7
 10
153.69799999999989
 20
250.06499999999991
 30
0.0
 11
153.69799999999989
 21
248.06399999999999
 31
0.0
  0
LINE
  5
242
  8
0
 62
     7
 10
157.071
 20
248.64199999999991
 30
0.0
 11
157.018
 21
248.73500000000001
 31
0.0
  0
ARC
  5
243
  8
0
 62
     7
 10
156.91909699999999
 20
248.62080299999991
 30
0.0
 40
0.15642
 50
266.89396699999992
 51
346.45137900000009
  0
ARC
  5
244
  8
0
 62
     7
 10
156.67040199999991
 20
248.08754500000001
 30
0.0
 40
0.401437
 50
356.67914500000001
 51
14.77315499999999
  0
ARC
  5
245
  8
0
 62
     7
 10
156.47621499999991
 20
248.05346499999999
 30
0.0
 40
0.598124
 50
13.186301999999991
 51
43.424309000000001
  0
LINE
  5
246
  8
0
 62
     7
 10
157.071
 20
248.64199999999991
 30
0.0
 11
157.071
 21
248.06399999999999
 31
0.0
  0
LINE
  5
247
  8
0
 62
     7
 10
157.071
 20
247.48699999999999
 30
0.0
 11
157.071
 21
248.06399999999999
 31
0.0
  0
ARC
  5
248
  8
0
 62
     7
 10
156.63065800000001
 20
247.9639049999999
 30
0.0
 40
0.409791
 50
313.09313399999991
 51
331.31944900000002
  0
ARC
  5
249
  8
0
 62
     7
 10
156.47698899999989
 20
248.06672399999999
 30
0.0
 40
0.5941800000000002
 50
329.73253899999997
 51
359.76531
  0
ARC
  5
24A
  8
0
 62
     7
 10
156.919873
 20
247.50961099999989
 30
0.0
 40
0.155322
 50
13.081886999999989
 51
93.414740000000009
  0
LINE
  5
24B
  8
0
 62
     7
 10
157.071
 20
247.48699999999999
 30
0.0
 11
157.018
 21
247.39500000000001
 31
0.0
  0
LINE
  5
24C
  8
0
 62
     7
 10
153.80500000000001
 20
248.73500000000001
 30
0.0
 11
157.018
 21
248.73500000000001
 31
0.0
  0
ARC
  5
24D
  8
0
 62
     7
 10
153.8071939999999
 20
247.3250339999999
 30
0.0
 40
0.069577
 50
92.215743000000018
 51
177.78422699999999
  0
LINE
  5
24E
  8
0
 62
     7
 10
153.73799999999989
 20
247.48699999999999
 30
0.0
 11
153.791
 21
247.39500000000001
 31
0.0
  0
LINE
  5
24F
  8
0
 62
     7
 10
153.80500000000001
 20
247.39500000000001
 30
0.0
 11
157.018
 21
247.39500000000001
 31
0.0
  0
ARC
  5
250
  8
0
 62
     7
 10
153.88908000000001
 20
247.50944899999999
 30
0.0
 40
0.155476
 50
86.633154000000005
 51
166.87018
  0
LINE
  5
251
  8
0
 62
     7
 10
153.73799999999989
 20
247.48699999999999
 30
0.0
 11
153.73799999999989
 21
248.06399999999999
 31
0.0
  0
ARC
  5
252
  8
0
 62
     7
 10
154.1413
 20
248.04287599999989
 30
0.0
 40
0.404198
 50
176.96296499999991
 51
194.908051
  0
ARC
  5
253
  8
0
 62
     7
 10
154.3365629999999
 20
248.07722599999991
 30
0.0
 40
0.6019680000000001
 50
193.28582599999999
 51
223.264466
  0
ARC
  5
254
  8
0
 62
     7
 10
154.176635
 20
248.16892300000001
 30
0.0
 40
0.4061440000000001
 50
133.2772919999999
 51
151.15276299999991
  0
ARC
  5
255
  8
0
 62
     7
 10
154.3414129999999
 20
248.05895000000001
 30
0.0
 40
0.6037680000000001
 50
149.5559669999999
 51
179.49317099999999
  0
LINE
  5
256
  8
0
 62
     7
 10
153.73799999999989
 20
248.64199999999991
 30
0.0
 11
153.73799999999989
 21
248.06399999999999
 31
0.0
  0
ARC
  5
257
  8
0
 62
     7
 10
153.88968600000001
 20
248.62073599999991
 30
0.0
 40
0.156356
 50
193.529
 51
273.12569400000001
  0
LINE
  5
258
  8
0
 62
     7
 10
153.73799999999989
 20
248.64199999999991
 30
0.0
 11
153.791
 21
248.73500000000001
 31
0.0
  0
ARC
  5
259
  8
0
 62
     7
 10
153.806737
 20
248.80379099999999
 30
0.0
 40
0.069116
 50
182.14707200000001
 51
268.14905899999991
  0
LINE
  5
25A
  8
0
 62
     7
 10
157.68000000000001
 20
248.83999999999989
 30
0.0
 11
157.126
 21
248.83999999999989
 31
0.0
  0
LINE
  5
25B
  8
0
 62
     7
 10
157.68000000000001
 20
247.74299999999999
 30
0.0
 11
157.126
 21
247.74299999999999
 31
0.0
  0
LINE
  5
25C
  8
0
 62
     7
 10
157.68000000000001
 20
247.37700000000001
 30
0.0
 11
157.126
 21
247.37700000000001
 31
0.0
  0
LINE
  5
25D
  8
0
 62
     7
 10
157.68000000000001
 20
248.47399999999999
 30
0.0
 11
157.126
 21
248.47399999999999
 31
0.0
  0
LINE
  5
25E
  8
0
 62
     7
 10
157.68000000000001
 20
248.83999999999989
 30
0.0
 11
157.73699999999991
 21
248.74199999999999
 31
0.0
  0
LINE
  5
25F
  8
0
 62
     7
 10
157.68000000000001
 20
247.37700000000001
 30
0.0
 11
157.73699999999991
 21
247.47499999999991
 31
0.0
  0
ARC
  5
260
  8
0
 62
     7
 10
157.42788599999989
 20
247.56072399999999
 30
0.0
 40
0.310677
 50
333.14871699999992
 51
35.892066
  0
ARC
  5
261
  8
0
 62
     7
 10
156.984802
 20
248.006945
 30
0.0
 40
0.743267
 50
339.18806599999988
 51
352.26207599999992
  0
ARC
  5
262
  8
0
 62
     7
 10
156.46575399999989
 20
248.09975899999989
 30
0.0
 40
1.2702770000000001
 50
351.26595900000001
 51
17.146598000000001
  0
LINE
  5
263
  8
0
 62
     7
 10
157.73699999999991
 20
248.74199999999999
 30
0.0
 11
157.73699999999991
 21
247.47499999999991
 31
0.0
  0
ARC
  5
264
  8
0
 62
     7
 10
157.428594
 20
248.656341
 30
0.0
 40
0.310071
 50
324.03959400000002
 51
26.919623000000001
  0
LINE
  5
265
  8
0
 62
     7
 10
157.126
 20
248.83999999999989
 30
0.0
 11
157.06999999999991
 21
248.74199999999999
 31
0.0
  0
LINE
  5
266
  8
0
 62
     7
 10
157.126
 20
247.37700000000001
 30
0.0
 11
157.06999999999991
 21
247.47499999999991
 31
0.0
  0
ARC
  5
267
  8
0
 62
     7
 10
157.82265799999999
 20
248.21134599999991
 30
0.0
 40
0.74435
 50
159.316092
 51
172.34927899999991
  0
ARC
  5
268
  8
0
 62
     7
 10
158.352271
 20
248.11747999999989
 30
0.0
 40
1.2819430000000001
 50
171.34264599999989
 51
196.99137899999991
  0
ARC
  5
269
  8
0
 62
     7
 10
157.37903799999989
 20
247.56123299999999
 30
0.0
 40
0.311243
 50
144.29887400000001
 51
206.903716
  0
LINE
  5
26A
  8
0
 62
     7
 10
157.06999999999991
 20
248.74199999999999
 30
0.0
 11
157.06999999999991
 21
247.47499999999991
 31
0.0
  0
ARC
  5
26B
  8
0
 62
     7
 10
157.376654
 20
248.65570399999999
 30
0.0
 40
0.309202
 50
152.86604800000001
 51
215.9313609999999
  0
LINE
  5
26C
  8
0
 62
     7
 10
153.5379999999999
 20
230.1039999999999
 30
0.0
 11
153.5379999999999
 21
234.024
 31
0.0
  0
LINE
  5
26D
  8
0
 62
     7
 10
153.898
 20
231.66399999999999
 30
0.0
 11
156.911
 21
231.66399999999999
 31
0.0
  0
LINE
  5
26E
  8
0
 62
     7
 10
153.898
 20
232.464
 30
0.0
 11
156.911
 21
232.464
 31
0.0
  0
LINE
  5
26F
  8
0
 62
     7
 10
153.69799999999989
 20
230.06399999999999
 30
0.0
 11
153.69799999999989
 21
232.06399999999999
 31
0.0
  0
LINE
  5
270
  8
0
 62
     7
 10
153.69799999999989
 20
230.06399999999999
 30
0.0
 11
153.578
 21
230.06399999999999
 31
0.0
  0
LINE
  5
271
  8
0
 62
     7
 10
153.73799999999989
 20
230.1039999999999
 30
0.0
 11
153.69799999999989
 21
230.06399999999999
 31
0.0
  0
LINE
  5
272
  8
0
 62
     7
 10
153.578
 20
230.06399999999999
 30
0.0
 11
153.5379999999999
 21
230.1039999999999
 31
0.0
  0
LINE
  5
273
  8
0
 62
     7
 10
153.578
 20
232.06399999999999
 30
0.0
 11
153.578
 21
230.06399999999999
 31
0.0
  0
LINE
  5
274
  8
0
 62
     7
 10
153.73799999999989
 20
230.1039999999999
 30
0.0
 11
153.73799999999989
 21
232.06399999999999
 31
0.0
  0
LINE
  5
275
  8
0
 62
     7
 10
153.73799999999989
 20
234.024
 30
0.0
 11
153.73799999999989
 21
232.06399999999999
 31
0.0
  0
LINE
  5
276
  8
0
 62
     7
 10
153.578
 20
232.06399999999999
 30
0.0
 11
153.578
 21
234.06399999999999
 31
0.0
  0
LINE
  5
277
  8
0
 62
     7
 10
153.578
 20
234.06399999999999
 30
0.0
 11
153.5379999999999
 21
234.024
 31
0.0
  0
LINE
  5
278
  8
0
 62
     7
 10
153.73799999999989
 20
234.024
 30
0.0
 11
153.69799999999989
 21
234.06399999999999
 31
0.0
  0
LINE
  5
279
  8
0
 62
     7
 10
153.69799999999989
 20
234.06399999999999
 30
0.0
 11
153.578
 21
234.06399999999999
 31
0.0
  0
LINE
  5
27A
  8
0
 62
     7
 10
153.69799999999989
 20
234.06399999999999
 30
0.0
 11
153.69799999999989
 21
232.06399999999999
 31
0.0
  0
LINE
  5
27B
  8
0
 62
     7
 10
157.071
 20
232.64099999999999
 30
0.0
 11
157.018
 21
232.7339999999999
 31
0.0
  0
ARC
  5
27C
  8
0
 62
     7
 10
156.918598
 20
232.62062700000001
 30
0.0
 40
0.157064
 50
267.08914800000002
 51
346.25619699999999
  0
ARC
  5
27D
  8
0
 62
     7
 10
156.67085800000001
 20
232.08703499999999
 30
0.0
 40
0.400981
 50
356.67634900000002
 51
14.781803999999999
  0
ARC
  5
27E
  8
0
 62
     7
 10
156.47688999999991
 20
232.052843
 30
0.0
 40
0.597479
 50
13.206215
 51
43.453181000000001
  0
LINE
  5
27F
  8
0
 62
     7
 10
157.071
 20
232.64099999999999
 30
0.0
 11
157.071
 21
232.06399999999999
 31
0.0
  0
LINE
  5
280
  8
0
 62
     7
 10
157.071
 20
231.4859999999999
 30
0.0
 11
157.071
 21
232.06399999999999
 31
0.0
  0
ARC
  5
281
  8
0
 62
     7
 10
156.627588
 20
231.965352
 30
0.0
 40
0.4135640000000001
 50
313.18656099999993
 51
331.7692009999999
  0
ARC
  5
282
  8
0
 62
     7
 10
156.477611
 20
232.0659629999999
 30
0.0
 40
0.593558
 50
330.06034499999998
 51
359.79004500000002
  0
ARC
  5
283
  8
0
 62
     7
 10
156.92027200000001
 20
231.509197
 30
0.0
 40
0.154913
 50
13.083174
 51
93.571479999999994
  0
LINE
  5
284
  8
0
 62
     7
 10
157.071
 20
231.4859999999999
 30
0.0
 11
157.018
 21
231.39400000000001
 31
0.0
  0
LINE
  5
285
  8
0
 62
     7
 10
153.80500000000001
 20
232.7339999999999
 30
0.0
 11
157.018
 21
232.7339999999999
 31
0.0
  0
ARC
  5
286
  8
0
 62
     7
 10
153.8071939999999
 20
231.32453199999989
 30
0.0
 40
0.069577
 50
92.215743000000018
 51
177.78422699999999
  0
LINE
  5
287
  8
0
 62
     7
 10
153.73799999999989
 20
231.4859999999999
 30
0.0
 11
153.791
 21
231.39400000000001
 31
0.0
  0
LINE
  5
288
  8
0
 62
     7
 10
153.80500000000001
 20
231.39400000000001
 30
0.0
 11
157.018
 21
231.39400000000001
 31
0.0
  0
ARC
  5
289
  8
0
 62
     7
 10
153.88855000000001
 20
231.50921199999999
 30
0.0
 40
0.1549
 50
86.424166
 51
166.92113999999989
  0
LINE
  5
28A
  8
0
 62
     7
 10
153.73799999999989
 20
231.4859999999999
 30
0.0
 11
153.73799999999989
 21
232.06399999999999
 31
0.0
  0
ARC
  5
28B
  8
0
 62
     7
 10
154.1413
 20
232.04237299999991
 30
0.0
 40
0.404198
 50
176.96296499999991
 51
194.908051
  0
ARC
  5
28C
  8
0
 62
     7
 10
154.33842999999999
 20
232.07720800000001
 30
0.0
 40
0.603896
 50
193.28990300000001
 51
223.20039
  0
ARC
  5
28D
  8
0
 62
     7
 10
154.17714599999991
 20
232.16755199999989
 30
0.0
 40
0.406875
 50
133.2791399999999
 51
151.11496199999999
  0
ARC
  5
28E
  8
0
 62
     7
 10
154.340114
 20
232.05852200000001
 30
0.0
 40
0.602468
 50
149.5224649999999
 51
179.49920800000001
  0
LINE
  5
28F
  8
0
 62
     7
 10
153.73799999999989
 20
232.64099999999999
 30
0.0
 11
153.73799999999989
 21
232.06399999999999
 31
0.0
  0
ARC
  5
290
  8
0
 62
     7
 10
153.889903
 20
232.620181
 30
0.0
 40
0.156636
 50
193.6143019999999
 51
273.040392
  0
LINE
  5
291
  8
0
 62
     7
 10
153.73799999999989
 20
232.64099999999999
 30
0.0
 11
153.791
 21
232.7339999999999
 31
0.0
  0
ARC
  5
292
  8
0
 62
     7
 10
153.8068759999999
 20
232.8030839999999
 30
0.0
 40
0.069261
 50
182.25860199999991
 51
268.03753
  0
LINE
  5
293
  8
0
 62
     7
 10
157.68000000000001
 20
232.84
 30
0.0
 11
157.126
 21
232.84
 31
0.0
  0
LINE
  5
294
  8
0
 62
     7
 10
157.68000000000001
 20
231.74199999999999
 30
0.0
 11
157.126
 21
231.74199999999999
 31
0.0
  0
LINE
  5
295
  8
0
 62
     7
 10
157.68000000000001
 20
231.37599999999989
 30
0.0
 11
157.126
 21
231.37599999999989
 31
0.0
  0
LINE
  5
296
  8
0
 62
     7
 10
157.68000000000001
 20
232.47399999999999
 30
0.0
 11
157.126
 21
232.47399999999999
 31
0.0
  0
LINE
  5
297
  8
0
 62
     7
 10
157.68000000000001
 20
232.84
 30
0.0
 11
157.73699999999991
 21
232.7409999999999
 31
0.0
  0
LINE
  5
298
  8
0
 62
     7
 10
157.68000000000001
 20
231.37599999999989
 30
0.0
 11
157.73699999999991
 21
231.47499999999999
 31
0.0
  0
ARC
  5
299
  8
0
 62
     7
 10
157.42788599999989
 20
231.5602209999999
 30
0.0
 40
0.310677
 50
333.14871699999992
 51
35.892066
  0
ARC
  5
29A
  8
0
 62
     7
 10
156.98457199999999
 20
232.00652700000001
 30
0.0
 40
0.743512
 50
339.18824499999999
 51
352.25470599999989
  0
ARC
  5
29B
  8
0
 62
     7
 10
156.46578400000001
 20
232.09924399999991
 30
0.0
 40
1.2702530000000001
 50
351.26439199999987
 51
17.147528999999999
  0
LINE
  5
29C
  8
0
 62
     7
 10
157.73699999999991
 20
232.7409999999999
 30
0.0
 11
157.73699999999991
 21
231.47499999999999
 31
0.0
  0
ARC
  5
29D
  8
0
 62
     7
 10
157.428594
 20
232.6558379999999
 30
0.0
 40
0.310071
 50
324.03959400000002
 51
26.919623000000001
  0
LINE
  5
29E
  8
0
 62
     7
 10
157.126
 20
232.84
 30
0.0
 11
157.06999999999991
 21
232.7409999999999
 31
0.0
  0
LINE
  5
29F
  8
0
 62
     7
 10
157.126
 20
231.37599999999989
 30
0.0
 11
157.06999999999991
 21
231.47499999999999
 31
0.0
  0
ARC
  5
2A0
  8
0
 62
     7
 10
157.8252019999999
 20
232.21029300000001
 30
0.0
 40
0.746924
 50
159.345507
 51
172.34486299999989
  0
ARC
  5
2A1
  8
0
 62
     7
 10
158.35170400000001
 20
232.11688499999991
 30
0.0
 40
1.281372999999999
 50
171.341398
 51
196.994834
  0
ARC
  5
2A2
  8
0
 62
     7
 10
157.37903799999989
 20
231.560731
 30
0.0
 40
0.311243
 50
144.29887400000001
 51
206.903716
  0
LINE
  5
2A3
  8
0
 62
     7
 10
157.06999999999991
 20
232.7409999999999
 30
0.0
 11
157.06999999999991
 21
231.47499999999999
 31
0.0
  0
ARC
  5
2A4
  8
0
 62
     7
 10
157.376654
 20
232.65520099999989
 30
0.0
 40
0.309202
 50
152.86604800000001
 51
215.9313609999999
  0
LINE
  5
2A5
  8
0
 62
     7
 10
153.5379999999999
 20
151.4189999999999
 30
0.0
 11
153.5379999999999
 21
155.34
 31
0.0
  0
LINE
  5
2A6
  8
0
 62
     7
 10
153.898
 20
152.97900000000001
 30
0.0
 11
156.911
 21
152.97900000000001
 31
0.0
  0
LINE
  5
2A7
  8
0
 62
     7
 10
153.898
 20
153.779
 30
0.0
 11
156.911
 21
153.779
 31
0.0
  0
LINE
  5
2A8
  8
0
 62
     7
 10
153.69799999999989
 20
151.37899999999999
 30
0.0
 11
153.69799999999989
 21
153.37899999999991
 31
0.0
  0
LINE
  5
2A9
  8
0
 62
     7
 10
153.69799999999989
 20
151.37899999999999
 30
0.0
 11
153.578
 21
151.37899999999999
 31
0.0
  0
LINE
  5
2AA
  8
0
 62
     7
 10
153.73799999999989
 20
151.4189999999999
 30
0.0
 11
153.69799999999989
 21
151.37899999999999
 31
0.0
  0
LINE
  5
2AB
  8
0
 62
     7
 10
153.578
 20
151.37899999999999
 30
0.0
 11
153.5379999999999
 21
151.4189999999999
 31
0.0
  0
LINE
  5
2AC
  8
0
 62
     7
 10
153.578
 20
153.37899999999991
 30
0.0
 11
153.578
 21
151.37899999999999
 31
0.0
  0
LINE
  5
2AD
  8
0
 62
     7
 10
153.73799999999989
 20
151.4189999999999
 30
0.0
 11
153.73799999999989
 21
153.37899999999991
 31
0.0
  0
LINE
  5
2AE
  8
0
 62
     7
 10
153.73799999999989
 20
155.34
 30
0.0
 11
153.73799999999989
 21
153.37899999999991
 31
0.0
  0
LINE
  5
2AF
  8
0
 62
     7
 10
153.578
 20
153.37899999999991
 30
0.0
 11
153.578
 21
155.38
 31
0.0
  0
LINE
  5
2B0
  8
0
 62
     7
 10
153.578
 20
155.38
 30
0.0
 11
153.5379999999999
 21
155.34
 31
0.0
  0
LINE
  5
2B1
  8
0
 62
     7
 10
153.73799999999989
 20
155.34
 30
0.0
 11
153.69799999999989
 21
155.38
 31
0.0
  0
LINE
  5
2B2
  8
0
 62
     7
 10
153.69799999999989
 20
155.38
 30
0.0
 11
153.578
 21
155.38
 31
0.0
  0
LINE
  5
2B3
  8
0
 62
     7
 10
153.69799999999989
 20
155.38
 30
0.0
 11
153.69799999999989
 21
153.37899999999991
 31
0.0
  0
LINE
  5
2B4
  8
0
 62
     7
 10
157.071
 20
153.95699999999991
 30
0.0
 11
157.018
 21
154.04900000000001
 31
0.0
  0
ARC
  5
2B5
  8
0
 62
     7
 10
156.91875899999999
 20
153.93554800000001
 30
0.0
 40
0.156749
 50
267.02424999999999
 51
346.47912400000001
  0
ARC
  5
2B6
  8
0
 62
     7
 10
156.671919
 20
153.40259900000001
 30
0.0
 40
0.39992
 50
356.67111999999997
 51
14.801691
  0
ARC
  5
2B7
  8
0
 62
     7
 10
156.478002
 20
153.36859599999991
 30
0.0
 40
0.596322
 50
13.200149
 51
43.491185999999992
  0
LINE
  5
2B8
  8
0
 62
     7
 10
157.071
 20
153.95699999999991
 30
0.0
 11
157.071
 21
153.37899999999991
 31
0.0
  0
LINE
  5
2B9
  8
0
 62
     7
 10
157.071
 20
152.80199999999999
 30
0.0
 11
157.071
 21
153.37899999999991
 31
0.0
  0
ARC
  5
2BA
  8
0
 62
     7
 10
156.62409600000001
 20
153.28311599999989
 30
0.0
 40
0.417793
 50
313.29916200000002
 51
331.70159000000001
  0
ARC
  5
2BB
  8
0
 62
     7
 10
156.47811899999991
 20
153.38115500000001
 30
0.0
 40
0.593048
 50
330.04743699999989
 51
359.828217
  0
ARC
  5
2BC
  8
0
 62
     7
 10
156.92048799999989
 20
152.82463100000001
 30
0.0
 40
0.154738
 50
13.157239000000001
 51
93.655768999999978
  0
LINE
  5
2BD
  8
0
 62
     7
 10
157.071
 20
152.80199999999999
 30
0.0
 11
157.018
 21
152.709
 31
0.0
  0
LINE
  5
2BE
  8
0
 62
     7
 10
153.80500000000001
 20
154.04900000000001
 30
0.0
 11
157.018
 21
154.04900000000001
 31
0.0
  0
ARC
  5
2BF
  8
0
 62
     7
 10
153.807017
 20
152.639579
 30
0.0
 40
0.069423
 50
92.073938000000012
 51
177.33229900000001
  0
LINE
  5
2C0
  8
0
 62
     7
 10
153.73799999999989
 20
152.80199999999999
 30
0.0
 11
153.791
 21
152.709
 31
0.0
  0
LINE
  5
2C1
  8
0
 62
     7
 10
153.80500000000001
 20
152.709
 30
0.0
 11
157.018
 21
152.709
 31
0.0
  0
ARC
  5
2C2
  8
0
 62
     7
 10
153.8879419999999
 20
152.82517399999989
 30
0.0
 40
0.154222
 50
86.181792999999985
 51
167.00515899999999
  0
LINE
  5
2C3
  8
0
 62
     7
 10
153.73799999999989
 20
152.80199999999999
 30
0.0
 11
153.73799999999989
 21
153.37899999999991
 31
0.0
  0
ARC
  5
2C4
  8
0
 62
     7
 10
154.14335800000001
 20
153.3579169999999
 30
0.0
 40
0.406257
 50
176.971991
 51
194.869753
  0
ARC
  5
2C5
  8
0
 62
     7
 10
154.33877599999991
 20
153.3926219999999
 30
0.0
 40
0.6042640000000001
 50
193.29502500000001
 51
223.189649
  0
ARC
  5
2C6
  8
0
 62
     7
 10
154.17507399999991
 20
153.4840659999999
 30
0.0
 40
0.404531
 50
133.188795
 51
151.1092919999999
  0
ARC
  5
2C7
  8
0
 62
     7
 10
154.34012199999989
 20
153.37393399999999
 30
0.0
 40
0.602478
 50
149.5224199999999
 51
179.48232799999991
  0
LINE
  5
2C8
  8
0
 62
     7
 10
153.73799999999989
 20
153.95699999999991
 30
0.0
 11
153.73799999999989
 21
153.37899999999991
 31
0.0
  0
ARC
  5
2C9
  8
0
 62
     7
 10
153.88992899999991
 20
153.93535499999999
 30
0.0
 40
0.156564
 50
193.46441899999999
 51
273.03224699999998
  0
LINE
  5
2CA
  8
0
 62
     7
 10
153.73799999999989
 20
153.95699999999991
 30
0.0
 11
153.791
 21
154.04900000000001
 31
0.0
  0
ARC
  5
2CB
  8
0
 62
     7
 10
153.8072379999999
 20
154.11867599999991
 30
0.0
 40
0.069622
 50
182.25003100000001
 51
267.749999
  0
LINE
  5
2CC
  8
0
 62
     7
 10
157.68000000000001
 20
154.15499999999989
 30
0.0
 11
157.126
 21
154.15499999999989
 31
0.0
  0
LINE
  5
2CD
  8
0
 62
     7
 10
157.68000000000001
 20
153.05799999999999
 30
0.0
 11
157.126
 21
153.05799999999999
 31
0.0
  0
LINE
  5
2CE
  8
0
 62
     7
 10
157.68000000000001
 20
152.69200000000001
 30
0.0
 11
157.126
 21
152.69200000000001
 31
0.0
  0
LINE
  5
2CF
  8
0
 62
     7
 10
157.68000000000001
 20
153.7889999999999
 30
0.0
 11
157.126
 21
153.7889999999999
 31
0.0
  0
LINE
  5
2D0
  8
0
 62
     7
 10
157.68000000000001
 20
154.15499999999989
 30
0.0
 11
157.73699999999991
 21
154.05699999999999
 31
0.0
  0
LINE
  5
2D1
  8
0
 62
     7
 10
157.68000000000001
 20
152.69200000000001
 30
0.0
 11
157.73699999999991
 21
152.78999999999991
 31
0.0
  0
ARC
  5
2D2
  8
0
 62
     7
 10
157.42788599999989
 20
152.87546499999991
 30
0.0
 40
0.310677
 50
333.14871699999992
 51
35.892066
  0
ARC
  5
2D3
  8
0
 62
     7
 10
156.982035
 20
153.32232499999989
 30
0.0
 40
0.74608
 50
339.21776699999992
 51
352.25033999999999
  0
ARC
  5
2D4
  8
0
 62
     7
 10
156.46499700000001
 20
153.41470899999999
 30
0.0
 40
1.2710410000000001
 50
351.26665299999991
 51
17.142406999999999
  0
LINE
  5
2D5
  8
0
 62
     7
 10
157.73699999999991
 20
154.05699999999999
 30
0.0
 11
157.73699999999991
 21
152.78999999999991
 31
0.0
  0
ARC
  5
2D6
  8
0
 62
     7
 10
157.42878799999991
 20
153.97141199999999
 30
0.0
 40
0.309905
 50
324.02085299999987
 51
26.938363999999989
  0
LINE
  5
2D7
  8
0
 62
     7
 10
157.126
 20
154.15499999999989
 30
0.0
 11
157.06999999999991
 21
154.05699999999999
 31
0.0
  0
LINE
  5
2D8
  8
0
 62
     7
 10
157.126
 20
152.69200000000001
 30
0.0
 11
157.06999999999991
 21
152.78999999999991
 31
0.0
  0
ARC
  5
2D9
  8
0
 62
     7
 10
157.827752
 20
153.52533099999991
 30
0.0
 40
0.7495060000000001
 50
159.374842
 51
172.34048299999989
  0
ARC
  5
2DA
  8
0
 62
     7
 10
158.352497
 20
153.432253
 30
0.0
 40
1.2821679999999991
 50
171.34363999999991
 51
196.989755
  0
ARC
  5
2DB
  8
0
 62
     7
 10
157.37884299999999
 20
152.87599
 30
0.0
 40
0.311076
 50
144.28018599999999
 51
206.92240499999991
  0
LINE
  5
2DC
  8
0
 62
     7
 10
157.06999999999991
 20
154.05699999999999
 30
0.0
 11
157.06999999999991
 21
152.78999999999991
 31
0.0
  0
ARC
  5
2DD
  8
0
 62
     7
 10
157.376654
 20
153.97078999999991
 30
0.0
 40
0.309202
 50
152.86604800000001
 51
215.9313609999999
  0
LINE
  5
2DE
  8
0
 62
     7
 10
153.5379999999999
 20
105.462
 30
0.0
 11
153.5379999999999
 21
109.38200000000001
 31
0.0
  0
LINE
  5
2DF
  8
0
 62
     7
 10
153.898
 20
107.02200000000001
 30
0.0
 11
156.911
 21
107.02200000000001
 31
0.0
  0
LINE
  5
2E0
  8
0
 62
     7
 10
153.898
 20
107.82299999999999
 30
0.0
 11
156.911
 21
107.82299999999999
 31
0.0
  0
LINE
  5
2E1
  8
0
 62
     7
 10
153.69799999999989
 20
105.422
 30
0.0
 11
153.69799999999989
 21
107.422
 31
0.0
  0
LINE
  5
2E2
  8
0
 62
     7
 10
153.69799999999989
 20
105.422
 30
0.0
 11
153.578
 21
105.422
 31
0.0
  0
LINE
  5
2E3
  8
0
 62
     7
 10
153.73799999999989
 20
105.462
 30
0.0
 11
153.69799999999989
 21
105.422
 31
0.0
  0
LINE
  5
2E4
  8
0
 62
     7
 10
153.578
 20
105.422
 30
0.0
 11
153.5379999999999
 21
105.462
 31
0.0
  0
LINE
  5
2E5
  8
0
 62
     7
 10
153.578
 20
107.422
 30
0.0
 11
153.578
 21
105.422
 31
0.0
  0
LINE
  5
2E6
  8
0
 62
     7
 10
153.73799999999989
 20
105.462
 30
0.0
 11
153.73799999999989
 21
107.422
 31
0.0
  0
LINE
  5
2E7
  8
0
 62
     7
 10
153.73799999999989
 20
109.38200000000001
 30
0.0
 11
153.73799999999989
 21
107.422
 31
0.0
  0
LINE
  5
2E8
  8
0
 62
     7
 10
153.578
 20
107.422
 30
0.0
 11
153.578
 21
109.422
 31
0.0
  0
LINE
  5
2E9
  8
0
 62
     7
 10
153.578
 20
109.422
 30
0.0
 11
153.5379999999999
 21
109.38200000000001
 31
0.0
  0
LINE
  5
2EA
  8
0
 62
     7
 10
153.73799999999989
 20
109.38200000000001
 30
0.0
 11
153.69799999999989
 21
109.422
 31
0.0
  0
LINE
  5
2EB
  8
0
 62
     7
 10
153.69799999999989
 20
109.422
 30
0.0
 11
153.578
 21
109.422
 31
0.0
  0
LINE
  5
2EC
  8
0
 62
     7
 10
153.69799999999989
 20
109.422
 30
0.0
 11
153.69799999999989
 21
107.422
 31
0.0
  0
LINE
  5
2ED
  8
0
 62
     7
 10
157.071
 20
108.0
 30
0.0
 11
157.018
 21
108.092
 31
0.0
  0
ARC
  5
2EE
  8
0
 62
     7
 10
156.91945399999989
 20
107.9783399999999
 30
0.0
 40
0.156066
 50
266.75574599999987
 51
346.43124599999999
  0
ARC
  5
2EF
  8
0
 62
     7
 10
156.67179400000001
 20
107.445429
 30
0.0
 40
0.4000460000000001
 50
356.67146099999991
 51
14.799393999999999
  0
ARC
  5
2F0
  8
0
 62
     7
 10
156.47422299999999
 20
107.41040599999999
 30
0.0
 40
0.6002380000000001
 50
13.214109000000001
 51
43.360900000000001
  0
LINE
  5
2F1
  8
0
 62
     7
 10
157.071
 20
108.0
 30
0.0
 11
157.071
 21
107.422
 31
0.0
  0
LINE
  5
2F2
  8
0
 62
     7
 10
157.071
 20
106.845
 30
0.0
 11
157.071
 21
107.422
 31
0.0
  0
ARC
  5
2F3
  8
0
 62
     7
 10
156.62433899999991
 20
107.3254949999999
 30
0.0
 40
0.4173020000000001
 50
313.31702200000001
 51
331.75674099999998
  0
ARC
  5
2F4
  8
0
 62
     7
 10
156.4765899999999
 20
107.424532
 30
0.0
 40
0.594579
 50
330.08655699999991
 51
359.77541699999989
  0
ARC
  5
2F5
  8
0
 62
     7
 10
156.92048799999989
 20
106.867456
 30
0.0
 40
0.154738
 50
13.157239000000001
 51
93.655768999999978
  0
LINE
  5
2F6
  8
0
 62
     7
 10
157.071
 20
106.845
 30
0.0
 11
157.018
 21
106.752
 31
0.0
  0
LINE
  5
2F7
  8
0
 62
     7
 10
153.80500000000001
 20
108.092
 30
0.0
 11
157.018
 21
108.092
 31
0.0
  0
ARC
  5
2F8
  8
0
 62
     7
 10
153.8072379999999
 20
106.6829019999999
 30
0.0
 40
0.069622
 50
92.250000999999997
 51
177.74996899999991
  0
LINE
  5
2F9
  8
0
 62
     7
 10
153.73799999999989
 20
106.845
 30
0.0
 11
153.791
 21
106.752
 31
0.0
  0
LINE
  5
2FA
  8
0
 62
     7
 10
153.80500000000001
 20
106.752
 30
0.0
 11
157.018
 21
106.752
 31
0.0
  0
ARC
  5
2FB
  8
0
 62
     7
 10
153.8879419999999
 20
106.8679989999999
 30
0.0
 40
0.154222
 50
86.181792999999985
 51
167.00515899999999
  0
LINE
  5
2FC
  8
0
 62
     7
 10
153.73799999999989
 20
106.845
 30
0.0
 11
153.73799999999989
 21
107.422
 31
0.0
  0
ARC
  5
2FD
  8
0
 62
     7
 10
154.141333
 20
107.40078099999999
 30
0.0
 40
0.4042320000000001
 50
176.96245300000001
 51
194.90755100000001
  0
ARC
  5
2FE
  8
0
 62
     7
 10
154.34035299999991
 20
107.4361399999999
 30
0.0
 40
0.605889
 50
193.29683899999989
 51
223.1354419999999
  0
ARC
  5
2FF
  8
0
 62
     7
 10
154.18115299999991
 20
107.523374
 30
0.0
 40
0.4117600000000001
 50
133.40497500000001
 51
151.557976
  0
ARC
  5
300
  8
0
 62
     7
 10
154.34087099999999
 20
107.41678
 30
0.0
 40
0.6032270000000001
 50
149.88043200000001
 51
179.48502500000001
  0
LINE
  5
301
  8
0
 62
     7
 10
153.73799999999989
 20
108.0
 30
0.0
 11
153.73799999999989
 21
107.422
 31
0.0
  0
ARC
  5
302
  8
0
 62
     7
 10
153.8894699999999
 20
107.978463
 30
0.0
 40
0.156184
 50
193.60468099999991
 51
273.20836700000001
  0
LINE
  5
303
  8
0
 62
     7
 10
153.73799999999989
 20
108.0
 30
0.0
 11
153.791
 21
108.092
 31
0.0
  0
ARC
  5
304
  8
0
 62
     7
 10
153.8072379999999
 20
108.1615009999999
 30
0.0
 40
0.069622
 50
182.25003100000001
 51
267.749999
  0
LINE
  5
305
  8
0
 62
     7
 10
157.68000000000001
 20
108.19799999999989
 30
0.0
 11
157.126
 21
108.19799999999989
 31
0.0
  0
LINE
  5
306
  8
0
 62
     7
 10
157.68000000000001
 20
107.09999999999989
 30
0.0
 11
157.126
 21
107.09999999999989
 31
0.0
  0
LINE
  5
307
  8
0
 62
     7
 10
157.68000000000001
 20
106.735
 30
0.0
 11
157.126
 21
106.735
 31
0.0
  0
LINE
  5
308
  8
0
 62
     7
 10
157.68000000000001
 20
107.83199999999999
 30
0.0
 11
157.126
 21
107.83199999999999
 31
0.0
  0
LINE
  5
309
  8
0
 62
     7
 10
157.68000000000001
 20
108.19799999999989
 30
0.0
 11
157.73699999999991
 21
108.09999999999989
 31
0.0
  0
LINE
  5
30A
  8
0
 62
     7
 10
157.68000000000001
 20
106.735
 30
0.0
 11
157.73699999999991
 21
106.833
 31
0.0
  0
ARC
  5
30B
  8
0
 62
     7
 10
157.42788599999989
 20
106.9182899999999
 30
0.0
 40
0.310677
 50
333.14871699999992
 51
35.892066
  0
ARC
  5
30C
  8
0
 62
     7
 10
156.982495
 20
107.36498
 30
0.0
 40
0.74559
 50
339.21740899999992
 51
352.26505200000003
  0
ARC
  5
30D
  8
0
 62
     7
 10
156.46496999999991
 20
107.457561
 30
0.0
 40
1.2710589999999991
 50
351.26946400000003
 51
17.14086799999999
  0
LINE
  5
30E
  8
0
 62
     7
 10
157.73699999999991
 20
108.09999999999989
 30
0.0
 11
157.73699999999991
 21
106.833
 31
0.0
  0
ARC
  5
30F
  8
0
 62
     7
 10
157.42878799999991
 20
108.01423699999999
 30
0.0
 40
0.309905
 50
324.02085299999987
 51
26.938363999999989
  0
LINE
  5
310
  8
0
 62
     7
 10
157.126
 20
108.19799999999989
 30
0.0
 11
157.06999999999991
 21
108.09999999999989
 31
0.0
  0
LINE
  5
311
  8
0
 62
     7
 10
157.126
 20
106.735
 30
0.0
 11
157.06999999999991
 21
106.833
 31
0.0
  0
ARC
  5
312
  8
0
 62
     7
 10
157.82260099999991
 20
107.569278
 30
0.0
 40
0.7442890000000001
 50
159.31604799999999
 51
172.35111000000001
  0
ARC
  5
313
  8
0
 62
     7
 10
158.35359199999991
 20
107.475256
 30
0.0
 40
1.283266999999999
 50
171.346045
 51
196.98309999999989
  0
ARC
  5
314
  8
0
 62
     7
 10
157.37884299999999
 20
106.9188139999999
 30
0.0
 40
0.311076
 50
144.28018599999999
 51
206.92240499999991
  0
LINE
  5
315
  8
0
 62
     7
 10
157.06999999999991
 20
108.09999999999989
 30
0.0
 11
157.06999999999991
 21
106.833
 31
0.0
  0
ARC
  5
316
  8
0
 62
     7
 10
157.376654
 20
108.0136149999999
 30
0.0
 40
0.309202
 50
152.86604800000001
 51
215.9313609999999
  0
LINE
  5
317
  8
0
 62
     7
 10
153.5379999999999
 20
247.99799999999991
 30
0.0
 11
153.5379999999999
 21
251.3419999999999
 31
0.0
  0
LINE
  5
318
  8
0
 62
     7
 10
153.5379999999999
 20
251.3419999999999
 30
0.0
 11
153.482
 21
251.398
 31
0.0
  0
LINE
  5
319
  8
0
 62
     7
 10
153.482
 20
251.398
 30
0.0
 11
152.703
 21
251.398
 31
0.0
  0
LINE
  5
31A
  8
0
 62
     7
 10
152.703
 20
251.398
 30
0.0
 11
152.703
 21
244.73099999999991
 31
0.0
  0
LINE
  5
31B
  8
0
 62
     7
 10
152.703
 20
244.73099999999991
 30
0.0
 11
153.505
 21
244.73099999999991
 31
0.0
  0
LINE
  5
31C
  8
0
 62
     7
 10
153.505
 20
244.73099999999991
 30
0.0
 11
153.5379999999999
 21
244.7649999999999
 31
0.0
  0
LINE
  5
31D
  8
0
 62
     7
 10
153.5379999999999
 20
244.7649999999999
 30
0.0
 11
153.5379999999999
 21
247.99799999999991
 31
0.0
  0
LINE
  5
31E
  8
0
 62
     7
 10
153.5379999999999
 20
235.34099999999989
 30
0.0
 11
153.482
 21
235.39699999999999
 31
0.0
  0
LINE
  5
31F
  8
0
 62
     7
 10
153.482
 20
235.39699999999999
 30
0.0
 11
152.703
 21
235.39699999999999
 31
0.0
  0
LINE
  5
320
  8
0
 62
     7
 10
152.703
 20
235.39699999999999
 30
0.0
 11
152.703
 21
228.72999999999999
 31
0.0
  0
LINE
  5
321
  8
0
 62
     7
 10
152.703
 20
228.72999999999999
 30
0.0
 11
153.505
 21
228.72999999999999
 31
0.0
  0
LINE
  5
322
  8
0
 62
     7
 10
153.505
 20
228.72999999999999
 30
0.0
 11
153.5379999999999
 21
228.76400000000001
 31
0.0
  0
LINE
  5
323
  8
0
 62
     7
 10
153.5379999999999
 20
228.76400000000001
 30
0.0
 11
153.5379999999999
 21
231.99700000000001
 31
0.0
  0
LINE
  5
324
  8
0
 62
     7
 10
153.5379999999999
 20
231.99700000000001
 30
0.0
 11
153.5379999999999
 21
235.34099999999989
 31
0.0
  0
LINE
  5
325
  8
0
 62
     7
 10
153.5379999999999
 20
155.34
 30
0.0
 11
153.5379999999999
 21
156.75399999999991
 31
0.0
  0
LINE
  5
326
  8
0
 62
     7
 10
153.5379999999999
 20
156.75399999999991
 30
0.0
 11
152.61000000000001
 21
156.75399999999991
 31
0.0
  0
LINE
  5
327
  8
0
 62
     7
 10
152.61000000000001
 20
156.75399999999991
 30
0.0
 11
152.465
 21
150.08699999999999
 31
0.0
  0
LINE
  5
328
  8
0
 62
     7
 10
152.465
 20
150.08699999999999
 30
0.0
 11
153.5379999999999
 21
150.08699999999999
 31
0.0
  0
LINE
  5
329
  8
0
 62
     7
 10
153.5379999999999
 20
150.08699999999999
 30
0.0
 11
153.5379999999999
 21
153.376
 31
0.0
  0
LINE
  5
32A
  8
0
 62
     7
 10
153.5379999999999
 20
153.376
 30
0.0
 11
153.5379999999999
 21
155.34
 31
0.0
  0
LINE
  5
32B
  8
0
 62
     7
 10
153.5379999999999
 20
107.34399999999989
 30
0.0
 11
153.5379999999999
 21
110.68899999999989
 31
0.0
  0
LINE
  5
32C
  8
0
 62
     7
 10
153.5379999999999
 20
110.68899999999989
 30
0.0
 11
153.505
 21
110.72199999999999
 31
0.0
  0
LINE
  5
32D
  8
0
 62
     7
 10
153.505
 20
110.72199999999999
 30
0.0
 11
151.614
 21
110.72199999999999
 31
0.0
  0
LINE
  5
32E
  8
0
 62
     7
 10
151.614
 20
110.72199999999999
 30
0.0
 11
151.46999999999991
 21
104.05500000000001
 31
0.0
  0
LINE
  5
32F
  8
0
 62
     7
 10
151.46999999999991
 20
104.05500000000001
 30
0.0
 11
153.505
 21
104.05500000000001
 31
0.0
  0
LINE
  5
330
  8
0
 62
     7
 10
153.505
 20
104.05500000000001
 30
0.0
 11
153.5379999999999
 21
104.089
 31
0.0
  0
LINE
  5
331
  8
0
 62
     7
 10
153.5379999999999
 20
104.089
 30
0.0
 11
153.5379999999999
 21
107.34399999999989
 31
0.0
  0
LINE
  5
332
  8
0
 62
     7
 10
151.84100000000001
 20
158.203
 30
0.0
 11
151.96600000000001
 21
164.63399999999999
 31
0.0
  0
LINE
  5
333
  8
0
 62
     7
 10
152.727
 20
163.32299999999989
 30
0.0
 11
152.732
 21
163.60299999999989
 31
0.0
  0
LINE
  5
334
  8
0
 62
     7
 10
152.65700000000001
 20
159.541
 30
0.0
 11
152.65100000000001
 21
159.27099999999999
 31
0.0
  0
LINE
  5
335
  8
0
 62
     7
 10
152.95500000000001
 20
158.86500000000001
 30
0.0
 11
152.36299999999989
 21
158.27799999999991
 31
0.0
  0
ARC
  5
336
  8
0
 62
     7
 10
152.772572
 20
163.560835
 30
0.0
 40
0.4599390000000001
 50
355.73445800000002
 51
12.615148
  0
ARC
  5
337
  8
0
 62
     7
 10
152.54077599999999
 20
163.522999
 30
0.0
 40
0.694538
 50
11.48472299999999
 51
44.082611999999997
  0
ARC
  5
338
  8
0
 62
     7
 10
152.26753500000001
 20
163.35692299999991
 30
0.0
 40
0.460612
 50
355.735793
 51
12.606502000000001
  0
ARC
  5
339
  8
0
 62
     7
 10
152.03488899999991
 20
163.319165
 30
0.0
 40
0.6960290000000001
 50
11.459932
 51
44.029322000000001
  0
LINE
  5
33A
  8
0
 62
     7
 10
152.46899999999991
 20
164.5859999999999
 30
0.0
 11
153.03999999999999
 21
164.00599999999989
 31
0.0
  0
LINE
  5
33B
  8
0
 62
     7
 10
152.0379999999999
 20
158.66200000000001
 30
0.0
 11
152.65100000000001
 21
159.27099999999999
 31
0.0
  0
ARC
  5
33C
  8
0
 62
     7
 10
152.647931
 20
159.21169599999999
 30
0.0
 40
0.463319
 50
311.50043499999992
 51
328.73943300000002
  0
ARC
  5
33D
  8
0
 62
     7
 10
152.45888099999999
 20
159.344604
 30
0.0
 40
0.694066
 50
327.4590839999999
 51
358.43505199999998
  0
ARC
  5
33E
  8
0
 62
     7
 10
152.15183400000001
 20
159.426671
 30
0.0
 40
0.463319
 50
311.50043499999992
 51
328.73943300000002
  0
ARC
  5
33F
  8
0
 62
     7
 10
151.962784
 20
159.55957900000001
 30
0.0
 40
0.694066
 50
327.4590839999999
 51
358.43505199999998
  0
LINE
  5
340
  8
0
 62
     7
 10
152.15700000000001
 20
164.18700000000001
 30
0.0
 11
152.732
 21
163.60299999999989
 31
0.0
  0
LINE
  5
341
  8
0
 62
     7
 10
153.1579999999999
 20
159.59399999999991
 30
0.0
 11
152.65700000000001
 21
159.60299999999989
 31
0.0
  0
LINE
  5
342
  8
0
 62
     7
 10
153.22599999999991
 20
163.25999999999999
 30
0.0
 11
152.726
 21
163.2699999999999
 31
0.0
  0
ARC
  5
343
  8
0
 62
     7
 10
152.73246099999989
 20
165.0171629999999
 30
0.0
 40
0.4541479999999999
 50
179.761955
 51
196.73385300000001
  0
ARC
  5
344
  8
0
 62
     7
 10
152.962658
 20
165.06772599999991
 30
0.0
 40
0.689387
 50
195.2495009999999
 51
224.2889879999999
  0
ARC
  5
345
  8
0
 62
     7
 10
152.42080899999999
 20
164.62364600000001
 30
0.0
 40
0.455424
 50
178.711601
 51
195.607045
  0
ARC
  5
346
  8
0
 62
     7
 10
152.6603889999999
 20
164.673565
 30
0.0
 40
0.699792
 50
194.266006
 51
224.00571099999991
  0
LINE
  5
347
  8
0
 62
     7
 10
122.7529999999999
 20
77.694999999999993
 30
0.0
 11
128.89099999999999
 21
86.852800000000002
 31
0.0
  0
ARC
  5
348
  8
0
 62
     7
 10
122.61434199999989
 20
77.463599000000002
 30
0.0
 40
0.277038
 50
92.109510999999998
 51
177.89045899999999
  0
ARC
  5
349
  8
0
 62
     7
 10
122.6141939999999
 20
77.483846999999983
 30
0.0
 40
0.276884
 50
182.08008299999989
 51
267.91994599999992
  0
ARC
  5
34A
  8
0
 62
     7
 10
122.59428699999999
 20
77.483654000000001
 30
0.0
 40
0.276684
 50
272.04157199999997
 51
357.958438
  0
ARC
  5
34B
  8
0
 62
     7
 10
122.594022
 20
77.463674999999995
 30
0.0
 40
0.276959
 50
2.0944319999999998
 51
87.905557999999985
  0
ARC
  5
34C
  8
0
 62
     7
 10
122.5605169999999
 20
176.01039800000001
 30
0.0
 40
0.276954
 50
92.093378000000001
 51
177.9065919999999
  0
ARC
  5
34D
  8
0
 62
     7
 10
122.560486
 20
176.0306009999999
 30
0.0
 40
0.276922
 50
182.08725200000001
 51
267.91277799999989
  0
ARC
  5
34E
  8
0
 62
     7
 10
122.540398
 20
176.030517
 30
0.0
 40
0.276835
 50
272.07061099999999
 51
357.92939899999999
  0
ARC
  5
34F
  8
0
 62
     7
 10
122.54031499999989
 20
176.01042899999999
 30
0.0
 40
0.276922
 50
2.0872489999999999
 51
87.912740999999997
  0
LINE
  5
350
  8
0
 62
     7
 10
152.703
 20
227.24799999999991
 30
0.0
 11
152.703
 21
237.298
 31
0.0
  0
LINE
  5
351
  8
0
 62
     7
 10
152.703
 20
252.88200000000001
 30
0.0
 11
152.703
 21
242.83000000000001
 31
0.0
  0
ARC
  5
352
  8
0
 62
     7
 10
122.320194
 20
264.54707100000002
 30
0.0
 40
0.4114050000000001
 50
95.275053999999997
 51
178.55512799999991
  0
LINE
  5
353
  8
0
 62
     7
 10
121.90900000000001
 20
264.0209999999999
 30
0.0
 11
121.90900000000001
 21
264.55700000000002
 31
0.0
  0
LINE
  5
354
  8
0
 62
     7
 10
123.929
 20
264.73200000000003
 30
0.0
 11
123.929
 21
259.95099999999991
 31
0.0
  0
LINE
  5
355
  8
0
 62
     7
 10
123.929
 20
215.39599999999999
 30
0.0
 11
123.929
 21
259.95099999999991
 31
0.0
  0
LINE
  5
356
  8
0
 62
     7
 10
151.90299999999991
 20
252.88200000000001
 30
0.0
 11
151.90299999999991
 21
240.06399999999999
 31
0.0
  0
LINE
  5
357
  8
0
 62
     7
 10
152.30199999999999
 20
252.88200000000001
 30
0.0
 11
152.30199999999999
 21
240.06399999999999
 31
0.0
  0
LINE
  5
358
  8
0
 62
     7
 10
123.929
 20
259.54899999999998
 30
0.0
 11
148.43100000000001
 21
256.78800000000001
 31
0.0
  0
LINE
  5
359
  8
0
 62
     7
 10
123.929
 20
259.95099999999991
 30
0.0
 11
148.476
 21
257.18599999999998
 31
0.0
  0
ARC
  5
35A
  8
0
 62
     7
 10
147.88940999999991
 20
252.811184
 30
0.0
 40
4.0140129999999994
 50
1.010054
 51
82.268304000000015
  0
ARC
  5
35B
  8
0
 62
     7
 10
147.88194699999991
 20
252.80455000000001
 30
0.0
 40
4.4211640000000001
 50
1.003012999999999
 51
82.274304000000015
  0
LINE
  5
35C
  8
0
 62
     7
 10
121.90900000000001
 20
264.01699999999988
 30
0.0
 11
121.90900000000001
 21
240.06399999999999
 31
0.0
  0
LINE
  5
35D
  8
0
 62
     7
 10
123.907
 20
265.065
 30
0.0
 11
123.929
 21
264.73200000000003
 31
0.0
  0
LINE
  5
35E
  8
0
 62
     7
 10
122.282
 20
264.95699999999999
 30
0.0
 11
123.907
 21
265.065
 31
0.0
  0
LINE
  5
35F
  8
0
 62
     7
 10
152.30199999999999
 20
227.24799999999991
 30
0.0
 11
152.30199999999999
 21
240.06399999999999
 31
0.0
  0
LINE
  5
360
  8
0
 62
     7
 10
126.1149999999999
 20
220.42500000000001
 30
0.0
 11
148.476
 21
222.94399999999999
 31
0.0
  0
ARC
  5
361
  8
0
 62
     7
 10
147.88196499999989
 20
227.3245399999999
 30
0.0
 40
4.4211390000000002
 50
277.72550599999988
 51
359.001732
  0
ARC
  5
362
  8
0
 62
     7
 10
122.3189659999999
 20
215.58082400000001
 30
0.0
 40
0.41083
 50
181.229094
 51
264.7929529999999
  0
LINE
  5
363
  8
0
 62
     7
 10
121.90900000000001
 20
215.572
 30
0.0
 11
121.90900000000001
 21
240.06399999999999
 31
0.0
  0
LINE
  5
364
  8
0
 62
     7
 10
123.907
 20
215.06299999999999
 30
0.0
 11
123.929
 21
215.39599999999999
 31
0.0
  0
LINE
  5
365
  8
0
 62
     7
 10
122.282
 20
215.172
 30
0.0
 11
123.907
 21
215.06299999999999
 31
0.0
  0
ARC
  5
366
  8
0
 62
     7
 10
122.6755229999999
 20
175.929518
 30
0.0
 40
0.4152899999999999
 50
95.865490000000008
 51
181.181995
  0
ARC
  5
367
  8
0
 62
     7
 10
68.420036999999994
 20
171.29419799999999
 30
0.0
 40
53.991961000000003
 50
0.512343
 51
1.9863580000000001
  0
ARC
  5
368
  8
0
 62
     7
 10
22.123042999999999
 20
170.2560379999999
 30
0.0
 40
100.298723
 50
1.6623490000000001
 51
3.237417999999999
  0
ARC
  5
369
  8
0
 62
     7
 10
69.918622999999997
 20
171.34149600000001
 30
0.0
 40
52.159502000000003
 50
0.47233
 51
1.992966
  0
ARC
  5
36A
  8
0
 62
     7
 10
21.168331999999989
 20
170.1961629999999
 30
0.0
 40
100.921638
 50
1.680296
 51
3.4324919999999999
  0
LINE
  5
36B
  8
0
 62
     7
 10
151.458
 20
103.4929999999999
 30
0.0
 11
150.99100000000001
 21
103.50399999999991
 31
0.0
  0
LINE
  5
36C
  8
0
 62
     7
 10
152.648
 20
158.56100000000001
 30
0.0
 11
151.458
 21
103.4929999999999
 31
0.0
  0
ARC
  5
36D
  8
0
 62
     7
 10
152.66199499999991
 20
157.93812299999991
 30
0.0
 40
0.452363
 50
131.3619479999999
 51
148.40842599999991
  0
ARC
  5
36E
  8
0
 62
     7
 10
152.86183199999991
 20
157.79667299999991
 30
0.0
 40
0.6968640000000002
 50
147.10915900000001
 51
178.184136
  0
LINE
  5
36F
  8
0
 62
     7
 10
152.16499999999991
 20
157.81899999999999
 30
0.0
 11
150.98699999999999
 21
103.316
 31
0.0
  0
ARC
  5
370
  8
0
 62
     7
 10
152.3366199999999
 20
158.32276999999991
 30
0.0
 40
0.4521310000000001
 50
131.361503
 51
148.41590799999989
  0
ARC
  5
371
  8
0
 62
     7
 10
152.532882
 20
158.18363600000001
 30
0.0
 40
0.692372
 50
147.1138399999999
 51
178.3782699999999
  0
LINE
  5
372
  8
0
 62
     7
 10
151.84100000000001
 20
158.203
 30
0.0
 11
150.6579999999999
 21
103.511
 31
0.0
  0
ARC
  5
373
  8
0
 62
     7
 10
122.712097
 20
77.584119999999984
 30
0.0
 40
0.4153020000000001
 50
173.3417969999999
 51
259.2258819999999
  0
LINE
  5
374
  8
0
 62
     7
 10
122.6339999999999
 20
77.176100000000005
 30
0.0
 11
122.66799999999991
 21
77.172700000000006
 31
0.0
  0
ARC
  5
375
  8
0
 62
     7
 10
44.131562000000002
 20
89.731705000000005
 30
0.0
 40
79.098911000000001
 50
351.20116000000002
 51
351.972084
  0
ARC
  5
376
  8
0
 62
     7
 10
130.75788299999999
 20
79.624926000000002
 30
0.0
 40
7.2054970000000003
 50
116.6447119999999
 51
132.687386
  0
ARC
  5
377
  8
0
 62
     7
 10
133.1790189999999
 20
76.767119999999991
 30
0.0
 40
10.948829999999999
 50
131.861074
 51
163.446065
  0
ARC
  5
378
  8
0
 62
     7
 10
129.68800999999999
 20
77.929518999999999
 30
0.0
 40
7.2723119999999994
 50
164.38815500000001
 51
174.06902699999989
  0
LINE
  5
379
  8
0
 62
     7
 10
45.83039999999999
 20
175.9609999999999
 30
0.0
 11
45.83039999999999
 21
77.557199999999995
 31
0.0
  0
ARC
  5
37A
  8
0
 62
     7
 10
58.364077000000002
 20
164.09403499999999
 30
0.0
 40
4.000125999999999
 50
90.004935000000003
 51
180.00494499999991
  0
ARC
  5
37B
  8
0
 62
     7
 10
58.363731000000008
 20
103.7579739999999
 30
0.0
 40
3.9997799999999999
 50
179.99996999999991
 51
270.00002000000001
  0
LINE
  5
37C
  8
0
 62
     7
 10
54.36399999999999
 20
164.09399999999999
 30
0.0
 11
54.36399999999999
 21
103.7579999999999
 31
0.0
  0
ARC
  5
37D
  8
0
 62
     7
 10
53.107218999999994
 20
169.350919
 30
0.0
 40
2.0781469999999991
 50
92.110412999999994
 51
177.90929
  0
LINE
  5
37E
  8
0
 62
     7
 10
51.030500000000004
 20
169.42699999999999
 30
0.0
 11
51.030500000000004
 21
78.090500000000006
 31
0.0
  0
LINE
  5
37F
  8
0
 62
     7
 10
45.6967
 20
176.09399999999999
 30
0.0
 11
45.6967
 21
77.423500000000004
 31
0.0
  0
LINE
  5
380
  8
0
 62
     7
 10
95.565499999999986
 20
175.9609999999999
 30
0.0
 11
95.565499999999986
 21
77.557199999999995
 31
0.0
  0
LINE
  5
381
  8
0
 62
     7
 10
87.031899999999993
 20
164.09399999999999
 30
0.0
 11
87.031899999999993
 21
103.7579999999999
 31
0.0
  0
LINE
  5
382
  8
0
 62
     7
 10
90.364699999999985
 20
169.42699999999999
 30
0.0
 11
90.364699999999985
 21
78.090500000000006
 31
0.0
  0
LINE
  5
383
  8
0
 62
     7
 10
95.698499999999996
 20
176.09399999999999
 30
0.0
 11
95.698499999999996
 21
77.423500000000004
 31
0.0
  0
ARC
  5
384
  8
0
 62
     7
 10
46.522079999999988
 20
175.9358729999999
 30
0.0
 40
0.692138
 50
92.103030000000004
 51
177.926559
  0
ARC
  5
385
  8
0
 62
     7
 10
94.873472000000007
 20
175.935518
 30
0.0
 40
0.69248
 50
2.1017909999999991
 51
87.927800999999988
  0
LINE
  5
386
  8
0
 62
     7
 10
94.898499999999999
 20
176.6279999999999
 30
0.0
 11
46.49669999999999
 21
176.6279999999999
 31
0.0
  0
ARC
  5
387
  8
0
 62
     7
 10
46.389053999999987
 20
176.06852799999999
 30
0.0
 40
0.692807
 50
92.097358999999997
 51
177.87300899999991
  0
ARC
  5
388
  8
0
 62
     7
 10
95.006476000000006
 20
176.068893
 30
0.0
 40
0.692455
 50
2.0978309999999998
 51
87.872540999999998
  0
ARC
  5
389
  8
0
 62
     7
 10
83.031803999999994
 20
103.75832
 30
0.0
 40
4.000125999999999
 50
269.99508500000002
 51
359.99505499999992
  0
LINE
  5
38A
  8
0
 62
     7
 10
83.031499999999994
 20
99.758200000000002
 30
0.0
 11
58.363700000000001
 21
99.758200000000002
 31
0.0
  0
ARC
  5
38B
  8
0
 62
     7
 10
83.031459999999996
 20
164.09369099999989
 30
0.0
 40
4.0004710000000001
 50
0.00001
 51
89.999980000000008
  0
LINE
  5
38C
  8
0
 62
     7
 10
83.031499999999994
 20
168.09399999999999
 30
0.0
 11
58.363700000000001
 21
168.09399999999999
 31
0.0
  0
ARC
  5
38D
  8
0
 62
     7
 10
88.287340999999998
 20
169.35031399999991
 30
0.0
 40
2.078800999999999
 50
2.1067269999999998
 51
87.853789000000035
  0
LINE
  5
38E
  8
0
 62
     7
 10
88.365200000000002
 20
171.428
 30
0.0
 11
53.030700000000003
 21
171.428
 31
0.0
  0
LINE
  5
38F
  8
0
 62
     7
 10
95.032200000000003
 20
176.76099999999991
 30
0.0
 11
46.363700000000001
 21
176.76099999999991
 31
0.0
  0
ARC
  5
390
  8
0
 62
     7
 10
46.522756999999991
 20
77.582530000000006
 30
0.0
 40
0.6928260000000001
 50
182.097792
 51
267.84301799999997
  0
ARC
  5
391
  8
0
 62
     7
 10
94.873322000000002
 20
77.582357999999999
 30
0.0
 40
0.6926220000000001
 50
272.08418799999998
 51
357.91582199999999
  0
LINE
  5
392
  8
0
 62
     7
 10
94.898499999999999
 20
76.890199999999993
 30
0.0
 11
46.49669999999999
 21
76.890199999999993
 31
0.0
  0
ARC
  5
393
  8
0
 62
     7
 10
46.388407999999991
 20
77.448921999999996
 30
0.0
 40
0.69215
 50
182.10504099999989
 51
267.95420999999988
  0
ARC
  5
394
  8
0
 62
     7
 10
95.032181999999992
 20
77.423497999999995
 30
0.0
 40
0.666286
 50
270.00002000000001
 51
359.99998999999991
  0
LINE
  5
395
  8
0
 62
     7
 10
90.364699999999985
 20
78.090500000000006
 30
0.0
 11
51.030500000000004
 21
78.090500000000006
 31
0.0
  0
LINE
  5
396
  8
0
 62
     7
 10
95.032200000000003
 20
76.757199999999997
 30
0.0
 11
46.363700000000001
 21
76.757199999999997
 31
0.0
  0
LINE
  5
397
  8
0
 62
     7
 10
123.90900000000001
 20
176.42699999999999
 30
0.0
 11
122.6339999999999
 21
176.34200000000001
 31
0.0
  0
LINE
  5
398
  8
0
 62
     7
 10
123.90900000000001
 20
176.76099999999991
 30
0.0
 11
122.282
 21
176.65299999999991
 31
0.0
  0
LINE
  5
399
  8
0
 62
     7
 10
122.10899999999999
 20
78.618300000000005
 30
0.0
 11
122.10899999999999
 21
171.6279999999999
 31
0.0
  0
LINE
  5
39A
  8
0
 62
     7
 10
123.90900000000001
 20
174.91399999999999
 30
0.0
 11
123.90900000000001
 21
176.76099999999991
 31
0.0
  0
LINE
  5
39B
  8
0
 62
     7
 10
123.90900000000001
 20
76.757199999999997
 30
0.0
 11
123.90900000000001
 21
79.420299999999983
 31
0.0
  0
LINE
  5
39C
  8
0
 62
     7
 10
121.91
 20
77.263599999999997
 30
0.0
 11
121.90900000000001
 21
176.268
 31
0.0
  0
ARC
  5
39D
  8
0
 62
     7
 10
122.3269649999999
 20
77.276060999999999
 30
0.0
 40
0.415504
 50
173.144656
 51
259.03312299999988
  0
LINE
  5
39E
  8
0
 62
     7
 10
122.248
 20
76.868099999999998
 30
0.0
 11
122.2829999999999
 21
76.86399999999999
 31
0.0
  0
LINE
  5
39F
  8
0
 62
     7
 10
123.90900000000001
 20
77.090000000000003
 30
0.0
 11
122.66799999999991
 21
77.172700000000006
 31
0.0
  0
LINE
  5
3A0
  8
0
 62
     7
 10
123.89
 20
76.757199999999997
 30
0.0
 11
122.2829999999999
 21
76.86399999999999
 31
0.0
  0
ARC
  5
3A1
  8
0
 62
     7
 10
130.66203899999991
 20
79.772998999999999
 30
0.0
 40
7.3623679999999991
 50
116.63750399999989
 51
131.67796000000001
  0
ARC
  5
3A2
  8
0
 62
     7
 10
133.1189139999999
 20
76.827309999999997
 30
0.0
 40
11.19685099999999
 50
131.04500400000001
 51
166.254783
  0
ARC
  5
3A3
  8
0
 62
     7
 10
129.03782599999991
 20
78.044772999999992
 30
0.0
 40
6.946625
 50
168.01116200000001
 51
174.32282799999999
  0
ARC
  5
3A4
  8
0
 62
     7
 10
51.214443000000003
 20
88.644413000000014
 30
0.0
 40
71.600297999999995
 50
350.90438399999988
 51
352.04232300000001
  0
ARC
  5
3A5
  8
0
 62
     7
 10
122.3234759999999
 20
176.2401769999999
 30
0.0
 40
0.41456
 50
95.690539999999984
 51
180.21927400000001
  0
ARC
  5
3A6
  8
0
 62
     7
 10
145.3577019999999
 20
102.1691209999999
 30
0.0
 40
5.0371739999999994
 50
297.13334900000001
 51
315.49572699999999
  0
ARC
  5
3A7
  8
0
 62
     7
 10
144.00869099999991
 20
103.618308
 30
0.0
 40
7.015663
 50
314.777423
 51
352.52593300000001
  0
ARC
  5
3A8
  8
0
 62
     7
 10
146.2326129999999
 20
103.1844149999999
 30
0.0
 40
4.7562850000000001
 50
354.22380600000002
 51
1.580762999999999
  0
LINE
  5
3A9
  8
0
 62
     7
 10
147.655
 20
97.686300000000017
 30
0.0
 11
127.4729999999999
 21
86.033500000000004
 31
0.0
  0
ARC
  5
3AA
  8
0
 62
     7
 10
145.02778000000001
 20
102.364362
 30
0.0
 40
5.0379680000000002
 50
297.144791
 51
315.500651
  0
ARC
  5
3AB
  8
0
 62
     7
 10
143.678236
 20
103.813481
 30
0.0
 40
7.0167789999999988
 50
314.78452599999991
 51
352.52564999999993
  0
ARC
  5
3AC
  8
0
 62
     7
 10
145.90325899999999
 20
103.379408
 30
0.0
 40
4.7562850000000001
 50
354.22380600000002
 51
1.580762999999999
  0
LINE
  5
3AD
  8
0
 62
     7
 10
147.32599999999991
 20
97.881299999999996
 30
0.0
 11
127.361
 21
86.353899999999996
 31
0.0
  0
ARC
  5
3AE
  8
0
 62
     7
 10
122.4784639999999
 20
171.78790399999991
 30
0.0
 40
0.068743
 50
183.354195
 51
262.16688299999993
  0
ARC
  5
3AF
  8
0
 62
     7
 10
122.4825129999999
 20
171.79261999999991
 30
0.0
 40
0.406711
 50
182.9794709999999
 51
262.84960000000001
  0
ARC
  5
3B0
  8
0
 62
     7
 10
148.2348659999999
 20
164.76385200000001
 30
0.0
 40
4.0514960000000002
 50
3.611367
 51
83.011960999999999
  0
LINE
  5
3B1
  8
0
 62
     7
 10
122.46899999999999
 20
171.72
 30
0.0
 11
148.72799999999989
 21
168.785
 31
0.0
  0
ARC
  5
3B2
  8
0
 62
     7
 10
147.90393899999989
 20
164.4509679999999
 30
0.0
 40
4.0656790000000003
 50
2.5786479999999989
 51
82.828198999999984
  0
LINE
  5
3B3
  8
0
 62
     7
 10
122.432
 20
171.38900000000001
 30
0.0
 11
148.41200000000001
 21
168.48500000000001
 31
0.0
  0
LINE
  5
3B4
  8
0
  6
AIGENLINE001
 62
     7
 10
155.41200000000001
 20
161.42699999999999
 30
0.0
 11
149.136
 21
161.42699999999999
 31
0.0
  0
LINE
  5
3B5
  8
0
  6
AIGENLINE001
 62
     7
 10
162.941
 20
107.422
 30
0.0
 11
149.21899999999991
 21
107.422
 31
0.0
  0
LINE
  5
3B6
  8
0
  6
AIGENLINE001
 62
     7
 10
162.941
 20
153.42400000000001
 30
0.0
 11
150.85599999999991
 21
153.42400000000001
 31
0.0
  0
LINE
  5
3B7
  8
0
  6
AIGENLINE001
 62
     7
 10
162.875
 20
232.06399999999999
 30
0.0
 11
150.78999999999999
 21
232.06399999999999
 31
0.0
  0
LINE
  5
3B8
  8
0
  6
AIGENLINE001
 62
     7
 10
162.875
 20
248.06399999999999
 30
0.0
 11
150.78999999999999
 21
248.06399999999999
 31
0.0
  0
LINE
  5
3B9
  8
0
  6
AIGENLINE001
 62
     7
 10
155.12700000000001
 20
240.06399999999999
 30
0.0
 11
119.672
 21
240.06399999999999
 31
0.0
  0
LINE
  5
3BA
  8
0
  6
AIGENLINE001
 62
     7
 10
75.922799999999995
 20
161.42699999999999
 30
0.0
 11
65.222300000000004
 21
161.42699999999999
 31
0.0
  0
LINE
  5
3BB
  8
0
  6
AIGENLINE001
 62
     7
 10
48.663699999999992
 20
171.06899999999999
 30
0.0
 11
48.663699999999992
 21
162.637
 31
0.0
  0
LINE
  5
3BC
  8
0
  6
AIGENLINE001
 62
     7
 10
70.697900000000004
 20
184.07599999999991
 30
0.0
 11
70.697900000000004
 21
67.834999999999994
 31
0.0
  0
LINE
  5
3BD
  8
0
 62
     7
 10
121.16799999999991
 20
83.207199999999986
 30
0.0
 11
113.46899999999989
 21
83.207199999999986
 31
0.0
  0
LINE
  5
3BE
  8
0
 62
     7
 10
121.5479999999999
 20
76.754499999999993
 30
0.0
 11
113.46899999999989
 21
76.754499999999993
 31
0.0
  0
LINE
  5
3BF
  8
0
 62
     7
 10
114.762
 20
169.2359999999999
 30
0.0
 11
114.169
 21
171.447
 31
0.0
  0
LINE
  5
3C0
  8
0
 62
     7
 10
114.169
 20
171.447
 30
0.0
 11
113.577
 21
169.2359999999999
 31
0.0
  0
LINE
  5
3C1
  8
0
 62
     7
 10
113.577
 20
169.2359999999999
 30
0.0
 11
114.762
 21
169.2359999999999
 31
0.0
  0
LINE
  5
3C2
  8
0
 62
     7
 10
113.577
 20
85.418199999999985
 30
0.0
 11
114.169
 21
83.207199999999986
 31
0.0
  0
LINE
  5
3C3
  8
0
 62
     7
 10
114.169
 20
83.207199999999986
 30
0.0
 11
114.762
 21
85.418199999999985
 31
0.0
  0
LINE
  5
3C4
  8
0
 62
     7
 10
114.762
 20
85.418199999999985
 30
0.0
 11
113.577
 21
85.418199999999985
 31
0.0
  0
LINE
  5
3C5
  8
0
 62
     7
 10
113.577
 20
78.965500000000006
 30
0.0
 11
114.169
 21
76.754499999999993
 31
0.0
  0
LINE
  5
3C6
  8
0
 62
     7
 10
114.169
 20
76.754499999999993
 30
0.0
 11
114.762
 21
78.965500000000006
 31
0.0
  0
LINE
  5
3C7
  8
0
 62
     7
 10
114.762
 20
78.965500000000006
 30
0.0
 11
113.577
 21
78.965500000000006
 31
0.0
  0
LINE
  5
3C8
  8
0
 62
     7
 10
114.169
 20
180.25599999999989
 30
0.0
 11
114.169
 21
76.754499999999993
 31
0.0
  0
LINE
  5
3C9
  8
0
 62
     7
 10
121.40899999999991
 20
171.447
 30
0.0
 11
113.46899999999989
 21
171.447
 31
0.0
  0
LINE
  5
3CA
  8
0
 62
     7
 10
104.1959999999999
 20
161.42699999999999
 30
0.0
 11
76.904799999999994
 21
161.42699999999999
 31
0.0
  0
LINE
  5
3CB
  8
0
 62
     7
 10
104.1959999999999
 20
176.76099999999991
 30
0.0
 11
96.133200000000016
 21
176.76099999999991
 31
0.0
  0
LINE
  5
3CC
  8
0
 62
     7
 10
121.16799999999991
 20
176.76099999999991
 30
0.0
 11
113.46899999999989
 21
176.76099999999991
 31
0.0
  0
TEXT
  5
3CD
  8
0
 62
     7
 10
37.751800000000003
 20
155.62599999999989
 30
0.0
 40
3.0923400000000001
  1
42.5
 41
0.5
  0
TEXT
  5
3CE
  8
0
 62
     7
 10
38.989400000000003
 20
170.12313499999999
 30
0.0
 40
3.0923400000000001
  1
145
 50
90.0
 41
0.5
 72
     1
 11
38.989400000000003
 21
171.92699999999999
 31
0.0
  0
TEXT
  5
3CF
  8
0
 62
     7
 10
91.871972499999998
 20
188.0509999999999
 30
0.0
 40
3.0923400000000001
  1
80
 41
0.5
 72
     1
 11
93.031599999999997
 21
188.0509999999999
 31
0.0
  0
TEXT
  5
3D0
  8
0
 62
     7
 10
68.76518750000001
 20
188.0509999999999
 30
0.0
 40
3.0923400000000001
  1
590
 41
0.5
 72
     1
 11
70.697900000000004
 21
188.0509999999999
 31
0.0
  0
TEXT
  5
3D1
  8
0
 62
     7
 10
47.2035725
 20
188.0509999999999
 30
0.0
 40
3.0923400000000001
  1
80
 41
0.5
 72
     1
 11
48.363199999999999
 21
188.0509999999999
 31
0.0
  0
TEXT
  5
3D2
  8
0
 62
     7
 10
167.65700000000001
 20
238.13128750000001
 30
0.0
 40
3.0923400000000001
  1
240
 50
90.0
 41
0.5
 72
     1
 11
167.65700000000001
 21
240.06399999999999
 31
0.0
  0
TEXT
  5
3D3
  8
0
 62
     7
 10
167.65700000000001
 20
254.50344000000001
 30
0.0
 40
3.0923400000000001
  1
255
 50
90.0
 41
0.5
 72
     1
 11
167.65700000000001
 21
256.565
 31
0.0
  0
TEXT
  5
3D4
  8
0
 62
     7
 10
115.3579999999999
 20
209.15299999999999
 30
0.0
 40
3.0923400000000001
  1
30
 41
0.5
  0
TEXT
  5
3D5
  8
0
 62
     7
 10
167.989
 20
128.49028749999999
 30
0.0
 40
3.0923400000000001
  1
690
 50
90.0
 41
0.5
 72
     1
 11
167.989
 21
130.423
 31
0.0
  0
TEXT
  5
3D6
  8
0
 62
     7
 10
167.989
 20
163.1592875
 30
0.0
 40
3.0923400000000001
  1
350
 50
90.0
 41
0.5
 72
     1
 11
167.989
 21
165.09200000000001
 31
0.0
  0
TEXT
  5
3D7
  8
0
 62
     7
 10
68.76518750000001
 20
195.57900000000001
 30
0.0
 40
3.0923400000000001
  1
750
 41
0.5
 72
     1
 11
70.697900000000004
 21
195.57900000000001
 31
0.0
  0
TEXT
  5
3D8
  8
0
 62
     7
 10
32.950499999999991
 20
124.4337449999999
 30
0.0
 40
3.0923400000000001
  1
1500
 50
90.0
 41
0.5
 72
     1
 11
32.950499999999991
 21
126.7529999999999
 31
0.0
  0
TEXT
  5
3D9
  8
0
 62
     7
 10
139.68943999999991
 20
185.27699999999999
 30
0.0
 40
3.0923400000000001
  1
595
 41
0.5
 72
     1
 11
141.751
 21
185.27699999999999
 31
0.0
  0
TEXT
  5
3DA
  8
0
 62
     7
 10
113.3639999999999
 20
78.692025000000001
 30
0.0
 40
3.0923400000000001
  1
97
 50
90.0
 41
0.5
 72
     1
 11
113.3639999999999
 21
79.980500000000006
 31
0.0
  0
TEXT
  5
3DB
  8
0
 62
     7
 10
113.46899999999989
 20
124.75005
 30
0.0
 40
3.0923400000000001
  1
1323
 50
90.0
 41
0.5
 72
     1
 11
113.46899999999989
 21
127.327
 31
0.0
  0
TEXT
  5
3DC
  8
0
 62
     7
 10
113.46899999999989
 20
172.94437249999999
 30
0.0
 40
3.0923400000000001
  1
80
 50
90.0
 41
0.5
 72
     1
 11
113.46899999999989
 21
174.10400000000001
 31
0.0
  0
TEXT
  5
3DD
  8
0
 62
     7
 10
134.94228749999991
 20
161.35099999999991
 30
0.0
 40
3.0923400000000001
  1
450
 41
0.5
 72
     1
 11
136.875
 21
161.35099999999991
 31
0.0
  0
LINE
  5
3DE
  8
0
 62
     7
 10
81.777799999999999
 20
156.75700000000001
 30
0.0
 11
75.363699999999994
 21
156.75700000000001
 31
0.0
  0
LINE
  5
3DF
  8
0
 62
     7
 10
67.414699999999996
 20
163.86799999999991
 30
0.0
 11
69.397800000000004
 21
162.7229999999999
 31
0.0
  0
LINE
  5
3E0
  8
0
 62
     7
 10
69.397800000000004
 20
162.7229999999999
 30
0.0
 11
68.252600000000001
 21
164.7059999999999
 31
0.0
  0
LINE
  5
3E1
  8
0
 62
     7
 10
68.252600000000001
 20
164.7059999999999
 30
0.0
 11
67.414699999999996
 21
163.86799999999991
 31
0.0
  0
LINE
  5
3E2
  8
0
 62
     7
 10
73.972899999999996
 20
158.98500000000001
 30
0.0
 11
71.989900000000006
 21
160.12999999999991
 31
0.0
  0
LINE
  5
3E3
  8
0
 62
     7
 10
71.989900000000006
 20
160.12999999999991
 30
0.0
 11
73.134299999999996
 21
158.14699999999999
 31
0.0
  0
LINE
  5
3E4
  8
0
 62
     7
 10
73.134299999999996
 20
158.14699999999999
 30
0.0
 11
73.972899999999996
 21
158.98500000000001
 31
0.0
  0
LINE
  5
3E5
  8
0
 62
     7
 10
75.363699999999994
 20
156.75700000000001
 30
0.0
 11
66.445300000000003
 21
165.67500000000001
 31
0.0
  0
LINE
  5
3E6
  8
0
 62
     7
 10
72.172499999999985
 20
72.338200000000001
 30
0.0
 11
70.697900000000004
 21
71.943399999999997
 31
0.0
  0
LINE
  5
3E7
  8
0
 62
     7
 10
70.697900000000004
 20
71.943399999999997
 30
0.0
 11
72.172499999999985
 21
71.547899999999998
 31
0.0
  0
LINE
  5
3E8
  8
0
 62
     7
 10
72.172499999999985
 20
71.547899999999998
 30
0.0
 11
72.172499999999985
 21
72.338200000000001
 31
0.0
  0
LINE
  5
3E9
  8
0
 62
     7
 10
70.697900000000004
 20
71.943399999999997
 30
0.0
 11
75.308199999999999
 21
71.943399999999997
 31
0.0
  0
LINE
  5
3EA
  8
0
 62
     7
 10
72.172499999999985
 20
181.5379999999999
 30
0.0
 11
70.697900000000004
 21
181.143
 31
0.0
  0
LINE
  5
3EB
  8
0
 62
     7
 10
70.697900000000004
 20
181.143
 30
0.0
 11
72.172499999999985
 21
180.74700000000001
 31
0.0
  0
LINE
  5
3EC
  8
0
 62
     7
 10
72.172499999999985
 20
180.74700000000001
 30
0.0
 11
72.172499999999985
 21
181.5379999999999
 31
0.0
  0
LINE
  5
3ED
  8
0
 62
     7
 10
70.697900000000004
 20
181.143
 30
0.0
 11
75.308199999999999
 21
181.143
 31
0.0
  0
LINE
  5
3EE
  8
_________2
 62
     7
 10
210.00099999999989
 20
148.482
 30
0.0
 11
188.25099999999989
 21
148.482
 31
0.0
  0
LINE
  5
3EF
  8
_________2
 62
     7
 10
105.0
 20
16.979900000000001
 30
0.0
 11
105.0
 21
-0.000344512
 31
0.0
  0
LINE
  5
3F0
  8
_________2
 62
     7
 10
105.0
 20
297.00200000000001
 30
0.0
 11
105.0
 21
279.98200000000003
 31
0.0
  0
LINE
  5
3F1
  8
_________2
 62
     7
 10
21.749700000000001
 20
148.482
 30
0.0
 11
-0.000689023
 21
148.482
 31
0.0
  0
LINE
  5
3F2
  8
_________2
 62
     7
 10
81.441199999999995
 20
50.875799999999991
 30
0.0
 11
79.254900000000006
 21
50.875799999999991
 31
0.0
  0
LINE
  5
3F3
  8
_________2
 62
     7
 10
81.933800000000005
 20
50.875799999999991
 30
0.0
 11
81.681700000000006
 21
50.875799999999991
 31
0.0
  0
LINE
  5
3F4
  8
_________2
 62
     7
 10
82.426500000000004
 20
50.875799999999991
 30
0.0
 11
85.351399999999998
 21
50.875799999999991
 31
0.0
  0
LINE
  5
3F5
  8
_________2
 62
     7
 10
81.933800000000005
 20
50.875799999999991
 30
0.0
 11
82.186000000000007
 21
50.875799999999991
 31
0.0
  0
LINE
  5
3F6
  8
_________2
 62
     7
 10
75.537599999999998
 20
50.875799999999991
 30
0.0
 11
73.350700000000003
 21
50.875799999999991
 31
0.0
  0
LINE
  5
3F7
  8
_________2
 62
     7
 10
76.029600000000002
 20
50.875799999999991
 30
0.0
 11
75.778099999999995
 21
50.875799999999991
 31
0.0
  0
LINE
  5
3F8
  8
_________2
 62
     7
 10
76.029600000000002
 20
51.368400000000001
 30
0.0
 11
76.029600000000002
 21
53.555399999999999
 31
0.0
  0
LINE
  5
3F9
  8
_________2
 62
     7
 10
76.029600000000002
 20
50.875799999999991
 30
0.0
 11
76.029600000000002
 21
51.128
 31
0.0
  0
LINE
  5
3FA
  8
_________2
 62
     7
 10
76.522300000000001
 20
50.875799999999991
 30
0.0
 11
78.709199999999996
 21
50.875799999999991
 31
0.0
  0
LINE
  5
3FB
  8
_________2
 62
     7
 10
76.029600000000002
 20
50.875799999999991
 30
0.0
 11
76.281800000000004
 21
50.875799999999991
 31
0.0
  0
LINE
  5
3FC
  8
_________2
 62
     7
 10
76.029600000000002
 20
50.383800000000001
 30
0.0
 11
76.029600000000002
 21
48.196800000000003
 31
0.0
  0
LINE
  5
3FD
  8
_________2
 62
     7
 10
76.029600000000002
 20
50.875799999999991
 30
0.0
 11
76.029600000000002
 21
50.624299999999991
 31
0.0
  0
LINE
  5
3FE
  8
_________2
 62
     7
 10
79.740700000000004
 20
49.656199999999998
 30
0.0
 11
84.918700000000001
 21
48.791499999999999
 31
0.0
  0
LINE
  5
3FF
  8
_________2
 62
     7
 10
79.740700000000004
 20
52.095300000000002
 30
0.0
 11
84.918700000000001
 21
52.960799999999992
 31
0.0
  0
LINE
  5
400
  8
_________2
 62
     7
 10
84.918700000000001
 20
48.791499999999999
 30
0.0
 11
84.918700000000001
 21
52.960799999999992
 31
0.0
  0
LINE
  5
401
  8
_________2
 62
     7
 10
79.740700000000004
 20
49.656199999999998
 30
0.0
 11
79.740700000000004
 21
52.095300000000002
 31
0.0
  0
ARC
  5
402
  8
_________2
 62
     7
 10
75.983362999999997
 20
50.828812999999997
 30
0.0
 40
1.2673709999999989
 50
2.1232950000000002
 51
87.909056000000007
  0
ARC
  5
403
  8
_________2
 62
     7
 10
76.076526999999999
 20
50.828847000000003
 30
0.0
 40
1.267363
 50
92.121785999999986
 51
177.878185
  0
ARC
  5
404
  8
_________2
 62
     7
 10
76.076526999999999
 20
50.922691999999998
 30
0.0
 40
1.267363
 50
182.12181499999991
 51
267.87821400000001
  0
ARC
  5
405
  8
_________2
 62
     7
 10
75.982714000000001
 20
50.923374000000003
 30
0.0
 40
1.2680439999999991
 50
272.11916400000001
 51
357.84848499999993
  0
ARC
  5
406
  8
_________2
 62
     7
 10
76.029604000000006
 20
50.875768999999998
 30
0.0
 40
2.0849849999999992
 50
0.00001
 51
89.999980000000008
  0
ARC
  5
407
  8
_________2
 62
     7
 10
76.109640999999996
 20
50.796447000000001
 30
0.0
 40
2.1657860000000002
 50
92.117855000000034
 51
177.90105299999991
  0
ARC
  5
408
  8
_________2
 62
     7
 10
76.109607999999994
 20
50.955773000000001
 30
0.0
 40
2.1657779999999991
 50
182.11700400000001
 51
267.88302499999992
  0
ARC
  5
409
  8
_________2
 62
     7
 10
75.949632999999992
 20
50.956456000000003
 30
0.0
 40
2.1664590000000001
 50
272.11546800000002
 51
357.86560400000002
  0
TEXT
  5
40A
  8
_________2
 62
     7
 10
109.30500000000001
 20
22.750499999999992
 30
0.0
 40
3.0923400000000001
  1
図番
 41
0.5
  0
LINE
  5
40B
  8
_________2
 62
     7
 10
108.25
 20
26.979700000000001
 30
0.0
 11
188.25099999999989
 21
26.979700000000001
 31
0.0
  0
TEXT
  5
40C
  8
_________2
 62
     7
 10
109.30500000000001
 20
32.750300000000003
 30
0.0
 40
3.0923400000000001
  1
品番
 41
0.5
  0
TEXT
  5
40D
  8
_________2
 62
     7
 10
109.30500000000001
 20
52.889099999999999
 30
0.0
 40
3.0923400000000001
  1
名称
 41
0.5
  0
TEXT
  5
40E
  8
_________2
 62
     7
 10
96.545258333333337
 20
47.892999999999986
 30
0.0
 40
3.6545800000000002
  1
mm
 41
0.5
 72
     1
 11
98.067999999999998
 21
47.892999999999986
 31
0.0
  0
TEXT
  5
40F
  8
_________2
 62
     7
 10
90.343400000000003
 20
52.889099999999999
 30
0.0
 40
3.0923400000000001
  1
単位
 41
0.5
  0
TEXT
  5
410
  8
_________2
 62
     7
 10
90.343400000000003
 20
40.481900000000003
 30
0.0
 40
3.0923400000000001
  1
尺度
 41
0.5
  0
TEXT
  5
411
  8
_________2
 62
     7
 10
94.639861999999994
 20
34.288899999999991
 30
0.0
 40
3.6545800000000002
  1
1 ： 15
 41
0.5
 72
     1
 11
98.659899999999993
 21
34.288899999999991
 31
0.0
  0
TEXT
  5
412
  8
_________2
 62
     7
 10
137.91878750000001
 20
30.178899999999992
 30
0.0
 40
3.9357000000000002
  1
CEY21580RV6
 41
0.5
 72
     1
 11
148.24999999999989
 21
30.178899999999992
 31
0.0
  0
TEXT
  5
413
  8
_________2
 62
     7
 10
137.91878750000001
 20
20.1784
 30
0.0
 40
3.9357000000000002
  1
CEY21580RV6
 41
0.5
 72
     1
 11
148.24999999999989
 21
20.1784
 31
0.0
  0
TEXT
  5
414
  8
_________2
 62
     7
 10
29.286899999999989
 20
21.778300000000002
 30
0.0
 40
3.9357000000000002
  1
満水容量：290L　重量：18.5kg
 41
0.5
  0
TEXT
  5
415
  8
_________2
 62
     7
 10
113.87899999999991
 20
45.296700000000001
 30
0.0
 40
3.9357000000000002
  1
アクリル製 バスタブ（1500サイズ）
 41
0.5
  0
TEXT
  5
416
  8
_________2
 62
     7
 10
44.06459066666666
 20
34.674100000000003
 30
0.0
 40
3.6545800000000002
  1
石原
 41
0.5
 72
     1
 11
46.0137
 21
34.674100000000003
 31
0.0
  0
TEXT
  5
417
  8
_________2
 62
     7
 10
25.490590666666659
 20
34.674100000000003
 30
0.0
 40
3.6545800000000002
  1
麻生
 41
0.5
 72
     1
 11
27.439699999999998
 21
34.674100000000003
 31
0.0
  0
TEXT
  5
418
  8
_________2
 62
     7
 10
72.486000000000004
 20
34.288899999999991
 30
0.0
 40
3.6545800000000002
  1
12.01.12
 41
0.5
  0
TEXT
  5
419
  8
_________2
 62
     7
 10
71.293300000000002
 20
40.481900000000003
 30
0.0
 40
3.0923400000000001
  1
日付
 41
0.5
  0
TEXT
  5
41A
  8
_________2
 62
     7
 10
34.33959999999999
 20
40.481900000000003
 30
0.0
 40
3.0923400000000001
  1
検図
 41
0.5
  0
TEXT
  5
41B
  8
_________2
 62
     7
 10
22.7212
 20
26.282499999999992
 30
0.0
 40
3.0923400000000001
  1
備考
 41
0.5
  0
TEXT
  5
41C
  8
_________2
 62
     7
 10
22.7212
 20
40.481900000000003
 30
0.0
 40
3.0923400000000001
  1
製図
 41
0.5
  0
TEXT
  5
41D
  8
_________2
 62
     7
 10
28.488665333333341
 20
49.00780000000001
 30
0.0
 40
4.4979399999999989
  1
セラトレーディング株式会社
 41
0.5
 72
     1
 11
45.880699999999997
 21
49.00780000000001
 31
0.0
  0
LINE
  5
41E
  8
_________2
 62
     7
 10
188.25099999999989
 20
16.979900000000001
 30
0.0
 11
21.749700000000001
 21
16.979900000000001
 31
0.0
  0
LINE
  5
41F
  8
_________2
 62
     7
 10
21.749700000000001
 20
16.979900000000001
 30
0.0
 11
21.749700000000001
 21
279.98200000000003
 31
0.0
  0
LINE
  5
420
  8
_________2
 62
     7
 10
21.749700000000001
 20
279.98200000000003
 30
0.0
 11
188.25099999999989
 21
279.98200000000003
 31
0.0
  0
LINE
  5
421
  8
_________2
 62
     7
 10
188.25099999999989
 20
279.98200000000003
 30
0.0
 11
188.25099999999989
 21
16.979900000000001
 31
0.0
  0
LINE
  5
422
  8
_________2
 62
     7
 10
70.250100000000003
 20
30.48
 30
0.0
 11
70.250100000000003
 21
56.979799999999997
 31
0.0
  0
LINE
  5
423
  8
_________2
 62
     7
 10
89.249899999999997
 20
30.48
 30
0.0
 11
89.249899999999997
 21
56.979799999999997
 31
0.0
  0
LINE
  5
424
  8
_________2
 62
     7
 10
108.25
 20
16.979900000000001
 30
0.0
 11
108.25
 21
56.979799999999997
 31
0.0
  0
LINE
  5
425
  8
_________2
 62
     7
 10
33.249499999999991
 20
30.48
 30
0.0
 11
33.249499999999991
 21
44.4803
 31
0.0
  0
LINE
  5
426
  8
_________2
 62
     7
 10
21.749700000000001
 20
30.48
 30
0.0
 11
108.25
 21
30.48
 31
0.0
  0
LINE
  5
427
  8
_________2
 62
     7
 10
21.749700000000001
 20
44.4803
 30
0.0
 11
108.25
 21
44.4803
 31
0.0
  0
LINE
  5
428
  8
_________2
 62
     7
 10
108.25
 20
36.979500000000002
 30
0.0
 11
188.25099999999989
 21
36.979500000000002
 31
0.0
  0
LINE
  5
429
  8
_________2
 62
     7
 10
21.749700000000001
 20
56.979799999999997
 30
0.0
 11
188.25099999999989
 21
56.979799999999997
 31
0.0
  0
ENDSEC
  0
EOF
