  0
SECTION
  2
HEADER
  9
$ACADVER
  1
AC1009
  9
$INSBASE
 10
0.0
 20
0.0
 30
0.0
  9
$EXTMIN
 10
-0.000689023
 20
-0.000344512
 30
0.0
  9
$EXTMAX
 10
210.00099999999989
 20
297.00200000000001
 30
0.0
  9
$LIMMIN
 10
0.0
 20
0.0
  9
$LIMMAX
 10
12.0
 20
9.0
  9
$ORTHOMODE
 70
     0
  9
$REGENMODE
 70
     1
  9
$FILLMODE
 70
     1
  9
$QTEXTMODE
 70
     0
  9
$MIRRTEXT
 70
     1
  9
$DRAGMODE
 70
     2
  9
$LTSCALE
 40
1.0
  9
$OSMODE
 70
    37
  9
$ATTMODE
 70
     1
  9
$TEXTSIZE
 40
0.0
  9
$TRACEWID
 40
0.05
  9
$TEXTSTYLE
  7
STANDARD
  9
$CLAYER
  8
0
  9
$CELTYPE
  6
CONTINUOUS
  9
$CECOLOR
 62
   256
  9
$DIMSCALE
 40
1.0
  9
$DIMASZ
 40
0.18
  9
$DIMEXO
 40
0.0625
  9
$DIMDLI
 40
0.38
  9
$DIMRND
 40
0.0
  9
$DIMDLE
 40
0.0
  9
$DIMEXE
 40
0.18
  9
$DIMTP
 40
0.0
  9
$DIMTM
 40
0.0
  9
$DIMTXT
 40
0.18
  9
$DIMCEN
 40
0.09
  9
$DIMTSZ
 40
0.0
  9
$DIMTOL
 70
     0
  9
$DIMLIM
 70
     0
  9
$DIMTIH
 70
     1
  9
$DIMTOH
 70
     1
  9
$DIMSE1
 70
     0
  9
$DIMSE2
 70
     0
  9
$DIMTAD
 70
     0
  9
$DIMZIN
 70
     0
  9
$DIMBLK
  1

  9
$DIMASO
 70
     1
  9
$DIMSHO
 70
     1
  9
$DIMPOST
  1

  9
$DIMAPOST
  1

  9
$DIMALT
 70
     0
  9
$DIMALTD
 70
     2
  9
$DIMALTF
 40
25.399999999999999
  9
$DIMLFAC
 40
1.0
  9
$DIMTOFL
 70
     0
  9
$DIMTVP
 40
0.0
  9
$DIMTIX
 70
     0
  9
$DIMSOXD
 70
     0
  9
$DIMSAH
 70
     0
  9
$DIMBLK1
  1

  9
$DIMBLK2
  1

  9
$DIMSTYLE
  2
STANDARD
  9
$DIMCLRD
 70
     0
  9
$DIMCLRE
 70
     0
  9
$DIMCLRT
 70
     0
  9
$DIMTFAC
 40
1.0
  9
$DIMGAP
 40
0.09
  9
$LUNITS
 70
     2
  9
$LUPREC
 70
     4
  9
$SKETCHINC
 40
0.1
  9
$FILLETRAD
 40
0.0
  9
$AUNITS
 70
     0
  9
$AUPREC
 70
     0
  9
$MENU
  1
.
  9
$ELEVATION
 40
0.0
  9
$PELEVATION
 40
0.0
  9
$THICKNESS
 40
0.0
  9
$LIMCHECK
 70
     0
  9
$BLIPMODE
 70
     0
  9
$CHAMFERA
 40
0.0
  9
$CHAMFERB
 40
0.0
  9
$SKPOLY
 70
     0
  9
$TDCREATE
 40
2444972.375
  9
$TDUPDATE
 40
2455980.3562876158
  9
$TDINDWG
 40
0.0000111227
  9
$TDUSRTIMER
 40
0.0000111227
  9
$USRTIMER
 70
     1
  9
$ANGBASE
 50
0.0
  9
$ANGDIR
 70
     0
  9
$PDMODE
 70
     0
  9
$PDSIZE
 40
0.0
  9
$PLINEWID
 40
0.0
  9
$COORDS
 70
     1
  9
$SPLFRAME
 70
     0
  9
$SPLINETYPE
 70
     6
  9
$SPLINESEGS
 70
     8
  9
$ATTDIA
 70
     0
  9
$ATTREQ
 70
     1
  9
$HANDLING
 70
     1
  9
$HANDSEED
  5
43E
  9
$SURFTAB1
 70
     6
  9
$SURFTAB2
 70
     6
  9
$SURFTYPE
 70
     6
  9
$SURFU
 70
     6
  9
$SURFV
 70
     6
  9
$UCSNAME
  2

  9
$UCSORG
 10
0.0
 20
0.0
 30
0.0
  9
$UCSXDIR
 10
1.0
 20
0.0
 30
0.0
  9
$UCSYDIR
 10
0.0
 20
1.0
 30
0.0
  9
$PUCSNAME
  2

  9
$PUCSORG
 10
0.0
 20
0.0
 30
0.0
  9
$PUCSXDIR
 10
1.0
 20
0.0
 30
0.0
  9
$PUCSYDIR
 10
0.0
 20
1.0
 30
0.0
  9
$USERI1
 70
     0
  9
$USERI2
 70
     0
  9
$USERI3
 70
     0
  9
$USERI4
 70
     0
  9
$USERI5
 70
     0
  9
$USERR1
 40
0.0
  9
$USERR2
 40
0.0
  9
$USERR3
 40
0.0
  9
$USERR4
 40
0.0
  9
$USERR5
 40
0.0
  9
$WORLDVIEW
 70
     1
  9
$SHADEDGE
 70
     3
  9
$SHADEDIF
 70
    70
  9
$TILEMODE
 70
     1
  9
$MAXACTVP
 70
    48
  9
$PLIMCHECK
 70
     0
  9
$PEXTMIN
 10
1.0000000000000000E+020
 20
1.0000000000000000E+020
 30
1.0000000000000000E+020
  9
$PEXTMAX
 10
-1.0000000000000000E+020
 20
-1.0000000000000000E+020
 30
-1.0000000000000000E+020
  9
$PLIMMIN
 10
0.0
 20
0.0
  9
$PLIMMAX
 10
12.0
 20
9.0
  9
$UNITMODE
 70
     0
  9
$VISRETAIN
 70
     1
  9
$PLINEGEN
 70
     0
  9
$PSLTSCALE
 70
     1
  0
ENDSEC
  0
SECTION
  2
TABLES
  0
TABLE
  2
VPORT
 70
     2
  0
VPORT
  2
*ACTIVE
 70
     0
 10
0.0
 20
0.0
 11
1.0
 21
1.0
 12
210.01058136432829
 22
148.50082774399999
 13
0.0
 23
0.0
 14
1.0
 24
1.0
 15
0.0
 25
0.0
 16
0.0
 26
0.0
 36
1.0
 17
0.0
 27
0.0
 37
0.0
 40
299.24669472241823
 41
2.2894736842105261
 42
50.0
 43
0.0
 44
0.0
 50
0.0
 51
0.0
 71
     0
 72
   100
 73
     1
 74
     1
 75
     0
 76
     0
 77
     0
 78
     0
  0
ENDTAB
  0
TABLE
  2
LTYPE
 70
     2
  0
LTYPE
  2
CONTINUOUS
 70
     0
  3
Solid line
 72
    65
 73
     0
 40
0.0
  0
LTYPE
  2
AIGENLINE001
 70
     0
  3
generate AI->DXF Converter
 72
    65
 73
     4
 40
5.8561449999999988
 49
3.5278
 49
-0.776115
 49
0.776115
 49
-0.776115
  0
ENDTAB
  0
TABLE
  2
LAYER
 70
     2
  0
LAYER
  2
0
 70
     0
 62
     7
  6
CONTINUOUS
  0
LAYER
  2
_________2
 70
     0
 62
     7
  6
CONTINUOUS
  0
ENDTAB
  0
TABLE
  2
STYLE
 70
     1
  0
STYLE
  2
STANDARD
 70
     0
 40
0.0
 41
0.0
 50
0.0
 71
     0
 42
0.0
  3
TXT
  4
EXTFONT.SHX
  0
ENDTAB
  0
TABLE
  2
VIEW
 70
     0
  0
ENDTAB
  0
TABLE
  2
UCS
 70
     0
  0
ENDTAB
  0
TABLE
  2
APPID
 70
     1
  0
APPID
  2
ACAD
 70
     0
  0
ENDTAB
  0
TABLE
  2
DIMSTYLE
 70
     1
  0
DIMSTYLE
  2
STANDARD
 70
     0
  3

  4

  5

  6

  7

 40
1.0
 41
0.18
 42
0.0625
 43
0.38
 44
0.18
 45
0.0
 46
0.0
 47
0.0
 48
0.0
140
0.18
141
0.09
142
0.0
143
25.399999999999999
144
1.0
145
0.0
146
1.0
147
0.09
 71
     0
 72
     0
 73
     1
 74
     1
 75
     0
 76
     0
 77
     0
 78
     0
170
     0
171
     2
172
     0
173
     0
174
     0
175
     0
176
     0
177
     0
178
     0
  0
ENDTAB
  0
ENDSEC
  0
SECTION
  2
BLOCKS
  0
BLOCK
  8
0
  2
$MODEL_SPACE
 70
     0
 10
0.0
 20
0.0
 30
0.0
  3
$MODEL_SPACE
  1

  0
ENDBLK
  5
1A
  8
0
  0
BLOCK
 67
     1
  8
0
  2
$PAPER_SPACE
 70
     0
 10
0.0
 20
0.0
 30
0.0
  3
$PAPER_SPACE
  1

  0
ENDBLK
  5
17
 67
     1
  8
0
  0
ENDSEC
  0
SECTION
  2
ENTITIES
  0
TEXT
  5
22
  8
0
 62
     7
 10
103.23887999999999
 20
160.8179999999999
 30
0.0
 40
3.0923400000000001
  1
%%c44
 41
0.5
 72
     2
 11
107.36199999999999
 21
160.8179999999999
 31
0.0
  0
TEXT
  5
23
  8
0
 62
     7
 10
78.114580000000004
 20
158.1039999999999
 30
0.0
 40
3.0923400000000001
  1
%%c55
 41
0.5
 72
     2
 11
82.237700000000004
 21
158.1039999999999
 31
0.0
  0
TEXT
  5
24
  8
0
 62
     7
 10
79.700699999999983
 20
71.401110000000003
 30
0.0
 40
3.0923400000000001
  1
A
 50
90.0
 41
0.5
 72
     1
 11
79.700699999999983
 21
71.916499999999999
 31
0.0
  0
TEXT
  5
25
  8
0
 62
     7
 10
79.700699999999983
 20
180.6006099999999
 30
0.0
 40
3.0923400000000001
  1
A
 50
90.0
 41
0.5
 72
     1
 11
79.700699999999983
 21
181.1159999999999
 31
0.0
  0
TEXT
  5
26
  8
0
 62
     7
 10
177.73699999999991
 20
127.6074399999999
 30
0.0
 40
3.0923400000000001
  1
A-A
 50
90.0
 41
0.5
 72
     1
 11
177.73699999999991
 21
129.6689999999999
 31
0.0
  0
LINE
  5
27
  8
0
 62
     7
 10
100.94799999999989
 20
160.11799999999999
 30
0.0
 11
107.36199999999999
 21
160.11799999999999
 31
0.0
  0
LINE
  5
28
  8
0
 62
     7
 10
90.974500000000006
 20
169.25399999999999
 30
0.0
 11
92.957499999999996
 21
168.10900000000001
 31
0.0
  0
LINE
  5
29
  8
0
 62
     7
 10
92.957499999999996
 20
168.10900000000001
 30
0.0
 11
91.812399999999997
 21
170.09200000000001
 31
0.0
  0
LINE
  5
2A
  8
0
 62
     7
 10
91.812399999999997
 20
170.09200000000001
 30
0.0
 11
90.974500000000006
 21
169.25399999999999
 31
0.0
  0
LINE
  5
2B
  8
0
 62
     7
 10
97.674599999999984
 20
164.22900000000001
 30
0.0
 11
95.691599999999994
 21
165.374
 31
0.0
  0
LINE
  5
2C
  8
0
 62
     7
 10
95.691599999999994
 20
165.374
 30
0.0
 11
96.835999999999999
 21
163.39099999999999
 31
0.0
  0
LINE
  5
2D
  8
0
 62
     7
 10
96.835999999999999
 20
163.39099999999999
 30
0.0
 11
97.674599999999984
 21
164.22900000000001
 31
0.0
  0
LINE
  5
2E
  8
0
 62
     7
 10
100.94799999999989
 20
160.11799999999999
 30
0.0
 11
89.987499999999983
 21
171.07900000000001
 31
0.0
  0
LINE
  5
2F
  8
0
  6
AIGENLINE001
 62
     7
 10
96.616900000000001
 20
167.06700000000001
 30
0.0
 11
90.590000000000003
 21
167.06700000000001
 31
0.0
  0
LINE
  5
30
  8
0
 62
     7
 10
164.04199999999989
 20
245.34599999999989
 30
0.0
 11
164.04199999999989
 21
247.01300000000001
 31
0.0
  0
LINE
  5
31
  8
0
 62
     7
 10
164.14299999999989
 20
245.34599999999989
 30
0.0
 11
164.04199999999989
 21
245.34599999999989
 31
0.0
  0
LINE
  5
32
  8
0
 62
     7
 10
164.14299999999989
 20
247.01300000000001
 30
0.0
 11
164.04199999999989
 21
247.01300000000001
 31
0.0
  0
LINE
  5
33
  8
0
 62
     7
 10
164.47499999999991
 20
247.696
 30
0.0
 11
164.47499999999991
 21
244.53
 31
0.0
  0
LINE
  5
34
  8
0
 62
     7
 10
164.47499999999991
 20
246.179
 30
0.0
 11
164.47499999999991
 21
247.83000000000001
 31
0.0
  0
LINE
  5
35
  8
0
 62
     7
 10
164.14299999999989
 20
244.7299999999999
 30
0.0
 11
164.14299999999989
 21
247.63
 31
0.0
  0
LINE
  5
36
  8
0
 62
     7
 10
164.74199999999999
 20
247.696
 30
0.0
 11
164.74199999999999
 21
244.6629999999999
 31
0.0
  0
ARC
  5
37
  8
0
 62
     7
 10
163.88722899999991
 20
246.58274299999999
 30
0.0
 40
0.176008
 50
129.46270699999991
 51
215.34800799999999
  0
ARC
  5
38
  8
0
 62
     7
 10
163.88263900000001
 20
246.58669499999999
 30
0.0
 40
0.17465
 50
217.27715499999991
 51
232.10346699999999
  0
ARC
  5
39
  8
0
 62
     7
 10
163.886438
 20
245.774427
 30
0.0
 40
0.17531
 50
129.3155919999999
 51
215.47333499999991
  0
ARC
  5
3A
  8
0
 62
     7
 10
163.88263900000001
 20
245.77847099999991
 30
0.0
 40
0.17465
 50
217.27715499999991
 51
232.10346699999999
  0
LINE
  5
3B
  8
0
 62
     7
 10
163.709
 20
245.86500000000001
 30
0.0
 11
163.709
 21
245.7759999999999
 31
0.0
  0
ARC
  5
3C
  8
0
 62
     7
 10
164.2451879999999
 20
246.1794669999999
 30
0.0
 40
0.541587
 50
150.16907499999991
 51
209.83092500000001
  0
LINE
  5
3D
  8
0
 62
     7
 10
163.709
 20
246.584
 30
0.0
 11
163.709
 21
245.7759999999999
 31
0.0
  0
LINE
  5
3E
  8
0
 62
     7
 10
164.04199999999989
 20
245.64099999999991
 30
0.0
 11
163.77500000000001
 21
245.64099999999991
 31
0.0
  0
LINE
  5
3F
  8
0
 62
     7
 10
164.04199999999989
 20
246.71899999999999
 30
0.0
 11
163.77500000000001
 21
246.71899999999999
 31
0.0
  0
LINE
  5
40
  8
0
 62
     7
 10
164.04199999999989
 20
245.90999999999991
 30
0.0
 11
163.77500000000001
 21
245.90999999999991
 31
0.0
  0
LINE
  5
41
  8
0
 62
     7
 10
164.04199999999989
 20
246.44900000000001
 30
0.0
 11
163.77500000000001
 21
246.44900000000001
 31
0.0
  0
LINE
  5
42
  8
0
 62
     7
 10
163.61600000000001
 20
246.58000000000001
 30
0.0
 11
163.61600000000001
 21
245.78
 31
0.0
  0
LINE
  5
43
  8
0
 62
     7
 10
163.61600000000001
 20
245.84599999999989
 30
0.0
 11
160.887
 21
245.84599999999989
 31
0.0
  0
LINE
  5
44
  8
0
 62
     7
 10
163.61600000000001
 20
246.51300000000001
 30
0.0
 11
160.887
 21
246.51300000000001
 31
0.0
  0
LINE
  5
45
  8
0
 62
     7
 10
163.61600000000001
 20
246.58000000000001
 30
0.0
 11
160.88800000000001
 21
246.58000000000001
 31
0.0
  0
LINE
  5
46
  8
0
 62
     7
 10
163.61600000000001
 20
245.78
 30
0.0
 11
160.88800000000001
 21
245.78
 31
0.0
  0
LINE
  5
47
  8
0
 62
     7
 10
163.709
 20
245.81299999999999
 30
0.0
 11
163.61600000000001
 21
245.81299999999999
 31
0.0
  0
LINE
  5
48
  8
0
 62
     7
 10
163.709
 20
246.54599999999991
 30
0.0
 11
163.61600000000001
 21
246.54599999999991
 31
0.0
  0
ARC
  5
49
  8
0
 62
     7
 10
164.34990099999999
 20
247.62238999999991
 30
0.0
 40
0.207423
 50
92.064312999999999
 51
177.93565699999999
  0
LINE
  5
4A
  8
0
 62
     7
 10
164.74199999999999
 20
247.696
 30
0.0
 11
164.47499999999991
 21
247.696
 31
0.0
  0
LINE
  5
4B
  8
0
 62
     7
 10
164.47499999999991
 20
247.83000000000001
 30
0.0
 11
164.34200000000001
 21
247.83000000000001
 31
0.0
  0
LINE
  5
4C
  8
0
 62
     7
 10
164.74199999999999
 20
244.6629999999999
 30
0.0
 11
164.47499999999991
 21
244.6629999999999
 31
0.0
  0
LINE
  5
4D
  8
0
 62
     7
 10
164.47499999999991
 20
244.53
 30
0.0
 11
164.34200000000001
 21
244.53
 31
0.0
  0
ARC
  5
4E
  8
0
 62
     7
 10
164.350312
 20
244.7372859999999
 30
0.0
 40
0.207836
 50
182.074916
 51
267.826413
  0
LINE
  5
4F
  8
0
 62
     7
 10
164.04199999999989
 20
229.34599999999989
 30
0.0
 11
164.04199999999989
 21
231.01199999999989
 31
0.0
  0
LINE
  5
50
  8
0
 62
     7
 10
164.14299999999989
 20
229.34599999999989
 30
0.0
 11
164.04199999999989
 21
229.34599999999989
 31
0.0
  0
LINE
  5
51
  8
0
 62
     7
 10
164.14299999999989
 20
231.01199999999989
 30
0.0
 11
164.04199999999989
 21
231.01199999999989
 31
0.0
  0
LINE
  5
52
  8
0
 62
     7
 10
164.47499999999991
 20
231.69599999999991
 30
0.0
 11
164.47499999999991
 21
228.529
 31
0.0
  0
LINE
  5
53
  8
0
 62
     7
 10
164.47499999999991
 20
230.179
 30
0.0
 11
164.47499999999991
 21
231.82900000000001
 31
0.0
  0
LINE
  5
54
  8
0
 62
     7
 10
164.14299999999989
 20
228.72900000000001
 30
0.0
 11
164.14299999999989
 21
231.62899999999999
 31
0.0
  0
LINE
  5
55
  8
0
 62
     7
 10
164.74199999999999
 20
231.69599999999991
 30
0.0
 11
164.74199999999999
 21
228.66200000000001
 31
0.0
  0
ARC
  5
56
  8
0
 62
     7
 10
163.886438
 20
230.58214899999999
 30
0.0
 40
0.17531
 50
129.3155919999999
 51
215.47333499999991
  0
ARC
  5
57
  8
0
 62
     7
 10
163.88263900000001
 20
230.58619300000001
 30
0.0
 40
0.17465
 50
217.27715499999991
 51
232.10346699999999
  0
ARC
  5
58
  8
0
 62
     7
 10
163.886438
 20
229.77392399999999
 30
0.0
 40
0.17531
 50
129.3155919999999
 51
215.47333499999991
  0
ARC
  5
59
  8
0
 62
     7
 10
163.87554399999991
 20
229.77094999999991
 30
0.0
 40
0.164759
 50
216.82937000000001
 51
232.55125200000001
  0
LINE
  5
5A
  8
0
 62
     7
 10
163.709
 20
229.864
 30
0.0
 11
163.709
 21
229.77500000000001
 31
0.0
  0
ARC
  5
5B
  8
0
 62
     7
 10
164.2451879999999
 20
230.17896399999989
 30
0.0
 40
0.541587
 50
150.16907499999991
 51
209.83092500000001
  0
LINE
  5
5C
  8
0
 62
     7
 10
163.709
 20
230.58299999999991
 30
0.0
 11
163.709
 21
229.77500000000001
 31
0.0
  0
LINE
  5
5D
  8
0
 62
     7
 10
164.04199999999989
 20
229.6399999999999
 30
0.0
 11
163.77500000000001
 21
229.6399999999999
 31
0.0
  0
LINE
  5
5E
  8
0
 62
     7
 10
164.04199999999989
 20
230.7179999999999
 30
0.0
 11
163.77500000000001
 21
230.7179999999999
 31
0.0
  0
LINE
  5
5F
  8
0
 62
     7
 10
164.04199999999989
 20
229.91
 30
0.0
 11
163.77500000000001
 21
229.91
 31
0.0
  0
LINE
  5
60
  8
0
 62
     7
 10
164.04199999999989
 20
230.44799999999989
 30
0.0
 11
163.77500000000001
 21
230.44799999999989
 31
0.0
  0
LINE
  5
61
  8
0
 62
     7
 10
163.61600000000001
 20
230.57900000000001
 30
0.0
 11
163.61600000000001
 21
229.779
 31
0.0
  0
LINE
  5
62
  8
0
 62
     7
 10
163.61600000000001
 20
229.84499999999991
 30
0.0
 11
160.887
 21
229.84499999999991
 31
0.0
  0
LINE
  5
63
  8
0
 62
     7
 10
163.61600000000001
 20
230.512
 30
0.0
 11
160.887
 21
230.512
 31
0.0
  0
LINE
  5
64
  8
0
 62
     7
 10
163.61600000000001
 20
230.57900000000001
 30
0.0
 11
160.88800000000001
 21
230.57900000000001
 31
0.0
  0
LINE
  5
65
  8
0
 62
     7
 10
163.61600000000001
 20
229.779
 30
0.0
 11
160.88800000000001
 21
229.779
 31
0.0
  0
LINE
  5
66
  8
0
 62
     7
 10
163.709
 20
229.81200000000001
 30
0.0
 11
163.61600000000001
 21
229.81200000000001
 31
0.0
  0
LINE
  5
67
  8
0
 62
     7
 10
163.709
 20
230.54599999999999
 30
0.0
 11
163.61600000000001
 21
230.54599999999999
 31
0.0
  0
ARC
  5
68
  8
0
 62
     7
 10
164.34992500000001
 20
231.6218749999999
 30
0.0
 40
0.207436
 50
92.070936000000017
 51
178.02773500000001
  0
LINE
  5
69
  8
0
 62
     7
 10
164.74199999999999
 20
231.69599999999991
 30
0.0
 11
164.47499999999991
 21
231.69599999999991
 31
0.0
  0
LINE
  5
6A
  8
0
 62
     7
 10
164.47499999999991
 20
231.82900000000001
 30
0.0
 11
164.34200000000001
 21
231.82900000000001
 31
0.0
  0
LINE
  5
6B
  8
0
 62
     7
 10
164.74199999999999
 20
228.66200000000001
 30
0.0
 11
164.47499999999991
 21
228.66200000000001
 31
0.0
  0
LINE
  5
6C
  8
0
 62
     7
 10
164.47499999999991
 20
228.529
 30
0.0
 11
164.34200000000001
 21
228.529
 31
0.0
  0
ARC
  5
6D
  8
0
 62
     7
 10
164.350312
 20
228.73643899999999
 30
0.0
 40
0.207836
 50
182.074916
 51
267.826413
  0
LINE
  5
6E
  8
0
 62
     7
 10
164.04199999999989
 20
152.56399999999991
 30
0.0
 11
164.04199999999989
 21
154.22999999999999
 31
0.0
  0
LINE
  5
6F
  8
0
 62
     7
 10
164.142
 20
152.56399999999991
 30
0.0
 11
164.04199999999989
 21
152.56399999999991
 31
0.0
  0
LINE
  5
70
  8
0
 62
     7
 10
164.142
 20
154.22999999999999
 30
0.0
 11
164.04199999999989
 21
154.22999999999999
 31
0.0
  0
LINE
  5
71
  8
0
 62
     7
 10
164.47499999999991
 20
154.9139999999999
 30
0.0
 11
164.47499999999991
 21
151.74700000000001
 31
0.0
  0
LINE
  5
72
  8
0
 62
     7
 10
164.47499999999991
 20
153.39699999999999
 30
0.0
 11
164.47499999999991
 21
155.048
 31
0.0
  0
LINE
  5
73
  8
0
 62
     7
 10
164.142
 20
151.947
 30
0.0
 11
164.142
 21
154.84700000000001
 31
0.0
  0
LINE
  5
74
  8
0
 62
     7
 10
164.74199999999999
 20
154.9139999999999
 30
0.0
 11
164.74199999999999
 21
151.881
 31
0.0
  0
ARC
  5
75
  8
0
 62
     7
 10
163.88669999999991
 20
153.8002929999999
 30
0.0
 40
0.175618
 50
129.34413699999999
 51
215.46657799999991
  0
ARC
  5
76
  8
0
 62
     7
 10
163.86597800000001
 20
153.78900999999999
 30
0.0
 40
0.15222
 50
216.533399
 51
233.46663100000001
  0
ARC
  5
77
  8
0
 62
     7
 10
163.88775899999999
 20
152.991927
 30
0.0
 40
0.1764
 50
129.58090300000001
 51
215.22981200000001
  0
ARC
  5
78
  8
0
 62
     7
 10
163.86597800000001
 20
152.980785
 30
0.0
 40
0.15222
 50
216.533399
 51
233.46663100000001
  0
LINE
  5
79
  8
0
 62
     7
 10
163.709
 20
153.08199999999999
 30
0.0
 11
163.709
 21
152.99299999999999
 31
0.0
  0
ARC
  5
7A
  8
0
 62
     7
 10
164.246182
 20
153.39729099999991
 30
0.0
 40
0.542449
 50
150.22128599999999
 51
209.77871400000001
  0
LINE
  5
7B
  8
0
 62
     7
 10
163.709
 20
153.80099999999999
 30
0.0
 11
163.709
 21
152.99299999999999
 31
0.0
  0
LINE
  5
7C
  8
0
 62
     7
 10
164.04199999999989
 20
152.858
 30
0.0
 11
163.77500000000001
 21
152.858
 31
0.0
  0
LINE
  5
7D
  8
0
 62
     7
 10
164.04199999999989
 20
153.93600000000001
 30
0.0
 11
163.77500000000001
 21
153.93600000000001
 31
0.0
  0
LINE
  5
7E
  8
0
 62
     7
 10
164.04199999999989
 20
153.1279999999999
 30
0.0
 11
163.77500000000001
 21
153.1279999999999
 31
0.0
  0
LINE
  5
7F
  8
0
 62
     7
 10
164.04199999999989
 20
153.66699999999989
 30
0.0
 11
163.77500000000001
 21
153.66699999999989
 31
0.0
  0
LINE
  5
80
  8
0
 62
     7
 10
163.61600000000001
 20
153.797
 30
0.0
 11
163.61600000000001
 21
152.99700000000001
 31
0.0
  0
LINE
  5
81
  8
0
 62
     7
 10
163.61600000000001
 20
153.06399999999999
 30
0.0
 11
160.88599999999991
 21
153.06399999999999
 31
0.0
  0
LINE
  5
82
  8
0
 62
     7
 10
163.61600000000001
 20
153.73099999999991
 30
0.0
 11
160.88599999999991
 21
153.73099999999991
 31
0.0
  0
LINE
  5
83
  8
0
 62
     7
 10
163.61600000000001
 20
153.797
 30
0.0
 11
160.88800000000001
 21
153.797
 31
0.0
  0
LINE
  5
84
  8
0
 62
     7
 10
163.61600000000001
 20
152.99700000000001
 30
0.0
 11
160.88800000000001
 21
152.99700000000001
 31
0.0
  0
LINE
  5
85
  8
0
 62
     7
 10
163.709
 20
153.03100000000001
 30
0.0
 11
163.61600000000001
 21
153.03100000000001
 31
0.0
  0
LINE
  5
86
  8
0
 62
     7
 10
163.709
 20
153.76400000000001
 30
0.0
 11
163.61600000000001
 21
153.76400000000001
 31
0.0
  0
ARC
  5
87
  8
0
 62
     7
 10
164.349343
 20
154.84010699999999
 30
0.0
 40
0.207534
 50
92.099558999999999
 51
178.09764300000001
  0
LINE
  5
88
  8
0
 62
     7
 10
164.74199999999999
 20
154.9139999999999
 30
0.0
 11
164.47499999999991
 21
154.9139999999999
 31
0.0
  0
LINE
  5
89
  8
0
 62
     7
 10
164.47499999999991
 20
155.048
 30
0.0
 11
164.34200000000001
 21
155.048
 31
0.0
  0
LINE
  5
8A
  8
0
 62
     7
 10
164.74199999999999
 20
151.881
 30
0.0
 11
164.47499999999991
 21
151.881
 31
0.0
  0
LINE
  5
8B
  8
0
 62
     7
 10
164.47499999999991
 20
151.74700000000001
 30
0.0
 11
164.34200000000001
 21
151.74700000000001
 31
0.0
  0
ARC
  5
8C
  8
0
 62
     7
 10
164.3492939999999
 20
151.95445100000001
 30
0.0
 40
0.207509
 50
182.08635100000001
 51
267.913679
  0
LINE
  5
8D
  8
0
 62
     7
 10
164.04099999999991
 20
106.562
 30
0.0
 11
164.04099999999991
 21
108.2289999999999
 31
0.0
  0
LINE
  5
8E
  8
0
 62
     7
 10
164.14099999999999
 20
106.562
 30
0.0
 11
164.04099999999991
 21
106.562
 31
0.0
  0
LINE
  5
8F
  8
0
 62
     7
 10
164.14099999999999
 20
108.2289999999999
 30
0.0
 11
164.04099999999991
 21
108.2289999999999
 31
0.0
  0
LINE
  5
90
  8
0
 62
     7
 10
164.47399999999999
 20
108.91200000000001
 30
0.0
 11
164.47399999999999
 21
105.745
 31
0.0
  0
LINE
  5
91
  8
0
 62
     7
 10
164.47399999999999
 20
107.3949999999999
 30
0.0
 11
164.47399999999999
 21
109.04599999999991
 31
0.0
  0
LINE
  5
92
  8
0
 62
     7
 10
164.14099999999999
 20
105.946
 30
0.0
 11
164.14099999999999
 21
108.8459999999999
 31
0.0
  0
LINE
  5
93
  8
0
 62
     7
 10
164.7409999999999
 20
108.91200000000001
 30
0.0
 11
164.7409999999999
 21
105.87899999999991
 31
0.0
  0
ARC
  5
94
  8
0
 62
     7
 10
163.885322
 20
107.798331
 30
0.0
 40
0.175618
 50
129.34413699999999
 51
215.46657799999991
  0
ARC
  5
95
  8
0
 62
     7
 10
163.87959900000001
 20
107.8020479999999
 30
0.0
 40
0.17323
 50
217.56647099999989
 51
232.433559
  0
ARC
  5
96
  8
0
 62
     7
 10
163.885322
 20
106.99010699999999
 30
0.0
 40
0.175618
 50
129.34413699999999
 51
215.46657799999991
  0
ARC
  5
97
  8
0
 62
     7
 10
163.87959900000001
 20
106.99382299999991
 30
0.0
 40
0.17323
 50
217.56647099999989
 51
232.433559
  0
LINE
  5
98
  8
0
 62
     7
 10
163.708
 20
107.0799999999999
 30
0.0
 11
163.708
 21
106.9909999999999
 31
0.0
  0
ARC
  5
99
  8
0
 62
     7
 10
164.24480399999999
 20
107.39533
 30
0.0
 40
0.542449
 50
150.22128599999999
 51
209.77871400000001
  0
LINE
  5
9A
  8
0
 62
     7
 10
163.708
 20
107.8
 30
0.0
 11
163.708
 21
106.9909999999999
 31
0.0
  0
LINE
  5
9B
  8
0
 62
     7
 10
164.04099999999991
 20
106.857
 30
0.0
 11
163.77399999999989
 21
106.857
 31
0.0
  0
LINE
  5
9C
  8
0
 62
     7
 10
164.04099999999991
 20
107.9339999999999
 30
0.0
 11
163.77399999999989
 21
107.9339999999999
 31
0.0
  0
LINE
  5
9D
  8
0
 62
     7
 10
164.04099999999991
 20
107.126
 30
0.0
 11
163.77399999999989
 21
107.126
 31
0.0
  0
LINE
  5
9E
  8
0
 62
     7
 10
164.04099999999991
 20
107.66500000000001
 30
0.0
 11
163.77399999999989
 21
107.66500000000001
 31
0.0
  0
LINE
  5
9F
  8
0
 62
     7
 10
163.614
 20
107.79600000000001
 30
0.0
 11
163.614
 21
106.995
 31
0.0
  0
LINE
  5
A0
  8
0
 62
     7
 10
163.614
 20
107.062
 30
0.0
 11
160.88599999999991
 21
107.062
 31
0.0
  0
LINE
  5
A1
  8
0
 62
     7
 10
163.614
 20
107.729
 30
0.0
 11
160.88599999999991
 21
107.729
 31
0.0
  0
LINE
  5
A2
  8
0
 62
     7
 10
163.614
 20
107.79600000000001
 30
0.0
 11
160.887
 21
107.79600000000001
 31
0.0
  0
LINE
  5
A3
  8
0
 62
     7
 10
163.614
 20
106.995
 30
0.0
 11
160.887
 21
106.995
 31
0.0
  0
LINE
  5
A4
  8
0
 62
     7
 10
163.708
 20
107.0289999999999
 30
0.0
 11
163.614
 21
107.0289999999999
 31
0.0
  0
LINE
  5
A5
  8
0
 62
     7
 10
163.708
 20
107.762
 30
0.0
 11
163.614
 21
107.762
 31
0.0
  0
ARC
  5
A6
  8
0
 62
     7
 10
164.34860499999991
 20
108.83816899999999
 30
0.0
 40
0.207509
 50
92.086320999999998
 51
177.91364899999991
  0
LINE
  5
A7
  8
0
 62
     7
 10
164.7409999999999
 20
108.91200000000001
 30
0.0
 11
164.47399999999999
 21
108.91200000000001
 31
0.0
  0
LINE
  5
A8
  8
0
 62
     7
 10
164.47399999999999
 20
109.04599999999991
 30
0.0
 11
164.34099999999989
 21
109.04599999999991
 31
0.0
  0
LINE
  5
A9
  8
0
 62
     7
 10
164.7409999999999
 20
105.87899999999991
 30
0.0
 11
164.47399999999999
 21
105.87899999999991
 31
0.0
  0
LINE
  5
AA
  8
0
 62
     7
 10
164.47399999999999
 20
105.745
 30
0.0
 11
164.34099999999989
 21
105.745
 31
0.0
  0
ARC
  5
AB
  8
0
 62
     7
 10
164.349242
 20
105.95309899999999
 30
0.0
 40
0.208142
 50
182.058042
 51
267.744756
  0
ARC
  5
AC
  8
0
 62
     7
 10
62.25146500000001
 20
127.7990909999999
 30
0.0
 40
1.3510070000000001
 50
92.115552000000008
 51
177.8540459999999
  0
ARC
  5
AD
  8
0
 62
     7
 10
62.201592000000012
 20
127.84968000000001
 30
0.0
 40
1.3001869999999991
 50
179.99996999999991
 51
270.00002000000001
  0
ARC
  5
AE
  8
0
 62
     7
 10
62.201592000000012
 20
127.84968000000001
 30
0.0
 40
1.3001869999999991
 50
270.00002000000001
 51
359.99998999999991
  0
ARC
  5
AF
  8
0
 62
     7
 10
62.152372999999997
 20
127.7997449999999
 30
0.0
 40
1.35033
 50
2.1192429999999991
 51
87.911118000000016
  0
ARC
  5
B0
  8
0
 62
     7
 10
69.985081999999991
 20
127.7997889999999
 30
0.0
 40
1.3503099999999999
 50
92.117392000000024
 51
177.882578
  0
ARC
  5
B1
  8
0
 62
     7
 10
69.985773999999992
 20
127.8995469999999
 30
0.0
 40
1.351002
 50
182.11535900000001
 51
267.85429900000003
  0
ARC
  5
B2
  8
0
 62
     7
 10
69.935191000000003
 20
127.84968000000001
 30
0.0
 40
1.3001869999999991
 50
270.00002000000001
 51
359.99998999999991
  0
ARC
  5
B3
  8
0
 62
     7
 10
69.885971999999995
 20
127.7997449999999
 30
0.0
 40
1.35033
 50
2.1192429999999991
 51
87.911118000000016
  0
ARC
  5
B4
  8
0
 62
     7
 10
66.118263999999996
 20
127.7990909999999
 30
0.0
 40
1.3510070000000001
 50
92.115552000000008
 51
177.8540459999999
  0
ARC
  5
B5
  8
0
 62
     7
 10
66.068392000000003
 20
127.84968000000001
 30
0.0
 40
1.3001869999999991
 50
179.99996999999991
 51
270.00002000000001
  0
ARC
  5
B6
  8
0
 62
     7
 10
66.068392000000003
 20
127.84968000000001
 30
0.0
 40
1.3001869999999991
 50
270.00002000000001
 51
359.99998999999991
  0
ARC
  5
B7
  8
0
 62
     7
 10
66.019172999999995
 20
127.7997449999999
 30
0.0
 40
1.35033
 50
2.1192429999999991
 51
87.911118000000016
  0
ARC
  5
B8
  8
0
 62
     7
 10
81.586151999999984
 20
127.7990909999999
 30
0.0
 40
1.3510070000000001
 50
92.115552000000008
 51
177.8540459999999
  0
ARC
  5
B9
  8
0
 62
     7
 10
81.536279000000007
 20
127.84968000000001
 30
0.0
 40
1.3001869999999991
 50
179.99996999999991
 51
270.00002000000001
  0
ARC
  5
BA
  8
0
 62
     7
 10
81.536279000000007
 20
127.84968000000001
 30
0.0
 40
1.3001869999999991
 50
270.00002000000001
 51
359.99998999999991
  0
ARC
  5
BB
  8
0
 62
     7
 10
81.48706
 20
127.7997449999999
 30
0.0
 40
1.35033
 50
2.1192429999999991
 51
87.911118000000016
  0
ARC
  5
BC
  8
0
 62
     7
 10
77.719352000000001
 20
127.7990909999999
 30
0.0
 40
1.3510070000000001
 50
92.115552000000008
 51
177.8540459999999
  0
ARC
  5
BD
  8
0
 62
     7
 10
77.66947900000001
 20
127.84968000000001
 30
0.0
 40
1.3001869999999991
 50
179.99996999999991
 51
270.00002000000001
  0
ARC
  5
BE
  8
0
 62
     7
 10
77.619540000000001
 20
127.898904
 30
0.0
 40
1.3503350000000001
 50
272.11945900000001
 51
357.91092200000003
  0
ARC
  5
BF
  8
0
 62
     7
 10
77.619593999999992
 20
127.79979399999991
 30
0.0
 40
1.350306
 50
2.1172140000000002
 51
87.882777000000004
  0
ARC
  5
C0
  8
0
 62
     7
 10
73.851881000000006
 20
127.7997889999999
 30
0.0
 40
1.3503099999999999
 50
92.117392000000024
 51
177.882578
  0
ARC
  5
C1
  8
0
 62
     7
 10
73.852574000000004
 20
127.8995469999999
 30
0.0
 40
1.351002
 50
182.11535900000001
 51
267.85429900000003
  0
ARC
  5
C2
  8
0
 62
     7
 10
73.752084999999994
 20
127.899586
 30
0.0
 40
1.3510159999999991
 50
272.116983
 51
357.88302700000003
  0
ARC
  5
C3
  8
0
 62
     7
 10
73.752771999999993
 20
127.7997449999999
 30
0.0
 40
1.35033
 50
2.1192429999999991
 51
87.911118000000016
  0
ARC
  5
C4
  8
0
 62
     7
 10
62.201592000000012
 20
134.649652
 30
0.0
 40
1.3001869999999991
 50
90.0
 51
179.99996999999991
  0
ARC
  5
C5
  8
0
 62
     7
 10
62.201592000000012
 20
134.649652
 30
0.0
 40
1.3001869999999991
 50
179.99996999999991
 51
270.00002000000001
  0
ARC
  5
C6
  8
0
 62
     7
 10
62.201592000000012
 20
134.649652
 30
0.0
 40
1.3001869999999991
 50
270.00002000000001
 51
359.99998999999991
  0
ARC
  5
C7
  8
0
 62
     7
 10
62.201592000000012
 20
134.649652
 30
0.0
 40
1.3001869999999991
 50
0.00001
 51
89.999980000000008
  0
ARC
  5
C8
  8
0
 62
     7
 10
69.985129999999984
 20
134.60042899999991
 30
0.0
 40
1.3503350000000001
 50
92.119422000000014
 51
177.91091900000001
  0
ARC
  5
C9
  8
0
 62
     7
 10
69.985773999999992
 20
134.6995189999999
 30
0.0
 40
1.351002
 50
182.11535900000001
 51
267.85429900000003
  0
ARC
  5
CA
  8
0
 62
     7
 10
69.935191000000003
 20
134.649652
 30
0.0
 40
1.3001869999999991
 50
270.00002000000001
 51
359.99998999999991
  0
ARC
  5
CB
  8
0
 62
     7
 10
69.935191000000003
 20
134.649652
 30
0.0
 40
1.3001869999999991
 50
0.00001
 51
89.999980000000008
  0
ARC
  5
CC
  8
0
 62
     7
 10
66.068392000000003
 20
134.649652
 30
0.0
 40
1.3001869999999991
 50
90.0
 51
179.99996999999991
  0
ARC
  5
CD
  8
0
 62
     7
 10
66.068392000000003
 20
134.649652
 30
0.0
 40
1.3001869999999991
 50
179.99996999999991
 51
270.00002000000001
  0
ARC
  5
CE
  8
0
 62
     7
 10
66.068392000000003
 20
134.649652
 30
0.0
 40
1.3001869999999991
 50
270.00002000000001
 51
359.99998999999991
  0
ARC
  5
CF
  8
0
 62
     7
 10
66.068392000000003
 20
134.649652
 30
0.0
 40
1.3001869999999991
 50
0.00001
 51
89.999980000000008
  0
ARC
  5
D0
  8
0
 62
     7
 10
64.184912999999995
 20
131.19940099999999
 30
0.0
 40
1.351030999999999
 50
92.117564000000002
 51
177.88240699999989
  0
ARC
  5
D1
  8
0
 62
     7
 10
64.184211000000005
 20
131.29925499999999
 30
0.0
 40
1.3503289999999999
 50
182.11924599999989
 51
267.91115500000001
  0
ARC
  5
D2
  8
0
 62
     7
 10
64.085118999999992
 20
131.29991000000001
 30
0.0
 40
1.3510070000000001
 50
272.11557199999999
 51
357.85406599999988
  0
ARC
  5
D3
  8
0
 62
     7
 10
64.085086000000004
 20
131.1994149999999
 30
0.0
 40
1.3510159999999991
 50
2.1169729999999989
 51
87.883017000000009
  0
ARC
  5
D4
  8
0
 62
     7
 10
68.051713000000007
 20
131.19940099999999
 30
0.0
 40
1.351030999999999
 50
92.117564000000002
 51
177.88240699999989
  0
ARC
  5
D5
  8
0
 62
     7
 10
68.051009999999991
 20
131.29925499999999
 30
0.0
 40
1.3503289999999999
 50
182.11924599999989
 51
267.91115500000001
  0
ARC
  5
D6
  8
0
 62
     7
 10
67.951918999999975
 20
131.29991000000001
 30
0.0
 40
1.3510070000000001
 50
272.11557199999999
 51
357.85406599999988
  0
ARC
  5
D7
  8
0
 62
     7
 10
67.951885000000004
 20
131.1994149999999
 30
0.0
 40
1.3510159999999991
 50
2.1169729999999989
 51
87.883017000000009
  0
ARC
  5
D8
  8
0
 62
     7
 10
71.918530000000004
 20
131.200098
 30
0.0
 40
1.3503350000000001
 50
92.119422000000014
 51
177.91091900000001
  0
ARC
  5
D9
  8
0
 62
     7
 10
71.918475999999998
 20
131.29920699999991
 30
0.0
 40
1.350304999999999
 50
182.1172159999999
 51
267.88281399999988
  0
ARC
  5
DA
  8
0
 62
     7
 10
71.818718999999987
 20
131.29991000000001
 30
0.0
 40
1.3510070000000001
 50
272.11557199999999
 51
357.85406599999988
  0
ARC
  5
DB
  8
0
 62
     7
 10
71.818685000000002
 20
131.1994149999999
 30
0.0
 40
1.3510159999999991
 50
2.1169729999999989
 51
87.883017000000009
  0
ARC
  5
DC
  8
0
 62
     7
 10
81.536280000000005
 20
134.649652
 30
0.0
 40
1.3001869999999991
 50
90.0
 51
179.99996999999991
  0
ARC
  5
DD
  8
0
 62
     7
 10
81.536279000000007
 20
134.649652
 30
0.0
 40
1.3001869999999991
 50
179.99996999999991
 51
270.00002000000001
  0
ARC
  5
DE
  8
0
 62
     7
 10
81.536279000000007
 20
134.649652
 30
0.0
 40
1.3001869999999991
 50
270.00002000000001
 51
359.99998999999991
  0
ARC
  5
DF
  8
0
 62
     7
 10
81.536279000000007
 20
134.649652
 30
0.0
 40
1.3001869999999991
 50
0.00001
 51
89.999980000000008
  0
ARC
  5
E0
  8
0
 62
     7
 10
77.669480000000007
 20
134.649652
 30
0.0
 40
1.3001869999999991
 50
90.0
 51
179.99996999999991
  0
ARC
  5
E1
  8
0
 62
     7
 10
77.66947900000001
 20
134.649652
 30
0.0
 40
1.3001869999999991
 50
179.99996999999991
 51
270.00002000000001
  0
ARC
  5
E2
  8
0
 62
     7
 10
77.619540000000001
 20
134.69887600000001
 30
0.0
 40
1.3503350000000001
 50
272.11945900000001
 51
357.91092200000003
  0
ARC
  5
E3
  8
0
 62
     7
 10
77.618895999999992
 20
134.599785
 30
0.0
 40
1.351002
 50
2.1153559999999998
 51
87.854262000000006
  0
ARC
  5
E4
  8
0
 62
     7
 10
79.652799999999985
 20
131.19940099999999
 30
0.0
 40
1.351030999999999
 50
92.117564000000002
 51
177.88240699999989
  0
ARC
  5
E5
  8
0
 62
     7
 10
79.652097999999995
 20
131.29925499999999
 30
0.0
 40
1.3503289999999999
 50
182.11924599999989
 51
267.91115500000001
  0
ARC
  5
E6
  8
0
 62
     7
 10
79.553006999999994
 20
131.29991000000001
 30
0.0
 40
1.3510070000000001
 50
272.11557199999999
 51
357.85406599999988
  0
ARC
  5
E7
  8
0
 62
     7
 10
79.552972999999994
 20
131.1994149999999
 30
0.0
 40
1.3510159999999991
 50
2.1169729999999989
 51
87.883017000000009
  0
ARC
  5
E8
  8
0
 62
     7
 10
73.85193000000001
 20
134.60042899999991
 30
0.0
 40
1.3503350000000001
 50
92.119422000000014
 51
177.91091900000001
  0
ARC
  5
E9
  8
0
 62
     7
 10
73.852574000000004
 20
134.6995189999999
 30
0.0
 40
1.351002
 50
182.11535900000001
 51
267.85429900000003
  0
ARC
  5
EA
  8
0
 62
     7
 10
73.752084999999994
 20
134.69955799999991
 30
0.0
 40
1.3510159999999991
 50
272.116983
 51
357.88302700000003
  0
ARC
  5
EB
  8
0
 62
     7
 10
73.752075000000005
 20
134.59973600000001
 30
0.0
 40
1.3510260000000001
 50
2.1173850000000001
 51
87.882604999999984
  0
ARC
  5
EC
  8
0
 62
     7
 10
75.785985999999994
 20
131.1994159999999
 30
0.0
 40
1.351014999999999
 50
92.116945999999984
 51
177.88302400000001
  0
ARC
  5
ED
  8
0
 62
     7
 10
75.785297999999997
 20
131.29925499999999
 30
0.0
 40
1.3503289999999999
 50
182.11924599999989
 51
267.91115500000001
  0
ARC
  5
EE
  8
0
 62
     7
 10
75.686188999999999
 20
131.29921200000001
 30
0.0
 40
1.350311
 50
272.11743000000001
 51
357.8825799999999
  0
ARC
  5
EF
  8
0
 62
     7
 10
75.685507000000001
 20
131.19946399999989
 30
0.0
 40
1.3509919999999991
 50
2.114943999999999
 51
87.854673999999989
  0
ARC
  5
F0
  8
0
 62
     7
 10
62.201592000000012
 20
141.45031299999991
 30
0.0
 40
1.3001869999999991
 50
90.0
 51
179.99996999999991
  0
ARC
  5
F1
  8
0
 62
     7
 10
62.201592000000012
 20
141.45031299999991
 30
0.0
 40
1.3001869999999991
 50
179.99996999999991
 51
270.00002000000001
  0
ARC
  5
F2
  8
0
 62
     7
 10
62.201592000000012
 20
141.45031399999991
 30
0.0
 40
1.3001869999999991
 50
270.00002000000001
 51
359.99998999999991
  0
ARC
  5
F3
  8
0
 62
     7
 10
62.201592000000012
 20
141.45031299999991
 30
0.0
 40
1.3001869999999991
 50
0.00001
 51
89.999980000000008
  0
ARC
  5
F4
  8
0
 62
     7
 10
69.985129999999984
 20
141.4010899999999
 30
0.0
 40
1.3503350000000001
 50
92.119422000000014
 51
177.91091900000001
  0
ARC
  5
F5
  8
0
 62
     7
 10
69.985773999999992
 20
141.50018099999991
 30
0.0
 40
1.351002
 50
182.11535900000001
 51
267.85429900000003
  0
ARC
  5
F6
  8
0
 62
     7
 10
69.935191000000003
 20
141.45031399999991
 30
0.0
 40
1.3001869999999991
 50
270.00002000000001
 51
359.99998999999991
  0
ARC
  5
F7
  8
0
 62
     7
 10
69.935191000000003
 20
141.45031299999991
 30
0.0
 40
1.3001869999999991
 50
0.00001
 51
89.999980000000008
  0
ARC
  5
F8
  8
0
 62
     7
 10
66.068392000000003
 20
141.45031299999991
 30
0.0
 40
1.3001869999999991
 50
90.0
 51
179.99996999999991
  0
ARC
  5
F9
  8
0
 62
     7
 10
66.068392000000003
 20
141.45031299999991
 30
0.0
 40
1.3001869999999991
 50
179.99996999999991
 51
270.00002000000001
  0
ARC
  5
FA
  8
0
 62
     7
 10
66.068392000000003
 20
141.45031399999991
 30
0.0
 40
1.3001869999999991
 50
270.00002000000001
 51
359.99998999999991
  0
ARC
  5
FB
  8
0
 62
     7
 10
66.068392000000003
 20
141.45031299999991
 30
0.0
 40
1.3001869999999991
 50
0.00001
 51
89.999980000000008
  0
ARC
  5
FC
  8
0
 62
     7
 10
64.134992000000011
 20
138.04998299999991
 30
0.0
 40
1.3001869999999991
 50
90.0
 51
179.99996999999991
  0
ARC
  5
FD
  8
0
 62
     7
 10
64.134992000000011
 20
138.04998299999991
 30
0.0
 40
1.3001869999999991
 50
179.99996999999991
 51
270.00002000000001
  0
ARC
  5
FE
  8
0
 62
     7
 10
64.134992000000011
 20
138.04998299999991
 30
0.0
 40
1.3001869999999991
 50
270.00002000000001
 51
359.99998999999991
  0
ARC
  5
FF
  8
0
 62
     7
 10
64.134992000000011
 20
138.04998299999991
 30
0.0
 40
1.3001869999999991
 50
0.00001
 51
89.999980000000008
  0
ARC
  5
100
  8
0
 62
     7
 10
68.001792000000009
 20
138.04998299999991
 30
0.0
 40
1.3001869999999991
 50
90.0
 51
179.99996999999991
  0
ARC
  5
101
  8
0
 62
     7
 10
68.001790999999997
 20
138.04998299999991
 30
0.0
 40
1.3001869999999991
 50
179.99996999999991
 51
270.00002000000001
  0
ARC
  5
102
  8
0
 62
     7
 10
68.001790999999997
 20
138.04998299999991
 30
0.0
 40
1.3001869999999991
 50
270.00002000000001
 51
359.99998999999991
  0
ARC
  5
103
  8
0
 62
     7
 10
68.001790999999997
 20
138.04998299999991
 30
0.0
 40
1.3001869999999991
 50
0.00001
 51
89.999980000000008
  0
ARC
  5
104
  8
0
 62
     7
 10
71.918530000000004
 20
138.00075899999999
 30
0.0
 40
1.3503350000000001
 50
92.119422000000014
 51
177.91091900000001
  0
ARC
  5
105
  8
0
 62
     7
 10
71.919173999999998
 20
138.09985
 30
0.0
 40
1.351002
 50
182.11535900000001
 51
267.85429900000003
  0
ARC
  5
106
  8
0
 62
     7
 10
71.868591000000009
 20
138.04998299999991
 30
0.0
 40
1.3001869999999991
 50
270.00002000000001
 51
359.99998999999991
  0
ARC
  5
107
  8
0
 62
     7
 10
71.868591000000009
 20
138.04998299999991
 30
0.0
 40
1.3001869999999991
 50
0.00001
 51
89.999980000000008
  0
ARC
  5
108
  8
0
 62
     7
 10
81.536280000000005
 20
141.45031299999991
 30
0.0
 40
1.3001869999999991
 50
90.0
 51
179.99996999999991
  0
ARC
  5
109
  8
0
 62
     7
 10
81.536279000000007
 20
141.45031299999991
 30
0.0
 40
1.3001869999999991
 50
179.99996999999991
 51
270.00002000000001
  0
ARC
  5
10A
  8
0
 62
     7
 10
81.536279000000007
 20
141.45031399999991
 30
0.0
 40
1.3001869999999991
 50
270.00002000000001
 51
359.99998999999991
  0
ARC
  5
10B
  8
0
 62
     7
 10
81.536279000000007
 20
141.45031299999991
 30
0.0
 40
1.3001869999999991
 50
0.00001
 51
89.999980000000008
  0
ARC
  5
10C
  8
0
 62
     7
 10
77.669480000000007
 20
141.45031299999991
 30
0.0
 40
1.3001869999999991
 50
90.0
 51
179.99996999999991
  0
ARC
  5
10D
  8
0
 62
     7
 10
77.66947900000001
 20
141.45031299999991
 30
0.0
 40
1.3001869999999991
 50
179.99996999999991
 51
270.00002000000001
  0
ARC
  5
10E
  8
0
 62
     7
 10
77.619540000000001
 20
141.499538
 30
0.0
 40
1.3503350000000001
 50
272.11945900000001
 51
357.91092200000003
  0
ARC
  5
10F
  8
0
 62
     7
 10
77.618895999999992
 20
141.4004459999999
 30
0.0
 40
1.351002
 50
2.1153559999999998
 51
87.854262000000006
  0
ARC
  5
110
  8
0
 62
     7
 10
79.602879999999999
 20
138.04998299999991
 30
0.0
 40
1.3001869999999991
 50
90.0
 51
179.99996999999991
  0
ARC
  5
111
  8
0
 62
     7
 10
79.602879000000001
 20
138.04998299999991
 30
0.0
 40
1.3001869999999991
 50
179.99996999999991
 51
270.00002000000001
  0
ARC
  5
112
  8
0
 62
     7
 10
79.602879000000001
 20
138.04998299999991
 30
0.0
 40
1.3001869999999991
 50
270.00002000000001
 51
359.99998999999991
  0
ARC
  5
113
  8
0
 62
     7
 10
79.602879000000001
 20
138.04998299999991
 30
0.0
 40
1.3001869999999991
 50
0.00001
 51
89.999980000000008
  0
ARC
  5
114
  8
0
 62
     7
 10
73.85193000000001
 20
141.4010899999999
 30
0.0
 40
1.3503350000000001
 50
92.119422000000014
 51
177.91091900000001
  0
ARC
  5
115
  8
0
 62
     7
 10
73.852574000000004
 20
141.50018099999991
 30
0.0
 40
1.351002
 50
182.11535900000001
 51
267.85429900000003
  0
ARC
  5
116
  8
0
 62
     7
 10
73.752084999999994
 20
141.5002199999999
 30
0.0
 40
1.3510159999999991
 50
272.116983
 51
357.88302700000003
  0
ARC
  5
117
  8
0
 62
     7
 10
73.752075000000005
 20
141.40039699999991
 30
0.0
 40
1.3510260000000001
 50
2.1173850000000001
 51
87.882604999999984
  0
ARC
  5
118
  8
0
 62
     7
 10
75.785985999999994
 20
138.000077
 30
0.0
 40
1.351014999999999
 50
92.116945999999984
 51
177.88302400000001
  0
ARC
  5
119
  8
0
 62
     7
 10
75.785995999999997
 20
138.09989899999991
 30
0.0
 40
1.3510260000000001
 50
182.11738699999989
 51
267.88264199999992
  0
ARC
  5
11A
  8
0
 62
     7
 10
75.686141000000006
 20
138.09920700000001
 30
0.0
 40
1.3503350000000001
 50
272.11945900000001
 51
357.91092200000003
  0
ARC
  5
11B
  8
0
 62
     7
 10
75.685496999999998
 20
138.00011499999999
 30
0.0
 40
1.351002
 50
2.1153559999999998
 51
87.854262000000006
  0
ARC
  5
11C
  8
0
 62
     7
 10
62.201592000000012
 20
148.25028599999999
 30
0.0
 40
1.3001869999999991
 50
90.0
 51
179.99996999999991
  0
ARC
  5
11D
  8
0
 62
     7
 10
62.250810999999999
 20
148.30022
 30
0.0
 40
1.3503289999999999
 50
182.11924599999989
 51
267.91115500000001
  0
ARC
  5
11E
  8
0
 62
     7
 10
62.15171999999999
 20
148.30087399999999
 30
0.0
 40
1.3510070000000001
 50
272.11557199999999
 51
357.85406599999988
  0
ARC
  5
11F
  8
0
 62
     7
 10
62.201592000000012
 20
148.25028599999999
 30
0.0
 40
1.3001869999999991
 50
0.00001
 51
89.999980000000008
  0
ARC
  5
120
  8
0
 62
     7
 10
69.985129999999984
 20
148.20106200000001
 30
0.0
 40
1.3503350000000001
 50
92.119422000000014
 51
177.91091900000001
  0
ARC
  5
121
  8
0
 62
     7
 10
69.985077000000004
 20
148.30017100000001
 30
0.0
 40
1.350304999999999
 50
182.1172159999999
 51
267.88281399999988
  0
ARC
  5
122
  8
0
 62
     7
 10
69.885318999999996
 20
148.30087399999999
 30
0.0
 40
1.3510070000000001
 50
272.11557199999999
 51
357.85406599999988
  0
ARC
  5
123
  8
0
 62
     7
 10
69.885284999999996
 20
148.20038
 30
0.0
 40
1.3510159999999991
 50
2.1169729999999989
 51
87.883017000000009
  0
ARC
  5
124
  8
0
 62
     7
 10
66.118313000000001
 20
148.20036499999989
 30
0.0
 40
1.351030999999999
 50
92.117564000000002
 51
177.88240699999989
  0
ARC
  5
125
  8
0
 62
     7
 10
66.117609999999999
 20
148.30022
 30
0.0
 40
1.3503289999999999
 50
182.11924599999989
 51
267.91115500000001
  0
ARC
  5
126
  8
0
 62
     7
 10
66.018518999999984
 20
148.30087399999999
 30
0.0
 40
1.3510070000000001
 50
272.11557199999999
 51
357.85406599999988
  0
ARC
  5
127
  8
0
 62
     7
 10
66.018485999999996
 20
148.20038
 30
0.0
 40
1.3510159999999991
 50
2.1169729999999989
 51
87.883017000000009
  0
ARC
  5
128
  8
0
 62
     7
 10
64.184865000000002
 20
144.80005600000001
 30
0.0
 40
1.3510070000000001
 50
92.115552000000008
 51
177.8540459999999
  0
ARC
  5
129
  8
0
 62
     7
 10
64.134992000000011
 20
144.8506439999999
 30
0.0
 40
1.3001869999999991
 50
179.99996999999991
 51
270.00002000000001
  0
ARC
  5
12A
  8
0
 62
     7
 10
64.134992000000011
 20
144.8506449999999
 30
0.0
 40
1.3001869999999991
 50
270.00002000000001
 51
359.99998999999991
  0
ARC
  5
12B
  8
0
 62
     7
 10
64.085773000000003
 20
144.80071000000001
 30
0.0
 40
1.35033
 50
2.1192429999999991
 51
87.911118000000016
  0
ARC
  5
12C
  8
0
 62
     7
 10
68.051664000000002
 20
144.80005600000001
 30
0.0
 40
1.3510070000000001
 50
92.115552000000008
 51
177.8540459999999
  0
ARC
  5
12D
  8
0
 62
     7
 10
68.001790999999997
 20
144.8506439999999
 30
0.0
 40
1.3001869999999991
 50
179.99996999999991
 51
270.00002000000001
  0
ARC
  5
12E
  8
0
 62
     7
 10
68.001790999999997
 20
144.8506449999999
 30
0.0
 40
1.3001869999999991
 50
270.00002000000001
 51
359.99998999999991
  0
ARC
  5
12F
  8
0
 62
     7
 10
67.952573000000001
 20
144.80071000000001
 30
0.0
 40
1.35033
 50
2.1192429999999991
 51
87.911118000000016
  0
ARC
  5
130
  8
0
 62
     7
 10
71.918481
 20
144.80075400000001
 30
0.0
 40
1.3503099999999999
 50
92.117392000000024
 51
177.882578
  0
ARC
  5
131
  8
0
 62
     7
 10
71.919173999999998
 20
144.90051199999999
 30
0.0
 40
1.351002
 50
182.11535900000001
 51
267.85429900000003
  0
ARC
  5
132
  8
0
 62
     7
 10
71.868591000000009
 20
144.8506449999999
 30
0.0
 40
1.3001869999999991
 50
270.00002000000001
 51
359.99998999999991
  0
ARC
  5
133
  8
0
 62
     7
 10
71.819372000000001
 20
144.80071000000001
 30
0.0
 40
1.35033
 50
2.1192429999999991
 51
87.911118000000016
  0
ARC
  5
134
  8
0
 62
     7
 10
81.586200000000005
 20
148.20036499999989
 30
0.0
 40
1.351030999999999
 50
92.117564000000002
 51
177.88240699999989
  0
ARC
  5
135
  8
0
 62
     7
 10
81.585498000000015
 20
148.30022
 30
0.0
 40
1.3503289999999999
 50
182.11924599999989
 51
267.91115500000001
  0
ARC
  5
136
  8
0
 62
     7
 10
81.486406999999986
 20
148.30087399999999
 30
0.0
 40
1.3510070000000001
 50
272.11557199999999
 51
357.85406599999988
  0
ARC
  5
137
  8
0
 62
     7
 10
81.486373
 20
148.20038
 30
0.0
 40
1.3510159999999991
 50
2.1169729999999989
 51
87.883017000000009
  0
ARC
  5
138
  8
0
 62
     7
 10
77.719401000000005
 20
148.20036499999989
 30
0.0
 40
1.351030999999999
 50
92.117564000000002
 51
177.88240699999989
  0
ARC
  5
139
  8
0
 62
     7
 10
77.718698000000003
 20
148.30022
 30
0.0
 40
1.3503289999999999
 50
182.11924599999989
 51
267.91115500000001
  0
ARC
  5
13A
  8
0
 62
     7
 10
77.619589000000005
 20
148.30017699999991
 30
0.0
 40
1.350311
 50
272.11743000000001
 51
357.8825799999999
  0
ARC
  5
13B
  8
0
 62
     7
 10
77.618906999999993
 20
148.20042900000001
 30
0.0
 40
1.3509919999999991
 50
2.114943999999999
 51
87.854673999999989
  0
ARC
  5
13C
  8
0
 62
     7
 10
79.652752000000007
 20
144.80005600000001
 30
0.0
 40
1.3510070000000001
 50
92.115552000000008
 51
177.8540459999999
  0
ARC
  5
13D
  8
0
 62
     7
 10
79.602879000000001
 20
144.8506439999999
 30
0.0
 40
1.3001869999999991
 50
179.99996999999991
 51
270.00002000000001
  0
ARC
  5
13E
  8
0
 62
     7
 10
79.602879000000001
 20
144.8506449999999
 30
0.0
 40
1.3001869999999991
 50
270.00002000000001
 51
359.99998999999991
  0
ARC
  5
13F
  8
0
 62
     7
 10
79.553661000000005
 20
144.80071000000001
 30
0.0
 40
1.35033
 50
2.1192429999999991
 51
87.911118000000016
  0
ARC
  5
140
  8
0
 62
     7
 10
73.85193000000001
 20
148.20106200000001
 30
0.0
 40
1.3503350000000001
 50
92.119422000000014
 51
177.91091900000001
  0
ARC
  5
141
  8
0
 62
     7
 10
73.851876000000004
 20
148.30017100000001
 30
0.0
 40
1.350304999999999
 50
182.1172159999999
 51
267.88281399999988
  0
ARC
  5
142
  8
0
 62
     7
 10
73.752133999999984
 20
148.300859
 30
0.0
 40
1.3509919999999991
 50
272.11495400000001
 51
357.85468399999991
  0
ARC
  5
143
  8
0
 62
     7
 10
73.752084999999994
 20
148.20038
 30
0.0
 40
1.3510159999999991
 50
2.1169729999999989
 51
87.883017000000009
  0
ARC
  5
144
  8
0
 62
     7
 10
75.785937000000004
 20
144.800071
 30
0.0
 40
1.3509919999999991
 50
92.114933999999977
 51
177.85466400000001
  0
ARC
  5
145
  8
0
 62
     7
 10
75.785995999999997
 20
144.90056000000001
 30
0.0
 40
1.3510260000000001
 50
182.11738699999989
 51
267.88264199999992
  0
ARC
  5
146
  8
0
 62
     7
 10
75.686141000000006
 20
144.899868
 30
0.0
 40
1.3503350000000001
 50
272.11945900000001
 51
357.91092200000003
  0
ARC
  5
147
  8
0
 62
     7
 10
75.686194
 20
144.800759
 30
0.0
 40
1.350306
 50
2.1172140000000002
 51
87.882777000000004
  0
ARC
  5
148
  8
0
 62
     7
 10
62.201592000000012
 20
155.05094700000001
 30
0.0
 40
1.3001869999999991
 50
90.0
 51
179.99996999999991
  0
ARC
  5
149
  8
0
 62
     7
 10
62.201592000000012
 20
155.05094700000001
 30
0.0
 40
1.3001869999999991
 50
179.99996999999991
 51
270.00002000000001
  0
ARC
  5
14A
  8
0
 62
     7
 10
62.201592000000012
 20
155.05094800000001
 30
0.0
 40
1.3001869999999991
 50
270.00002000000001
 51
359.99998999999991
  0
ARC
  5
14B
  8
0
 62
     7
 10
62.201592000000012
 20
155.05094700000001
 30
0.0
 40
1.3001869999999991
 50
0.00001
 51
89.999980000000008
  0
ARC
  5
14C
  8
0
 62
     7
 10
69.985129999999984
 20
155.001724
 30
0.0
 40
1.3503350000000001
 50
92.119422000000014
 51
177.91091900000001
  0
ARC
  5
14D
  8
0
 62
     7
 10
69.985773999999992
 20
155.1008149999999
 30
0.0
 40
1.351002
 50
182.11535900000001
 51
267.85429900000003
  0
ARC
  5
14E
  8
0
 62
     7
 10
69.935191000000003
 20
155.05094800000001
 30
0.0
 40
1.3001869999999991
 50
270.00002000000001
 51
359.99998999999991
  0
ARC
  5
14F
  8
0
 62
     7
 10
69.935191000000003
 20
155.05094700000001
 30
0.0
 40
1.3001869999999991
 50
0.00001
 51
89.999980000000008
  0
ARC
  5
150
  8
0
 62
     7
 10
66.068392000000003
 20
155.05094700000001
 30
0.0
 40
1.3001869999999991
 50
90.0
 51
179.99996999999991
  0
ARC
  5
151
  8
0
 62
     7
 10
66.068392000000003
 20
155.05094700000001
 30
0.0
 40
1.3001869999999991
 50
179.99996999999991
 51
270.00002000000001
  0
ARC
  5
152
  8
0
 62
     7
 10
66.068392000000003
 20
155.05094800000001
 30
0.0
 40
1.3001869999999991
 50
270.00002000000001
 51
359.99998999999991
  0
ARC
  5
153
  8
0
 62
     7
 10
66.068392000000003
 20
155.05094700000001
 30
0.0
 40
1.3001869999999991
 50
0.00001
 51
89.999980000000008
  0
ARC
  5
154
  8
0
 62
     7
 10
64.134992000000011
 20
151.6506169999999
 30
0.0
 40
1.3001869999999991
 50
90.0
 51
179.99996999999991
  0
ARC
  5
155
  8
0
 62
     7
 10
64.134992000000011
 20
151.6506169999999
 30
0.0
 40
1.3001869999999991
 50
179.99996999999991
 51
270.00002000000001
  0
ARC
  5
156
  8
0
 62
     7
 10
64.134992000000011
 20
151.6506169999999
 30
0.0
 40
1.3001869999999991
 50
270.00002000000001
 51
359.99998999999991
  0
ARC
  5
157
  8
0
 62
     7
 10
64.134992000000011
 20
151.6506169999999
 30
0.0
 40
1.3001869999999991
 50
0.00001
 51
89.999980000000008
  0
ARC
  5
158
  8
0
 62
     7
 10
68.001792000000009
 20
151.6506169999999
 30
0.0
 40
1.3001869999999991
 50
90.0
 51
179.99996999999991
  0
ARC
  5
159
  8
0
 62
     7
 10
68.001790999999997
 20
151.6506169999999
 30
0.0
 40
1.3001869999999991
 50
179.99996999999991
 51
270.00002000000001
  0
ARC
  5
15A
  8
0
 62
     7
 10
68.001790999999997
 20
151.6506169999999
 30
0.0
 40
1.3001869999999991
 50
270.00002000000001
 51
359.99998999999991
  0
ARC
  5
15B
  8
0
 62
     7
 10
68.001790999999997
 20
151.6506169999999
 30
0.0
 40
1.3001869999999991
 50
0.00001
 51
89.999980000000008
  0
ARC
  5
15C
  8
0
 62
     7
 10
71.918530000000004
 20
151.60139299999989
 30
0.0
 40
1.3503350000000001
 50
92.119422000000014
 51
177.91091900000001
  0
ARC
  5
15D
  8
0
 62
     7
 10
71.919173999999998
 20
151.70048399999999
 30
0.0
 40
1.351002
 50
182.11535900000001
 51
267.85429900000003
  0
ARC
  5
15E
  8
0
 62
     7
 10
71.868591000000009
 20
151.6506169999999
 30
0.0
 40
1.3001869999999991
 50
270.00002000000001
 51
359.99998999999991
  0
ARC
  5
15F
  8
0
 62
     7
 10
71.868591000000009
 20
151.6506169999999
 30
0.0
 40
1.3001869999999991
 50
0.00001
 51
89.999980000000008
  0
ARC
  5
160
  8
0
 62
     7
 10
81.536280000000005
 20
155.05094700000001
 30
0.0
 40
1.3001869999999991
 50
90.0
 51
179.99996999999991
  0
ARC
  5
161
  8
0
 62
     7
 10
81.536279000000007
 20
155.05094700000001
 30
0.0
 40
1.3001869999999991
 50
179.99996999999991
 51
270.00002000000001
  0
ARC
  5
162
  8
0
 62
     7
 10
81.536279000000007
 20
155.05094800000001
 30
0.0
 40
1.3001869999999991
 50
270.00002000000001
 51
359.99998999999991
  0
ARC
  5
163
  8
0
 62
     7
 10
81.536279000000007
 20
155.05094700000001
 30
0.0
 40
1.3001869999999991
 50
0.00001
 51
89.999980000000008
  0
ARC
  5
164
  8
0
 62
     7
 10
77.669480000000007
 20
155.05094700000001
 30
0.0
 40
1.3001869999999991
 50
90.0
 51
179.99996999999991
  0
ARC
  5
165
  8
0
 62
     7
 10
77.66947900000001
 20
155.05094700000001
 30
0.0
 40
1.3001869999999991
 50
179.99996999999991
 51
270.00002000000001
  0
ARC
  5
166
  8
0
 62
     7
 10
77.619540000000001
 20
155.1001719999999
 30
0.0
 40
1.3503350000000001
 50
272.11945900000001
 51
357.91092200000003
  0
ARC
  5
167
  8
0
 62
     7
 10
77.618895999999992
 20
155.00108
 30
0.0
 40
1.351002
 50
2.1153559999999998
 51
87.854262000000006
  0
ARC
  5
168
  8
0
 62
     7
 10
79.602879999999999
 20
151.6506169999999
 30
0.0
 40
1.3001869999999991
 50
90.0
 51
179.99996999999991
  0
ARC
  5
169
  8
0
 62
     7
 10
79.602879000000001
 20
151.6506169999999
 30
0.0
 40
1.3001869999999991
 50
179.99996999999991
 51
270.00002000000001
  0
ARC
  5
16A
  8
0
 62
     7
 10
79.602879000000001
 20
151.6506169999999
 30
0.0
 40
1.3001869999999991
 50
270.00002000000001
 51
359.99998999999991
  0
ARC
  5
16B
  8
0
 62
     7
 10
79.602879000000001
 20
151.6506169999999
 30
0.0
 40
1.3001869999999991
 50
0.00001
 51
89.999980000000008
  0
ARC
  5
16C
  8
0
 62
     7
 10
73.85193000000001
 20
155.001724
 30
0.0
 40
1.3503350000000001
 50
92.119422000000014
 51
177.91091900000001
  0
ARC
  5
16D
  8
0
 62
     7
 10
73.852574000000004
 20
155.1008149999999
 30
0.0
 40
1.351002
 50
182.11535900000001
 51
267.85429900000003
  0
ARC
  5
16E
  8
0
 62
     7
 10
73.752084999999994
 20
155.10085399999991
 30
0.0
 40
1.3510159999999991
 50
272.116983
 51
357.88302700000003
  0
ARC
  5
16F
  8
0
 62
     7
 10
73.752075000000005
 20
155.00103100000001
 30
0.0
 40
1.3510260000000001
 50
2.1173850000000001
 51
87.882604999999984
  0
ARC
  5
170
  8
0
 62
     7
 10
75.785985999999994
 20
151.60071099999999
 30
0.0
 40
1.351014999999999
 50
92.116945999999984
 51
177.88302400000001
  0
ARC
  5
171
  8
0
 62
     7
 10
75.785995999999997
 20
151.70053300000001
 30
0.0
 40
1.3510260000000001
 50
182.11738699999989
 51
267.88264199999992
  0
ARC
  5
172
  8
0
 62
     7
 10
75.686141000000006
 20
151.69984099999999
 30
0.0
 40
1.3503350000000001
 50
272.11945900000001
 51
357.91092200000003
  0
ARC
  5
173
  8
0
 62
     7
 10
75.685496999999998
 20
151.60074899999989
 30
0.0
 40
1.351002
 50
2.1153559999999998
 51
87.854262000000006
  0
LINE
  5
174
  8
0
 62
     7
 10
156.30299999999991
 20
159.29900000000001
 30
0.0
 11
156.381
 21
163.49999999999989
 31
0.0
  0
LINE
  5
175
  8
0
 62
     7
 10
155.80699999999999
 20
159.51400000000001
 30
0.0
 11
155.87700000000001
 21
163.29599999999991
 31
0.0
  0
LINE
  5
176
  8
0
 62
     7
 10
99.043999999999997
 20
153.39400000000001
 30
0.0
 11
96.832599999999999
 21
152.80099999999999
 31
0.0
  0
LINE
  5
177
  8
0
 62
     7
 10
96.832599999999999
 20
152.80099999999999
 30
0.0
 11
99.043999999999997
 21
152.208
 31
0.0
  0
LINE
  5
178
  8
0
 62
     7
 10
99.043999999999997
 20
152.208
 30
0.0
 11
99.043999999999997
 21
153.39400000000001
 31
0.0
  0
LINE
  5
179
  8
0
 62
     7
 10
91.787599999999998
 20
152.208
 30
0.0
 11
93.999300000000005
 21
152.80099999999999
 31
0.0
  0
LINE
  5
17A
  8
0
 62
     7
 10
93.999300000000005
 20
152.80099999999999
 30
0.0
 11
91.787599999999998
 21
153.39400000000001
 31
0.0
  0
LINE
  5
17B
  8
0
 62
     7
 10
91.787599999999998
 20
153.39400000000001
 30
0.0
 11
91.787599999999998
 21
152.208
 31
0.0
  0
LINE
  5
17C
  8
0
 62
     7
 10
90.294799999999995
 20
152.80099999999999
 30
0.0
 11
105.3739999999999
 21
152.80099999999999
 31
0.0
  0
LINE
  5
17D
  8
0
 62
     7
 10
93.999300000000005
 20
152.10099999999991
 30
0.0
 11
93.999300000000005
 21
161.90999999999991
 31
0.0
  0
LINE
  5
17E
  8
0
 62
     7
 10
117.42700000000001
 20
178.94499999999991
 30
0.0
 11
118.0199999999999
 21
176.73400000000001
 31
0.0
  0
LINE
  5
17F
  8
0
 62
     7
 10
118.0199999999999
 20
176.73400000000001
 30
0.0
 11
118.61199999999999
 21
178.94499999999991
 31
0.0
  0
LINE
  5
180
  8
0
 62
     7
 10
118.61199999999999
 20
178.94499999999991
 30
0.0
 11
117.42700000000001
 21
178.94499999999991
 31
0.0
  0
LINE
  5
181
  8
0
 62
     7
 10
39.319800000000001
 20
163.6109999999999
 30
0.0
 11
39.912399999999991
 21
161.40000000000001
 31
0.0
  0
LINE
  5
182
  8
0
 62
     7
 10
39.912399999999991
 20
161.40000000000001
 30
0.0
 11
40.504899999999992
 21
163.6109999999999
 31
0.0
  0
LINE
  5
183
  8
0
 62
     7
 10
40.504899999999992
 20
163.6109999999999
 30
0.0
 11
39.319800000000001
 21
163.6109999999999
 31
0.0
  0
LINE
  5
184
  8
0
 62
     7
 10
40.490499999999997
 20
174.51699999999991
 30
0.0
 11
39.8979
 21
176.72799999999989
 31
0.0
  0
LINE
  5
185
  8
0
 62
     7
 10
39.8979
 20
176.72799999999989
 30
0.0
 11
39.305300000000003
 21
174.51699999999991
 31
0.0
  0
LINE
  5
186
  8
0
 62
     7
 10
39.305300000000003
 20
174.51699999999991
 30
0.0
 11
40.490499999999997
 21
174.51699999999991
 31
0.0
  0
LINE
  5
187
  8
0
 62
     7
 10
39.904800000000002
 20
161.40100000000001
 30
0.0
 11
39.904800000000002
 21
176.72799999999989
 31
0.0
  0
TEXT
  5
188
  8
0
 62
     7
 10
39.204700000000003
 20
167.13128750000001
 30
0.0
 40
3.0923400000000001
  1
230
 50
90.0
 41
0.5
 72
     1
 11
39.204700000000003
 21
169.06399999999999
 31
0.0
  0
LINE
  5
189
  8
0
 62
     7
 10
102.5199999999999
 20
169.27699999999999
 30
0.0
 11
103.113
 21
167.06599999999989
 31
0.0
  0
LINE
  5
18A
  8
0
 62
     7
 10
103.113
 20
167.06599999999989
 30
0.0
 11
103.706
 21
169.27699999999999
 31
0.0
  0
LINE
  5
18B
  8
0
 62
     7
 10
103.706
 20
169.27699999999999
 30
0.0
 11
102.5199999999999
 21
169.27699999999999
 31
0.0
  0
LINE
  5
18C
  8
0
 62
     7
 10
103.6909999999999
 20
174.524
 30
0.0
 11
103.0989999999999
 21
176.73500000000001
 31
0.0
  0
LINE
  5
18D
  8
0
 62
     7
 10
103.0989999999999
 20
176.73500000000001
 30
0.0
 11
102.506
 21
174.524
 31
0.0
  0
LINE
  5
18E
  8
0
 62
     7
 10
102.506
 20
174.524
 30
0.0
 11
103.6909999999999
 21
174.524
 31
0.0
  0
LINE
  5
18F
  8
0
 62
     7
 10
103.105
 20
167.06700000000001
 30
0.0
 11
103.105
 21
176.73400000000001
 31
0.0
  0
LINE
  5
190
  8
0
 62
     7
 10
97.344499999999996
 20
176.73400000000001
 30
0.0
 11
103.8059999999999
 21
176.73400000000001
 31
0.0
  0
LINE
  5
191
  8
0
 62
     7
 10
97.317000000000007
 20
167.06700000000001
 30
0.0
 11
103.8059999999999
 21
167.06700000000001
 31
0.0
  0
LINE
  5
192
  8
0
 62
     7
 10
91.498900000000006
 20
171.14400000000001
 30
0.0
 11
91.498900000000006
 21
188.024
 31
0.0
  0
LINE
  5
193
  8
0
 62
     7
 10
44.619100000000003
 20
186.73099999999991
 30
0.0
 11
46.830899999999993
 21
187.32400000000001
 31
0.0
  0
LINE
  5
194
  8
0
 62
     7
 10
46.830899999999993
 20
187.32400000000001
 30
0.0
 11
44.619100000000003
 21
187.91599999999991
 31
0.0
  0
LINE
  5
195
  8
0
 62
     7
 10
44.619100000000003
 20
187.91599999999991
 30
0.0
 11
44.619100000000003
 21
186.73099999999991
 31
0.0
  0
LINE
  5
196
  8
0
 62
     7
 10
89.287400000000005
 20
186.73099999999991
 30
0.0
 11
91.498900000000006
 21
187.32400000000001
 31
0.0
  0
LINE
  5
197
  8
0
 62
     7
 10
91.498900000000006
 20
187.32400000000001
 30
0.0
 11
89.287400000000005
 21
187.91599999999991
 31
0.0
  0
LINE
  5
198
  8
0
 62
     7
 10
89.287400000000005
 20
187.91599999999991
 30
0.0
 11
89.287400000000005
 21
186.73099999999991
 31
0.0
  0
LINE
  5
199
  8
0
 62
     7
 10
99.043999999999997
 20
187.91599999999991
 30
0.0
 11
96.832599999999999
 21
187.32400000000001
 31
0.0
  0
LINE
  5
19A
  8
0
 62
     7
 10
96.832599999999999
 20
187.32400000000001
 30
0.0
 11
99.043999999999997
 21
186.73099999999991
 31
0.0
  0
LINE
  5
19B
  8
0
 62
     7
 10
99.043999999999997
 20
186.73099999999991
 30
0.0
 11
99.043999999999997
 21
187.91599999999991
 31
0.0
  0
LINE
  5
19C
  8
0
 62
     7
 10
54.375999999999998
 20
187.91599999999991
 30
0.0
 11
52.1646
 21
187.32400000000001
 31
0.0
  0
LINE
  5
19D
  8
0
 62
     7
 10
52.1646
 20
187.32400000000001
 30
0.0
 11
54.375999999999998
 21
186.73099999999991
 31
0.0
  0
LINE
  5
19E
  8
0
 62
     7
 10
54.375999999999998
 20
186.73099999999991
 30
0.0
 11
54.375999999999998
 21
187.91599999999991
 31
0.0
  0
LINE
  5
19F
  8
0
 62
     7
 10
100.4879999999999
 20
187.32400000000001
 30
0.0
 11
43.067799999999991
 21
187.32400000000001
 31
0.0
  0
LINE
  5
1A0
  8
0
 62
     7
 10
46.830899999999993
 20
177.429
 30
0.0
 11
46.830899999999993
 21
195.62
 31
0.0
  0
LINE
  5
1A1
  8
0
 62
     7
 10
52.1646
 20
171.14400000000001
 30
0.0
 11
52.1646
 21
188.024
 31
0.0
  0
LINE
  5
1A2
  8
0
 62
     7
 10
172.107
 20
243.96700000000001
 30
0.0
 11
171.51400000000001
 21
246.179
 31
0.0
  0
LINE
  5
1A3
  8
0
 62
     7
 10
171.51400000000001
 20
246.179
 30
0.0
 11
170.922
 21
243.96700000000001
 31
0.0
  0
LINE
  5
1A4
  8
0
 62
     7
 10
170.922
 20
243.96700000000001
 30
0.0
 11
172.107
 21
243.96700000000001
 31
0.0
  0
LINE
  5
1A5
  8
0
 62
     7
 10
172.09200000000001
 20
227.9679999999999
 30
0.0
 11
171.5
 21
230.18000000000001
 31
0.0
  0
LINE
  5
1A6
  8
0
 62
     7
 10
171.5
 20
230.18000000000001
 30
0.0
 11
170.90700000000001
 21
227.9679999999999
 31
0.0
  0
LINE
  5
1A7
  8
0
 62
     7
 10
170.90700000000001
 20
227.9679999999999
 30
0.0
 11
172.09200000000001
 21
227.9679999999999
 31
0.0
  0
LINE
  5
1A8
  8
0
 62
     7
 10
170.922
 20
215.38900000000001
 30
0.0
 11
171.51400000000001
 21
213.17699999999999
 31
0.0
  0
LINE
  5
1A9
  8
0
 62
     7
 10
171.51400000000001
 20
213.17699999999999
 30
0.0
 11
172.107
 21
215.38900000000001
 31
0.0
  0
LINE
  5
1AA
  8
0
 62
     7
 10
172.107
 20
215.38900000000001
 30
0.0
 11
170.922
 21
215.38900000000001
 31
0.0
  0
LINE
  5
1AB
  8
0
 62
     7
 10
171.50700000000001
 20
230.179
 30
0.0
 11
171.50700000000001
 21
213.178
 31
0.0
  0
TEXT
  5
1AC
  8
0
 62
     7
 10
170.80699999999999
 20
219.61644000000001
 30
0.0
 40
3.0923400000000001
  1
255
 50
90.0
 41
0.5
 72
     1
 11
170.80699999999999
 21
221.67799999999991
 31
0.0
  0
LINE
  5
1AD
  8
0
 62
     7
 10
172.09200000000001
 20
260.97000000000003
 30
0.0
 11
171.5
 21
263.18099999999993
 31
0.0
  0
LINE
  5
1AE
  8
0
 62
     7
 10
171.5
 20
263.18099999999993
 30
0.0
 11
170.90700000000001
 21
260.97000000000003
 31
0.0
  0
LINE
  5
1AF
  8
0
 62
     7
 10
170.90700000000001
 20
260.97000000000003
 30
0.0
 11
172.09200000000001
 21
260.97000000000003
 31
0.0
  0
LINE
  5
1B0
  8
0
 62
     7
 10
170.90700000000001
 20
232.39099999999999
 30
0.0
 11
171.5
 21
230.18000000000001
 31
0.0
  0
LINE
  5
1B1
  8
0
 62
     7
 10
171.5
 20
230.18000000000001
 30
0.0
 11
172.09200000000001
 21
232.39099999999999
 31
0.0
  0
LINE
  5
1B2
  8
0
 62
     7
 10
172.09200000000001
 20
232.39099999999999
 30
0.0
 11
170.90700000000001
 21
232.39099999999999
 31
0.0
  0
LINE
  5
1B3
  8
0
 62
     7
 10
170.922
 20
248.3899999999999
 30
0.0
 11
171.51400000000001
 21
246.179
 31
0.0
  0
LINE
  5
1B4
  8
0
 62
     7
 10
171.51400000000001
 20
246.179
 30
0.0
 11
172.107
 21
248.3899999999999
 31
0.0
  0
LINE
  5
1B5
  8
0
 62
     7
 10
172.107
 20
248.3899999999999
 30
0.0
 11
170.922
 21
248.3899999999999
 31
0.0
  0
LINE
  5
1B6
  8
0
 62
     7
 10
171.50700000000001
 20
263.18000000000001
 30
0.0
 11
171.50700000000001
 21
230.18000000000001
 31
0.0
  0
LINE
  5
1B7
  8
0
 62
     7
 10
166.72499999999991
 20
246.179
 30
0.0
 11
172.20699999999991
 21
246.179
 31
0.0
  0
LINE
  5
1B8
  8
0
 62
     7
 10
127.79899999999989
 20
263.18000000000001
 30
0.0
 11
172.20699999999991
 21
263.18000000000001
 31
0.0
  0
LINE
  5
1B9
  8
0
 62
     7
 10
166.72499999999991
 20
230.179
 30
0.0
 11
172.20699999999991
 21
230.179
 31
0.0
  0
LINE
  5
1BA
  8
0
 62
     7
 10
127.79899999999989
 20
213.178
 30
0.0
 11
172.20699999999991
 21
213.178
 31
0.0
  0
LINE
  5
1BB
  8
0
 62
     7
 10
129.26900000000001
 20
207.16099999999989
 30
0.0
 11
127.0569999999999
 21
206.5679999999999
 31
0.0
  0
LINE
  5
1BC
  8
0
 62
     7
 10
127.0569999999999
 20
206.5679999999999
 30
0.0
 11
129.26900000000001
 21
205.97599999999991
 31
0.0
  0
LINE
  5
1BD
  8
0
 62
     7
 10
129.26900000000001
 20
205.97599999999991
 30
0.0
 11
129.26900000000001
 21
207.16099999999989
 31
0.0
  0
LINE
  5
1BE
  8
0
 62
     7
 10
122.848
 20
205.97599999999991
 30
0.0
 11
125.059
 21
206.5679999999999
 31
0.0
  0
LINE
  5
1BF
  8
0
 62
     7
 10
125.059
 20
206.5679999999999
 30
0.0
 11
122.848
 21
207.16099999999989
 31
0.0
  0
LINE
  5
1C0
  8
0
 62
     7
 10
122.848
 20
207.16099999999989
 30
0.0
 11
122.848
 21
205.97599999999991
 31
0.0
  0
LINE
  5
1C1
  8
0
 62
     7
 10
118.2329999999999
 20
206.5679999999999
 30
0.0
 11
130.732
 21
206.5679999999999
 31
0.0
  0
LINE
  5
1C2
  8
0
 62
     7
 10
127.0569999999999
 20
212.43700000000001
 30
0.0
 11
127.0569999999999
 21
205.86799999999991
 31
0.0
  0
LINE
  5
1C3
  8
0
 62
     7
 10
125.059
 20
212.46700000000001
 30
0.0
 11
125.059
 21
205.86799999999991
 31
0.0
  0
LINE
  5
1C4
  8
0
 62
     7
 10
171.25399999999999
 20
78.938000000000002
 30
0.0
 11
171.84700000000001
 21
76.726200000000006
 31
0.0
  0
LINE
  5
1C5
  8
0
 62
     7
 10
171.84700000000001
 20
76.726200000000006
 30
0.0
 11
172.43899999999999
 21
78.938000000000002
 31
0.0
  0
LINE
  5
1C6
  8
0
 62
     7
 10
172.43899999999999
 20
78.938000000000002
 30
0.0
 11
171.25399999999999
 21
78.938000000000002
 31
0.0
  0
LINE
  5
1C7
  8
0
 62
     7
 10
118.61199999999999
 20
80.969200000000001
 30
0.0
 11
118.0199999999999
 21
83.180300000000003
 31
0.0
  0
LINE
  5
1C8
  8
0
 62
     7
 10
118.0199999999999
 20
83.180300000000003
 30
0.0
 11
117.42700000000001
 21
80.969200000000001
 31
0.0
  0
LINE
  5
1C9
  8
0
 62
     7
 10
117.42700000000001
 20
80.969200000000001
 30
0.0
 11
118.61199999999999
 21
80.969200000000001
 31
0.0
  0
LINE
  5
1CA
  8
0
 62
     7
 10
172.43199999999999
 20
151.18600000000001
 30
0.0
 11
171.84
 21
153.39699999999999
 31
0.0
  0
LINE
  5
1CB
  8
0
 62
     7
 10
171.84
 20
153.39699999999999
 30
0.0
 11
171.24700000000001
 21
151.18600000000001
 31
0.0
  0
LINE
  5
1CC
  8
0
 62
     7
 10
171.24700000000001
 20
151.18600000000001
 30
0.0
 11
172.43199999999999
 21
151.18600000000001
 31
0.0
  0
LINE
  5
1CD
  8
0
 62
     7
 10
172.42500000000001
 20
105.1849999999999
 30
0.0
 11
171.83199999999999
 21
107.396
 31
0.0
  0
LINE
  5
1CE
  8
0
 62
     7
 10
171.83199999999999
 20
107.396
 30
0.0
 11
171.24000000000001
 21
105.1849999999999
 31
0.0
  0
LINE
  5
1CF
  8
0
 62
     7
 10
171.24000000000001
 20
105.1849999999999
 30
0.0
 11
172.42500000000001
 21
105.1849999999999
 31
0.0
  0
LINE
  5
1D0
  8
0
 62
     7
 10
171.84
 20
76.727599999999995
 30
0.0
 11
171.84
 21
153.39699999999999
 31
0.0
  0
TEXT
  5
1D1
  8
0
 62
     7
 10
171.1399999999999
 20
90.128387500000002
 30
0.0
 40
3.0923400000000001
  1
460
 50
90.0
 41
0.5
 72
     1
 11
171.1399999999999
 21
92.061099999999996
 31
0.0
  0
LINE
  5
1D2
  8
0
 62
     7
 10
171.24000000000001
 20
109.607
 30
0.0
 11
171.83199999999999
 21
107.396
 31
0.0
  0
LINE
  5
1D3
  8
0
 62
     7
 10
171.83199999999999
 20
107.396
 30
0.0
 11
172.42500000000001
 21
109.607
 31
0.0
  0
LINE
  5
1D4
  8
0
 62
     7
 10
172.42500000000001
 20
109.607
 30
0.0
 11
171.24000000000001
 21
109.607
 31
0.0
  0
LINE
  5
1D5
  8
0
 62
     7
 10
171.25399999999999
 20
155.608
 30
0.0
 11
171.84700000000001
 21
153.39699999999999
 31
0.0
  0
LINE
  5
1D6
  8
0
 62
     7
 10
171.84700000000001
 20
153.39699999999999
 30
0.0
 11
172.43899999999999
 21
155.608
 31
0.0
  0
LINE
  5
1D7
  8
0
 62
     7
 10
172.43899999999999
 20
155.608
 30
0.0
 11
171.25399999999999
 21
155.608
 31
0.0
  0
LINE
  5
1D8
  8
0
 62
     7
 10
172.42500000000001
 20
174.523
 30
0.0
 11
171.83199999999999
 21
176.73400000000001
 31
0.0
  0
LINE
  5
1D9
  8
0
 62
     7
 10
171.83199999999999
 20
176.73400000000001
 30
0.0
 11
171.24000000000001
 21
174.523
 31
0.0
  0
LINE
  5
1DA
  8
0
 62
     7
 10
171.24000000000001
 20
174.523
 30
0.0
 11
172.42500000000001
 21
174.523
 31
0.0
  0
LINE
  5
1DB
  8
0
 62
     7
 10
171.84
 20
153.39699999999999
 30
0.0
 11
171.84
 21
176.733
 31
0.0
  0
LINE
  5
1DC
  8
0
 62
     7
 10
127.2699999999999
 20
161.209
 30
0.0
 11
125.05800000000001
 21
160.61699999999999
 31
0.0
  0
LINE
  5
1DD
  8
0
 62
     7
 10
125.05800000000001
 20
160.61699999999999
 30
0.0
 11
127.2699999999999
 21
160.024
 31
0.0
  0
LINE
  5
1DE
  8
0
 62
     7
 10
127.2699999999999
 20
160.024
 30
0.0
 11
127.2699999999999
 21
161.209
 31
0.0
  0
LINE
  5
1DF
  8
0
 62
     7
 10
152.828
 20
160.0389999999999
 30
0.0
 11
155.03999999999991
 21
160.631
 31
0.0
  0
LINE
  5
1E0
  8
0
 62
     7
 10
155.03999999999991
 20
160.631
 30
0.0
 11
152.828
 21
161.2239999999999
 31
0.0
  0
LINE
  5
1E1
  8
0
 62
     7
 10
152.828
 20
161.2239999999999
 30
0.0
 11
152.828
 21
160.0389999999999
 31
0.0
  0
LINE
  5
1E2
  8
0
 62
     7
 10
125.059
 20
160.62399999999991
 30
0.0
 11
155.0389999999999
 21
160.62399999999991
 31
0.0
  0
LINE
  5
1E3
  8
0
 62
     7
 10
127.78700000000001
 20
176.733
 30
0.0
 11
172.53999999999999
 21
176.733
 31
0.0
  0
LINE
  5
1E4
  8
0
 62
     7
 10
166.791
 20
153.39699999999999
 30
0.0
 11
172.53999999999999
 21
153.39699999999999
 31
0.0
  0
LINE
  5
1E5
  8
0
 62
     7
 10
127.797
 20
76.727599999999995
 30
0.0
 11
172.53999999999999
 21
76.727599999999995
 31
0.0
  0
LINE
  5
1E6
  8
0
 62
     7
 10
166.791
 20
107.3949999999999
 30
0.0
 11
172.53999999999999
 21
107.3949999999999
 31
0.0
  0
LINE
  5
1E7
  8
0
 62
     7
 10
49.041200000000003
 20
195.50499999999991
 30
0.0
 11
46.829799999999992
 21
194.9129999999999
 31
0.0
  0
LINE
  5
1E8
  8
0
 62
     7
 10
46.829799999999992
 20
194.9129999999999
 30
0.0
 11
49.041200000000003
 21
194.31999999999999
 31
0.0
  0
LINE
  5
1E9
  8
0
 62
     7
 10
49.041200000000003
 20
194.31999999999999
 30
0.0
 11
49.041200000000003
 21
195.50499999999991
 31
0.0
  0
LINE
  5
1EA
  8
0
 62
     7
 10
94.621499999999983
 20
194.33500000000001
 30
0.0
 11
96.833299999999994
 21
194.92699999999999
 31
0.0
  0
LINE
  5
1EB
  8
0
 62
     7
 10
96.833299999999994
 20
194.92699999999999
 30
0.0
 11
94.621499999999983
 21
195.5199999999999
 31
0.0
  0
LINE
  5
1EC
  8
0
 62
     7
 10
94.621499999999983
 20
195.5199999999999
 30
0.0
 11
94.621499999999983
 21
194.33500000000001
 31
0.0
  0
LINE
  5
1ED
  8
0
 62
     7
 10
46.830899999999993
 20
194.9199999999999
 30
0.0
 11
96.832599999999999
 21
194.9199999999999
 31
0.0
  0
LINE
  5
1EE
  8
0
 62
     7
 10
96.832599999999999
 20
177.5029999999999
 30
0.0
 11
96.832599999999999
 21
195.62
 31
0.0
  0
LINE
  5
1EF
  8
0
 62
     7
 10
33.344599999999993
 20
78.9345
 30
0.0
 11
33.937199999999997
 21
76.723500000000001
 31
0.0
  0
LINE
  5
1F0
  8
0
 62
     7
 10
33.937199999999997
 20
76.723500000000001
 30
0.0
 11
34.529699999999998
 21
78.9345
 31
0.0
  0
LINE
  5
1F1
  8
0
 62
     7
 10
34.529699999999998
 20
78.9345
 30
0.0
 11
33.344599999999993
 21
78.9345
 31
0.0
  0
LINE
  5
1F2
  8
0
 62
     7
 10
34.515300000000003
 20
174.51799999999989
 30
0.0
 11
33.922699999999992
 21
176.72900000000001
 31
0.0
  0
LINE
  5
1F3
  8
0
 62
     7
 10
33.922699999999992
 20
176.72900000000001
 30
0.0
 11
33.330100000000002
 21
174.51799999999989
 31
0.0
  0
LINE
  5
1F4
  8
0
 62
     7
 10
33.330100000000002
 20
174.51799999999989
 30
0.0
 11
34.515300000000003
 21
174.51799999999989
 31
0.0
  0
LINE
  5
1F5
  8
0
 62
     7
 10
33.930300000000003
 20
76.724100000000007
 30
0.0
 11
33.930300000000003
 21
176.72799999999989
 31
0.0
  0
LINE
  5
1F6
  8
0
 62
     7
 10
65.656400000000005
 20
161.40000000000001
 30
0.0
 11
39.212299999999992
 21
161.40000000000001
 31
0.0
  0
LINE
  5
1F7
  8
0
 62
     7
 10
46.051600000000001
 20
176.72799999999989
 30
0.0
 11
33.230200000000004
 21
176.72799999999989
 31
0.0
  0
LINE
  5
1F8
  8
0
 62
     7
 10
46.401600000000002
 20
76.724100000000007
 30
0.0
 11
33.230200000000004
 21
76.724100000000007
 31
0.0
  0
LINE
  5
1F9
  8
0
 62
     7
 10
127.07899999999989
 20
261.04700000000003
 30
0.0
 11
129.2649999999999
 21
257.81999999999988
 31
0.0
  0
LINE
  5
1FA
  8
0
 62
     7
 10
132.05999999999989
 20
222.66599999999991
 30
0.0
 11
127.07899999999989
 21
222.66599999999991
 31
0.0
  0
LINE
  5
1FB
  8
0
 62
     7
 10
127.07899999999989
 20
215.31200000000001
 30
0.0
 11
132.05999999999989
 21
222.66599999999991
 31
0.0
  0
LINE
  5
1FC
  8
0
 62
     7
 10
125.889
 20
175.80500000000001
 30
0.0
 11
132.042
 21
170.97599999999991
 31
0.0
  0
ARC
  5
1FD
  8
0
 62
     7
 10
93.999336
 20
167.07647399999991
 30
0.0
 40
1.4669309999999991
 50
90.0
 51
179.99996999999991
  0
ARC
  5
1FE
  8
0
 62
     7
 10
94.054745999999994
 20
167.1326
 30
0.0
 40
1.5233760000000001
 50
182.11145300000001
 51
267.91549500000002
  0
ARC
  5
1FF
  8
0
 62
     7
 10
93.943285999999986
 20
167.133239
 30
0.0
 40
1.524038
 50
272.10765299999991
 51
357.86543799999993
  0
ARC
  5
200
  8
0
 62
     7
 10
93.999335000000016
 20
167.07647399999991
 30
0.0
 40
1.4669309999999991
 50
0.00001
 51
89.999980000000008
  0
LINE
  5
201
  8
0
 62
     7
 10
156.6879999999999
 20
242.87999999999991
 30
0.0
 11
156.655
 21
242.84599999999989
 31
0.0
  0
LINE
  5
202
  8
0
 62
     7
 10
156.6879999999999
 20
246.113
 30
0.0
 11
156.6879999999999
 21
249.45699999999991
 31
0.0
  0
LINE
  5
203
  8
0
 62
     7
 10
156.6879999999999
 20
246.113
 30
0.0
 11
156.6879999999999
 21
242.857
 31
0.0
  0
LINE
  5
204
  8
0
 62
     7
 10
156.6879999999999
 20
249.4909999999999
 30
0.0
 11
156.63200000000001
 21
249.54599999999999
 31
0.0
  0
LINE
  5
205
  8
0
 62
     7
 10
156.6879999999999
 20
226.87899999999999
 30
0.0
 11
156.655
 21
226.845
 31
0.0
  0
LINE
  5
206
  8
0
 62
     7
 10
156.6879999999999
 20
230.11199999999999
 30
0.0
 11
156.6879999999999
 21
233.45699999999991
 31
0.0
  0
LINE
  5
207
  8
0
 62
     7
 10
156.6879999999999
 20
230.11199999999999
 30
0.0
 11
156.6879999999999
 21
226.87899999999999
 31
0.0
  0
LINE
  5
208
  8
0
 62
     7
 10
156.6879999999999
 20
233.45699999999991
 30
0.0
 11
156.63200000000001
 21
233.51199999999989
 31
0.0
  0
LINE
  5
209
  8
0
 62
     7
 10
156.6879999999999
 20
242.84599999999989
 30
0.0
 11
156.6879999999999
 21
249.51300000000001
 31
0.0
  0
LINE
  5
20A
  8
0
 62
     7
 10
156.6879999999999
 20
226.87899999999999
 30
0.0
 11
156.6879999999999
 21
233.45699999999991
 31
0.0
  0
LINE
  5
20B
  8
0
 62
     7
 10
156.6879999999999
 20
104.06100000000001
 30
0.0
 11
156.655
 21
104.02799999999991
 31
0.0
  0
LINE
  5
20C
  8
0
 62
     7
 10
156.6879999999999
 20
107.31699999999999
 30
0.0
 11
156.6879999999999
 21
110.661
 31
0.0
  0
LINE
  5
20D
  8
0
 62
     7
 10
156.6879999999999
 20
107.31699999999999
 30
0.0
 11
156.6879999999999
 21
104.06100000000001
 31
0.0
  0
LINE
  5
20E
  8
0
 62
     7
 10
156.6879999999999
 20
110.661
 30
0.0
 11
156.655
 21
110.69499999999989
 31
0.0
  0
LINE
  5
20F
  8
0
 62
     7
 10
127.271
 20
185.13599999999991
 30
0.0
 11
125.059
 21
184.54300000000001
 31
0.0
  0
LINE
  5
210
  8
0
 62
     7
 10
125.059
 20
184.54300000000001
 30
0.0
 11
127.271
 21
183.9499999999999
 31
0.0
  0
LINE
  5
211
  8
0
 62
     7
 10
127.271
 20
183.9499999999999
 30
0.0
 11
127.271
 21
185.13599999999991
 31
0.0
  0
LINE
  5
212
  8
0
 62
     7
 10
162.53099999999989
 20
183.96499999999989
 30
0.0
 11
164.74299999999991
 21
184.55799999999991
 31
0.0
  0
LINE
  5
213
  8
0
 62
     7
 10
164.74299999999991
 20
184.55799999999991
 30
0.0
 11
162.53099999999989
 21
185.15000000000001
 31
0.0
  0
LINE
  5
214
  8
0
 62
     7
 10
162.53099999999989
 20
185.15000000000001
 30
0.0
 11
162.53099999999989
 21
183.96499999999989
 31
0.0
  0
LINE
  5
215
  8
0
 62
     7
 10
125.06
 20
184.55000000000001
 30
0.0
 11
164.74199999999999
 21
184.55000000000001
 31
0.0
  0
LINE
  5
216
  8
0
 62
     7
 10
164.74199999999999
 20
155.97499999999999
 30
0.0
 11
164.74199999999999
 21
185.25
 31
0.0
  0
LINE
  5
217
  8
0
 62
     7
 10
125.06
 20
177.33699999999999
 30
0.0
 11
125.06
 21
185.25
 31
0.0
  0
LINE
  5
218
  8
0
 62
     7
 10
156.6879999999999
 20
242.84599999999989
 30
0.0
 11
155.85299999999989
 21
242.84599999999989
 31
0.0
  0
LINE
  5
219
  8
0
 62
     7
 10
156.6879999999999
 20
249.51300000000001
 30
0.0
 11
155.85299999999989
 21
249.51300000000001
 31
0.0
  0
LINE
  5
21A
  8
0
 62
     7
 10
156.6879999999999
 20
226.845
 30
0.0
 11
155.85299999999989
 21
226.845
 31
0.0
  0
LINE
  5
21B
  8
0
 62
     7
 10
156.6879999999999
 20
233.51199999999989
 30
0.0
 11
155.85299999999989
 21
233.51199999999989
 31
0.0
  0
LINE
  5
21C
  8
0
 62
     7
 10
155.85299999999989
 20
250.99700000000001
 30
0.0
 11
155.45299999999989
 21
250.99700000000001
 31
0.0
  0
LINE
  5
21D
  8
0
 62
     7
 10
155.85299999999989
 20
225.363
 30
0.0
 11
155.45299999999989
 21
225.363
 31
0.0
  0
LINE
  5
21E
  8
0
 62
     7
 10
156.386
 20
236.2229999999999
 30
0.0
 11
156.386
 21
240.13599999999991
 31
0.0
  0
LINE
  5
21F
  8
0
 62
     7
 10
156.191
 20
235.75200000000001
 30
0.0
 11
155.58099999999999
 21
235.142
 31
0.0
  0
ARC
  5
220
  8
0
 62
     7
 10
155.98502099999999
 20
234.7177439999999
 30
0.0
 40
0.585514
 50
133.5653749999999
 51
155.400621
  0
ARC
  5
221
  8
0
 62
     7
 10
155.87833399999991
 20
236.09979299999989
 30
0.0
 40
0.468023
 50
311.96364699999998
 51
329.32421299999999
  0
ARC
  5
222
  8
0
 62
     7
 10
155.68790300000001
 20
236.23002699999989
 30
0.0
 40
0.698407
 50
328.105413
 51
359.42992900000002
  0
ARC
  5
223
  8
0
 62
     7
 10
155.926582
 20
240.16048599999991
 30
0.0
 40
0.460361
 50
356.91339499999998
 51
13.537558000000001
  0
ARC
  5
224
  8
0
 62
     7
 10
155.69211499999989
 20
240.1187799999999
 30
0.0
 40
0.698224
 50
12.360993000000001
 51
44.364234000000003
  0
ARC
  5
225
  8
0
 62
     7
 10
155.99558400000001
 20
241.64774800000001
 30
0.0
 40
0.597917
 50
204.76323099999999
 51
226.167497
  0
LINE
  5
226
  8
0
 62
     7
 10
156.191
 20
240.607
 30
0.0
 11
155.58099999999999
 21
241.21599999999989
 31
0.0
  0
LINE
  5
227
  8
0
 62
     7
 10
156.655
 20
104.02799999999991
 30
0.0
 11
154.61999999999989
 21
104.02799999999991
 31
0.0
  0
LINE
  5
228
  8
0
 62
     7
 10
156.655
 20
110.69499999999989
 30
0.0
 11
154.76400000000001
 21
110.69499999999989
 31
0.0
  0
LINE
  5
229
  8
0
 62
     7
 10
156.6879999999999
 20
153.34899999999999
 30
0.0
 11
156.6879999999999
 21
150.06
 31
0.0
  0
LINE
  5
22A
  8
0
 62
     7
 10
156.6879999999999
 20
153.34899999999999
 30
0.0
 11
156.6879999999999
 21
156.727
 31
0.0
  0
LINE
  5
22B
  8
0
 62
     7
 10
156.6879999999999
 20
150.06
 30
0.0
 11
155.61500000000001
 21
150.06
 31
0.0
  0
LINE
  5
22C
  8
0
 62
     7
 10
156.6879999999999
 20
156.727
 30
0.0
 11
155.7589999999999
 21
156.727
 31
0.0
  0
ARC
  5
22D
  8
0
 62
     7
 10
71.897509999999997
 20
161.32932299999999
 30
0.0
 40
1.9050739999999999
 50
92.113563999999997
 51
177.86487099999991
  0
ARC
  5
22E
  8
0
 62
     7
 10
71.897553000000002
 20
161.47060200000001
 30
0.0
 40
1.9050919999999989
 50
182.11486999999991
 51
267.88515999999993
  0
ARC
  5
22F
  8
0
 62
     7
 10
71.756940999999998
 20
161.47060699999989
 30
0.0
 40
1.9050979999999991
 50
272.11502200000001
 51
357.88498799999991
  0
ARC
  5
230
  8
0
 62
     7
 10
71.757622999999995
 20
161.32995700000001
 30
0.0
 40
1.9044169999999989
 50
2.116766999999999
 51
87.904758999999999
  0
ARC
  5
231
  8
0
 62
     7
 10
71.94717
 20
161.28448599999999
 30
0.0
 40
3.117945999999999
 50
92.115511999999995
 51
177.87129999999991
  0
ARC
  5
232
  8
0
 62
     7
 10
71.832071999999997
 20
161.40029799999991
 30
0.0
 40
3.0006970000000002
 50
179.99996999999991
 51
270.00002000000001
  0
ARC
  5
233
  8
0
 62
     7
 10
71.716893999999996
 20
161.51476199999999
 30
0.0
 40
3.1172889999999991
 50
272.11748399999988
 51
357.8956839999999
  0
ARC
  5
234
  8
0
 62
     7
 10
71.716948000000002
 20
161.2851729999999
 30
0.0
 40
3.117259999999999
 50
2.1165050000000001
 51
87.883484999999993
  0
LINE
  5
235
  8
0
 62
     7
 10
156.6879999999999
 20
244.22
 30
0.0
 11
156.6879999999999
 21
248.1399999999999
 31
0.0
  0
LINE
  5
236
  8
0
 62
     7
 10
157.048
 20
245.78
 30
0.0
 11
160.06100000000001
 21
245.78
 31
0.0
  0
LINE
  5
237
  8
0
 62
     7
 10
157.048
 20
246.58000000000001
 30
0.0
 11
160.06100000000001
 21
246.58000000000001
 31
0.0
  0
LINE
  5
238
  8
0
 62
     7
 10
156.8479999999999
 20
244.18000000000001
 30
0.0
 11
156.8479999999999
 21
246.179
 31
0.0
  0
LINE
  5
239
  8
0
 62
     7
 10
156.8479999999999
 20
244.18000000000001
 30
0.0
 11
156.72799999999989
 21
244.18000000000001
 31
0.0
  0
LINE
  5
23A
  8
0
 62
     7
 10
156.88800000000001
 20
244.22
 30
0.0
 11
156.8479999999999
 21
244.18000000000001
 31
0.0
  0
LINE
  5
23B
  8
0
 62
     7
 10
156.72799999999989
 20
244.18000000000001
 30
0.0
 11
156.6879999999999
 21
244.22
 31
0.0
  0
LINE
  5
23C
  8
0
 62
     7
 10
156.72799999999989
 20
246.179
 30
0.0
 11
156.72799999999989
 21
244.18000000000001
 31
0.0
  0
LINE
  5
23D
  8
0
 62
     7
 10
156.88800000000001
 20
244.22
 30
0.0
 11
156.88800000000001
 21
246.179
 31
0.0
  0
LINE
  5
23E
  8
0
 62
     7
 10
156.88800000000001
 20
248.1399999999999
 30
0.0
 11
156.88800000000001
 21
246.179
 31
0.0
  0
LINE
  5
23F
  8
0
 62
     7
 10
156.72799999999989
 20
246.179
 30
0.0
 11
156.72799999999989
 21
248.18000000000001
 31
0.0
  0
LINE
  5
240
  8
0
 62
     7
 10
156.72799999999989
 20
248.18000000000001
 30
0.0
 11
156.6879999999999
 21
248.1399999999999
 31
0.0
  0
LINE
  5
241
  8
0
 62
     7
 10
156.88800000000001
 20
248.1399999999999
 30
0.0
 11
156.8479999999999
 21
248.18000000000001
 31
0.0
  0
LINE
  5
242
  8
0
 62
     7
 10
156.8479999999999
 20
248.18000000000001
 30
0.0
 11
156.72799999999989
 21
248.18000000000001
 31
0.0
  0
LINE
  5
243
  8
0
 62
     7
 10
156.8479999999999
 20
248.18000000000001
 30
0.0
 11
156.8479999999999
 21
246.179
 31
0.0
  0
LINE
  5
244
  8
0
 62
     7
 10
160.221
 20
246.75700000000001
 30
0.0
 11
160.16799999999989
 21
246.84999999999999
 31
0.0
  0
ARC
  5
245
  8
0
 62
     7
 10
160.06931299999991
 20
246.73598000000001
 30
0.0
 40
0.15642
 50
266.89396699999992
 51
346.45137900000009
  0
ARC
  5
246
  8
0
 62
     7
 10
159.820617
 20
246.202721
 30
0.0
 40
0.401437
 50
356.67914500000001
 51
14.77315499999999
  0
ARC
  5
247
  8
0
 62
     7
 10
159.62643
 20
246.16864199999989
 30
0.0
 40
0.598124
 50
13.186301999999991
 51
43.424309000000001
  0
LINE
  5
248
  8
0
 62
     7
 10
160.221
 20
246.75700000000001
 30
0.0
 11
160.221
 21
246.179
 31
0.0
  0
LINE
  5
249
  8
0
 62
     7
 10
160.221
 20
245.602
 30
0.0
 11
160.221
 21
246.179
 31
0.0
  0
ARC
  5
24A
  8
0
 62
     7
 10
159.7808729999999
 20
246.079081
 30
0.0
 40
0.409791
 50
313.09313399999991
 51
331.31944900000002
  0
ARC
  5
24B
  8
0
 62
     7
 10
159.62720400000001
 20
246.1819009999999
 30
0.0
 40
0.5941800000000002
 50
329.73253899999997
 51
359.76531
  0
ARC
  5
24C
  8
0
 62
     7
 10
160.07008899999991
 20
245.62478699999991
 30
0.0
 40
0.155322
 50
13.081886999999989
 51
93.414740000000009
  0
LINE
  5
24D
  8
0
 62
     7
 10
160.221
 20
245.602
 30
0.0
 11
160.16799999999989
 21
245.50999999999991
 31
0.0
  0
LINE
  5
24E
  8
0
 62
     7
 10
156.95500000000001
 20
246.84999999999999
 30
0.0
 11
160.16799999999989
 21
246.84999999999999
 31
0.0
  0
ARC
  5
24F
  8
0
 62
     7
 10
156.95740900000001
 20
245.44021099999989
 30
0.0
 40
0.069577
 50
92.215743000000018
 51
177.78422699999999
  0
LINE
  5
250
  8
0
 62
     7
 10
156.88800000000001
 20
245.602
 30
0.0
 11
156.94200000000001
 21
245.50999999999991
 31
0.0
  0
LINE
  5
251
  8
0
 62
     7
 10
156.95500000000001
 20
245.50999999999991
 30
0.0
 11
160.16799999999989
 21
245.50999999999991
 31
0.0
  0
ARC
  5
252
  8
0
 62
     7
 10
157.03929600000001
 20
245.62462599999989
 30
0.0
 40
0.155476
 50
86.633154000000005
 51
166.87018
  0
LINE
  5
253
  8
0
 62
     7
 10
156.88800000000001
 20
245.602
 30
0.0
 11
156.88800000000001
 21
246.179
 31
0.0
  0
ARC
  5
254
  8
0
 62
     7
 10
157.291515
 20
246.158052
 30
0.0
 40
0.404198
 50
176.96296499999991
 51
194.908051
  0
ARC
  5
255
  8
0
 62
     7
 10
157.48677900000001
 20
246.19240199999999
 30
0.0
 40
0.6019680000000001
 50
193.28582599999999
 51
223.264466
  0
ARC
  5
256
  8
0
 62
     7
 10
157.32685000000001
 20
246.284099
 30
0.0
 40
0.4061440000000001
 50
133.2772919999999
 51
151.15276299999991
  0
ARC
  5
257
  8
0
 62
     7
 10
157.49162899999999
 20
246.17412599999989
 30
0.0
 40
0.6037680000000001
 50
149.5559669999999
 51
179.49317099999999
  0
LINE
  5
258
  8
0
 62
     7
 10
156.88800000000001
 20
246.75700000000001
 30
0.0
 11
156.88800000000001
 21
246.179
 31
0.0
  0
ARC
  5
259
  8
0
 62
     7
 10
157.03990099999999
 20
246.7359129999999
 30
0.0
 40
0.156356
 50
193.529
 51
273.12569400000001
  0
LINE
  5
25A
  8
0
 62
     7
 10
156.88800000000001
 20
246.75700000000001
 30
0.0
 11
156.94200000000001
 21
246.84999999999999
 31
0.0
  0
ARC
  5
25B
  8
0
 62
     7
 10
156.95695199999989
 20
246.91896700000001
 30
0.0
 40
0.069116
 50
182.14707200000001
 51
268.14905899999991
  0
LINE
  5
25C
  8
0
 62
     7
 10
160.83000000000001
 20
246.95500000000001
 30
0.0
 11
160.27699999999999
 21
246.95500000000001
 31
0.0
  0
LINE
  5
25D
  8
0
 62
     7
 10
160.83000000000001
 20
245.85799999999989
 30
0.0
 11
160.27699999999999
 21
245.85799999999989
 31
0.0
  0
LINE
  5
25E
  8
0
 62
     7
 10
160.83000000000001
 20
245.49299999999999
 30
0.0
 11
160.27699999999999
 21
245.49299999999999
 31
0.0
  0
LINE
  5
25F
  8
0
 62
     7
 10
160.83000000000001
 20
246.589
 30
0.0
 11
160.27699999999999
 21
246.589
 31
0.0
  0
LINE
  5
260
  8
0
 62
     7
 10
160.83000000000001
 20
246.95500000000001
 30
0.0
 11
160.887
 21
246.857
 31
0.0
  0
LINE
  5
261
  8
0
 62
     7
 10
160.83000000000001
 20
245.49299999999999
 30
0.0
 11
160.887
 21
245.59
 31
0.0
  0
ARC
  5
262
  8
0
 62
     7
 10
160.578101
 20
245.67590000000001
 30
0.0
 40
0.310677
 50
333.14871699999992
 51
35.892066
  0
ARC
  5
263
  8
0
 62
     7
 10
160.135017
 20
246.12212199999999
 30
0.0
 40
0.743267
 50
339.18806599999988
 51
352.26207599999992
  0
ARC
  5
264
  8
0
 62
     7
 10
159.61596900000001
 20
246.21493599999999
 30
0.0
 40
1.2702770000000001
 50
351.26595900000001
 51
17.146598000000001
  0
LINE
  5
265
  8
0
 62
     7
 10
160.887
 20
246.857
 30
0.0
 11
160.887
 21
245.59
 31
0.0
  0
ARC
  5
266
  8
0
 62
     7
 10
160.57880900000001
 20
246.7715169999999
 30
0.0
 40
0.310071
 50
324.03959400000002
 51
26.919623000000001
  0
LINE
  5
267
  8
0
 62
     7
 10
160.27699999999999
 20
246.95500000000001
 30
0.0
 11
160.22
 21
246.857
 31
0.0
  0
LINE
  5
268
  8
0
 62
     7
 10
160.27699999999999
 20
245.49299999999999
 30
0.0
 11
160.22
 21
245.59
 31
0.0
  0
ARC
  5
269
  8
0
 62
     7
 10
160.97287299999999
 20
246.32652300000001
 30
0.0
 40
0.74435
 50
159.316092
 51
172.34927899999991
  0
ARC
  5
26A
  8
0
 62
     7
 10
161.502486
 20
246.23265599999999
 30
0.0
 40
1.2819430000000001
 50
171.34264599999989
 51
196.99137899999991
  0
ARC
  5
26B
  8
0
 62
     7
 10
160.52925300000001
 20
245.67641
 30
0.0
 40
0.311243
 50
144.29887400000001
 51
206.903716
  0
LINE
  5
26C
  8
0
 62
     7
 10
160.22
 20
246.857
 30
0.0
 11
160.22
 21
245.59
 31
0.0
  0
ARC
  5
26D
  8
0
 62
     7
 10
160.526869
 20
246.77088000000001
 30
0.0
 40
0.309202
 50
152.86604800000001
 51
215.9313609999999
  0
LINE
  5
26E
  8
0
 62
     7
 10
156.6879999999999
 20
228.21899999999999
 30
0.0
 11
156.6879999999999
 21
232.13900000000001
 31
0.0
  0
LINE
  5
26F
  8
0
 62
     7
 10
157.048
 20
229.779
 30
0.0
 11
160.06100000000001
 21
229.779
 31
0.0
  0
LINE
  5
270
  8
0
 62
     7
 10
157.048
 20
230.57900000000001
 30
0.0
 11
160.06100000000001
 21
230.57900000000001
 31
0.0
  0
LINE
  5
271
  8
0
 62
     7
 10
156.8479999999999
 20
228.17899999999989
 30
0.0
 11
156.8479999999999
 21
230.179
 31
0.0
  0
LINE
  5
272
  8
0
 62
     7
 10
156.8479999999999
 20
228.17899999999989
 30
0.0
 11
156.72799999999989
 21
228.17899999999989
 31
0.0
  0
LINE
  5
273
  8
0
 62
     7
 10
156.88800000000001
 20
228.21899999999999
 30
0.0
 11
156.8479999999999
 21
228.17899999999989
 31
0.0
  0
LINE
  5
274
  8
0
 62
     7
 10
156.72799999999989
 20
228.17899999999989
 30
0.0
 11
156.6879999999999
 21
228.21899999999999
 31
0.0
  0
LINE
  5
275
  8
0
 62
     7
 10
156.72799999999989
 20
230.179
 30
0.0
 11
156.72799999999989
 21
228.17899999999989
 31
0.0
  0
LINE
  5
276
  8
0
 62
     7
 10
156.88800000000001
 20
228.21899999999999
 30
0.0
 11
156.88800000000001
 21
230.179
 31
0.0
  0
LINE
  5
277
  8
0
 62
     7
 10
156.88800000000001
 20
232.13900000000001
 30
0.0
 11
156.88800000000001
 21
230.179
 31
0.0
  0
LINE
  5
278
  8
0
 62
     7
 10
156.72799999999989
 20
230.179
 30
0.0
 11
156.72799999999989
 21
232.179
 31
0.0
  0
LINE
  5
279
  8
0
 62
     7
 10
156.72799999999989
 20
232.179
 30
0.0
 11
156.6879999999999
 21
232.13900000000001
 31
0.0
  0
LINE
  5
27A
  8
0
 62
     7
 10
156.88800000000001
 20
232.13900000000001
 30
0.0
 11
156.8479999999999
 21
232.179
 31
0.0
  0
LINE
  5
27B
  8
0
 62
     7
 10
156.8479999999999
 20
232.179
 30
0.0
 11
156.72799999999989
 21
232.179
 31
0.0
  0
LINE
  5
27C
  8
0
 62
     7
 10
156.8479999999999
 20
232.179
 30
0.0
 11
156.8479999999999
 21
230.179
 31
0.0
  0
LINE
  5
27D
  8
0
 62
     7
 10
160.221
 20
230.75599999999989
 30
0.0
 11
160.16799999999989
 21
230.84899999999999
 31
0.0
  0
ARC
  5
27E
  8
0
 62
     7
 10
160.06881299999989
 20
230.73580299999989
 30
0.0
 40
0.157064
 50
267.08914800000002
 51
346.25619699999999
  0
ARC
  5
27F
  8
0
 62
     7
 10
159.8210729999999
 20
230.202212
 30
0.0
 40
0.400981
 50
356.67634900000002
 51
14.781803999999999
  0
ARC
  5
280
  8
0
 62
     7
 10
159.627105
 20
230.1680189999999
 30
0.0
 40
0.597479
 50
13.206215
 51
43.453181000000001
  0
LINE
  5
281
  8
0
 62
     7
 10
160.221
 20
230.75599999999989
 30
0.0
 11
160.221
 21
230.179
 31
0.0
  0
LINE
  5
282
  8
0
 62
     7
 10
160.221
 20
229.60199999999989
 30
0.0
 11
160.221
 21
230.179
 31
0.0
  0
ARC
  5
283
  8
0
 62
     7
 10
159.777804
 20
230.08052799999999
 30
0.0
 40
0.4135640000000001
 50
313.18656099999993
 51
331.7692009999999
  0
ARC
  5
284
  8
0
 62
     7
 10
159.627826
 20
230.181139
 30
0.0
 40
0.593558
 50
330.06034499999998
 51
359.79004500000002
  0
ARC
  5
285
  8
0
 62
     7
 10
160.07048700000001
 20
229.62437399999999
 30
0.0
 40
0.154913
 50
13.083174
 51
93.571479999999994
  0
LINE
  5
286
  8
0
 62
     7
 10
160.221
 20
229.60199999999989
 30
0.0
 11
160.16799999999989
 21
229.50899999999999
 31
0.0
  0
LINE
  5
287
  8
0
 62
     7
 10
156.95500000000001
 20
230.84899999999999
 30
0.0
 11
160.16799999999989
 21
230.84899999999999
 31
0.0
  0
ARC
  5
288
  8
0
 62
     7
 10
156.95740900000001
 20
229.43970799999991
 30
0.0
 40
0.069577
 50
92.215743000000018
 51
177.78422699999999
  0
LINE
  5
289
  8
0
 62
     7
 10
156.88800000000001
 20
229.60199999999989
 30
0.0
 11
156.94200000000001
 21
229.50899999999999
 31
0.0
  0
LINE
  5
28A
  8
0
 62
     7
 10
156.95500000000001
 20
229.50899999999999
 30
0.0
 11
160.16799999999989
 21
229.50899999999999
 31
0.0
  0
ARC
  5
28B
  8
0
 62
     7
 10
157.0387659999999
 20
229.62438800000001
 30
0.0
 40
0.1549
 50
86.424166
 51
166.92113999999989
  0
LINE
  5
28C
  8
0
 62
     7
 10
156.88800000000001
 20
229.60199999999989
 30
0.0
 11
156.88800000000001
 21
230.179
 31
0.0
  0
ARC
  5
28D
  8
0
 62
     7
 10
157.291515
 20
230.15754899999999
 30
0.0
 40
0.404198
 50
176.96296499999991
 51
194.908051
  0
ARC
  5
28E
  8
0
 62
     7
 10
157.48864499999991
 20
230.19238399999989
 30
0.0
 40
0.603896
 50
193.28990300000001
 51
223.20039
  0
ARC
  5
28F
  8
0
 62
     7
 10
157.327361
 20
230.28272899999999
 30
0.0
 40
0.406875
 50
133.2791399999999
 51
151.11496199999999
  0
ARC
  5
290
  8
0
 62
     7
 10
157.49033
 20
230.173699
 30
0.0
 40
0.602468
 50
149.5224649999999
 51
179.49920800000001
  0
LINE
  5
291
  8
0
 62
     7
 10
156.88800000000001
 20
230.75599999999989
 30
0.0
 11
156.88800000000001
 21
230.179
 31
0.0
  0
ARC
  5
292
  8
0
 62
     7
 10
157.040119
 20
230.73535799999999
 30
0.0
 40
0.156636
 50
193.6143019999999
 51
273.040392
  0
LINE
  5
293
  8
0
 62
     7
 10
156.88800000000001
 20
230.75599999999989
 30
0.0
 11
156.94200000000001
 21
230.84899999999999
 31
0.0
  0
ARC
  5
294
  8
0
 62
     7
 10
156.95709099999991
 20
230.91826
 30
0.0
 40
0.069261
 50
182.25860199999991
 51
268.03753
  0
LINE
  5
295
  8
0
 62
     7
 10
160.83000000000001
 20
230.95500000000001
 30
0.0
 11
160.27699999999999
 21
230.95500000000001
 31
0.0
  0
LINE
  5
296
  8
0
 62
     7
 10
160.83000000000001
 20
229.858
 30
0.0
 11
160.27699999999999
 21
229.858
 31
0.0
  0
LINE
  5
297
  8
0
 62
     7
 10
160.83000000000001
 20
229.49199999999999
 30
0.0
 11
160.27699999999999
 21
229.49199999999999
 31
0.0
  0
LINE
  5
298
  8
0
 62
     7
 10
160.83000000000001
 20
230.589
 30
0.0
 11
160.27699999999999
 21
230.589
 31
0.0
  0
LINE
  5
299
  8
0
 62
     7
 10
160.83000000000001
 20
230.95500000000001
 30
0.0
 11
160.887
 21
230.857
 31
0.0
  0
LINE
  5
29A
  8
0
 62
     7
 10
160.83000000000001
 20
229.49199999999999
 30
0.0
 11
160.887
 21
229.59
 31
0.0
  0
ARC
  5
29B
  8
0
 62
     7
 10
160.578101
 20
229.675397
 30
0.0
 40
0.310677
 50
333.14871699999992
 51
35.892066
  0
ARC
  5
29C
  8
0
 62
     7
 10
160.1347879999999
 20
230.12170399999999
 30
0.0
 40
0.743512
 50
339.18824499999999
 51
352.25470599999989
  0
ARC
  5
29D
  8
0
 62
     7
 10
159.6159989999999
 20
230.2144209999999
 30
0.0
 40
1.2702530000000001
 50
351.26439199999987
 51
17.147528999999999
  0
LINE
  5
29E
  8
0
 62
     7
 10
160.887
 20
230.857
 30
0.0
 11
160.887
 21
229.59
 31
0.0
  0
ARC
  5
29F
  8
0
 62
     7
 10
160.57880900000001
 20
230.77101499999989
 30
0.0
 40
0.310071
 50
324.03959400000002
 51
26.919623000000001
  0
LINE
  5
2A0
  8
0
 62
     7
 10
160.27699999999999
 20
230.95500000000001
 30
0.0
 11
160.22
 21
230.857
 31
0.0
  0
LINE
  5
2A1
  8
0
 62
     7
 10
160.27699999999999
 20
229.49199999999999
 30
0.0
 11
160.22
 21
229.59
 31
0.0
  0
ARC
  5
2A2
  8
0
 62
     7
 10
160.97541699999991
 20
230.32547
 30
0.0
 40
0.746924
 50
159.345507
 51
172.34486299999989
  0
ARC
  5
2A3
  8
0
 62
     7
 10
161.5019189999999
 20
230.2320609999999
 30
0.0
 40
1.281372999999999
 50
171.341398
 51
196.994834
  0
ARC
  5
2A4
  8
0
 62
     7
 10
160.52925300000001
 20
229.67590699999991
 30
0.0
 40
0.311243
 50
144.29887400000001
 51
206.903716
  0
LINE
  5
2A5
  8
0
 62
     7
 10
160.22
 20
230.857
 30
0.0
 11
160.22
 21
229.59
 31
0.0
  0
ARC
  5
2A6
  8
0
 62
     7
 10
160.526869
 20
230.77037799999991
 30
0.0
 40
0.309202
 50
152.86604800000001
 51
215.9313609999999
  0
LINE
  5
2A7
  8
0
 62
     7
 10
156.6879999999999
 20
151.39199999999991
 30
0.0
 11
156.6879999999999
 21
155.3129999999999
 31
0.0
  0
LINE
  5
2A8
  8
0
 62
     7
 10
157.048
 20
152.95199999999991
 30
0.0
 11
160.06100000000001
 21
152.95199999999991
 31
0.0
  0
LINE
  5
2A9
  8
0
 62
     7
 10
157.048
 20
153.75200000000001
 30
0.0
 11
160.06100000000001
 21
153.75200000000001
 31
0.0
  0
LINE
  5
2AA
  8
0
 62
     7
 10
156.8479999999999
 20
151.35199999999989
 30
0.0
 11
156.8479999999999
 21
153.35299999999989
 31
0.0
  0
LINE
  5
2AB
  8
0
 62
     7
 10
156.8479999999999
 20
151.35199999999989
 30
0.0
 11
156.72799999999989
 21
151.35199999999989
 31
0.0
  0
LINE
  5
2AC
  8
0
 62
     7
 10
156.88800000000001
 20
151.39199999999991
 30
0.0
 11
156.8479999999999
 21
151.35199999999989
 31
0.0
  0
LINE
  5
2AD
  8
0
 62
     7
 10
156.72799999999989
 20
151.35199999999989
 30
0.0
 11
156.6879999999999
 21
151.39199999999991
 31
0.0
  0
LINE
  5
2AE
  8
0
 62
     7
 10
156.72799999999989
 20
153.35299999999989
 30
0.0
 11
156.72799999999989
 21
151.35199999999989
 31
0.0
  0
LINE
  5
2AF
  8
0
 62
     7
 10
156.88800000000001
 20
151.39199999999991
 30
0.0
 11
156.88800000000001
 21
153.35299999999989
 31
0.0
  0
LINE
  5
2B0
  8
0
 62
     7
 10
156.88800000000001
 20
155.3129999999999
 30
0.0
 11
156.88800000000001
 21
153.35299999999989
 31
0.0
  0
LINE
  5
2B1
  8
0
 62
     7
 10
156.72799999999989
 20
153.35299999999989
 30
0.0
 11
156.72799999999989
 21
155.35299999999989
 31
0.0
  0
LINE
  5
2B2
  8
0
 62
     7
 10
156.72799999999989
 20
155.35299999999989
 30
0.0
 11
156.6879999999999
 21
155.3129999999999
 31
0.0
  0
LINE
  5
2B3
  8
0
 62
     7
 10
156.88800000000001
 20
155.3129999999999
 30
0.0
 11
156.8479999999999
 21
155.35299999999989
 31
0.0
  0
LINE
  5
2B4
  8
0
 62
     7
 10
156.8479999999999
 20
155.35299999999989
 30
0.0
 11
156.72799999999989
 21
155.35299999999989
 31
0.0
  0
LINE
  5
2B5
  8
0
 62
     7
 10
156.8479999999999
 20
155.35299999999989
 30
0.0
 11
156.8479999999999
 21
153.35299999999989
 31
0.0
  0
LINE
  5
2B6
  8
0
 62
     7
 10
160.221
 20
153.93000000000001
 30
0.0
 11
160.16799999999989
 21
154.02199999999999
 31
0.0
  0
ARC
  5
2B7
  8
0
 62
     7
 10
160.06897499999991
 20
153.90867600000001
 30
0.0
 40
0.156749
 50
267.02424999999999
 51
346.47912400000001
  0
ARC
  5
2B8
  8
0
 62
     7
 10
159.822135
 20
153.37572700000001
 30
0.0
 40
0.39992
 50
356.67111999999997
 51
14.801691
  0
ARC
  5
2B9
  8
0
 62
     7
 10
159.628218
 20
153.341724
 30
0.0
 40
0.596322
 50
13.200149
 51
43.491185999999992
  0
LINE
  5
2BA
  8
0
 62
     7
 10
160.221
 20
153.93000000000001
 30
0.0
 11
160.221
 21
153.35299999999989
 31
0.0
  0
LINE
  5
2BB
  8
0
 62
     7
 10
160.221
 20
152.77500000000001
 30
0.0
 11
160.221
 21
153.35299999999989
 31
0.0
  0
ARC
  5
2BC
  8
0
 62
     7
 10
159.77431200000001
 20
153.25624500000001
 30
0.0
 40
0.417793
 50
313.29916200000002
 51
331.70159000000001
  0
ARC
  5
2BD
  8
0
 62
     7
 10
159.628334
 20
153.35428300000001
 30
0.0
 40
0.593048
 50
330.04743699999989
 51
359.828217
  0
ARC
  5
2BE
  8
0
 62
     7
 10
160.07070400000001
 20
152.79775900000001
 30
0.0
 40
0.154738
 50
13.157239000000001
 51
93.655768999999978
  0
LINE
  5
2BF
  8
0
 62
     7
 10
160.221
 20
152.77500000000001
 30
0.0
 11
160.16799999999989
 21
152.68199999999999
 31
0.0
  0
LINE
  5
2C0
  8
0
 62
     7
 10
156.95500000000001
 20
154.02199999999999
 30
0.0
 11
160.16799999999989
 21
154.02199999999999
 31
0.0
  0
ARC
  5
2C1
  8
0
 62
     7
 10
156.95723199999989
 20
152.612708
 30
0.0
 40
0.069423
 50
92.073938000000012
 51
177.33229900000001
  0
LINE
  5
2C2
  8
0
 62
     7
 10
156.88800000000001
 20
152.77500000000001
 30
0.0
 11
156.94200000000001
 21
152.68199999999999
 31
0.0
  0
LINE
  5
2C3
  8
0
 62
     7
 10
156.95500000000001
 20
152.68199999999999
 30
0.0
 11
160.16799999999989
 21
152.68199999999999
 31
0.0
  0
ARC
  5
2C4
  8
0
 62
     7
 10
157.03815700000001
 20
152.79830200000001
 30
0.0
 40
0.154222
 50
86.181792999999985
 51
167.00515899999999
  0
LINE
  5
2C5
  8
0
 62
     7
 10
156.88800000000001
 20
152.77500000000001
 30
0.0
 11
156.88800000000001
 21
153.35299999999989
 31
0.0
  0
ARC
  5
2C6
  8
0
 62
     7
 10
157.29357300000001
 20
153.3310449999999
 30
0.0
 40
0.406257
 50
176.971991
 51
194.869753
  0
ARC
  5
2C7
  8
0
 62
     7
 10
157.488991
 20
153.36574999999991
 30
0.0
 40
0.6042640000000001
 50
193.29502500000001
 51
223.189649
  0
ARC
  5
2C8
  8
0
 62
     7
 10
157.325289
 20
153.45719399999999
 30
0.0
 40
0.404531
 50
133.188795
 51
151.1092919999999
  0
ARC
  5
2C9
  8
0
 62
     7
 10
157.49033799999989
 20
153.34706199999999
 30
0.0
 40
0.602478
 50
149.5224199999999
 51
179.48232799999991
  0
LINE
  5
2CA
  8
0
 62
     7
 10
156.88800000000001
 20
153.93000000000001
 30
0.0
 11
156.88800000000001
 21
153.35299999999989
 31
0.0
  0
ARC
  5
2CB
  8
0
 62
     7
 10
157.040145
 20
153.90848299999999
 30
0.0
 40
0.156564
 50
193.46441899999999
 51
273.03224699999998
  0
LINE
  5
2CC
  8
0
 62
     7
 10
156.88800000000001
 20
153.93000000000001
 30
0.0
 11
156.94200000000001
 21
154.02199999999999
 31
0.0
  0
ARC
  5
2CD
  8
0
 62
     7
 10
156.95745299999999
 20
154.091804
 30
0.0
 40
0.069622
 50
182.25003100000001
 51
267.749999
  0
LINE
  5
2CE
  8
0
 62
     7
 10
160.83000000000001
 20
154.1279999999999
 30
0.0
 11
160.27699999999999
 21
154.1279999999999
 31
0.0
  0
LINE
  5
2CF
  8
0
 62
     7
 10
160.83000000000001
 20
153.03100000000001
 30
0.0
 11
160.27699999999999
 21
153.03100000000001
 31
0.0
  0
LINE
  5
2D0
  8
0
 62
     7
 10
160.83000000000001
 20
152.66499999999999
 30
0.0
 11
160.27699999999999
 21
152.66499999999999
 31
0.0
  0
LINE
  5
2D1
  8
0
 62
     7
 10
160.83000000000001
 20
153.76199999999989
 30
0.0
 11
160.27699999999999
 21
153.76199999999989
 31
0.0
  0
LINE
  5
2D2
  8
0
 62
     7
 10
160.83000000000001
 20
154.1279999999999
 30
0.0
 11
160.887
 21
154.03
 31
0.0
  0
LINE
  5
2D3
  8
0
 62
     7
 10
160.83000000000001
 20
152.66499999999999
 30
0.0
 11
160.887
 21
152.76300000000001
 31
0.0
  0
ARC
  5
2D4
  8
0
 62
     7
 10
160.578101
 20
152.84859299999991
 30
0.0
 40
0.310677
 50
333.14871699999992
 51
35.892066
  0
ARC
  5
2D5
  8
0
 62
     7
 10
160.13225
 20
153.29545300000001
 30
0.0
 40
0.74608
 50
339.21776699999992
 51
352.25033999999999
  0
ARC
  5
2D6
  8
0
 62
     7
 10
159.6152129999999
 20
153.38783699999999
 30
0.0
 40
1.2710410000000001
 50
351.26665299999991
 51
17.142406999999999
  0
LINE
  5
2D7
  8
0
 62
     7
 10
160.887
 20
154.03
 30
0.0
 11
160.887
 21
152.76300000000001
 31
0.0
  0
ARC
  5
2D8
  8
0
 62
     7
 10
160.579003
 20
153.9445399999999
 30
0.0
 40
0.309905
 50
324.02085299999987
 51
26.938363999999989
  0
LINE
  5
2D9
  8
0
 62
     7
 10
160.27699999999999
 20
154.1279999999999
 30
0.0
 11
160.22
 21
154.03
 31
0.0
  0
LINE
  5
2DA
  8
0
 62
     7
 10
160.27699999999999
 20
152.66499999999999
 30
0.0
 11
160.22
 21
152.76300000000001
 31
0.0
  0
ARC
  5
2DB
  8
0
 62
     7
 10
160.977968
 20
153.498459
 30
0.0
 40
0.7495060000000001
 50
159.374842
 51
172.34048299999989
  0
ARC
  5
2DC
  8
0
 62
     7
 10
161.502712
 20
153.40538100000001
 30
0.0
 40
1.2821679999999991
 50
171.34363999999991
 51
196.989755
  0
ARC
  5
2DD
  8
0
 62
     7
 10
160.52905799999999
 20
152.849118
 30
0.0
 40
0.311076
 50
144.28018599999999
 51
206.92240499999991
  0
LINE
  5
2DE
  8
0
 62
     7
 10
160.22
 20
154.03
 30
0.0
 11
160.22
 21
152.76300000000001
 31
0.0
  0
ARC
  5
2DF
  8
0
 62
     7
 10
160.526869
 20
153.943918
 30
0.0
 40
0.309202
 50
152.86604800000001
 51
215.9313609999999
  0
LINE
  5
2E0
  8
0
 62
     7
 10
156.6879999999999
 20
105.435
 30
0.0
 11
156.6879999999999
 21
109.35599999999999
 31
0.0
  0
LINE
  5
2E1
  8
0
 62
     7
 10
157.048
 20
106.995
 30
0.0
 11
160.06100000000001
 21
106.995
 31
0.0
  0
LINE
  5
2E2
  8
0
 62
     7
 10
157.048
 20
107.79600000000001
 30
0.0
 11
160.06100000000001
 21
107.79600000000001
 31
0.0
  0
LINE
  5
2E3
  8
0
 62
     7
 10
156.8479999999999
 20
105.3949999999999
 30
0.0
 11
156.8479999999999
 21
107.3949999999999
 31
0.0
  0
LINE
  5
2E4
  8
0
 62
     7
 10
156.8479999999999
 20
105.3949999999999
 30
0.0
 11
156.72799999999989
 21
105.3949999999999
 31
0.0
  0
LINE
  5
2E5
  8
0
 62
     7
 10
156.88800000000001
 20
105.435
 30
0.0
 11
156.8479999999999
 21
105.3949999999999
 31
0.0
  0
LINE
  5
2E6
  8
0
 62
     7
 10
156.72799999999989
 20
105.3949999999999
 30
0.0
 11
156.6879999999999
 21
105.435
 31
0.0
  0
LINE
  5
2E7
  8
0
 62
     7
 10
156.72799999999989
 20
107.3949999999999
 30
0.0
 11
156.72799999999989
 21
105.3949999999999
 31
0.0
  0
LINE
  5
2E8
  8
0
 62
     7
 10
156.88800000000001
 20
105.435
 30
0.0
 11
156.88800000000001
 21
107.3949999999999
 31
0.0
  0
LINE
  5
2E9
  8
0
 62
     7
 10
156.88800000000001
 20
109.35599999999999
 30
0.0
 11
156.88800000000001
 21
107.3949999999999
 31
0.0
  0
LINE
  5
2EA
  8
0
 62
     7
 10
156.72799999999989
 20
107.3949999999999
 30
0.0
 11
156.72799999999989
 21
109.396
 31
0.0
  0
LINE
  5
2EB
  8
0
 62
     7
 10
156.72799999999989
 20
109.396
 30
0.0
 11
156.6879999999999
 21
109.35599999999999
 31
0.0
  0
LINE
  5
2EC
  8
0
 62
     7
 10
156.88800000000001
 20
109.35599999999999
 30
0.0
 11
156.8479999999999
 21
109.396
 31
0.0
  0
LINE
  5
2ED
  8
0
 62
     7
 10
156.8479999999999
 20
109.396
 30
0.0
 11
156.72799999999989
 21
109.396
 31
0.0
  0
LINE
  5
2EE
  8
0
 62
     7
 10
156.8479999999999
 20
109.396
 30
0.0
 11
156.8479999999999
 21
107.3949999999999
 31
0.0
  0
LINE
  5
2EF
  8
0
 62
     7
 10
160.221
 20
107.973
 30
0.0
 11
160.16799999999989
 21
108.065
 31
0.0
  0
ARC
  5
2F0
  8
0
 62
     7
 10
160.069669
 20
107.95146799999991
 30
0.0
 40
0.156066
 50
266.75574599999987
 51
346.43124599999999
  0
ARC
  5
2F1
  8
0
 62
     7
 10
159.82200900000001
 20
107.41855700000001
 30
0.0
 40
0.4000460000000001
 50
356.67146099999991
 51
14.799393999999999
  0
ARC
  5
2F2
  8
0
 62
     7
 10
159.62443799999991
 20
107.383534
 30
0.0
 40
0.6002380000000001
 50
13.214109000000001
 51
43.360900000000001
  0
LINE
  5
2F3
  8
0
 62
     7
 10
160.221
 20
107.973
 30
0.0
 11
160.221
 21
107.3949999999999
 31
0.0
  0
LINE
  5
2F4
  8
0
 62
     7
 10
160.221
 20
106.8179999999999
 30
0.0
 11
160.221
 21
107.3949999999999
 31
0.0
  0
ARC
  5
2F5
  8
0
 62
     7
 10
159.77455399999999
 20
107.29862299999991
 30
0.0
 40
0.4173020000000001
 50
313.31702200000001
 51
331.75674099999998
  0
ARC
  5
2F6
  8
0
 62
     7
 10
159.62680499999999
 20
107.39766
 30
0.0
 40
0.594579
 50
330.08655699999991
 51
359.77541699999989
  0
ARC
  5
2F7
  8
0
 62
     7
 10
160.07070400000001
 20
106.84058400000001
 30
0.0
 40
0.154738
 50
13.157239000000001
 51
93.655768999999978
  0
LINE
  5
2F8
  8
0
 62
     7
 10
160.221
 20
106.8179999999999
 30
0.0
 11
160.16799999999989
 21
106.726
 31
0.0
  0
LINE
  5
2F9
  8
0
 62
     7
 10
156.95500000000001
 20
108.065
 30
0.0
 11
160.16799999999989
 21
108.065
 31
0.0
  0
ARC
  5
2FA
  8
0
 62
     7
 10
156.95745299999999
 20
106.65603
 30
0.0
 40
0.069622
 50
92.250000999999997
 51
177.74996899999991
  0
LINE
  5
2FB
  8
0
 62
     7
 10
156.88800000000001
 20
106.8179999999999
 30
0.0
 11
156.94200000000001
 21
106.726
 31
0.0
  0
LINE
  5
2FC
  8
0
 62
     7
 10
156.95500000000001
 20
106.726
 30
0.0
 11
160.16799999999989
 21
106.726
 31
0.0
  0
ARC
  5
2FD
  8
0
 62
     7
 10
157.03815700000001
 20
106.841127
 30
0.0
 40
0.154222
 50
86.181792999999985
 51
167.00515899999999
  0
LINE
  5
2FE
  8
0
 62
     7
 10
156.88800000000001
 20
106.8179999999999
 30
0.0
 11
156.88800000000001
 21
107.3949999999999
 31
0.0
  0
ARC
  5
2FF
  8
0
 62
     7
 10
157.29154899999989
 20
107.373909
 30
0.0
 40
0.4042320000000001
 50
176.96245300000001
 51
194.90755100000001
  0
ARC
  5
300
  8
0
 62
     7
 10
157.490568
 20
107.4092679999999
 30
0.0
 40
0.605889
 50
193.29683899999989
 51
223.1354419999999
  0
ARC
  5
301
  8
0
 62
     7
 10
157.331368
 20
107.49650200000001
 30
0.0
 40
0.4117600000000001
 50
133.40497500000001
 51
151.557976
  0
ARC
  5
302
  8
0
 62
     7
 10
157.49108699999999
 20
107.38990800000001
 30
0.0
 40
0.6032270000000001
 50
149.88043200000001
 51
179.48502500000001
  0
LINE
  5
303
  8
0
 62
     7
 10
156.88800000000001
 20
107.973
 30
0.0
 11
156.88800000000001
 21
107.3949999999999
 31
0.0
  0
ARC
  5
304
  8
0
 62
     7
 10
157.03968499999999
 20
107.95159099999999
 30
0.0
 40
0.156184
 50
193.60468099999991
 51
273.20836700000001
  0
LINE
  5
305
  8
0
 62
     7
 10
156.88800000000001
 20
107.973
 30
0.0
 11
156.94200000000001
 21
108.065
 31
0.0
  0
ARC
  5
306
  8
0
 62
     7
 10
156.95745299999999
 20
108.134629
 30
0.0
 40
0.069622
 50
182.25003100000001
 51
267.749999
  0
LINE
  5
307
  8
0
 62
     7
 10
160.83000000000001
 20
108.17100000000001
 30
0.0
 11
160.27699999999999
 21
108.17100000000001
 31
0.0
  0
LINE
  5
308
  8
0
 62
     7
 10
160.83000000000001
 20
107.074
 30
0.0
 11
160.27699999999999
 21
107.074
 31
0.0
  0
LINE
  5
309
  8
0
 62
     7
 10
160.83000000000001
 20
106.708
 30
0.0
 11
160.27699999999999
 21
106.708
 31
0.0
  0
LINE
  5
30A
  8
0
 62
     7
 10
160.83000000000001
 20
107.80500000000001
 30
0.0
 11
160.27699999999999
 21
107.80500000000001
 31
0.0
  0
LINE
  5
30B
  8
0
 62
     7
 10
160.83000000000001
 20
108.17100000000001
 30
0.0
 11
160.887
 21
108.07299999999989
 31
0.0
  0
LINE
  5
30C
  8
0
 62
     7
 10
160.83000000000001
 20
106.708
 30
0.0
 11
160.887
 21
106.806
 31
0.0
  0
ARC
  5
30D
  8
0
 62
     7
 10
160.578101
 20
106.8914179999999
 30
0.0
 40
0.310677
 50
333.14871699999992
 51
35.892066
  0
ARC
  5
30E
  8
0
 62
     7
 10
160.13271099999989
 20
107.33810800000001
 30
0.0
 40
0.74559
 50
339.21740899999992
 51
352.26505200000003
  0
ARC
  5
30F
  8
0
 62
     7
 10
159.615185
 20
107.4306889999999
 30
0.0
 40
1.2710589999999991
 50
351.26946400000003
 51
17.14086799999999
  0
LINE
  5
310
  8
0
 62
     7
 10
160.887
 20
108.07299999999989
 30
0.0
 11
160.887
 21
106.806
 31
0.0
  0
ARC
  5
311
  8
0
 62
     7
 10
160.579003
 20
107.9873649999999
 30
0.0
 40
0.309905
 50
324.02085299999987
 51
26.938363999999989
  0
LINE
  5
312
  8
0
 62
     7
 10
160.27699999999999
 20
108.17100000000001
 30
0.0
 11
160.22
 21
108.07299999999989
 31
0.0
  0
LINE
  5
313
  8
0
 62
     7
 10
160.27699999999999
 20
106.708
 30
0.0
 11
160.22
 21
106.806
 31
0.0
  0
ARC
  5
314
  8
0
 62
     7
 10
160.97281599999991
 20
107.542406
 30
0.0
 40
0.7442890000000001
 50
159.31604799999999
 51
172.35111000000001
  0
ARC
  5
315
  8
0
 62
     7
 10
161.50380699999991
 20
107.448384
 30
0.0
 40
1.283266999999999
 50
171.346045
 51
196.98309999999989
  0
ARC
  5
316
  8
0
 62
     7
 10
160.52905799999999
 20
106.891943
 30
0.0
 40
0.311076
 50
144.28018599999999
 51
206.92240499999991
  0
LINE
  5
317
  8
0
 62
     7
 10
160.22
 20
108.07299999999989
 30
0.0
 11
160.22
 21
106.806
 31
0.0
  0
ARC
  5
318
  8
0
 62
     7
 10
160.526869
 20
107.9867429999999
 30
0.0
 40
0.309202
 50
152.86604800000001
 51
215.9313609999999
  0
LINE
  5
319
  8
0
 62
     7
 10
156.6879999999999
 20
246.113
 30
0.0
 11
156.6879999999999
 21
249.45699999999991
 31
0.0
  0
LINE
  5
31A
  8
0
 62
     7
 10
156.6879999999999
 20
249.45699999999991
 30
0.0
 11
156.63200000000001
 21
249.51300000000001
 31
0.0
  0
LINE
  5
31B
  8
0
 62
     7
 10
156.63200000000001
 20
249.51300000000001
 30
0.0
 11
155.85299999999989
 21
249.51300000000001
 31
0.0
  0
LINE
  5
31C
  8
0
 62
     7
 10
155.85299999999989
 20
249.51300000000001
 30
0.0
 11
155.85299999999989
 21
242.84599999999989
 31
0.0
  0
LINE
  5
31D
  8
0
 62
     7
 10
155.85299999999989
 20
242.84599999999989
 30
0.0
 11
156.655
 21
242.84599999999989
 31
0.0
  0
LINE
  5
31E
  8
0
 62
     7
 10
156.655
 20
242.84599999999989
 30
0.0
 11
156.6879999999999
 21
242.87999999999991
 31
0.0
  0
LINE
  5
31F
  8
0
 62
     7
 10
156.6879999999999
 20
242.87999999999991
 30
0.0
 11
156.6879999999999
 21
246.113
 31
0.0
  0
LINE
  5
320
  8
0
 62
     7
 10
156.6879999999999
 20
233.45699999999991
 30
0.0
 11
156.63200000000001
 21
233.51199999999989
 31
0.0
  0
LINE
  5
321
  8
0
 62
     7
 10
156.63200000000001
 20
233.51199999999989
 30
0.0
 11
155.85299999999989
 21
233.51199999999989
 31
0.0
  0
LINE
  5
322
  8
0
 62
     7
 10
155.85299999999989
 20
233.51199999999989
 30
0.0
 11
155.85299999999989
 21
226.845
 31
0.0
  0
LINE
  5
323
  8
0
 62
     7
 10
155.85299999999989
 20
226.845
 30
0.0
 11
156.655
 21
226.845
 31
0.0
  0
LINE
  5
324
  8
0
 62
     7
 10
156.655
 20
226.845
 30
0.0
 11
156.6879999999999
 21
226.87899999999999
 31
0.0
  0
LINE
  5
325
  8
0
 62
     7
 10
156.6879999999999
 20
226.87899999999999
 30
0.0
 11
156.6879999999999
 21
230.11199999999999
 31
0.0
  0
LINE
  5
326
  8
0
 62
     7
 10
156.6879999999999
 20
230.11199999999999
 30
0.0
 11
156.6879999999999
 21
233.45699999999991
 31
0.0
  0
LINE
  5
327
  8
0
 62
     7
 10
156.6879999999999
 20
155.3129999999999
 30
0.0
 11
156.6879999999999
 21
156.727
 31
0.0
  0
LINE
  5
328
  8
0
 62
     7
 10
156.6879999999999
 20
156.727
 30
0.0
 11
155.75999999999991
 21
156.727
 31
0.0
  0
LINE
  5
329
  8
0
 62
     7
 10
155.75999999999991
 20
156.727
 30
0.0
 11
155.61500000000001
 21
150.06
 31
0.0
  0
LINE
  5
32A
  8
0
 62
     7
 10
155.61500000000001
 20
150.06
 30
0.0
 11
156.6879999999999
 21
150.06
 31
0.0
  0
LINE
  5
32B
  8
0
 62
     7
 10
156.6879999999999
 20
150.06
 30
0.0
 11
156.6879999999999
 21
153.34899999999999
 31
0.0
  0
LINE
  5
32C
  8
0
 62
     7
 10
156.6879999999999
 20
153.34899999999999
 30
0.0
 11
156.6879999999999
 21
155.3129999999999
 31
0.0
  0
LINE
  5
32D
  8
0
 62
     7
 10
156.6879999999999
 20
107.31699999999999
 30
0.0
 11
156.6879999999999
 21
110.66200000000001
 31
0.0
  0
LINE
  5
32E
  8
0
 62
     7
 10
156.6879999999999
 20
110.66200000000001
 30
0.0
 11
156.655
 21
110.69499999999989
 31
0.0
  0
LINE
  5
32F
  8
0
 62
     7
 10
156.655
 20
110.69499999999989
 30
0.0
 11
154.76400000000001
 21
110.69499999999989
 31
0.0
  0
LINE
  5
330
  8
0
 62
     7
 10
154.76400000000001
 20
110.69499999999989
 30
0.0
 11
154.61999999999989
 21
104.02799999999991
 31
0.0
  0
LINE
  5
331
  8
0
 62
     7
 10
154.61999999999989
 20
104.02799999999991
 30
0.0
 11
156.655
 21
104.02799999999991
 31
0.0
  0
LINE
  5
332
  8
0
 62
     7
 10
156.655
 20
104.02799999999991
 30
0.0
 11
156.6879999999999
 21
104.062
 31
0.0
  0
LINE
  5
333
  8
0
 62
     7
 10
156.6879999999999
 20
104.062
 30
0.0
 11
156.6879999999999
 21
107.31699999999999
 31
0.0
  0
LINE
  5
334
  8
0
 62
     7
 10
154.99100000000001
 20
158.17599999999999
 30
0.0
 11
155.11600000000001
 21
164.60699999999991
 31
0.0
  0
LINE
  5
335
  8
0
 62
     7
 10
155.87700000000001
 20
163.29599999999991
 30
0.0
 11
155.8829999999999
 21
163.57599999999991
 31
0.0
  0
LINE
  5
336
  8
0
 62
     7
 10
155.80699999999999
 20
159.51400000000001
 30
0.0
 11
155.80099999999999
 21
159.244
 31
0.0
  0
LINE
  5
337
  8
0
 62
     7
 10
156.1049999999999
 20
158.83799999999991
 30
0.0
 11
155.51300000000001
 21
158.251
 31
0.0
  0
ARC
  5
338
  8
0
 62
     7
 10
155.92278699999989
 20
163.53396299999989
 30
0.0
 40
0.4599390000000001
 50
355.73445800000002
 51
12.615148
  0
ARC
  5
339
  8
0
 62
     7
 10
155.69099099999991
 20
163.49612699999989
 30
0.0
 40
0.694538
 50
11.48472299999999
 51
44.082611999999997
  0
ARC
  5
33A
  8
0
 62
     7
 10
155.41775000000001
 20
163.33005099999991
 30
0.0
 40
0.460612
 50
355.735793
 51
12.606502000000001
  0
ARC
  5
33B
  8
0
 62
     7
 10
155.185104
 20
163.292293
 30
0.0
 40
0.6960290000000001
 50
11.459932
 51
44.029322000000001
  0
LINE
  5
33C
  8
0
 62
     7
 10
155.61899999999989
 20
164.559
 30
0.0
 11
156.19
 21
163.97900000000001
 31
0.0
  0
LINE
  5
33D
  8
0
 62
     7
 10
155.1879999999999
 20
158.63499999999991
 30
0.0
 11
155.80099999999999
 21
159.244
 31
0.0
  0
ARC
  5
33E
  8
0
 62
     7
 10
155.798146
 20
159.18482399999999
 30
0.0
 40
0.463319
 50
311.50043499999992
 51
328.73943300000002
  0
ARC
  5
33F
  8
0
 62
     7
 10
155.60909599999991
 20
159.31773200000001
 30
0.0
 40
0.694066
 50
327.4590839999999
 51
358.43505199999998
  0
ARC
  5
340
  8
0
 62
     7
 10
155.30205000000001
 20
159.399799
 30
0.0
 40
0.463319
 50
311.50043499999992
 51
328.73943300000002
  0
ARC
  5
341
  8
0
 62
     7
 10
155.113
 20
159.53270800000001
 30
0.0
 40
0.694066
 50
327.4590839999999
 51
358.43505199999998
  0
LINE
  5
342
  8
0
 62
     7
 10
155.30699999999999
 20
164.16099999999989
 30
0.0
 11
155.8829999999999
 21
163.57599999999991
 31
0.0
  0
LINE
  5
343
  8
0
 62
     7
 10
156.30799999999999
 20
159.56700000000001
 30
0.0
 11
155.80699999999999
 21
159.57599999999999
 31
0.0
  0
LINE
  5
344
  8
0
 62
     7
 10
156.37700000000001
 20
163.233
 30
0.0
 11
155.876
 21
163.24299999999999
 31
0.0
  0
ARC
  5
345
  8
0
 62
     7
 10
155.882677
 20
164.9902909999999
 30
0.0
 40
0.4541479999999999
 50
179.761955
 51
196.73385300000001
  0
ARC
  5
346
  8
0
 62
     7
 10
156.11287400000001
 20
165.04085399999991
 30
0.0
 40
0.689387
 50
195.2495009999999
 51
224.2889879999999
  0
ARC
  5
347
  8
0
 62
     7
 10
155.57102399999991
 20
164.59677400000001
 30
0.0
 40
0.455424
 50
178.711601
 51
195.607045
  0
ARC
  5
348
  8
0
 62
     7
 10
155.81060400000001
 20
164.646693
 30
0.0
 40
0.699792
 50
194.266006
 51
224.00571099999991
  0
LINE
  5
349
  8
0
 62
     7
 10
125.90299999999991
 20
77.668099999999995
 30
0.0
 11
132.042
 21
86.825900000000004
 31
0.0
  0
ARC
  5
34A
  8
0
 62
     7
 10
125.764557
 20
77.436727000000005
 30
0.0
 40
0.277038
 50
92.109510999999998
 51
177.89045899999999
  0
ARC
  5
34B
  8
0
 62
     7
 10
125.764409
 20
77.456975
 30
0.0
 40
0.276884
 50
182.08008299999989
 51
267.91994599999992
  0
ARC
  5
34C
  8
0
 62
     7
 10
125.74450299999999
 20
77.45678199999999
 30
0.0
 40
0.276684
 50
272.04157199999997
 51
357.958438
  0
ARC
  5
34D
  8
0
 62
     7
 10
125.744238
 20
77.436802999999998
 30
0.0
 40
0.276959
 50
2.0944319999999998
 51
87.905557999999985
  0
ARC
  5
34E
  8
0
 62
     7
 10
125.71073199999999
 20
175.98352700000001
 30
0.0
 40
0.276954
 50
92.093378000000001
 51
177.9065919999999
  0
ARC
  5
34F
  8
0
 62
     7
 10
125.710701
 20
176.00372899999991
 30
0.0
 40
0.276922
 50
182.08725200000001
 51
267.91277799999989
  0
ARC
  5
350
  8
0
 62
     7
 10
125.6906129999999
 20
176.003646
 30
0.0
 40
0.276835
 50
272.07061099999999
 51
357.92939899999999
  0
ARC
  5
351
  8
0
 62
     7
 10
125.69053
 20
175.98355699999999
 30
0.0
 40
0.276922
 50
2.0872489999999999
 51
87.912740999999997
  0
LINE
  5
352
  8
0
 62
     7
 10
155.85299999999989
 20
225.363
 30
0.0
 11
155.85299999999989
 21
235.41300000000001
 31
0.0
  0
LINE
  5
353
  8
0
 62
     7
 10
155.85299999999989
 20
250.99700000000001
 30
0.0
 11
155.85299999999989
 21
240.94499999999999
 31
0.0
  0
ARC
  5
354
  8
0
 62
     7
 10
125.470409
 20
262.66224799999992
 30
0.0
 40
0.4114050000000001
 50
95.275053999999997
 51
178.55512799999991
  0
LINE
  5
355
  8
0
 62
     7
 10
125.059
 20
262.137
 30
0.0
 11
125.059
 21
262.673
 31
0.0
  0
LINE
  5
356
  8
0
 62
     7
 10
127.07899999999989
 20
262.84800000000001
 30
0.0
 11
127.07899999999989
 21
258.06599999999992
 31
0.0
  0
LINE
  5
357
  8
0
 62
     7
 10
127.07899999999989
 20
213.511
 30
0.0
 11
127.07899999999989
 21
258.06599999999992
 31
0.0
  0
LINE
  5
358
  8
0
 62
     7
 10
155.053
 20
250.99700000000001
 30
0.0
 11
155.053
 21
238.179
 31
0.0
  0
LINE
  5
359
  8
0
 62
     7
 10
155.45299999999989
 20
250.99700000000001
 30
0.0
 11
155.45299999999989
 21
238.179
 31
0.0
  0
LINE
  5
35A
  8
0
 62
     7
 10
127.07899999999989
 20
257.66399999999987
 30
0.0
 11
151.58199999999991
 21
254.904
 31
0.0
  0
LINE
  5
35B
  8
0
 62
     7
 10
127.07899999999989
 20
258.06599999999992
 30
0.0
 11
151.62700000000001
 21
255.30099999999999
 31
0.0
  0
ARC
  5
35C
  8
0
 62
     7
 10
151.039625
 20
250.92635999999999
 30
0.0
 40
4.0140129999999994
 50
1.010054
 51
82.268304000000015
  0
ARC
  5
35D
  8
0
 62
     7
 10
151.032162
 20
250.91972599999991
 30
0.0
 40
4.4211640000000001
 50
1.003012999999999
 51
82.274304000000015
  0
LINE
  5
35E
  8
0
 62
     7
 10
125.059
 20
262.13200000000001
 30
0.0
 11
125.059
 21
238.179
 31
0.0
  0
LINE
  5
35F
  8
0
 62
     7
 10
127.0569999999999
 20
263.18000000000001
 30
0.0
 11
127.07899999999989
 21
262.84800000000001
 31
0.0
  0
LINE
  5
360
  8
0
 62
     7
 10
125.43299999999989
 20
263.072
 30
0.0
 11
127.0569999999999
 21
263.18000000000001
 31
0.0
  0
LINE
  5
361
  8
0
 62
     7
 10
155.45299999999989
 20
225.363
 30
0.0
 11
155.45299999999989
 21
238.179
 31
0.0
  0
LINE
  5
362
  8
0
 62
     7
 10
129.26599999999991
 20
218.53999999999999
 30
0.0
 11
151.62700000000001
 21
221.059
 31
0.0
  0
ARC
  5
363
  8
0
 62
     7
 10
151.03218000000001
 20
225.43971599999989
 30
0.0
 40
4.4211390000000002
 50
277.72550599999988
 51
359.001732
  0
ARC
  5
364
  8
0
 62
     7
 10
125.46918100000001
 20
213.696
 30
0.0
 40
0.41083
 50
181.229094
 51
264.7929529999999
  0
LINE
  5
365
  8
0
 62
     7
 10
125.059
 20
213.68700000000001
 30
0.0
 11
125.059
 21
238.179
 31
0.0
  0
LINE
  5
366
  8
0
 62
     7
 10
127.0569999999999
 20
213.178
 30
0.0
 11
127.07899999999989
 21
213.511
 31
0.0
  0
LINE
  5
367
  8
0
 62
     7
 10
125.432
 20
213.28700000000001
 30
0.0
 11
127.0569999999999
 21
213.178
 31
0.0
  0
ARC
  5
368
  8
0
 62
     7
 10
125.8257379999999
 20
175.902646
 30
0.0
 40
0.4152899999999999
 50
95.865490000000008
 51
181.181995
  0
ARC
  5
369
  8
0
 62
     7
 10
71.570251999999996
 20
171.26732699999991
 30
0.0
 40
53.991961000000003
 50
0.512343
 51
1.9863580000000001
  0
ARC
  5
36A
  8
0
 62
     7
 10
25.273258999999999
 20
170.22916599999999
 30
0.0
 40
100.298723
 50
1.6623490000000001
 51
3.237417999999999
  0
ARC
  5
36B
  8
0
 62
     7
 10
73.068838
 20
171.31462500000001
 30
0.0
 40
52.159502000000003
 50
0.47233
 51
1.992966
  0
ARC
  5
36C
  8
0
 62
     7
 10
24.318546999999999
 20
170.16929099999999
 30
0.0
 40
100.921638
 50
1.680296
 51
3.4324919999999999
  0
LINE
  5
36D
  8
0
 62
     7
 10
154.608
 20
103.467
 30
0.0
 11
154.14099999999991
 21
103.4769999999999
 31
0.0
  0
LINE
  5
36E
  8
0
 62
     7
 10
155.79900000000001
 20
158.53399999999991
 30
0.0
 11
154.608
 21
103.467
 31
0.0
  0
ARC
  5
36F
  8
0
 62
     7
 10
155.81220999999999
 20
157.91125099999991
 30
0.0
 40
0.452363
 50
131.3619479999999
 51
148.40842599999991
  0
ARC
  5
370
  8
0
 62
     7
 10
156.012047
 20
157.76980099999989
 30
0.0
 40
0.6968640000000002
 50
147.10915900000001
 51
178.184136
  0
LINE
  5
371
  8
0
 62
     7
 10
155.316
 20
157.79199999999989
 30
0.0
 11
154.137
 21
103.289
 31
0.0
  0
ARC
  5
372
  8
0
 62
     7
 10
155.48683500000001
 20
158.29589799999991
 30
0.0
 40
0.4521310000000001
 50
131.361503
 51
148.41590799999989
  0
ARC
  5
373
  8
0
 62
     7
 10
155.683097
 20
158.1567639999999
 30
0.0
 40
0.692372
 50
147.1138399999999
 51
178.3782699999999
  0
LINE
  5
374
  8
0
 62
     7
 10
154.99100000000001
 20
158.17599999999999
 30
0.0
 11
153.80799999999991
 21
103.4839999999999
 31
0.0
  0
ARC
  5
375
  8
0
 62
     7
 10
125.862312
 20
77.557248000000001
 30
0.0
 40
0.4153020000000001
 50
173.3417969999999
 51
259.2258819999999
  0
LINE
  5
376
  8
0
 62
     7
 10
125.7849999999999
 20
77.149299999999997
 30
0.0
 11
125.818
 21
77.145799999999994
 31
0.0
  0
ARC
  5
377
  8
0
 62
     7
 10
47.281776999999998
 20
89.704832999999994
 30
0.0
 40
79.098911000000001
 50
351.20116000000002
 51
351.972084
  0
ARC
  5
378
  8
0
 62
     7
 10
133.908098
 20
79.598054000000005
 30
0.0
 40
7.2054970000000003
 50
116.6447119999999
 51
132.687386
  0
ARC
  5
379
  8
0
 62
     7
 10
136.32923400000001
 20
76.740247999999994
 30
0.0
 40
10.948829999999999
 50
131.861074
 51
163.446065
  0
ARC
  5
37A
  8
0
 62
     7
 10
132.83822599999991
 20
77.902647000000002
 30
0.0
 40
7.2723119999999994
 50
164.38815500000001
 51
174.06902699999989
  0
LINE
  5
37B
  8
0
 62
     7
 10
46.964500000000001
 20
175.934
 30
0.0
 11
46.964500000000001
 21
77.530299999999997
 31
0.0
  0
ARC
  5
37C
  8
0
 62
     7
 10
59.498208999999989
 20
164.06716299999991
 30
0.0
 40
4.000125999999999
 50
90.004935000000003
 51
180.00494499999991
  0
ARC
  5
37D
  8
0
 62
     7
 10
59.497863000000002
 20
103.73110200000001
 30
0.0
 40
3.9997799999999999
 50
179.99996999999991
 51
270.00002000000001
  0
LINE
  5
37E
  8
0
 62
     7
 10
55.498100000000001
 20
164.06700000000001
 30
0.0
 11
55.498100000000001
 21
103.73099999999999
 31
0.0
  0
ARC
  5
37F
  8
0
 62
     7
 10
54.241351000000002
 20
169.32404700000001
 30
0.0
 40
2.0781469999999991
 50
92.110412999999994
 51
177.90929
  0
LINE
  5
380
  8
0
 62
     7
 10
52.1646
 20
169.40000000000001
 30
0.0
 11
52.1646
 21
78.063599999999994
 31
0.0
  0
LINE
  5
381
  8
0
 62
     7
 10
46.830899999999993
 20
176.06700000000001
 30
0.0
 11
46.830899999999993
 21
77.396600000000007
 31
0.0
  0
LINE
  5
382
  8
0
 62
     7
 10
96.699600000000004
 20
175.934
 30
0.0
 11
96.699600000000004
 21
77.530299999999997
 31
0.0
  0
LINE
  5
383
  8
0
 62
     7
 10
88.1661
 20
164.06700000000001
 30
0.0
 11
88.1661
 21
103.73099999999999
 31
0.0
  0
LINE
  5
384
  8
0
 62
     7
 10
91.498900000000006
 20
169.40000000000001
 30
0.0
 11
91.498900000000006
 21
78.063599999999994
 31
0.0
  0
LINE
  5
385
  8
0
 62
     7
 10
96.832599999999999
 20
176.06700000000001
 30
0.0
 11
96.832599999999999
 21
77.396600000000007
 31
0.0
  0
ARC
  5
386
  8
0
 62
     7
 10
47.656211999999996
 20
175.9090009999999
 30
0.0
 40
0.692138
 50
92.103030000000004
 51
177.926559
  0
ARC
  5
387
  8
0
 62
     7
 10
96.007604999999984
 20
175.90864599999989
 30
0.0
 40
0.69248
 50
2.1017909999999991
 51
87.927800999999988
  0
LINE
  5
388
  8
0
 62
     7
 10
96.032600000000002
 20
176.601
 30
0.0
 11
47.630800000000001
 21
176.601
 31
0.0
  0
ARC
  5
389
  8
0
 62
     7
 10
47.523187
 20
176.04165599999999
 30
0.0
 40
0.692807
 50
92.097358999999997
 51
177.87300899999991
  0
ARC
  5
38A
  8
0
 62
     7
 10
96.140608999999998
 20
176.04202100000001
 30
0.0
 40
0.692455
 50
2.0978309999999998
 51
87.872540999999998
  0
ARC
  5
38B
  8
0
 62
     7
 10
84.165936999999985
 20
103.731448
 30
0.0
 40
4.000125999999999
 50
269.99508500000002
 51
359.99505499999992
  0
LINE
  5
38C
  8
0
 62
     7
 10
84.165599999999998
 20
99.731300000000005
 30
0.0
 11
59.497900000000001
 21
99.731300000000005
 31
0.0
  0
ARC
  5
38D
  8
0
 62
     7
 10
84.165592000000004
 20
164.0668189999999
 30
0.0
 40
4.0004710000000001
 50
0.00001
 51
89.999980000000008
  0
LINE
  5
38E
  8
0
 62
     7
 10
84.165599999999998
 20
168.06700000000001
 30
0.0
 11
59.497900000000001
 21
168.06700000000001
 31
0.0
  0
ARC
  5
38F
  8
0
 62
     7
 10
89.421473000000006
 20
169.323442
 30
0.0
 40
2.078800999999999
 50
2.1067269999999998
 51
87.853789000000035
  0
LINE
  5
390
  8
0
 62
     7
 10
89.499300000000005
 20
171.4009999999999
 30
0.0
 11
54.164799999999993
 21
171.4009999999999
 31
0.0
  0
LINE
  5
391
  8
0
 62
     7
 10
96.166300000000007
 20
176.73400000000001
 30
0.0
 11
47.497799999999998
 21
176.73400000000001
 31
0.0
  0
ARC
  5
392
  8
0
 62
     7
 10
47.656889999999997
 20
77.555657999999994
 30
0.0
 40
0.6928260000000001
 50
182.097792
 51
267.84301799999997
  0
ARC
  5
393
  8
0
 62
     7
 10
96.007455000000022
 20
77.555486000000002
 30
0.0
 40
0.6926220000000001
 50
272.08418799999998
 51
357.91582199999999
  0
LINE
  5
394
  8
0
 62
     7
 10
96.032600000000002
 20
76.863299999999995
 30
0.0
 11
47.630800000000001
 21
76.863299999999995
 31
0.0
  0
ARC
  5
395
  8
0
 62
     7
 10
47.522539999999992
 20
77.422049999999999
 30
0.0
 40
0.69215
 50
182.10504099999989
 51
267.95420999999988
  0
ARC
  5
396
  8
0
 62
     7
 10
96.166314000000014
 20
77.396626999999995
 30
0.0
 40
0.666286
 50
270.00002000000001
 51
359.99998999999991
  0
LINE
  5
397
  8
0
 62
     7
 10
91.498900000000006
 20
78.063599999999994
 30
0.0
 11
52.1646
 21
78.063599999999994
 31
0.0
  0
LINE
  5
398
  8
0
 62
     7
 10
96.166300000000007
 20
76.7303
 30
0.0
 11
47.497799999999998
 21
76.7303
 31
0.0
  0
LINE
  5
399
  8
0
 62
     7
 10
127.059
 20
176.40000000000001
 30
0.0
 11
125.7849999999999
 21
176.31499999999991
 31
0.0
  0
LINE
  5
39A
  8
0
 62
     7
 10
127.059
 20
176.73400000000001
 30
0.0
 11
125.43299999999989
 21
176.62599999999989
 31
0.0
  0
LINE
  5
39B
  8
0
 62
     7
 10
125.26000000000001
 20
78.591399999999993
 30
0.0
 11
125.26000000000001
 21
171.60099999999991
 31
0.0
  0
LINE
  5
39C
  8
0
 62
     7
 10
127.059
 20
174.887
 30
0.0
 11
127.059
 21
176.73400000000001
 31
0.0
  0
LINE
  5
39D
  8
0
 62
     7
 10
127.059
 20
76.7303
 30
0.0
 11
127.059
 21
79.3934
 31
0.0
  0
LINE
  5
39E
  8
0
 62
     7
 10
125.06
 20
77.236800000000002
 30
0.0
 11
125.059
 21
176.2409999999999
 31
0.0
  0
ARC
  5
39F
  8
0
 62
     7
 10
125.47718
 20
77.249189000000001
 30
0.0
 40
0.415504
 50
173.144656
 51
259.03312299999988
  0
LINE
  5
3A0
  8
0
 62
     7
 10
125.398
 20
76.841300000000004
 30
0.0
 11
125.43299999999989
 21
76.837100000000007
 31
0.0
  0
LINE
  5
3A1
  8
0
 62
     7
 10
127.059
 20
77.063100000000006
 30
0.0
 11
125.818
 21
77.145799999999994
 31
0.0
  0
LINE
  5
3A2
  8
0
 62
     7
 10
127.04000000000001
 20
76.7303
 30
0.0
 11
125.43299999999989
 21
76.837100000000007
 31
0.0
  0
ARC
  5
3A3
  8
0
 62
     7
 10
133.812254
 20
79.746127000000001
 30
0.0
 40
7.3623679999999991
 50
116.63750399999989
 51
131.67796000000001
  0
ARC
  5
3A4
  8
0
 62
     7
 10
136.26912999999999
 20
76.800437999999986
 30
0.0
 40
11.19685099999999
 50
131.04500400000001
 51
166.254783
  0
ARC
  5
3A5
  8
0
 62
     7
 10
132.188041
 20
78.017900999999995
 30
0.0
 40
6.946625
 50
168.01116200000001
 51
174.32282799999999
  0
ARC
  5
3A6
  8
0
 62
     7
 10
54.364657999999999
 20
88.617541000000003
 30
0.0
 40
71.600297999999995
 50
350.90438399999988
 51
352.04232300000001
  0
ARC
  5
3A7
  8
0
 62
     7
 10
125.4736909999999
 20
176.21330599999999
 30
0.0
 40
0.41456
 50
95.690539999999984
 51
180.21927400000001
  0
ARC
  5
3A8
  8
0
 62
     7
 10
148.50791699999991
 20
102.14224899999989
 30
0.0
 40
5.0371739999999994
 50
297.13334900000001
 51
315.49572699999999
  0
ARC
  5
3A9
  8
0
 62
     7
 10
147.158906
 20
103.591436
 30
0.0
 40
7.015663
 50
314.777423
 51
352.52593300000001
  0
ARC
  5
3AA
  8
0
 62
     7
 10
149.3828279999999
 20
103.1575429999999
 30
0.0
 40
4.7562850000000001
 50
354.22380600000002
 51
1.580762999999999
  0
LINE
  5
3AB
  8
0
 62
     7
 10
150.80500000000001
 20
97.659400000000005
 30
0.0
 11
130.62299999999999
 21
86.006699999999995
 31
0.0
  0
ARC
  5
3AC
  8
0
 62
     7
 10
148.17799600000001
 20
102.33749
 30
0.0
 40
5.0379680000000002
 50
297.144791
 51
315.500651
  0
ARC
  5
3AD
  8
0
 62
     7
 10
146.82845099999989
 20
103.786609
 30
0.0
 40
7.0167789999999988
 50
314.78452599999991
 51
352.52564999999993
  0
ARC
  5
3AE
  8
0
 62
     7
 10
149.05347499999991
 20
103.352536
 30
0.0
 40
4.7562850000000001
 50
354.22380600000002
 51
1.580762999999999
  0
LINE
  5
3AF
  8
0
 62
     7
 10
150.477
 20
97.854400000000012
 30
0.0
 11
130.51099999999991
 21
86.327100000000016
 31
0.0
  0
ARC
  5
3B0
  8
0
 62
     7
 10
125.62868
 20
171.761032
 30
0.0
 40
0.068743
 50
183.354195
 51
262.16688299999993
  0
ARC
  5
3B1
  8
0
 62
     7
 10
125.6327289999999
 20
171.76574799999989
 30
0.0
 40
0.406711
 50
182.9794709999999
 51
262.84960000000001
  0
ARC
  5
3B2
  8
0
 62
     7
 10
151.38508200000001
 20
164.73697999999999
 30
0.0
 40
4.0514960000000002
 50
3.611367
 51
83.011960999999999
  0
LINE
  5
3B3
  8
0
 62
     7
 10
125.6189999999999
 20
171.6929999999999
 30
0.0
 11
151.8779999999999
 21
168.7579999999999
 31
0.0
  0
ARC
  5
3B4
  8
0
 62
     7
 10
151.05415400000001
 20
164.42409599999991
 30
0.0
 40
4.0656790000000003
 50
2.5786479999999989
 51
82.828198999999984
  0
LINE
  5
3B5
  8
0
 62
     7
 10
125.58199999999999
 20
171.36199999999991
 30
0.0
 11
151.56200000000001
 21
168.45799999999991
 31
0.0
  0
LINE
  5
3B6
  8
0
  6
AIGENLINE001
 62
     7
 10
158.56200000000001
 20
161.40000000000001
 30
0.0
 11
152.28700000000001
 21
161.40000000000001
 31
0.0
  0
LINE
  5
3B7
  8
0
  6
AIGENLINE001
 62
     7
 10
166.09099999999989
 20
107.3949999999999
 30
0.0
 11
152.369
 21
107.3949999999999
 31
0.0
  0
LINE
  5
3B8
  8
0
  6
AIGENLINE001
 62
     7
 10
166.09099999999989
 20
153.39699999999999
 30
0.0
 11
154.00599999999989
 21
153.39699999999999
 31
0.0
  0
LINE
  5
3B9
  8
0
  6
AIGENLINE001
 62
     7
 10
166.02500000000001
 20
230.179
 30
0.0
 11
153.94
 21
230.179
 31
0.0
  0
LINE
  5
3BA
  8
0
  6
AIGENLINE001
 62
     7
 10
166.02500000000001
 20
246.179
 30
0.0
 11
153.94
 21
246.179
 31
0.0
  0
LINE
  5
3BB
  8
0
  6
AIGENLINE001
 62
     7
 10
158.27699999999999
 20
238.179
 30
0.0
 11
122.82299999999989
 21
238.179
 31
0.0
  0
LINE
  5
3BC
  8
0
  6
AIGENLINE001
 62
     7
 10
77.056899999999999
 20
161.40000000000001
 30
0.0
 11
66.356399999999994
 21
161.40000000000001
 31
0.0
  0
LINE
  5
3BD
  8
0
  6
AIGENLINE001
 62
     7
 10
93.999300000000005
 20
171.042
 30
0.0
 11
93.999300000000005
 21
162.61000000000001
 31
0.0
  0
LINE
  5
3BE
  8
0
  6
AIGENLINE001
 62
     7
 10
71.832099999999997
 20
184.04900000000001
 30
0.0
 11
71.832099999999997
 21
67.808199999999999
 31
0.0
  0
LINE
  5
3BF
  8
0
 62
     7
 10
124.3179999999999
 20
83.180300000000003
 30
0.0
 11
117.31999999999999
 21
83.180300000000003
 31
0.0
  0
LINE
  5
3C0
  8
0
 62
     7
 10
124.69799999999989
 20
76.727599999999995
 30
0.0
 11
117.31999999999999
 21
76.727599999999995
 31
0.0
  0
LINE
  5
3C1
  8
0
 62
     7
 10
118.61199999999999
 20
169.209
 30
0.0
 11
118.0199999999999
 21
171.4199999999999
 31
0.0
  0
LINE
  5
3C2
  8
0
 62
     7
 10
118.0199999999999
 20
171.4199999999999
 30
0.0
 11
117.42700000000001
 21
169.209
 31
0.0
  0
LINE
  5
3C3
  8
0
 62
     7
 10
117.42700000000001
 20
169.209
 30
0.0
 11
118.61199999999999
 21
169.209
 31
0.0
  0
LINE
  5
3C4
  8
0
 62
     7
 10
117.42700000000001
 20
85.391400000000004
 30
0.0
 11
118.0199999999999
 21
83.180300000000003
 31
0.0
  0
LINE
  5
3C5
  8
0
 62
     7
 10
118.0199999999999
 20
83.180300000000003
 30
0.0
 11
118.61199999999999
 21
85.391400000000004
 31
0.0
  0
LINE
  5
3C6
  8
0
 62
     7
 10
118.61199999999999
 20
85.391400000000004
 30
0.0
 11
117.42700000000001
 21
85.391400000000004
 31
0.0
  0
LINE
  5
3C7
  8
0
 62
     7
 10
117.42700000000001
 20
78.938699999999983
 30
0.0
 11
118.0199999999999
 21
76.727599999999995
 31
0.0
  0
LINE
  5
3C8
  8
0
 62
     7
 10
118.0199999999999
 20
76.727599999999995
 30
0.0
 11
118.61199999999999
 21
78.938699999999983
 31
0.0
  0
LINE
  5
3C9
  8
0
 62
     7
 10
118.61199999999999
 20
78.938699999999983
 30
0.0
 11
117.42700000000001
 21
78.938699999999983
 31
0.0
  0
LINE
  5
3CA
  8
0
 62
     7
 10
118.0199999999999
 20
180.22900000000001
 30
0.0
 11
118.0199999999999
 21
76.727599999999995
 31
0.0
  0
LINE
  5
3CB
  8
0
 62
     7
 10
124.56
 20
171.4199999999999
 30
0.0
 11
117.31999999999999
 21
171.4199999999999
 31
0.0
  0
LINE
  5
3CC
  8
0
 62
     7
 10
124.3179999999999
 20
176.73400000000001
 30
0.0
 11
117.31999999999999
 21
176.73400000000001
 31
0.0
  0
TEXT
  5
3CD
  8
0
 62
     7
 10
100.7354899999999
 20
153.50099999999989
 30
0.0
 40
3.0923400000000001
  1
42.5
 41
0.5
 72
     2
 11
105.3739999999999
 21
153.50099999999989
 31
0.0
  0
TEXT
  5
3CE
  8
0
 62
     7
 10
102.405
 20
170.096135
 30
0.0
 40
3.0923400000000001
  1
145
 50
90.0
 41
0.5
 72
     1
 11
102.405
 21
171.90000000000001
 31
0.0
  0
TEXT
  5
3CF
  8
0
 62
     7
 10
93.006072500000002
 20
188.024
 30
0.0
 40
3.0923400000000001
  1
80
 41
0.5
 72
     1
 11
94.165700000000001
 21
188.024
 31
0.0
  0
TEXT
  5
3D0
  8
0
 62
     7
 10
69.899387500000003
 20
188.024
 30
0.0
 40
3.0923400000000001
  1
590
 41
0.5
 72
     1
 11
71.832099999999997
 21
188.024
 31
0.0
  0
TEXT
  5
3D1
  8
0
 62
     7
 10
48.3377725
 20
188.024
 30
0.0
 40
3.0923400000000001
  1
80
 41
0.5
 72
     1
 11
49.497399999999999
 21
188.024
 31
0.0
  0
TEXT
  5
3D2
  8
0
 62
     7
 10
170.80699999999999
 20
236.24628749999991
 30
0.0
 40
3.0923400000000001
  1
240
 50
90.0
 41
0.5
 72
     1
 11
170.80699999999999
 21
238.179
 31
0.0
  0
TEXT
  5
3D3
  8
0
 62
     7
 10
170.80699999999999
 20
252.61843999999999
 30
0.0
 40
3.0923400000000001
  1
255
 50
90.0
 41
0.5
 72
     1
 11
170.80699999999999
 21
254.68000000000001
 31
0.0
  0
TEXT
  5
3D4
  8
0
 62
     7
 10
118.2329999999999
 20
207.268
 30
0.0
 40
3.0923400000000001
  1
30
 41
0.5
  0
TEXT
  5
3D5
  8
0
 62
     7
 10
171.1399999999999
 20
128.46328749999989
 30
0.0
 40
3.0923400000000001
  1
690
 50
90.0
 41
0.5
 72
     1
 11
171.1399999999999
 21
130.39599999999999
 31
0.0
  0
TEXT
  5
3D6
  8
0
 62
     7
 10
171.1399999999999
 20
163.1322874999999
 30
0.0
 40
3.0923400000000001
  1
350
 50
90.0
 41
0.5
 72
     1
 11
171.1399999999999
 21
165.06499999999991
 31
0.0
  0
TEXT
  5
3D7
  8
0
 62
     7
 10
69.899387500000003
 20
195.62
 30
0.0
 40
3.0923400000000001
  1
750
 41
0.5
 72
     1
 11
71.832099999999997
 21
195.62
 31
0.0
  0
TEXT
  5
3D8
  8
0
 62
     7
 10
33.230200000000004
 20
124.40774500000001
 30
0.0
 40
3.0923400000000001
  1
1500
 50
90.0
 41
0.5
 72
     1
 11
33.230200000000004
 21
126.727
 31
0.0
  0
TEXT
  5
3D9
  8
0
 62
     7
 10
142.83944
 20
185.25
 30
0.0
 40
3.0923400000000001
  1
595
 41
0.5
 72
     1
 11
144.90100000000001
 21
185.25
 31
0.0
  0
TEXT
  5
3DA
  8
0
 62
     7
 10
117.2139999999999
 20
78.665124999999975
 30
0.0
 40
3.0923400000000001
  1
97
 50
90.0
 41
0.5
 72
     1
 11
117.2139999999999
 21
79.953599999999994
 31
0.0
  0
TEXT
  5
3DB
  8
0
 62
     7
 10
117.31999999999999
 20
124.72305
 30
0.0
 40
3.0923400000000001
  1
1323
 50
90.0
 41
0.5
 72
     1
 11
117.31999999999999
 21
127.2999999999999
 31
0.0
  0
TEXT
  5
3DC
  8
0
 62
     7
 10
117.31999999999999
 20
172.9173725
 30
0.0
 40
3.0923400000000001
  1
80
 50
90.0
 41
0.5
 72
     1
 11
117.31999999999999
 21
174.07699999999991
 31
0.0
  0
TEXT
  5
3DD
  8
0
 62
     7
 10
138.09228749999991
 20
161.3249999999999
 30
0.0
 40
3.0923400000000001
  1
450
 41
0.5
 72
     1
 11
140.02499999999989
 21
161.3249999999999
 31
0.0
  0
LINE
  5
3DE
  8
0
 62
     7
 10
82.237700000000004
 20
157.404
 30
0.0
 11
75.823599999999999
 21
157.404
 31
0.0
  0
LINE
  5
3DF
  8
0
 62
     7
 10
68.548900000000003
 20
163.84099999999989
 30
0.0
 11
70.531899999999993
 21
162.69599999999991
 31
0.0
  0
LINE
  5
3E0
  8
0
 62
     7
 10
70.531899999999993
 20
162.69599999999991
 30
0.0
 11
69.386700000000005
 21
164.679
 31
0.0
  0
LINE
  5
3E1
  8
0
 62
     7
 10
69.386700000000005
 20
164.679
 30
0.0
 11
68.548900000000003
 21
163.84099999999989
 31
0.0
  0
LINE
  5
3E2
  8
0
 62
     7
 10
75.106999999999985
 20
158.95799999999991
 30
0.0
 11
73.123999999999995
 21
160.10299999999989
 31
0.0
  0
LINE
  5
3E3
  8
0
 62
     7
 10
73.123999999999995
 20
160.10299999999989
 30
0.0
 11
74.268500000000003
 21
158.12
 31
0.0
  0
LINE
  5
3E4
  8
0
 62
     7
 10
74.268500000000003
 20
158.12
 30
0.0
 11
75.106999999999985
 21
158.95799999999991
 31
0.0
  0
LINE
  5
3E5
  8
0
 62
     7
 10
75.823599999999999
 20
157.404
 30
0.0
 11
67.579400000000007
 21
165.64799999999991
 31
0.0
  0
LINE
  5
3E6
  8
0
 62
     7
 10
73.306600000000003
 20
72.311300000000003
 30
0.0
 11
71.832099999999997
 21
71.916499999999999
 31
0.0
  0
LINE
  5
3E7
  8
0
 62
     7
 10
71.832099999999997
 20
71.916499999999999
 30
0.0
 11
73.306600000000003
 21
71.521000000000001
 31
0.0
  0
LINE
  5
3E8
  8
0
 62
     7
 10
73.306600000000003
 20
71.521000000000001
 30
0.0
 11
73.306600000000003
 21
72.311300000000003
 31
0.0
  0
LINE
  5
3E9
  8
0
 62
     7
 10
71.832099999999997
 20
71.916499999999999
 30
0.0
 11
76.442300000000003
 21
71.916499999999999
 31
0.0
  0
LINE
  5
3EA
  8
0
 62
     7
 10
73.306600000000003
 20
181.51099999999991
 30
0.0
 11
71.832099999999997
 21
181.1159999999999
 31
0.0
  0
LINE
  5
3EB
  8
0
 62
     7
 10
71.832099999999997
 20
181.1159999999999
 30
0.0
 11
73.306600000000003
 21
180.71999999999991
 31
0.0
  0
LINE
  5
3EC
  8
0
 62
     7
 10
73.306600000000003
 20
180.71999999999991
 30
0.0
 11
73.306600000000003
 21
181.51099999999991
 31
0.0
  0
LINE
  5
3ED
  8
0
 62
     7
 10
71.832099999999997
 20
181.1159999999999
 30
0.0
 11
76.442300000000003
 21
181.1159999999999
 31
0.0
  0
LINE
  5
3EE
  8
_________2
 62
     7
 10
210.00099999999989
 20
148.482
 30
0.0
 11
188.25099999999989
 21
148.482
 31
0.0
  0
LINE
  5
3EF
  8
_________2
 62
     7
 10
105.0
 20
16.979900000000001
 30
0.0
 11
105.0
 21
-0.000344512
 31
0.0
  0
LINE
  5
3F0
  8
_________2
 62
     7
 10
105.0
 20
297.00200000000001
 30
0.0
 11
105.0
 21
279.98200000000003
 31
0.0
  0
LINE
  5
3F1
  8
_________2
 62
     7
 10
21.749700000000001
 20
148.482
 30
0.0
 11
-0.000689023
 21
148.482
 31
0.0
  0
LINE
  5
3F2
  8
_________2
 62
     7
 10
81.441199999999995
 20
50.875799999999991
 30
0.0
 11
79.254900000000006
 21
50.875799999999991
 31
0.0
  0
LINE
  5
3F3
  8
_________2
 62
     7
 10
81.933800000000005
 20
50.875799999999991
 30
0.0
 11
81.681700000000006
 21
50.875799999999991
 31
0.0
  0
LINE
  5
3F4
  8
_________2
 62
     7
 10
82.426500000000004
 20
50.875799999999991
 30
0.0
 11
85.351399999999998
 21
50.875799999999991
 31
0.0
  0
LINE
  5
3F5
  8
_________2
 62
     7
 10
81.933800000000005
 20
50.875799999999991
 30
0.0
 11
82.186000000000007
 21
50.875799999999991
 31
0.0
  0
LINE
  5
3F6
  8
_________2
 62
     7
 10
75.537599999999998
 20
50.875799999999991
 30
0.0
 11
73.350700000000003
 21
50.875799999999991
 31
0.0
  0
LINE
  5
3F7
  8
_________2
 62
     7
 10
76.029600000000002
 20
50.875799999999991
 30
0.0
 11
75.778099999999995
 21
50.875799999999991
 31
0.0
  0
LINE
  5
3F8
  8
_________2
 62
     7
 10
76.029600000000002
 20
51.368400000000001
 30
0.0
 11
76.029600000000002
 21
53.555399999999999
 31
0.0
  0
LINE
  5
3F9
  8
_________2
 62
     7
 10
76.029600000000002
 20
50.875799999999991
 30
0.0
 11
76.029600000000002
 21
51.128
 31
0.0
  0
LINE
  5
3FA
  8
_________2
 62
     7
 10
76.522300000000001
 20
50.875799999999991
 30
0.0
 11
78.709199999999996
 21
50.875799999999991
 31
0.0
  0
LINE
  5
3FB
  8
_________2
 62
     7
 10
76.029600000000002
 20
50.875799999999991
 30
0.0
 11
76.281800000000004
 21
50.875799999999991
 31
0.0
  0
LINE
  5
3FC
  8
_________2
 62
     7
 10
76.029600000000002
 20
50.383800000000001
 30
0.0
 11
76.029600000000002
 21
48.196800000000003
 31
0.0
  0
LINE
  5
3FD
  8
_________2
 62
     7
 10
76.029600000000002
 20
50.875799999999991
 30
0.0
 11
76.029600000000002
 21
50.624299999999991
 31
0.0
  0
LINE
  5
3FE
  8
_________2
 62
     7
 10
79.740700000000004
 20
49.656199999999998
 30
0.0
 11
84.918700000000001
 21
48.791499999999999
 31
0.0
  0
LINE
  5
3FF
  8
_________2
 62
     7
 10
79.740700000000004
 20
52.095300000000002
 30
0.0
 11
84.918700000000001
 21
52.960799999999992
 31
0.0
  0
LINE
  5
400
  8
_________2
 62
     7
 10
84.918700000000001
 20
48.791499999999999
 30
0.0
 11
84.918700000000001
 21
52.960799999999992
 31
0.0
  0
LINE
  5
401
  8
_________2
 62
     7
 10
79.740700000000004
 20
49.656199999999998
 30
0.0
 11
79.740700000000004
 21
52.095300000000002
 31
0.0
  0
ARC
  5
402
  8
_________2
 62
     7
 10
75.983362999999997
 20
50.828812999999997
 30
0.0
 40
1.2673709999999989
 50
2.1232950000000002
 51
87.909056000000007
  0
ARC
  5
403
  8
_________2
 62
     7
 10
76.076526999999999
 20
50.828847000000003
 30
0.0
 40
1.267363
 50
92.121785999999986
 51
177.878185
  0
ARC
  5
404
  8
_________2
 62
     7
 10
76.076526999999999
 20
50.922691999999998
 30
0.0
 40
1.267363
 50
182.12181499999991
 51
267.87821400000001
  0
ARC
  5
405
  8
_________2
 62
     7
 10
75.982714000000001
 20
50.923374000000003
 30
0.0
 40
1.2680439999999991
 50
272.11916400000001
 51
357.84848499999993
  0
ARC
  5
406
  8
_________2
 62
     7
 10
76.029604000000006
 20
50.875768999999998
 30
0.0
 40
2.0849849999999992
 50
0.00001
 51
89.999980000000008
  0
ARC
  5
407
  8
_________2
 62
     7
 10
76.109640999999996
 20
50.796447000000001
 30
0.0
 40
2.1657860000000002
 50
92.117855000000034
 51
177.90105299999991
  0
ARC
  5
408
  8
_________2
 62
     7
 10
76.109607999999994
 20
50.955773000000001
 30
0.0
 40
2.1657779999999991
 50
182.11700400000001
 51
267.88302499999992
  0
ARC
  5
409
  8
_________2
 62
     7
 10
75.949632999999992
 20
50.956456000000003
 30
0.0
 40
2.1664590000000001
 50
272.11546800000002
 51
357.86560400000002
  0
TEXT
  5
40A
  8
_________2
 62
     7
 10
109.30500000000001
 20
22.750499999999992
 30
0.0
 40
3.0923400000000001
  1
図番
 41
0.5
  0
LINE
  5
40B
  8
_________2
 62
     7
 10
108.25
 20
26.979700000000001
 30
0.0
 11
188.25099999999989
 21
26.979700000000001
 31
0.0
  0
TEXT
  5
40C
  8
_________2
 62
     7
 10
109.30500000000001
 20
32.750300000000003
 30
0.0
 40
3.0923400000000001
  1
品番
 41
0.5
  0
TEXT
  5
40D
  8
_________2
 62
     7
 10
109.30500000000001
 20
52.889099999999999
 30
0.0
 40
3.0923400000000001
  1
名称
 41
0.5
  0
TEXT
  5
40E
  8
_________2
 62
     7
 10
96.545258333333337
 20
47.892999999999986
 30
0.0
 40
3.6545800000000002
  1
mm
 41
0.5
 72
     1
 11
98.067999999999998
 21
47.892999999999986
 31
0.0
  0
TEXT
  5
40F
  8
_________2
 62
     7
 10
90.343400000000003
 20
52.889099999999999
 30
0.0
 40
3.0923400000000001
  1
単位
 41
0.5
  0
TEXT
  5
410
  8
_________2
 62
     7
 10
90.343400000000003
 20
40.481900000000003
 30
0.0
 40
3.0923400000000001
  1
尺度
 41
0.5
  0
TEXT
  5
411
  8
_________2
 62
     7
 10
94.639861999999994
 20
34.288899999999991
 30
0.0
 40
3.6545800000000002
  1
1 ： 15
 41
0.5
 72
     1
 11
98.659899999999993
 21
34.288899999999991
 31
0.0
  0
TEXT
  5
412
  8
_________2
 62
     7
 10
137.91878750000001
 20
30.178899999999992
 30
0.0
 40
3.9357000000000002
  1
CEY21580RV7
 41
0.5
 72
     1
 11
148.24999999999989
 21
30.178899999999992
 31
0.0
  0
TEXT
  5
413
  8
_________2
 62
     7
 10
137.91878750000001
 20
20.1784
 30
0.0
 40
3.9357000000000002
  1
CEY21580RV7
 41
0.5
 72
     1
 11
148.24999999999989
 21
20.1784
 31
0.0
  0
TEXT
  5
414
  8
_________2
 62
     7
 10
29.286899999999989
 20
21.778300000000002
 30
0.0
 40
3.9357000000000002
  1
満水容量：290L　重量：18.5kg
 41
0.5
  0
TEXT
  5
415
  8
_________2
 62
     7
 10
113.87899999999991
 20
45.296700000000001
 30
0.0
 40
3.9357000000000002
  1
アクリル製 バスタブ（1500サイズ）
 41
0.5
  0
TEXT
  5
416
  8
_________2
 62
     7
 10
44.06459066666666
 20
34.674100000000003
 30
0.0
 40
3.6545800000000002
  1
石原
 41
0.5
 72
     1
 11
46.0137
 21
34.674100000000003
 31
0.0
  0
TEXT
  5
417
  8
_________2
 62
     7
 10
25.490590666666659
 20
34.674100000000003
 30
0.0
 40
3.6545800000000002
  1
麻生
 41
0.5
 72
     1
 11
27.439699999999998
 21
34.674100000000003
 31
0.0
  0
TEXT
  5
418
  8
_________2
 62
     7
 10
72.486000000000004
 20
34.288899999999991
 30
0.0
 40
3.6545800000000002
  1
12.01.12
 41
0.5
  0
TEXT
  5
419
  8
_________2
 62
     7
 10
71.293300000000002
 20
40.481900000000003
 30
0.0
 40
3.0923400000000001
  1
日付
 41
0.5
  0
TEXT
  5
41A
  8
_________2
 62
     7
 10
34.33959999999999
 20
40.481900000000003
 30
0.0
 40
3.0923400000000001
  1
検図
 41
0.5
  0
TEXT
  5
41B
  8
_________2
 62
     7
 10
22.7212
 20
26.282499999999992
 30
0.0
 40
3.0923400000000001
  1
備考
 41
0.5
  0
TEXT
  5
41C
  8
_________2
 62
     7
 10
22.7212
 20
40.481900000000003
 30
0.0
 40
3.0923400000000001
  1
製図
 41
0.5
  0
TEXT
  5
41D
  8
_________2
 62
     7
 10
28.488665333333341
 20
49.00780000000001
 30
0.0
 40
4.4979399999999989
  1
セラトレーディング株式会社
 41
0.5
 72
     1
 11
45.880699999999997
 21
49.00780000000001
 31
0.0
  0
LINE
  5
41E
  8
_________2
 62
     7
 10
188.25099999999989
 20
16.979900000000001
 30
0.0
 11
21.749700000000001
 21
16.979900000000001
 31
0.0
  0
LINE
  5
41F
  8
_________2
 62
     7
 10
21.749700000000001
 20
16.979900000000001
 30
0.0
 11
21.749700000000001
 21
279.98200000000003
 31
0.0
  0
LINE
  5
420
  8
_________2
 62
     7
 10
21.749700000000001
 20
279.98200000000003
 30
0.0
 11
188.25099999999989
 21
279.98200000000003
 31
0.0
  0
LINE
  5
421
  8
_________2
 62
     7
 10
188.25099999999989
 20
279.98200000000003
 30
0.0
 11
188.25099999999989
 21
16.979900000000001
 31
0.0
  0
LINE
  5
422
  8
_________2
 62
     7
 10
70.250100000000003
 20
30.48
 30
0.0
 11
70.250100000000003
 21
56.979799999999997
 31
0.0
  0
LINE
  5
423
  8
_________2
 62
     7
 10
89.249899999999997
 20
30.48
 30
0.0
 11
89.249899999999997
 21
56.979799999999997
 31
0.0
  0
LINE
  5
424
  8
_________2
 62
     7
 10
108.25
 20
16.979900000000001
 30
0.0
 11
108.25
 21
56.979799999999997
 31
0.0
  0
LINE
  5
425
  8
_________2
 62
     7
 10
33.249499999999991
 20
30.48
 30
0.0
 11
33.249499999999991
 21
44.4803
 31
0.0
  0
LINE
  5
426
  8
_________2
 62
     7
 10
21.749700000000001
 20
30.48
 30
0.0
 11
108.25
 21
30.48
 31
0.0
  0
LINE
  5
427
  8
_________2
 62
     7
 10
21.749700000000001
 20
44.4803
 30
0.0
 11
108.25
 21
44.4803
 31
0.0
  0
LINE
  5
428
  8
_________2
 62
     7
 10
108.25
 20
36.979500000000002
 30
0.0
 11
188.25099999999989
 21
36.979500000000002
 31
0.0
  0
LINE
  5
429
  8
_________2
 62
     7
 10
21.749700000000001
 20
56.979799999999997
 30
0.0
 11
188.25099999999989
 21
56.979799999999997
 31
0.0
  0
ENDSEC
  0
EOF
