  0
SECTION
  2
HEADER
  9
$ACADVER
  1
AC1009
  9
$INSBASE
 10
0.0
 20
0.0
 30
0.0
  9
$EXTMIN
 10
-0.000689023
 20
-0.000344512
 30
0.0
  9
$EXTMAX
 10
210.00099999999989
 20
297.00200000000001
 30
0.0
  9
$LIMMIN
 10
0.0
 20
0.0
  9
$LIMMAX
 10
12.0
 20
9.0
  9
$ORTHOMODE
 70
     0
  9
$REGENMODE
 70
     1
  9
$FILLMODE
 70
     1
  9
$QTEXTMODE
 70
     0
  9
$MIRRTEXT
 70
     1
  9
$DRAGMODE
 70
     2
  9
$LTSCALE
 40
1.0
  9
$OSMODE
 70
    37
  9
$ATTMODE
 70
     1
  9
$TEXTSIZE
 40
0.0
  9
$TRACEWID
 40
0.05
  9
$TEXTSTYLE
  7
STANDARD
  9
$CLAYER
  8
0
  9
$CELTYPE
  6
CONTINUOUS
  9
$CECOLOR
 62
   256
  9
$DIMSCALE
 40
1.0
  9
$DIMASZ
 40
0.18
  9
$DIMEXO
 40
0.0625
  9
$DIMDLI
 40
0.38
  9
$DIMRND
 40
0.0
  9
$DIMDLE
 40
0.0
  9
$DIMEXE
 40
0.18
  9
$DIMTP
 40
0.0
  9
$DIMTM
 40
0.0
  9
$DIMTXT
 40
0.18
  9
$DIMCEN
 40
0.09
  9
$DIMTSZ
 40
0.0
  9
$DIMTOL
 70
     0
  9
$DIMLIM
 70
     0
  9
$DIMTIH
 70
     1
  9
$DIMTOH
 70
     1
  9
$DIMSE1
 70
     0
  9
$DIMSE2
 70
     0
  9
$DIMTAD
 70
     0
  9
$DIMZIN
 70
     0
  9
$DIMBLK
  1

  9
$DIMASO
 70
     1
  9
$DIMSHO
 70
     1
  9
$DIMPOST
  1

  9
$DIMAPOST
  1

  9
$DIMALT
 70
     0
  9
$DIMALTD
 70
     2
  9
$DIMALTF
 40
25.399999999999999
  9
$DIMLFAC
 40
1.0
  9
$DIMTOFL
 70
     0
  9
$DIMTVP
 40
0.0
  9
$DIMTIX
 70
     0
  9
$DIMSOXD
 70
     0
  9
$DIMSAH
 70
     0
  9
$DIMBLK1
  1

  9
$DIMBLK2
  1

  9
$DIMSTYLE
  2
STANDARD
  9
$DIMCLRD
 70
     0
  9
$DIMCLRE
 70
     0
  9
$DIMCLRT
 70
     0
  9
$DIMTFAC
 40
1.0
  9
$DIMGAP
 40
0.09
  9
$LUNITS
 70
     2
  9
$LUPREC
 70
     4
  9
$SKETCHINC
 40
0.1
  9
$FILLETRAD
 40
0.0
  9
$AUNITS
 70
     0
  9
$AUPREC
 70
     0
  9
$MENU
  1
.
  9
$ELEVATION
 40
0.0
  9
$PELEVATION
 40
0.0
  9
$THICKNESS
 40
0.0
  9
$LIMCHECK
 70
     0
  9
$BLIPMODE
 70
     0
  9
$CHAMFERA
 40
0.0
  9
$CHAMFERB
 40
0.0
  9
$SKPOLY
 70
     0
  9
$TDCREATE
 40
2444972.375
  9
$TDUPDATE
 40
2456039.2501633912
  9
$TDINDWG
 40
0.0000113657
  9
$TDUSRTIMER
 40
0.0000113657
  9
$USRTIMER
 70
     1
  9
$ANGBASE
 50
0.0
  9
$ANGDIR
 70
     0
  9
$PDMODE
 70
     0
  9
$PDSIZE
 40
0.0
  9
$PLINEWID
 40
0.0
  9
$COORDS
 70
     1
  9
$SPLFRAME
 70
     0
  9
$SPLINETYPE
 70
     6
  9
$SPLINESEGS
 70
     8
  9
$ATTDIA
 70
     0
  9
$ATTREQ
 70
     1
  9
$HANDLING
 70
     1
  9
$HANDSEED
  5
481
  9
$SURFTAB1
 70
     6
  9
$SURFTAB2
 70
     6
  9
$SURFTYPE
 70
     6
  9
$SURFU
 70
     6
  9
$SURFV
 70
     6
  9
$UCSNAME
  2

  9
$UCSORG
 10
0.0
 20
0.0
 30
0.0
  9
$UCSXDIR
 10
1.0
 20
0.0
 30
0.0
  9
$UCSYDIR
 10
0.0
 20
1.0
 30
0.0
  9
$PUCSNAME
  2

  9
$PUCSORG
 10
0.0
 20
0.0
 30
0.0
  9
$PUCSXDIR
 10
1.0
 20
0.0
 30
0.0
  9
$PUCSYDIR
 10
0.0
 20
1.0
 30
0.0
  9
$USERI1
 70
     0
  9
$USERI2
 70
     0
  9
$USERI3
 70
     0
  9
$USERI4
 70
     0
  9
$USERI5
 70
     0
  9
$USERR1
 40
0.0
  9
$USERR2
 40
0.0
  9
$USERR3
 40
0.0
  9
$USERR4
 40
0.0
  9
$USERR5
 40
0.0
  9
$WORLDVIEW
 70
     1
  9
$SHADEDGE
 70
     3
  9
$SHADEDIF
 70
    70
  9
$TILEMODE
 70
     1
  9
$MAXACTVP
 70
    48
  9
$PLIMCHECK
 70
     0
  9
$PEXTMIN
 10
1.0000000000000000E+020
 20
1.0000000000000000E+020
 30
1.0000000000000000E+020
  9
$PEXTMAX
 10
-1.0000000000000000E+020
 20
-1.0000000000000000E+020
 30
-1.0000000000000000E+020
  9
$PLIMMIN
 10
0.0
 20
0.0
  9
$PLIMMAX
 10
12.0
 20
9.0
  9
$UNITMODE
 70
     0
  9
$VISRETAIN
 70
     1
  9
$PLINEGEN
 70
     0
  9
$PSLTSCALE
 70
     1
  0
ENDSEC
  0
SECTION
  2
TABLES
  0
TABLE
  2
VPORT
 70
     2
  0
VPORT
  2
*ACTIVE
 70
     0
 10
0.0
 20
0.0
 11
1.0
 21
1.0
 12
210.01058136432829
 22
148.50082774399999
 13
0.0
 23
0.0
 14
1.0
 24
1.0
 15
0.0
 25
0.0
 16
0.0
 26
0.0
 36
1.0
 17
0.0
 27
0.0
 37
0.0
 40
299.24669472241823
 41
2.2894736842105261
 42
50.0
 43
0.0
 44
0.0
 50
0.0
 51
0.0
 71
     0
 72
   100
 73
     1
 74
     1
 75
     0
 76
     0
 77
     0
 78
     0
  0
ENDTAB
  0
TABLE
  2
LTYPE
 70
     2
  0
LTYPE
  2
CONTINUOUS
 70
     0
  3
Solid line
 72
    65
 73
     0
 40
0.0
  0
LTYPE
  2
AIGENLINE001
 70
     0
  3
generate AI->DXF Converter
 72
    65
 73
     4
 40
5.8561449999999988
 49
3.5278
 49
-0.776115
 49
0.776115
 49
-0.776115
  0
ENDTAB
  0
TABLE
  2
LAYER
 70
     2
  0
LAYER
  2
0
 70
     0
 62
     7
  6
CONTINUOUS
  0
LAYER
  2
_________2
 70
     0
 62
     7
  6
CONTINUOUS
  0
ENDTAB
  0
TABLE
  2
STYLE
 70
     1
  0
STYLE
  2
STANDARD
 70
     0
 40
0.0
 41
0.0
 50
0.0
 71
     0
 42
0.0
  3
TXT
  4
EXTFONT.SHX
  0
ENDTAB
  0
TABLE
  2
VIEW
 70
     0
  0
ENDTAB
  0
TABLE
  2
UCS
 70
     0
  0
ENDTAB
  0
TABLE
  2
APPID
 70
     1
  0
APPID
  2
ACAD
 70
     0
  0
ENDTAB
  0
TABLE
  2
DIMSTYLE
 70
     1
  0
DIMSTYLE
  2
STANDARD
 70
     0
  3

  4

  5

  6

  7

 40
1.0
 41
0.18
 42
0.0625
 43
0.38
 44
0.18
 45
0.0
 46
0.0
 47
0.0
 48
0.0
140
0.18
141
0.09
142
0.0
143
25.399999999999999
144
1.0
145
0.0
146
1.0
147
0.09
 71
     0
 72
     0
 73
     1
 74
     1
 75
     0
 76
     0
 77
     0
 78
     0
170
     0
171
     2
172
     0
173
     0
174
     0
175
     0
176
     0
177
     0
178
     0
  0
ENDTAB
  0
ENDSEC
  0
SECTION
  2
BLOCKS
  0
BLOCK
  8
0
  2
$MODEL_SPACE
 70
     0
 10
0.0
 20
0.0
 30
0.0
  3
$MODEL_SPACE
  1

  0
ENDBLK
  5
1A
  8
0
  0
BLOCK
 67
     1
  8
0
  2
$PAPER_SPACE
 70
     0
 10
0.0
 20
0.0
 30
0.0
  3
$PAPER_SPACE
  1

  0
ENDBLK
  5
17
 67
     1
  8
0
  0
ENDSEC
  0
SECTION
  2
ENTITIES
  0
TEXT
  5
22
  8
0
 62
     7
 10
85.655299999999997
 20
67.340710000000001
 30
0.0
 40
3.0923400000000001
  1
A
 50
90.0
 41
0.5
 72
     1
 11
85.655299999999997
 21
67.856099999999998
 31
0.0
  0
TEXT
  5
23
  8
0
 62
     7
 10
85.655299999999997
 20
176.31261000000001
 30
0.0
 40
3.0923400000000001
  1
A
 50
90.0
 41
0.5
 72
     1
 11
85.655299999999997
 21
176.828
 31
0.0
  0
TEXT
  5
24
  8
0
 62
     7
 10
175.96000000000001
 20
121.50444
 30
0.0
 40
3.0923400000000001
  1
A-A
 50
90.0
 41
0.5
 72
     1
 11
175.96000000000001
 21
123.5659999999999
 31
0.0
  0
TEXT
  5
25
  8
0
 62
     7
 10
37.433599999999998
 20
120.60774499999999
 30
0.0
 40
3.0923400000000001
  1
1500
 50
90.0
 41
0.5
 72
     1
 11
37.433599999999998
 21
122.92700000000001
 31
0.0
  0
TEXT
  5
26
  8
0
 62
     7
 10
113.06
 20
240.53899999999999
 30
0.0
 40
3.0923400000000001
  1
%%c53
 41
0.5
  0
TEXT
  5
27
  8
0
 62
     7
 10
62.036700000000003
 20
169.62599999999989
 30
0.0
 40
3.0923400000000001
  1
%%c55
 41
0.5
  0
TEXT
  5
28
  8
0
 62
     7
 10
168.90499999999989
 20
247.54743999999991
 30
0.0
 40
3.0923400000000001
  1
255
 50
90.0
 41
0.5
 72
     1
 11
168.90499999999989
 21
249.60900000000001
 31
0.0
  0
TEXT
  5
29
  8
0
 62
     7
 10
168.90499999999989
 20
231.17628749999989
 30
0.0
 40
3.0923400000000001
  1
240
 50
90.0
 41
0.5
 72
     1
 11
168.90499999999989
 21
233.10900000000001
 31
0.0
  0
TEXT
  5
2A
  8
0
 62
     7
 10
45.666899999999998
 20
68.212299999999985
 30
0.0
 40
3.0923400000000001
  1
20
 50
90.0
 41
0.5
  0
TEXT
  5
2B
  8
0
 62
     7
 10
45.666899999999998
 20
118.60774499999999
 30
0.0
 40
3.0923400000000001
  1
1400
 50
90.0
 41
0.5
 72
     1
 11
45.666899999999998
 21
120.92700000000001
 31
0.0
  0
TEXT
  5
2C
  8
0
 62
     7
 10
110.336
 20
163.3302875
 30
0.0
 40
3.0923400000000001
  1
230
 50
90.0
 41
0.5
 72
     1
 11
110.336
 21
165.26300000000001
 31
0.0
  0
TEXT
  5
2D
  8
0
 62
     7
 10
45.666899999999998
 20
169.10337250000001
 30
0.0
 40
3.0923400000000001
  1
80
 50
90.0
 41
0.5
 72
     1
 11
45.666899999999998
 21
170.26300000000001
 31
0.0
  0
TEXT
  5
2E
  8
0
 62
     7
 10
168.90499999999989
 20
214.54743999999991
 30
0.0
 40
3.0923400000000001
  1
255
 50
90.0
 41
0.5
 72
     1
 11
168.90499999999989
 21
216.60900000000001
 31
0.0
  0
TEXT
  5
2F
  8
0
 62
     7
 10
168.90499999999989
 20
159.3282874999999
 30
0.0
 40
3.0923400000000001
  1
350
 50
90.0
 41
0.5
 72
     1
 11
168.90499999999989
 21
161.261
 31
0.0
  0
TEXT
  5
30
  8
0
 62
     7
 10
168.90499999999989
 20
86.321887500000003
 30
0.0
 40
3.0923400000000001
  1
460
 50
90.0
 41
0.5
 72
     1
 11
168.90499999999989
 21
88.254599999999996
 31
0.0
  0
TEXT
  5
31
  8
0
 62
     7
 10
168.90499999999989
 20
124.6552875
 30
0.0
 40
3.0923400000000001
  1
690
 50
90.0
 41
0.5
 72
     1
 11
168.90499999999989
 21
126.58799999999989
 31
0.0
  0
TEXT
  5
32
  8
0
 62
     7
 10
116.60299999999989
 20
225.953
 30
0.0
 40
3.0923400000000001
  1
70
 41
0.5
  0
TEXT
  5
33
  8
0
 62
     7
 10
116.05
 20
201.45500000000001
 30
0.0
 40
3.0923400000000001
  1
30
 41
0.5
  0
TEXT
  5
34
  8
0
 62
     7
 10
138.2354399999999
 20
266.97300000000001
 30
0.0
 40
3.0923400000000001
  1
595
 41
0.5
 72
     1
 11
140.297
 21
266.97300000000001
 31
0.0
  0
TEXT
  5
35
  8
0
 62
     7
 10
138.2354399999999
 20
184.17400000000001
 30
0.0
 40
3.0923400000000001
  1
595
 41
0.5
 72
     1
 11
140.297
 21
184.17400000000001
 31
0.0
  0
TEXT
  5
36
  8
0
 62
     7
 10
133.49628749999991
 20
158.29699999999991
 30
0.0
 40
3.0923400000000001
  1
450
 41
0.5
 72
     1
 11
135.42899999999989
 21
158.29699999999991
 31
0.0
  0
TEXT
  5
37
  8
0
 62
     7
 10
55.185072499999997
 20
184.17400000000001
 30
0.0
 40
3.0923400000000001
  1
80
 41
0.5
 72
     1
 11
56.344700000000003
 21
184.17400000000001
 31
0.0
  0
TEXT
  5
38
  8
0
 62
     7
 10
99.778372500000003
 20
184.17400000000001
 30
0.0
 40
3.0923400000000001
  1
80
 41
0.5
 72
     1
 11
100.9379999999999
 21
184.17400000000001
 31
0.0
  0
TEXT
  5
39
  8
0
 62
     7
 10
76.660087500000003
 20
184.17400000000001
 30
0.0
 40
3.0923400000000001
  1
590
 41
0.5
 72
     1
 11
78.592799999999997
 21
184.17400000000001
 31
0.0
  0
TEXT
  5
3A
  8
0
 62
     7
 10
76.687487500000003
 20
190.47799999999989
 30
0.0
 40
3.0923400000000001
  1
750
 41
0.5
 72
     1
 11
78.620199999999997
 21
190.47799999999989
 31
0.0
  0
LINE
  5
3B
  8
0
 62
     7
 10
80.094700000000003
 20
68.251199999999997
 30
0.0
 11
78.620199999999997
 21
67.856099999999998
 31
0.0
  0
LINE
  5
3C
  8
0
 62
     7
 10
78.620199999999997
 20
67.856099999999998
 30
0.0
 11
80.094700000000003
 21
67.461299999999994
 31
0.0
  0
LINE
  5
3D
  8
0
 62
     7
 10
80.094700000000003
 20
67.461299999999994
 30
0.0
 11
80.094700000000003
 21
68.251199999999997
 31
0.0
  0
LINE
  5
3E
  8
0
 62
     7
 10
78.620199999999997
 20
67.856099999999998
 30
0.0
 11
83.230400000000003
 21
67.856099999999998
 31
0.0
  0
LINE
  5
3F
  8
0
 62
     7
 10
80.094700000000003
 20
177.2229999999999
 30
0.0
 11
78.620199999999997
 21
176.828
 31
0.0
  0
LINE
  5
40
  8
0
 62
     7
 10
78.620199999999997
 20
176.828
 30
0.0
 11
80.094700000000003
 21
176.43299999999991
 31
0.0
  0
LINE
  5
41
  8
0
 62
     7
 10
80.094700000000003
 20
176.43299999999991
 30
0.0
 11
80.094700000000003
 21
177.2229999999999
 31
0.0
  0
LINE
  5
42
  8
0
 62
     7
 10
78.620199999999997
 20
176.828
 30
0.0
 11
83.230400000000003
 21
176.828
 31
0.0
  0
LINE
  5
43
  8
0
 62
     7
 10
148.98199999999991
 20
157.21100000000001
 30
0.0
 11
150.45599999999999
 21
157.60599999999999
 31
0.0
  0
LINE
  5
44
  8
0
 62
     7
 10
150.45599999999999
 20
157.60599999999999
 30
0.0
 11
148.98199999999991
 21
158.001
 31
0.0
  0
LINE
  5
45
  8
0
 62
     7
 10
148.98199999999991
 20
158.001
 30
0.0
 11
148.98199999999991
 21
157.21100000000001
 31
0.0
  0
LINE
  5
46
  8
0
 62
     7
 10
121.937
 20
157.99100000000001
 30
0.0
 11
120.46299999999989
 21
157.59700000000001
 31
0.0
  0
LINE
  5
47
  8
0
 62
     7
 10
120.46299999999989
 20
157.59700000000001
 30
0.0
 11
121.937
 21
157.202
 31
0.0
  0
LINE
  5
48
  8
0
 62
     7
 10
121.937
 20
157.202
 30
0.0
 11
121.937
 21
157.99100000000001
 31
0.0
  0
LINE
  5
49
  8
0
 62
     7
 10
150.45699999999999
 20
157.59700000000001
 30
0.0
 11
120.46299999999989
 21
157.59700000000001
 31
0.0
  0
LINE
  5
4A
  8
0
 62
     7
 10
46.575099999999999
 20
71.449299999999994
 30
0.0
 11
46.180100000000003
 21
72.923500000000004
 31
0.0
  0
LINE
  5
4B
  8
0
 62
     7
 10
46.180100000000003
 20
72.923500000000004
 30
0.0
 11
45.7849
 21
71.449299999999994
 31
0.0
  0
LINE
  5
4C
  8
0
 62
     7
 10
45.7849
 20
71.449299999999994
 30
0.0
 11
46.575099999999999
 21
71.449299999999994
 31
0.0
  0
LINE
  5
4D
  8
0
 62
     7
 10
45.7849
 20
75.731300000000005
 30
0.0
 11
46.180100000000003
 21
74.257099999999994
 31
0.0
  0
LINE
  5
4E
  8
0
 62
     7
 10
46.180100000000003
 20
74.257099999999994
 30
0.0
 11
46.575099999999999
 21
75.731300000000005
 31
0.0
  0
LINE
  5
4F
  8
0
 62
     7
 10
46.575099999999999
 20
75.731300000000005
 30
0.0
 11
45.7849
 21
75.731300000000005
 31
0.0
  0
LINE
  5
50
  8
0
 62
     7
 10
46.180100000000003
 20
167.59700000000001
 30
0.0
 11
46.180100000000003
 21
68.085499999999996
 31
0.0
  0
LINE
  5
51
  8
0
 62
     7
 10
111.542
 20
171.4559999999999
 30
0.0
 11
111.14700000000001
 21
172.93000000000001
 31
0.0
  0
LINE
  5
52
  8
0
 62
     7
 10
111.14700000000001
 20
172.93000000000001
 30
0.0
 11
110.752
 21
171.4559999999999
 31
0.0
  0
LINE
  5
53
  8
0
 62
     7
 10
110.752
 20
171.4559999999999
 30
0.0
 11
111.542
 21
171.4559999999999
 31
0.0
  0
LINE
  5
54
  8
0
 62
     7
 10
110.752
 20
159.071
 30
0.0
 11
111.14700000000001
 21
157.59700000000001
 31
0.0
  0
LINE
  5
55
  8
0
 62
     7
 10
111.14700000000001
 20
157.59700000000001
 30
0.0
 11
111.542
 21
159.071
 31
0.0
  0
LINE
  5
56
  8
0
 62
     7
 10
111.542
 20
159.071
 30
0.0
 11
110.752
 21
159.071
 31
0.0
  0
LINE
  5
57
  8
0
 62
     7
 10
111.14700000000001
 20
172.93000000000001
 30
0.0
 11
111.14700000000001
 21
157.59700000000001
 31
0.0
  0
LINE
  5
58
  8
0
 62
     7
 10
111.84699999999999
 20
157.59700000000001
 30
0.0
 11
84.543499999999995
 21
157.59700000000001
 31
0.0
  0
LINE
  5
59
  8
0
 62
     7
 10
111.84699999999999
 20
172.93000000000001
 30
0.0
 11
104.467
 21
172.93000000000001
 31
0.0
  0
LINE
  5
5A
  8
0
 62
     7
 10
46.575099999999999
 20
171.4559999999999
 30
0.0
 11
46.180100000000003
 21
172.93000000000001
 31
0.0
  0
LINE
  5
5B
  8
0
 62
     7
 10
46.180100000000003
 20
172.93000000000001
 30
0.0
 11
45.7849
 21
171.4559999999999
 31
0.0
  0
LINE
  5
5C
  8
0
 62
     7
 10
45.7849
 20
171.4559999999999
 30
0.0
 11
46.575099999999999
 21
171.4559999999999
 31
0.0
  0
LINE
  5
5D
  8
0
 62
     7
 10
45.7849
 20
169.07099999999991
 30
0.0
 11
46.180100000000003
 21
167.59700000000001
 31
0.0
  0
LINE
  5
5E
  8
0
 62
     7
 10
46.180100000000003
 20
167.59700000000001
 30
0.0
 11
46.575099999999999
 21
169.07099999999991
 31
0.0
  0
LINE
  5
5F
  8
0
 62
     7
 10
46.575099999999999
 20
169.07099999999991
 30
0.0
 11
45.7849
 21
169.07099999999991
 31
0.0
  0
LINE
  5
60
  8
0
 62
     7
 10
46.180100000000003
 20
172.93000000000001
 30
0.0
 11
46.180100000000003
 21
167.59700000000001
 31
0.0
  0
LINE
  5
61
  8
0
 62
     7
 10
169.75699999999989
 20
223.63499999999991
 30
0.0
 11
169.36199999999991
 21
225.10900000000001
 31
0.0
  0
LINE
  5
62
  8
0
 62
     7
 10
169.36199999999991
 20
225.10900000000001
 30
0.0
 11
168.96700000000001
 21
223.63499999999991
 31
0.0
  0
LINE
  5
63
  8
0
 62
     7
 10
168.96700000000001
 20
223.63499999999991
 30
0.0
 11
169.75699999999989
 21
223.63499999999991
 31
0.0
  0
LINE
  5
64
  8
0
 62
     7
 10
168.97599999999991
 20
209.58299999999991
 30
0.0
 11
169.3709999999999
 21
208.10900000000001
 31
0.0
  0
LINE
  5
65
  8
0
 62
     7
 10
169.3709999999999
 20
208.10900000000001
 30
0.0
 11
169.767
 21
209.58299999999991
 31
0.0
  0
LINE
  5
66
  8
0
 62
     7
 10
169.767
 20
209.58299999999991
 30
0.0
 11
168.97599999999991
 21
209.58299999999991
 31
0.0
  0
LINE
  5
67
  8
0
 62
     7
 10
169.3709999999999
 20
225.10900000000001
 30
0.0
 11
169.3709999999999
 21
208.10900000000001
 31
0.0
  0
LINE
  5
68
  8
0
 62
     7
 10
168.97599999999991
 20
226.583
 30
0.0
 11
169.3709999999999
 21
225.10900000000001
 31
0.0
  0
LINE
  5
69
  8
0
 62
     7
 10
169.3709999999999
 20
225.10900000000001
 30
0.0
 11
169.767
 21
226.583
 31
0.0
  0
LINE
  5
6A
  8
0
 62
     7
 10
169.767
 20
226.583
 30
0.0
 11
168.97599999999991
 21
226.583
 31
0.0
  0
LINE
  5
6B
  8
0
 62
     7
 10
169.75699999999989
 20
239.63499999999991
 30
0.0
 11
169.36199999999991
 21
241.10900000000001
 31
0.0
  0
LINE
  5
6C
  8
0
 62
     7
 10
169.36199999999991
 20
241.10900000000001
 30
0.0
 11
168.96700000000001
 21
239.63499999999991
 31
0.0
  0
LINE
  5
6D
  8
0
 62
     7
 10
168.96700000000001
 20
239.63499999999991
 30
0.0
 11
169.75699999999989
 21
239.63499999999991
 31
0.0
  0
LINE
  5
6E
  8
0
 62
     7
 10
169.3709999999999
 20
225.10900000000001
 30
0.0
 11
169.3709999999999
 21
241.10900000000001
 31
0.0
  0
LINE
  5
6F
  8
0
 62
     7
 10
120.46299999999989
 20
258.65199999999987
 30
0.0
 11
120.46299999999989
 21
266.74000000000001
 31
0.0
  0
LINE
  5
70
  8
0
 62
     7
 10
160.12999999999991
 20
243.09299999999999
 30
0.0
 11
160.12999999999991
 21
266.74000000000001
 31
0.0
  0
LINE
  5
71
  8
0
 62
     7
 10
161.53700000000001
 20
241.10900000000001
 30
0.0
 11
169.83799999999999
 21
241.10900000000001
 31
0.0
  0
LINE
  5
72
  8
0
 62
     7
 10
157.76900000000001
 20
240.6759999999999
 30
0.0
 11
156.7949999999999
 21
240.6759999999999
 31
0.0
  0
LINE
  5
73
  8
0
 62
     7
 10
157.76900000000001
 20
240.74299999999999
 30
0.0
 11
156.7949999999999
 21
240.74299999999999
 31
0.0
  0
LINE
  5
74
  8
0
 62
     7
 10
157.76900000000001
 20
241.40899999999999
 30
0.0
 11
156.7949999999999
 21
241.40899999999999
 31
0.0
  0
LINE
  5
75
  8
0
 62
     7
 10
157.76900000000001
 20
241.476
 30
0.0
 11
156.7949999999999
 21
241.476
 31
0.0
  0
LINE
  5
76
  8
0
 62
     7
 10
157.67599999999999
 20
240.6759999999999
 30
0.0
 11
157.67599999999999
 21
241.476
 31
0.0
  0
LINE
  5
77
  8
0
  6
AIGENLINE001
 62
     7
 10
161.071
 20
241.10900000000001
 30
0.0
 11
149.988
 21
241.10900000000001
 31
0.0
  0
LINE
  5
78
  8
0
 62
     7
 10
160.12999999999991
 20
239.70899999999989
 30
0.0
 11
160.12999999999991
 21
242.50899999999999
 31
0.0
  0
LINE
  5
79
  8
0
 62
     7
 10
160.0629999999999
 20
242.50899999999999
 30
0.0
 11
160.12999999999991
 21
242.50899999999999
 31
0.0
  0
LINE
  5
7A
  8
0
 62
     7
 10
160.0629999999999
 20
239.70899999999989
 30
0.0
 11
160.12999999999991
 21
239.70899999999989
 31
0.0
  0
ARC
  5
7B
  8
0
 62
     7
 10
158.00426899999991
 20
240.63551200000001
 30
0.0
 40
0.231315
 50
136.55550600000001
 51
222.69472400000001
  0
LINE
  5
7C
  8
0
 62
     7
 10
157.834
 20
240.47900000000001
 30
0.0
 11
157.83600000000001
 21
240.476
 31
0.0
  0
ARC
  5
7D
  8
0
 62
     7
 10
158.00337799999991
 20
241.58464499999999
 30
0.0
 40
0.230429
 50
136.46597
 51
222.78262099999989
  0
LINE
  5
7E
  8
0
 62
     7
 10
157.834
 20
241.428
 30
0.0
 11
157.83600000000001
 21
241.42500000000001
 31
0.0
  0
LINE
  5
7F
  8
0
 62
     7
 10
157.76900000000001
 20
241.42500000000001
 30
0.0
 11
157.76900000000001
 21
241.584
 31
0.0
  0
ARC
  5
80
  8
0
 62
     7
 10
158.06768600000001
 20
241.58358799999991
 30
0.0
 40
0.231942
 50
316.7577609999999
 51
42.49165
  0
LINE
  5
81
  8
0
 62
     7
 10
158.239
 20
241.74000000000001
 30
0.0
 11
158.2359999999999
 21
241.74299999999991
 31
0.0
  0
ARC
  5
82
  8
0
 62
     7
 10
158.0672889999999
 20
240.63480299999989
 30
0.0
 40
0.232467
 50
316.76290999999998
 51
42.488135999999997
  0
LINE
  5
83
  8
0
 62
     7
 10
158.239
 20
240.792
 30
0.0
 11
158.2359999999999
 21
240.7939999999999
 31
0.0
  0
ARC
  5
84
  8
0
 62
     7
 10
157.51605900000001
 20
241.109116
 30
0.0
 40
0.785615
 50
336.398484
 51
23.601516
  0
ARC
  5
85
  8
0
 62
     7
 10
158.54848799999991
 20
241.108599
 30
0.0
 40
0.7787410000000001
 50
156.135727
 51
203.86427299999991
  0
LINE
  5
86
  8
0
 62
     7
 10
157.76900000000001
 20
240.63499999999991
 30
0.0
 11
157.76900000000001
 21
241.584
 31
0.0
  0
LINE
  5
87
  8
0
 62
     7
 10
158.30299999999991
 20
240.63499999999991
 30
0.0
 11
158.30299999999991
 21
241.584
 31
0.0
  0
LINE
  5
88
  8
0
 62
     7
 10
158.23699999999999
 20
241.74299999999991
 30
0.0
 11
157.83600000000001
 21
241.74299999999991
 31
0.0
  0
LINE
  5
89
  8
0
 62
     7
 10
158.23699999999999
 20
240.476
 30
0.0
 11
157.83600000000001
 21
240.476
 31
0.0
  0
LINE
  5
8A
  8
0
 62
     7
 10
158.23699999999999
 20
241.42500000000001
 30
0.0
 11
157.83600000000001
 21
241.42500000000001
 31
0.0
  0
LINE
  5
8B
  8
0
 62
     7
 10
158.23699999999999
 20
240.79499999999999
 30
0.0
 11
157.83600000000001
 21
240.79499999999999
 31
0.0
  0
LINE
  5
8C
  8
0
 62
     7
 10
158.63599999999991
 20
240.74299999999999
 30
0.0
 11
158.63599999999991
 21
241.476
 31
0.0
  0
LINE
  5
8D
  8
0
 62
     7
 10
158.63599999999991
 20
241.476
 30
0.0
 11
158.30299999999991
 21
241.476
 31
0.0
  0
LINE
  5
8E
  8
0
 62
     7
 10
158.63599999999991
 20
240.74299999999999
 30
0.0
 11
158.30299999999991
 21
240.74299999999999
 31
0.0
  0
ARC
  5
8F
  8
0
 62
     7
 10
158.9524649999999
 20
241.07640599999991
 30
0.0
 40
0.4598130000000001
 50
226.55684099999999
 51
241.06346499999989
  0
ARC
  5
90
  8
0
 62
     7
 10
158.9880959999999
 20
241.093468
 30
0.0
 40
0.5197310000000001
 50
119.7764899999999
 51
132.60320400000001
  0
LINE
  5
91
  8
0
 62
     7
 10
158.7299999999999
 20
241.94200000000001
 30
0.0
 11
159.52999999999989
 21
242.7759999999999
 31
0.0
  0
LINE
  5
92
  8
0
 62
     7
 10
158.7299999999999
 20
240.2759999999999
 30
0.0
 11
159.52999999999989
 21
239.44200000000001
 31
0.0
  0
LINE
  5
93
  8
0
 62
     7
 10
160.0629999999999
 20
239.44200000000001
 30
0.0
 11
159.52999999999989
 21
239.44200000000001
 31
0.0
  0
LINE
  5
94
  8
0
 62
     7
 10
160.0629999999999
 20
242.7759999999999
 30
0.0
 11
159.52999999999989
 21
242.7759999999999
 31
0.0
  0
LINE
  5
95
  8
0
 62
     7
 10
159.52999999999989
 20
242.7759999999999
 30
0.0
 11
159.52999999999989
 21
239.44200000000001
 31
0.0
  0
LINE
  5
96
  8
0
 62
     7
 10
158.7299999999999
 20
241.94200000000001
 30
0.0
 11
158.7299999999999
 21
240.2759999999999
 31
0.0
  0
LINE
  5
97
  8
0
 62
     7
 10
160.0629999999999
 20
242.7759999999999
 30
0.0
 11
160.0629999999999
 21
239.44200000000001
 31
0.0
  0
LINE
  5
98
  8
0
 62
     7
 10
156.73799999999989
 20
241.85300000000001
 30
0.0
 11
156.18499999999989
 21
241.85300000000001
 31
0.0
  0
LINE
  5
99
  8
0
 62
     7
 10
156.73799999999989
 20
240.755
 30
0.0
 11
156.18499999999989
 21
240.755
 31
0.0
  0
LINE
  5
9A
  8
0
 62
     7
 10
156.73799999999989
 20
240.38900000000001
 30
0.0
 11
156.18499999999989
 21
240.38900000000001
 31
0.0
  0
LINE
  5
9B
  8
0
 62
     7
 10
156.73799999999989
 20
241.48699999999999
 30
0.0
 11
156.18499999999989
 21
241.48699999999999
 31
0.0
  0
LINE
  5
9C
  8
0
 62
     7
 10
156.73799999999989
 20
241.85300000000001
 30
0.0
 11
156.7949999999999
 21
241.75399999999999
 31
0.0
  0
LINE
  5
9D
  8
0
 62
     7
 10
156.73799999999989
 20
240.38900000000001
 30
0.0
 11
156.7949999999999
 21
240.48699999999991
 31
0.0
  0
ARC
  5
9E
  8
0
 62
     7
 10
156.463368
 20
240.572159
 30
0.0
 40
0.330593
 50
335.07549299999988
 51
33.712564999999998
  0
ARC
  5
9F
  8
0
 62
     7
 10
155.57375200000001
 20
241.12028100000001
 30
0.0
 40
1.220569
 50
342.584093
 51
17.469857999999999
  0
LINE
  5
A0
  8
0
 62
     7
 10
156.7949999999999
 20
241.75399999999999
 30
0.0
 11
156.7949999999999
 21
240.48699999999991
 31
0.0
  0
ARC
  5
A1
  8
0
 62
     7
 10
156.46486999999999
 20
241.66957999999991
 30
0.0
 40
0.329198
 50
326.18064399999992
 51
25.021946
  0
LINE
  5
A2
  8
0
 62
     7
 10
152.59599999999989
 20
239.1159999999999
 30
0.0
 11
152.59599999999989
 21
243.0379999999999
 31
0.0
  0
LINE
  5
A3
  8
0
 62
     7
 10
152.95699999999991
 20
240.67699999999999
 30
0.0
 11
155.96899999999991
 21
240.67699999999999
 31
0.0
  0
LINE
  5
A4
  8
0
 62
     7
 10
152.95699999999991
 20
241.476
 30
0.0
 11
155.96899999999991
 21
241.476
 31
0.0
  0
LINE
  5
A5
  8
0
 62
     7
 10
152.75700000000001
 20
239.07699999999991
 30
0.0
 11
152.75700000000001
 21
241.07699999999991
 31
0.0
  0
LINE
  5
A6
  8
0
 62
     7
 10
152.75700000000001
 20
239.07699999999991
 30
0.0
 11
152.63599999999991
 21
239.07699999999991
 31
0.0
  0
LINE
  5
A7
  8
0
 62
     7
 10
152.797
 20
239.1159999999999
 30
0.0
 11
152.75700000000001
 21
239.07699999999991
 31
0.0
  0
LINE
  5
A8
  8
0
 62
     7
 10
152.63599999999991
 20
239.07699999999991
 30
0.0
 11
152.59599999999989
 21
239.1159999999999
 31
0.0
  0
LINE
  5
A9
  8
0
 62
     7
 10
152.63599999999991
 20
241.07699999999991
 30
0.0
 11
152.63599999999991
 21
239.07699999999991
 31
0.0
  0
LINE
  5
AA
  8
0
 62
     7
 10
152.797
 20
239.1159999999999
 30
0.0
 11
152.797
 21
241.07699999999991
 31
0.0
  0
LINE
  5
AB
  8
0
 62
     7
 10
152.797
 20
243.0379999999999
 30
0.0
 11
152.797
 21
241.07699999999991
 31
0.0
  0
LINE
  5
AC
  8
0
 62
     7
 10
152.63599999999991
 20
241.07699999999991
 30
0.0
 11
152.63599999999991
 21
243.07699999999991
 31
0.0
  0
LINE
  5
AD
  8
0
 62
     7
 10
152.63599999999991
 20
243.07699999999991
 30
0.0
 11
152.59599999999989
 21
243.0379999999999
 31
0.0
  0
LINE
  5
AE
  8
0
 62
     7
 10
152.797
 20
243.0379999999999
 30
0.0
 11
152.75700000000001
 21
243.07699999999991
 31
0.0
  0
LINE
  5
AF
  8
0
 62
     7
 10
152.75700000000001
 20
243.07699999999991
 30
0.0
 11
152.63599999999991
 21
243.07699999999991
 31
0.0
  0
LINE
  5
B0
  8
0
 62
     7
 10
152.75700000000001
 20
243.07699999999991
 30
0.0
 11
152.75700000000001
 21
241.07699999999991
 31
0.0
  0
LINE
  5
B1
  8
0
 62
     7
 10
156.12999999999991
 20
241.654
 30
0.0
 11
156.07699999999991
 21
241.7459999999999
 31
0.0
  0
ARC
  5
B2
  8
0
 62
     7
 10
155.97630799999999
 20
241.63402199999999
 30
0.0
 40
0.157807
 50
267.49683599999992
 51
346.28238999999991
  0
ARC
  5
B3
  8
0
 62
     7
 10
155.5438879999999
 20
241.0745529999999
 30
0.0
 40
0.585731
 50
0.246787
 51
43.407069999999997
  0
LINE
  5
B4
  8
0
 62
     7
 10
156.12999999999991
 20
241.654
 30
0.0
 11
156.12999999999991
 21
241.07699999999991
 31
0.0
  0
LINE
  5
B5
  8
0
 62
     7
 10
156.12999999999991
 20
240.5
 30
0.0
 11
156.12999999999991
 21
241.07699999999991
 31
0.0
  0
ARC
  5
B6
  8
0
 62
     7
 10
155.543892
 20
241.07941600000001
 30
0.0
 40
0.5860760000000002
 50
316.55672900000002
 51
359.67023799999993
  0
ARC
  5
B7
  8
0
 62
     7
 10
155.977318
 20
240.521266
 30
0.0
 40
0.156721
 50
13.646698000000001
 51
92.889999000000003
  0
LINE
  5
B8
  8
0
 62
     7
 10
156.12999999999991
 20
240.5
 30
0.0
 11
156.07699999999991
 21
240.40700000000001
 31
0.0
  0
LINE
  5
B9
  8
0
 62
     7
 10
152.86299999999989
 20
241.7459999999999
 30
0.0
 11
156.07699999999991
 21
241.7459999999999
 31
0.0
  0
ARC
  5
BA
  8
0
 62
     7
 10
152.86575999999999
 20
240.33806000000001
 30
0.0
 40
0.068985
 50
92.044952999999992
 51
178.25111899999999
  0
LINE
  5
BB
  8
0
 62
     7
 10
152.797
 20
240.5
 30
0.0
 11
152.84999999999999
 21
240.40700000000001
 31
0.0
  0
LINE
  5
BC
  8
0
 62
     7
 10
152.86299999999989
 20
240.40700000000001
 30
0.0
 11
156.07699999999991
 21
240.40700000000001
 31
0.0
  0
ARC
  5
BD
  8
0
 62
     7
 10
152.94985
 20
240.5192319999999
 30
0.0
 40
0.157684
 50
87.399187999999995
 51
166.06407400000001
  0
LINE
  5
BE
  8
0
 62
     7
 10
152.797
 20
240.5
 30
0.0
 11
152.797
 21
241.07699999999991
 31
0.0
  0
ARC
  5
BF
  8
0
 62
     7
 10
153.38415499999991
 20
241.07955499999991
 30
0.0
 40
0.5873530000000001
 50
180.241815
 51
223.3440499999999
  0
ARC
  5
C0
  8
0
 62
     7
 10
153.37640200000001
 20
241.07668100000001
 30
0.0
 40
0.579595
 50
136.40214399999991
 51
179.96091299999989
  0
LINE
  5
C1
  8
0
 62
     7
 10
152.797
 20
241.654
 30
0.0
 11
152.797
 21
241.07699999999991
 31
0.0
  0
ARC
  5
C2
  8
0
 62
     7
 10
152.94854099999989
 20
241.631788
 30
0.0
 40
0.155997
 50
193.42635899999999
 51
273.11037799999991
  0
LINE
  5
C3
  8
0
 62
     7
 10
152.797
 20
241.654
 30
0.0
 11
152.84999999999999
 21
241.7459999999999
 31
0.0
  0
ARC
  5
C4
  8
0
 62
     7
 10
152.86606499999991
 20
241.81570699999989
 30
0.0
 40
0.0693
 50
181.9921699999999
 51
267.71175799999997
  0
LINE
  5
C5
  8
0
 62
     7
 10
156.18499999999989
 20
241.85300000000001
 30
0.0
 11
156.12799999999999
 21
241.75399999999999
 31
0.0
  0
LINE
  5
C6
  8
0
 62
     7
 10
156.18499999999989
 20
240.38900000000001
 30
0.0
 11
156.12799999999999
 21
240.48699999999991
 31
0.0
  0
ARC
  5
C7
  8
0
 62
     7
 10
157.352453
 20
241.119968
 30
0.0
 40
1.223641999999999
 50
162.610761
 51
197.38923899999989
  0
ARC
  5
C8
  8
0
 62
     7
 10
156.4600649999999
 20
240.5726259999999
 30
0.0
 40
0.330801
 50
146.33705900000001
 51
204.865531
  0
LINE
  5
C9
  8
0
 62
     7
 10
156.12799999999999
 20
241.75399999999999
 30
0.0
 11
156.12799999999999
 21
240.48699999999991
 31
0.0
  0
ARC
  5
CA
  8
0
 62
     7
 10
156.45935499999999
 20
241.6700109999999
 30
0.0
 40
0.33018
 50
155.07406499999991
 51
213.72334399999991
  0
LINE
  5
CB
  8
0
 62
     7
 10
157.76900000000001
 20
224.67500000000001
 30
0.0
 11
156.7949999999999
 21
224.67500000000001
 31
0.0
  0
LINE
  5
CC
  8
0
 62
     7
 10
157.76900000000001
 20
224.74299999999999
 30
0.0
 11
156.7949999999999
 21
224.74299999999999
 31
0.0
  0
LINE
  5
CD
  8
0
 62
     7
 10
157.76900000000001
 20
225.40899999999999
 30
0.0
 11
156.7949999999999
 21
225.40899999999999
 31
0.0
  0
LINE
  5
CE
  8
0
 62
     7
 10
157.76900000000001
 20
225.476
 30
0.0
 11
156.7949999999999
 21
225.476
 31
0.0
  0
LINE
  5
CF
  8
0
 62
     7
 10
157.67599999999999
 20
224.67500000000001
 30
0.0
 11
157.67599999999999
 21
225.476
 31
0.0
  0
LINE
  5
D0
  8
0
  6
AIGENLINE001
 62
     7
 10
161.071
 20
225.10900000000001
 30
0.0
 11
149.988
 21
225.10900000000001
 31
0.0
  0
LINE
  5
D1
  8
0
 62
     7
 10
160.12999999999991
 20
223.709
 30
0.0
 11
160.12999999999991
 21
226.50899999999999
 31
0.0
  0
LINE
  5
D2
  8
0
 62
     7
 10
160.0629999999999
 20
226.50899999999999
 30
0.0
 11
160.12999999999991
 21
226.50899999999999
 31
0.0
  0
LINE
  5
D3
  8
0
 62
     7
 10
160.0629999999999
 20
223.709
 30
0.0
 11
160.12999999999991
 21
223.709
 31
0.0
  0
ARC
  5
D4
  8
0
 62
     7
 10
158.004074
 20
224.63552599999991
 30
0.0
 40
0.231055
 50
136.55328700000001
 51
222.69612499999999
  0
LINE
  5
D5
  8
0
 62
     7
 10
157.834
 20
224.47900000000001
 30
0.0
 11
157.83600000000001
 21
224.47599999999991
 31
0.0
  0
ARC
  5
D6
  8
0
 62
     7
 10
158.004074
 20
225.584656
 30
0.0
 40
0.231055
 50
136.55328700000001
 51
222.69612499999999
  0
LINE
  5
D7
  8
0
 62
     7
 10
157.834
 20
225.428
 30
0.0
 11
157.83600000000001
 21
225.42500000000001
 31
0.0
  0
LINE
  5
D8
  8
0
 62
     7
 10
157.76900000000001
 20
225.42500000000001
 30
0.0
 11
157.76900000000001
 21
225.584
 31
0.0
  0
ARC
  5
D9
  8
0
 62
     7
 10
158.067488
 20
225.58360200000001
 30
0.0
 40
0.232205
 50
316.76033799999999
 51
42.489891
  0
LINE
  5
DA
  8
0
 62
     7
 10
158.239
 20
225.74000000000001
 30
0.0
 11
158.2359999999999
 21
225.74299999999991
 31
0.0
  0
ARC
  5
DB
  8
0
 62
     7
 10
158.0683149999999
 20
224.63446999999999
 30
0.0
 40
0.231364
 50
316.68266899999992
 51
42.565922
  0
LINE
  5
DC
  8
0
 62
     7
 10
158.239
 20
224.791
 30
0.0
 11
158.2359999999999
 21
224.79400000000001
 31
0.0
  0
ARC
  5
DD
  8
0
 62
     7
 10
157.51565400000001
 20
225.10912999999999
 30
0.0
 40
0.7860550000000001
 50
336.39878900000002
 51
23.601210999999999
  0
ARC
  5
DE
  8
0
 62
     7
 10
158.54888799999989
 20
225.10861299999999
 30
0.0
 40
0.779176
 50
156.13603599999999
 51
203.8639639999999
  0
LINE
  5
DF
  8
0
 62
     7
 10
157.76900000000001
 20
224.63499999999999
 30
0.0
 11
157.76900000000001
 21
225.584
 31
0.0
  0
LINE
  5
E0
  8
0
 62
     7
 10
158.30299999999991
 20
224.63499999999999
 30
0.0
 11
158.30299999999991
 21
225.584
 31
0.0
  0
LINE
  5
E1
  8
0
 62
     7
 10
158.23699999999999
 20
225.74299999999991
 30
0.0
 11
157.83600000000001
 21
225.74299999999991
 31
0.0
  0
LINE
  5
E2
  8
0
 62
     7
 10
158.23699999999999
 20
224.47599999999991
 30
0.0
 11
157.83600000000001
 21
224.47599999999991
 31
0.0
  0
LINE
  5
E3
  8
0
 62
     7
 10
158.23699999999999
 20
225.42500000000001
 30
0.0
 11
157.83600000000001
 21
225.42500000000001
 31
0.0
  0
LINE
  5
E4
  8
0
 62
     7
 10
158.23699999999999
 20
224.79400000000001
 30
0.0
 11
157.83600000000001
 21
224.79400000000001
 31
0.0
  0
LINE
  5
E5
  8
0
 62
     7
 10
158.63599999999991
 20
224.74299999999999
 30
0.0
 11
158.63599999999991
 21
225.476
 31
0.0
  0
LINE
  5
E6
  8
0
 62
     7
 10
158.63599999999991
 20
225.476
 30
0.0
 11
158.30299999999991
 21
225.476
 31
0.0
  0
LINE
  5
E7
  8
0
 62
     7
 10
158.63599999999991
 20
224.74299999999999
 30
0.0
 11
158.30299999999991
 21
224.74299999999999
 31
0.0
  0
ARC
  5
E8
  8
0
 62
     7
 10
158.9524649999999
 20
225.07659200000001
 30
0.0
 40
0.4598130000000001
 50
226.55684099999999
 51
241.06346499999989
  0
ARC
  5
E9
  8
0
 62
     7
 10
158.97427500000001
 20
225.11036299999989
 30
0.0
 40
0.498078
 50
119.3707389999999
 51
132.7340639999999
  0
LINE
  5
EA
  8
0
 62
     7
 10
158.7299999999999
 20
225.94199999999989
 30
0.0
 11
159.52999999999989
 21
226.77499999999989
 31
0.0
  0
LINE
  5
EB
  8
0
 62
     7
 10
158.7299999999999
 20
224.27600000000001
 30
0.0
 11
159.52999999999989
 21
223.44200000000001
 31
0.0
  0
LINE
  5
EC
  8
0
 62
     7
 10
160.0629999999999
 20
223.44200000000001
 30
0.0
 11
159.52999999999989
 21
223.44200000000001
 31
0.0
  0
LINE
  5
ED
  8
0
 62
     7
 10
160.0629999999999
 20
226.77499999999989
 30
0.0
 11
159.52999999999989
 21
226.77499999999989
 31
0.0
  0
LINE
  5
EE
  8
0
 62
     7
 10
159.52999999999989
 20
226.77499999999989
 30
0.0
 11
159.52999999999989
 21
223.44200000000001
 31
0.0
  0
LINE
  5
EF
  8
0
 62
     7
 10
158.7299999999999
 20
225.94199999999989
 30
0.0
 11
158.7299999999999
 21
224.27600000000001
 31
0.0
  0
LINE
  5
F0
  8
0
 62
     7
 10
160.0629999999999
 20
226.77499999999989
 30
0.0
 11
160.0629999999999
 21
223.44200000000001
 31
0.0
  0
LINE
  5
F1
  8
0
 62
     7
 10
156.73799999999989
 20
225.85299999999989
 30
0.0
 11
156.18499999999989
 21
225.85299999999989
 31
0.0
  0
LINE
  5
F2
  8
0
 62
     7
 10
156.73799999999989
 20
224.75499999999991
 30
0.0
 11
156.18499999999989
 21
224.75499999999991
 31
0.0
  0
LINE
  5
F3
  8
0
 62
     7
 10
156.73799999999989
 20
224.3889999999999
 30
0.0
 11
156.18499999999989
 21
224.3889999999999
 31
0.0
  0
LINE
  5
F4
  8
0
 62
     7
 10
156.73799999999989
 20
225.48699999999991
 30
0.0
 11
156.18499999999989
 21
225.48699999999991
 31
0.0
  0
LINE
  5
F5
  8
0
 62
     7
 10
156.73799999999989
 20
225.85299999999989
 30
0.0
 11
156.7949999999999
 21
225.75399999999999
 31
0.0
  0
LINE
  5
F6
  8
0
 62
     7
 10
156.73799999999989
 20
224.3889999999999
 30
0.0
 11
156.7949999999999
 21
224.48699999999999
 31
0.0
  0
ARC
  5
F7
  8
0
 62
     7
 10
156.463368
 20
224.57200099999989
 30
0.0
 40
0.330593
 50
335.07549299999988
 51
33.712564999999998
  0
ARC
  5
F8
  8
0
 62
     7
 10
155.57462399999989
 20
225.120296
 30
0.0
 40
1.219787999999999
 50
342.56407100000001
 51
17.489854000000001
  0
LINE
  5
F9
  8
0
 62
     7
 10
156.7949999999999
 20
225.75399999999999
 30
0.0
 11
156.7949999999999
 21
224.48699999999999
 31
0.0
  0
ARC
  5
FA
  8
0
 62
     7
 10
156.463953
 20
225.66949199999999
 30
0.0
 40
0.329999
 50
326.25903099999999
 51
24.943559
  0
LINE
  5
FB
  8
0
 62
     7
 10
152.59599999999989
 20
223.11699999999999
 30
0.0
 11
152.59599999999989
 21
227.03700000000001
 31
0.0
  0
LINE
  5
FC
  8
0
 62
     7
 10
152.95699999999991
 20
224.67699999999999
 30
0.0
 11
155.96899999999991
 21
224.67699999999999
 31
0.0
  0
LINE
  5
FD
  8
0
 62
     7
 10
152.95699999999991
 20
225.477
 30
0.0
 11
155.96899999999991
 21
225.477
 31
0.0
  0
LINE
  5
FE
  8
0
 62
     7
 10
152.75700000000001
 20
223.077
 30
0.0
 11
152.75700000000001
 21
225.077
 31
0.0
  0
LINE
  5
FF
  8
0
 62
     7
 10
152.75700000000001
 20
223.077
 30
0.0
 11
152.63599999999991
 21
223.077
 31
0.0
  0
LINE
  5
100
  8
0
 62
     7
 10
152.797
 20
223.11699999999999
 30
0.0
 11
152.75700000000001
 21
223.077
 31
0.0
  0
LINE
  5
101
  8
0
 62
     7
 10
152.63599999999991
 20
223.077
 30
0.0
 11
152.59599999999989
 21
223.11699999999999
 31
0.0
  0
LINE
  5
102
  8
0
 62
     7
 10
152.63599999999991
 20
225.077
 30
0.0
 11
152.63599999999991
 21
223.077
 31
0.0
  0
LINE
  5
103
  8
0
 62
     7
 10
152.797
 20
223.11699999999999
 30
0.0
 11
152.797
 21
225.077
 31
0.0
  0
LINE
  5
104
  8
0
 62
     7
 10
152.797
 20
227.03700000000001
 30
0.0
 11
152.797
 21
225.077
 31
0.0
  0
LINE
  5
105
  8
0
 62
     7
 10
152.63599999999991
 20
225.077
 30
0.0
 11
152.63599999999991
 21
227.077
 31
0.0
  0
LINE
  5
106
  8
0
 62
     7
 10
152.63599999999991
 20
227.077
 30
0.0
 11
152.59599999999989
 21
227.03700000000001
 31
0.0
  0
LINE
  5
107
  8
0
 62
     7
 10
152.797
 20
227.03700000000001
 30
0.0
 11
152.75700000000001
 21
227.077
 31
0.0
  0
LINE
  5
108
  8
0
 62
     7
 10
152.75700000000001
 20
227.077
 30
0.0
 11
152.63599999999991
 21
227.077
 31
0.0
  0
LINE
  5
109
  8
0
 62
     7
 10
152.75700000000001
 20
227.077
 30
0.0
 11
152.75700000000001
 21
225.077
 31
0.0
  0
LINE
  5
10A
  8
0
 62
     7
 10
156.12999999999991
 20
225.654
 30
0.0
 11
156.07699999999991
 21
225.74700000000001
 31
0.0
  0
ARC
  5
10B
  8
0
 62
     7
 10
155.97655
 20
225.633993
 30
0.0
 40
0.157603
 50
267.405529
 51
346.21589799999992
  0
ARC
  5
10C
  8
0
 62
     7
 10
155.5438879999999
 20
225.0743949999999
 30
0.0
 40
0.585731
 50
0.246787
 51
43.407069999999997
  0
LINE
  5
10D
  8
0
 62
     7
 10
156.12999999999991
 20
225.654
 30
0.0
 11
156.12999999999991
 21
225.077
 31
0.0
  0
LINE
  5
10E
  8
0
 62
     7
 10
156.12999999999991
 20
224.5
 30
0.0
 11
156.12999999999991
 21
225.077
 31
0.0
  0
ARC
  5
10F
  8
0
 62
     7
 10
155.54797600000001
 20
225.0779629999999
 30
0.0
 40
0.5819860000000001
 50
316.39742299999989
 51
359.79534799999999
  0
ARC
  5
110
  8
0
 62
     7
 10
155.97725500000001
 20
224.52112899999989
 30
0.0
 40
0.156696
 50
13.511146999999999
 51
92.867424999999997
  0
LINE
  5
111
  8
0
 62
     7
 10
156.12999999999991
 20
224.5
 30
0.0
 11
156.07699999999991
 21
224.40700000000001
 31
0.0
  0
LINE
  5
112
  8
0
 62
     7
 10
152.86299999999989
 20
225.74700000000001
 30
0.0
 11
156.07699999999991
 21
225.74700000000001
 31
0.0
  0
ARC
  5
113
  8
0
 62
     7
 10
152.8658199999999
 20
224.33782999999991
 30
0.0
 40
0.069059
 50
92.093012000000002
 51
177.90695799999989
  0
LINE
  5
114
  8
0
 62
     7
 10
152.797
 20
224.5
 30
0.0
 11
152.84999999999999
 21
224.40700000000001
 31
0.0
  0
LINE
  5
115
  8
0
 62
     7
 10
152.86299999999989
 20
224.40700000000001
 30
0.0
 11
156.07699999999991
 21
224.40700000000001
 31
0.0
  0
ARC
  5
116
  8
0
 62
     7
 10
152.9500469999999
 20
224.51926399999999
 30
0.0
 40
0.157829
 50
87.472971999999999
 51
166.14841499999989
  0
LINE
  5
117
  8
0
 62
     7
 10
152.797
 20
224.5
 30
0.0
 11
152.797
 21
225.077
 31
0.0
  0
ARC
  5
118
  8
0
 62
     7
 10
153.38331599999989
 20
225.07940799999989
 30
0.0
 40
0.5865140000000001
 50
180.2432389999999
 51
223.37661600000001
  0
ARC
  5
119
  8
0
 62
     7
 10
153.37883500000001
 20
225.07589400000001
 30
0.0
 40
0.5820280000000001
 50
136.49791200000001
 51
179.89923400000001
  0
LINE
  5
11A
  8
0
 62
     7
 10
152.797
 20
225.654
 30
0.0
 11
152.797
 21
225.077
 31
0.0
  0
ARC
  5
11B
  8
0
 62
     7
 10
152.94845900000001
 20
225.63151999999999
 30
0.0
 40
0.155892
 50
193.39424099999999
 51
273.14249599999999
  0
LINE
  5
11C
  8
0
 62
     7
 10
152.797
 20
225.654
 30
0.0
 11
152.84999999999999
 21
225.74700000000001
 31
0.0
  0
ARC
  5
11D
  8
0
 62
     7
 10
152.86583099999999
 20
225.81567200000001
 30
0.0
 40
0.06907
 50
182.1015469999999
 51
267.898483
  0
LINE
  5
11E
  8
0
 62
     7
 10
156.18499999999989
 20
225.85299999999989
 30
0.0
 11
156.12799999999999
 21
225.75399999999999
 31
0.0
  0
LINE
  5
11F
  8
0
 62
     7
 10
156.18499999999989
 20
224.3889999999999
 30
0.0
 11
156.12799999999999
 21
224.48699999999999
 31
0.0
  0
ARC
  5
120
  8
0
 62
     7
 10
157.351889
 20
225.11998199999999
 30
0.0
 40
1.223052
 50
162.61056600000001
 51
197.38943399999999
  0
ARC
  5
121
  8
0
 62
     7
 10
156.45914799999991
 20
224.57253900000001
 30
0.0
 40
0.329998
 50
146.258993
 51
204.94359800000001
  0
LINE
  5
122
  8
0
 62
     7
 10
156.12799999999999
 20
225.75399999999999
 30
0.0
 11
156.12799999999999
 21
224.48699999999999
 31
0.0
  0
ARC
  5
123
  8
0
 62
     7
 10
156.458303
 20
225.6699669999999
 30
0.0
 40
0.329177
 50
155.01502500000001
 51
213.7917569999999
  0
LINE
  5
124
  8
0
 62
     7
 10
169.75699999999989
 20
148.12
 30
0.0
 11
169.36199999999991
 21
149.59399999999999
 31
0.0
  0
LINE
  5
125
  8
0
 62
     7
 10
169.36199999999991
 20
149.59399999999999
 30
0.0
 11
168.96700000000001
 21
148.12
 31
0.0
  0
LINE
  5
126
  8
0
 62
     7
 10
168.96700000000001
 20
148.12
 30
0.0
 11
169.75699999999989
 21
148.12
 31
0.0
  0
LINE
  5
127
  8
0
 62
     7
 10
168.97599999999991
 20
105.0559999999999
 30
0.0
 11
169.3709999999999
 21
103.58199999999999
 31
0.0
  0
LINE
  5
128
  8
0
 62
     7
 10
169.3709999999999
 20
103.58199999999999
 30
0.0
 11
169.767
 21
105.0559999999999
 31
0.0
  0
LINE
  5
129
  8
0
 62
     7
 10
169.767
 20
105.0559999999999
 30
0.0
 11
168.97599999999991
 21
105.0559999999999
 31
0.0
  0
LINE
  5
12A
  8
0
 62
     7
 10
169.3709999999999
 20
149.59399999999999
 30
0.0
 11
169.3709999999999
 21
103.58199999999999
 31
0.0
  0
LINE
  5
12B
  8
0
 62
     7
 10
169.75699999999989
 20
102.107
 30
0.0
 11
169.36199999999991
 21
103.58199999999999
 31
0.0
  0
LINE
  5
12C
  8
0
 62
     7
 10
169.36199999999991
 20
103.58199999999999
 30
0.0
 11
168.96700000000001
 21
102.107
 31
0.0
  0
LINE
  5
12D
  8
0
 62
     7
 10
168.96700000000001
 20
102.107
 30
0.0
 11
169.75699999999989
 21
102.107
 31
0.0
  0
LINE
  5
12E
  8
0
 62
     7
 10
168.97599999999991
 20
74.4011
 30
0.0
 11
169.3709999999999
 21
72.926599999999993
 31
0.0
  0
LINE
  5
12F
  8
0
 62
     7
 10
169.3709999999999
 20
72.926599999999993
 30
0.0
 11
169.767
 21
74.4011
 31
0.0
  0
LINE
  5
130
  8
0
 62
     7
 10
169.767
 20
74.4011
 30
0.0
 11
168.97599999999991
 21
74.4011
 31
0.0
  0
LINE
  5
131
  8
0
 62
     7
 10
169.3709999999999
 20
103.58199999999999
 30
0.0
 11
169.3709999999999
 21
72.926599999999993
 31
0.0
  0
LINE
  5
132
  8
0
 62
     7
 10
157.76900000000001
 20
103.149
 30
0.0
 11
156.7949999999999
 21
103.149
 31
0.0
  0
LINE
  5
133
  8
0
 62
     7
 10
157.76900000000001
 20
103.215
 30
0.0
 11
156.7949999999999
 21
103.215
 31
0.0
  0
LINE
  5
134
  8
0
 62
     7
 10
157.76900000000001
 20
103.88200000000001
 30
0.0
 11
156.7949999999999
 21
103.88200000000001
 31
0.0
  0
LINE
  5
135
  8
0
 62
     7
 10
157.76900000000001
 20
103.94799999999989
 30
0.0
 11
156.7949999999999
 21
103.94799999999989
 31
0.0
  0
LINE
  5
136
  8
0
 62
     7
 10
157.67599999999999
 20
103.149
 30
0.0
 11
157.67599999999999
 21
103.94799999999989
 31
0.0
  0
LINE
  5
137
  8
0
  6
AIGENLINE001
 62
     7
 10
161.071
 20
103.58199999999999
 30
0.0
 11
147.90899999999999
 21
103.58199999999999
 31
0.0
  0
LINE
  5
138
  8
0
 62
     7
 10
160.12999999999991
 20
102.1819999999999
 30
0.0
 11
160.12999999999991
 21
104.982
 31
0.0
  0
LINE
  5
139
  8
0
 62
     7
 10
160.06399999999999
 20
104.982
 30
0.0
 11
160.12999999999991
 21
104.982
 31
0.0
  0
LINE
  5
13A
  8
0
 62
     7
 10
160.06399999999999
 20
102.1819999999999
 30
0.0
 11
160.12999999999991
 21
102.1819999999999
 31
0.0
  0
ARC
  5
13B
  8
0
 62
     7
 10
158.00542699999991
 20
103.108318
 30
0.0
 40
0.232162
 50
136.750631
 51
222.49959899999999
  0
LINE
  5
13C
  8
0
 62
     7
 10
157.834
 20
102.95099999999999
 30
0.0
 11
157.83699999999999
 21
102.949
 31
0.0
  0
ARC
  5
13D
  8
0
 62
     7
 10
158.00523100000001
 20
104.05762
 30
0.0
 40
0.231901
 50
136.74842499999991
 51
222.5009859999999
  0
LINE
  5
13E
  8
0
 62
     7
 10
157.834
 20
103.901
 30
0.0
 11
157.83699999999999
 21
103.898
 31
0.0
  0
LINE
  5
13F
  8
0
 62
     7
 10
157.76900000000001
 20
103.898
 30
0.0
 11
157.76900000000001
 21
104.0569999999999
 31
0.0
  0
ARC
  5
140
  8
0
 62
     7
 10
158.06727499999991
 20
104.0564049999999
 30
0.0
 40
0.232243
 50
316.82672599999989
 51
42.422684999999987
  0
LINE
  5
141
  8
0
 62
     7
 10
158.239
 20
104.21299999999999
 30
0.0
 11
158.23699999999999
 21
104.21599999999999
 31
0.0
  0
ARC
  5
142
  8
0
 62
     7
 10
158.068352
 20
103.107612
 30
0.0
 40
0.231455
 50
316.64571000000001
 51
42.603701000000001
  0
LINE
  5
143
  8
0
 62
     7
 10
158.239
 20
103.264
 30
0.0
 11
158.23699999999999
 21
103.267
 31
0.0
  0
ARC
  5
144
  8
0
 62
     7
 10
157.51634300000001
 20
103.58210099999999
 30
0.0
 40
0.7860550000000001
 50
336.39878900000002
 51
23.601210999999999
  0
ARC
  5
145
  8
0
 62
     7
 10
158.553943
 20
103.581585
 30
0.0
 40
0.7838020000000001
 50
156.28553600000001
 51
203.71446399999999
  0
LINE
  5
146
  8
0
 62
     7
 10
157.76900000000001
 20
103.1079999999999
 30
0.0
 11
157.76900000000001
 21
104.0569999999999
 31
0.0
  0
LINE
  5
147
  8
0
 62
     7
 10
158.30299999999991
 20
103.1079999999999
 30
0.0
 11
158.30299999999991
 21
104.0569999999999
 31
0.0
  0
LINE
  5
148
  8
0
 62
     7
 10
158.23699999999999
 20
104.215
 30
0.0
 11
157.83600000000001
 21
104.215
 31
0.0
  0
LINE
  5
149
  8
0
 62
     7
 10
158.23699999999999
 20
102.949
 30
0.0
 11
157.83600000000001
 21
102.949
 31
0.0
  0
LINE
  5
14A
  8
0
 62
     7
 10
158.23699999999999
 20
103.898
 30
0.0
 11
157.83600000000001
 21
103.898
 31
0.0
  0
LINE
  5
14B
  8
0
 62
     7
 10
158.23699999999999
 20
103.267
 30
0.0
 11
157.83600000000001
 21
103.267
 31
0.0
  0
LINE
  5
14C
  8
0
 62
     7
 10
158.63599999999991
 20
103.215
 30
0.0
 11
158.63599999999991
 21
103.94799999999989
 31
0.0
  0
LINE
  5
14D
  8
0
 62
     7
 10
158.63599999999991
 20
103.94799999999989
 30
0.0
 11
158.30299999999991
 21
103.94799999999989
 31
0.0
  0
LINE
  5
14E
  8
0
 62
     7
 10
158.63599999999991
 20
103.215
 30
0.0
 11
158.30299999999991
 21
103.215
 31
0.0
  0
ARC
  5
14F
  8
0
 62
     7
 10
158.99128200000001
 20
103.6045749999999
 30
0.0
 40
0.52679
 50
227.6316379999999
 51
240.2635589999999
  0
ARC
  5
150
  8
0
 62
     7
 10
158.99230099999991
 20
103.558572
 30
0.0
 40
0.528511
 50
119.7570919999999
 51
132.34771000000001
  0
LINE
  5
151
  8
0
 62
     7
 10
158.7299999999999
 20
104.41500000000001
 30
0.0
 11
159.53100000000001
 21
105.2489999999999
 31
0.0
  0
LINE
  5
152
  8
0
 62
     7
 10
158.7299999999999
 20
102.749
 30
0.0
 11
159.53100000000001
 21
101.91500000000001
 31
0.0
  0
LINE
  5
153
  8
0
 62
     7
 10
160.06399999999999
 20
101.91500000000001
 30
0.0
 11
159.53100000000001
 21
101.91500000000001
 31
0.0
  0
LINE
  5
154
  8
0
 62
     7
 10
160.06399999999999
 20
105.2489999999999
 30
0.0
 11
159.53100000000001
 21
105.2489999999999
 31
0.0
  0
LINE
  5
155
  8
0
 62
     7
 10
159.53100000000001
 20
105.2489999999999
 30
0.0
 11
159.53100000000001
 21
101.91500000000001
 31
0.0
  0
LINE
  5
156
  8
0
 62
     7
 10
158.7299999999999
 20
104.41500000000001
 30
0.0
 11
158.7299999999999
 21
102.749
 31
0.0
  0
LINE
  5
157
  8
0
 62
     7
 10
160.06399999999999
 20
105.2489999999999
 30
0.0
 11
160.06399999999999
 21
101.91500000000001
 31
0.0
  0
LINE
  5
158
  8
0
 62
     7
 10
156.73799999999989
 20
104.32599999999999
 30
0.0
 11
156.18499999999989
 21
104.32599999999999
 31
0.0
  0
LINE
  5
159
  8
0
 62
     7
 10
156.73799999999989
 20
103.22799999999989
 30
0.0
 11
156.18499999999989
 21
103.22799999999989
 31
0.0
  0
LINE
  5
15A
  8
0
 62
     7
 10
156.73799999999989
 20
102.86199999999999
 30
0.0
 11
156.18499999999989
 21
102.86199999999999
 31
0.0
  0
LINE
  5
15B
  8
0
 62
     7
 10
156.73799999999989
 20
103.95999999999989
 30
0.0
 11
156.18499999999989
 21
103.95999999999989
 31
0.0
  0
LINE
  5
15C
  8
0
 62
     7
 10
156.73799999999989
 20
104.32599999999999
 30
0.0
 11
156.7949999999999
 21
104.227
 31
0.0
  0
LINE
  5
15D
  8
0
 62
     7
 10
156.73799999999989
 20
102.86199999999999
 30
0.0
 11
156.7949999999999
 21
102.95999999999989
 31
0.0
  0
ARC
  5
15E
  8
0
 62
     7
 10
156.46367499999999
 20
103.04482400000001
 30
0.0
 40
0.33042
 50
335.15568999999999
 51
33.76341699999999
  0
ARC
  5
15F
  8
0
 62
     7
 10
155.574096
 20
103.59309399999989
 30
0.0
 40
1.220569
 50
342.584093
 51
17.469857999999999
  0
LINE
  5
160
  8
0
 62
     7
 10
156.7949999999999
 20
104.227
 30
0.0
 11
156.7949999999999
 21
102.95999999999989
 31
0.0
  0
ARC
  5
161
  8
0
 62
     7
 10
156.46535499999999
 20
104.14282299999989
 30
0.0
 40
0.329035
 50
326.07151199999993
 51
25.018861999999991
  0
LINE
  5
162
  8
0
 62
     7
 10
152.59700000000001
 20
101.5889999999999
 30
0.0
 11
152.59700000000001
 21
105.511
 31
0.0
  0
LINE
  5
163
  8
0
 62
     7
 10
152.95699999999991
 20
103.15000000000001
 30
0.0
 11
155.97
 21
103.15000000000001
 31
0.0
  0
LINE
  5
164
  8
0
 62
     7
 10
152.95699999999991
 20
103.95
 30
0.0
 11
155.97
 21
103.95
 31
0.0
  0
LINE
  5
165
  8
0
 62
     7
 10
152.75700000000001
 20
101.55
 30
0.0
 11
152.75700000000001
 21
103.55
 31
0.0
  0
LINE
  5
166
  8
0
 62
     7
 10
152.75700000000001
 20
101.55
 30
0.0
 11
152.637
 21
101.55
 31
0.0
  0
LINE
  5
167
  8
0
 62
     7
 10
152.797
 20
101.5889999999999
 30
0.0
 11
152.75700000000001
 21
101.55
 31
0.0
  0
LINE
  5
168
  8
0
 62
     7
 10
152.637
 20
101.55
 30
0.0
 11
152.59700000000001
 21
101.5889999999999
 31
0.0
  0
LINE
  5
169
  8
0
 62
     7
 10
152.637
 20
103.55
 30
0.0
 11
152.637
 21
101.55
 31
0.0
  0
LINE
  5
16A
  8
0
 62
     7
 10
152.797
 20
101.5889999999999
 30
0.0
 11
152.797
 21
103.55
 31
0.0
  0
LINE
  5
16B
  8
0
 62
     7
 10
152.797
 20
105.511
 30
0.0
 11
152.797
 21
103.55
 31
0.0
  0
LINE
  5
16C
  8
0
 62
     7
 10
152.637
 20
103.55
 30
0.0
 11
152.637
 21
105.5499999999999
 31
0.0
  0
LINE
  5
16D
  8
0
 62
     7
 10
152.637
 20
105.5499999999999
 30
0.0
 11
152.59700000000001
 21
105.511
 31
0.0
  0
LINE
  5
16E
  8
0
 62
     7
 10
152.797
 20
105.511
 30
0.0
 11
152.75700000000001
 21
105.5499999999999
 31
0.0
  0
LINE
  5
16F
  8
0
 62
     7
 10
152.75700000000001
 20
105.5499999999999
 30
0.0
 11
152.637
 21
105.5499999999999
 31
0.0
  0
LINE
  5
170
  8
0
 62
     7
 10
152.75700000000001
 20
105.5499999999999
 30
0.0
 11
152.75700000000001
 21
103.55
 31
0.0
  0
LINE
  5
171
  8
0
 62
     7
 10
156.12999999999991
 20
104.127
 30
0.0
 11
156.07699999999991
 21
104.21899999999989
 31
0.0
  0
ARC
  5
172
  8
0
 62
     7
 10
155.97735899999989
 20
104.107213
 30
0.0
 40
0.157546
 50
267.110071
 51
346.11764299999999
  0
ARC
  5
173
  8
0
 62
     7
 10
155.54468700000001
 20
103.54704699999991
 30
0.0
 40
0.5856210000000001
 50
0.244443
 51
43.460351000000003
  0
LINE
  5
174
  8
0
 62
     7
 10
156.12999999999991
 20
104.127
 30
0.0
 11
156.12999999999991
 21
103.55
 31
0.0
  0
LINE
  5
175
  8
0
 62
     7
 10
156.12999999999991
 20
102.973
 30
0.0
 11
156.12999999999991
 21
103.55
 31
0.0
  0
ARC
  5
176
  8
0
 62
     7
 10
155.54523099999989
 20
103.552193
 30
0.0
 40
0.5850800000000002
 50
316.469179
 51
359.706952
  0
ARC
  5
177
  8
0
 62
     7
 10
155.97753499999999
 20
102.993492
 30
0.0
 40
0.157318
 50
13.813950999999999
 51
92.958334999999977
  0
LINE
  5
178
  8
0
 62
     7
 10
156.12999999999991
 20
102.973
 30
0.0
 11
156.07699999999991
 21
102.8799999999999
 31
0.0
  0
LINE
  5
179
  8
0
 62
     7
 10
152.86299999999989
 20
104.21899999999989
 30
0.0
 11
156.07699999999991
 21
104.21899999999989
 31
0.0
  0
ARC
  5
17A
  8
0
 62
     7
 10
152.8657169999999
 20
102.81091600000001
 30
0.0
 40
0.068941
 50
92.010936999999984
 51
178.285135
  0
LINE
  5
17B
  8
0
 62
     7
 10
152.797
 20
102.973
 30
0.0
 11
152.85099999999991
 21
102.8799999999999
 31
0.0
  0
LINE
  5
17C
  8
0
 62
     7
 10
152.86299999999989
 20
102.8799999999999
 30
0.0
 11
156.07699999999991
 21
102.8799999999999
 31
0.0
  0
ARC
  5
17D
  8
0
 62
     7
 10
152.950289
 20
102.99193099999999
 30
0.0
 40
0.158138
 50
87.441061000000005
 51
166.062273
  0
LINE
  5
17E
  8
0
 62
     7
 10
152.797
 20
102.973
 30
0.0
 11
152.797
 21
103.55
 31
0.0
  0
ARC
  5
17F
  8
0
 62
     7
 10
153.382532
 20
103.552087
 30
0.0
 40
0.58573
 50
180.248682
 51
223.45615099999989
  0
ARC
  5
180
  8
0
 62
     7
 10
153.38194300000001
 20
103.5472579999999
 30
0.0
 40
0.5851410000000001
 50
136.570042
 51
179.776061
  0
LINE
  5
181
  8
0
 62
     7
 10
152.797
 20
104.127
 30
0.0
 11
152.797
 21
103.55
 31
0.0
  0
ARC
  5
182
  8
0
 62
     7
 10
152.94917100000001
 20
104.105423
 30
0.0
 40
0.156802
 50
193.664793
 51
272.98990099999997
  0
LINE
  5
183
  8
0
 62
     7
 10
152.797
 20
104.127
 30
0.0
 11
152.85099999999991
 21
104.21899999999989
 31
0.0
  0
ARC
  5
184
  8
0
 62
     7
 10
152.8661929999999
 20
104.288647
 30
0.0
 40
0.069432
 50
182.09336999999991
 51
267.61055800000003
  0
LINE
  5
185
  8
0
 62
     7
 10
156.18499999999989
 20
104.32599999999999
 30
0.0
 11
156.12799999999999
 21
104.227
 31
0.0
  0
LINE
  5
186
  8
0
 62
     7
 10
156.18499999999989
 20
102.86199999999999
 30
0.0
 11
156.12799999999999
 21
102.95999999999989
 31
0.0
  0
ARC
  5
187
  8
0
 62
     7
 10
157.350235
 20
103.59405099999999
 30
0.0
 40
1.221249
 50
162.62106399999999
 51
197.48683799999989
  0
ARC
  5
188
  8
0
 62
     7
 10
156.45964599999991
 20
103.04520599999999
 30
0.0
 40
0.330009
 50
146.1964909999999
 51
204.88440199999991
  0
LINE
  5
189
  8
0
 62
     7
 10
156.12799999999999
 20
104.227
 30
0.0
 11
156.12799999999999
 21
102.95999999999989
 31
0.0
  0
ARC
  5
18A
  8
0
 62
     7
 10
156.459247
 20
104.14340199999999
 30
0.0
 40
0.329838
 50
155.157093
 51
213.88369
  0
LINE
  5
18B
  8
0
 62
     7
 10
157.76900000000001
 20
149.161
 30
0.0
 11
156.7949999999999
 21
149.161
 31
0.0
  0
LINE
  5
18C
  8
0
 62
     7
 10
157.76900000000001
 20
149.22799999999989
 30
0.0
 11
156.7949999999999
 21
149.22799999999989
 31
0.0
  0
LINE
  5
18D
  8
0
 62
     7
 10
157.76900000000001
 20
149.89400000000001
 30
0.0
 11
156.7949999999999
 21
149.89400000000001
 31
0.0
  0
LINE
  5
18E
  8
0
 62
     7
 10
157.76900000000001
 20
149.96100000000001
 30
0.0
 11
156.7949999999999
 21
149.96100000000001
 31
0.0
  0
LINE
  5
18F
  8
0
 62
     7
 10
157.67599999999999
 20
149.161
 30
0.0
 11
157.67599999999999
 21
149.96100000000001
 31
0.0
  0
LINE
  5
190
  8
0
  6
AIGENLINE001
 62
     7
 10
161.071
 20
149.59399999999999
 30
0.0
 11
148.92799999999991
 21
149.59399999999999
 31
0.0
  0
LINE
  5
191
  8
0
 62
     7
 10
160.12999999999991
 20
148.1939999999999
 30
0.0
 11
160.12999999999991
 21
150.994
 31
0.0
  0
LINE
  5
192
  8
0
 62
     7
 10
160.0629999999999
 20
150.994
 30
0.0
 11
160.12999999999991
 21
150.994
 31
0.0
  0
LINE
  5
193
  8
0
 62
     7
 10
160.0629999999999
 20
148.1939999999999
 30
0.0
 11
160.12999999999991
 21
148.1939999999999
 31
0.0
  0
ARC
  5
194
  8
0
 62
     7
 10
158.0035729999999
 20
149.120454
 30
0.0
 40
0.230689
 50
136.4681919999999
 51
222.78121899999991
  0
LINE
  5
195
  8
0
 62
     7
 10
157.834
 20
148.964
 30
0.0
 11
157.83600000000001
 21
148.96100000000001
 31
0.0
  0
ARC
  5
196
  8
0
 62
     7
 10
158.0035729999999
 20
150.0692389999999
 30
0.0
 40
0.230689
 50
136.4681919999999
 51
222.78121899999991
  0
LINE
  5
197
  8
0
 62
     7
 10
157.834
 20
149.9129999999999
 30
0.0
 11
157.83600000000001
 21
149.91
 31
0.0
  0
LINE
  5
198
  8
0
 62
     7
 10
157.76900000000001
 20
149.91
 30
0.0
 11
157.76900000000001
 21
150.0689999999999
 31
0.0
  0
ARC
  5
199
  8
0
 62
     7
 10
158.06822500000001
 20
150.06869499999991
 30
0.0
 40
0.231548
 50
316.66709300000002
 51
42.582317999999987
  0
LINE
  5
19A
  8
0
 62
     7
 10
158.239
 20
150.22499999999999
 30
0.0
 11
158.2359999999999
 21
150.22799999999989
 31
0.0
  0
ARC
  5
19B
  8
0
 62
     7
 10
158.06822500000001
 20
149.11991
 30
0.0
 40
0.231548
 50
316.66709300000002
 51
42.582317999999987
  0
LINE
  5
19C
  8
0
 62
     7
 10
158.239
 20
149.27699999999999
 30
0.0
 11
158.2359999999999
 21
149.279
 31
0.0
  0
ARC
  5
19D
  8
0
 62
     7
 10
157.514205
 20
149.59422599999991
 30
0.0
 40
0.787451
 50
336.42951199999987
 51
23.57048799999999
  0
ARC
  5
19E
  8
0
 62
     7
 10
158.54745999999989
 20
149.59336499999989
 30
0.0
 40
0.7778010000000001
 50
156.1050909999999
 51
203.89490900000001
  0
LINE
  5
19F
  8
0
 62
     7
 10
157.76900000000001
 20
149.12
 30
0.0
 11
157.76900000000001
 21
150.0689999999999
 31
0.0
  0
LINE
  5
1A0
  8
0
 62
     7
 10
158.30299999999991
 20
149.12
 30
0.0
 11
158.30299999999991
 21
150.0689999999999
 31
0.0
  0
LINE
  5
1A1
  8
0
 62
     7
 10
158.23699999999999
 20
150.227
 30
0.0
 11
157.83600000000001
 21
150.227
 31
0.0
  0
LINE
  5
1A2
  8
0
 62
     7
 10
158.23699999999999
 20
148.96100000000001
 30
0.0
 11
157.83600000000001
 21
148.96100000000001
 31
0.0
  0
LINE
  5
1A3
  8
0
 62
     7
 10
158.23699999999999
 20
149.91
 30
0.0
 11
157.83600000000001
 21
149.91
 31
0.0
  0
LINE
  5
1A4
  8
0
 62
     7
 10
158.23699999999999
 20
149.279
 30
0.0
 11
157.83600000000001
 21
149.279
 31
0.0
  0
LINE
  5
1A5
  8
0
 62
     7
 10
158.63599999999991
 20
149.22799999999989
 30
0.0
 11
158.63599999999991
 21
149.96100000000001
 31
0.0
  0
LINE
  5
1A6
  8
0
 62
     7
 10
158.63599999999991
 20
149.96100000000001
 30
0.0
 11
158.30299999999991
 21
149.96100000000001
 31
0.0
  0
LINE
  5
1A7
  8
0
 62
     7
 10
158.63599999999991
 20
149.22799999999989
 30
0.0
 11
158.30299999999991
 21
149.22799999999989
 31
0.0
  0
ARC
  5
1A8
  8
0
 62
     7
 10
158.959676
 20
149.56931099999991
 30
0.0
 40
0.4704310000000001
 50
226.57193899999999
 51
240.77443700000001
  0
ARC
  5
1A9
  8
0
 62
     7
 10
158.98640399999991
 20
149.58089099999989
 30
0.0
 40
0.5168840000000001
 50
119.741007
 51
132.638688
  0
LINE
  5
1AA
  8
0
 62
     7
 10
158.7299999999999
 20
150.42699999999999
 30
0.0
 11
159.52999999999989
 21
151.261
 31
0.0
  0
LINE
  5
1AB
  8
0
 62
     7
 10
158.7299999999999
 20
148.76099999999991
 30
0.0
 11
159.52999999999989
 21
147.92699999999999
 31
0.0
  0
LINE
  5
1AC
  8
0
 62
     7
 10
160.0629999999999
 20
147.92699999999999
 30
0.0
 11
159.52999999999989
 21
147.92699999999999
 31
0.0
  0
LINE
  5
1AD
  8
0
 62
     7
 10
160.0629999999999
 20
151.261
 30
0.0
 11
159.52999999999989
 21
151.261
 31
0.0
  0
LINE
  5
1AE
  8
0
 62
     7
 10
159.52999999999989
 20
151.261
 30
0.0
 11
159.52999999999989
 21
147.92699999999999
 31
0.0
  0
LINE
  5
1AF
  8
0
 62
     7
 10
158.7299999999999
 20
150.42699999999999
 30
0.0
 11
158.7299999999999
 21
148.76099999999991
 31
0.0
  0
LINE
  5
1B0
  8
0
 62
     7
 10
160.0629999999999
 20
151.261
 30
0.0
 11
160.0629999999999
 21
147.92699999999999
 31
0.0
  0
LINE
  5
1B1
  8
0
 62
     7
 10
156.73799999999989
 20
150.33799999999991
 30
0.0
 11
156.18499999999989
 21
150.33799999999991
 31
0.0
  0
LINE
  5
1B2
  8
0
 62
     7
 10
156.73799999999989
 20
149.24000000000001
 30
0.0
 11
156.18499999999989
 21
149.24000000000001
 31
0.0
  0
LINE
  5
1B3
  8
0
 62
     7
 10
156.73799999999989
 20
148.87399999999991
 30
0.0
 11
156.18499999999989
 21
148.87399999999991
 31
0.0
  0
LINE
  5
1B4
  8
0
 62
     7
 10
156.73799999999989
 20
149.97200000000001
 30
0.0
 11
156.18499999999989
 21
149.97200000000001
 31
0.0
  0
LINE
  5
1B5
  8
0
 62
     7
 10
156.73799999999989
 20
150.33799999999991
 30
0.0
 11
156.7949999999999
 21
150.239
 31
0.0
  0
LINE
  5
1B6
  8
0
 62
     7
 10
156.73799999999989
 20
148.87399999999991
 30
0.0
 11
156.7949999999999
 21
148.97200000000001
 31
0.0
  0
ARC
  5
1B7
  8
0
 62
     7
 10
156.464124
 20
149.05693600000001
 30
0.0
 40
0.329767
 50
335.07271099999991
 51
33.734071
  0
ARC
  5
1B8
  8
0
 62
     7
 10
155.57446899999999
 20
149.60539199999999
 30
0.0
 40
1.2198839999999991
 50
342.57398999999992
 51
17.479960999999989
  0
LINE
  5
1B9
  8
0
 62
     7
 10
156.7949999999999
 20
150.239
 30
0.0
 11
156.7949999999999
 21
148.97200000000001
 31
0.0
  0
ARC
  5
1BA
  8
0
 62
     7
 10
156.46280699999991
 20
150.154505
 30
0.0
 40
0.3310010000000001
 50
326.35656499999988
 51
24.846025999999998
  0
LINE
  5
1BB
  8
0
 62
     7
 10
152.59599999999989
 20
147.602
 30
0.0
 11
152.59599999999989
 21
151.52199999999999
 31
0.0
  0
LINE
  5
1BC
  8
0
 62
     7
 10
152.95699999999991
 20
149.16200000000001
 30
0.0
 11
155.96899999999991
 21
149.16200000000001
 31
0.0
  0
LINE
  5
1BD
  8
0
 62
     7
 10
152.95699999999991
 20
149.96199999999999
 30
0.0
 11
155.96899999999991
 21
149.96199999999999
 31
0.0
  0
LINE
  5
1BE
  8
0
 62
     7
 10
152.75700000000001
 20
147.56200000000001
 30
0.0
 11
152.75700000000001
 21
149.56200000000001
 31
0.0
  0
LINE
  5
1BF
  8
0
 62
     7
 10
152.75700000000001
 20
147.56200000000001
 30
0.0
 11
152.63599999999991
 21
147.56200000000001
 31
0.0
  0
LINE
  5
1C0
  8
0
 62
     7
 10
152.797
 20
147.602
 30
0.0
 11
152.75700000000001
 21
147.56200000000001
 31
0.0
  0
LINE
  5
1C1
  8
0
 62
     7
 10
152.63599999999991
 20
147.56200000000001
 30
0.0
 11
152.59599999999989
 21
147.602
 31
0.0
  0
LINE
  5
1C2
  8
0
 62
     7
 10
152.63599999999991
 20
149.56200000000001
 30
0.0
 11
152.63599999999991
 21
147.56200000000001
 31
0.0
  0
LINE
  5
1C3
  8
0
 62
     7
 10
152.797
 20
147.602
 30
0.0
 11
152.797
 21
149.56200000000001
 31
0.0
  0
LINE
  5
1C4
  8
0
 62
     7
 10
152.797
 20
151.52199999999999
 30
0.0
 11
152.797
 21
149.56200000000001
 31
0.0
  0
LINE
  5
1C5
  8
0
 62
     7
 10
152.63599999999991
 20
149.56200000000001
 30
0.0
 11
152.63599999999991
 21
151.56200000000001
 31
0.0
  0
LINE
  5
1C6
  8
0
 62
     7
 10
152.63599999999991
 20
151.56200000000001
 30
0.0
 11
152.59599999999989
 21
151.52199999999999
 31
0.0
  0
LINE
  5
1C7
  8
0
 62
     7
 10
152.797
 20
151.52199999999999
 30
0.0
 11
152.75700000000001
 21
151.56200000000001
 31
0.0
  0
LINE
  5
1C8
  8
0
 62
     7
 10
152.75700000000001
 20
151.56200000000001
 30
0.0
 11
152.63599999999991
 21
151.56200000000001
 31
0.0
  0
LINE
  5
1C9
  8
0
 62
     7
 10
152.75700000000001
 20
151.56200000000001
 30
0.0
 11
152.75700000000001
 21
149.56200000000001
 31
0.0
  0
LINE
  5
1CA
  8
0
 62
     7
 10
156.12999999999991
 20
150.13900000000001
 30
0.0
 11
156.07699999999991
 21
150.232
 31
0.0
  0
ARC
  5
1CB
  8
0
 62
     7
 10
155.9771439999999
 20
150.11857399999991
 30
0.0
 40
0.156944
 50
267.17744699999997
 51
346.28585499999991
  0
ARC
  5
1CC
  8
0
 62
     7
 10
155.542968
 20
149.5592979999999
 30
0.0
 40
0.5866520000000001
 50
0.248532
 51
43.371284000000003
  0
LINE
  5
1CD
  8
0
 62
     7
 10
156.12999999999991
 20
150.13900000000001
 30
0.0
 11
156.12999999999991
 21
149.56200000000001
 31
0.0
  0
LINE
  5
1CE
  8
0
 62
     7
 10
156.12999999999991
 20
148.98400000000001
 30
0.0
 11
156.12999999999991
 21
149.56200000000001
 31
0.0
  0
ARC
  5
1CF
  8
0
 62
     7
 10
155.54593199999991
 20
149.56370699999991
 30
0.0
 40
0.5840310000000001
 50
316.477487
 51
359.74948000000001
  0
ARC
  5
1D0
  8
0
 62
     7
 10
155.97746000000001
 20
149.00622200000001
 30
0.0
 40
0.156538
 50
13.591282
 51
92.945415999999994
  0
LINE
  5
1D1
  8
0
 62
     7
 10
156.12999999999991
 20
148.98400000000001
 30
0.0
 11
156.07699999999991
 21
148.892
 31
0.0
  0
LINE
  5
1D2
  8
0
 62
     7
 10
152.86299999999989
 20
150.232
 30
0.0
 11
156.07699999999991
 21
150.232
 31
0.0
  0
ARC
  5
1D3
  8
0
 62
     7
 10
152.8658879999999
 20
148.8230439999999
 30
0.0
 40
0.069116
 50
92.147025000000014
 51
178.149047
  0
LINE
  5
1D4
  8
0
 62
     7
 10
152.797
 20
148.98400000000001
 30
0.0
 11
152.84999999999999
 21
148.892
 31
0.0
  0
LINE
  5
1D5
  8
0
 62
     7
 10
152.86299999999989
 20
148.892
 30
0.0
 11
156.07699999999991
 21
148.892
 31
0.0
  0
ARC
  5
1D6
  8
0
 62
     7
 10
152.94944299999989
 20
149.00499500000001
 30
0.0
 40
0.157052
 50
87.240125000000006
 51
166.3812629999999
  0
LINE
  5
1D7
  8
0
 62
     7
 10
152.797
 20
148.98400000000001
 30
0.0
 11
152.797
 21
149.56200000000001
 31
0.0
  0
ARC
  5
1D8
  8
0
 62
     7
 10
153.383343
 20
149.56434299999989
 30
0.0
 40
0.586541
 50
180.24429699999999
 51
223.3755589999999
  0
ARC
  5
1D9
  8
0
 62
     7
 10
153.37822899999989
 20
149.561061
 30
0.0
 40
0.581422
 50
136.474153
 51
179.92299299999999
  0
LINE
  5
1DA
  8
0
 62
     7
 10
152.797
 20
150.13900000000001
 30
0.0
 11
152.797
 21
149.56200000000001
 31
0.0
  0
ARC
  5
1DB
  8
0
 62
     7
 10
152.94883400000001
 20
150.11684199999991
 30
0.0
 40
0.156269
 50
193.38131599999991
 51
272.99729600000001
  0
LINE
  5
1DC
  8
0
 62
     7
 10
152.797
 20
150.13900000000001
 30
0.0
 11
152.84999999999999
 21
150.232
 31
0.0
  0
ARC
  5
1DD
  8
0
 62
     7
 10
152.865959
 20
150.300712
 30
0.0
 40
0.06919
 50
181.90765400000001
 51
267.79627499999992
  0
LINE
  5
1DE
  8
0
 62
     7
 10
156.18499999999989
 20
150.33799999999991
 30
0.0
 11
156.12799999999999
 21
150.239
 31
0.0
  0
LINE
  5
1DF
  8
0
 62
     7
 10
156.18499999999989
 20
148.87399999999991
 30
0.0
 11
156.12799999999999
 21
148.97200000000001
 31
0.0
  0
ARC
  5
1E0
  8
0
 62
     7
 10
157.355909
 20
149.60525100000001
 30
0.0
 40
1.2269909999999991
 50
162.65130899999991
 51
197.348691
  0
ARC
  5
1E1
  8
0
 62
     7
 10
156.4593769999999
 20
149.05744599999991
 30
0.0
 40
0.3301989999999999
 50
146.27853899999999
 51
204.92405099999991
  0
LINE
  5
1E2
  8
0
 62
     7
 10
156.12799999999999
 20
150.239
 30
0.0
 11
156.12799999999999
 21
148.97200000000001
 31
0.0
  0
ARC
  5
1E3
  8
0
 62
     7
 10
156.45935499999999
 20
150.15512100000001
 30
0.0
 40
0.33018
 50
155.07406499999991
 51
213.72334399999991
  0
LINE
  5
1E4
  8
0
 62
     7
 10
62.036700000000003
 20
168.42400000000001
 30
0.0
 11
67.792299999999997
 21
168.42400000000001
 31
0.0
  0
LINE
  5
1E5
  8
0
 62
     7
 10
75.999600000000001
 20
159.6579999999999
 30
0.0
 11
77.321700000000007
 21
158.89500000000001
 31
0.0
  0
LINE
  5
1E6
  8
0
 62
     7
 10
77.321700000000007
 20
158.89500000000001
 30
0.0
 11
76.558400000000006
 21
160.21700000000001
 31
0.0
  0
LINE
  5
1E7
  8
0
 62
     7
 10
76.558400000000006
 20
160.21700000000001
 30
0.0
 11
75.999600000000001
 21
159.6579999999999
 31
0.0
  0
LINE
  5
1E8
  8
0
 62
     7
 10
81.236000000000004
 20
155.5389999999999
 30
0.0
 11
79.914299999999997
 21
156.30299999999991
 31
0.0
  0
LINE
  5
1E9
  8
0
 62
     7
 10
79.914299999999997
 20
156.30299999999991
 30
0.0
 11
80.677099999999996
 21
154.98099999999991
 31
0.0
  0
LINE
  5
1EA
  8
0
 62
     7
 10
80.677099999999996
 20
154.98099999999991
 30
0.0
 11
81.236000000000004
 21
155.5389999999999
 31
0.0
  0
LINE
  5
1EB
  8
0
 62
     7
 10
81.698700000000017
 20
154.518
 30
0.0
 11
67.792299999999997
 21
168.42400000000001
 31
0.0
  0
LINE
  5
1EC
  8
0
 62
     7
 10
37.9375
 20
74.3977
 30
0.0
 11
38.332399999999993
 21
72.923500000000004
 31
0.0
  0
LINE
  5
1ED
  8
0
 62
     7
 10
38.332399999999993
 20
72.923500000000004
 30
0.0
 11
38.727600000000002
 21
74.3977
 31
0.0
  0
LINE
  5
1EE
  8
0
 62
     7
 10
38.727600000000002
 20
74.3977
 30
0.0
 11
37.9375
 21
74.3977
 31
0.0
  0
LINE
  5
1EF
  8
0
 62
     7
 10
38.718000000000004
 20
171.4559999999999
 30
0.0
 11
38.323
 21
172.93000000000001
 31
0.0
  0
LINE
  5
1F0
  8
0
 62
     7
 10
38.323
 20
172.93000000000001
 30
0.0
 11
37.927999999999997
 21
171.4559999999999
 31
0.0
  0
LINE
  5
1F1
  8
0
 62
     7
 10
37.927999999999997
 20
171.4559999999999
 30
0.0
 11
38.718000000000004
 21
171.4559999999999
 31
0.0
  0
LINE
  5
1F2
  8
0
 62
     7
 10
38.332399999999993
 20
72.923500000000004
 30
0.0
 11
38.332399999999993
 21
172.93000000000001
 31
0.0
  0
LINE
  5
1F3
  8
0
 62
     7
 10
53.307299999999991
 20
172.93000000000001
 30
0.0
 11
37.8658
 21
172.93000000000001
 31
0.0
  0
LINE
  5
1F4
  8
0
 62
     7
 10
52.945099999999989
 20
72.923500000000004
 30
0.0
 11
37.8658
 21
72.923500000000004
 31
0.0
  0
LINE
  5
1F5
  8
0
 62
     7
 10
55.094299999999997
 20
183.869
 30
0.0
 11
53.620100000000001
 21
183.47399999999999
 31
0.0
  0
LINE
  5
1F6
  8
0
 62
     7
 10
53.620100000000001
 20
183.47399999999999
 30
0.0
 11
55.094299999999997
 21
183.07900000000001
 31
0.0
  0
LINE
  5
1F7
  8
0
 62
     7
 10
55.094299999999997
 20
183.07900000000001
 30
0.0
 11
55.094299999999997
 21
183.869
 31
0.0
  0
LINE
  5
1F8
  8
0
 62
     7
 10
99.761300000000006
 20
183.87899999999999
 30
0.0
 11
98.287000000000006
 21
183.4839999999999
 31
0.0
  0
LINE
  5
1F9
  8
0
 62
     7
 10
98.287000000000006
 20
183.4839999999999
 30
0.0
 11
99.761300000000006
 21
183.089
 31
0.0
  0
LINE
  5
1FA
  8
0
 62
     7
 10
99.761300000000006
 20
183.089
 30
0.0
 11
99.761300000000006
 21
183.87899999999999
 31
0.0
  0
LINE
  5
1FB
  8
0
 62
     7
 10
60.427700000000002
 20
183.869
 30
0.0
 11
58.953499999999998
 21
183.47399999999999
 31
0.0
  0
LINE
  5
1FC
  8
0
 62
     7
 10
58.953499999999998
 20
183.47399999999999
 30
0.0
 11
60.427700000000002
 21
183.07900000000001
 31
0.0
  0
LINE
  5
1FD
  8
0
 62
     7
 10
60.427700000000002
 20
183.07900000000001
 30
0.0
 11
60.427700000000002
 21
183.869
 31
0.0
  0
LINE
  5
1FE
  8
0
 62
     7
 10
57.478999999999999
 20
183.07900000000001
 30
0.0
 11
58.953499999999998
 21
183.47399999999999
 31
0.0
  0
LINE
  5
1FF
  8
0
 62
     7
 10
58.953499999999998
 20
183.47399999999999
 30
0.0
 11
57.478999999999999
 21
183.869
 31
0.0
  0
LINE
  5
200
  8
0
 62
     7
 10
57.478999999999999
 20
183.869
 30
0.0
 11
57.478999999999999
 21
183.07900000000001
 31
0.0
  0
LINE
  5
201
  8
0
 62
     7
 10
102.146
 20
183.07900000000001
 30
0.0
 11
103.62
 21
183.47399999999999
 31
0.0
  0
LINE
  5
202
  8
0
 62
     7
 10
103.62
 20
183.47399999999999
 30
0.0
 11
102.146
 21
183.869
 31
0.0
  0
LINE
  5
203
  8
0
 62
     7
 10
102.146
 20
183.869
 30
0.0
 11
102.146
 21
183.07900000000001
 31
0.0
  0
LINE
  5
204
  8
0
 62
     7
 10
96.812399999999997
 20
183.089
 30
0.0
 11
98.287000000000006
 21
183.4839999999999
 31
0.0
  0
LINE
  5
205
  8
0
 62
     7
 10
98.287000000000006
 20
183.4839999999999
 30
0.0
 11
96.812399999999997
 21
183.87899999999999
 31
0.0
  0
LINE
  5
206
  8
0
 62
     7
 10
96.812399999999997
 20
183.87899999999999
 30
0.0
 11
96.812399999999997
 21
183.089
 31
0.0
  0
LINE
  5
207
  8
0
 62
     7
 10
53.620100000000001
 20
183.47399999999999
 30
0.0
 11
103.62
 21
183.47399999999999
 31
0.0
  0
LINE
  5
208
  8
0
 62
     7
 10
55.094299999999997
 20
190.173
 30
0.0
 11
53.620100000000001
 21
189.77799999999999
 31
0.0
  0
LINE
  5
209
  8
0
 62
     7
 10
53.620100000000001
 20
189.77799999999999
 30
0.0
 11
55.094299999999997
 21
189.3829999999999
 31
0.0
  0
LINE
  5
20A
  8
0
 62
     7
 10
55.094299999999997
 20
189.3829999999999
 30
0.0
 11
55.094299999999997
 21
190.173
 31
0.0
  0
LINE
  5
20B
  8
0
 62
     7
 10
102.146
 20
189.393
 30
0.0
 11
103.62
 21
189.7879999999999
 31
0.0
  0
LINE
  5
20C
  8
0
 62
     7
 10
103.62
 20
189.7879999999999
 30
0.0
 11
102.146
 21
190.18299999999991
 31
0.0
  0
LINE
  5
20D
  8
0
 62
     7
 10
102.146
 20
190.18299999999991
 30
0.0
 11
102.146
 21
189.393
 31
0.0
  0
LINE
  5
20E
  8
0
 62
     7
 10
53.620100000000001
 20
189.77799999999999
 30
0.0
 11
103.62
 21
189.77799999999999
 31
0.0
  0
LINE
  5
20F
  8
0
 62
     7
 10
58.953499999999998
 20
173.465
 30
0.0
 11
58.953499999999998
 21
183.94099999999989
 31
0.0
  0
LINE
  5
210
  8
0
 62
     7
 10
98.287000000000006
 20
173.465
 30
0.0
 11
98.287000000000006
 21
183.94099999999989
 31
0.0
  0
LINE
  5
211
  8
0
 62
     7
 10
103.62
 20
173.232
 30
0.0
 11
103.62
 21
190.24499999999989
 31
0.0
  0
LINE
  5
212
  8
0
 62
     7
 10
53.620100000000001
 20
173.232
 30
0.0
 11
53.620100000000001
 21
190.24499999999989
 31
0.0
  0
LINE
  5
213
  8
0
 62
     7
 10
161.5379999999999
 20
103.58199999999999
 30
0.0
 11
169.83799999999999
 21
103.58199999999999
 31
0.0
  0
LINE
  5
214
  8
0
 62
     7
 10
122.9679999999999
 20
72.926599999999993
 30
0.0
 11
169.83799999999999
 21
72.926599999999993
 31
0.0
  0
LINE
  5
215
  8
0
 62
     7
 10
168.97599999999991
 20
151.0689999999999
 30
0.0
 11
169.3709999999999
 21
149.59399999999999
 31
0.0
  0
LINE
  5
216
  8
0
 62
     7
 10
169.3709999999999
 20
149.59399999999999
 30
0.0
 11
169.767
 21
151.0689999999999
 31
0.0
  0
LINE
  5
217
  8
0
 62
     7
 10
169.767
 20
151.0689999999999
 30
0.0
 11
168.97599999999991
 21
151.0689999999999
 31
0.0
  0
LINE
  5
218
  8
0
 62
     7
 10
169.75699999999989
 20
171.45500000000001
 30
0.0
 11
169.36199999999991
 21
172.92899999999989
 31
0.0
  0
LINE
  5
219
  8
0
 62
     7
 10
169.36199999999991
 20
172.92899999999989
 30
0.0
 11
168.96700000000001
 21
171.45500000000001
 31
0.0
  0
LINE
  5
21A
  8
0
 62
     7
 10
168.96700000000001
 20
171.45500000000001
 30
0.0
 11
169.75699999999989
 21
171.45500000000001
 31
0.0
  0
LINE
  5
21B
  8
0
 62
     7
 10
169.3709999999999
 20
149.59399999999999
 30
0.0
 11
169.3709999999999
 21
172.92899999999989
 31
0.0
  0
LINE
  5
21C
  8
0
 62
     7
 10
122.95699999999999
 20
172.92899999999989
 30
0.0
 11
169.83799999999999
 21
172.92899999999989
 31
0.0
  0
LINE
  5
21D
  8
0
 62
     7
 10
161.55799999999999
 20
149.59399999999999
 30
0.0
 11
169.83799999999999
 21
149.59399999999999
 31
0.0
  0
LINE
  5
21E
  8
0
 62
     7
 10
120.46299999999989
 20
200.755
 30
0.0
 11
122.4609999999999
 21
200.755
 31
0.0
  0
LINE
  5
21F
  8
0
 62
     7
 10
123.9349999999999
 20
201.15000000000001
 30
0.0
 11
122.4609999999999
 21
200.755
 31
0.0
  0
LINE
  5
220
  8
0
 62
     7
 10
122.4609999999999
 20
200.755
 30
0.0
 11
123.9349999999999
 21
200.36000000000001
 31
0.0
  0
LINE
  5
221
  8
0
 62
     7
 10
123.9349999999999
 20
200.36000000000001
 30
0.0
 11
123.9349999999999
 21
201.15000000000001
 31
0.0
  0
LINE
  5
222
  8
0
 62
     7
 10
118.9889999999999
 20
200.36000000000001
 30
0.0
 11
120.46299999999989
 21
200.755
 31
0.0
  0
LINE
  5
223
  8
0
 62
     7
 10
120.46299999999989
 20
200.755
 30
0.0
 11
118.9889999999999
 21
201.15000000000001
 31
0.0
  0
LINE
  5
224
  8
0
 62
     7
 10
118.9889999999999
 20
201.15000000000001
 30
0.0
 11
118.9889999999999
 21
200.36000000000001
 31
0.0
  0
LINE
  5
225
  8
0
 62
     7
 10
122.4609999999999
 20
200.755
 30
0.0
 11
125.03100000000001
 21
200.755
 31
0.0
  0
LINE
  5
226
  8
0
 62
     7
 10
120.46299999999989
 20
200.755
 30
0.0
 11
116.05
 21
200.755
 31
0.0
  0
LINE
  5
227
  8
0
 62
     7
 10
122.4609999999999
 20
207.59999999999999
 30
0.0
 11
122.4609999999999
 21
200.28899999999999
 31
0.0
  0
LINE
  5
228
  8
0
 62
     7
 10
120.46299999999989
 20
207.93299999999999
 30
0.0
 11
120.46299999999989
 21
200.28899999999999
 31
0.0
  0
LINE
  5
229
  8
0
 62
     7
 10
123.6539999999999
 20
224.858
 30
0.0
 11
125.1279999999999
 21
225.2529999999999
 31
0.0
  0
LINE
  5
22A
  8
0
 62
     7
 10
125.1279999999999
 20
225.2529999999999
 30
0.0
 11
123.6539999999999
 21
225.64799999999991
 31
0.0
  0
LINE
  5
22B
  8
0
 62
     7
 10
123.6539999999999
 20
225.64799999999991
 30
0.0
 11
123.6539999999999
 21
224.858
 31
0.0
  0
LINE
  5
22C
  8
0
 62
     7
 10
121.937
 20
225.64799999999991
 30
0.0
 11
120.46299999999989
 21
225.2529999999999
 31
0.0
  0
LINE
  5
22D
  8
0
 62
     7
 10
120.46299999999989
 20
225.2529999999999
 30
0.0
 11
121.937
 21
224.858
 31
0.0
  0
LINE
  5
22E
  8
0
 62
     7
 10
121.937
 20
224.858
 30
0.0
 11
121.937
 21
225.64799999999991
 31
0.0
  0
LINE
  5
22F
  8
0
 62
     7
 10
120.46299999999989
 20
225.2529999999999
 30
0.0
 11
116.60299999999989
 21
225.2529999999999
 31
0.0
  0
LINE
  5
230
  8
0
 62
     7
 10
125.1279999999999
 20
225.2529999999999
 30
0.0
 11
120.46299999999989
 21
225.2529999999999
 31
0.0
  0
LINE
  5
231
  8
0
 62
     7
 10
125.1279999999999
 20
230.4009999999999
 30
0.0
 11
125.1279999999999
 21
224.78599999999989
 31
0.0
  0
LINE
  5
232
  8
0
 62
     7
 10
158.65600000000001
 20
265.88699999999989
 30
0.0
 11
160.12999999999991
 21
266.28300000000002
 31
0.0
  0
LINE
  5
233
  8
0
 62
     7
 10
160.12999999999991
 20
266.28300000000002
 30
0.0
 11
158.65600000000001
 21
266.678
 31
0.0
  0
LINE
  5
234
  8
0
 62
     7
 10
158.65600000000001
 20
266.678
 30
0.0
 11
158.65600000000001
 21
265.88699999999989
 31
0.0
  0
LINE
  5
235
  8
0
 62
     7
 10
121.937
 20
266.66799999999989
 30
0.0
 11
120.46299999999989
 21
266.27299999999991
 31
0.0
  0
LINE
  5
236
  8
0
 62
     7
 10
120.46299999999989
 20
266.27299999999991
 30
0.0
 11
121.937
 21
265.87799999999987
 31
0.0
  0
LINE
  5
237
  8
0
 62
     7
 10
121.937
 20
265.87799999999987
 30
0.0
 11
121.937
 21
266.66799999999989
 31
0.0
  0
LINE
  5
238
  8
0
 62
     7
 10
160.12999999999991
 20
266.27299999999991
 30
0.0
 11
120.46299999999989
 21
266.27299999999991
 31
0.0
  0
LINE
  5
239
  8
0
 62
     7
 10
113.06
 20
239.32599999999999
 30
0.0
 11
118.91200000000001
 21
239.32599999999999
 31
0.0
  0
LINE
  5
23A
  8
0
 62
     7
 10
127.699
 20
231.09700000000001
 30
0.0
 11
126.377
 21
231.8599999999999
 31
0.0
  0
LINE
  5
23B
  8
0
 62
     7
 10
126.377
 20
231.8599999999999
 30
0.0
 11
127.14
 21
230.5379999999999
 31
0.0
  0
LINE
  5
23C
  8
0
 62
     7
 10
127.14
 20
230.5379999999999
 30
0.0
 11
127.699
 21
231.09700000000001
 31
0.0
  0
LINE
  5
23D
  8
0
 62
     7
 10
122.56100000000001
 20
235.12499999999989
 30
0.0
 11
123.88200000000001
 21
234.36199999999999
 31
0.0
  0
LINE
  5
23E
  8
0
 62
     7
 10
123.88200000000001
 20
234.36199999999999
 30
0.0
 11
123.12
 21
235.68299999999991
 31
0.0
  0
LINE
  5
23F
  8
0
 62
     7
 10
123.12
 20
235.68299999999991
 30
0.0
 11
122.56100000000001
 21
235.12499999999989
 31
0.0
  0
LINE
  5
240
  8
0
 62
     7
 10
118.91200000000001
 20
239.32599999999999
 30
0.0
 11
128.27999999999989
 21
229.95699999999999
 31
0.0
  0
LINE
  5
241
  8
0
 62
     7
 10
161.53700000000001
 20
225.10900000000001
 30
0.0
 11
169.809
 21
225.10900000000001
 31
0.0
  0
LINE
  5
242
  8
0
 62
     7
 10
122.96899999999989
 20
208.10900000000001
 30
0.0
 11
169.83799999999999
 21
208.10900000000001
 31
0.0
  0
LINE
  5
243
  8
0
 62
     7
 10
169.75699999999989
 20
256.63499999999988
 30
0.0
 11
169.36199999999991
 21
258.10899999999998
 31
0.0
  0
LINE
  5
244
  8
0
 62
     7
 10
169.36199999999991
 20
258.10899999999998
 30
0.0
 11
168.96700000000001
 21
256.63499999999988
 31
0.0
  0
LINE
  5
245
  8
0
 62
     7
 10
168.96700000000001
 20
256.63499999999988
 30
0.0
 11
169.75699999999989
 21
256.63499999999988
 31
0.0
  0
LINE
  5
246
  8
0
 62
     7
 10
168.97599999999991
 20
242.58399999999989
 30
0.0
 11
169.3709999999999
 21
241.10900000000001
 31
0.0
  0
LINE
  5
247
  8
0
 62
     7
 10
169.3709999999999
 20
241.10900000000001
 30
0.0
 11
169.767
 21
242.58399999999989
 31
0.0
  0
LINE
  5
248
  8
0
 62
     7
 10
169.767
 20
242.58399999999989
 30
0.0
 11
168.97599999999991
 21
242.58399999999989
 31
0.0
  0
LINE
  5
249
  8
0
 62
     7
 10
169.3709999999999
 20
258.10899999999998
 30
0.0
 11
169.3709999999999
 21
241.10900000000001
 31
0.0
  0
LINE
  5
24A
  8
0
 62
     7
 10
122.96899999999989
 20
258.10899999999998
 30
0.0
 11
169.83799999999999
 21
258.10899999999998
 31
0.0
  0
LINE
  5
24B
  8
0
 62
     7
 10
121.9379999999999
 20
183.869
 30
0.0
 11
120.46299999999989
 21
183.47399999999999
 31
0.0
  0
LINE
  5
24C
  8
0
 62
     7
 10
120.46299999999989
 20
183.47399999999999
 30
0.0
 11
121.9379999999999
 21
183.07900000000001
 31
0.0
  0
LINE
  5
24D
  8
0
 62
     7
 10
121.9379999999999
 20
183.07900000000001
 30
0.0
 11
121.9379999999999
 21
183.869
 31
0.0
  0
LINE
  5
24E
  8
0
 62
     7
 10
158.65600000000001
 20
183.089
 30
0.0
 11
160.12999999999991
 21
183.4839999999999
 31
0.0
  0
LINE
  5
24F
  8
0
 62
     7
 10
160.12999999999991
 20
183.4839999999999
 30
0.0
 11
158.65600000000001
 21
183.87899999999999
 31
0.0
  0
LINE
  5
250
  8
0
 62
     7
 10
158.65600000000001
 20
183.87899999999999
 30
0.0
 11
158.65600000000001
 21
183.089
 31
0.0
  0
LINE
  5
251
  8
0
 62
     7
 10
120.46299999999989
 20
183.47399999999999
 30
0.0
 11
160.12999999999991
 21
183.47399999999999
 31
0.0
  0
LINE
  5
252
  8
0
 62
     7
 10
160.12999999999991
 20
151.46100000000001
 30
0.0
 11
160.12999999999991
 21
183.94099999999989
 31
0.0
  0
LINE
  5
253
  8
0
 62
     7
 10
120.46299999999989
 20
173.17199999999991
 30
0.0
 11
120.46299999999989
 21
183.94099999999989
 31
0.0
  0
LINE
  5
254
  8
0
 62
     7
 10
152.5629999999999
 20
237.7759999999999
 30
0.0
 11
151.256
 21
237.7759999999999
 31
0.0
  0
LINE
  5
255
  8
0
 62
     7
 10
152.59599999999989
 20
244.40899999999999
 30
0.0
 11
152.5629999999999
 21
244.44300000000001
 31
0.0
  0
LINE
  5
256
  8
0
 62
     7
 10
152.59599999999989
 20
237.809
 30
0.0
 11
152.5629999999999
 21
237.7759999999999
 31
0.0
  0
LINE
  5
257
  8
0
 62
     7
 10
152.59599999999989
 20
241.06499999999991
 30
0.0
 11
152.59599999999989
 21
244.40899999999999
 31
0.0
  0
LINE
  5
258
  8
0
 62
     7
 10
152.59599999999989
 20
241.06499999999991
 30
0.0
 11
152.59599999999989
 21
237.809
 31
0.0
  0
LINE
  5
259
  8
0
 62
     7
 10
152.5629999999999
 20
244.44300000000001
 30
0.0
 11
151.256
 21
244.44300000000001
 31
0.0
  0
LINE
  5
25A
  8
0
 62
     7
 10
152.5629999999999
 20
221.77500000000001
 30
0.0
 11
151.256
 21
221.77500000000001
 31
0.0
  0
LINE
  5
25B
  8
0
 62
     7
 10
152.59599999999989
 20
228.40899999999999
 30
0.0
 11
152.5629999999999
 21
228.44200000000001
 31
0.0
  0
LINE
  5
25C
  8
0
 62
     7
 10
152.59599999999989
 20
221.809
 30
0.0
 11
152.5629999999999
 21
221.77500000000001
 31
0.0
  0
LINE
  5
25D
  8
0
 62
     7
 10
152.59599999999989
 20
225.06499999999991
 30
0.0
 11
152.59599999999989
 21
228.40899999999999
 31
0.0
  0
LINE
  5
25E
  8
0
 62
     7
 10
152.59599999999989
 20
225.06499999999991
 30
0.0
 11
152.59599999999989
 21
221.809
 31
0.0
  0
LINE
  5
25F
  8
0
 62
     7
 10
152.5629999999999
 20
228.44200000000001
 30
0.0
 11
151.256
 21
228.44200000000001
 31
0.0
  0
LINE
  5
260
  8
0
 62
     7
 10
151.256
 20
245.92599999999999
 30
0.0
 11
150.8549999999999
 21
245.92599999999999
 31
0.0
  0
LINE
  5
261
  8
0
 62
     7
 10
151.256
 20
220.292
 30
0.0
 11
150.8549999999999
 21
220.292
 31
0.0
  0
LINE
  5
262
  8
0
 62
     7
 10
151.7889999999999
 20
231.15299999999991
 30
0.0
 11
151.7889999999999
 21
235.06499999999991
 31
0.0
  0
LINE
  5
263
  8
0
 62
     7
 10
151.59399999999999
 20
230.68100000000001
 30
0.0
 11
150.98400000000001
 21
230.072
 31
0.0
  0
ARC
  5
264
  8
0
 62
     7
 10
151.4734399999999
 20
229.586308
 30
0.0
 40
0.6890450000000001
 50
135.221553
 51
153.7444439999999
  0
ARC
  5
265
  8
0
 62
     7
 10
151.114261
 20
231.15630699999991
 30
0.0
 40
0.67486
 50
315.27853499999998
 51
359.69603000000001
  0
ARC
  5
266
  8
0
 62
     7
 10
151.1140739999999
 20
235.061691
 30
0.0
 40
0.675045
 50
0.281006
 51
44.714818999999991
  0
ARC
  5
267
  8
0
 62
     7
 10
151.46233599999999
 20
236.62292999999991
 30
0.0
 40
0.6751850000000002
 50
206.0000039999999
 51
224.930724
  0
LINE
  5
268
  8
0
 62
     7
 10
151.59399999999999
 20
235.53700000000001
 30
0.0
 11
150.98400000000001
 21
236.14599999999999
 31
0.0
  0
LINE
  5
269
  8
0
 62
     7
 10
152.5629999999999
 20
100.2259999999999
 30
0.0
 11
150.02299999999991
 21
100.2259999999999
 31
0.0
  0
LINE
  5
26A
  8
0
 62
     7
 10
152.5629999999999
 20
106.8929999999999
 30
0.0
 11
150.167
 21
106.8929999999999
 31
0.0
  0
LINE
  5
26B
  8
0
 62
     7
 10
152.59599999999989
 20
100.259
 30
0.0
 11
152.5629999999999
 21
100.2259999999999
 31
0.0
  0
LINE
  5
26C
  8
0
 62
     7
 10
152.59599999999989
 20
103.515
 30
0.0
 11
152.59599999999989
 21
106.8599999999999
 31
0.0
  0
LINE
  5
26D
  8
0
 62
     7
 10
152.59599999999989
 20
103.515
 30
0.0
 11
152.59599999999989
 21
100.259
 31
0.0
  0
LINE
  5
26E
  8
0
 62
     7
 10
152.59599999999989
 20
106.8599999999999
 30
0.0
 11
152.5629999999999
 21
106.8929999999999
 31
0.0
  0
LINE
  5
26F
  8
0
 62
     7
 10
152.59599999999989
 20
149.5449999999999
 30
0.0
 11
152.59599999999989
 21
146.28999999999991
 31
0.0
  0
LINE
  5
270
  8
0
 62
     7
 10
152.59599999999989
 20
149.5449999999999
 30
0.0
 11
152.59599999999989
 21
152.8899999999999
 31
0.0
  0
LINE
  5
271
  8
0
 62
     7
 10
152.5629999999999
 20
146.25700000000001
 30
0.0
 11
151.018
 21
146.25700000000001
 31
0.0
  0
LINE
  5
272
  8
0
 62
     7
 10
152.5629999999999
 20
152.923
 30
0.0
 11
151.16200000000001
 21
152.923
 31
0.0
  0
LINE
  5
273
  8
0
 62
     7
 10
152.59599999999989
 20
146.28999999999991
 30
0.0
 11
152.5629999999999
 21
146.25700000000001
 31
0.0
  0
LINE
  5
274
  8
0
 62
     7
 10
152.59599999999989
 20
152.8899999999999
 30
0.0
 11
152.5629999999999
 21
152.923
 31
0.0
  0
ARC
  5
275
  8
0
 62
     7
 10
125.196209
 20
233.04105000000001
 30
0.0
 40
1.8360810000000001
 50
92.127828000000008
 51
177.8833139999999
  0
ARC
  5
276
  8
0
 62
     7
 10
125.1278649999999
 20
233.10903599999989
 30
0.0
 40
1.7664839999999991
 50
180.00559699999999
 51
270.005607
  0
ARC
  5
277
  8
0
 62
     7
 10
125.128209
 20
233.109037
 30
0.0
 40
1.7664839999999991
 50
269.99443300000001
 51
359.99440299999992
  0
ARC
  5
278
  8
0
 62
     7
 10
125.06031399999991
 20
233.04149899999999
 30
0.0
 40
1.835615999999999
 50
2.1031680000000001
 51
87.885649999999998
  0
ARC
  5
279
  8
0
 62
     7
 10
78.685822000000002
 20
157.526411
 30
0.0
 40
1.904922999999999
 50
92.115314999999995
 51
177.89003899999989
  0
ARC
  5
27A
  8
0
 62
     7
 10
78.685989000000006
 20
157.66684599999999
 30
0.0
 40
1.9050969999999989
 50
182.11480099999989
 51
267.87984599999987
  0
ARC
  5
27B
  8
0
 62
     7
 10
78.615509000000003
 20
157.59654499999991
 30
0.0
 40
1.833491999999999
 50
270.00002000000001
 51
359.99998999999991
  0
ARC
  5
27C
  8
0
 62
     7
 10
78.615509000000003
 20
157.59654399999999
 30
0.0
 40
1.833491999999999
 50
0.00001
 51
89.999980000000008
  0
ARC
  5
27D
  8
0
 62
     7
 10
68.948509999999999
 20
151.24771000000001
 30
0.0
 40
1.3334330000000001
 50
89.992598000000001
 51
179.992569
  0
ARC
  5
27E
  8
0
 62
     7
 10
68.948681999999991
 20
151.247882
 30
0.0
 40
1.333604999999999
 50
179.99996999999991
 51
270.00002000000001
  0
ARC
  5
27F
  8
0
 62
     7
 10
68.897673999999995
 20
151.29871199999999
 30
0.0
 40
1.385373999999999
 50
272.11007499999999
 51
357.89733599999988
  0
ARC
  5
280
  8
0
 62
     7
 10
68.897855000000007
 20
151.196877
 30
0.0
 40
1.3851990000000001
 50
2.1102219999999998
 51
87.897171
  0
ARC
  5
281
  8
0
 62
     7
 10
76.682108999999997
 20
151.24771000000001
 30
0.0
 40
1.3334330000000001
 50
89.992598000000001
 51
179.992569
  0
ARC
  5
282
  8
0
 62
     7
 10
76.682281000000003
 20
151.247882
 30
0.0
 40
1.333604999999999
 50
179.99996999999991
 51
270.00002000000001
  0
ARC
  5
283
  8
0
 62
     7
 10
76.682108999999997
 20
151.24771100000001
 30
0.0
 40
1.3334330000000001
 50
270.00742100000002
 51
0.007392
  0
ARC
  5
284
  8
0
 62
     7
 10
76.682281000000003
 20
151.247882
 30
0.0
 40
1.333261
 50
0.00001
 51
89.999980000000008
  0
ARC
  5
285
  8
0
 62
     7
 10
72.815309999999997
 20
151.24771000000001
 30
0.0
 40
1.3334330000000001
 50
89.992598000000001
 51
179.992569
  0
ARC
  5
286
  8
0
 62
     7
 10
72.815481999999989
 20
151.247882
 30
0.0
 40
1.333604999999999
 50
179.99996999999991
 51
270.00002000000001
  0
ARC
  5
287
  8
0
 62
     7
 10
72.815223000000003
 20
151.24762499999991
 30
0.0
 40
1.3333469999999989
 50
270.011123
 51
0.011093
  0
ARC
  5
288
  8
0
 62
     7
 10
72.815394999999995
 20
151.2479689999999
 30
0.0
 40
1.3331740000000001
 50
359.996308
 51
89.996279000000001
  0
ARC
  5
289
  8
0
 62
     7
 10
68.948681999999991
 20
144.4472209999999
 30
0.0
 40
1.333604999999999
 50
90.0
 51
179.99996999999991
  0
ARC
  5
28A
  8
0
 62
     7
 10
68.999341999999999
 20
144.4982389999999
 30
0.0
 40
1.385205
 50
182.1107189999999
 51
267.90411399999988
  0
ARC
  5
28B
  8
0
 62
     7
 10
68.897697999999991
 20
144.49838399999999
 30
0.0
 40
1.3853619999999991
 50
272.10908499999988
 51
357.88352300000003
  0
ARC
  5
28C
  8
0
 62
     7
 10
68.897517000000008
 20
144.39623399999999
 30
0.0
 40
1.385537
 50
2.1089189999999989
 51
87.883669999999995
  0
ARC
  5
28D
  8
0
 62
     7
 10
68.999662000000001
 20
137.59591099999989
 30
0.0
 40
1.3855360000000001
 50
92.108612999999991
 51
177.876554
  0
ARC
  5
28E
  8
0
 62
     7
 10
68.948509999999999
 20
137.64742100000001
 30
0.0
 40
1.3334319999999991
 50
180.0074119999999
 51
270.00742100000002
  0
ARC
  5
28F
  8
0
 62
     7
 10
68.897697999999991
 20
137.69841199999999
 30
0.0
 40
1.3853619999999991
 50
272.10908499999988
 51
357.88352300000003
  0
ARC
  5
290
  8
0
 62
     7
 10
68.897864999999996
 20
137.59625299999999
 30
0.0
 40
1.385189
 50
2.109824999999999
 51
87.897567000000009
  0
ARC
  5
291
  8
0
 62
     7
 10
70.932897999999994
 20
140.99659099999991
 30
0.0
 40
1.3851869999999999
 50
92.109500999999995
 51
177.890469
  0
ARC
  5
292
  8
0
 62
     7
 10
70.932893000000007
 20
141.0985629999999
 30
0.0
 40
1.385181999999999
 50
182.10933299999999
 51
267.89069699999999
  0
ARC
  5
293
  8
0
 62
     7
 10
70.830926000000005
 20
141.0985629999999
 30
0.0
 40
1.3851830000000001
 50
272.10933999999992
 51
357.89067
  0
ARC
  5
294
  8
0
 62
     7
 10
70.830926000000005
 20
140.9965959999999
 30
0.0
 40
1.3851830000000001
 50
2.109329999999999
 51
87.890659999999997
  0
ARC
  5
295
  8
0
 62
     7
 10
70.882081999999997
 20
147.84772399999989
 30
0.0
 40
1.3334330000000001
 50
90.007401999999999
 51
180.0074119999999
  0
ARC
  5
296
  8
0
 62
     7
 10
70.881908999999993
 20
147.84755200000001
 30
0.0
 40
1.3332599999999999
 50
179.99996999999991
 51
270.00002000000001
  0
ARC
  5
297
  8
0
 62
     7
 10
70.830926000000005
 20
147.89853600000001
 30
0.0
 40
1.3851830000000001
 50
272.10933999999992
 51
357.89067
  0
ARC
  5
298
  8
0
 62
     7
 10
70.830577000000005
 20
147.79657700000001
 30
0.0
 40
1.385530999999999
 50
2.1084239999999999
 51
87.876762999999997
  0
ARC
  5
299
  8
0
 62
     7
 10
68.948509999999999
 20
130.847104
 30
0.0
 40
1.3334330000000001
 50
89.992598000000001
 51
179.992569
  0
ARC
  5
29A
  8
0
 62
     7
 10
68.999331999999995
 20
130.89828399999999
 30
0.0
 40
1.385194
 50
182.11032199999991
 51
267.90451100000001
  0
ARC
  5
29B
  8
0
 62
     7
 10
68.897697999999991
 20
130.89843899999991
 30
0.0
 40
1.3853619999999991
 50
272.10908499999988
 51
357.88352300000003
  0
ARC
  5
29C
  8
0
 62
     7
 10
68.897855000000007
 20
130.79626999999999
 30
0.0
 40
1.3851990000000001
 50
2.1102219999999998
 51
87.897171
  0
ARC
  5
29D
  8
0
 62
     7
 10
70.932897999999994
 20
127.395957
 30
0.0
 40
1.3851869999999999
 50
92.109500999999995
 51
177.890469
  0
ARC
  5
29E
  8
0
 62
     7
 10
70.881908999999993
 20
127.446945
 30
0.0
 40
1.3332599999999999
 50
179.99996999999991
 51
270.00002000000001
  0
ARC
  5
29F
  8
0
 62
     7
 10
70.830926000000005
 20
127.497929
 30
0.0
 40
1.3851830000000001
 50
272.10933999999992
 51
357.89067
  0
ARC
  5
2A0
  8
0
 62
     7
 10
70.830926000000005
 20
127.395962
 30
0.0
 40
1.3851830000000001
 50
2.109329999999999
 51
87.890659999999997
  0
ARC
  5
2A1
  8
0
 62
     7
 10
70.932921999999991
 20
134.19660799999991
 30
0.0
 40
1.3851990000000001
 50
92.110491000000025
 51
177.90428299999999
  0
ARC
  5
2A2
  8
0
 62
     7
 10
70.881737000000001
 20
134.247435
 30
0.0
 40
1.3330879999999989
 50
180.0074129999999
 51
270.00742300000002
  0
ARC
  5
2A3
  8
0
 62
     7
 10
70.830950000000001
 20
134.29857999999999
 30
0.0
 40
1.385170999999999
 50
272.10834999999992
 51
357.87685299999998
  0
ARC
  5
2A4
  8
0
 62
     7
 10
70.830567000000002
 20
134.19627800000001
 30
0.0
 40
1.385540999999999
 50
2.1088209999999989
 51
87.876366000000004
  0
ARC
  5
2A5
  8
0
 62
     7
 10
74.799696999999995
 20
140.99659099999991
 30
0.0
 40
1.3851869999999999
 50
92.109500999999995
 51
177.890469
  0
ARC
  5
2A6
  8
0
 62
     7
 10
74.799692000000007
 20
141.0985629999999
 30
0.0
 40
1.385181999999999
 50
182.10933299999999
 51
267.89069699999999
  0
ARC
  5
2A7
  8
0
 62
     7
 10
74.697730000000007
 20
141.09873699999989
 30
0.0
 40
1.3853569999999991
 50
272.10888699999998
 51
357.88372099999998
  0
ARC
  5
2A8
  8
0
 62
     7
 10
74.69789200000001
 20
140.99658400000001
 30
0.0
 40
1.385189
 50
2.109824999999999
 51
87.897567000000009
  0
ARC
  5
2A9
  8
0
 62
     7
 10
74.748881999999995
 20
147.84772399999989
 30
0.0
 40
1.3334330000000001
 50
90.007401999999999
 51
180.0074119999999
  0
ARC
  5
2AA
  8
0
 62
     7
 10
74.748708999999991
 20
147.84755200000001
 30
0.0
 40
1.3332599999999999
 50
179.99996999999991
 51
270.00002000000001
  0
ARC
  5
2AB
  8
0
 62
     7
 10
74.697730000000007
 20
147.89870999999999
 30
0.0
 40
1.3853569999999991
 50
272.10888699999998
 51
357.88372099999998
  0
ARC
  5
2AC
  8
0
 62
     7
 10
74.697543999999994
 20
147.7965649999999
 30
0.0
 40
1.385537
 50
2.1089189999999989
 51
87.883669999999995
  0
ARC
  5
2AD
  8
0
 62
     7
 10
78.666496999999993
 20
140.99659099999991
 30
0.0
 40
1.3851869999999999
 50
92.109500999999995
 51
177.890469
  0
ARC
  5
2AE
  8
0
 62
     7
 10
78.666492000000005
 20
141.0985629999999
 30
0.0
 40
1.385181999999999
 50
182.10933299999999
 51
267.89069699999999
  0
ARC
  5
2AF
  8
0
 62
     7
 10
78.564520999999999
 20
141.09838899999991
 30
0.0
 40
1.385008999999999
 50
272.10979300000002
 51
357.89762000000002
  0
ARC
  5
2B0
  8
0
 62
     7
 10
78.564358999999996
 20
140.99660800000001
 30
0.0
 40
1.3851770000000001
 50
2.108835
 51
87.883752000000001
  0
ARC
  5
2B1
  8
0
 62
     7
 10
78.615681000000009
 20
147.84772399999989
 30
0.0
 40
1.3334330000000001
 50
90.007401999999999
 51
180.0074119999999
  0
ARC
  5
2B2
  8
0
 62
     7
 10
78.615509000000003
 20
147.84755200000001
 30
0.0
 40
1.3332599999999999
 50
179.99996999999991
 51
270.00002000000001
  0
ARC
  5
2B3
  8
0
 62
     7
 10
78.564520999999999
 20
147.89836099999999
 30
0.0
 40
1.385008999999999
 50
272.10979300000002
 51
357.89762000000002
  0
ARC
  5
2B4
  8
0
 62
     7
 10
78.564009999999996
 20
147.7965899999999
 30
0.0
 40
1.385524999999999
 50
2.1079300000000001
 51
87.869854000000004
  0
ARC
  5
2B5
  8
0
 62
     7
 10
76.682282000000001
 20
144.4472209999999
 30
0.0
 40
1.333604999999999
 50
90.0
 51
179.99996999999991
  0
ARC
  5
2B6
  8
0
 62
     7
 10
76.732940999999997
 20
144.4982389999999
 30
0.0
 40
1.385205
 50
182.1107189999999
 51
267.90411399999988
  0
ARC
  5
2B7
  8
0
 62
     7
 10
76.631292999999999
 20
144.49821
 30
0.0
 40
1.385187999999999
 50
272.10953799999987
 51
357.89047199999999
  0
ARC
  5
2B8
  8
0
 62
     7
 10
76.682108999999997
 20
144.44739300000001
 30
0.0
 40
1.3334330000000001
 50
359.99260800000002
 51
89.992579000000006
  0
ARC
  5
2B9
  8
0
 62
     7
 10
76.733260999999999
 20
137.59591099999989
 30
0.0
 40
1.3855360000000001
 50
92.108612999999991
 51
177.876554
  0
ARC
  5
2BA
  8
0
 62
     7
 10
76.682108999999997
 20
137.64742100000001
 30
0.0
 40
1.3334319999999991
 50
180.0074119999999
 51
270.00742100000002
  0
ARC
  5
2BB
  8
0
 62
     7
 10
76.682281000000003
 20
137.6472489999999
 30
0.0
 40
1.333261
 50
270.00002000000001
 51
359.99998999999991
  0
ARC
  5
2BC
  8
0
 62
     7
 10
76.631298000000001
 20
137.5962649999999
 30
0.0
 40
1.3851830000000001
 50
2.109329999999999
 51
87.890659999999997
  0
ARC
  5
2BD
  8
0
 62
     7
 10
74.799722000000003
 20
134.19660799999991
 30
0.0
 40
1.3851990000000001
 50
92.110491000000025
 51
177.90428299999999
  0
ARC
  5
2BE
  8
0
 62
     7
 10
74.748536999999999
 20
134.247435
 30
0.0
 40
1.3330879999999989
 50
180.0074129999999
 51
270.00742300000002
  0
ARC
  5
2BF
  8
0
 62
     7
 10
74.697755000000001
 20
134.29875399999989
 30
0.0
 40
1.385345
 50
272.10789799999992
 51
357.86990299999991
  0
ARC
  5
2C0
  8
0
 62
     7
 10
74.69753399999999
 20
134.19626599999989
 30
0.0
 40
1.385546999999999
 50
2.1093160000000002
 51
87.883273000000003
  0
ARC
  5
2C1
  8
0
 62
     7
 10
74.799696999999995
 20
127.395957
 30
0.0
 40
1.3851869999999999
 50
92.109500999999995
 51
177.890469
  0
ARC
  5
2C2
  8
0
 62
     7
 10
74.748708999999991
 20
127.446945
 30
0.0
 40
1.3332599999999999
 50
179.99996999999991
 51
270.00002000000001
  0
ARC
  5
2C3
  8
0
 62
     7
 10
74.697730000000007
 20
127.4981029999999
 30
0.0
 40
1.3853569999999991
 50
272.10888699999998
 51
357.88372099999998
  0
ARC
  5
2C4
  8
0
 62
     7
 10
74.69789200000001
 20
127.3959499999999
 30
0.0
 40
1.385189
 50
2.109824999999999
 51
87.897567000000009
  0
ARC
  5
2C5
  8
0
 62
     7
 10
76.682108999999997
 20
130.847104
 30
0.0
 40
1.3334330000000001
 50
89.992598000000001
 51
179.992569
  0
ARC
  5
2C6
  8
0
 62
     7
 10
76.732931000000008
 20
130.89828399999999
 30
0.0
 40
1.385194
 50
182.11032199999991
 51
267.90451100000001
  0
ARC
  5
2C7
  8
0
 62
     7
 10
76.631292999999999
 20
130.8982649999999
 30
0.0
 40
1.385187999999999
 50
272.10953799999987
 51
357.89047199999999
  0
ARC
  5
2C8
  8
0
 62
     7
 10
76.682281000000003
 20
130.84727599999991
 30
0.0
 40
1.333261
 50
0.00001
 51
89.999980000000008
  0
ARC
  5
2C9
  8
0
 62
     7
 10
78.666496999999993
 20
127.395957
 30
0.0
 40
1.3851869999999999
 50
92.109500999999995
 51
177.890469
  0
ARC
  5
2CA
  8
0
 62
     7
 10
78.615509000000003
 20
127.446945
 30
0.0
 40
1.3332599999999999
 50
179.99996999999991
 51
270.00002000000001
  0
ARC
  5
2CB
  8
0
 62
     7
 10
78.564520999999999
 20
127.497755
 30
0.0
 40
1.385008999999999
 50
272.10979300000002
 51
357.89762000000002
  0
ARC
  5
2CC
  8
0
 62
     7
 10
78.564358999999996
 20
127.395974
 30
0.0
 40
1.3851770000000001
 50
2.108835
 51
87.883752000000001
  0
ARC
  5
2CD
  8
0
 62
     7
 10
78.666521000000003
 20
134.19660799999991
 30
0.0
 40
1.3851990000000001
 50
92.110491000000025
 51
177.90428299999999
  0
ARC
  5
2CE
  8
0
 62
     7
 10
78.615335999999999
 20
134.247435
 30
0.0
 40
1.3330879999999989
 50
180.0074129999999
 51
270.00742300000002
  0
ARC
  5
2CF
  8
0
 62
     7
 10
78.564544999999995
 20
134.298405
 30
0.0
 40
1.384997
 50
272.10880299999991
 51
357.883803
  0
ARC
  5
2D0
  8
0
 62
     7
 10
78.563999999999993
 20
134.19629
 30
0.0
 40
1.3855349999999991
 50
2.108325999999999
 51
87.869457999999995
  0
ARC
  5
2D1
  8
0
 62
     7
 10
72.815481999999989
 20
144.4472209999999
 30
0.0
 40
1.333604999999999
 50
90.0
 51
179.99996999999991
  0
ARC
  5
2D2
  8
0
 62
     7
 10
72.866142000000011
 20
144.4982389999999
 30
0.0
 40
1.385205
 50
182.1107189999999
 51
267.90411399999988
  0
ARC
  5
2D3
  8
0
 62
     7
 10
72.764488999999998
 20
144.49803600000001
 30
0.0
 40
1.3850139999999991
 50
272.10999099999998
 51
357.89742200000001
  0
ARC
  5
2D4
  8
0
 62
     7
 10
72.815223000000003
 20
144.44747899999999
 30
0.0
 40
1.3333469999999989
 50
359.98890699999993
 51
89.988877000000002
  0
ARC
  5
2D5
  8
0
 62
     7
 10
72.815309999999997
 20
130.847104
 30
0.0
 40
1.3334330000000001
 50
89.992598000000001
 51
179.992569
  0
ARC
  5
2D6
  8
0
 62
     7
 10
72.866131999999993
 20
130.89828399999999
 30
0.0
 40
1.385194
 50
182.11032199999991
 51
267.90451100000001
  0
ARC
  5
2D7
  8
0
 62
     7
 10
72.764488999999998
 20
130.89809099999999
 30
0.0
 40
1.3850139999999991
 50
272.10999099999998
 51
357.89742200000001
  0
ARC
  5
2D8
  8
0
 62
     7
 10
72.815394999999995
 20
130.847362
 30
0.0
 40
1.3331740000000001
 50
359.996308
 51
89.996279000000001
  0
ARC
  5
2D9
  8
0
 62
     7
 10
72.866461000000001
 20
137.59591099999989
 30
0.0
 40
1.3855360000000001
 50
92.108612999999991
 51
177.876554
  0
ARC
  5
2DA
  8
0
 62
     7
 10
72.815308999999985
 20
137.64742100000001
 30
0.0
 40
1.3334319999999991
 50
180.0074119999999
 51
270.00742100000002
  0
ARC
  5
2DB
  8
0
 62
     7
 10
72.815394999999995
 20
137.64716299999989
 30
0.0
 40
1.3331740000000001
 50
270.00372099999998
 51
0.003692
  0
ARC
  5
2DC
  8
0
 62
     7
 10
72.764330999999999
 20
137.59627699999999
 30
0.0
 40
1.3851770000000001
 50
2.108835
 51
87.883752000000001
  0
ARC
  5
2DD
  8
0
 62
     7
 10
88.282507999999993
 20
151.24771000000001
 30
0.0
 40
1.3334330000000001
 50
89.992598000000001
 51
179.992569
  0
ARC
  5
2DE
  8
0
 62
     7
 10
88.282679999999985
 20
151.247882
 30
0.0
 40
1.333604999999999
 50
179.99996999999991
 51
270.00002000000001
  0
ARC
  5
2DF
  8
0
 62
     7
 10
88.282421999999997
 20
151.24762499999991
 30
0.0
 40
1.3333469999999989
 50
270.011123
 51
0.011093
  0
ARC
  5
2E0
  8
0
 62
     7
 10
88.282593999999975
 20
151.2479689999999
 30
0.0
 40
1.3331740000000001
 50
359.996308
 51
89.996279000000001
  0
ARC
  5
2E1
  8
0
 62
     7
 10
84.415536000000003
 20
151.247882
 30
0.0
 40
1.333261
 50
90.0
 51
179.99996999999991
  0
ARC
  5
2E2
  8
0
 62
     7
 10
84.415707999999995
 20
151.24771000000001
 30
0.0
 40
1.3334319999999991
 50
179.992569
 51
269.99261799999988
  0
ARC
  5
2E3
  8
0
 62
     7
 10
84.364532999999994
 20
151.29870700000001
 30
0.0
 40
1.3853690000000001
 50
272.10987599999987
 51
357.897535
  0
ARC
  5
2E4
  8
0
 62
     7
 10
84.364708999999991
 20
151.196877
 30
0.0
 40
1.3851990000000001
 50
2.1102219999999998
 51
87.897171
  0
ARC
  5
2E5
  8
0
 62
     7
 10
86.399923999999999
 20
140.99677099999991
 30
0.0
 40
1.385008
 50
92.109756000000004
 51
177.89761699999991
  0
ARC
  5
2E6
  8
0
 62
     7
 10
86.400085999999988
 20
141.0985499999999
 30
0.0
 40
1.3851759999999991
 50
182.10883799999999
 51
267.88378899999998
  0
ARC
  5
2E7
  8
0
 62
     7
 10
86.297946999999994
 20
141.098568
 30
0.0
 40
1.385187999999999
 50
272.10953799999987
 51
357.89047199999999
  0
ARC
  5
2E8
  8
0
 62
     7
 10
86.297951999999995
 20
140.9965959999999
 30
0.0
 40
1.3851830000000001
 50
2.109329999999999
 51
87.890659999999997
  0
ARC
  5
2E9
  8
0
 62
     7
 10
86.399947999999995
 20
147.797076
 30
0.0
 40
1.3850199999999999
 50
92.110745999999992
 51
177.91143099999991
  0
ARC
  5
2EA
  8
0
 62
     7
 10
86.400095999999991
 20
147.89853299999999
 30
0.0
 40
1.385186
 50
182.10923500000001
 51
267.88339200000001
  0
ARC
  5
2EB
  8
0
 62
     7
 10
86.348935999999995
 20
147.84755200000001
 30
0.0
 40
1.333261
 50
270.00002000000001
 51
359.99998999999991
  0
ARC
  5
2EC
  8
0
 62
     7
 10
86.348763000000005
 20
147.84772399999989
 30
0.0
 40
1.3334330000000001
 50
359.99260800000002
 51
89.992579000000006
  0
ARC
  5
2ED
  8
0
 62
     7
 10
88.282679999999985
 20
144.4472209999999
 30
0.0
 40
1.333604999999999
 50
90.0
 51
179.99996999999991
  0
ARC
  5
2EE
  8
0
 62
     7
 10
88.333340000000007
 20
144.4982389999999
 30
0.0
 40
1.385205
 50
182.1107189999999
 51
267.90411399999988
  0
ARC
  5
2EF
  8
0
 62
     7
 10
88.231686999999994
 20
144.49803600000001
 30
0.0
 40
1.3850139999999991
 50
272.10999099999998
 51
357.89742200000001
  0
ARC
  5
2F0
  8
0
 62
     7
 10
88.282421999999997
 20
144.44747899999999
 30
0.0
 40
1.3333469999999989
 50
359.98890699999993
 51
89.988877000000002
  0
ARC
  5
2F1
  8
0
 62
     7
 10
88.333655000000007
 20
137.5959159999999
 30
0.0
 40
1.385530999999999
 50
92.108413999999996
 51
177.87675300000001
  0
ARC
  5
2F2
  8
0
 62
     7
 10
88.282507999999993
 20
137.64742100000001
 30
0.0
 40
1.3334319999999991
 50
180.0074119999999
 51
270.00742100000002
  0
ARC
  5
2F3
  8
0
 62
     7
 10
88.282593999999975
 20
137.64716299999989
 30
0.0
 40
1.3331740000000001
 50
270.00372099999998
 51
0.003692
  0
ARC
  5
2F4
  8
0
 62
     7
 10
88.231530000000006
 20
137.59627699999999
 30
0.0
 40
1.3851770000000001
 50
2.108835
 51
87.883752000000001
  0
ARC
  5
2F5
  8
0
 62
     7
 10
84.466523999999993
 20
137.59626099999991
 30
0.0
 40
1.3851869999999999
 50
92.109500999999995
 51
177.890469
  0
ARC
  5
2F6
  8
0
 62
     7
 10
84.415536000000003
 20
137.64724799999991
 30
0.0
 40
1.3332599999999999
 50
179.99996999999991
 51
270.00002000000001
  0
ARC
  5
2F7
  8
0
 62
     7
 10
84.364556999999991
 20
137.698407
 30
0.0
 40
1.3853569999999991
 50
272.10888699999998
 51
357.88372099999998
  0
ARC
  5
2F8
  8
0
 62
     7
 10
84.364718999999994
 20
137.59625299999999
 30
0.0
 40
1.385189
 50
2.109824999999999
 51
87.897567000000009
  0
ARC
  5
2F9
  8
0
 62
     7
 10
84.415709000000007
 20
144.44739300000001
 30
0.0
 40
1.3334330000000001
 50
90.007401999999999
 51
180.0074119999999
  0
ARC
  5
2FA
  8
0
 62
     7
 10
84.466529000000008
 20
144.49821399999999
 30
0.0
 40
1.3851919999999991
 50
182.10972899999999
 51
267.89030000000002
  0
ARC
  5
2FB
  8
0
 62
     7
 10
84.364556999999991
 20
144.498379
 30
0.0
 40
1.3853569999999991
 50
272.10888699999998
 51
357.88372099999998
  0
ARC
  5
2FC
  8
0
 62
     7
 10
84.364369999999994
 20
144.39623399999999
 30
0.0
 40
1.385537
 50
2.1089189999999989
 51
87.883669999999995
  0
ARC
  5
2FD
  8
0
 62
     7
 10
86.399947999999995
 20
134.19678699999989
 30
0.0
 40
1.3850199999999999
 50
92.110745999999992
 51
177.91143099999991
  0
ARC
  5
2FE
  8
0
 62
     7
 10
86.399746999999991
 20
134.29825299999999
 30
0.0
 40
1.384838
 50
182.11014099999991
 51
267.89729299999999
  0
ARC
  5
2FF
  8
0
 62
     7
 10
86.349108000000001
 20
134.247435
 30
0.0
 40
1.3330879999999989
 50
269.99261599999988
 51
359.99258700000001
  0
ARC
  5
300
  8
0
 62
     7
 10
86.297593999999989
 20
134.19627800000001
 30
0.0
 40
1.385540999999999
 50
2.1088209999999989
 51
87.876366000000004
  0
ARC
  5
301
  8
0
 62
     7
 10
86.399923999999999
 20
127.396137
 30
0.0
 40
1.385008
 50
92.109756000000004
 51
177.89761699999991
  0
ARC
  5
302
  8
0
 62
     7
 10
86.400095999999991
 20
127.4979269999999
 30
0.0
 40
1.385186
 50
182.10923500000001
 51
267.88339200000001
  0
ARC
  5
303
  8
0
 62
     7
 10
86.348935999999995
 20
127.4469459999999
 30
0.0
 40
1.333261
 50
270.00002000000001
 51
359.99998999999991
  0
ARC
  5
304
  8
0
 62
     7
 10
86.297951999999995
 20
127.395962
 30
0.0
 40
1.3851830000000001
 50
2.109329999999999
 51
87.890659999999997
  0
ARC
  5
305
  8
0
 62
     7
 10
88.282507999999993
 20
130.847104
 30
0.0
 40
1.3334330000000001
 50
89.992598000000001
 51
179.992569
  0
ARC
  5
306
  8
0
 62
     7
 10
88.333330000000004
 20
130.89828399999999
 30
0.0
 40
1.385194
 50
182.11032199999991
 51
267.90451100000001
  0
ARC
  5
307
  8
0
 62
     7
 10
88.231686999999994
 20
130.89809099999999
 30
0.0
 40
1.3850139999999991
 50
272.10999099999998
 51
357.89742200000001
  0
ARC
  5
308
  8
0
 62
     7
 10
88.282593999999975
 20
130.847362
 30
0.0
 40
1.3331740000000001
 50
359.996308
 51
89.996279000000001
  0
ARC
  5
309
  8
0
 62
     7
 10
84.415536000000003
 20
130.84727599999991
 30
0.0
 40
1.333261
 50
90.0
 51
179.99996999999991
  0
ARC
  5
30A
  8
0
 62
     7
 10
84.466518999999991
 20
130.898259
 30
0.0
 40
1.385181999999999
 50
182.10933299999999
 51
267.89069699999999
  0
ARC
  5
30B
  8
0
 62
     7
 10
84.364556999999991
 20
130.89843400000001
 30
0.0
 40
1.3853569999999991
 50
272.10888699999998
 51
357.88372099999998
  0
ARC
  5
30C
  8
0
 62
     7
 10
84.364708999999991
 20
130.79626999999999
 30
0.0
 40
1.3851990000000001
 50
2.1102219999999998
 51
87.897171
  0
ARC
  5
30D
  8
0
 62
     7
 10
80.548908999999995
 20
130.847104
 30
0.0
 40
1.3334330000000001
 50
89.992598000000001
 51
179.992569
  0
ARC
  5
30E
  8
0
 62
     7
 10
80.599731000000006
 20
130.89828399999999
 30
0.0
 40
1.385194
 50
182.11032199999991
 51
267.90451100000001
  0
ARC
  5
30F
  8
0
 62
     7
 10
80.498092
 20
130.8982649999999
 30
0.0
 40
1.385187999999999
 50
272.10953799999987
 51
357.89047199999999
  0
ARC
  5
310
  8
0
 62
     7
 10
80.549081000000001
 20
130.84727599999991
 30
0.0
 40
1.333261
 50
0.00001
 51
89.999980000000008
  0
ARC
  5
311
  8
0
 62
     7
 10
82.533292000000003
 20
127.395962
 30
0.0
 40
1.385181999999999
 50
92.109302999999997
 51
177.89066700000001
  0
ARC
  5
312
  8
0
 62
     7
 10
82.533302000000006
 20
127.4979389999999
 30
0.0
 40
1.3851919999999991
 50
182.10972899999999
 51
267.89030000000002
  0
ARC
  5
313
  8
0
 62
     7
 10
82.431320000000014
 20
127.497755
 30
0.0
 40
1.385008999999999
 50
272.10979300000002
 51
357.89762000000002
  0
ARC
  5
314
  8
0
 62
     7
 10
82.431157999999996
 20
127.395974
 30
0.0
 40
1.3851770000000001
 50
2.108835
 51
87.883752000000001
  0
ARC
  5
315
  8
0
 62
     7
 10
80.549081000000001
 20
144.4472209999999
 30
0.0
 40
1.333604999999999
 50
90.0
 51
179.99996999999991
  0
ARC
  5
316
  8
0
 62
     7
 10
80.599741000000009
 20
144.4982389999999
 30
0.0
 40
1.385205
 50
182.1107189999999
 51
267.90411399999988
  0
ARC
  5
317
  8
0
 62
     7
 10
80.498092
 20
144.49821
 30
0.0
 40
1.385187999999999
 50
272.10953799999987
 51
357.89047199999999
  0
ARC
  5
318
  8
0
 62
     7
 10
80.548907999999997
 20
144.44739300000001
 30
0.0
 40
1.3334330000000001
 50
359.99260800000002
 51
89.992579000000006
  0
ARC
  5
319
  8
0
 62
     7
 10
80.548908999999995
 20
151.24771000000001
 30
0.0
 40
1.3334330000000001
 50
89.992598000000001
 51
179.992569
  0
ARC
  5
31A
  8
0
 62
     7
 10
80.549081000000001
 20
151.247882
 30
0.0
 40
1.333604999999999
 50
179.99996999999991
 51
270.00002000000001
  0
ARC
  5
31B
  8
0
 62
     7
 10
80.548907999999997
 20
151.24771100000001
 30
0.0
 40
1.3334330000000001
 50
270.00742100000002
 51
0.007392
  0
ARC
  5
31C
  8
0
 62
     7
 10
80.549081000000001
 20
151.247882
 30
0.0
 40
1.333261
 50
0.00001
 51
89.999980000000008
  0
ARC
  5
31D
  8
0
 62
     7
 10
80.600060999999997
 20
137.59591099999989
 30
0.0
 40
1.3855360000000001
 50
92.108612999999991
 51
177.876554
  0
ARC
  5
31E
  8
0
 62
     7
 10
80.548907999999997
 20
137.64742100000001
 30
0.0
 40
1.3334319999999991
 50
180.0074119999999
 51
270.00742100000002
  0
ARC
  5
31F
  8
0
 62
     7
 10
80.549081000000001
 20
137.6472489999999
 30
0.0
 40
1.333261
 50
270.00002000000001
 51
359.99998999999991
  0
ARC
  5
320
  8
0
 62
     7
 10
80.498097000000001
 20
137.5962649999999
 30
0.0
 40
1.3851830000000001
 50
2.109329999999999
 51
87.890659999999997
  0
ARC
  5
321
  8
0
 62
     7
 10
82.533315999999999
 20
147.7969019999999
 30
0.0
 40
1.385194
 50
92.110292000000015
 51
177.904481
  0
ARC
  5
322
  8
0
 62
     7
 10
82.533302000000006
 20
147.8985449999999
 30
0.0
 40
1.3851919999999991
 50
182.10972899999999
 51
267.89030000000002
  0
ARC
  5
323
  8
0
 62
     7
 10
82.431320000000014
 20
147.89836099999999
 30
0.0
 40
1.385008999999999
 50
272.10979300000002
 51
357.89762000000002
  0
ARC
  5
324
  8
0
 62
     7
 10
82.430809999999994
 20
147.7965899999999
 30
0.0
 40
1.385524999999999
 50
2.1079300000000001
 51
87.869854000000004
  0
ARC
  5
325
  8
0
 62
     7
 10
82.533292000000003
 20
140.9965959999999
 30
0.0
 40
1.385181999999999
 50
92.109302999999997
 51
177.89066700000001
  0
ARC
  5
326
  8
0
 62
     7
 10
82.533292000000003
 20
141.0985629999999
 30
0.0
 40
1.385181999999999
 50
182.10933299999999
 51
267.89069699999999
  0
ARC
  5
327
  8
0
 62
     7
 10
82.431320000000014
 20
141.09838899999991
 30
0.0
 40
1.385008999999999
 50
272.10979300000002
 51
357.89762000000002
  0
ARC
  5
328
  8
0
 62
     7
 10
82.431157999999996
 20
140.99660800000001
 30
0.0
 40
1.3851770000000001
 50
2.108835
 51
87.883752000000001
  0
ARC
  5
329
  8
0
 62
     7
 10
82.533315999999999
 20
134.1966129999999
 30
0.0
 40
1.385194
 50
92.110292000000015
 51
177.904481
  0
ARC
  5
32A
  8
0
 62
     7
 10
82.532953000000006
 20
134.2982649999999
 30
0.0
 40
1.3848439999999991
 50
182.11063599999989
 51
267.90420099999989
  0
ARC
  5
32B
  8
0
 62
     7
 10
82.431344999999993
 20
134.298405
 30
0.0
 40
1.384997
 50
272.10880299999991
 51
357.883803
  0
ARC
  5
32C
  8
0
 62
     7
 10
82.430800000000005
 20
134.19629
 30
0.0
 40
1.3855349999999991
 50
2.108325999999999
 51
87.869457999999995
  0
ARC
  5
32D
  8
0
 62
     7
 10
88.333679000000004
 20
123.99596099999999
 30
0.0
 40
1.3855420000000001
 50
92.109385999999986
 51
177.89058399999999
  0
ARC
  5
32E
  8
0
 62
     7
 10
88.333689000000007
 20
124.0979679999999
 30
0.0
 40
1.385553
 50
182.109813
 51
267.89021700000001
  0
ARC
  5
32F
  8
0
 62
     7
 10
88.231662999999998
 20
124.09744000000001
 30
0.0
 40
1.3850260000000001
 50
272.11098099999992
 51
357.91123499999998
  0
ARC
  5
330
  8
0
 62
     7
 10
88.231171000000003
 20
123.995987
 30
0.0
 40
1.3855349999999991
 50
2.108325999999999
 51
87.869457999999995
  0
ARC
  5
331
  8
0
 62
     7
 10
72.866484999999997
 20
123.99595600000001
 30
0.0
 40
1.385546999999999
 50
92.109584999999981
 51
177.89038599999989
  0
ARC
  5
332
  8
0
 62
     7
 10
72.866489999999999
 20
124.0979679999999
 30
0.0
 40
1.385553
 50
182.109813
 51
267.89021700000001
  0
ARC
  5
333
  8
0
 62
     7
 10
72.764464000000004
 20
124.09744000000001
 30
0.0
 40
1.3850260000000001
 50
272.11098099999992
 51
357.91123499999998
  0
ARC
  5
334
  8
0
 62
     7
 10
72.763972999999993
 20
123.995987
 30
0.0
 40
1.3855349999999991
 50
2.108325999999999
 51
87.869457999999995
  0
ARC
  5
335
  8
0
 62
     7
 10
80.600083999999995
 20
123.99595600000001
 30
0.0
 40
1.385546999999999
 50
92.109584999999981
 51
177.89038599999989
  0
ARC
  5
336
  8
0
 62
     7
 10
80.600088999999997
 20
124.0979679999999
 30
0.0
 40
1.385553
 50
182.109813
 51
267.89021700000001
  0
ARC
  5
337
  8
0
 62
     7
 10
80.498068000000004
 20
124.09761499999991
 30
0.0
 40
1.3851999999999991
 50
272.11052799999987
 51
357.90428500000002
  0
ARC
  5
338
  8
0
 62
     7
 10
80.497738999999996
 20
123.995975
 30
0.0
 40
1.385540999999999
 50
2.1088209999999989
 51
87.876366000000004
  0
ARC
  5
339
  8
0
 62
     7
 10
84.466549000000001
 20
123.99630399999999
 30
0.0
 40
1.3851990000000001
 50
92.110491000000025
 51
177.90428299999999
  0
ARC
  5
33A
  8
0
 62
     7
 10
84.466878000000008
 20
124.0979429999999
 30
0.0
 40
1.385540999999999
 50
182.10882399999991
 51
267.87640299999993
  0
ARC
  5
33B
  8
0
 62
     7
 10
84.364532999999994
 20
124.0977839999999
 30
0.0
 40
1.3853690000000001
 50
272.10987599999987
 51
357.897535
  0
ARC
  5
33C
  8
0
 62
     7
 10
84.364360999999988
 20
123.9959629999999
 30
0.0
 40
1.385546999999999
 50
2.1093160000000002
 51
87.883273000000003
  0
ARC
  5
33D
  8
0
 62
     7
 10
76.733284999999995
 20
123.76168800000001
 30
0.0
 40
1.385546999999999
 50
92.109584999999981
 51
177.89038599999989
  0
ARC
  5
33E
  8
0
 62
     7
 10
76.681937000000005
 20
123.813036
 30
0.0
 40
1.3332599999999999
 50
180.014815
 51
270.01482499999992
  0
ARC
  5
33F
  8
0
 62
     7
 10
76.68245300000001
 20
123.812864
 30
0.0
 40
1.3330879999999989
 50
269.99261599999988
 51
359.99258700000001
  0
ARC
  5
340
  8
0
 62
     7
 10
76.630938999999984
 20
123.7617069999999
 30
0.0
 40
1.385540999999999
 50
2.1088209999999989
 51
87.876366000000004
  0
ARC
  5
341
  8
0
 62
     7
 10
68.999685999999997
 20
123.99595600000001
 30
0.0
 40
1.385546999999999
 50
92.109584999999981
 51
177.89038599999989
  0
ARC
  5
342
  8
0
 62
     7
 10
68.999690999999984
 20
124.0979679999999
 30
0.0
 40
1.385553
 50
182.109813
 51
267.89021700000001
  0
ARC
  5
343
  8
0
 62
     7
 10
68.897673999999995
 20
124.09778899999991
 30
0.0
 40
1.385373999999999
 50
272.11007499999999
 51
357.89733599999988
  0
ARC
  5
344
  8
0
 62
     7
 10
68.89750699999999
 20
123.9959629999999
 30
0.0
 40
1.385546999999999
 50
2.1093160000000002
 51
87.883273000000003
  0
LINE
  5
345
  8
0
 62
     7
 10
151.256
 20
220.292
 30
0.0
 11
151.256
 21
230.34299999999999
 31
0.0
  0
LINE
  5
346
  8
0
 62
     7
 10
151.256
 20
245.92599999999999
 30
0.0
 11
151.256
 21
235.875
 31
0.0
  0
ARC
  5
347
  8
0
 62
     7
 10
78.444909999999993
 20
128.13342800000001
 30
0.0
 40
38.044963000000003
 50
89.736063000000001
 51
89.898977999999985
  0
ARC
  5
348
  8
0
 62
     7
 10
79.002093000000002
 20
234.410391
 30
0.0
 40
68.233818999999997
 50
269.49776899999989
 51
269.58846199999999
  0
ARC
  5
349
  8
0
 62
     7
 10
78.777874999999995
 20
190.30775600000001
 30
0.0
 40
24.131458999999989
 50
268.858204
 51
269.11222700000002
  0
ARC
  5
34A
  8
0
 62
     7
 10
74.470033000000001
 20
-28.785944000000001
 30
0.0
 40
195.0045879999999
 50
88.875484999999983
 51
88.906870999999995
  0
ARC
  5
34B
  8
0
 62
     7
 10
77.303386000000003
 20
139.60567999999989
 30
0.0
 40
26.592267
 50
88.088883999999979
 51
88.313535999999985
  0
ARC
  5
34C
  8
0
 62
     7
 10
79.108486999999997
 20
200.52421599999991
 30
0.0
 40
34.353009
 50
268.11991499999988
 51
268.29438999999991
  0
ARC
  5
34D
  8
0
 62
     7
 10
77.058817000000005
 20
145.84735000000001
 30
0.0
 40
20.363263
 50
87.403144999999995
 51
87.685969999999983
  0
ARC
  5
34E
  8
0
 62
     7
 10
77.297291000000001
 20
154.196237
 30
0.0
 40
12.011962
 50
87.214618000000002
 51
87.695753999999994
  0
ARC
  5
34F
  8
0
 62
     7
 10
79.826872999999992
 20
200.3899679999999
 30
0.0
 40
34.252681000000003
 50
266.41427099999993
 51
266.57448799999992
  0
ARC
  5
350
  8
0
 62
     7
 10
76.550859000000003
 20
147.943004
 30
0.0
 40
18.296500000000002
 50
86.447267000000011
 51
86.747174999999984
  0
ARC
  5
351
  8
0
 62
     7
 10
80.258605000000003
 20
201.569073
 30
0.0
 40
35.459677999999997
 50
265.53699599999987
 51
265.682433
  0
ARC
  5
352
  8
0
 62
     7
 10
80.936059
 20
213.769724
 30
0.0
 40
47.676836999999999
 50
265.75855299999989
 51
265.86627900000002
  0
ARC
  5
353
  8
0
 62
     7
 10
79.721862000000002
 20
190.78373400000001
 30
0.0
 40
24.668849000000002
 50
264.42942299999987
 51
264.622342
  0
ARC
  5
354
  8
0
 62
     7
 10
80.39460600000001
 20
197.85023000000001
 30
0.0
 40
31.767282000000002
 50
264.30976499999991
 51
264.45898699999998
  0
ARC
  5
355
  8
0
 62
     7
 10
78.503268000000006
 20
177.46448199999989
 30
0.0
 40
11.295315999999991
 50
263.22261500000002
 51
263.60347299999989
  0
ARC
  5
356
  8
0
 62
     7
 10
89.285792999999998
 20
269.43217499999992
 30
0.0
 40
103.89292500000001
 50
263.26178700000003
 51
263.30320599999999
  0
ARC
  5
357
  8
0
 62
     7
 10
74.301373999999996
 20
147.57105300000001
 30
0.0
 40
18.893606999999999
 50
81.494873999999996
 51
81.695003000000014
  0
ARC
  5
358
  8
0
 62
     7
 10
80.740065000000016
 20
191.800926
 30
0.0
 40
25.802462999999999
 50
261.58619599999992
 51
261.73387400000001
  0
ARC
  5
359
  8
0
 62
     7
 10
75.983238
 20
161.14805699999991
 30
0.0
 40
5.2211749999999988
 50
79.166252
 51
79.78726300000001
  0
ARC
  5
35A
  8
0
 62
     7
 10
76.342333999999994
 20
163.38253099999989
 30
0.0
 40
2.9587430000000001
 50
78.95893199999999
 51
80.058097000000004
  0
ARC
  5
35B
  8
0
 62
     7
 10
78.559174999999996
 20
173.46083100000001
 30
0.0
 40
7.3643199999999993
 50
256.23985199999993
 51
256.60521199999999
  0
ARC
  5
35C
  8
0
 62
     7
 10
72.212733
 20
147.52479899999989
 30
0.0
 40
19.336898999999999
 50
76.254048999999995
 51
76.392201999999997
  0
ARC
  5
35D
  8
0
 62
     7
 10
78.951881
 20
172.94561599999989
 30
0.0
 40
6.979121000000001
 50
251.41525300000001
 51
251.71487300000001
  0
ARC
  5
35E
  8
0
 62
     7
 10
76.079971
 20
164.40727699999999
 30
0.0
 40
2.029269999999999
 50
71.389301000000003
 51
72.422869999999989
  0
ARC
  5
35F
  8
0
 62
     7
 10
76.360527000000005
 20
165.73387999999991
 30
0.0
 40
0.6927970000000001
 50
61.341037
 51
63.49489100000001
  0
ARC
  5
360
  8
0
 62
     7
 10
77.170760999999985
 20
167.362877
 30
0.0
 40
1.1265739999999991
 50
242.26380999999989
 51
243.5920549999999
  0
LINE
  5
361
  8
0
 62
     7
 10
76.646500000000003
 20
166.3659999999999
 30
0.0
 11
76.634900000000002
 21
166.3779999999999
 31
0.0
  0
LINE
  5
362
  8
0
 62
     7
 10
76.634900000000002
 20
166.3779999999999
 30
0.0
 11
76.622900000000001
 21
166.3899999999999
 31
0.0
  0
LINE
  5
363
  8
0
 62
     7
 10
76.622900000000001
 20
166.3899999999999
 30
0.0
 11
76.622900000000001
 21
166.40199999999999
 31
0.0
  0
LINE
  5
364
  8
0
 62
     7
 10
76.622900000000001
 20
166.40199999999999
 30
0.0
 11
76.622900000000001
 21
166.41399999999999
 31
0.0
  0
LINE
  5
365
  8
0
 62
     7
 10
76.622900000000001
 20
166.41399999999999
 30
0.0
 11
76.634900000000002
 21
166.4259999999999
 31
0.0
  0
LINE
  5
366
  8
0
 62
     7
 10
76.634900000000002
 20
166.4259999999999
 30
0.0
 11
76.646500000000003
 21
166.4379999999999
 31
0.0
  0
LINE
  5
367
  8
0
 62
     7
 10
76.646500000000003
 20
166.4379999999999
 30
0.0
 11
76.669700000000006
 21
166.4499999999999
 31
0.0
  0
LINE
  5
368
  8
0
 62
     7
 10
76.669700000000006
 20
166.4499999999999
 30
0.0
 11
76.692800000000005
 21
166.46199999999999
 31
0.0
  0
LINE
  5
369
  8
0
 62
     7
 10
76.692800000000005
 20
166.46199999999999
 30
0.0
 11
76.727599999999995
 21
166.4729999999999
 31
0.0
  0
LINE
  5
36A
  8
0
 62
     7
 10
76.727599999999995
 20
166.4729999999999
 30
0.0
 11
76.762200000000007
 21
166.48500000000001
 31
0.0
  0
LINE
  5
36B
  8
0
 62
     7
 10
76.762200000000007
 20
166.48500000000001
 30
0.0
 11
76.807500000000005
 21
166.4959999999999
 31
0.0
  0
LINE
  5
36C
  8
0
 62
     7
 10
76.807500000000005
 20
166.4959999999999
 30
0.0
 11
76.853200000000001
 21
166.50700000000001
 31
0.0
  0
LINE
  5
36D
  8
0
 62
     7
 10
76.853200000000001
 20
166.50700000000001
 30
0.0
 11
76.908999999999992
 21
166.51699999999991
 31
0.0
  0
LINE
  5
36E
  8
0
 62
     7
 10
76.908999999999992
 20
166.51699999999991
 30
0.0
 11
76.964600000000004
 21
166.52699999999999
 31
0.0
  0
LINE
  5
36F
  8
0
 62
     7
 10
76.964600000000004
 20
166.52699999999999
 30
0.0
 11
77.0304
 21
166.53700000000001
 31
0.0
  0
LINE
  5
370
  8
0
 62
     7
 10
77.0304
 20
166.53700000000001
 30
0.0
 11
77.095699999999994
 21
166.547
 31
0.0
  0
LINE
  5
371
  8
0
 62
     7
 10
77.095699999999994
 20
166.547
 30
0.0
 11
77.170299999999997
 21
166.5559999999999
 31
0.0
  0
LINE
  5
372
  8
0
 62
     7
 10
77.170299999999997
 20
166.5559999999999
 30
0.0
 11
77.244900000000001
 21
166.565
 31
0.0
  0
LINE
  5
373
  8
0
 62
     7
 10
77.244900000000001
 20
166.565
 30
0.0
 11
77.327200000000005
 21
166.572
 31
0.0
  0
LINE
  5
374
  8
0
 62
     7
 10
77.327200000000005
 20
166.572
 30
0.0
 11
77.409899999999993
 21
166.58000000000001
 31
0.0
  0
LINE
  5
375
  8
0
 62
     7
 10
77.409899999999993
 20
166.58000000000001
 30
0.0
 11
77.499300000000005
 21
166.58699999999999
 31
0.0
  0
LINE
  5
376
  8
0
 62
     7
 10
77.499300000000005
 20
166.58699999999999
 30
0.0
 11
77.588999999999999
 21
166.59399999999999
 31
0.0
  0
LINE
  5
377
  8
0
 62
     7
 10
77.588999999999999
 20
166.59399999999999
 30
0.0
 11
77.684600000000003
 21
166.59999999999991
 31
0.0
  0
LINE
  5
378
  8
0
 62
     7
 10
77.684600000000003
 20
166.59999999999991
 30
0.0
 11
77.780199999999994
 21
166.60499999999999
 31
0.0
  0
LINE
  5
379
  8
0
 62
     7
 10
77.780199999999994
 20
166.60499999999999
 30
0.0
 11
77.881
 21
166.61000000000001
 31
0.0
  0
LINE
  5
37A
  8
0
 62
     7
 10
77.881
 20
166.61000000000001
 30
0.0
 11
77.981399999999994
 21
166.614
 31
0.0
  0
LINE
  5
37B
  8
0
 62
     7
 10
77.981399999999994
 20
166.614
 30
0.0
 11
78.085999999999999
 21
166.61699999999999
 31
0.0
  0
LINE
  5
37C
  8
0
 62
     7
 10
78.085999999999999
 20
166.61699999999999
 30
0.0
 11
78.190200000000004
 21
166.6209999999999
 31
0.0
  0
LINE
  5
37D
  8
0
 62
     7
 10
78.190200000000004
 20
166.6209999999999
 30
0.0
 11
78.296999999999997
 21
166.62299999999991
 31
0.0
  0
LINE
  5
37E
  8
0
 62
     7
 10
78.296999999999997
 20
166.62299999999991
 30
0.0
 11
78.403999999999996
 21
166.624
 31
0.0
  0
LINE
  5
37F
  8
0
 62
     7
 10
78.403999999999996
 20
166.624
 30
0.0
 11
78.512
 21
166.62499999999989
 31
0.0
  0
LINE
  5
380
  8
0
 62
     7
 10
78.512
 20
166.62499999999989
 30
0.0
 11
78.620199999999997
 21
166.62599999999989
 31
0.0
  0
LINE
  5
381
  8
0
 62
     7
 10
78.620199999999997
 20
166.62599999999989
 30
0.0
 11
78.728200000000001
 21
166.62499999999989
 31
0.0
  0
LINE
  5
382
  8
0
 62
     7
 10
78.728200000000001
 20
166.62499999999989
 30
0.0
 11
78.836500000000001
 21
166.624
 31
0.0
  0
LINE
  5
383
  8
0
 62
     7
 10
78.836500000000001
 20
166.624
 30
0.0
 11
78.943100000000001
 21
166.62299999999991
 31
0.0
  0
LINE
  5
384
  8
0
 62
     7
 10
78.943100000000001
 20
166.62299999999991
 30
0.0
 11
79.0501
 21
166.6209999999999
 31
0.0
  0
LINE
  5
385
  8
0
 62
     7
 10
79.0501
 20
166.6209999999999
 30
0.0
 11
79.154499999999985
 21
166.61699999999999
 31
0.0
  0
LINE
  5
386
  8
0
 62
     7
 10
79.154499999999985
 20
166.61699999999999
 30
0.0
 11
79.258700000000005
 21
166.614
 31
0.0
  0
LINE
  5
387
  8
0
 62
     7
 10
79.258700000000005
 20
166.614
 30
0.0
 11
79.359300000000005
 21
166.61000000000001
 31
0.0
  0
LINE
  5
388
  8
0
 62
     7
 10
79.359300000000005
 20
166.61000000000001
 30
0.0
 11
79.459900000000005
 21
166.60499999999999
 31
0.0
  0
LINE
  5
389
  8
0
 62
     7
 10
79.459900000000005
 20
166.60499999999999
 30
0.0
 11
79.555300000000003
 21
166.59999999999991
 31
0.0
  0
LINE
  5
38A
  8
0
 62
     7
 10
79.555300000000003
 20
166.59999999999991
 30
0.0
 11
79.6511
 21
166.59399999999999
 31
0.0
  0
LINE
  5
38B
  8
0
 62
     7
 10
79.6511
 20
166.59399999999999
 30
0.0
 11
79.740999999999985
 21
166.58699999999999
 31
0.0
  0
LINE
  5
38C
  8
0
 62
     7
 10
79.740999999999985
 20
166.58699999999999
 30
0.0
 11
79.830600000000004
 21
166.58000000000001
 31
0.0
  0
LINE
  5
38D
  8
0
 62
     7
 10
79.830600000000004
 20
166.58000000000001
 30
0.0
 11
79.912800000000004
 21
166.572
 31
0.0
  0
LINE
  5
38E
  8
0
 62
     7
 10
79.912800000000004
 20
166.572
 30
0.0
 11
79.995500000000007
 21
166.565
 31
0.0
  0
LINE
  5
38F
  8
0
 62
     7
 10
79.995500000000007
 20
166.565
 30
0.0
 11
80.069900000000004
 21
166.5559999999999
 31
0.0
  0
LINE
  5
390
  8
0
 62
     7
 10
80.069900000000004
 20
166.5559999999999
 30
0.0
 11
80.144300000000001
 21
166.547
 31
0.0
  0
LINE
  5
391
  8
0
 62
     7
 10
80.144300000000001
 20
166.547
 30
0.0
 11
80.210099999999997
 21
166.53700000000001
 31
0.0
  0
LINE
  5
392
  8
0
 62
     7
 10
80.210099999999997
 20
166.53700000000001
 30
0.0
 11
80.275499999999994
 21
166.52699999999999
 31
0.0
  0
LINE
  5
393
  8
0
 62
     7
 10
80.275499999999994
 20
166.52699999999999
 30
0.0
 11
80.331299999999985
 21
166.51699999999991
 31
0.0
  0
LINE
  5
394
  8
0
 62
     7
 10
80.331299999999985
 20
166.51699999999991
 30
0.0
 11
80.387200000000007
 21
166.50700000000001
 31
0.0
  0
LINE
  5
395
  8
0
 62
     7
 10
80.387200000000007
 20
166.50700000000001
 30
0.0
 11
80.432599999999994
 21
166.4959999999999
 31
0.0
  0
LINE
  5
396
  8
0
 62
     7
 10
80.432599999999994
 20
166.4959999999999
 30
0.0
 11
80.477900000000005
 21
166.48500000000001
 31
0.0
  0
LINE
  5
397
  8
0
 62
     7
 10
80.477900000000005
 20
166.48500000000001
 30
0.0
 11
80.512699999999995
 21
166.4729999999999
 31
0.0
  0
LINE
  5
398
  8
0
 62
     7
 10
80.512699999999995
 20
166.4729999999999
 30
0.0
 11
80.547200000000004
 21
166.46199999999999
 31
0.0
  0
LINE
  5
399
  8
0
 62
     7
 10
80.547200000000004
 20
166.46199999999999
 30
0.0
 11
80.570599999999985
 21
166.4499999999999
 31
0.0
  0
LINE
  5
39A
  8
0
 62
     7
 10
80.570599999999985
 20
166.4499999999999
 30
0.0
 11
80.593500000000006
 21
166.4379999999999
 31
0.0
  0
LINE
  5
39B
  8
0
 62
     7
 10
80.593500000000006
 20
166.4379999999999
 30
0.0
 11
80.605400000000003
 21
166.4259999999999
 31
0.0
  0
LINE
  5
39C
  8
0
 62
     7
 10
80.605400000000003
 20
166.4259999999999
 30
0.0
 11
80.617099999999994
 21
166.41399999999999
 31
0.0
  0
LINE
  5
39D
  8
0
 62
     7
 10
80.617099999999994
 20
166.41399999999999
 30
0.0
 11
80.617099999999994
 21
166.40199999999999
 31
0.0
  0
LINE
  5
39E
  8
0
 62
     7
 10
80.617099999999994
 20
166.40199999999999
 30
0.0
 11
80.617099999999994
 21
166.3899999999999
 31
0.0
  0
LINE
  5
39F
  8
0
 62
     7
 10
80.617099999999994
 20
166.3899999999999
 30
0.0
 11
80.605400000000003
 21
166.3779999999999
 31
0.0
  0
LINE
  5
3A0
  8
0
 62
     7
 10
80.605400000000003
 20
166.3779999999999
 30
0.0
 11
80.593500000000006
 21
166.3659999999999
 31
0.0
  0
ARC
  5
3A1
  8
0
 62
     7
 10
80.086282999999995
 20
167.31544799999989
 30
0.0
 40
1.0766729999999991
 50
296.73340200000001
 51
298.10690899999992
  0
ARC
  5
3A2
  8
0
 62
     7
 10
80.847087000000002
 20
165.78792399999989
 30
0.0
 40
0.6298590000000001
 50
116.03666799999991
 51
118.433599
  0
ARC
  5
3A3
  8
0
 62
     7
 10
81.134311999999994
 20
164.504749
 30
0.0
 40
1.9285959999999991
 50
107.7239779999999
 51
108.8017779999999
  0
ARC
  5
3A4
  8
0
 62
     7
 10
79.025695999999996
 20
170.7555209999999
 30
0.0
 40
4.6682639999999989
 50
288.12484999999992
 51
288.57479399999988
  0
ARC
  5
3A5
  8
0
 62
     7
 10
85.511498000000003
 20
145.535516
 30
0.0
 40
21.384233999999999
 50
103.6143919999999
 51
103.739317
  0
ARC
  5
3A6
  8
0
 62
     7
 10
77.928584000000001
 20
176.537778
 30
0.0
 40
10.531919999999991
 50
283.49972200000002
 51
283.75428399999993
  0
ARC
  5
3A7
  8
0
 62
     7
 10
80.764773999999989
 20
164.10187500000001
 30
0.0
 40
2.227214
 50
99.761364000000015
 51
101.221568
  0
ARC
  5
3A8
  8
0
 62
     7
 10
81.247889999999984
 20
161.18133499999999
 30
0.0
 40
5.186795
 50
100.177967
 51
100.804965
  0
ARC
  5
3A9
  8
0
 62
     7
 10
76.298642000000001
 20
193.035347
 30
0.0
 40
27.05307899999999
 50
278.31319300000001
 51
278.45332200000001
  0
ARC
  5
3AA
  8
0
 62
     7
 10
87.243886000000003
 20
118.05667800000001
 30
0.0
 40
48.720261999999998
 50
98.300860000000014
 51
98.379070999999996
  0
ARC
  5
3AB
  8
0
 62
     7
 10
93.056034999999994
 20
56.567155
 30
0.0
 40
110.44704299999989
 50
96.713475000000017
 51
96.752346000000017
  0
ARC
  5
3AC
  8
0
 62
     7
 10
78.485776000000001
 20
179.60885300000001
 30
0.0
 40
13.454337000000001
 50
276.4425829999999
 51
276.761596
  0
ARC
  5
3AD
  8
0
 62
     7
 10
76.723028999999997
 20
199.233699
 30
0.0
 40
33.156101999999997
 50
275.52061200000003
 51
275.664176
  0
ARC
  5
3AE
  8
0
 62
     7
 10
77.126828000000003
 20
194.69040100000001
 30
0.0
 40
28.595051000000002
 50
275.42565500000001
 51
275.59105499999993
  0
ARC
  5
3AF
  8
0
 62
     7
 10
76.685591000000002
 20
208.64431699999989
 30
0.0
 40
42.537277000000003
 50
274.11909300000008
 51
274.24006600000001
  0
ARC
  5
3B0
  8
0
 62
     7
 10
77.324871999999999
 20
197.15760800000001
 30
0.0
 40
31.034886
 50
274.29868199999999
 51
274.46517199999988
  0
ARC
  5
3B1
  8
0
 62
     7
 10
80.353926999999999
 20
153.55898400000001
 30
0.0
 40
12.67055
 50
93.179728000000011
 51
93.613578999999987
  0
ARC
  5
3B2
  8
0
 62
     7
 10
73.46237099999999
 20
264.70345299999991
 30
0.0
 40
98.687380000000005
 50
273.48419799999999
 51
273.53970699999991
  0
ARC
  5
3B3
  8
0
 62
     7
 10
79.772728999999984
 20
158.040007
 30
0.0
 40
8.1644740000000002
 50
92.195812999999987
 51
92.902479000000014
  0
ARC
  5
3B4
  8
0
 62
     7
 10
80.314581000000004
 20
142.70173099999991
 30
0.0
 40
23.511690000000002
 50
92.328537999999995
 51
92.573909
  0
ARC
  5
3B5
  8
0
 62
     7
 10
78.371888999999996
 20
192.76717600000001
 30
0.0
 40
26.592267
 50
271.686464
 51
271.91111599999999
  0
ARC
  5
3B6
  8
0
 62
     7
 10
80.189352999999997
 20
131.5136399999999
 30
0.0
 40
34.688228000000002
 50
91.709552000000016
 51
91.882056000000006
  0
ARC
  5
3B7
  8
0
 62
     7
 10
81.410075000000006
 20
41.286093999999999
 30
0.0
 40
124.919355
 50
91.082481000000016
 51
91.131552999999997
  0
ARC
  5
3B8
  8
0
 62
     7
 10
78.234093999999999
 20
203.07997499999991
 30
0.0
 40
36.905698999999991
 50
270.93530199999998
 51
271.100864
  0
ARC
  5
3B9
  8
0
 62
     7
 10
78.317548000000002
 20
224.64937499999991
 30
0.0
 40
58.472484999999999
 50
270.40236599999997
 51
270.50853799999987
  0
ARC
  5
3BA
  8
0
 62
     7
 10
78.945278000000002
 20
81.183238000000003
 30
0.0
 40
84.995370999999992
 50
90.146347999999989
 51
90.219154000000017
  0
ARC
  5
3BB
  8
0
 62
     7
 10
120.8765639999999
 20
257.58909299999988
 30
0.0
 40
0.413759
 50
95.610892000000007
 51
178.22270599999999
  0
LINE
  5
3BC
  8
0
 62
     7
 10
120.46299999999989
 20
257.06599999999992
 30
0.0
 11
120.46299999999989
 21
257.60199999999998
 31
0.0
  0
LINE
  5
3BD
  8
0
 62
     7
 10
122.4829999999999
 20
257.77699999999999
 30
0.0
 11
122.4829999999999
 21
252.99499999999989
 31
0.0
  0
LINE
  5
3BE
  8
0
 62
     7
 10
122.4829999999999
 20
208.44099999999989
 30
0.0
 11
122.4829999999999
 21
252.99499999999989
 31
0.0
  0
LINE
  5
3BF
  8
0
 62
     7
 10
150.8549999999999
 20
245.92599999999999
 30
0.0
 11
150.8549999999999
 21
233.10900000000001
 31
0.0
  0
LINE
  5
3C0
  8
0
 62
     7
 10
122.4829999999999
 20
252.99499999999989
 30
0.0
 11
147.02999999999989
 21
250.2299999999999
 31
0.0
  0
ARC
  5
3C1
  8
0
 62
     7
 10
146.373087
 20
245.79368599999989
 30
0.0
 40
4.4843619999999991
 50
1.6961980000000001
 51
81.580551
  0
LINE
  5
3C2
  8
0
 62
     7
 10
120.46299999999989
 20
257.06099999999992
 30
0.0
 11
120.46299999999989
 21
233.10900000000001
 31
0.0
  0
LINE
  5
3C3
  8
0
 62
     7
 10
122.4609999999999
 20
258.10899999999998
 30
0.0
 11
122.4829999999999
 21
257.77699999999999
 31
0.0
  0
LINE
  5
3C4
  8
0
 62
     7
 10
120.836
 20
258.00099999999992
 30
0.0
 11
122.4609999999999
 21
258.10899999999998
 31
0.0
  0
LINE
  5
3C5
  8
0
 62
     7
 10
150.8549999999999
 20
220.292
 30
0.0
 11
150.8549999999999
 21
233.10900000000001
 31
0.0
  0
LINE
  5
3C6
  8
0
 62
     7
 10
122.4879999999999
 20
213.22399999999999
 30
0.0
 11
147.02999999999989
 21
215.989
 31
0.0
  0
ARC
  5
3C7
  8
0
 62
     7
 10
146.37416599999989
 20
220.42447200000001
 30
0.0
 40
4.4832660000000004
 50
278.40758399999987
 51
358.31111099999993
  0
ARC
  5
3C8
  8
0
 62
     7
 10
120.876006
 20
208.62959399999991
 30
0.0
 40
0.414211
 50
181.6695489999999
 51
264.37709799999999
  0
LINE
  5
3C9
  8
0
 62
     7
 10
120.46299999999989
 20
209.1759999999999
 30
0.0
 11
120.46299999999989
 21
233.10900000000001
 31
0.0
  0
LINE
  5
3CA
  8
0
 62
     7
 10
122.4609999999999
 20
208.10900000000001
 30
0.0
 11
122.4829999999999
 21
208.44099999999989
 31
0.0
  0
LINE
  5
3CB
  8
0
 62
     7
 10
120.83499999999999
 20
208.21700000000001
 30
0.0
 11
122.4609999999999
 21
208.10900000000001
 31
0.0
  0
LINE
  5
3CC
  8
0
 62
     7
 10
127.1539999999999
 20
167.20400000000001
 30
0.0
 11
127.117
 21
166.87299999999999
 31
0.0
  0
LINE
  5
3CD
  8
0
 62
     7
 10
123.1789999999999
 20
167.649
 30
0.0
 11
123.142
 21
167.31700000000001
 31
0.0
  0
ARC
  5
3CE
  8
0
 62
     7
 10
121.22981900000001
 20
172.0981929999999
 30
0.0
 40
0.415836
 50
95.887120999999993
 51
181.10783199999989
  0
ARC
  5
3CF
  8
0
 62
     7
 10
20.763394000000002
 20
166.43014700000001
 30
0.0
 40
100.21199300000001
 50
0.866629
 51
3.2376099999999992
  0
ARC
  5
3D0
  8
0
 62
     7
 10
21.136351999999999
 20
166.454902
 30
0.0
 40
99.505181000000007
 50
0.855653
 51
3.4293659999999999
  0
LINE
  5
3D1
  8
0
 62
     7
 10
150.011
 20
99.6648
 30
0.0
 11
149.5439999999999
 21
99.674800000000005
 31
0.0
  0
LINE
  5
3D2
  8
0
 62
     7
 10
151.20099999999999
 20
154.7299999999999
 30
0.0
 11
150.011
 21
99.6648
 31
0.0
  0
ARC
  5
3D3
  8
0
 62
     7
 10
151.3943899999999
 20
153.97043899999991
 30
0.0
 40
0.675913
 50
135.08079599999999
 51
178.48569499999991
  0
LINE
  5
3D4
  8
0
 62
     7
 10
150.7179999999999
 20
153.988
 30
0.0
 11
149.53999999999999
 21
99.487099999999998
 31
0.0
  0
ARC
  5
3D5
  8
0
 62
     7
 10
151.06888099999989
 20
154.35448700000001
 30
0.0
 40
0.675644
 50
135.02750800000001
 51
178.41962399999991
  0
LINE
  5
3D6
  8
0
 62
     7
 10
150.39299999999989
 20
154.37299999999999
 30
0.0
 11
149.21100000000001
 21
99.682100000000005
 31
0.0
  0
ARC
  5
3D7
  8
0
 62
     7
 10
121.26697299999999
 20
73.757429000000002
 30
0.0
 40
0.4163350000000001
 50
173.473973
 51
259.09370599999988
  0
LINE
  5
3D8
  8
0
 62
     7
 10
121.1879999999999
 20
73.348600000000005
 30
0.0
 11
121.22199999999999
 21
73.344800000000006
 31
0.0
  0
LINE
  5
3D9
  8
0
 62
     7
 10
120.85299999999989
 20
73.804699999999997
 30
0.0
 11
121.009
 21
74.857200000000006
 31
0.0
  0
ARC
  5
3DA
  8
0
 62
     7
 10
131.36392199999989
 20
73.174126000000001
 30
0.0
 40
10.490441000000001
 50
120.240495
 51
170.7903179999999
  0
LINE
  5
3DB
  8
0
 62
     7
 10
53.753500000000003
 20
172.13
 30
0.0
 11
53.753500000000003
 21
73.729299999999995
 31
0.0
  0
ARC
  5
3DC
  8
0
 62
     7
 10
66.286641000000003
 20
160.263409
 30
0.0
 40
3.9999539999999998
 50
90.0
 51
179.99996999999991
  0
ARC
  5
3DD
  8
0
 62
     7
 10
66.286552999999998
 20
99.929501000000016
 30
0.0
 40
3.9998669999999992
 50
180.0012439999999
 51
270.00125400000002
  0
LINE
  5
3DE
  8
0
 62
     7
 10
62.28670000000001
 20
160.26299999999989
 30
0.0
 11
62.28670000000001
 21
99.929400000000001
 31
0.0
  0
ARC
  5
3DF
  8
0
 62
     7
 10
61.029733999999991
 20
165.5199649999999
 30
0.0
 40
2.0779580000000002
 50
92.109265000000022
 51
177.88577000000001
  0
LINE
  5
3E0
  8
0
 62
     7
 10
58.953200000000002
 20
165.59700000000001
 30
0.0
 11
58.953200000000002
 21
74.262600000000006
 31
0.0
  0
LINE
  5
3E1
  8
0
 62
     7
 10
53.620100000000001
 20
172.26300000000001
 30
0.0
 11
53.620100000000001
 21
73.596000000000004
 31
0.0
  0
LINE
  5
3E2
  8
0
 62
     7
 10
103.48699999999999
 20
172.13
 30
0.0
 11
103.48699999999999
 21
73.729299999999995
 31
0.0
  0
LINE
  5
3E3
  8
0
 62
     7
 10
94.953599999999994
 20
160.26299999999989
 30
0.0
 11
94.953599999999994
 21
99.929400000000001
 31
0.0
  0
LINE
  5
3E4
  8
0
 62
     7
 10
98.286799999999999
 20
165.59700000000001
 30
0.0
 11
98.286799999999999
 21
74.262600000000006
 31
0.0
  0
LINE
  5
3E5
  8
0
 62
     7
 10
103.62
 20
172.26300000000001
 30
0.0
 11
103.62
 21
73.596000000000004
 31
0.0
  0
ARC
  5
3E6
  8
0
 62
     7
 10
54.445152999999998
 20
172.10490300000001
 30
0.0
 40
0.692137
 50
92.102439000000004
 51
177.91234199999991
  0
ARC
  5
3E7
  8
0
 62
     7
 10
102.79533599999991
 20
172.10470799999999
 30
0.0
 40
0.6923189999999999
 50
2.1032239999999991
 51
87.926376000000005
  0
LINE
  5
3E8
  8
0
 62
     7
 10
102.81999999999999
 20
172.797
 30
0.0
 11
54.419800000000002
 21
172.797
 31
0.0
  0
ARC
  5
3E9
  8
0
 62
     7
 10
54.311976000000001
 20
172.23807400000001
 30
0.0
 40
0.692291
 50
92.100015999999997
 51
177.89995400000001
  0
ARC
  5
3EA
  8
0
 62
     7
 10
102.95379799999991
 20
172.26335599999999
 30
0.0
 40
0.666544
 50
0.007413
 51
90.007384000000016
  0
ARC
  5
3EB
  8
0
 62
     7
 10
90.953765000000004
 20
99.929502999999997
 30
0.0
 40
3.9998680000000002
 50
269.99878599999988
 51
359.99875600000001
  0
LINE
  5
3EC
  8
0
 62
     7
 10
90.953699999999998
 20
95.929599999999994
 30
0.0
 11
66.286600000000007
 21
95.929599999999994
 31
0.0
  0
ARC
  5
3ED
  8
0
 62
     7
 10
90.953679000000008
 20
160.263409
 30
0.0
 40
3.9999539999999998
 50
0.00001
 51
89.999980000000008
  0
LINE
  5
3EE
  8
0
 62
     7
 10
90.953699999999998
 20
164.26300000000001
 30
0.0
 11
66.286600000000007
 21
164.26300000000001
 31
0.0
  0
ARC
  5
3EF
  8
0
 62
     7
 10
96.210407000000004
 20
165.52013099999991
 30
0.0
 40
2.0777849999999991
 50
2.1097919999999988
 51
87.895133000000015
  0
LINE
  5
3F0
  8
0
 62
     7
 10
52.789700000000011
 20
74.257099999999994
 30
0.0
 11
45.71329999999999
 21
74.257099999999994
 31
0.0
  0
LINE
  5
3F1
  8
0
 62
     7
 10
52.789700000000011
 20
167.59700000000001
 30
0.0
 11
45.71329999999999
 21
167.59700000000001
 31
0.0
  0
LINE
  5
3F2
  8
0
 62
     7
 10
96.286699999999996
 20
167.59700000000001
 30
0.0
 11
60.953299999999999
 21
167.59700000000001
 31
0.0
  0
LINE
  5
3F3
  8
0
 62
     7
 10
102.95399999999989
 20
172.93000000000001
 30
0.0
 11
54.2866
 21
172.93000000000001
 31
0.0
  0
ARC
  5
3F4
  8
0
 62
     7
 10
54.445135999999998
 20
73.754673999999994
 30
0.0
 40
0.6921260000000001
 50
182.10107799999989
 51
267.89895200000001
  0
ARC
  5
3F5
  8
0
 62
     7
 10
102.7954779999999
 20
73.754743999999974
 30
0.0
 40
0.692179
 50
272.06228199999993
 51
357.89330699999999
  0
LINE
  5
3F6
  8
0
 62
     7
 10
102.81999999999999
 20
73.063000000000002
 30
0.0
 11
54.419800000000002
 21
73.063000000000002
 31
0.0
  0
ARC
  5
3F7
  8
0
 62
     7
 10
54.312151
 20
73.621337999999994
 30
0.0
 40
0.6924660000000001
 50
182.09922399999991
 51
267.88599900000003
  0
ARC
  5
3F8
  8
0
 62
     7
 10
102.9287829999999
 20
73.620902000000001
 30
0.0
 40
0.692009
 50
272.064503
 51
357.93550699999992
  0
LINE
  5
3F9
  8
0
 62
     7
 10
98.286799999999999
 20
74.262600000000006
 30
0.0
 11
58.953200000000002
 21
74.262600000000006
 31
0.0
  0
LINE
  5
3FA
  8
0
 62
     7
 10
102.95399999999989
 20
72.929299999999998
 30
0.0
 11
54.2866
 21
72.929299999999998
 31
0.0
  0
LINE
  5
3FB
  8
0
 62
     7
 10
122.46299999999989
 20
172.59599999999989
 30
0.0
 11
121.1879999999999
 21
172.51099999999991
 31
0.0
  0
LINE
  5
3FC
  8
0
 62
     7
 10
122.46299999999989
 20
172.93000000000001
 30
0.0
 11
120.836
 21
172.82099999999991
 31
0.0
  0
LINE
  5
3FD
  8
0
 62
     7
 10
120.663
 20
74.790400000000005
 30
0.0
 11
120.663
 21
167.797
 31
0.0
  0
LINE
  5
3FE
  8
0
 62
     7
 10
122.46299999999989
 20
167.72900000000001
 30
0.0
 11
122.46299999999989
 21
172.93000000000001
 31
0.0
  0
LINE
  5
3FF
  8
0
 62
     7
 10
122.46299999999989
 20
72.929299999999998
 30
0.0
 11
122.46299999999989
 21
78.757800000000003
 31
0.0
  0
LINE
  5
400
  8
0
 62
     7
 10
120.4639999999999
 20
73.436099999999996
 30
0.0
 11
120.46299999999989
 21
172.43700000000001
 31
0.0
  0
ARC
  5
401
  8
0
 62
     7
 10
120.881495
 20
73.448729999999983
 30
0.0
 40
0.416184
 50
173.27837700000001
 51
258.94049599999988
  0
LINE
  5
402
  8
0
 62
     7
 10
120.80200000000001
 20
73.040300000000002
 30
0.0
 11
120.837
 21
73.036100000000005
 31
0.0
  0
LINE
  5
403
  8
0
 62
     7
 10
122.46299999999989
 20
73.262100000000004
 30
0.0
 11
121.22199999999999
 21
73.344800000000006
 31
0.0
  0
LINE
  5
404
  8
0
 62
     7
 10
122.4439999999999
 20
72.929299999999998
 30
0.0
 11
120.837
 21
73.036100000000005
 31
0.0
  0
ARC
  5
405
  8
0
 62
     7
 10
131.369674
 20
73.169471000000001
 30
0.0
 40
10.830527
 50
120.2416249999999
 51
170.78197599999999
  0
LINE
  5
406
  8
0
 62
     7
 10
120.4679999999999
 20
73.497399999999999
 30
0.0
 11
120.679
 21
74.904399999999995
 31
0.0
  0
ARC
  5
407
  8
0
 62
     7
 10
120.87763099999999
 20
172.40883400000001
 30
0.0
 40
0.414629
 50
95.747254000000012
 51
180.1677259999999
  0
ARC
  5
408
  8
0
 62
     7
 10
142.74562900000001
 20
99.707830999999999
 30
0.0
 40
6.7980949999999991
 50
300.62178999999992
 51
358.13899199999992
  0
LINE
  5
409
  8
0
 62
     7
 10
146.208
 20
93.857699999999994
 30
0.0
 11
126.027
 21
82.205699999999993
 31
0.0
  0
ARC
  5
40A
  8
0
 62
     7
 10
142.41707500000001
 20
99.902766999999997
 30
0.0
 40
6.7976380000000001
 50
300.61623800000001
 51
358.13935099999992
  0
LINE
  5
40B
  8
0
 62
     7
 10
145.87899999999999
 20
94.052699999999987
 30
0.0
 11
125.8599999999999
 21
82.494399999999985
 31
0.0
  0
ARC
  5
40C
  8
0
 62
     7
 10
121.0326749999999
 20
167.95808299999999
 30
0.0
 40
0.069264
 50
183.99587700000001
 51
261.83319399999999
  0
ARC
  5
40D
  8
0
 62
     7
 10
121.042607
 20
167.96734499999991
 30
0.0
 40
0.413021
 50
183.67751299999989
 51
262.07042899999988
  0
ARC
  5
40E
  8
0
 62
     7
 10
146.711195
 20
160.86071000000001
 30
0.0
 40
4.1331850000000001
 50
4.5476660000000004
 51
82.078279000000009
  0
LINE
  5
40F
  8
0
 62
     7
 10
121.0229999999999
 20
167.8899999999999
 30
0.0
 11
147.28100000000001
 21
164.95400000000001
 31
0.0
  0
ARC
  5
410
  8
0
 62
     7
 10
146.38968700000001
 20
160.55824799999991
 30
0.0
 40
4.1361589999999993
 50
3.4031679999999991
 51
82.00580699999999
  0
LINE
  5
411
  8
0
 62
     7
 10
120.986
 20
167.55799999999999
 30
0.0
 11
146.965
 21
164.654
 31
0.0
  0
LINE
  5
412
  8
0
  6
AIGENLINE001
 62
     7
 10
125.1279999999999
 20
230.90899999999999
 30
0.0
 11
125.1279999999999
 21
235.309
 31
0.0
  0
LINE
  5
413
  8
0
  6
AIGENLINE001
 62
     7
 10
125.28700000000001
 20
168.5
 30
0.0
 11
125.008
 21
166.01300000000001
 31
0.0
  0
LINE
  5
414
  8
0
 62
     7
 10
150.8549999999999
 20
249.44399999999999
 30
0.0
 11
150.8549999999999
 21
245.92599999999999
 31
0.0
  0
LINE
  5
415
  8
0
 62
     7
 10
148.64599999999999
 20
249.70400000000001
 30
0.0
 11
150.8549999999999
 21
249.44399999999999
 31
0.0
  0
LINE
  5
416
  8
0
 62
     7
 10
120.46299999999989
 20
257.05799999999999
 30
0.0
 11
120.46299999999989
 21
257.23200000000003
 31
0.0
  0
LINE
  5
417
  8
0
 62
     7
 10
150.8549999999999
 20
216.7759999999999
 30
0.0
 11
150.8549999999999
 21
220.292
 31
0.0
  0
LINE
  5
418
  8
0
 62
     7
 10
148.64599999999999
 20
216.51499999999999
 30
0.0
 11
150.8549999999999
 21
216.7759999999999
 31
0.0
  0
LINE
  5
419
  8
0
 62
     7
 10
120.46299999999989
 20
209.18000000000001
 30
0.0
 11
120.462
 21
208.61799999999999
 31
0.0
  0
LINE
  5
41A
  8
0
 62
     7
 10
151.70500000000001
 20
155.495
 30
0.0
 11
151.78399999999991
 21
159.69599999999991
 31
0.0
  0
LINE
  5
41B
  8
0
 62
     7
 10
151.209
 20
155.71100000000001
 30
0.0
 11
151.28
 21
159.49199999999999
 31
0.0
  0
LINE
  5
41C
  8
0
  6
AIGENLINE001
 62
     7
 10
153.166
 20
157.59700000000001
 30
0.0
 11
147.87200000000001
 21
157.59700000000001
 31
0.0
  0
LINE
  5
41D
  8
0
  6
AIGENLINE001
 62
     7
 10
152.96299999999999
 20
233.10900000000001
 30
0.0
 11
117.34999999999989
 21
233.10900000000001
 31
0.0
  0
LINE
  5
41E
  8
0
  6
AIGENLINE001
 62
     7
 10
83.843500000000006
 20
157.59700000000001
 30
0.0
 11
73.600099999999983
 21
157.59700000000001
 31
0.0
  0
LINE
  5
41F
  8
0
 62
     7
 10
150.39299999999989
 20
154.37299999999999
 30
0.0
 11
150.51899999999989
 21
160.804
 31
0.0
  0
LINE
  5
420
  8
0
 62
     7
 10
151.5079999999999
 20
155.03399999999999
 30
0.0
 11
150.916
 21
154.44799999999989
 31
0.0
  0
ARC
  5
421
  8
0
 62
     7
 10
151.10643999999991
 20
159.70392799999991
 30
0.0
 40
0.6775520000000002
 50
359.314956
 51
44.174430000000008
  0
ARC
  5
422
  8
0
 62
     7
 10
150.605538
 20
159.50139300000001
 30
0.0
 40
0.674449
 50
359.20613300000002
 51
44.283251999999997
  0
LINE
  5
423
  8
0
 62
     7
 10
151.02199999999999
 20
160.75499999999991
 30
0.0
 11
151.59200000000001
 21
160.17599999999999
 31
0.0
  0
LINE
  5
424
  8
0
 62
     7
 10
150.59100000000001
 20
154.83199999999991
 30
0.0
 11
151.012
 21
155.25
 31
0.0
  0
ARC
  5
425
  8
0
 62
     7
 10
151.03106199999999
 20
155.511225
 30
0.0
 40
0.674519
 50
314.99643199999991
 51
358.65289599999988
  0
ARC
  5
426
  8
0
 62
     7
 10
150.53496200000001
 20
155.726552
 30
0.0
 40
0.6745260000000001
 50
314.99616900000001
 51
358.63766699999991
  0
LINE
  5
427
  8
0
 62
     7
 10
150.71000000000001
 20
160.35699999999991
 30
0.0
 11
151.08799999999999
 21
159.97200000000001
 31
0.0
  0
LINE
  5
428
  8
0
 62
     7
 10
151.71100000000001
 20
155.76400000000001
 30
0.0
 11
151.21000000000001
 21
155.773
 31
0.0
  0
LINE
  5
429
  8
0
 62
     7
 10
151.77899999999991
 20
159.43000000000001
 30
0.0
 11
151.279
 21
159.43899999999991
 31
0.0
  0
ARC
  5
42A
  8
0
 62
     7
 10
78.620333000000002
 20
157.5967159999999
 30
0.0
 40
3.000008999999999
 50
90.003290000000021
 51
180.00329999999991
  0
ARC
  5
42B
  8
0
 62
     7
 10
78.620244999999997
 20
157.59645800000001
 30
0.0
 40
2.9999210000000001
 50
179.99832499999991
 51
269.99837500000001
  0
ARC
  5
42C
  8
0
 62
     7
 10
78.620244999999997
 20
157.596631
 30
0.0
 40
3.0000949999999991
 50
269.99837500000001
 51
359.99834499999997
  0
ARC
  5
42D
  8
0
 62
     7
 10
78.620159000000001
 20
157.59654399999999
 30
0.0
 40
3.0001809999999991
 50
0.00001
 51
89.999980000000008
  0
LINE
  5
42E
  8
0
  6
AIGENLINE001
 62
     7
 10
78.620199999999997
 20
178.67099999999999
 30
0.0
 11
78.620199999999997
 21
65.557500000000005
 31
0.0
  0
ARC
  5
42F
  8
0
 62
     7
 10
151.501981
 20
161.22501800000001
 30
0.0
 40
0.6716100000000002
 50
183.12343899999991
 51
224.369474
  0
ARC
  5
430
  8
0
 62
     7
 10
151.194626
 20
160.82876099999999
 30
0.0
 40
0.676536
 50
182.11641399999999
 51
224.25948999999989
  0
LINE
  5
431
  8
_________2
 62
     7
 10
210.00099999999989
 20
148.482
 30
0.0
 11
188.25099999999989
 21
148.482
 31
0.0
  0
LINE
  5
432
  8
_________2
 62
     7
 10
105.0
 20
16.979900000000001
 30
0.0
 11
105.0
 21
-0.000344512
 31
0.0
  0
LINE
  5
433
  8
_________2
 62
     7
 10
105.0
 20
297.00200000000001
 30
0.0
 11
105.0
 21
279.98200000000003
 31
0.0
  0
LINE
  5
434
  8
_________2
 62
     7
 10
21.749700000000001
 20
148.482
 30
0.0
 11
-0.000689023
 21
148.482
 31
0.0
  0
LINE
  5
435
  8
_________2
 62
     7
 10
81.441199999999995
 20
50.875799999999991
 30
0.0
 11
79.254900000000006
 21
50.875799999999991
 31
0.0
  0
LINE
  5
436
  8
_________2
 62
     7
 10
81.933800000000005
 20
50.875799999999991
 30
0.0
 11
81.681700000000006
 21
50.875799999999991
 31
0.0
  0
LINE
  5
437
  8
_________2
 62
     7
 10
82.426500000000004
 20
50.875799999999991
 30
0.0
 11
85.351399999999998
 21
50.875799999999991
 31
0.0
  0
LINE
  5
438
  8
_________2
 62
     7
 10
81.933800000000005
 20
50.875799999999991
 30
0.0
 11
82.186000000000007
 21
50.875799999999991
 31
0.0
  0
LINE
  5
439
  8
_________2
 62
     7
 10
75.537599999999998
 20
50.875799999999991
 30
0.0
 11
73.350700000000003
 21
50.875799999999991
 31
0.0
  0
LINE
  5
43A
  8
_________2
 62
     7
 10
76.029600000000002
 20
50.875799999999991
 30
0.0
 11
75.778099999999995
 21
50.875799999999991
 31
0.0
  0
LINE
  5
43B
  8
_________2
 62
     7
 10
76.029600000000002
 20
51.368400000000001
 30
0.0
 11
76.029600000000002
 21
53.555399999999999
 31
0.0
  0
LINE
  5
43C
  8
_________2
 62
     7
 10
76.029600000000002
 20
50.875799999999991
 30
0.0
 11
76.029600000000002
 21
51.128
 31
0.0
  0
LINE
  5
43D
  8
_________2
 62
     7
 10
76.522300000000001
 20
50.875799999999991
 30
0.0
 11
78.709199999999996
 21
50.875799999999991
 31
0.0
  0
LINE
  5
43E
  8
_________2
 62
     7
 10
76.029600000000002
 20
50.875799999999991
 30
0.0
 11
76.281800000000004
 21
50.875799999999991
 31
0.0
  0
LINE
  5
43F
  8
_________2
 62
     7
 10
76.029600000000002
 20
50.383800000000001
 30
0.0
 11
76.029600000000002
 21
48.196800000000003
 31
0.0
  0
LINE
  5
440
  8
_________2
 62
     7
 10
76.029600000000002
 20
50.875799999999991
 30
0.0
 11
76.029600000000002
 21
50.624299999999991
 31
0.0
  0
LINE
  5
441
  8
_________2
 62
     7
 10
79.740700000000004
 20
49.656199999999998
 30
0.0
 11
84.918700000000001
 21
48.791499999999999
 31
0.0
  0
LINE
  5
442
  8
_________2
 62
     7
 10
79.740700000000004
 20
52.095300000000002
 30
0.0
 11
84.918700000000001
 21
52.960799999999992
 31
0.0
  0
LINE
  5
443
  8
_________2
 62
     7
 10
84.918700000000001
 20
48.791499999999999
 30
0.0
 11
84.918700000000001
 21
52.960799999999992
 31
0.0
  0
LINE
  5
444
  8
_________2
 62
     7
 10
79.740700000000004
 20
49.656199999999998
 30
0.0
 11
79.740700000000004
 21
52.095300000000002
 31
0.0
  0
ARC
  5
445
  8
_________2
 62
     7
 10
75.983362999999997
 20
50.828812999999997
 30
0.0
 40
1.2673709999999989
 50
2.1232950000000002
 51
87.909056000000007
  0
ARC
  5
446
  8
_________2
 62
     7
 10
76.076526999999999
 20
50.828847000000003
 30
0.0
 40
1.267363
 50
92.121785999999986
 51
177.878185
  0
ARC
  5
447
  8
_________2
 62
     7
 10
76.076526999999999
 20
50.922691999999998
 30
0.0
 40
1.267363
 50
182.12181499999991
 51
267.87821400000001
  0
ARC
  5
448
  8
_________2
 62
     7
 10
75.982714000000001
 20
50.923374000000003
 30
0.0
 40
1.2680439999999991
 50
272.11916400000001
 51
357.84848499999993
  0
ARC
  5
449
  8
_________2
 62
     7
 10
76.029604000000006
 20
50.875768999999998
 30
0.0
 40
2.0849849999999992
 50
0.00001
 51
89.999980000000008
  0
ARC
  5
44A
  8
_________2
 62
     7
 10
76.109640999999996
 20
50.796447000000001
 30
0.0
 40
2.1657860000000002
 50
92.117855000000034
 51
177.90105299999991
  0
ARC
  5
44B
  8
_________2
 62
     7
 10
76.109607999999994
 20
50.955773000000001
 30
0.0
 40
2.1657779999999991
 50
182.11700400000001
 51
267.88302499999992
  0
ARC
  5
44C
  8
_________2
 62
     7
 10
75.949632999999992
 20
50.956456000000003
 30
0.0
 40
2.1664590000000001
 50
272.11546800000002
 51
357.86560400000002
  0
TEXT
  5
44D
  8
_________2
 62
     7
 10
109.30500000000001
 20
22.750499999999992
 30
0.0
 40
3.0923400000000001
  1
図番
 41
0.5
  0
LINE
  5
44E
  8
_________2
 62
     7
 10
108.25
 20
26.979700000000001
 30
0.0
 11
188.25099999999989
 21
26.979700000000001
 31
0.0
  0
TEXT
  5
44F
  8
_________2
 62
     7
 10
109.30500000000001
 20
32.750300000000003
 30
0.0
 40
3.0923400000000001
  1
品番
 41
0.5
  0
TEXT
  5
450
  8
_________2
 62
     7
 10
109.30500000000001
 20
52.889099999999999
 30
0.0
 40
3.0923400000000001
  1
名称
 41
0.5
  0
TEXT
  5
451
  8
_________2
 62
     7
 10
96.545258333333337
 20
47.892999999999986
 30
0.0
 40
3.6545800000000002
  1
mm
 41
0.5
 72
     1
 11
98.067999999999998
 21
47.892999999999986
 31
0.0
  0
TEXT
  5
452
  8
_________2
 62
     7
 10
90.343400000000003
 20
52.889099999999999
 30
0.0
 40
3.0923400000000001
  1
単位
 41
0.5
  0
TEXT
  5
453
  8
_________2
 62
     7
 10
90.343400000000003
 20
40.481900000000003
 30
0.0
 40
3.0923400000000001
  1
尺度
 41
0.5
  0
TEXT
  5
454
  8
_________2
 62
     7
 10
94.639861999999994
 20
34.288899999999991
 30
0.0
 40
3.6545800000000002
  1
1 ： 15
 41
0.5
 72
     1
 11
98.659899999999993
 21
34.288899999999991
 31
0.0
  0
TEXT
  5
455
  8
_________2
 62
     7
 10
140.2146124999999
 20
30.178899999999992
 30
0.0
 40
3.9357000000000002
  1
CEY21580R
 41
0.5
 72
     1
 11
148.24999999999989
 21
30.178899999999992
 31
0.0
  0
TEXT
  5
456
  8
_________2
 62
     7
 10
140.2146124999999
 20
20.1784
 30
0.0
 40
3.9357000000000002
  1
CEY21580R
 41
0.5
 72
     1
 11
148.24999999999989
 21
20.1784
 31
0.0
  0
TEXT
  5
457
  8
_________2
 62
     7
 10
29.286899999999989
 20
21.778300000000002
 30
0.0
 40
3.9357000000000002
  1
満水容量：212L　重量：18.5kg
 41
0.5
  0
TEXT
  5
458
  8
_________2
 62
     7
 10
113.87899999999991
 20
45.296700000000001
 30
0.0
 40
3.9357000000000002
  1
アクリル製 バスタブ（1500サイズ）
 41
0.5
  0
TEXT
  5
459
  8
_________2
 62
     7
 10
44.125500333333328
 20
34.674100000000003
 30
0.0
 40
3.6545800000000002
  1
早川
 41
0.5
 72
     1
 11
46.0137
 21
34.674100000000003
 31
0.0
  0
TEXT
  5
45A
  8
_________2
 62
     7
 10
25.490590666666659
 20
34.674100000000003
 30
0.0
 40
3.6545800000000002
  1
石原
 41
0.5
 72
     1
 11
27.439699999999998
 21
34.674100000000003
 31
0.0
  0
TEXT
  5
45B
  8
_________2
 62
     7
 10
72.486000000000004
 20
34.288899999999991
 30
0.0
 40
3.6545800000000002
  1
12.04.19
 41
0.5
  0
TEXT
  5
45C
  8
_________2
 62
     7
 10
71.293300000000002
 20
40.481900000000003
 30
0.0
 40
3.0923400000000001
  1
日付
 41
0.5
  0
TEXT
  5
45D
  8
_________2
 62
     7
 10
34.33959999999999
 20
40.481900000000003
 30
0.0
 40
3.0923400000000001
  1
検図
 41
0.5
  0
TEXT
  5
45E
  8
_________2
 62
     7
 10
22.7212
 20
26.282499999999992
 30
0.0
 40
3.0923400000000001
  1
備考
 41
0.5
  0
TEXT
  5
45F
  8
_________2
 62
     7
 10
22.7212
 20
40.481900000000003
 30
0.0
 40
3.0923400000000001
  1
製図
 41
0.5
  0
TEXT
  5
460
  8
_________2
 62
     7
 10
28.488665333333341
 20
49.00780000000001
 30
0.0
 40
4.4979399999999989
  1
セラトレーディング株式会社
 41
0.5
 72
     1
 11
45.880699999999997
 21
49.00780000000001
 31
0.0
  0
LINE
  5
461
  8
_________2
 62
     7
 10
188.25099999999989
 20
16.979900000000001
 30
0.0
 11
21.749700000000001
 21
16.979900000000001
 31
0.0
  0
LINE
  5
462
  8
_________2
 62
     7
 10
21.749700000000001
 20
16.979900000000001
 30
0.0
 11
21.749700000000001
 21
279.98200000000003
 31
0.0
  0
LINE
  5
463
  8
_________2
 62
     7
 10
21.749700000000001
 20
279.98200000000003
 30
0.0
 11
188.25099999999989
 21
279.98200000000003
 31
0.0
  0
LINE
  5
464
  8
_________2
 62
     7
 10
188.25099999999989
 20
279.98200000000003
 30
0.0
 11
188.25099999999989
 21
16.979900000000001
 31
0.0
  0
LINE
  5
465
  8
_________2
 62
     7
 10
70.250100000000003
 20
30.48
 30
0.0
 11
70.250100000000003
 21
56.979799999999997
 31
0.0
  0
LINE
  5
466
  8
_________2
 62
     7
 10
89.249899999999997
 20
30.48
 30
0.0
 11
89.249899999999997
 21
56.979799999999997
 31
0.0
  0
LINE
  5
467
  8
_________2
 62
     7
 10
108.25
 20
16.979900000000001
 30
0.0
 11
108.25
 21
56.979799999999997
 31
0.0
  0
LINE
  5
468
  8
_________2
 62
     7
 10
33.249499999999991
 20
30.48
 30
0.0
 11
33.249499999999991
 21
44.4803
 31
0.0
  0
LINE
  5
469
  8
_________2
 62
     7
 10
21.749700000000001
 20
30.48
 30
0.0
 11
108.25
 21
30.48
 31
0.0
  0
LINE
  5
46A
  8
_________2
 62
     7
 10
21.749700000000001
 20
44.4803
 30
0.0
 11
108.25
 21
44.4803
 31
0.0
  0
LINE
  5
46B
  8
_________2
 62
     7
 10
108.25
 20
36.979500000000002
 30
0.0
 11
188.25099999999989
 21
36.979500000000002
 31
0.0
  0
LINE
  5
46C
  8
_________2
 62
     7
 10
21.749700000000001
 20
56.979799999999997
 30
0.0
 11
188.25099999999989
 21
56.979799999999997
 31
0.0
  0
ENDSEC
  0
EOF
