  0
SECTION
  2
HEADER
  9
$ACADVER
  1
AC1009
  9
$INSBASE
 10
0.0
 20
0.0
 30
0.0
  9
$EXTMIN
 10
-0.000689023
 20
-0.000344512
 30
0.0
  9
$EXTMAX
 10
210.00099999999989
 20
297.00200000000001
 30
0.0
  9
$LIMMIN
 10
0.0
 20
0.0
  9
$LIMMAX
 10
12.0
 20
9.0
  9
$ORTHOMODE
 70
     0
  9
$REGENMODE
 70
     1
  9
$FILLMODE
 70
     1
  9
$QTEXTMODE
 70
     0
  9
$MIRRTEXT
 70
     1
  9
$DRAGMODE
 70
     2
  9
$LTSCALE
 40
1.0
  9
$OSMODE
 70
    37
  9
$ATTMODE
 70
     1
  9
$TEXTSIZE
 40
0.0
  9
$TRACEWID
 40
0.05
  9
$TEXTSTYLE
  7
STANDARD
  9
$CLAYER
  8
0
  9
$CELTYPE
  6
CONTINUOUS
  9
$CECOLOR
 62
   256
  9
$DIMSCALE
 40
1.0
  9
$DIMASZ
 40
0.18
  9
$DIMEXO
 40
0.0625
  9
$DIMDLI
 40
0.38
  9
$DIMRND
 40
0.0
  9
$DIMDLE
 40
0.0
  9
$DIMEXE
 40
0.18
  9
$DIMTP
 40
0.0
  9
$DIMTM
 40
0.0
  9
$DIMTXT
 40
0.18
  9
$DIMCEN
 40
0.09
  9
$DIMTSZ
 40
0.0
  9
$DIMTOL
 70
     0
  9
$DIMLIM
 70
     0
  9
$DIMTIH
 70
     1
  9
$DIMTOH
 70
     1
  9
$DIMSE1
 70
     0
  9
$DIMSE2
 70
     0
  9
$DIMTAD
 70
     0
  9
$DIMZIN
 70
     0
  9
$DIMBLK
  1

  9
$DIMASO
 70
     1
  9
$DIMSHO
 70
     1
  9
$DIMPOST
  1

  9
$DIMAPOST
  1

  9
$DIMALT
 70
     0
  9
$DIMALTD
 70
     2
  9
$DIMALTF
 40
25.399999999999999
  9
$DIMLFAC
 40
1.0
  9
$DIMTOFL
 70
     0
  9
$DIMTVP
 40
0.0
  9
$DIMTIX
 70
     0
  9
$DIMSOXD
 70
     0
  9
$DIMSAH
 70
     0
  9
$DIMBLK1
  1

  9
$DIMBLK2
  1

  9
$DIMSTYLE
  2
STANDARD
  9
$DIMCLRD
 70
     0
  9
$DIMCLRE
 70
     0
  9
$DIMCLRT
 70
     0
  9
$DIMTFAC
 40
1.0
  9
$DIMGAP
 40
0.09
  9
$LUNITS
 70
     2
  9
$LUPREC
 70
     4
  9
$SKETCHINC
 40
0.1
  9
$FILLETRAD
 40
0.0
  9
$AUNITS
 70
     0
  9
$AUPREC
 70
     0
  9
$MENU
  1
.
  9
$ELEVATION
 40
0.0
  9
$PELEVATION
 40
0.0
  9
$THICKNESS
 40
0.0
  9
$LIMCHECK
 70
     0
  9
$BLIPMODE
 70
     0
  9
$CHAMFERA
 40
0.0
  9
$CHAMFERB
 40
0.0
  9
$SKPOLY
 70
     0
  9
$TDCREATE
 40
2444972.375
  9
$TDUPDATE
 40
2455980.3559246529
  9
$TDINDWG
 40
0.0000132176
  9
$TDUSRTIMER
 40
0.0000132176
  9
$USRTIMER
 70
     1
  9
$ANGBASE
 50
0.0
  9
$ANGDIR
 70
     0
  9
$PDMODE
 70
     0
  9
$PDSIZE
 40
0.0
  9
$PLINEWID
 40
0.0
  9
$COORDS
 70
     1
  9
$SPLFRAME
 70
     0
  9
$SPLINETYPE
 70
     6
  9
$SPLINESEGS
 70
     8
  9
$ATTDIA
 70
     0
  9
$ATTREQ
 70
     1
  9
$HANDLING
 70
     1
  9
$HANDSEED
  5
497
  9
$SURFTAB1
 70
     6
  9
$SURFTAB2
 70
     6
  9
$SURFTYPE
 70
     6
  9
$SURFU
 70
     6
  9
$SURFV
 70
     6
  9
$UCSNAME
  2

  9
$UCSORG
 10
0.0
 20
0.0
 30
0.0
  9
$UCSXDIR
 10
1.0
 20
0.0
 30
0.0
  9
$UCSYDIR
 10
0.0
 20
1.0
 30
0.0
  9
$PUCSNAME
  2

  9
$PUCSORG
 10
0.0
 20
0.0
 30
0.0
  9
$PUCSXDIR
 10
1.0
 20
0.0
 30
0.0
  9
$PUCSYDIR
 10
0.0
 20
1.0
 30
0.0
  9
$USERI1
 70
     0
  9
$USERI2
 70
     0
  9
$USERI3
 70
     0
  9
$USERI4
 70
     0
  9
$USERI5
 70
     0
  9
$USERR1
 40
0.0
  9
$USERR2
 40
0.0
  9
$USERR3
 40
0.0
  9
$USERR4
 40
0.0
  9
$USERR5
 40
0.0
  9
$WORLDVIEW
 70
     1
  9
$SHADEDGE
 70
     3
  9
$SHADEDIF
 70
    70
  9
$TILEMODE
 70
     1
  9
$MAXACTVP
 70
    48
  9
$PLIMCHECK
 70
     0
  9
$PEXTMIN
 10
1.0000000000000000E+020
 20
1.0000000000000000E+020
 30
1.0000000000000000E+020
  9
$PEXTMAX
 10
-1.0000000000000000E+020
 20
-1.0000000000000000E+020
 30
-1.0000000000000000E+020
  9
$PLIMMIN
 10
0.0
 20
0.0
  9
$PLIMMAX
 10
12.0
 20
9.0
  9
$UNITMODE
 70
     0
  9
$VISRETAIN
 70
     1
  9
$PLINEGEN
 70
     0
  9
$PSLTSCALE
 70
     1
  0
ENDSEC
  0
SECTION
  2
TABLES
  0
TABLE
  2
VPORT
 70
     2
  0
VPORT
  2
*ACTIVE
 70
     0
 10
0.0
 20
0.0
 11
1.0
 21
1.0
 12
210.01058136432829
 22
148.50082774399999
 13
0.0
 23
0.0
 14
1.0
 24
1.0
 15
0.0
 25
0.0
 16
0.0
 26
0.0
 36
1.0
 17
0.0
 27
0.0
 37
0.0
 40
299.24669472241823
 41
2.2894736842105261
 42
50.0
 43
0.0
 44
0.0
 50
0.0
 51
0.0
 71
     0
 72
   100
 73
     1
 74
     1
 75
     0
 76
     0
 77
     0
 78
     0
  0
ENDTAB
  0
TABLE
  2
LTYPE
 70
     2
  0
LTYPE
  2
CONTINUOUS
 70
     0
  3
Solid line
 72
    65
 73
     0
 40
0.0
  0
LTYPE
  2
AIGENLINE001
 70
     0
  3
generate AI->DXF Converter
 72
    65
 73
     4
 40
5.8561449999999988
 49
3.5278
 49
-0.776115
 49
0.776115
 49
-0.776115
  0
ENDTAB
  0
TABLE
  2
LAYER
 70
     2
  0
LAYER
  2
0
 70
     0
 62
     7
  6
CONTINUOUS
  0
LAYER
  2
_________2
 70
     0
 62
     7
  6
CONTINUOUS
  0
ENDTAB
  0
TABLE
  2
STYLE
 70
     1
  0
STYLE
  2
STANDARD
 70
     0
 40
0.0
 41
0.0
 50
0.0
 71
     0
 42
0.0
  3
TXT
  4
EXTFONT.SHX
  0
ENDTAB
  0
TABLE
  2
VIEW
 70
     0
  0
ENDTAB
  0
TABLE
  2
UCS
 70
     0
  0
ENDTAB
  0
TABLE
  2
APPID
 70
     1
  0
APPID
  2
ACAD
 70
     0
  0
ENDTAB
  0
TABLE
  2
DIMSTYLE
 70
     1
  0
DIMSTYLE
  2
STANDARD
 70
     0
  3

  4

  5

  6

  7

 40
1.0
 41
0.18
 42
0.0625
 43
0.38
 44
0.18
 45
0.0
 46
0.0
 47
0.0
 48
0.0
140
0.18
141
0.09
142
0.0
143
25.399999999999999
144
1.0
145
0.0
146
1.0
147
0.09
 71
     0
 72
     0
 73
     1
 74
     1
 75
     0
 76
     0
 77
     0
 78
     0
170
     0
171
     2
172
     0
173
     0
174
     0
175
     0
176
     0
177
     0
178
     0
  0
ENDTAB
  0
ENDSEC
  0
SECTION
  2
BLOCKS
  0
BLOCK
  8
0
  2
$MODEL_SPACE
 70
     0
 10
0.0
 20
0.0
 30
0.0
  3
$MODEL_SPACE
  1

  0
ENDBLK
  5
1A
  8
0
  0
BLOCK
 67
     1
  8
0
  2
$PAPER_SPACE
 70
     0
 10
0.0
 20
0.0
 30
0.0
  3
$PAPER_SPACE
  1

  0
ENDBLK
  5
17
 67
     1
  8
0
  0
ENDSEC
  0
SECTION
  2
ENTITIES
  0
TEXT
  5
22
  8
0
 62
     7
 10
61.784880000000001
 20
165.10299999999989
 30
0.0
 40
3.0923400000000001
  1
%%c44
 41
0.5
 72
     2
 11
65.908000000000001
 21
165.10299999999989
 31
0.0
  0
TEXT
  5
23
  8
0
 62
     7
 10
81.321279999999987
 20
160.36600000000001
 30
0.0
 40
3.0923400000000001
  1
%%c55
 41
0.5
 72
     2
 11
85.444399999999987
 21
160.36600000000001
 31
0.0
  0
TEXT
  5
24
  8
0
 62
     7
 10
81.978999999999999
 20
69.807010000000005
 30
0.0
 40
3.0923400000000001
  1
A
 50
90.0
 41
0.5
 72
     1
 11
81.978999999999999
 21
70.322400000000002
 31
0.0
  0
TEXT
  5
25
  8
0
 62
     7
 10
81.978999999999999
 20
183.6126099999999
 30
0.0
 40
3.0923400000000001
  1
A
 50
90.0
 41
0.5
 72
     1
 11
81.978999999999999
 21
184.1279999999999
 31
0.0
  0
TEXT
  5
26
  8
0
 62
     7
 10
179.98099999999991
 20
125.79044
 30
0.0
 40
3.0923400000000001
  1
A-A
 50
90.0
 41
0.5
 72
     1
 11
179.98099999999991
 21
127.852
 31
0.0
  0
LINE
  5
27
  8
0
 62
     7
 10
107.30500000000001
 20
166.798
 30
0.0
 11
107.89699999999991
 21
164.5859999999999
 31
0.0
  0
LINE
  5
28
  8
0
 62
     7
 10
107.89699999999991
 20
164.5859999999999
 30
0.0
 11
108.4899999999999
 21
166.798
 31
0.0
  0
LINE
  5
29
  8
0
 62
     7
 10
108.4899999999999
 20
166.798
 30
0.0
 11
107.30500000000001
 21
166.798
 31
0.0
  0
LINE
  5
2A
  8
0
 62
     7
 10
108.47499999999989
 20
179.041
 30
0.0
 11
107.8829999999999
 21
181.2529999999999
 31
0.0
  0
LINE
  5
2B
  8
0
 62
     7
 10
107.8829999999999
 20
181.2529999999999
 30
0.0
 11
107.29000000000001
 21
179.041
 31
0.0
  0
LINE
  5
2C
  8
0
 62
     7
 10
107.29000000000001
 20
179.041
 30
0.0
 11
108.47499999999989
 21
179.041
 31
0.0
  0
LINE
  5
2D
  8
0
 62
     7
 10
107.8899999999999
 20
164.58699999999999
 30
0.0
 11
107.8899999999999
 21
181.25099999999989
 31
0.0
  0
TEXT
  5
2E
  8
0
 62
     7
 10
107.19
 20
170.98628749999989
 30
0.0
 40
3.0923400000000001
  1
250
 50
90.0
 41
0.5
 72
     1
 11
107.19
 21
172.91900000000001
 31
0.0
  0
LINE
  5
2F
  8
0
 62
     7
 10
108.583
 20
164.5859999999999
 30
0.0
 11
79.490899999999996
 21
164.5859999999999
 31
0.0
  0
LINE
  5
30
  8
0
 62
     7
 10
108.583
 20
181.2529999999999
 30
0.0
 11
101.70099999999999
 21
181.2529999999999
 31
0.0
  0
LINE
  5
31
  8
0
 62
     7
 10
41.9786
 20
179.042
 30
0.0
 11
41.386000000000003
 21
181.25399999999999
 31
0.0
  0
LINE
  5
32
  8
0
 62
     7
 10
41.386000000000003
 20
181.25399999999999
 30
0.0
 11
40.793500000000002
 21
179.042
 31
0.0
  0
LINE
  5
33
  8
0
 62
     7
 10
40.793500000000002
 20
179.042
 30
0.0
 11
41.9786
 21
179.042
 31
0.0
  0
LINE
  5
34
  8
0
 62
     7
 10
40.807899999999989
 20
174.797
 30
0.0
 11
41.400500000000001
 21
172.58500000000001
 31
0.0
  0
LINE
  5
35
  8
0
 62
     7
 10
41.400500000000001
 20
172.58500000000001
 30
0.0
 11
41.993099999999991
 21
174.797
 31
0.0
  0
LINE
  5
36
  8
0
 62
     7
 10
41.993099999999991
 20
174.797
 30
0.0
 11
40.807899999999989
 21
174.797
 31
0.0
  0
LINE
  5
37
  8
0
 62
     7
 10
41.393300000000004
 20
181.2529999999999
 30
0.0
 11
41.393300000000004
 21
172.5859999999999
 31
0.0
  0
ARC
  5
38
  8
0
 62
     7
 10
51.310369999999999
 20
172.58607799999999
 30
0.0
 40
1.9333999999999989
 50
270.00002000000001
 51
359.99998999999991
  0
ARC
  5
39
  8
0
 62
     7
 10
51.310369999999999
 20
172.5860769999999
 30
0.0
 40
1.9333990000000001
 50
179.99996999999991
 51
270.00002000000001
  0
ARC
  5
3A
  8
0
 62
     7
 10
51.310371000000004
 20
172.5860769999999
 30
0.0
 40
1.9333999999999989
 50
90.0
 51
179.99996999999991
  0
ARC
  5
3B
  8
0
 62
     7
 10
51.310369999999999
 20
172.5860769999999
 30
0.0
 40
1.9333999999999989
 50
0.00001
 51
89.999980000000008
  0
LINE
  5
3C
  8
0
  6
AIGENLINE001
 62
     7
 10
165.99000000000001
 20
247.52600000000001
 30
0.0
 11
155.02500000000001
 21
247.52600000000001
 31
0.0
  0
LINE
  5
3D
  8
0
  6
AIGENLINE001
 62
     7
 10
165.99000000000001
 20
227.5259999999999
 30
0.0
 11
155.02500000000001
 21
227.5259999999999
 31
0.0
  0
LINE
  5
3E
  8
0
  6
AIGENLINE001
 62
     7
 10
123.56100000000001
 20
237.5259999999999
 30
0.0
 11
159.23099999999991
 21
237.5259999999999
 31
0.0
  0
LINE
  5
3F
  8
0
  6
AIGENLINE001
 62
     7
 10
166.0509999999999
 20
102.581
 30
0.0
 11
153.0379999999999
 21
102.581
 31
0.0
  0
LINE
  5
40
  8
0
  6
AIGENLINE001
 62
     7
 10
166.37999999999991
 20
155.91499999999991
 30
0.0
 11
153.65299999999991
 21
155.91499999999991
 31
0.0
  0
LINE
  5
41
  8
0
  6
AIGENLINE001
 62
     7
 10
44.516800000000003
 20
127.852
 30
0.0
 11
103.6909999999999
 21
127.852
 31
0.0
  0
LINE
  5
42
  8
0
  6
AIGENLINE001
 62
     7
 10
153.90000000000001
 20
164.5859999999999
 30
0.0
 11
159.685
 21
164.5859999999999
 31
0.0
  0
LINE
  5
43
  8
0
  6
AIGENLINE001
 62
     7
 10
69.774000000000001
 20
164.5859999999999
 30
0.0
 11
78.581100000000006
 21
164.5859999999999
 31
0.0
  0
LINE
  5
44
  8
0
  6
AIGENLINE001
 62
     7
 10
74.110299999999995
 20
67.675200000000004
 30
0.0
 11
74.110299999999995
 21
186.26900000000001
 31
0.0
  0
LINE
  5
45
  8
0
 62
     7
 10
173.32900000000001
 20
229.739
 30
0.0
 11
173.92199999999991
 21
227.52699999999999
 31
0.0
  0
LINE
  5
46
  8
0
 62
     7
 10
173.92199999999991
 20
227.52699999999999
 30
0.0
 11
174.51400000000001
 21
229.739
 31
0.0
  0
LINE
  5
47
  8
0
 62
     7
 10
174.51400000000001
 20
229.739
 30
0.0
 11
173.32900000000001
 21
229.739
 31
0.0
  0
LINE
  5
48
  8
0
 62
     7
 10
173.33699999999999
 20
249.73699999999999
 30
0.0
 11
173.929
 21
247.52499999999989
 31
0.0
  0
LINE
  5
49
  8
0
 62
     7
 10
173.929
 20
247.52499999999989
 30
0.0
 11
174.52199999999999
 21
249.73699999999999
 31
0.0
  0
LINE
  5
4A
  8
0
 62
     7
 10
174.52199999999999
 20
249.73699999999999
 30
0.0
 11
173.33699999999999
 21
249.73699999999999
 31
0.0
  0
LINE
  5
4B
  8
0
 62
     7
 10
174.50700000000001
 20
261.98200000000003
 30
0.0
 11
173.91499999999991
 21
264.19400000000002
 31
0.0
  0
LINE
  5
4C
  8
0
 62
     7
 10
173.91499999999991
 20
264.19400000000002
 30
0.0
 11
173.322
 21
261.98200000000003
 31
0.0
  0
LINE
  5
4D
  8
0
 62
     7
 10
173.322
 20
261.98200000000003
 30
0.0
 11
174.50700000000001
 21
261.98200000000003
 31
0.0
  0
LINE
  5
4E
  8
0
 62
     7
 10
173.92199999999991
 20
227.52699999999999
 30
0.0
 11
173.92199999999991
 21
264.19299999999993
 31
0.0
  0
LINE
  5
4F
  8
0
 62
     7
 10
128.13499999999991
 20
264.19299999999993
 30
0.0
 11
174.62200000000001
 21
264.19299999999993
 31
0.0
  0
LINE
  5
50
  8
0
 62
     7
 10
166.69
 20
247.52600000000001
 30
0.0
 11
174.62200000000001
 21
247.52600000000001
 31
0.0
  0
LINE
  5
51
  8
0
 62
     7
 10
167.44
 20
227.5259999999999
 30
0.0
 11
174.6879999999999
 21
227.5259999999999
 31
0.0
  0
LINE
  5
52
  8
0
 62
     7
 10
173.33699999999999
 20
213.06999999999999
 30
0.0
 11
173.929
 21
210.85799999999989
 31
0.0
  0
LINE
  5
53
  8
0
 62
     7
 10
173.929
 20
210.85799999999989
 30
0.0
 11
174.52199999999999
 21
213.06999999999999
 31
0.0
  0
LINE
  5
54
  8
0
 62
     7
 10
174.52199999999999
 20
213.06999999999999
 30
0.0
 11
173.33699999999999
 21
213.06999999999999
 31
0.0
  0
LINE
  5
55
  8
0
 62
     7
 10
174.52199999999999
 20
245.3129999999999
 30
0.0
 11
173.929
 21
247.52499999999989
 31
0.0
  0
LINE
  5
56
  8
0
 62
     7
 10
173.929
 20
247.52499999999989
 30
0.0
 11
173.33699999999999
 21
245.3129999999999
 31
0.0
  0
LINE
  5
57
  8
0
 62
     7
 10
173.33699999999999
 20
245.3129999999999
 30
0.0
 11
174.52199999999999
 21
245.3129999999999
 31
0.0
  0
LINE
  5
58
  8
0
 62
     7
 10
174.50700000000001
 20
225.315
 30
0.0
 11
173.91499999999991
 21
227.52699999999999
 31
0.0
  0
LINE
  5
59
  8
0
 62
     7
 10
173.91499999999991
 20
227.52699999999999
 30
0.0
 11
173.322
 21
225.315
 31
0.0
  0
LINE
  5
5A
  8
0
 62
     7
 10
173.322
 20
225.315
 30
0.0
 11
174.50700000000001
 21
225.315
 31
0.0
  0
LINE
  5
5B
  8
0
 62
     7
 10
173.92199999999991
 20
210.8589999999999
 30
0.0
 11
173.92199999999991
 21
227.5259999999999
 31
0.0
  0
LINE
  5
5C
  8
0
 62
     7
 10
128.1339999999999
 20
210.8589999999999
 30
0.0
 11
174.62200000000001
 21
210.8589999999999
 31
0.0
  0
LINE
  5
5D
  8
0
 62
     7
 10
56.322200000000002
 20
190.328
 30
0.0
 11
54.110399999999991
 21
189.73500000000001
 31
0.0
  0
LINE
  5
5E
  8
0
 62
     7
 10
54.110399999999991
 20
189.73500000000001
 30
0.0
 11
56.322200000000002
 21
189.14299999999989
 31
0.0
  0
LINE
  5
5F
  8
0
 62
     7
 10
56.322200000000002
 20
189.14299999999989
 30
0.0
 11
56.322200000000002
 21
190.328
 31
0.0
  0
LINE
  5
60
  8
0
 62
     7
 10
51.898600000000002
 20
189.14299999999989
 30
0.0
 11
54.110399999999991
 21
189.73500000000001
 31
0.0
  0
LINE
  5
61
  8
0
 62
     7
 10
54.110399999999991
 20
189.73500000000001
 30
0.0
 11
51.898600000000002
 21
190.328
 31
0.0
  0
LINE
  5
62
  8
0
 62
     7
 10
51.898600000000002
 20
190.328
 30
0.0
 11
51.898600000000002
 21
189.14299999999989
 31
0.0
  0
LINE
  5
63
  8
0
 62
     7
 10
96.322400000000016
 20
190.328
 30
0.0
 11
94.110600000000005
 21
189.73500000000001
 31
0.0
  0
LINE
  5
64
  8
0
 62
     7
 10
94.110600000000005
 20
189.73500000000001
 30
0.0
 11
96.322400000000016
 21
189.14299999999989
 31
0.0
  0
LINE
  5
65
  8
0
 62
     7
 10
96.322400000000016
 20
189.14299999999989
 30
0.0
 11
96.322400000000016
 21
190.328
 31
0.0
  0
LINE
  5
66
  8
0
 62
     7
 10
49.6541
 20
190.32099999999991
 30
0.0
 11
47.442399999999999
 21
189.72799999999989
 31
0.0
  0
LINE
  5
67
  8
0
 62
     7
 10
47.442399999999999
 20
189.72799999999989
 30
0.0
 11
49.6541
 21
189.13499999999991
 31
0.0
  0
LINE
  5
68
  8
0
 62
     7
 10
49.6541
 20
189.13499999999991
 30
0.0
 11
49.6541
 21
190.32099999999991
 31
0.0
  0
LINE
  5
69
  8
0
 62
     7
 10
91.898799999999994
 20
189.14299999999989
 30
0.0
 11
94.110600000000005
 21
189.73500000000001
 31
0.0
  0
LINE
  5
6A
  8
0
 62
     7
 10
94.110600000000005
 20
189.73500000000001
 30
0.0
 11
91.898799999999994
 21
190.328
 31
0.0
  0
LINE
  5
6B
  8
0
 62
     7
 10
91.898799999999994
 20
190.328
 30
0.0
 11
91.898799999999994
 21
189.14299999999989
 31
0.0
  0
LINE
  5
6C
  8
0
 62
     7
 10
98.566500000000005
 20
189.15000000000001
 30
0.0
 11
100.77799999999991
 21
189.74299999999991
 31
0.0
  0
LINE
  5
6D
  8
0
 62
     7
 10
100.77799999999991
 20
189.74299999999991
 30
0.0
 11
98.566500000000005
 21
190.33500000000001
 31
0.0
  0
LINE
  5
6E
  8
0
 62
     7
 10
98.566500000000005
 20
190.33500000000001
 30
0.0
 11
98.566500000000005
 21
189.15000000000001
 31
0.0
  0
LINE
  5
6F
  8
0
 62
     7
 10
55.1753
 20
162.20400000000001
 30
0.0
 11
40.874600000000001
 21
162.20400000000001
 31
0.0
  0
LINE
  5
70
  8
0
 62
     7
 10
47.443699999999993
 20
189.73500000000001
 30
0.0
 11
100.777
 21
189.73500000000001
 31
0.0
  0
LINE
  5
71
  8
0
 62
     7
 10
94.110600000000005
 20
173.999
 30
0.0
 11
94.110600000000005
 21
190.43499999999989
 31
0.0
  0
LINE
  5
72
  8
0
 62
     7
 10
54.110399999999991
 20
174.77799999999991
 30
0.0
 11
54.110399999999991
 21
190.43499999999989
 31
0.0
  0
LINE
  5
73
  8
0
 62
     7
 10
127.5779999999999
 20
164.07400000000001
 30
0.0
 11
125.3659999999999
 21
163.48099999999991
 31
0.0
  0
LINE
  5
74
  8
0
 62
     7
 10
125.3659999999999
 20
163.48099999999991
 30
0.0
 11
127.5779999999999
 21
162.88800000000001
 31
0.0
  0
LINE
  5
75
  8
0
 62
     7
 10
127.5779999999999
 20
162.88800000000001
 30
0.0
 11
127.5779999999999
 21
164.07400000000001
 31
0.0
  0
LINE
  5
76
  8
0
 62
     7
 10
153.8239999999999
 20
162.90299999999999
 30
0.0
 11
156.036
 21
163.495
 31
0.0
  0
LINE
  5
77
  8
0
 62
     7
 10
156.036
 20
163.495
 30
0.0
 11
153.8239999999999
 21
164.08799999999991
 31
0.0
  0
LINE
  5
78
  8
0
 62
     7
 10
153.8239999999999
 20
164.08799999999991
 30
0.0
 11
153.8239999999999
 21
162.90299999999999
 31
0.0
  0
LINE
  5
79
  8
0
 62
     7
 10
125.3679999999999
 20
163.488
 30
0.0
 11
156.03499999999991
 21
163.488
 31
0.0
  0
LINE
  5
7A
  8
0
 62
     7
 10
127.5779999999999
 20
194.04900000000001
 30
0.0
 11
125.3659999999999
 21
193.4559999999999
 31
0.0
  0
LINE
  5
7B
  8
0
 62
     7
 10
125.3659999999999
 20
193.4559999999999
 30
0.0
 11
127.5779999999999
 21
192.864
 31
0.0
  0
LINE
  5
7C
  8
0
 62
     7
 10
127.5779999999999
 20
192.864
 30
0.0
 11
127.5779999999999
 21
194.04900000000001
 31
0.0
  0
LINE
  5
7D
  8
0
 62
     7
 10
163.15700000000001
 20
192.8779999999999
 30
0.0
 11
165.369
 21
193.47099999999989
 31
0.0
  0
LINE
  5
7E
  8
0
 62
     7
 10
165.369
 20
193.47099999999989
 30
0.0
 11
163.15700000000001
 21
194.06399999999999
 31
0.0
  0
LINE
  5
7F
  8
0
 62
     7
 10
163.15700000000001
 20
194.06399999999999
 30
0.0
 11
163.15700000000001
 21
192.8779999999999
 31
0.0
  0
LINE
  5
80
  8
0
 62
     7
 10
125.3679999999999
 20
193.464
 30
0.0
 11
165.36799999999999
 21
193.464
 31
0.0
  0
LINE
  5
81
  8
0
 62
     7
 10
165.36799999999999
 20
158.173
 30
0.0
 11
165.36799999999999
 21
194.16399999999999
 31
0.0
  0
LINE
  5
82
  8
0
 62
     7
 10
51.310400000000001
 20
161.50399999999999
 30
0.0
 11
51.310400000000001
 21
168.47200000000001
 31
0.0
  0
LINE
  5
83
  8
0
 62
     7
 10
125.3679999999999
 20
181.619
 30
0.0
 11
125.3679999999999
 21
194.16399999999999
 31
0.0
  0
LINE
  5
84
  8
0
 62
     7
 10
174.62200000000001
 20
102.581
 30
0.0
 11
167.08000000000001
 21
102.581
 31
0.0
  0
LINE
  5
85
  8
0
 62
     7
 10
173.32900000000001
 20
76.793000000000006
 30
0.0
 11
173.92199999999991
 21
74.5809
 31
0.0
  0
LINE
  5
86
  8
0
 62
     7
 10
173.92199999999991
 20
74.5809
 30
0.0
 11
174.51400000000001
 21
76.793000000000006
 31
0.0
  0
LINE
  5
87
  8
0
 62
     7
 10
174.51400000000001
 20
76.793000000000006
 30
0.0
 11
173.32900000000001
 21
76.793000000000006
 31
0.0
  0
LINE
  5
88
  8
0
 62
     7
 10
173.33699999999999
 20
104.7919999999999
 30
0.0
 11
173.929
 21
102.58
 31
0.0
  0
LINE
  5
89
  8
0
 62
     7
 10
173.929
 20
102.58
 30
0.0
 11
174.52199999999999
 21
104.7919999999999
 31
0.0
  0
LINE
  5
8A
  8
0
 62
     7
 10
174.52199999999999
 20
104.7919999999999
 30
0.0
 11
173.33699999999999
 21
104.7919999999999
 31
0.0
  0
TEXT
  5
8B
  8
0
 62
     7
 10
173.22200000000001
 20
86.648187500000006
 30
0.0
 40
3.0923400000000001
  1
420
 50
90.0
 41
0.5
 72
     1
 11
173.22200000000001
 21
88.5809
 31
0.0
  0
TEXT
  5
8C
  8
0
 62
     7
 10
173.22200000000001
 20
127.4441349999999
 30
0.0
 40
3.0923400000000001
  1
800
 50
90.0
 41
0.5
 72
     1
 11
173.22200000000001
 21
129.24799999999991
 31
0.0
  0
LINE
  5
8D
  8
0
 62
     7
 10
174.62200000000001
 20
155.91499999999991
 30
0.0
 11
167.08000000000001
 21
155.91499999999991
 31
0.0
  0
LINE
  5
8E
  8
0
 62
     7
 10
173.33699999999999
 20
158.126
 30
0.0
 11
173.929
 21
155.91399999999999
 31
0.0
  0
LINE
  5
8F
  8
0
 62
     7
 10
173.929
 20
155.91399999999999
 30
0.0
 11
174.52199999999999
 21
158.126
 31
0.0
  0
LINE
  5
90
  8
0
 62
     7
 10
174.52199999999999
 20
158.126
 30
0.0
 11
173.33699999999999
 21
158.126
 31
0.0
  0
LINE
  5
91
  8
0
 62
     7
 10
174.52199999999999
 20
100.367
 30
0.0
 11
173.929
 21
102.58
 31
0.0
  0
LINE
  5
92
  8
0
 62
     7
 10
173.929
 20
102.58
 30
0.0
 11
173.33699999999999
 21
100.367
 31
0.0
  0
LINE
  5
93
  8
0
 62
     7
 10
173.33699999999999
 20
100.367
 30
0.0
 11
174.52199999999999
 21
100.367
 31
0.0
  0
LINE
  5
94
  8
0
 62
     7
 10
174.52199999999999
 20
153.702
 30
0.0
 11
173.929
 21
155.91399999999999
 31
0.0
  0
LINE
  5
95
  8
0
 62
     7
 10
173.929
 20
155.91399999999999
 30
0.0
 11
173.33699999999999
 21
153.702
 31
0.0
  0
LINE
  5
96
  8
0
 62
     7
 10
173.33699999999999
 20
153.702
 30
0.0
 11
174.52199999999999
 21
153.702
 31
0.0
  0
LINE
  5
97
  8
0
 62
     7
 10
174.50700000000001
 20
179.0379999999999
 30
0.0
 11
173.91499999999991
 21
181.25
 31
0.0
  0
LINE
  5
98
  8
0
 62
     7
 10
173.91499999999991
 20
181.25
 30
0.0
 11
173.322
 21
179.0379999999999
 31
0.0
  0
LINE
  5
99
  8
0
 62
     7
 10
173.322
 20
179.0379999999999
 30
0.0
 11
174.50700000000001
 21
179.0379999999999
 31
0.0
  0
LINE
  5
9A
  8
0
 62
     7
 10
173.92199999999991
 20
74.5809
 30
0.0
 11
173.92199999999991
 21
181.24799999999991
 31
0.0
  0
LINE
  5
9B
  8
0
 62
     7
 10
128.13900000000001
 20
74.5809
 30
0.0
 11
174.62200000000001
 21
74.5809
 31
0.0
  0
LINE
  5
9C
  8
0
 62
     7
 10
128.13900000000001
 20
181.24799999999991
 30
0.0
 11
174.62200000000001
 21
181.24799999999991
 31
0.0
  0
LINE
  5
9D
  8
0
 62
     7
 10
117.154
 20
179.042
 30
0.0
 11
116.562
 21
181.25399999999999
 31
0.0
  0
LINE
  5
9E
  8
0
 62
     7
 10
116.562
 20
181.25399999999999
 30
0.0
 11
115.96899999999989
 21
179.042
 31
0.0
  0
LINE
  5
9F
  8
0
 62
     7
 10
115.96899999999989
 20
179.042
 30
0.0
 11
117.154
 21
179.042
 31
0.0
  0
LINE
  5
A0
  8
0
 62
     7
 10
117.16200000000001
 20
172.374
 30
0.0
 11
116.569
 21
174.5859999999999
 31
0.0
  0
LINE
  5
A1
  8
0
 62
     7
 10
116.569
 20
174.5859999999999
 30
0.0
 11
115.976
 21
172.374
 31
0.0
  0
LINE
  5
A2
  8
0
 62
     7
 10
115.976
 20
172.374
 30
0.0
 11
117.16200000000001
 21
172.374
 31
0.0
  0
LINE
  5
A3
  8
0
 62
     7
 10
115.976
 20
176.798
 30
0.0
 11
116.569
 21
174.5859999999999
 31
0.0
  0
LINE
  5
A4
  8
0
 62
     7
 10
116.569
 20
174.5859999999999
 30
0.0
 11
117.16200000000001
 21
176.798
 31
0.0
  0
LINE
  5
A5
  8
0
 62
     7
 10
117.16200000000001
 20
176.798
 30
0.0
 11
115.976
 21
176.798
 31
0.0
  0
LINE
  5
A6
  8
0
 62
     7
 10
117.16200000000001
 20
79.040599999999998
 30
0.0
 11
116.569
 21
81.252399999999994
 31
0.0
  0
LINE
  5
A7
  8
0
 62
     7
 10
116.569
 20
81.252399999999994
 30
0.0
 11
115.976
 21
79.040599999999998
 31
0.0
  0
LINE
  5
A8
  8
0
 62
     7
 10
115.976
 20
79.040599999999998
 30
0.0
 11
117.16200000000001
 21
79.040599999999998
 31
0.0
  0
LINE
  5
A9
  8
0
 62
     7
 10
115.976
 20
83.464200000000005
 30
0.0
 11
116.569
 21
81.252399999999994
 31
0.0
  0
LINE
  5
AA
  8
0
 62
     7
 10
116.569
 20
81.252399999999994
 30
0.0
 11
117.16200000000001
 21
83.464200000000005
 31
0.0
  0
LINE
  5
AB
  8
0
 62
     7
 10
117.16200000000001
 20
83.464200000000005
 30
0.0
 11
115.976
 21
83.464200000000005
 31
0.0
  0
LINE
  5
AC
  8
0
 62
     7
 10
115.976
 20
76.797200000000004
 30
0.0
 11
116.569
 21
74.585400000000007
 31
0.0
  0
LINE
  5
AD
  8
0
 62
     7
 10
116.569
 20
74.585400000000007
 30
0.0
 11
117.16200000000001
 21
76.797200000000004
 31
0.0
  0
LINE
  5
AE
  8
0
 62
     7
 10
117.16200000000001
 20
76.797200000000004
 30
0.0
 11
115.976
 21
76.797200000000004
 31
0.0
  0
LINE
  5
AF
  8
0
 62
     7
 10
116.569
 20
181.2529999999999
 30
0.0
 11
116.569
 21
74.585400000000007
 31
0.0
  0
LINE
  5
B0
  8
0
 62
     7
 10
124.31999999999989
 20
81.252399999999994
 30
0.0
 11
115.8689999999999
 21
81.252399999999994
 31
0.0
  0
LINE
  5
B1
  8
0
 62
     7
 10
46.74369999999999
 20
172.5859999999999
 30
0.0
 11
40.700400000000002
 21
172.5859999999999
 31
0.0
  0
LINE
  5
B2
  8
0
 62
     7
 10
124.66800000000001
 20
174.5859999999999
 30
0.0
 11
115.8689999999999
 21
174.5859999999999
 31
0.0
  0
LINE
  5
B3
  8
0
 62
     7
 10
125.21299999999989
 20
181.2529999999999
 30
0.0
 11
115.8689999999999
 21
181.2529999999999
 31
0.0
  0
LINE
  5
B4
  8
0
 62
     7
 10
125.1689999999999
 20
74.585400000000007
 30
0.0
 11
115.8689999999999
 21
74.585400000000007
 31
0.0
  0
LINE
  5
B5
  8
0
 62
     7
 10
49.6541
 20
197.16999999999999
 30
0.0
 11
47.442399999999999
 21
196.577
 31
0.0
  0
LINE
  5
B6
  8
0
 62
     7
 10
47.442399999999999
 20
196.577
 30
0.0
 11
49.6541
 21
195.9839999999999
 31
0.0
  0
LINE
  5
B7
  8
0
 62
     7
 10
49.6541
 20
195.9839999999999
 30
0.0
 11
49.6541
 21
197.16999999999999
 31
0.0
  0
LINE
  5
B8
  8
0
 62
     7
 10
98.566500000000005
 20
195.999
 30
0.0
 11
100.77799999999991
 21
196.59099999999989
 31
0.0
  0
LINE
  5
B9
  8
0
 62
     7
 10
100.77799999999991
 20
196.59099999999989
 30
0.0
 11
98.566500000000005
 21
197.184
 31
0.0
  0
LINE
  5
BA
  8
0
 62
     7
 10
98.566500000000005
 20
197.184
 30
0.0
 11
98.566500000000005
 21
195.999
 31
0.0
  0
LINE
  5
BB
  8
0
 62
     7
 10
47.443699999999993
 20
196.584
 30
0.0
 11
100.777
 21
196.584
 31
0.0
  0
LINE
  5
BC
  8
0
 62
     7
 10
100.777
 20
182.18199999999999
 30
0.0
 11
100.777
 21
197.28399999999999
 31
0.0
  0
LINE
  5
BD
  8
0
 62
     7
 10
47.443699999999993
 20
181.953
 30
0.0
 11
47.443699999999993
 21
197.28399999999999
 31
0.0
  0
LINE
  5
BE
  8
0
 62
     7
 10
33.310099999999998
 20
76.7958
 30
0.0
 11
33.902700000000003
 21
74.584000000000003
 31
0.0
  0
LINE
  5
BF
  8
0
 62
     7
 10
33.902700000000003
 20
74.584000000000003
 30
0.0
 11
34.4953
 21
76.7958
 31
0.0
  0
LINE
  5
C0
  8
0
 62
     7
 10
34.4953
 20
76.7958
 30
0.0
 11
33.310099999999998
 21
76.7958
 31
0.0
  0
LINE
  5
C1
  8
0
 62
     7
 10
34.480800000000002
 20
179.042
 30
0.0
 11
33.888199999999991
 21
181.25399999999999
 31
0.0
  0
LINE
  5
C2
  8
0
 62
     7
 10
33.888199999999991
 20
181.25399999999999
 30
0.0
 11
33.295699999999989
 21
179.042
 31
0.0
  0
LINE
  5
C3
  8
0
 62
     7
 10
33.295699999999989
 20
179.042
 30
0.0
 11
34.480800000000002
 21
179.042
 31
0.0
  0
LINE
  5
C4
  8
0
 62
     7
 10
33.895499999999991
 20
74.585400000000007
 30
0.0
 11
33.895499999999991
 21
181.2529999999999
 31
0.0
  0
LINE
  5
C5
  8
0
 62
     7
 10
46.74369999999999
 20
181.2529999999999
 30
0.0
 11
33.195399999999992
 21
181.2529999999999
 31
0.0
  0
LINE
  5
C6
  8
0
 62
     7
 10
46.74369999999999
 20
74.585400000000007
 30
0.0
 11
33.195399999999992
 21
74.585400000000007
 31
0.0
  0
LINE
  5
C7
  8
0
 62
     7
 10
53.522100000000002
 20
161.61199999999999
 30
0.0
 11
51.310400000000001
 21
162.20400000000001
 31
0.0
  0
LINE
  5
C8
  8
0
 62
     7
 10
51.310400000000001
 20
162.20400000000001
 30
0.0
 11
53.522100000000002
 21
162.79699999999991
 31
0.0
  0
LINE
  5
C9
  8
0
 62
     7
 10
53.522100000000002
 20
162.79699999999991
 30
0.0
 11
53.522100000000002
 21
161.61199999999999
 31
0.0
  0
LINE
  5
CA
  8
0
 62
     7
 10
45.231999999999999
 20
162.79699999999991
 30
0.0
 11
47.443699999999993
 21
162.20400000000001
 31
0.0
  0
LINE
  5
CB
  8
0
 62
     7
 10
47.443699999999993
 20
162.20400000000001
 30
0.0
 11
45.231999999999999
 21
161.6109999999999
 31
0.0
  0
LINE
  5
CC
  8
0
 62
     7
 10
45.231999999999999
 20
161.6109999999999
 30
0.0
 11
45.231999999999999
 21
162.79699999999991
 31
0.0
  0
LINE
  5
CD
  8
0
 62
     7
 10
123.15599999999991
 20
186.47099999999989
 30
0.0
 11
125.3679999999999
 21
187.06299999999999
 31
0.0
  0
LINE
  5
CE
  8
0
 62
     7
 10
125.3679999999999
 20
187.06299999999999
 30
0.0
 11
123.15599999999991
 21
187.65599999999989
 31
0.0
  0
LINE
  5
CF
  8
0
 62
     7
 10
123.15599999999991
 20
187.65599999999989
 30
0.0
 11
123.15599999999991
 21
186.47099999999989
 31
0.0
  0
LINE
  5
D0
  8
0
 62
     7
 10
129.57900000000001
 20
187.65599999999989
 30
0.0
 11
127.3679999999999
 21
187.06299999999999
 31
0.0
  0
LINE
  5
D1
  8
0
 62
     7
 10
127.3679999999999
 20
187.06299999999999
 30
0.0
 11
129.57900000000001
 21
186.47
 31
0.0
  0
LINE
  5
D2
  8
0
 62
     7
 10
129.57900000000001
 20
186.47
 30
0.0
 11
129.57900000000001
 21
187.65599999999989
 31
0.0
  0
LINE
  5
D3
  8
0
 62
     7
 10
130.90999999999991
 20
187.06299999999999
 30
0.0
 11
118.886
 21
187.06299999999999
 31
0.0
  0
LINE
  5
D4
  8
0
 62
     7
 10
127.3679999999999
 20
182.01900000000001
 30
0.0
 11
127.3679999999999
 21
187.76300000000001
 31
0.0
  0
LINE
  5
D5
  8
0
 62
     7
 10
164.66800000000001
 20
248.38599999999991
 30
0.0
 11
164.66800000000001
 21
246.72
 31
0.0
  0
LINE
  5
D6
  8
0
 62
     7
 10
164.768
 20
248.38599999999991
 30
0.0
 11
164.66800000000001
 21
248.38599999999991
 31
0.0
  0
LINE
  5
D7
  8
0
 62
     7
 10
164.768
 20
246.72
 30
0.0
 11
164.66800000000001
 21
246.72
 31
0.0
  0
LINE
  5
D8
  8
0
 62
     7
 10
165.101
 20
246.03599999999989
 30
0.0
 11
165.101
 21
249.203
 31
0.0
  0
LINE
  5
D9
  8
0
 62
     7
 10
165.101
 20
247.553
 30
0.0
 11
165.101
 21
245.90299999999991
 31
0.0
  0
LINE
  5
DA
  8
0
 62
     7
 10
164.768
 20
249.0029999999999
 30
0.0
 11
164.768
 21
246.10300000000001
 31
0.0
  0
LINE
  5
DB
  8
0
 62
     7
 10
165.36799999999999
 20
246.03599999999989
 30
0.0
 11
165.36799999999999
 21
249.06999999999991
 31
0.0
  0
ARC
  5
DC
  8
0
 62
     7
 10
164.49915200000001
 20
247.14407
 30
0.0
 40
0.162568
 50
216.98921200000001
 51
233.010818
  0
ARC
  5
DD
  8
0
 62
     7
 10
164.51259399999989
 20
247.147764
 30
0.0
 40
0.175602
 50
129.31271399999989
 51
215.3128419999999
  0
ARC
  5
DE
  8
0
 62
     7
 10
164.49866299999999
 20
247.95321000000001
 30
0.0
 40
0.162732
 50
217.350244
 51
233.269193
  0
ARC
  5
DF
  8
0
 62
     7
 10
164.512992
 20
247.956132
 30
0.0
 40
0.17601
 50
129.37156899999991
 51
215.27600299999989
  0
LINE
  5
E0
  8
0
 62
     7
 10
164.33500000000001
 20
247.86799999999999
 30
0.0
 11
164.33500000000001
 21
247.95699999999991
 31
0.0
  0
ARC
  5
E1
  8
0
 62
     7
 10
164.87213899999989
 20
247.5532069999999
 30
0.0
 40
0.5425170000000001
 50
150.204441
 51
209.795559
  0
LINE
  5
E2
  8
0
 62
     7
 10
164.33500000000001
 20
247.149
 30
0.0
 11
164.33500000000001
 21
247.95699999999991
 31
0.0
  0
LINE
  5
E3
  8
0
 62
     7
 10
164.66800000000001
 20
248.09200000000001
 30
0.0
 11
164.4009999999999
 21
248.09200000000001
 31
0.0
  0
LINE
  5
E4
  8
0
 62
     7
 10
164.66800000000001
 20
247.01400000000001
 30
0.0
 11
164.4009999999999
 21
247.01400000000001
 31
0.0
  0
LINE
  5
E5
  8
0
 62
     7
 10
164.66800000000001
 20
247.82299999999989
 30
0.0
 11
164.4009999999999
 21
247.82299999999989
 31
0.0
  0
LINE
  5
E6
  8
0
 62
     7
 10
164.66800000000001
 20
247.28399999999999
 30
0.0
 11
164.4009999999999
 21
247.28399999999999
 31
0.0
  0
LINE
  5
E7
  8
0
 62
     7
 10
164.2409999999999
 20
247.15299999999999
 30
0.0
 11
164.2409999999999
 21
247.953
 31
0.0
  0
LINE
  5
E8
  8
0
 62
     7
 10
164.2409999999999
 20
247.887
 30
0.0
 11
161.52899999999991
 21
247.887
 31
0.0
  0
LINE
  5
E9
  8
0
 62
     7
 10
164.2409999999999
 20
247.21999999999991
 30
0.0
 11
161.52899999999991
 21
247.21999999999991
 31
0.0
  0
LINE
  5
EA
  8
0
 62
     7
 10
164.2409999999999
 20
247.15299999999999
 30
0.0
 11
161.52899999999991
 21
247.15299999999999
 31
0.0
  0
LINE
  5
EB
  8
0
 62
     7
 10
164.2409999999999
 20
247.953
 30
0.0
 11
161.52899999999991
 21
247.953
 31
0.0
  0
LINE
  5
EC
  8
0
 62
     7
 10
164.33500000000001
 20
247.91999999999999
 30
0.0
 11
164.2409999999999
 21
247.91999999999999
 31
0.0
  0
LINE
  5
ED
  8
0
 62
     7
 10
164.33500000000001
 20
247.18599999999989
 30
0.0
 11
164.2409999999999
 21
247.18599999999989
 31
0.0
  0
ARC
  5
EE
  8
0
 62
     7
 10
164.9752719999999
 20
246.11053999999999
 30
0.0
 40
0.207509
 50
182.08635100000001
 51
267.913679
  0
LINE
  5
EF
  8
0
 62
     7
 10
165.36799999999999
 20
246.03599999999989
 30
0.0
 11
165.101
 21
246.03599999999989
 31
0.0
  0
LINE
  5
F0
  8
0
 62
     7
 10
165.101
 20
245.90299999999991
 30
0.0
 11
164.96799999999999
 21
245.90299999999991
 31
0.0
  0
LINE
  5
F1
  8
0
 62
     7
 10
165.36799999999999
 20
249.06999999999991
 30
0.0
 11
165.101
 21
249.06999999999991
 31
0.0
  0
LINE
  5
F2
  8
0
 62
     7
 10
165.101
 20
249.203
 30
0.0
 11
164.96799999999999
 21
249.203
 31
0.0
  0
ARC
  5
F3
  8
0
 62
     7
 10
164.97559999999999
 20
248.99556000000001
 30
0.0
 40
0.207836
 50
92.173586999999984
 51
177.925084
  0
LINE
  5
F4
  8
0
 62
     7
 10
164.66800000000001
 20
226.6929999999999
 30
0.0
 11
164.66800000000001
 21
228.35900000000001
 31
0.0
  0
LINE
  5
F5
  8
0
 62
     7
 10
164.768
 20
226.6929999999999
 30
0.0
 11
164.66800000000001
 21
226.6929999999999
 31
0.0
  0
LINE
  5
F6
  8
0
 62
     7
 10
164.768
 20
228.35900000000001
 30
0.0
 11
164.66800000000001
 21
228.35900000000001
 31
0.0
  0
LINE
  5
F7
  8
0
 62
     7
 10
165.101
 20
229.04300000000001
 30
0.0
 11
165.101
 21
225.87599999999989
 31
0.0
  0
LINE
  5
F8
  8
0
 62
     7
 10
165.101
 20
227.5259999999999
 30
0.0
 11
165.101
 21
229.17599999999999
 31
0.0
  0
LINE
  5
F9
  8
0
 62
     7
 10
164.768
 20
226.07599999999991
 30
0.0
 11
164.768
 21
228.976
 31
0.0
  0
LINE
  5
FA
  8
0
 62
     7
 10
165.36799999999999
 20
229.04300000000001
 30
0.0
 11
165.36799999999999
 21
226.00899999999999
 31
0.0
  0
ARC
  5
FB
  8
0
 62
     7
 10
164.51337000000001
 20
227.92892499999999
 30
0.0
 40
0.17629
 50
129.45612099999991
 51
215.19145099999989
  0
ARC
  5
FC
  8
0
 62
     7
 10
164.499976
 20
227.92738099999991
 30
0.0
 40
0.164581
 50
217.44021499999999
 51
233.17922200000001
  0
ARC
  5
FD
  8
0
 62
     7
 10
164.51337000000001
 20
227.12069999999991
 30
0.0
 40
0.17629
 50
129.45612099999991
 51
215.19145099999989
  0
ARC
  5
FE
  8
0
 62
     7
 10
164.499976
 20
227.11915699999989
 30
0.0
 40
0.164581
 50
217.44021499999999
 51
233.17922200000001
  0
LINE
  5
FF
  8
0
 62
     7
 10
164.33500000000001
 20
227.21100000000001
 30
0.0
 11
164.33500000000001
 21
227.12200000000001
 31
0.0
  0
ARC
  5
100
  8
0
 62
     7
 10
164.87182799999991
 20
227.5262239999999
 30
0.0
 40
0.5421620000000001
 50
150.203901
 51
209.796099
  0
LINE
  5
101
  8
0
 62
     7
 10
164.33500000000001
 20
227.93000000000001
 30
0.0
 11
164.33500000000001
 21
227.12200000000001
 31
0.0
  0
LINE
  5
102
  8
0
 62
     7
 10
164.66800000000001
 20
226.98699999999999
 30
0.0
 11
164.4009999999999
 21
226.98699999999999
 31
0.0
  0
LINE
  5
103
  8
0
 62
     7
 10
164.66800000000001
 20
228.065
 30
0.0
 11
164.4009999999999
 21
228.065
 31
0.0
  0
LINE
  5
104
  8
0
 62
     7
 10
164.66800000000001
 20
227.25699999999989
 30
0.0
 11
164.4009999999999
 21
227.25699999999989
 31
0.0
  0
LINE
  5
105
  8
0
 62
     7
 10
164.66800000000001
 20
227.79599999999991
 30
0.0
 11
164.4009999999999
 21
227.79599999999991
 31
0.0
  0
LINE
  5
106
  8
0
 62
     7
 10
164.2409999999999
 20
227.9259999999999
 30
0.0
 11
164.2409999999999
 21
227.12599999999989
 31
0.0
  0
LINE
  5
107
  8
0
 62
     7
 10
164.2409999999999
 20
227.1929999999999
 30
0.0
 11
161.53100000000001
 21
227.1929999999999
 31
0.0
  0
LINE
  5
108
  8
0
 62
     7
 10
164.2409999999999
 20
227.85900000000001
 30
0.0
 11
161.53100000000001
 21
227.85900000000001
 31
0.0
  0
LINE
  5
109
  8
0
 62
     7
 10
164.2409999999999
 20
227.9259999999999
 30
0.0
 11
161.53100000000001
 21
227.9259999999999
 31
0.0
  0
LINE
  5
10A
  8
0
 62
     7
 10
164.2409999999999
 20
227.12599999999989
 30
0.0
 11
161.53100000000001
 21
227.12599999999989
 31
0.0
  0
LINE
  5
10B
  8
0
 62
     7
 10
164.33500000000001
 20
227.15899999999999
 30
0.0
 11
164.2409999999999
 21
227.15899999999999
 31
0.0
  0
LINE
  5
10C
  8
0
 62
     7
 10
164.33500000000001
 20
227.89299999999989
 30
0.0
 11
164.2409999999999
 21
227.89299999999989
 31
0.0
  0
ARC
  5
10D
  8
0
 62
     7
 10
164.9752959999999
 20
228.96870799999999
 30
0.0
 40
0.207521
 50
92.09293599999998
 51
178.00573399999999
  0
LINE
  5
10E
  8
0
 62
     7
 10
165.36799999999999
 20
229.04300000000001
 30
0.0
 11
165.101
 21
229.04300000000001
 31
0.0
  0
LINE
  5
10F
  8
0
 62
     7
 10
165.101
 20
229.17599999999999
 30
0.0
 11
164.96799999999999
 21
229.17599999999999
 31
0.0
  0
LINE
  5
110
  8
0
 62
     7
 10
165.36799999999999
 20
226.00899999999999
 30
0.0
 11
165.101
 21
226.00899999999999
 31
0.0
  0
LINE
  5
111
  8
0
 62
     7
 10
165.101
 20
225.87599999999989
 30
0.0
 11
164.96799999999999
 21
225.87599999999989
 31
0.0
  0
ARC
  5
112
  8
0
 62
     7
 10
164.97528199999991
 20
226.08339399999991
 30
0.0
 40
0.20752
 50
182.08911000000001
 51
267.91091999999998
  0
LINE
  5
113
  8
0
 62
     7
 10
164.66800000000001
 20
155.05600000000001
 30
0.0
 11
164.66800000000001
 21
156.7229999999999
 31
0.0
  0
LINE
  5
114
  8
0
 62
     7
 10
164.768
 20
155.05600000000001
 30
0.0
 11
164.66800000000001
 21
155.05600000000001
 31
0.0
  0
LINE
  5
115
  8
0
 62
     7
 10
164.768
 20
156.7229999999999
 30
0.0
 11
164.66800000000001
 21
156.7229999999999
 31
0.0
  0
LINE
  5
116
  8
0
 62
     7
 10
165.101
 20
157.40600000000001
 30
0.0
 11
165.101
 21
154.239
 31
0.0
  0
LINE
  5
117
  8
0
 62
     7
 10
165.101
 20
155.88900000000001
 30
0.0
 11
165.101
 21
157.5389999999999
 31
0.0
  0
LINE
  5
118
  8
0
 62
     7
 10
164.768
 20
154.43899999999991
 30
0.0
 11
164.768
 21
157.339
 31
0.0
  0
LINE
  5
119
  8
0
 62
     7
 10
165.36799999999999
 20
157.40600000000001
 30
0.0
 11
165.36799999999999
 21
154.37200000000001
 31
0.0
  0
ARC
  5
11A
  8
0
 62
     7
 10
164.513902
 20
156.29211799999999
 30
0.0
 40
0.176683
 50
129.57439600000001
 51
215.07317599999999
  0
ARC
  5
11B
  8
0
 62
     7
 10
164.50007500000001
 20
156.29074700000001
 30
0.0
 40
0.16472
 50
217.44693699999999
 51
233.1725009999999
  0
ARC
  5
11C
  8
0
 62
     7
 10
164.513902
 20
155.48389399999991
 30
0.0
 40
0.176683
 50
129.57439600000001
 51
215.07317599999999
  0
ARC
  5
11D
  8
0
 62
     7
 10
164.48873499999999
 20
155.471058
 30
0.0
 40
0.148763
 50
216.59728899999999
 51
234.02214900000001
  0
LINE
  5
11E
  8
0
 62
     7
 10
164.33500000000001
 20
155.5739999999999
 30
0.0
 11
164.33500000000001
 21
155.48500000000001
 31
0.0
  0
ARC
  5
11F
  8
0
 62
     7
 10
164.87215900000001
 20
155.88948899999991
 30
0.0
 40
0.542449
 50
150.22128599999999
 51
209.77871400000001
  0
LINE
  5
120
  8
0
 62
     7
 10
164.33500000000001
 20
156.29300000000001
 30
0.0
 11
164.33500000000001
 21
155.48500000000001
 31
0.0
  0
LINE
  5
121
  8
0
 62
     7
 10
164.66800000000001
 20
155.35099999999991
 30
0.0
 11
164.4009999999999
 21
155.35099999999991
 31
0.0
  0
LINE
  5
122
  8
0
 62
     7
 10
164.66800000000001
 20
156.428
 30
0.0
 11
164.4009999999999
 21
156.428
 31
0.0
  0
LINE
  5
123
  8
0
 62
     7
 10
164.66800000000001
 20
155.62
 30
0.0
 11
164.4009999999999
 21
155.62
 31
0.0
  0
LINE
  5
124
  8
0
 62
     7
 10
164.66800000000001
 20
156.15899999999991
 30
0.0
 11
164.4009999999999
 21
156.15899999999991
 31
0.0
  0
LINE
  5
125
  8
0
 62
     7
 10
164.2409999999999
 20
156.2889999999999
 30
0.0
 11
164.2409999999999
 21
155.489
 31
0.0
  0
LINE
  5
126
  8
0
 62
     7
 10
164.2409999999999
 20
155.55600000000001
 30
0.0
 11
161.53100000000001
 21
155.55600000000001
 31
0.0
  0
LINE
  5
127
  8
0
 62
     7
 10
164.2409999999999
 20
156.22200000000001
 30
0.0
 11
161.53100000000001
 21
156.22200000000001
 31
0.0
  0
LINE
  5
128
  8
0
 62
     7
 10
164.2409999999999
 20
156.2889999999999
 30
0.0
 11
161.53100000000001
 21
156.2889999999999
 31
0.0
  0
LINE
  5
129
  8
0
 62
     7
 10
164.2409999999999
 20
155.489
 30
0.0
 11
161.53100000000001
 21
155.489
 31
0.0
  0
LINE
  5
12A
  8
0
 62
     7
 10
164.33500000000001
 20
155.52199999999999
 30
0.0
 11
164.2409999999999
 21
155.52199999999999
 31
0.0
  0
LINE
  5
12B
  8
0
 62
     7
 10
164.33500000000001
 20
156.25599999999989
 30
0.0
 11
164.2409999999999
 21
156.25599999999989
 31
0.0
  0
ARC
  5
12C
  8
0
 62
     7
 10
164.9752719999999
 20
157.33163999999991
 30
0.0
 40
0.207509
 50
92.086320999999998
 51
177.91364899999991
  0
LINE
  5
12D
  8
0
 62
     7
 10
165.36799999999999
 20
157.40600000000001
 30
0.0
 11
165.101
 21
157.40600000000001
 31
0.0
  0
LINE
  5
12E
  8
0
 62
     7
 10
165.101
 20
157.5389999999999
 30
0.0
 11
164.96799999999999
 21
157.5389999999999
 31
0.0
  0
LINE
  5
12F
  8
0
 62
     7
 10
165.36799999999999
 20
154.37200000000001
 30
0.0
 11
165.101
 21
154.37200000000001
 31
0.0
  0
LINE
  5
130
  8
0
 62
     7
 10
165.101
 20
154.239
 30
0.0
 11
164.96799999999999
 21
154.239
 31
0.0
  0
ARC
  5
131
  8
0
 62
     7
 10
164.9752719999999
 20
154.44664900000001
 30
0.0
 40
0.207509
 50
182.08635100000001
 51
267.913679
  0
LINE
  5
132
  8
0
 62
     7
 10
164.66800000000001
 20
101.74799999999991
 30
0.0
 11
164.66800000000001
 21
103.41500000000001
 31
0.0
  0
LINE
  5
133
  8
0
 62
     7
 10
164.768
 20
101.74799999999991
 30
0.0
 11
164.66800000000001
 21
101.74799999999991
 31
0.0
  0
LINE
  5
134
  8
0
 62
     7
 10
164.768
 20
103.41500000000001
 30
0.0
 11
164.66800000000001
 21
103.41500000000001
 31
0.0
  0
LINE
  5
135
  8
0
 62
     7
 10
165.101
 20
104.098
 30
0.0
 11
165.101
 21
100.9319999999999
 31
0.0
  0
LINE
  5
136
  8
0
 62
     7
 10
165.101
 20
102.581
 30
0.0
 11
165.101
 21
104.23099999999999
 31
0.0
  0
LINE
  5
137
  8
0
 62
     7
 10
164.768
 20
101.1309999999999
 30
0.0
 11
164.768
 21
104.032
 31
0.0
  0
LINE
  5
138
  8
0
 62
     7
 10
165.36799999999999
 20
104.098
 30
0.0
 11
165.36799999999999
 21
101.065
 31
0.0
  0
ARC
  5
139
  8
0
 62
     7
 10
164.51241999999991
 20
102.984246
 30
0.0
 40
0.17536
 50
129.3041179999999
 51
215.29936000000001
  0
ARC
  5
13A
  8
0
 62
     7
 10
164.50421900000001
 20
102.98435599999991
 30
0.0
 40
0.1688
 50
216.93856999999991
 51
232.44867600000001
  0
ARC
  5
13B
  8
0
 62
     7
 10
164.51241999999991
 20
102.1760219999999
 30
0.0
 40
0.17536
 50
129.3041179999999
 51
215.29936000000001
  0
ARC
  5
13C
  8
0
 62
     7
 10
164.49077800000001
 20
102.16283299999991
 30
0.0
 40
0.150086
 50
215.96450300000001
 51
233.422743
  0
LINE
  5
13D
  8
0
 62
     7
 10
164.33500000000001
 20
102.26600000000001
 30
0.0
 11
164.33500000000001
 21
102.17700000000001
 31
0.0
  0
ARC
  5
13E
  8
0
 62
     7
 10
164.870172
 20
102.58112299999991
 30
0.0
 40
0.5407250000000001
 50
150.11669599999991
 51
209.88330400000001
  0
LINE
  5
13F
  8
0
 62
     7
 10
164.33500000000001
 20
102.9859999999999
 30
0.0
 11
164.33500000000001
 21
102.17700000000001
 31
0.0
  0
LINE
  5
140
  8
0
 62
     7
 10
164.66800000000001
 20
102.042
 30
0.0
 11
164.4009999999999
 21
102.042
 31
0.0
  0
LINE
  5
141
  8
0
 62
     7
 10
164.66800000000001
 20
103.12
 30
0.0
 11
164.4009999999999
 21
103.12
 31
0.0
  0
LINE
  5
142
  8
0
 62
     7
 10
164.66800000000001
 20
102.312
 30
0.0
 11
164.4009999999999
 21
102.312
 31
0.0
  0
LINE
  5
143
  8
0
 62
     7
 10
164.66800000000001
 20
102.851
 30
0.0
 11
164.4009999999999
 21
102.851
 31
0.0
  0
LINE
  5
144
  8
0
 62
     7
 10
164.2409999999999
 20
102.98099999999999
 30
0.0
 11
164.2409999999999
 21
102.1809999999999
 31
0.0
  0
LINE
  5
145
  8
0
 62
     7
 10
164.2409999999999
 20
102.24799999999991
 30
0.0
 11
160.75700000000001
 21
102.24799999999991
 31
0.0
  0
LINE
  5
146
  8
0
 62
     7
 10
164.2409999999999
 20
102.91500000000001
 30
0.0
 11
160.75700000000001
 21
102.91500000000001
 31
0.0
  0
LINE
  5
147
  8
0
 62
     7
 10
164.2409999999999
 20
102.98099999999999
 30
0.0
 11
160.75700000000001
 21
102.98099999999999
 31
0.0
  0
LINE
  5
148
  8
0
 62
     7
 10
164.2409999999999
 20
102.1809999999999
 30
0.0
 11
160.75700000000001
 21
102.1809999999999
 31
0.0
  0
LINE
  5
149
  8
0
 62
     7
 10
164.33500000000001
 20
102.215
 30
0.0
 11
164.2409999999999
 21
102.215
 31
0.0
  0
LINE
  5
14A
  8
0
 62
     7
 10
164.33500000000001
 20
102.94799999999989
 30
0.0
 11
164.2409999999999
 21
102.94799999999989
 31
0.0
  0
ARC
  5
14B
  8
0
 62
     7
 10
164.9752719999999
 20
104.0239629999999
 30
0.0
 40
0.207509
 50
92.086320999999998
 51
177.91364899999991
  0
LINE
  5
14C
  8
0
 62
     7
 10
165.36799999999999
 20
104.098
 30
0.0
 11
165.101
 21
104.098
 31
0.0
  0
LINE
  5
14D
  8
0
 62
     7
 10
165.101
 20
104.23099999999999
 30
0.0
 11
164.96799999999999
 21
104.23099999999999
 31
0.0
  0
LINE
  5
14E
  8
0
 62
     7
 10
165.36799999999999
 20
101.065
 30
0.0
 11
165.101
 21
101.065
 31
0.0
  0
LINE
  5
14F
  8
0
 62
     7
 10
165.101
 20
100.9319999999999
 30
0.0
 11
164.96799999999999
 21
100.9319999999999
 31
0.0
  0
ARC
  5
150
  8
0
 62
     7
 10
164.9752719999999
 20
101.1389719999999
 30
0.0
 40
0.207509
 50
182.08635100000001
 51
267.913679
  0
LINE
  5
151
  8
0
 62
     7
 10
132.34999999999991
 20
254.73500000000001
 30
0.0
 11
127.3679999999999
 21
254.73500000000001
 31
0.0
  0
LINE
  5
152
  8
0
 62
     7
 10
127.3679999999999
 20
262.09100000000001
 30
0.0
 11
132.34999999999991
 21
254.73500000000001
 31
0.0
  0
LINE
  5
153
  8
0
 62
     7
 10
132.34999999999991
 20
220.3179999999999
 30
0.0
 11
127.3679999999999
 21
220.3179999999999
 31
0.0
  0
LINE
  5
154
  8
0
 62
     7
 10
127.3679999999999
 20
212.96100000000001
 30
0.0
 11
132.34999999999991
 21
220.3179999999999
 31
0.0
  0
LINE
  5
155
  8
0
 62
     7
 10
126.157
 20
180.369
 30
0.0
 11
132.34999999999991
 21
174.17599999999999
 31
0.0
  0
ARC
  5
156
  8
0
 62
     7
 10
125.978359
 20
180.56853599999999
 30
0.0
 40
0.277378
 50
182.766018
 51
268.49158299999999
  0
ARC
  5
157
  8
0
 62
     7
 10
125.95782199999989
 20
180.56780800000001
 30
0.0
 40
0.27687
 50
272.73988500000002
 51
358.59252500000002
  0
ARC
  5
158
  8
0
 62
     7
 10
125.95855299999999
 20
180.54828999999989
 30
0.0
 40
0.276349
 50
2.6376529999999989
 51
88.621533999999997
  0
LINE
  5
159
  8
0
 62
     7
 10
125.965
 20
180.8249999999999
 30
0.0
 11
125.95
 21
180.8239999999999
 31
0.0
  0
ARC
  5
15A
  8
0
 62
     7
 10
125.957509
 20
75.286981000000011
 30
0.0
 40
0.277251
 50
268.31431900000001
 51
353.97873099999998
  0
ARC
  5
15B
  8
0
 62
     7
 10
125.9560409999999
 20
75.265967000000003
 30
0.0
 40
0.277307
 50
358.33241499999991
 51
84.039426000000006
  0
ARC
  5
15C
  8
0
 62
     7
 10
125.9756899999999
 20
75.265779000000009
 30
0.0
 40
0.276148
 50
88.101697000000016
 51
174.19131399999989
  0
LINE
  5
15D
  8
0
 62
     7
 10
125.70099999999999
 20
75.293700000000001
 30
0.0
 11
125.7
 21
75.278599999999997
 31
0.0
  0
LINE
  5
15E
  8
0
 62
     7
 10
126.15600000000001
 20
75.464600000000004
 30
0.0
 11
136.8249999999999
 21
86.133399999999995
 31
0.0
  0
LINE
  5
15F
  8
0
 62
     7
 10
156.52199999999999
 20
251.167
 30
0.0
 11
155.8609999999999
 21
251.08199999999991
 31
0.0
  0
LINE
  5
160
  8
0
 62
     7
 10
156.52199999999999
 20
223.88499999999991
 30
0.0
 11
155.8609999999999
 21
223.97
 31
0.0
  0
LINE
  5
161
  8
0
 62
     7
 10
157.33099999999999
 20
249.51300000000001
 30
0.0
 11
157.33099999999999
 21
245.5929999999999
 31
0.0
  0
LINE
  5
162
  8
0
 62
     7
 10
157.69200000000001
 20
247.953
 30
0.0
 11
160.70400000000001
 21
247.953
 31
0.0
  0
LINE
  5
163
  8
0
 62
     7
 10
157.69200000000001
 20
247.15299999999999
 30
0.0
 11
160.70400000000001
 21
247.15299999999999
 31
0.0
  0
LINE
  5
164
  8
0
 62
     7
 10
157.49100000000001
 20
249.553
 30
0.0
 11
157.49100000000001
 21
247.553
 31
0.0
  0
LINE
  5
165
  8
0
 62
     7
 10
157.49100000000001
 20
249.553
 30
0.0
 11
157.37100000000001
 21
249.553
 31
0.0
  0
LINE
  5
166
  8
0
 62
     7
 10
157.53099999999989
 20
249.51300000000001
 30
0.0
 11
157.49100000000001
 21
249.553
 31
0.0
  0
LINE
  5
167
  8
0
 62
     7
 10
157.37100000000001
 20
249.553
 30
0.0
 11
157.33099999999999
 21
249.51300000000001
 31
0.0
  0
LINE
  5
168
  8
0
 62
     7
 10
157.37100000000001
 20
247.553
 30
0.0
 11
157.37100000000001
 21
249.553
 31
0.0
  0
LINE
  5
169
  8
0
 62
     7
 10
157.53099999999989
 20
249.51300000000001
 30
0.0
 11
157.53099999999989
 21
247.553
 31
0.0
  0
LINE
  5
16A
  8
0
 62
     7
 10
157.53099999999989
 20
245.5929999999999
 30
0.0
 11
157.53099999999989
 21
247.553
 31
0.0
  0
LINE
  5
16B
  8
0
 62
     7
 10
157.37100000000001
 20
247.553
 30
0.0
 11
157.37100000000001
 21
245.55299999999991
 31
0.0
  0
LINE
  5
16C
  8
0
 62
     7
 10
157.37100000000001
 20
245.55299999999991
 30
0.0
 11
157.33099999999999
 21
245.5929999999999
 31
0.0
  0
LINE
  5
16D
  8
0
 62
     7
 10
157.53099999999989
 20
245.5929999999999
 30
0.0
 11
157.49100000000001
 21
245.55299999999991
 31
0.0
  0
LINE
  5
16E
  8
0
 62
     7
 10
157.49100000000001
 20
245.55299999999991
 30
0.0
 11
157.37100000000001
 21
245.55299999999991
 31
0.0
  0
LINE
  5
16F
  8
0
 62
     7
 10
157.49100000000001
 20
245.55299999999991
 30
0.0
 11
157.49100000000001
 21
247.553
 31
0.0
  0
LINE
  5
170
  8
0
 62
     7
 10
160.86500000000001
 20
246.97599999999991
 30
0.0
 11
160.81100000000001
 21
246.88300000000001
 31
0.0
  0
ARC
  5
171
  8
0
 62
     7
 10
160.71361099999999
 20
246.99833699999999
 30
0.0
 40
0.155015
 50
13.115036999999999
 51
93.539618000000019
  0
ARC
  5
172
  8
0
 62
     7
 10
160.419455
 20
247.45490599999999
 30
0.0
 40
0.4148520000000001
 50
313.31378199999989
 51
331.80632800000001
  0
ARC
  5
173
  8
0
 62
     7
 10
160.26477600000001
 20
247.55733900000001
 30
0.0
 40
0.5998200000000001
 50
330.16307799999993
 51
359.62183599999997
  0
LINE
  5
174
  8
0
 62
     7
 10
161.52899999999991
 20
248.14199999999991
 30
0.0
 11
161.52899999999991
 21
246.87599999999989
 31
0.0
  0
LINE
  5
175
  8
0
 62
     7
 10
160.86500000000001
 20
246.97599999999991
 30
0.0
 11
160.86500000000001
 21
247.553
 31
0.0
  0
LINE
  5
176
  8
0
 62
     7
 10
160.86500000000001
 20
248.13
 30
0.0
 11
160.86500000000001
 21
247.553
 31
0.0
  0
ARC
  5
177
  8
0
 62
     7
 10
160.459496
 20
247.57484500000001
 30
0.0
 40
0.4056550000000001
 50
356.96675199999999
 51
14.845864999999989
  0
ARC
  5
178
  8
0
 62
     7
 10
160.268022
 20
247.541562
 30
0.0
 40
0.599503
 50
13.231673000000001
 51
43.339512999999997
  0
ARC
  5
179
  8
0
 62
     7
 10
160.71181899999999
 20
248.1100319999999
 30
0.0
 40
0.157212
 50
267.16411399999998
 51
346.33926000000002
  0
LINE
  5
17A
  8
0
 62
     7
 10
160.86500000000001
 20
248.13
 30
0.0
 11
160.81100000000001
 21
248.2229999999999
 31
0.0
  0
LINE
  5
17B
  8
0
 62
     7
 10
157.5979999999999
 20
246.88300000000001
 30
0.0
 11
160.81100000000001
 21
246.88300000000001
 31
0.0
  0
ARC
  5
17C
  8
0
 62
     7
 10
157.6004419999999
 20
248.29246499999999
 30
0.0
 40
0.0694
 50
182.0800219999999
 51
267.920008
  0
LINE
  5
17D
  8
0
 62
     7
 10
157.53099999999989
 20
248.13
 30
0.0
 11
157.58500000000001
 21
248.2229999999999
 31
0.0
  0
LINE
  5
17E
  8
0
 62
     7
 10
157.5979999999999
 20
248.2229999999999
 30
0.0
 11
160.81100000000001
 21
248.2229999999999
 31
0.0
  0
ARC
  5
17F
  8
0
 62
     7
 10
157.682783
 20
248.10860099999991
 30
0.0
 40
0.155839
 50
193.24225799999999
 51
273.25440800000001
  0
LINE
  5
180
  8
0
 62
     7
 10
157.53099999999989
 20
248.13
 30
0.0
 11
157.53099999999989
 21
247.553
 31
0.0
  0
ARC
  5
181
  8
0
 62
     7
 10
157.96963500000001
 20
247.65718100000001
 30
0.0
 40
0.40596
 50
133.22058599999991
 51
151.07750100000001
  0
ARC
  5
182
  8
0
 62
     7
 10
158.13354099999989
 20
247.54793699999999
 30
0.0
 40
0.602478
 50
149.5224199999999
 51
179.48232799999991
  0
ARC
  5
183
  8
0
 62
     7
 10
157.93710100000001
 20
247.5319089999999
 30
0.0
 40
0.4065800000000001
 50
176.9728439999999
 51
194.863867
  0
ARC
  5
184
  8
0
 62
     7
 10
158.13095799999999
 20
247.56598799999989
 30
0.0
 40
0.6029270000000001
 50
193.268102
 51
223.22593800000001
  0
LINE
  5
185
  8
0
 62
     7
 10
157.53099999999989
 20
246.97599999999991
 30
0.0
 11
157.53099999999989
 21
247.553
 31
0.0
  0
ARC
  5
186
  8
0
 62
     7
 10
157.6819689999999
 20
246.998459
 30
0.0
 40
0.1549
 50
86.424166
 51
166.92113999999989
  0
LINE
  5
187
  8
0
 62
     7
 10
157.53099999999989
 20
246.97599999999991
 30
0.0
 11
157.58500000000001
 21
246.88300000000001
 31
0.0
  0
ARC
  5
188
  8
0
 62
     7
 10
157.60037500000001
 20
246.81365899999989
 30
0.0
 40
0.069344
 50
92.026235999999997
 51
177.67763199999999
  0
LINE
  5
189
  8
0
 62
     7
 10
161.4729999999999
 20
246.77799999999991
 30
0.0
 11
160.9199999999999
 21
246.77799999999991
 31
0.0
  0
LINE
  5
18A
  8
0
 62
     7
 10
161.4729999999999
 20
247.875
 30
0.0
 11
160.9199999999999
 21
247.875
 31
0.0
  0
LINE
  5
18B
  8
0
 62
     7
 10
161.4729999999999
 20
248.24000000000001
 30
0.0
 11
160.9199999999999
 21
248.24000000000001
 31
0.0
  0
LINE
  5
18C
  8
0
 62
     7
 10
161.4729999999999
 20
247.143
 30
0.0
 11
160.9199999999999
 21
247.143
 31
0.0
  0
LINE
  5
18D
  8
0
 62
     7
 10
161.4729999999999
 20
246.77799999999991
 30
0.0
 11
161.52899999999991
 21
246.87599999999989
 31
0.0
  0
LINE
  5
18E
  8
0
 62
     7
 10
161.4729999999999
 20
248.24000000000001
 30
0.0
 11
161.52899999999991
 21
248.14199999999991
 31
0.0
  0
ARC
  5
18F
  8
0
 62
     7
 10
161.221676
 20
248.05617599999991
 30
0.0
 40
0.309924
 50
324.18302599999993
 51
27.010192
  0
ARC
  5
190
  8
0
 62
     7
 10
160.77836600000001
 20
247.40675400000001
 30
0.0
 40
0.7428680000000001
 50
339.23750799999988
 51
352.30050099999988
  0
ARC
  5
191
  8
0
 62
     7
 10
160.25261399999991
 20
247.500168
 30
0.0
 40
1.2765879999999989
 50
351.30707799999999
 51
17.065864999999999
  0
ARC
  5
192
  8
0
 62
     7
 10
161.221024
 20
246.96184299999999
 30
0.0
 40
0.310571
 50
333.02085399999999
 51
35.776555000000002
  0
LINE
  5
193
  8
0
 62
     7
 10
160.9199999999999
 20
246.77799999999991
 30
0.0
 11
160.86299999999989
 21
246.87599999999989
 31
0.0
  0
LINE
  5
194
  8
0
 62
     7
 10
160.9199999999999
 20
248.24000000000001
 30
0.0
 11
160.86299999999989
 21
248.14199999999991
 31
0.0
  0
ARC
  5
195
  8
0
 62
     7
 10
161.614475
 20
247.610725
 30
0.0
 40
0.743267
 50
159.1880459999999
 51
172.262057
  0
ARC
  5
196
  8
0
 62
     7
 10
162.13352099999989
 20
247.517911
 30
0.0
 40
1.270275
 50
171.26591999999999
 51
197.146638
  0
ARC
  5
197
  8
0
 62
     7
 10
161.16995799999989
 20
248.056389
 30
0.0
 40
0.309189
 50
152.964584
 51
215.964023
  0
LINE
  5
198
  8
0
 62
     7
 10
160.86299999999989
 20
246.87599999999989
 30
0.0
 11
160.86299999999989
 21
248.14199999999991
 31
0.0
  0
ARC
  5
199
  8
0
 62
     7
 10
161.170244
 20
246.961659
 30
0.0
 40
0.309521
 50
144.04116999999999
 51
207.03972300000001
  0
LINE
  5
19A
  8
0
 62
     7
 10
157.298
 20
250.87599999999989
 30
0.0
 11
156.55799999999991
 21
250.87599999999989
 31
0.0
  0
LINE
  5
19B
  8
0
 62
     7
 10
157.298
 20
244.20999999999989
 30
0.0
 11
156.9499999999999
 21
244.20999999999989
 31
0.0
  0
LINE
  5
19C
  8
0
 62
     7
 10
157.33099999999999
 20
250.84299999999999
 30
0.0
 11
157.298
 21
250.87599999999989
 31
0.0
  0
LINE
  5
19D
  8
0
 62
     7
 10
157.33099999999999
 20
247.58699999999999
 30
0.0
 11
157.33099999999999
 21
244.24299999999991
 31
0.0
  0
LINE
  5
19E
  8
0
 62
     7
 10
157.33099999999999
 20
247.58699999999999
 30
0.0
 11
157.33099999999999
 21
250.84299999999999
 31
0.0
  0
LINE
  5
19F
  8
0
 62
     7
 10
157.33099999999999
 20
244.24299999999991
 30
0.0
 11
157.298
 21
244.20999999999989
 31
0.0
  0
LINE
  5
1A0
  8
0
 62
     7
 10
157.333
 20
225.58199999999991
 30
0.0
 11
157.333
 21
229.50299999999999
 31
0.0
  0
LINE
  5
1A1
  8
0
 62
     7
 10
157.6929999999999
 20
227.14199999999991
 30
0.0
 11
160.70500000000001
 21
227.14199999999991
 31
0.0
  0
LINE
  5
1A2
  8
0
 62
     7
 10
157.6929999999999
 20
227.94300000000001
 30
0.0
 11
160.70500000000001
 21
227.94300000000001
 31
0.0
  0
LINE
  5
1A3
  8
0
 62
     7
 10
157.49299999999991
 20
225.54300000000001
 30
0.0
 11
157.49299999999991
 21
227.54300000000001
 31
0.0
  0
LINE
  5
1A4
  8
0
 62
     7
 10
157.49299999999991
 20
225.54300000000001
 30
0.0
 11
157.37299999999991
 21
225.54300000000001
 31
0.0
  0
LINE
  5
1A5
  8
0
 62
     7
 10
157.5329999999999
 20
225.58199999999991
 30
0.0
 11
157.49299999999991
 21
225.54300000000001
 31
0.0
  0
LINE
  5
1A6
  8
0
 62
     7
 10
157.37299999999991
 20
225.54300000000001
 30
0.0
 11
157.333
 21
225.58199999999991
 31
0.0
  0
LINE
  5
1A7
  8
0
 62
     7
 10
157.37299999999991
 20
227.54300000000001
 30
0.0
 11
157.37299999999991
 21
225.54300000000001
 31
0.0
  0
LINE
  5
1A8
  8
0
 62
     7
 10
157.5329999999999
 20
225.58199999999991
 30
0.0
 11
157.5329999999999
 21
227.54300000000001
 31
0.0
  0
LINE
  5
1A9
  8
0
 62
     7
 10
157.5329999999999
 20
229.50299999999999
 30
0.0
 11
157.5329999999999
 21
227.54300000000001
 31
0.0
  0
LINE
  5
1AA
  8
0
 62
     7
 10
157.37299999999991
 20
227.54300000000001
 30
0.0
 11
157.37299999999991
 21
229.54300000000001
 31
0.0
  0
LINE
  5
1AB
  8
0
 62
     7
 10
157.37299999999991
 20
229.54300000000001
 30
0.0
 11
157.333
 21
229.50299999999999
 31
0.0
  0
LINE
  5
1AC
  8
0
 62
     7
 10
157.5329999999999
 20
229.50299999999999
 30
0.0
 11
157.49299999999991
 21
229.54300000000001
 31
0.0
  0
LINE
  5
1AD
  8
0
 62
     7
 10
157.49299999999991
 20
229.54300000000001
 30
0.0
 11
157.37299999999991
 21
229.54300000000001
 31
0.0
  0
LINE
  5
1AE
  8
0
 62
     7
 10
157.49299999999991
 20
229.54300000000001
 30
0.0
 11
157.49299999999991
 21
227.54300000000001
 31
0.0
  0
LINE
  5
1AF
  8
0
 62
     7
 10
160.86600000000001
 20
228.12
 30
0.0
 11
160.8129999999999
 21
228.21199999999999
 31
0.0
  0
ARC
  5
1B0
  8
0
 62
     7
 10
160.71356
 20
228.099377
 30
0.0
 40
0.15685
 50
267.02462700000001
 51
346.32071799999989
  0
ARC
  5
1B1
  8
0
 62
     7
 10
160.4608739999999
 20
227.56422599999999
 30
0.0
 40
0.4056550000000001
 50
356.96675199999999
 51
14.845864999999989
  0
ARC
  5
1B2
  8
0
 62
     7
 10
160.26754600000001
 20
227.53046299999991
 30
0.0
 40
0.601418
 50
13.235771
 51
43.275401000000002
  0
LINE
  5
1B3
  8
0
 62
     7
 10
160.86600000000001
 20
228.12
 30
0.0
 11
160.86600000000001
 21
227.54300000000001
 31
0.0
  0
LINE
  5
1B4
  8
0
 62
     7
 10
161.53100000000001
 20
228.22
 30
0.0
 11
161.53100000000001
 21
226.95400000000001
 31
0.0
  0
LINE
  5
1B5
  8
0
 62
     7
 10
160.86600000000001
 20
226.96499999999989
 30
0.0
 11
160.86600000000001
 21
227.54300000000001
 31
0.0
  0
ARC
  5
1B6
  8
0
 62
     7
 10
160.41747299999989
 20
227.4464569999999
 30
0.0
 40
0.418737
 50
313.44465200000002
 51
331.78782799999988
  0
ARC
  5
1B7
  8
0
 62
     7
 10
160.26562699999991
 20
227.54707999999991
 30
0.0
 40
0.6003500000000001
 50
330.17608100000001
 51
359.58773600000001
  0
ARC
  5
1B8
  8
0
 62
     7
 10
160.71517900000001
 20
226.98787200000001
 30
0.0
 40
0.154874
 50
13.199667
 51
93.613341000000005
  0
LINE
  5
1B9
  8
0
 62
     7
 10
160.86600000000001
 20
226.96499999999989
 30
0.0
 11
160.8129999999999
 21
226.87299999999999
 31
0.0
  0
LINE
  5
1BA
  8
0
 62
     7
 10
157.59899999999999
 20
228.21199999999999
 30
0.0
 11
160.8129999999999
 21
228.21199999999999
 31
0.0
  0
ARC
  5
1BB
  8
0
 62
     7
 10
157.601823
 20
226.80367200000001
 30
0.0
 40
0.069059
 50
92.093012000000002
 51
177.90695799999989
  0
LINE
  5
1BC
  8
0
 62
     7
 10
157.5329999999999
 20
226.96499999999989
 30
0.0
 11
157.58600000000001
 21
226.87299999999999
 31
0.0
  0
LINE
  5
1BD
  8
0
 62
     7
 10
157.59899999999999
 20
226.87299999999999
 30
0.0
 11
160.8129999999999
 21
226.87299999999999
 31
0.0
  0
ARC
  5
1BE
  8
0
 62
     7
 10
157.68334400000001
 20
226.98817700000001
 30
0.0
 40
0.154563
 50
86.415424999999985
 51
166.88938699999991
  0
LINE
  5
1BF
  8
0
 62
     7
 10
157.5329999999999
 20
226.96499999999989
 30
0.0
 11
157.5329999999999
 21
227.54300000000001
 31
0.0
  0
ARC
  5
1C0
  8
0
 62
     7
 10
157.93638100000001
 20
227.52051099999991
 30
0.0
 40
0.404184
 50
176.84438399999999
 51
194.80829800000001
  0
ARC
  5
1C1
  8
0
 62
     7
 10
158.133162
 20
227.55545000000001
 30
0.0
 40
0.603585
 50
193.24034299999991
 51
223.17790500000001
  0
ARC
  5
1C2
  8
0
 62
     7
 10
157.97127699999999
 20
227.64720600000001
 30
0.0
 40
0.405923
 50
133.27672299999989
 51
151.16105899999999
  0
ARC
  5
1C3
  8
0
 62
     7
 10
158.13358199999999
 20
227.53846899999999
 30
0.0
 40
0.600787
 50
149.542991
 51
179.59066200000001
  0
LINE
  5
1C4
  8
0
 62
     7
 10
157.5329999999999
 20
228.12
 30
0.0
 11
157.5329999999999
 21
227.54300000000001
 31
0.0
  0
ARC
  5
1C5
  8
0
 62
     7
 10
157.68365800000001
 20
228.09732
 30
0.0
 40
0.154863
 50
193.07548099999991
 51
273.46125599999988
  0
LINE
  5
1C6
  8
0
 62
     7
 10
157.5329999999999
 20
228.12
 30
0.0
 11
157.58600000000001
 21
228.21199999999999
 31
0.0
  0
ARC
  5
1C7
  8
0
 62
     7
 10
157.602068
 20
228.281736
 30
0.0
 40
0.0693
 50
181.9921699999999
 51
267.71175799999997
  0
LINE
  5
1C8
  8
0
 62
     7
 10
161.4739999999999
 20
228.3179999999999
 30
0.0
 11
160.92099999999999
 21
228.3179999999999
 31
0.0
  0
LINE
  5
1C9
  8
0
 62
     7
 10
161.4739999999999
 20
227.22099999999989
 30
0.0
 11
160.92099999999999
 21
227.22099999999989
 31
0.0
  0
LINE
  5
1CA
  8
0
 62
     7
 10
161.4739999999999
 20
226.8549999999999
 30
0.0
 11
160.92099999999999
 21
226.8549999999999
 31
0.0
  0
LINE
  5
1CB
  8
0
 62
     7
 10
161.4739999999999
 20
227.953
 30
0.0
 11
160.92099999999999
 21
227.953
 31
0.0
  0
LINE
  5
1CC
  8
0
 62
     7
 10
161.4739999999999
 20
228.3179999999999
 30
0.0
 11
161.53100000000001
 21
228.22
 31
0.0
  0
LINE
  5
1CD
  8
0
 62
     7
 10
161.4739999999999
 20
226.8549999999999
 30
0.0
 11
161.53100000000001
 21
226.95400000000001
 31
0.0
  0
ARC
  5
1CE
  8
0
 62
     7
 10
161.2240009999999
 20
227.0395419999999
 30
0.0
 40
0.309202
 50
332.86608699999999
 51
35.931322999999999
  0
ARC
  5
1CF
  8
0
 62
     7
 10
160.77720600000001
 20
227.48488099999989
 30
0.0
 40
0.745437
 50
339.26701600000001
 51
352.29609599999992
  0
ARC
  5
1D0
  8
0
 62
     7
 10
160.25320199999999
 20
227.57796500000001
 30
0.0
 40
1.277379
 50
351.30932799999999
 51
17.060766999999998
  0
ARC
  5
1D1
  8
0
 62
     7
 10
161.222802
 20
228.134266
 30
0.0
 40
0.310228
 50
324.18487799999991
 51
27.017711999999989
  0
LINE
  5
1D2
  8
0
 62
     7
 10
160.92099999999999
 20
228.3179999999999
 30
0.0
 11
160.864
 21
228.22
 31
0.0
  0
LINE
  5
1D3
  8
0
 62
     7
 10
160.92099999999999
 20
226.8549999999999
 30
0.0
 11
160.864
 21
226.95400000000001
 31
0.0
  0
ARC
  5
1D4
  8
0
 62
     7
 10
161.61838899999989
 20
227.6880919999999
 30
0.0
 40
0.7458350000000001
 50
159.21756799999989
 51
172.25767799999991
  0
ARC
  5
1D5
  8
0
 62
     7
 10
162.13568499999991
 20
227.59560999999999
 30
0.0
 40
1.2710629999999989
 50
171.268181
 51
197.141515
  0
ARC
  5
1D6
  8
0
 62
     7
 10
161.1716219999999
 20
227.03923499999999
 30
0.0
 40
0.309521
 50
144.04116999999999
 51
207.03972300000001
  0
LINE
  5
1D7
  8
0
 62
     7
 10
160.864
 20
228.22
 30
0.0
 11
160.864
 21
226.95400000000001
 31
0.0
  0
ARC
  5
1D8
  8
0
 62
     7
 10
161.17226599999989
 20
228.13453199999989
 30
0.0
 40
0.310073
 50
153.022684
 51
215.896423
  0
LINE
  5
1D9
  8
0
 62
     7
 10
157.29900000000001
 20
224.21999999999991
 30
0.0
 11
156.5629999999999
 21
224.21999999999991
 31
0.0
  0
LINE
  5
1DA
  8
0
 62
     7
 10
157.29900000000001
 20
230.886
 30
0.0
 11
156.95199999999991
 21
230.886
 31
0.0
  0
LINE
  5
1DB
  8
0
 62
     7
 10
157.33199999999999
 20
224.2529999999999
 30
0.0
 11
157.29900000000001
 21
224.21999999999991
 31
0.0
  0
LINE
  5
1DC
  8
0
 62
     7
 10
157.33199999999999
 20
227.50899999999999
 30
0.0
 11
157.33199999999999
 21
230.85299999999989
 31
0.0
  0
LINE
  5
1DD
  8
0
 62
     7
 10
157.33199999999999
 20
227.50899999999999
 30
0.0
 11
157.33199999999999
 21
224.2529999999999
 31
0.0
  0
LINE
  5
1DE
  8
0
 62
     7
 10
157.33199999999999
 20
230.85299999999989
 30
0.0
 11
157.29900000000001
 21
230.886
 31
0.0
  0
ARC
  5
1DF
  8
0
 62
     7
 10
156.8479889999999
 20
233.91873899999999
 30
0.0
 40
0.4506510000000001
 50
134.89117999999991
 51
151.99491900000001
  0
ARC
  5
1E0
  8
0
 62
     7
 10
157.04382899999999
 20
233.78756299999989
 30
0.0
 40
0.6855680000000001
 50
150.000508
 51
175.085768
  0
LINE
  5
1E1
  8
0
 62
     7
 10
157.37
 20
235.17099999999999
 30
0.0
 11
156.53
 21
234.23799999999989
 31
0.0
  0
LINE
  5
1E2
  8
0
 62
     7
 10
157.42099999999991
 20
237.5979999999999
 30
0.0
 11
157.42099999999991
 21
235.30500000000001
 31
0.0
  0
ARC
  5
1E3
  8
0
 62
     7
 10
157.23361199999999
 20
235.29948699999991
 30
0.0
 40
0.187302
 50
316.51580999999987
 51
1.5671759999999999
  0
ARC
  5
1E4
  8
0
 62
     7
 10
156.81266799999989
 20
241.218738
 30
0.0
 40
0.452063
 50
181.60258799999991
 51
198.65649899999991
  0
ARC
  5
1E5
  8
0
 62
     7
 10
157.040773
 20
241.270758
 30
0.0
 40
0.6852330000000001
 50
196.6757989999999
 51
221.798485
  0
LINE
  5
1E6
  8
0
 62
     7
 10
157.37
 20
239.88099999999989
 30
0.0
 11
156.53
 21
240.81399999999999
 31
0.0
  0
LINE
  5
1E7
  8
0
 62
     7
 10
157.42099999999991
 20
237.45400000000001
 30
0.0
 11
157.42099999999991
 21
239.74799999999991
 31
0.0
  0
ARC
  5
1E8
  8
0
 62
     7
 10
157.23606100000001
 20
239.75350899999989
 30
0.0
 40
0.184872
 50
358.22351099999992
 51
43.792121999999999
  0
ARC
  5
1E9
  8
0
 62
     7
 10
148.17921699999999
 20
238.684392
 30
0.0
 40
18.847757000000001
 50
275.81226400000003
 51
278.30253699999997
  0
ARC
  5
1EA
  8
0
 62
     7
 10
146.55879999999991
 20
251.9849329999999
 30
0.0
 40
32.244447999999998
 50
277.73895599999997
 51
280.31735600000002
  0
ARC
  5
1EB
  8
0
 62
     7
 10
138.76244199999991
 20
226.38527500000001
 30
0.0
 40
17.934403
 50
351.98530899999992
 51
354.53920599999992
  0
ARC
  5
1EC
  8
0
 62
     7
 10
122.25226000000001
 20
228.29086599999999
 30
0.0
 40
34.552534999999992
 50
353.99902099999991
 51
356.83666499999993
  0
ARC
  5
1ED
  8
0
 62
     7
 10
138.19907799999999
 20
226.45593199999999
 30
0.0
 40
17.835542999999991
 50
351.98854999999998
 51
354.57350400000001
  0
ARC
  5
1EE
  8
0
 62
     7
 10
122.600835
 20
228.26304099999999
 30
0.0
 40
33.536340000000003
 50
354.02011399999998
 51
356.85139900000001
  0
ARC
  5
1EF
  8
0
 62
     7
 10
151.7516169999999
 20
224.14697899999999
 30
0.0
 40
3.9285049999999999
 50
278.52208599999989
 51
314.12918100000002
  0
ARC
  5
1F0
  8
0
 62
     7
 10
151.5002629999999
 20
224.55787499999991
 30
0.0
 40
4.3997159999999997
 50
312.75278199999991
 51
352.32365700000003
  0
LINE
  5
1F1
  8
0
 62
     7
 10
150.08799999999991
 20
219.934
 30
0.0
 11
130.614
 21
217.755
 31
0.0
  0
ARC
  5
1F2
  8
0
 62
     7
 10
148.8201479999999
 20
236.409796
 30
0.0
 40
18.713559
 50
79.177970999999999
 51
81.686436999999998
  0
ARC
  5
1F3
  8
0
 62
     7
 10
146.5490439999999
 20
223.1573459999999
 30
0.0
 40
32.15683099999999
 50
81.096551000000005
 51
83.681776999999997
  0
ARC
  5
1F4
  8
0
 62
     7
 10
138.63320200000001
 20
247.86834099999999
 30
0.0
 40
18.136576000000002
 50
2.5266500000000001
 51
5.1185039999999988
  0
ARC
  5
1F5
  8
0
 62
     7
 10
122.6388519999999
 20
246.7742199999999
 30
0.0
 40
34.166422999999988
 50
4.5530339999999994
 51
7.3874899999999997
  0
ARC
  5
1F6
  8
0
 62
     7
 10
138.152007
 20
247.83747700000001
 30
0.0
 40
17.952089999999991
 50
2.5334680000000001
 51
5.101310999999999
  0
ARC
  5
1F7
  8
0
 62
     7
 10
122.63611999999991
 20
246.77263300000001
 30
0.0
 40
33.502721000000001
 50
4.555750999999999
 51
7.3900529999999991
  0
ARC
  5
1F8
  8
0
 62
     7
 10
125.9158189999999
 20
263.54565999999988
 30
0.0
 40
0.5494630000000002
 50
95.384387999999987
 51
178.99881099999999
  0
ARC
  5
1F9
  8
0
 62
     7
 10
125.915865
 20
211.50641999999999
 30
0.0
 40
0.549504
 50
180.96899799999991
 51
264.61119600000001
  0
ARC
  5
1FA
  8
0
 62
     7
 10
151.95148599999999
 20
250.69563599999989
 30
0.0
 40
3.9280989999999991
 50
5.6427579999999997
 51
41.257339999999999
  0
ARC
  5
1FB
  8
0
 62
     7
 10
151.52789199999989
 20
250.46518999999989
 30
0.0
 40
4.3997830000000002
 50
39.875568999999992
 51
79.445750000000004
  0
ARC
  5
1FC
  8
0
 62
     7
 10
65.417156000000006
 20
239.62014099999999
 30
0.0
 40
91.627883999999995
 50
0.390245
 51
1.545585999999999
  0
ARC
  5
1FD
  8
0
 62
     7
 10
-58.429281000000003
 20
236.88093799999999
 30
0.0
 40
215.503987
 50
1.385475
 51
3.1369020000000001
  0
ARC
  5
1FE
  8
0
 62
     7
 10
73.099606000000009
 20
238.2627359999999
 30
0.0
 40
83.298194999999993
 50
359.49325199999998
 51
0.6921890000000001
  0
ARC
  5
1FF
  8
0
 62
     7
 10
-54.977964
 20
237.06827100000001
 30
0.0
 40
211.38114400000001
 50
0.596538
 51
3.138128
  0
LINE
  5
200
  8
0
 62
     7
 10
125.8639999999999
 20
210.95899999999989
 30
0.0
 11
127.3679999999999
 21
210.8589999999999
 31
0.0
  0
LINE
  5
201
  8
0
 62
     7
 10
127.3679999999999
 20
237.5259999999999
 30
0.0
 11
127.3679999999999
 21
210.8589999999999
 31
0.0
  0
LINE
  5
202
  8
0
 62
     7
 10
127.3679999999999
 20
210.8589999999999
 30
0.0
 11
127.3679999999999
 21
217.39199999999991
 31
0.0
  0
LINE
  5
203
  8
0
 62
     7
 10
127.3679999999999
 20
210.8589999999999
 30
0.0
 11
127.3679999999999
 21
211.19399999999999
 31
0.0
  0
LINE
  5
204
  8
0
 62
     7
 10
127.3679999999999
 20
210.8589999999999
 30
0.0
 11
127.3679999999999
 21
211.19399999999999
 31
0.0
  0
LINE
  5
205
  8
0
 62
     7
 10
150.08799999999991
 20
255.119
 30
0.0
 11
130.614
 21
257.29700000000003
 31
0.0
  0
ARC
  5
206
  8
0
 62
     7
 10
64.681448000000003
 20
232.0668289999999
 30
0.0
 40
92.246561
 50
356.42014999999992
 51
357.57741800000002
  0
ARC
  5
207
  8
0
 62
     7
 10
-58.683610999999999
 20
237.89632700000001
 30
0.0
 40
215.74863300000001
 50
357.41549700000002
 51
359.17976699999991
  0
ARC
  5
208
  8
0
 62
     7
 10
72.860050999999999
 20
231.73721499999999
 30
0.0
 40
83.396921999999989
 50
356.29227900000001
 51
357.49712699999992
  0
ARC
  5
209
  8
0
 62
     7
 10
-54.433116000000012
 20
237.662173
 30
0.0
 40
210.8277039999999
 50
357.39916099999999
 51
359.96299900000002
  0
LINE
  5
20A
  8
0
 62
     7
 10
125.8639999999999
 20
264.09300000000002
 30
0.0
 11
127.3679999999999
 21
264.19299999999993
 31
0.0
  0
LINE
  5
20B
  8
0
 62
     7
 10
127.3679999999999
 20
237.5259999999999
 30
0.0
 11
127.3679999999999
 21
264.19299999999993
 31
0.0
  0
LINE
  5
20C
  8
0
 62
     7
 10
125.3679999999999
 20
263.55500000000001
 30
0.0
 11
125.3679999999999
 21
211.45400000000001
 31
0.0
  0
LINE
  5
20D
  8
0
 62
     7
 10
127.3679999999999
 20
264.19299999999993
 30
0.0
 11
127.3679999999999
 21
257.66000000000003
 31
0.0
  0
LINE
  5
20E
  8
0
 62
     7
 10
127.3679999999999
 20
264.19299999999993
 30
0.0
 11
127.3679999999999
 21
263.85899999999998
 31
0.0
  0
LINE
  5
20F
  8
0
 62
     7
 10
127.3679999999999
 20
264.19299999999993
 30
0.0
 11
127.3679999999999
 21
263.85899999999998
 31
0.0
  0
LINE
  5
210
  8
0
 62
     7
 10
154.38900000000001
 20
98.936899999999994
 30
0.0
 11
155.05600000000001
 21
98.936899999999994
 31
0.0
  0
LINE
  5
211
  8
0
 62
     7
 10
156.333
 20
160.7879999999999
 30
0.0
 11
157.0
 21
160.76699999999991
 31
0.0
  0
LINE
  5
212
  8
0
 62
     7
 10
157.33199999999999
 20
153.929
 30
0.0
 11
157.33199999999999
 21
157.8489999999999
 31
0.0
  0
LINE
  5
213
  8
0
 62
     7
 10
157.6929999999999
 20
155.489
 30
0.0
 11
160.70500000000001
 21
155.489
 31
0.0
  0
LINE
  5
214
  8
0
 62
     7
 10
157.6929999999999
 20
156.2889999999999
 30
0.0
 11
160.70500000000001
 21
156.2889999999999
 31
0.0
  0
LINE
  5
215
  8
0
 62
     7
 10
157.49299999999991
 20
153.88900000000001
 30
0.0
 11
157.49299999999991
 21
155.88900000000001
 31
0.0
  0
LINE
  5
216
  8
0
 62
     7
 10
157.49299999999991
 20
153.88900000000001
 30
0.0
 11
157.37299999999991
 21
153.88900000000001
 31
0.0
  0
LINE
  5
217
  8
0
 62
     7
 10
157.53200000000001
 20
153.929
 30
0.0
 11
157.49299999999991
 21
153.88900000000001
 31
0.0
  0
LINE
  5
218
  8
0
 62
     7
 10
157.37299999999991
 20
153.88900000000001
 30
0.0
 11
157.33199999999999
 21
153.929
 31
0.0
  0
LINE
  5
219
  8
0
 62
     7
 10
157.37299999999991
 20
155.88900000000001
 30
0.0
 11
157.37299999999991
 21
153.88900000000001
 31
0.0
  0
LINE
  5
21A
  8
0
 62
     7
 10
157.53200000000001
 20
153.929
 30
0.0
 11
157.53200000000001
 21
155.88900000000001
 31
0.0
  0
LINE
  5
21B
  8
0
 62
     7
 10
157.53200000000001
 20
157.8489999999999
 30
0.0
 11
157.53200000000001
 21
155.88900000000001
 31
0.0
  0
LINE
  5
21C
  8
0
 62
     7
 10
157.37299999999991
 20
155.88900000000001
 30
0.0
 11
157.37299999999991
 21
157.88900000000001
 31
0.0
  0
LINE
  5
21D
  8
0
 62
     7
 10
157.37299999999991
 20
157.88900000000001
 30
0.0
 11
157.33199999999999
 21
157.8489999999999
 31
0.0
  0
LINE
  5
21E
  8
0
 62
     7
 10
157.53200000000001
 20
157.8489999999999
 30
0.0
 11
157.49299999999991
 21
157.88900000000001
 31
0.0
  0
LINE
  5
21F
  8
0
 62
     7
 10
157.49299999999991
 20
157.88900000000001
 30
0.0
 11
157.37299999999991
 21
157.88900000000001
 31
0.0
  0
LINE
  5
220
  8
0
 62
     7
 10
157.49299999999991
 20
157.88900000000001
 30
0.0
 11
157.49299999999991
 21
155.88900000000001
 31
0.0
  0
LINE
  5
221
  8
0
 62
     7
 10
160.86600000000001
 20
156.46600000000001
 30
0.0
 11
160.81200000000001
 21
156.559
 31
0.0
  0
ARC
  5
222
  8
0
 62
     7
 10
160.713123
 20
156.44623999999999
 30
0.0
 40
0.157306
 50
267.19266299999992
 51
346.31071099999991
  0
ARC
  5
223
  8
0
 62
     7
 10
160.462425
 20
155.91090500000001
 30
0.0
 40
0.4041040000000001
 50
356.96215000000001
 51
14.909877
  0
ARC
  5
224
  8
0
 62
     7
 10
160.2671159999999
 20
155.876586
 30
0.0
 40
0.6019100000000001
 50
13.282913000000001
 51
43.265462999999997
  0
LINE
  5
225
  8
0
 62
     7
 10
160.86600000000001
 20
156.46600000000001
 30
0.0
 11
160.86600000000001
 21
155.88900000000001
 31
0.0
  0
LINE
  5
226
  8
0
 62
     7
 10
161.53100000000001
 20
156.56700000000001
 30
0.0
 11
161.53100000000001
 21
155.30000000000001
 31
0.0
  0
LINE
  5
227
  8
0
 62
     7
 10
160.86600000000001
 20
155.31200000000001
 30
0.0
 11
160.86600000000001
 21
155.88900000000001
 31
0.0
  0
ARC
  5
228
  8
0
 62
     7
 10
160.4216769999999
 20
155.79012800000001
 30
0.0
 40
0.4136270000000001
 50
313.313063
 51
331.83119099999988
  0
ARC
  5
229
  8
0
 62
     7
 10
160.26515699999999
 20
155.89383100000001
 30
0.0
 40
0.6008200000000001
 50
330.15909599999992
 51
359.5859319999999
  0
ARC
  5
22A
  8
0
 62
     7
 10
160.7142649999999
 20
155.33357899999999
 30
0.0
 40
0.155839
 50
13.242239
 51
93.254387999999977
  0
LINE
  5
22B
  8
0
 62
     7
 10
160.86600000000001
 20
155.31200000000001
 30
0.0
 11
160.81200000000001
 21
155.21899999999991
 31
0.0
  0
LINE
  5
22C
  8
0
 62
     7
 10
157.59899999999999
 20
156.559
 30
0.0
 11
160.81200000000001
 21
156.559
 31
0.0
  0
ARC
  5
22D
  8
0
 62
     7
 10
157.6015019999999
 20
155.15004499999989
 30
0.0
 40
0.069071
 50
92.112249000000006
 51
178.1838229999999
  0
LINE
  5
22E
  8
0
 62
     7
 10
157.53200000000001
 20
155.31200000000001
 30
0.0
 11
157.58600000000001
 21
155.21899999999991
 31
0.0
  0
LINE
  5
22F
  8
0
 62
     7
 10
157.59899999999999
 20
155.21899999999991
 30
0.0
 11
160.81200000000001
 21
155.21899999999991
 31
0.0
  0
ARC
  5
230
  8
0
 62
     7
 10
157.683875
 20
155.33396200000001
 30
0.0
 40
0.155473
 50
86.632253000000006
 51
166.871081
  0
LINE
  5
231
  8
0
 62
     7
 10
157.53200000000001
 20
155.31200000000001
 30
0.0
 11
157.53200000000001
 21
155.88900000000001
 31
0.0
  0
ARC
  5
232
  8
0
 62
     7
 10
157.94042899999999
 20
155.86795499999991
 30
0.0
 40
0.4085320000000001
 50
176.978454
 51
194.79302100000001
  0
ARC
  5
233
  8
0
 62
     7
 10
158.12887499999991
 20
155.9004129999999
 30
0.0
 40
0.599252
 50
193.19288
 51
223.33519999999999
  0
ARC
  5
234
  8
0
 62
     7
 10
157.967431
 20
155.995541
 30
0.0
 40
0.4018690000000001
 50
133.068186
 51
151.12175199999999
  0
ARC
  5
235
  8
0
 62
     7
 10
158.13402099999999
 20
155.88455500000001
 30
0.0
 40
0.601575
 50
149.5281149999999
 51
179.53007799999989
  0
LINE
  5
236
  8
0
 62
     7
 10
157.53200000000001
 20
156.46600000000001
 30
0.0
 11
157.53200000000001
 21
155.88900000000001
 31
0.0
  0
ARC
  5
237
  8
0
 62
     7
 10
157.68368100000001
 20
156.4440669999999
 30
0.0
 40
0.155225
 50
193.05171899999991
 51
273.44494700000001
  0
LINE
  5
238
  8
0
 62
     7
 10
157.53200000000001
 20
156.46600000000001
 30
0.0
 11
157.58600000000001
 21
156.559
 31
0.0
  0
ARC
  5
239
  8
0
 62
     7
 10
157.60170600000001
 20
156.62844699999999
 30
0.0
 40
0.069282
 50
181.97830500000001
 51
267.72562299999993
  0
LINE
  5
23A
  8
0
 62
     7
 10
161.4739999999999
 20
156.66499999999991
 30
0.0
 11
160.92099999999999
 21
156.66499999999991
 31
0.0
  0
LINE
  5
23B
  8
0
 62
     7
 10
161.4739999999999
 20
155.5679999999999
 30
0.0
 11
160.92099999999999
 21
155.5679999999999
 31
0.0
  0
LINE
  5
23C
  8
0
 62
     7
 10
161.4739999999999
 20
155.20199999999991
 30
0.0
 11
160.92099999999999
 21
155.20199999999991
 31
0.0
  0
LINE
  5
23D
  8
0
 62
     7
 10
161.4739999999999
 20
156.29900000000001
 30
0.0
 11
160.92099999999999
 21
156.29900000000001
 31
0.0
  0
LINE
  5
23E
  8
0
 62
     7
 10
161.4739999999999
 20
156.66499999999991
 30
0.0
 11
161.53100000000001
 21
156.56700000000001
 31
0.0
  0
LINE
  5
23F
  8
0
 62
     7
 10
161.4739999999999
 20
155.20199999999991
 30
0.0
 11
161.53100000000001
 21
155.30000000000001
 31
0.0
  0
ARC
  5
240
  8
0
 62
     7
 10
161.2228409999999
 20
155.38591299999999
 30
0.0
 40
0.310073
 50
333.0227220000001
 51
35.896384999999988
  0
ARC
  5
241
  8
0
 62
     7
 10
160.781612
 20
155.831311
 30
0.0
 40
0.7408890000000001
 50
339.15859899999998
 51
352.26095400000003
  0
ARC
  5
242
  8
0
 62
     7
 10
160.25836499999991
 20
155.92464299999989
 30
0.0
 40
1.2721290000000001
 50
351.26907699999992
 51
17.135694000000001
  0
ARC
  5
243
  8
0
 62
     7
 10
161.22271399999991
 20
156.4809699999999
 30
0.0
 40
0.310006
 50
324.160866
 51
26.901005999999992
  0
LINE
  5
244
  8
0
 62
     7
 10
160.92099999999999
 20
156.66499999999991
 30
0.0
 11
160.864
 21
156.56700000000001
 31
0.0
  0
LINE
  5
245
  8
0
 62
     7
 10
160.92099999999999
 20
155.20199999999991
 30
0.0
 11
160.864
 21
155.30000000000001
 31
0.0
  0
ARC
  5
246
  8
0
 62
     7
 10
161.61998600000001
 20
156.03518
 30
0.0
 40
0.7475220000000001
 50
159.2960689999999
 51
172.30636100000001
  0
ARC
  5
247
  8
0
 62
     7
 10
162.14136599999989
 20
155.94236000000001
 30
0.0
 40
1.2768280000000001
 50
171.310832
 51
197.06274300000001
  0
ARC
  5
248
  8
0
 62
     7
 10
161.17255299999999
 20
155.385864
 30
0.0
 40
0.310614
 50
144.16453200000001
 51
206.91636199999999
  0
LINE
  5
249
  8
0
 62
     7
 10
160.864
 20
156.56700000000001
 30
0.0
 11
160.864
 21
155.30000000000001
 31
0.0
  0
ARC
  5
24A
  8
0
 62
     7
 10
161.17122699999999
 20
156.48090599999989
 30
0.0
 40
0.309302
 50
153.01951399999999
 51
215.91861399999999
  0
LINE
  5
24B
  8
0
 62
     7
 10
157.29900000000001
 20
152.566
 30
0.0
 11
156.74199999999999
 21
152.566
 31
0.0
  0
LINE
  5
24C
  8
0
 62
     7
 10
157.29900000000001
 20
159.233
 30
0.0
 11
156.95099999999999
 21
159.233
 31
0.0
  0
LINE
  5
24D
  8
0
 62
     7
 10
157.33199999999999
 20
152.59899999999999
 30
0.0
 11
157.29900000000001
 21
152.566
 31
0.0
  0
LINE
  5
24E
  8
0
 62
     7
 10
157.33199999999999
 20
155.8549999999999
 30
0.0
 11
157.33199999999999
 21
159.1999999999999
 31
0.0
  0
LINE
  5
24F
  8
0
 62
     7
 10
157.33199999999999
 20
155.8549999999999
 30
0.0
 11
157.33199999999999
 21
152.59899999999999
 31
0.0
  0
LINE
  5
250
  8
0
 62
     7
 10
157.33199999999999
 20
159.1999999999999
 30
0.0
 11
157.29900000000001
 21
159.233
 31
0.0
  0
LINE
  5
251
  8
0
 62
     7
 10
156.559
 20
100.622
 30
0.0
 11
156.559
 21
104.5409999999999
 31
0.0
  0
LINE
  5
252
  8
0
 62
     7
 10
156.9189999999999
 20
102.1809999999999
 30
0.0
 11
159.93100000000001
 21
102.1809999999999
 31
0.0
  0
LINE
  5
253
  8
0
 62
     7
 10
156.9189999999999
 20
102.98099999999999
 30
0.0
 11
159.93100000000001
 21
102.98099999999999
 31
0.0
  0
LINE
  5
254
  8
0
 62
     7
 10
156.71899999999999
 20
100.58199999999999
 30
0.0
 11
156.71899999999999
 21
102.581
 31
0.0
  0
LINE
  5
255
  8
0
 62
     7
 10
156.71899999999999
 20
100.58199999999999
 30
0.0
 11
156.5979999999999
 21
100.58199999999999
 31
0.0
  0
LINE
  5
256
  8
0
 62
     7
 10
156.7589999999999
 20
100.622
 30
0.0
 11
156.71899999999999
 21
100.58199999999999
 31
0.0
  0
LINE
  5
257
  8
0
 62
     7
 10
156.5979999999999
 20
100.58199999999999
 30
0.0
 11
156.559
 21
100.622
 31
0.0
  0
LINE
  5
258
  8
0
 62
     7
 10
156.5979999999999
 20
102.581
 30
0.0
 11
156.5979999999999
 21
100.58199999999999
 31
0.0
  0
LINE
  5
259
  8
0
 62
     7
 10
156.7589999999999
 20
100.622
 30
0.0
 11
156.7589999999999
 21
102.581
 31
0.0
  0
LINE
  5
25A
  8
0
 62
     7
 10
156.7589999999999
 20
104.5409999999999
 30
0.0
 11
156.7589999999999
 21
102.581
 31
0.0
  0
LINE
  5
25B
  8
0
 62
     7
 10
156.5979999999999
 20
102.581
 30
0.0
 11
156.5979999999999
 21
104.581
 31
0.0
  0
LINE
  5
25C
  8
0
 62
     7
 10
156.5979999999999
 20
104.581
 30
0.0
 11
156.559
 21
104.5409999999999
 31
0.0
  0
LINE
  5
25D
  8
0
 62
     7
 10
156.7589999999999
 20
104.5409999999999
 30
0.0
 11
156.71899999999999
 21
104.581
 31
0.0
  0
LINE
  5
25E
  8
0
 62
     7
 10
156.71899999999999
 20
104.581
 30
0.0
 11
156.5979999999999
 21
104.581
 31
0.0
  0
LINE
  5
25F
  8
0
 62
     7
 10
156.71899999999999
 20
104.581
 30
0.0
 11
156.71899999999999
 21
102.581
 31
0.0
  0
LINE
  5
260
  8
0
 62
     7
 10
160.09200000000001
 20
103.15900000000001
 30
0.0
 11
160.0379999999999
 21
103.252
 31
0.0
  0
ARC
  5
261
  8
0
 62
     7
 10
159.93933399999989
 20
103.138338
 30
0.0
 40
0.157098
 50
267.06893300000002
 51
346.1180589999999
  0
ARC
  5
262
  8
0
 62
     7
 10
159.687172
 20
102.603393
 30
0.0
 40
0.4052840000000001
 50
356.85004800000002
 51
14.787768
  0
ARC
  5
263
  8
0
 62
     7
 10
159.493504
 20
102.5688819999999
 30
0.0
 40
0.60156
 50
13.257539
 51
43.300288999999999
  0
LINE
  5
264
  8
0
 62
     7
 10
160.09200000000001
 20
103.15900000000001
 30
0.0
 11
160.09200000000001
 21
102.581
 31
0.0
  0
LINE
  5
265
  8
0
 62
     7
 10
160.75700000000001
 20
103.259
 30
0.0
 11
160.75700000000001
 21
101.992
 31
0.0
  0
LINE
  5
266
  8
0
 62
     7
 10
160.09200000000001
 20
102.00399999999991
 30
0.0
 11
160.09200000000001
 21
102.581
 31
0.0
  0
ARC
  5
267
  8
0
 62
     7
 10
159.64851399999989
 20
102.48253800000001
 30
0.0
 40
0.413036
 50
313.20838800000001
 51
331.77018099999992
  0
ARC
  5
268
  8
0
 62
     7
 10
159.49539799999991
 20
102.584564
 30
0.0
 40
0.5964550000000001
 50
330.09218199999992
 51
359.66942699999993
  0
ARC
  5
269
  8
0
 62
     7
 10
159.94070799999989
 20
102.026651
 30
0.0
 40
0.155123
 50
13.019932000000001
 51
93.476693999999995
  0
LINE
  5
26A
  8
0
 62
     7
 10
160.09200000000001
 20
102.00399999999991
 30
0.0
 11
160.0379999999999
 21
101.9109999999999
 31
0.0
  0
LINE
  5
26B
  8
0
 62
     7
 10
156.8249999999999
 20
103.252
 30
0.0
 11
160.0379999999999
 21
103.252
 31
0.0
  0
ARC
  5
26C
  8
0
 62
     7
 10
156.82760200000001
 20
101.8424939999999
 30
0.0
 40
0.068941
 50
92.010936999999984
 51
178.285135
  0
LINE
  5
26D
  8
0
 62
     7
 10
156.7589999999999
 20
102.00399999999991
 30
0.0
 11
156.81200000000001
 21
101.9109999999999
 31
0.0
  0
LINE
  5
26E
  8
0
 62
     7
 10
156.8249999999999
 20
101.9109999999999
 30
0.0
 11
160.0379999999999
 21
101.9109999999999
 31
0.0
  0
ARC
  5
26F
  8
0
 62
     7
 10
156.910088
 20
102.0263029999999
 30
0.0
 40
0.155456
 50
86.626816000000005
 51
166.876518
  0
LINE
  5
270
  8
0
 62
     7
 10
156.7589999999999
 20
102.00399999999991
 30
0.0
 11
156.7589999999999
 21
102.581
 31
0.0
  0
ARC
  5
271
  8
0
 62
     7
 10
157.16120000000001
 20
102.5588979999999
 30
0.0
 40
0.403121
 50
176.83950899999999
 51
194.828078
  0
ARC
  5
272
  8
0
 62
     7
 10
157.35478599999999
 20
102.59302700000001
 30
0.0
 40
0.599223
 50
193.24545399999991
 51
223.3762089999999
  0
ARC
  5
273
  8
0
 62
     7
 10
157.201605
 20
102.68171099999989
 30
0.0
 40
0.4117930000000001
 50
133.2913639999999
 51
151.445797
  0
ARC
  5
274
  8
0
 62
     7
 10
157.35682800000001
 20
102.57760500000001
 30
0.0
 40
0.598146
 50
149.79338000000001
 51
179.663006
  0
LINE
  5
275
  8
0
 62
     7
 10
156.7589999999999
 20
103.15900000000001
 30
0.0
 11
156.7589999999999
 21
102.581
 31
0.0
  0
ARC
  5
276
  8
0
 62
     7
 10
156.90939399999991
 20
103.1359029999999
 30
0.0
 40
0.154771
 50
193.167689
 51
273.64535799999999
  0
LINE
  5
277
  8
0
 62
     7
 10
156.7589999999999
 20
103.15900000000001
 30
0.0
 11
156.81200000000001
 21
103.252
 31
0.0
  0
ARC
  5
278
  8
0
 62
     7
 10
156.8273439999999
 20
103.3202069999999
 30
0.0
 40
0.068698
 50
182.100673
 51
268.1969959999999
  0
LINE
  5
279
  8
0
 62
     7
 10
160.69999999999999
 20
103.357
 30
0.0
 11
160.14699999999999
 21
103.357
 31
0.0
  0
LINE
  5
27A
  8
0
 62
     7
 10
160.69999999999999
 20
102.26000000000001
 30
0.0
 11
160.14699999999999
 21
102.26000000000001
 31
0.0
  0
LINE
  5
27B
  8
0
 62
     7
 10
160.69999999999999
 20
101.89399999999991
 30
0.0
 11
160.14699999999999
 21
101.89399999999991
 31
0.0
  0
LINE
  5
27C
  8
0
 62
     7
 10
160.69999999999999
 20
102.991
 30
0.0
 11
160.14699999999999
 21
102.991
 31
0.0
  0
LINE
  5
27D
  8
0
 62
     7
 10
160.69999999999999
 20
103.357
 30
0.0
 11
160.75700000000001
 21
103.259
 31
0.0
  0
LINE
  5
27E
  8
0
 62
     7
 10
160.69999999999999
 20
101.89399999999991
 30
0.0
 11
160.75700000000001
 21
101.992
 31
0.0
  0
ARC
  5
27F
  8
0
 62
     7
 10
160.4490669999999
 20
102.07823499999991
 30
0.0
 40
0.310073
 50
333.0227220000001
 51
35.896384999999988
  0
ARC
  5
280
  8
0
 62
     7
 10
160.00562600000001
 20
102.523381
 30
0.0
 40
0.7428680000000001
 50
339.23750799999988
 51
352.30050099999988
  0
ARC
  5
281
  8
0
 62
     7
 10
159.48122900000001
 20
102.61666700000001
 30
0.0
 40
1.2752289999999999
 50
351.30357199999997
 51
17.074438000000001
  0
ARC
  5
282
  8
0
 62
     7
 10
160.44843599999999
 20
103.1729429999999
 30
0.0
 40
0.310614
 50
324.16457000000003
 51
26.916322999999998
  0
LINE
  5
283
  8
0
 62
     7
 10
160.14699999999999
 20
103.357
 30
0.0
 11
160.09
 21
103.259
 31
0.0
  0
LINE
  5
284
  8
0
 62
     7
 10
160.14699999999999
 20
101.89399999999991
 30
0.0
 11
160.09
 21
101.992
 31
0.0
  0
ARC
  5
285
  8
0
 62
     7
 10
160.84158999999991
 20
102.727749
 30
0.0
 40
0.7428680000000001
 50
159.2374879999999
 51
172.30048199999999
  0
ARC
  5
286
  8
0
 62
     7
 10
161.36598499999999
 20
102.634463
 30
0.0
 40
1.2752270000000001
 50
171.30353199999999
 51
197.07447699999989
  0
ARC
  5
287
  8
0
 62
     7
 10
160.39877999999999
 20
102.078186
 30
0.0
 40
0.310614
 50
144.16453200000001
 51
206.91636199999999
  0
LINE
  5
288
  8
0
 62
     7
 10
160.09
 20
103.259
 30
0.0
 11
160.09
 21
101.992
 31
0.0
  0
ARC
  5
289
  8
0
 62
     7
 10
160.39814799999991
 20
103.172894
 30
0.0
 40
0.310073
 50
153.022684
 51
215.896423
  0
LINE
  5
28A
  8
0
 62
     7
 10
156.52499999999989
 20
99.257999999999996
 30
0.0
 11
155.06700000000001
 21
99.257999999999996
 31
0.0
  0
LINE
  5
28B
  8
0
 62
     7
 10
156.52499999999989
 20
105.925
 30
0.0
 11
155.27600000000001
 21
105.925
 31
0.0
  0
LINE
  5
28C
  8
0
 62
     7
 10
156.55799999999991
 20
99.291700000000006
 30
0.0
 11
156.52499999999989
 21
99.257999999999996
 31
0.0
  0
LINE
  5
28D
  8
0
 62
     7
 10
156.55799999999991
 20
102.547
 30
0.0
 11
156.55799999999991
 21
105.892
 31
0.0
  0
LINE
  5
28E
  8
0
 62
     7
 10
156.55799999999991
 20
102.547
 30
0.0
 11
156.55799999999991
 21
99.291700000000006
 31
0.0
  0
LINE
  5
28F
  8
0
 62
     7
 10
156.55799999999991
 20
105.892
 30
0.0
 11
156.52499999999989
 21
105.925
 31
0.0
  0
ARC
  5
290
  8
0
 62
     7
 10
83.277096999999983
 20
131.18248600000001
 30
0.0
 40
1.066608
 50
90.0
 51
179.99996999999991
  0
ARC
  5
291
  8
0
 62
     7
 10
83.318579000000014
 20
131.22325299999989
 30
0.0
 40
1.10884
 50
182.1069699999999
 51
267.8560589999999
  0
ARC
  5
292
  8
0
 62
     7
 10
83.236258000000007
 20
131.22260999999989
 30
0.0
 40
1.1081739999999991
 50
272.111963
 51
357.925048
  0
ARC
  5
293
  8
0
 62
     7
 10
83.277096999999983
 20
131.18248600000001
 30
0.0
 40
1.066608
 50
0.00001
 51
89.999980000000008
  0
ARC
  5
294
  8
0
 62
     7
 10
85.151368999999988
 20
127.9656389999999
 30
0.0
 40
1.108496999999999
 50
92.108337000000006
 51
177.87313
  0
ARC
  5
295
  8
0
 62
     7
 10
85.151039999999995
 20
128.047586
 30
0.0
 40
1.108155999999999
 50
182.11046999999999
 51
267.90806299999991
  0
ARC
  5
296
  8
0
 62
     7
 10
85.110588000000007
 20
128.006777
 30
0.0
 40
1.066608
 50
270.00002000000001
 51
359.99998999999991
  0
ARC
  5
297
  8
0
 62
     7
 10
85.110588000000007
 20
128.006777
 30
0.0
 40
1.066608
 50
0.00001
 51
89.999980000000008
  0
ARC
  5
298
  8
0
 62
     7
 10
83.277096999999983
 20
143.8839439999999
 30
0.0
 40
1.066608
 50
90.0
 51
179.99996999999991
  0
ARC
  5
299
  8
0
 62
     7
 10
83.277096999999983
 20
143.8839439999999
 30
0.0
 40
1.066608
 50
179.99996999999991
 51
270.00002000000001
  0
ARC
  5
29A
  8
0
 62
     7
 10
83.277096999999983
 20
143.8839449999999
 30
0.0
 40
1.066608
 50
270.00002000000001
 51
359.99998999999991
  0
ARC
  5
29B
  8
0
 62
     7
 10
83.277096999999983
 20
143.8839439999999
 30
0.0
 40
1.066608
 50
0.00001
 51
89.999980000000008
  0
ARC
  5
29C
  8
0
 62
     7
 10
85.151368999999988
 20
140.6670969999999
 30
0.0
 40
1.108496999999999
 50
92.108337000000006
 51
177.87313
  0
ARC
  5
29D
  8
0
 62
     7
 10
85.151060000000015
 20
140.74906399999989
 30
0.0
 40
1.108176
 50
182.1114629999999
 51
267.90707099999992
  0
ARC
  5
29E
  8
0
 62
     7
 10
85.069799000000003
 20
140.7490249999999
 30
0.0
 40
1.1081490000000001
 50
272.10948899999988
 51
357.89052099999992
  0
ARC
  5
29F
  8
0
 62
     7
 10
85.110588000000007
 20
140.708235
 30
0.0
 40
1.066608
 50
0.00001
 51
89.999980000000008
  0
ARC
  5
2A0
  8
0
 62
     7
 10
83.277096999999983
 20
137.5332149999999
 30
0.0
 40
1.066608
 50
90.0
 51
179.99996999999991
  0
ARC
  5
2A1
  8
0
 62
     7
 10
83.277096999999983
 20
137.5332149999999
 30
0.0
 40
1.066608
 50
179.99996999999991
 51
270.00002000000001
  0
ARC
  5
2A2
  8
0
 62
     7
 10
83.277096999999983
 20
137.5332159999999
 30
0.0
 40
1.066608
 50
270.00002000000001
 51
359.99998999999991
  0
ARC
  5
2A3
  8
0
 62
     7
 10
83.277096999999983
 20
137.5332149999999
 30
0.0
 40
1.066608
 50
0.00001
 51
89.999980000000008
  0
ARC
  5
2A4
  8
0
 62
     7
 10
85.151368999999988
 20
147.01851499999989
 30
0.0
 40
1.108496999999999
 50
92.108337000000006
 51
177.87313
  0
ARC
  5
2A5
  8
0
 62
     7
 10
85.151736999999997
 20
147.1004439999999
 30
0.0
 40
1.1088519999999991
 50
182.10820599999991
 51
267.87332599999991
  0
ARC
  5
2A6
  8
0
 62
     7
 10
85.069749999999999
 20
147.0997769999999
 30
0.0
 40
1.1081739999999991
 50
272.111963
 51
357.925048
  0
ARC
  5
2A7
  8
0
 62
     7
 10
85.110588000000007
 20
147.05965299999991
 30
0.0
 40
1.066608
 50
0.00001
 51
89.999980000000008
  0
ARC
  5
2A8
  8
0
 62
     7
 10
83.277096999999983
 20
150.23467299999999
 30
0.0
 40
1.066608
 50
90.0
 51
179.99996999999991
  0
ARC
  5
2A9
  8
0
 62
     7
 10
83.277096999999983
 20
150.23467299999999
 30
0.0
 40
1.066608
 50
179.99996999999991
 51
270.00002000000001
  0
ARC
  5
2AA
  8
0
 62
     7
 10
83.277096999999983
 20
150.23467400000001
 30
0.0
 40
1.066608
 50
270.00002000000001
 51
359.99998999999991
  0
ARC
  5
2AB
  8
0
 62
     7
 10
83.277096999999983
 20
150.23467299999999
 30
0.0
 40
1.066608
 50
0.00001
 51
89.999980000000008
  0
ARC
  5
2AC
  8
0
 62
     7
 10
85.151368999999988
 20
153.3692439999999
 30
0.0
 40
1.108496999999999
 50
92.108337000000006
 51
177.87313
  0
ARC
  5
2AD
  8
0
 62
     7
 10
85.151039999999995
 20
153.45119199999991
 30
0.0
 40
1.108155999999999
 50
182.11046999999999
 51
267.90806299999991
  0
ARC
  5
2AE
  8
0
 62
     7
 10
85.110588000000007
 20
153.410383
 30
0.0
 40
1.066608
 50
270.00002000000001
 51
359.99998999999991
  0
ARC
  5
2AF
  8
0
 62
     7
 10
85.110588000000007
 20
153.410383
 30
0.0
 40
1.066608
 50
0.00001
 51
89.999980000000008
  0
ARC
  5
2B0
  8
0
 62
     7
 10
83.277096999999983
 20
156.58540300000001
 30
0.0
 40
1.066608
 50
90.0
 51
179.99996999999991
  0
ARC
  5
2B1
  8
0
 62
     7
 10
83.277096999999983
 20
156.58540300000001
 30
0.0
 40
1.066608
 50
179.99996999999991
 51
270.00002000000001
  0
ARC
  5
2B2
  8
0
 62
     7
 10
83.277096999999983
 20
156.58540300000001
 30
0.0
 40
1.066608
 50
270.00002000000001
 51
359.99998999999991
  0
ARC
  5
2B3
  8
0
 62
     7
 10
83.277096999999983
 20
156.58540300000001
 30
0.0
 40
1.066608
 50
0.00001
 51
89.999980000000008
  0
ARC
  5
2B4
  8
0
 62
     7
 10
79.610458999999992
 20
131.18248600000001
 30
0.0
 40
1.066608
 50
90.0
 51
179.99996999999991
  0
ARC
  5
2B5
  8
0
 62
     7
 10
79.651941000000008
 20
131.22325299999989
 30
0.0
 40
1.10884
 50
182.1069699999999
 51
267.8560589999999
  0
ARC
  5
2B6
  8
0
 62
     7
 10
79.56962
 20
131.22260999999989
 30
0.0
 40
1.1081739999999991
 50
272.111963
 51
357.925048
  0
ARC
  5
2B7
  8
0
 62
     7
 10
79.610458999999992
 20
131.18248600000001
 30
0.0
 40
1.066608
 50
0.00001
 51
89.999980000000008
  0
ARC
  5
2B8
  8
0
 62
     7
 10
64.984685999999996
 20
131.14134799999991
 30
0.0
 40
1.108496999999999
 50
92.108337000000006
 51
177.87313
  0
ARC
  5
2B9
  8
0
 62
     7
 10
64.985054000000005
 20
131.223277
 30
0.0
 40
1.1088519999999991
 50
182.10820599999991
 51
267.87332599999991
  0
ARC
  5
2BA
  8
0
 62
     7
 10
64.903067000000007
 20
131.22260999999989
 30
0.0
 40
1.1081739999999991
 50
272.111963
 51
357.925048
  0
ARC
  5
2BB
  8
0
 62
     7
 10
64.943905000000001
 20
131.18248600000001
 30
0.0
 40
1.066608
 50
0.00001
 51
89.999980000000008
  0
ARC
  5
2BC
  8
0
 62
     7
 10
68.651325
 20
131.14134799999991
 30
0.0
 40
1.108496999999999
 50
92.108337000000006
 51
177.87313
  0
ARC
  5
2BD
  8
0
 62
     7
 10
68.651692000000011
 20
131.223277
 30
0.0
 40
1.1088519999999991
 50
182.10820599999991
 51
267.87332599999991
  0
ARC
  5
2BE
  8
0
 62
     7
 10
68.569704999999999
 20
131.22260999999989
 30
0.0
 40
1.1081739999999991
 50
272.111963
 51
357.925048
  0
ARC
  5
2BF
  8
0
 62
     7
 10
68.61054399999999
 20
131.18248600000001
 30
0.0
 40
1.066608
 50
0.00001
 51
89.999980000000008
  0
ARC
  5
2C0
  8
0
 62
     7
 10
75.943821
 20
131.18248600000001
 30
0.0
 40
1.066608
 50
90.0
 51
179.99996999999991
  0
ARC
  5
2C1
  8
0
 62
     7
 10
75.985302000000004
 20
131.22325299999989
 30
0.0
 40
1.10884
 50
182.1069699999999
 51
267.8560589999999
  0
ARC
  5
2C2
  8
0
 62
     7
 10
75.902981999999994
 20
131.22260999999989
 30
0.0
 40
1.1081739999999991
 50
272.111963
 51
357.925048
  0
ARC
  5
2C3
  8
0
 62
     7
 10
75.943820000000002
 20
131.18248600000001
 30
0.0
 40
1.066608
 50
0.00001
 51
89.999980000000008
  0
ARC
  5
2C4
  8
0
 62
     7
 10
72.277181999999996
 20
131.18248600000001
 30
0.0
 40
1.066608
 50
90.0
 51
179.99996999999991
  0
ARC
  5
2C5
  8
0
 62
     7
 10
72.318663999999998
 20
131.22325299999989
 30
0.0
 40
1.10884
 50
182.1069699999999
 51
267.8560589999999
  0
ARC
  5
2C6
  8
0
 62
     7
 10
72.236343999999988
 20
131.22260999999989
 30
0.0
 40
1.1081739999999991
 50
272.111963
 51
357.925048
  0
ARC
  5
2C7
  8
0
 62
     7
 10
72.277181999999996
 20
131.18248600000001
 30
0.0
 40
1.066608
 50
0.00001
 51
89.999980000000008
  0
ARC
  5
2C8
  8
0
 62
     7
 10
81.484731000000025
 20
134.3163679999999
 30
0.0
 40
1.108496999999999
 50
92.108337000000006
 51
177.87313
  0
ARC
  5
2C9
  8
0
 62
     7
 10
81.484401000000005
 20
134.39831499999991
 30
0.0
 40
1.108155999999999
 50
182.11046999999999
 51
267.90806299999991
  0
ARC
  5
2CA
  8
0
 62
     7
 10
81.443950000000015
 20
134.357506
 30
0.0
 40
1.066608
 50
270.00002000000001
 51
359.99998999999991
  0
ARC
  5
2CB
  8
0
 62
     7
 10
81.443950000000015
 20
134.357506
 30
0.0
 40
1.066608
 50
0.00001
 51
89.999980000000008
  0
ARC
  5
2CC
  8
0
 62
     7
 10
77.776968000000011
 20
134.357506
 30
0.0
 40
1.066608
 50
90.0
 51
179.99996999999991
  0
ARC
  5
2CD
  8
0
 62
     7
 10
77.776966999999985
 20
134.357506
 30
0.0
 40
1.066608
 50
179.99996999999991
 51
270.00002000000001
  0
ARC
  5
2CE
  8
0
 62
     7
 10
77.736187000000001
 20
134.3986449999999
 30
0.0
 40
1.108496999999999
 50
272.10835600000001
 51
357.8731499999999
  0
ARC
  5
2CF
  8
0
 62
     7
 10
77.736515999999995
 20
134.316697
 30
0.0
 40
1.108155999999999
 50
2.110468
 51
87.908026000000007
  0
ARC
  5
2D0
  8
0
 62
     7
 10
63.110413999999999
 20
134.357506
 30
0.0
 40
1.066608
 50
90.0
 51
179.99996999999991
  0
ARC
  5
2D1
  8
0
 62
     7
 10
63.110413999999999
 20
134.357506
 30
0.0
 40
1.066608
 50
179.99996999999991
 51
270.00002000000001
  0
ARC
  5
2D2
  8
0
 62
     7
 10
63.110413999999999
 20
134.357506
 30
0.0
 40
1.066608
 50
270.00002000000001
 51
359.99998999999991
  0
ARC
  5
2D3
  8
0
 62
     7
 10
63.110413999999999
 20
134.357506
 30
0.0
 40
1.066608
 50
0.00001
 51
89.999980000000008
  0
ARC
  5
2D4
  8
0
 62
     7
 10
66.777053000000009
 20
134.357506
 30
0.0
 40
1.066608
 50
90.0
 51
179.99996999999991
  0
ARC
  5
2D5
  8
0
 62
     7
 10
66.777051999999998
 20
134.357506
 30
0.0
 40
1.066608
 50
179.99996999999991
 51
270.00002000000001
  0
ARC
  5
2D6
  8
0
 62
     7
 10
66.777051999999998
 20
134.357506
 30
0.0
 40
1.066608
 50
270.00002000000001
 51
359.99998999999991
  0
ARC
  5
2D7
  8
0
 62
     7
 10
66.777051999999998
 20
134.357506
 30
0.0
 40
1.066608
 50
0.00001
 51
89.999980000000008
  0
ARC
  5
2D8
  8
0
 62
     7
 10
74.110329000000007
 20
134.357506
 30
0.0
 40
1.066608
 50
90.0
 51
179.99996999999991
  0
ARC
  5
2D9
  8
0
 62
     7
 10
74.110329000000007
 20
134.357506
 30
0.0
 40
1.066608
 50
179.99996999999991
 51
270.00002000000001
  0
ARC
  5
2DA
  8
0
 62
     7
 10
74.069547999999998
 20
134.3986449999999
 30
0.0
 40
1.108496999999999
 50
272.10835600000001
 51
357.8731499999999
  0
ARC
  5
2DB
  8
0
 62
     7
 10
74.069877000000005
 20
134.316697
 30
0.0
 40
1.108155999999999
 50
2.110468
 51
87.908026000000007
  0
ARC
  5
2DC
  8
0
 62
     7
 10
70.443691000000001
 20
134.357506
 30
0.0
 40
1.066608
 50
90.0
 51
179.99996999999991
  0
ARC
  5
2DD
  8
0
 62
     7
 10
70.443691000000001
 20
134.357506
 30
0.0
 40
1.066608
 50
179.99996999999991
 51
270.00002000000001
  0
ARC
  5
2DE
  8
0
 62
     7
 10
70.443691000000001
 20
134.357506
 30
0.0
 40
1.066608
 50
270.00002000000001
 51
359.99998999999991
  0
ARC
  5
2DF
  8
0
 62
     7
 10
70.443691000000001
 20
134.357506
 30
0.0
 40
1.066608
 50
0.00001
 51
89.999980000000008
  0
ARC
  5
2E0
  8
0
 62
     7
 10
81.484731000000025
 20
127.9656389999999
 30
0.0
 40
1.108496999999999
 50
92.108337000000006
 51
177.87313
  0
ARC
  5
2E1
  8
0
 62
     7
 10
81.484401000000005
 20
128.047586
 30
0.0
 40
1.108155999999999
 50
182.11046999999999
 51
267.90806299999991
  0
ARC
  5
2E2
  8
0
 62
     7
 10
81.443950000000015
 20
128.006777
 30
0.0
 40
1.066608
 50
270.00002000000001
 51
359.99998999999991
  0
ARC
  5
2E3
  8
0
 62
     7
 10
81.443950000000015
 20
128.006777
 30
0.0
 40
1.066608
 50
0.00001
 51
89.999980000000008
  0
ARC
  5
2E4
  8
0
 62
     7
 10
77.776968000000011
 20
128.006777
 30
0.0
 40
1.066608
 50
90.0
 51
179.99996999999991
  0
ARC
  5
2E5
  8
0
 62
     7
 10
77.776966999999985
 20
128.006777
 30
0.0
 40
1.066608
 50
179.99996999999991
 51
270.00002000000001
  0
ARC
  5
2E6
  8
0
 62
     7
 10
77.736187000000001
 20
128.0479159999999
 30
0.0
 40
1.108496999999999
 50
272.10835600000001
 51
357.8731499999999
  0
ARC
  5
2E7
  8
0
 62
     7
 10
77.736515999999995
 20
127.9659679999999
 30
0.0
 40
1.108155999999999
 50
2.110468
 51
87.908026000000007
  0
ARC
  5
2E8
  8
0
 62
     7
 10
63.110413999999999
 20
128.006777
 30
0.0
 40
1.066608
 50
90.0
 51
179.99996999999991
  0
ARC
  5
2E9
  8
0
 62
     7
 10
63.110413999999999
 20
128.006777
 30
0.0
 40
1.066608
 50
179.99996999999991
 51
270.00002000000001
  0
ARC
  5
2EA
  8
0
 62
     7
 10
63.110413999999999
 20
128.006777
 30
0.0
 40
1.066608
 50
270.00002000000001
 51
359.99998999999991
  0
ARC
  5
2EB
  8
0
 62
     7
 10
63.110413999999999
 20
128.006777
 30
0.0
 40
1.066608
 50
0.00001
 51
89.999980000000008
  0
ARC
  5
2EC
  8
0
 62
     7
 10
66.777053000000009
 20
128.006777
 30
0.0
 40
1.066608
 50
90.0
 51
179.99996999999991
  0
ARC
  5
2ED
  8
0
 62
     7
 10
66.777051999999998
 20
128.006777
 30
0.0
 40
1.066608
 50
179.99996999999991
 51
270.00002000000001
  0
ARC
  5
2EE
  8
0
 62
     7
 10
66.777051999999998
 20
128.006777
 30
0.0
 40
1.066608
 50
270.00002000000001
 51
359.99998999999991
  0
ARC
  5
2EF
  8
0
 62
     7
 10
66.777051999999998
 20
128.006777
 30
0.0
 40
1.066608
 50
0.00001
 51
89.999980000000008
  0
ARC
  5
2F0
  8
0
 62
     7
 10
74.110329000000007
 20
128.006777
 30
0.0
 40
1.066608
 50
90.0
 51
179.99996999999991
  0
ARC
  5
2F1
  8
0
 62
     7
 10
74.110329000000007
 20
128.006777
 30
0.0
 40
1.066608
 50
179.99996999999991
 51
270.00002000000001
  0
ARC
  5
2F2
  8
0
 62
     7
 10
74.069547999999998
 20
128.0479159999999
 30
0.0
 40
1.108496999999999
 50
272.10835600000001
 51
357.8731499999999
  0
ARC
  5
2F3
  8
0
 62
     7
 10
74.069877000000005
 20
127.9659679999999
 30
0.0
 40
1.108155999999999
 50
2.110468
 51
87.908026000000007
  0
ARC
  5
2F4
  8
0
 62
     7
 10
70.443691000000001
 20
128.006777
 30
0.0
 40
1.066608
 50
90.0
 51
179.99996999999991
  0
ARC
  5
2F5
  8
0
 62
     7
 10
70.443691000000001
 20
128.006777
 30
0.0
 40
1.066608
 50
179.99996999999991
 51
270.00002000000001
  0
ARC
  5
2F6
  8
0
 62
     7
 10
70.443691000000001
 20
128.006777
 30
0.0
 40
1.066608
 50
270.00002000000001
 51
359.99998999999991
  0
ARC
  5
2F7
  8
0
 62
     7
 10
70.443691000000001
 20
128.006777
 30
0.0
 40
1.066608
 50
0.00001
 51
89.999980000000008
  0
ARC
  5
2F8
  8
0
 62
     7
 10
79.651297
 20
124.79094499999989
 30
0.0
 40
1.108172999999999
 50
92.111925999999997
 51
177.9250449999999
  0
ARC
  5
2F9
  8
0
 62
     7
 10
79.610458999999992
 20
124.8310679999999
 30
0.0
 40
1.066608
 50
179.99996999999991
 51
270.00002000000001
  0
ARC
  5
2FA
  8
0
 62
     7
 10
79.610458999999992
 20
124.8310679999999
 30
0.0
 40
1.066608
 50
270.00002000000001
 51
359.99998999999991
  0
ARC
  5
2FB
  8
0
 62
     7
 10
79.568976000000006
 20
124.7903009999999
 30
0.0
 40
1.10884
 50
2.106967
 51
87.856021999999996
  0
ARC
  5
2FC
  8
0
 62
     7
 10
68.651372999999992
 20
124.79059599999989
 30
0.0
 40
1.108520999999999
 50
92.110792000000004
 51
177.90767500000001
  0
ARC
  5
2FD
  8
0
 62
     7
 10
68.650994999999995
 20
124.8718769999999
 30
0.0
 40
1.108155999999999
 50
182.11046999999999
 51
267.90806299999991
  0
ARC
  5
2FE
  8
0
 62
     7
 10
68.61054399999999
 20
124.8310679999999
 30
0.0
 40
1.066608
 50
270.00002000000001
 51
359.99998999999991
  0
ARC
  5
2FF
  8
0
 62
     7
 10
68.569062000000002
 20
124.7903009999999
 30
0.0
 40
1.10884
 50
2.106967
 51
87.856021999999996
  0
ARC
  5
300
  8
0
 62
     7
 10
75.984658999999994
 20
124.79094499999989
 30
0.0
 40
1.108172999999999
 50
92.111925999999997
 51
177.9250449999999
  0
ARC
  5
301
  8
0
 62
     7
 10
75.943820000000002
 20
124.8310679999999
 30
0.0
 40
1.066608
 50
179.99996999999991
 51
270.00002000000001
  0
ARC
  5
302
  8
0
 62
     7
 10
75.943820000000002
 20
124.8310679999999
 30
0.0
 40
1.066608
 50
270.00002000000001
 51
359.99998999999991
  0
ARC
  5
303
  8
0
 62
     7
 10
75.902338
 20
124.7903009999999
 30
0.0
 40
1.10884
 50
2.106967
 51
87.856021999999996
  0
ARC
  5
304
  8
0
 62
     7
 10
72.31801999999999
 20
124.79094499999989
 30
0.0
 40
1.108172999999999
 50
92.111925999999997
 51
177.9250449999999
  0
ARC
  5
305
  8
0
 62
     7
 10
72.277181999999996
 20
124.8310679999999
 30
0.0
 40
1.066608
 50
179.99996999999991
 51
270.00002000000001
  0
ARC
  5
306
  8
0
 62
     7
 10
72.277181999999996
 20
124.8310679999999
 30
0.0
 40
1.066608
 50
270.00002000000001
 51
359.99998999999991
  0
ARC
  5
307
  8
0
 62
     7
 10
72.235699999999994
 20
124.7903009999999
 30
0.0
 40
1.10884
 50
2.106967
 51
87.856021999999996
  0
ARC
  5
308
  8
0
 62
     7
 10
79.610458999999992
 20
143.8839439999999
 30
0.0
 40
1.066608
 50
90.0
 51
179.99996999999991
  0
ARC
  5
309
  8
0
 62
     7
 10
79.610458999999992
 20
143.8839439999999
 30
0.0
 40
1.066608
 50
179.99996999999991
 51
270.00002000000001
  0
ARC
  5
30A
  8
0
 62
     7
 10
79.610458999999992
 20
143.8839449999999
 30
0.0
 40
1.066608
 50
270.00002000000001
 51
359.99998999999991
  0
ARC
  5
30B
  8
0
 62
     7
 10
79.610458999999992
 20
143.8839439999999
 30
0.0
 40
1.066608
 50
0.00001
 51
89.999980000000008
  0
ARC
  5
30C
  8
0
 62
     7
 10
64.984685999999996
 20
143.84280599999991
 30
0.0
 40
1.108496999999999
 50
92.108337000000006
 51
177.87313
  0
ARC
  5
30D
  8
0
 62
     7
 10
64.984356999999989
 20
143.92475300000001
 30
0.0
 40
1.108155999999999
 50
182.11046999999999
 51
267.90806299999991
  0
ARC
  5
30E
  8
0
 62
     7
 10
64.943905000000001
 20
143.8839449999999
 30
0.0
 40
1.066608
 50
270.00002000000001
 51
359.99998999999991
  0
ARC
  5
30F
  8
0
 62
     7
 10
64.943905000000001
 20
143.8839439999999
 30
0.0
 40
1.066608
 50
0.00001
 51
89.999980000000008
  0
ARC
  5
310
  8
0
 62
     7
 10
68.651325
 20
143.84280599999991
 30
0.0
 40
1.108496999999999
 50
92.108337000000006
 51
177.87313
  0
ARC
  5
311
  8
0
 62
     7
 10
68.650994999999995
 20
143.92475300000001
 30
0.0
 40
1.108155999999999
 50
182.11046999999999
 51
267.90806299999991
  0
ARC
  5
312
  8
0
 62
     7
 10
68.61054399999999
 20
143.8839449999999
 30
0.0
 40
1.066608
 50
270.00002000000001
 51
359.99998999999991
  0
ARC
  5
313
  8
0
 62
     7
 10
68.61054399999999
 20
143.8839439999999
 30
0.0
 40
1.066608
 50
0.00001
 51
89.999980000000008
  0
ARC
  5
314
  8
0
 62
     7
 10
75.943821
 20
143.8839439999999
 30
0.0
 40
1.066608
 50
90.0
 51
179.99996999999991
  0
ARC
  5
315
  8
0
 62
     7
 10
75.943820000000002
 20
143.8839439999999
 30
0.0
 40
1.066608
 50
179.99996999999991
 51
270.00002000000001
  0
ARC
  5
316
  8
0
 62
     7
 10
75.943820000000002
 20
143.8839449999999
 30
0.0
 40
1.066608
 50
270.00002000000001
 51
359.99998999999991
  0
ARC
  5
317
  8
0
 62
     7
 10
75.943820000000002
 20
143.8839439999999
 30
0.0
 40
1.066608
 50
0.00001
 51
89.999980000000008
  0
ARC
  5
318
  8
0
 62
     7
 10
72.277181999999996
 20
143.8839439999999
 30
0.0
 40
1.066608
 50
90.0
 51
179.99996999999991
  0
ARC
  5
319
  8
0
 62
     7
 10
72.277181999999996
 20
143.8839439999999
 30
0.0
 40
1.066608
 50
179.99996999999991
 51
270.00002000000001
  0
ARC
  5
31A
  8
0
 62
     7
 10
72.277181999999996
 20
143.8839449999999
 30
0.0
 40
1.066608
 50
270.00002000000001
 51
359.99998999999991
  0
ARC
  5
31B
  8
0
 62
     7
 10
72.277181999999996
 20
143.8839439999999
 30
0.0
 40
1.066608
 50
0.00001
 51
89.999980000000008
  0
ARC
  5
31C
  8
0
 62
     7
 10
81.484731000000025
 20
140.6670969999999
 30
0.0
 40
1.108496999999999
 50
92.108337000000006
 51
177.87313
  0
ARC
  5
31D
  8
0
 62
     7
 10
81.484420999999998
 20
140.74906399999989
 30
0.0
 40
1.108176
 50
182.1114629999999
 51
267.90707099999992
  0
ARC
  5
31E
  8
0
 62
     7
 10
81.40316
 20
140.7490249999999
 30
0.0
 40
1.1081490000000001
 50
272.10948899999988
 51
357.89052099999992
  0
ARC
  5
31F
  8
0
 62
     7
 10
81.443950000000015
 20
140.708235
 30
0.0
 40
1.066608
 50
0.00001
 51
89.999980000000008
  0
ARC
  5
320
  8
0
 62
     7
 10
77.776968000000011
 20
140.708235
 30
0.0
 40
1.066608
 50
90.0
 51
179.99996999999991
  0
ARC
  5
321
  8
0
 62
     7
 10
77.817771999999991
 20
140.74903999999989
 30
0.0
 40
1.108163999999999
 50
182.11022600000001
 51
267.88980400000003
  0
ARC
  5
322
  8
0
 62
     7
 10
77.736187000000001
 20
140.7493739999999
 30
0.0
 40
1.108496999999999
 50
272.10835600000001
 51
357.8731499999999
  0
ARC
  5
323
  8
0
 62
     7
 10
77.736515999999995
 20
140.66742600000001
 30
0.0
 40
1.108155999999999
 50
2.110468
 51
87.908026000000007
  0
ARC
  5
324
  8
0
 62
     7
 10
63.110413999999999
 20
140.708235
 30
0.0
 40
1.066608
 50
90.0
 51
179.99996999999991
  0
ARC
  5
325
  8
0
 62
     7
 10
63.151218999999998
 20
140.74903999999989
 30
0.0
 40
1.108163999999999
 50
182.11022600000001
 51
267.88980400000003
  0
ARC
  5
326
  8
0
 62
     7
 10
63.06962399999999
 20
140.7490249999999
 30
0.0
 40
1.1081490000000001
 50
272.10948899999988
 51
357.89052099999992
  0
ARC
  5
327
  8
0
 62
     7
 10
63.110413999999999
 20
140.708235
 30
0.0
 40
1.066608
 50
0.00001
 51
89.999980000000008
  0
ARC
  5
328
  8
0
 62
     7
 10
79.610458999999992
 20
137.5332149999999
 30
0.0
 40
1.066608
 50
90.0
 51
179.99996999999991
  0
ARC
  5
329
  8
0
 62
     7
 10
79.610458999999992
 20
137.5332149999999
 30
0.0
 40
1.066608
 50
179.99996999999991
 51
270.00002000000001
  0
ARC
  5
32A
  8
0
 62
     7
 10
79.610458999999992
 20
137.5332159999999
 30
0.0
 40
1.066608
 50
270.00002000000001
 51
359.99998999999991
  0
ARC
  5
32B
  8
0
 62
     7
 10
79.610458999999992
 20
137.5332149999999
 30
0.0
 40
1.066608
 50
0.00001
 51
89.999980000000008
  0
ARC
  5
32C
  8
0
 62
     7
 10
64.984685999999996
 20
137.49207699999991
 30
0.0
 40
1.108496999999999
 50
92.108337000000006
 51
177.87313
  0
ARC
  5
32D
  8
0
 62
     7
 10
64.984356999999989
 20
137.57402400000001
 30
0.0
 40
1.108155999999999
 50
182.11046999999999
 51
267.90806299999991
  0
ARC
  5
32E
  8
0
 62
     7
 10
64.943905000000001
 20
137.5332159999999
 30
0.0
 40
1.066608
 50
270.00002000000001
 51
359.99998999999991
  0
ARC
  5
32F
  8
0
 62
     7
 10
64.943905000000001
 20
137.5332149999999
 30
0.0
 40
1.066608
 50
0.00001
 51
89.999980000000008
  0
ARC
  5
330
  8
0
 62
     7
 10
68.651325
 20
137.49207699999991
 30
0.0
 40
1.108496999999999
 50
92.108337000000006
 51
177.87313
  0
ARC
  5
331
  8
0
 62
     7
 10
68.650994999999995
 20
137.57402400000001
 30
0.0
 40
1.108155999999999
 50
182.11046999999999
 51
267.90806299999991
  0
ARC
  5
332
  8
0
 62
     7
 10
68.61054399999999
 20
137.5332159999999
 30
0.0
 40
1.066608
 50
270.00002000000001
 51
359.99998999999991
  0
ARC
  5
333
  8
0
 62
     7
 10
68.61054399999999
 20
137.5332149999999
 30
0.0
 40
1.066608
 50
0.00001
 51
89.999980000000008
  0
ARC
  5
334
  8
0
 62
     7
 10
75.943821
 20
137.5332149999999
 30
0.0
 40
1.066608
 50
90.0
 51
179.99996999999991
  0
ARC
  5
335
  8
0
 62
     7
 10
75.943820000000002
 20
137.5332149999999
 30
0.0
 40
1.066608
 50
179.99996999999991
 51
270.00002000000001
  0
ARC
  5
336
  8
0
 62
     7
 10
75.943820000000002
 20
137.5332159999999
 30
0.0
 40
1.066608
 50
270.00002000000001
 51
359.99998999999991
  0
ARC
  5
337
  8
0
 62
     7
 10
75.943820000000002
 20
137.5332149999999
 30
0.0
 40
1.066608
 50
0.00001
 51
89.999980000000008
  0
ARC
  5
338
  8
0
 62
     7
 10
66.777053000000009
 20
140.708235
 30
0.0
 40
1.066608
 50
90.0
 51
179.99996999999991
  0
ARC
  5
339
  8
0
 62
     7
 10
66.817856999999975
 20
140.74903999999989
 30
0.0
 40
1.108163999999999
 50
182.11022600000001
 51
267.88980400000003
  0
ARC
  5
33A
  8
0
 62
     7
 10
66.736262999999994
 20
140.7490249999999
 30
0.0
 40
1.1081490000000001
 50
272.10948899999988
 51
357.89052099999992
  0
ARC
  5
33B
  8
0
 62
     7
 10
66.777051999999998
 20
140.708235
 30
0.0
 40
1.066608
 50
0.00001
 51
89.999980000000008
  0
ARC
  5
33C
  8
0
 62
     7
 10
74.110329000000007
 20
140.708235
 30
0.0
 40
1.066608
 50
90.0
 51
179.99996999999991
  0
ARC
  5
33D
  8
0
 62
     7
 10
74.151133999999999
 20
140.74903999999989
 30
0.0
 40
1.108163999999999
 50
182.11022600000001
 51
267.88980400000003
  0
ARC
  5
33E
  8
0
 62
     7
 10
74.069547999999998
 20
140.7493739999999
 30
0.0
 40
1.108496999999999
 50
272.10835600000001
 51
357.8731499999999
  0
ARC
  5
33F
  8
0
 62
     7
 10
74.069877000000005
 20
140.66742600000001
 30
0.0
 40
1.108155999999999
 50
2.110468
 51
87.908026000000007
  0
ARC
  5
340
  8
0
 62
     7
 10
70.443691000000001
 20
140.708235
 30
0.0
 40
1.066608
 50
90.0
 51
179.99996999999991
  0
ARC
  5
341
  8
0
 62
     7
 10
70.484494999999995
 20
140.74903999999989
 30
0.0
 40
1.108163999999999
 50
182.11022600000001
 51
267.88980400000003
  0
ARC
  5
342
  8
0
 62
     7
 10
70.402900999999986
 20
140.7490249999999
 30
0.0
 40
1.1081490000000001
 50
272.10948899999988
 51
357.89052099999992
  0
ARC
  5
343
  8
0
 62
     7
 10
70.443691000000001
 20
140.708235
 30
0.0
 40
1.066608
 50
0.00001
 51
89.999980000000008
  0
ARC
  5
344
  8
0
 62
     7
 10
72.277181999999996
 20
137.5332149999999
 30
0.0
 40
1.066608
 50
90.0
 51
179.99996999999991
  0
ARC
  5
345
  8
0
 62
     7
 10
72.277181999999996
 20
137.5332149999999
 30
0.0
 40
1.066608
 50
179.99996999999991
 51
270.00002000000001
  0
ARC
  5
346
  8
0
 62
     7
 10
72.277181999999996
 20
137.5332159999999
 30
0.0
 40
1.066608
 50
270.00002000000001
 51
359.99998999999991
  0
ARC
  5
347
  8
0
 62
     7
 10
72.277181999999996
 20
137.5332149999999
 30
0.0
 40
1.066608
 50
0.00001
 51
89.999980000000008
  0
ARC
  5
348
  8
0
 62
     7
 10
81.484731000000025
 20
147.01851499999989
 30
0.0
 40
1.108496999999999
 50
92.108337000000006
 51
177.87313
  0
ARC
  5
349
  8
0
 62
     7
 10
81.485099000000005
 20
147.1004439999999
 30
0.0
 40
1.1088519999999991
 50
182.10820599999991
 51
267.87332599999991
  0
ARC
  5
34A
  8
0
 62
     7
 10
81.403111999999993
 20
147.0997769999999
 30
0.0
 40
1.1081739999999991
 50
272.111963
 51
357.925048
  0
ARC
  5
34B
  8
0
 62
     7
 10
81.443950000000015
 20
147.05965299999991
 30
0.0
 40
1.066608
 50
0.00001
 51
89.999980000000008
  0
ARC
  5
34C
  8
0
 62
     7
 10
77.776968000000011
 20
147.05965299999991
 30
0.0
 40
1.066608
 50
90.0
 51
179.99996999999991
  0
ARC
  5
34D
  8
0
 62
     7
 10
77.818449000000001
 20
147.1004199999999
 30
0.0
 40
1.10884
 50
182.1069699999999
 51
267.8560589999999
  0
ARC
  5
34E
  8
0
 62
     7
 10
77.736137999999997
 20
147.10012499999999
 30
0.0
 40
1.108520999999999
 50
272.11082900000002
 51
357.90767799999998
  0
ARC
  5
34F
  8
0
 62
     7
 10
77.736515999999995
 20
147.018844
 30
0.0
 40
1.108155999999999
 50
2.110468
 51
87.908026000000007
  0
ARC
  5
350
  8
0
 62
     7
 10
63.110413999999999
 20
147.05965299999991
 30
0.0
 40
1.066608
 50
90.0
 51
179.99996999999991
  0
ARC
  5
351
  8
0
 62
     7
 10
63.151896000000001
 20
147.1004199999999
 30
0.0
 40
1.10884
 50
182.1069699999999
 51
267.8560589999999
  0
ARC
  5
352
  8
0
 62
     7
 10
63.069575999999998
 20
147.0997769999999
 30
0.0
 40
1.1081739999999991
 50
272.111963
 51
357.925048
  0
ARC
  5
353
  8
0
 62
     7
 10
63.110413999999999
 20
147.05965299999991
 30
0.0
 40
1.066608
 50
0.00001
 51
89.999980000000008
  0
ARC
  5
354
  8
0
 62
     7
 10
66.777053000000009
 20
147.05965299999991
 30
0.0
 40
1.066608
 50
90.0
 51
179.99996999999991
  0
ARC
  5
355
  8
0
 62
     7
 10
66.818534
 20
147.1004199999999
 30
0.0
 40
1.10884
 50
182.1069699999999
 51
267.8560589999999
  0
ARC
  5
356
  8
0
 62
     7
 10
66.736214000000004
 20
147.0997769999999
 30
0.0
 40
1.1081739999999991
 50
272.111963
 51
357.925048
  0
ARC
  5
357
  8
0
 62
     7
 10
66.777051999999998
 20
147.05965299999991
 30
0.0
 40
1.066608
 50
0.00001
 51
89.999980000000008
  0
ARC
  5
358
  8
0
 62
     7
 10
74.110329000000007
 20
147.05965299999991
 30
0.0
 40
1.066608
 50
90.0
 51
179.99996999999991
  0
ARC
  5
359
  8
0
 62
     7
 10
74.151810999999995
 20
147.1004199999999
 30
0.0
 40
1.10884
 50
182.1069699999999
 51
267.8560589999999
  0
ARC
  5
35A
  8
0
 62
     7
 10
74.069500000000005
 20
147.10012499999999
 30
0.0
 40
1.108520999999999
 50
272.11082900000002
 51
357.90767799999998
  0
ARC
  5
35B
  8
0
 62
     7
 10
74.069877000000005
 20
147.018844
 30
0.0
 40
1.108155999999999
 50
2.110468
 51
87.908026000000007
  0
ARC
  5
35C
  8
0
 62
     7
 10
70.443691000000001
 20
147.05965299999991
 30
0.0
 40
1.066608
 50
90.0
 51
179.99996999999991
  0
ARC
  5
35D
  8
0
 62
     7
 10
70.485173000000003
 20
147.1004199999999
 30
0.0
 40
1.10884
 50
182.1069699999999
 51
267.8560589999999
  0
ARC
  5
35E
  8
0
 62
     7
 10
70.402851999999996
 20
147.0997769999999
 30
0.0
 40
1.1081739999999991
 50
272.111963
 51
357.925048
  0
ARC
  5
35F
  8
0
 62
     7
 10
70.443691000000001
 20
147.05965299999991
 30
0.0
 40
1.066608
 50
0.00001
 51
89.999980000000008
  0
ARC
  5
360
  8
0
 62
     7
 10
79.610458999999992
 20
150.23467299999999
 30
0.0
 40
1.066608
 50
90.0
 51
179.99996999999991
  0
ARC
  5
361
  8
0
 62
     7
 10
79.610458999999992
 20
150.23467299999999
 30
0.0
 40
1.066608
 50
179.99996999999991
 51
270.00002000000001
  0
ARC
  5
362
  8
0
 62
     7
 10
79.610458999999992
 20
150.23467400000001
 30
0.0
 40
1.066608
 50
270.00002000000001
 51
359.99998999999991
  0
ARC
  5
363
  8
0
 62
     7
 10
79.610458999999992
 20
150.23467299999999
 30
0.0
 40
1.066608
 50
0.00001
 51
89.999980000000008
  0
ARC
  5
364
  8
0
 62
     7
 10
64.984685999999996
 20
150.193535
 30
0.0
 40
1.108496999999999
 50
92.108337000000006
 51
177.87313
  0
ARC
  5
365
  8
0
 62
     7
 10
64.984356999999989
 20
150.27548300000001
 30
0.0
 40
1.108155999999999
 50
182.11046999999999
 51
267.90806299999991
  0
ARC
  5
366
  8
0
 62
     7
 10
64.943905000000001
 20
150.23467400000001
 30
0.0
 40
1.066608
 50
270.00002000000001
 51
359.99998999999991
  0
ARC
  5
367
  8
0
 62
     7
 10
64.943905000000001
 20
150.23467299999999
 30
0.0
 40
1.066608
 50
0.00001
 51
89.999980000000008
  0
ARC
  5
368
  8
0
 62
     7
 10
68.651325
 20
150.193535
 30
0.0
 40
1.108496999999999
 50
92.108337000000006
 51
177.87313
  0
ARC
  5
369
  8
0
 62
     7
 10
68.650994999999995
 20
150.27548300000001
 30
0.0
 40
1.108155999999999
 50
182.11046999999999
 51
267.90806299999991
  0
ARC
  5
36A
  8
0
 62
     7
 10
68.61054399999999
 20
150.23467400000001
 30
0.0
 40
1.066608
 50
270.00002000000001
 51
359.99998999999991
  0
ARC
  5
36B
  8
0
 62
     7
 10
68.61054399999999
 20
150.23467299999999
 30
0.0
 40
1.066608
 50
0.00001
 51
89.999980000000008
  0
ARC
  5
36C
  8
0
 62
     7
 10
75.943821
 20
150.23467299999999
 30
0.0
 40
1.066608
 50
90.0
 51
179.99996999999991
  0
ARC
  5
36D
  8
0
 62
     7
 10
75.943820000000002
 20
150.23467299999999
 30
0.0
 40
1.066608
 50
179.99996999999991
 51
270.00002000000001
  0
ARC
  5
36E
  8
0
 62
     7
 10
75.943820000000002
 20
150.23467400000001
 30
0.0
 40
1.066608
 50
270.00002000000001
 51
359.99998999999991
  0
ARC
  5
36F
  8
0
 62
     7
 10
75.943820000000002
 20
150.23467299999999
 30
0.0
 40
1.066608
 50
0.00001
 51
89.999980000000008
  0
ARC
  5
370
  8
0
 62
     7
 10
72.277181999999996
 20
150.23467299999999
 30
0.0
 40
1.066608
 50
90.0
 51
179.99996999999991
  0
ARC
  5
371
  8
0
 62
     7
 10
72.277181999999996
 20
150.23467299999999
 30
0.0
 40
1.066608
 50
179.99996999999991
 51
270.00002000000001
  0
ARC
  5
372
  8
0
 62
     7
 10
72.277181999999996
 20
150.23467400000001
 30
0.0
 40
1.066608
 50
270.00002000000001
 51
359.99998999999991
  0
ARC
  5
373
  8
0
 62
     7
 10
72.277181999999996
 20
150.23467299999999
 30
0.0
 40
1.066608
 50
0.00001
 51
89.999980000000008
  0
ARC
  5
374
  8
0
 62
     7
 10
81.484731000000025
 20
153.3692439999999
 30
0.0
 40
1.108496999999999
 50
92.108337000000006
 51
177.87313
  0
ARC
  5
375
  8
0
 62
     7
 10
81.484401000000005
 20
153.45119199999991
 30
0.0
 40
1.108155999999999
 50
182.11046999999999
 51
267.90806299999991
  0
ARC
  5
376
  8
0
 62
     7
 10
81.443950000000015
 20
153.410383
 30
0.0
 40
1.066608
 50
270.00002000000001
 51
359.99998999999991
  0
ARC
  5
377
  8
0
 62
     7
 10
81.443950000000015
 20
153.410383
 30
0.0
 40
1.066608
 50
0.00001
 51
89.999980000000008
  0
ARC
  5
378
  8
0
 62
     7
 10
77.776968000000011
 20
153.410383
 30
0.0
 40
1.066608
 50
90.0
 51
179.99996999999991
  0
ARC
  5
379
  8
0
 62
     7
 10
77.776966999999985
 20
153.410383
 30
0.0
 40
1.066608
 50
179.99996999999991
 51
270.00002000000001
  0
ARC
  5
37A
  8
0
 62
     7
 10
77.736187000000001
 20
153.4515209999999
 30
0.0
 40
1.108496999999999
 50
272.10835600000001
 51
357.8731499999999
  0
ARC
  5
37B
  8
0
 62
     7
 10
77.736515999999995
 20
153.36957299999989
 30
0.0
 40
1.108155999999999
 50
2.110468
 51
87.908026000000007
  0
ARC
  5
37C
  8
0
 62
     7
 10
63.110413999999999
 20
153.410383
 30
0.0
 40
1.066608
 50
90.0
 51
179.99996999999991
  0
ARC
  5
37D
  8
0
 62
     7
 10
63.110413999999999
 20
153.410383
 30
0.0
 40
1.066608
 50
179.99996999999991
 51
270.00002000000001
  0
ARC
  5
37E
  8
0
 62
     7
 10
63.110413999999999
 20
153.410383
 30
0.0
 40
1.066608
 50
270.00002000000001
 51
359.99998999999991
  0
ARC
  5
37F
  8
0
 62
     7
 10
63.110413999999999
 20
153.410383
 30
0.0
 40
1.066608
 50
0.00001
 51
89.999980000000008
  0
ARC
  5
380
  8
0
 62
     7
 10
79.610458999999992
 20
156.58540300000001
 30
0.0
 40
1.066608
 50
90.0
 51
179.99996999999991
  0
ARC
  5
381
  8
0
 62
     7
 10
79.610458999999992
 20
156.58540300000001
 30
0.0
 40
1.066608
 50
179.99996999999991
 51
270.00002000000001
  0
ARC
  5
382
  8
0
 62
     7
 10
79.610458999999992
 20
156.58540300000001
 30
0.0
 40
1.066608
 50
270.00002000000001
 51
359.99998999999991
  0
ARC
  5
383
  8
0
 62
     7
 10
79.610458999999992
 20
156.58540300000001
 30
0.0
 40
1.066608
 50
0.00001
 51
89.999980000000008
  0
ARC
  5
384
  8
0
 62
     7
 10
64.984685999999996
 20
156.544264
 30
0.0
 40
1.108496999999999
 50
92.108337000000006
 51
177.87313
  0
ARC
  5
385
  8
0
 62
     7
 10
64.984356999999989
 20
156.62621200000001
 30
0.0
 40
1.108155999999999
 50
182.11046999999999
 51
267.90806299999991
  0
ARC
  5
386
  8
0
 62
     7
 10
64.943905000000001
 20
156.58540300000001
 30
0.0
 40
1.066608
 50
270.00002000000001
 51
359.99998999999991
  0
ARC
  5
387
  8
0
 62
     7
 10
64.943905000000001
 20
156.58540300000001
 30
0.0
 40
1.066608
 50
0.00001
 51
89.999980000000008
  0
ARC
  5
388
  8
0
 62
     7
 10
68.651325
 20
156.544264
 30
0.0
 40
1.108496999999999
 50
92.108337000000006
 51
177.87313
  0
ARC
  5
389
  8
0
 62
     7
 10
68.650994999999995
 20
156.62621200000001
 30
0.0
 40
1.108155999999999
 50
182.11046999999999
 51
267.90806299999991
  0
ARC
  5
38A
  8
0
 62
     7
 10
68.61054399999999
 20
156.58540300000001
 30
0.0
 40
1.066608
 50
270.00002000000001
 51
359.99998999999991
  0
ARC
  5
38B
  8
0
 62
     7
 10
68.61054399999999
 20
156.58540300000001
 30
0.0
 40
1.066608
 50
0.00001
 51
89.999980000000008
  0
ARC
  5
38C
  8
0
 62
     7
 10
75.943821
 20
156.58540300000001
 30
0.0
 40
1.066608
 50
90.0
 51
179.99996999999991
  0
ARC
  5
38D
  8
0
 62
     7
 10
75.943820000000002
 20
156.58540300000001
 30
0.0
 40
1.066608
 50
179.99996999999991
 51
270.00002000000001
  0
ARC
  5
38E
  8
0
 62
     7
 10
75.943820000000002
 20
156.58540300000001
 30
0.0
 40
1.066608
 50
270.00002000000001
 51
359.99998999999991
  0
ARC
  5
38F
  8
0
 62
     7
 10
75.943820000000002
 20
156.58540300000001
 30
0.0
 40
1.066608
 50
0.00001
 51
89.999980000000008
  0
ARC
  5
390
  8
0
 62
     7
 10
66.777053000000009
 20
153.410383
 30
0.0
 40
1.066608
 50
90.0
 51
179.99996999999991
  0
ARC
  5
391
  8
0
 62
     7
 10
66.777051999999998
 20
153.410383
 30
0.0
 40
1.066608
 50
179.99996999999991
 51
270.00002000000001
  0
ARC
  5
392
  8
0
 62
     7
 10
66.777051999999998
 20
153.410383
 30
0.0
 40
1.066608
 50
270.00002000000001
 51
359.99998999999991
  0
ARC
  5
393
  8
0
 62
     7
 10
66.777051999999998
 20
153.410383
 30
0.0
 40
1.066608
 50
0.00001
 51
89.999980000000008
  0
ARC
  5
394
  8
0
 62
     7
 10
74.110329000000007
 20
153.410383
 30
0.0
 40
1.066608
 50
90.0
 51
179.99996999999991
  0
ARC
  5
395
  8
0
 62
     7
 10
74.110329000000007
 20
153.410383
 30
0.0
 40
1.066608
 50
179.99996999999991
 51
270.00002000000001
  0
ARC
  5
396
  8
0
 62
     7
 10
74.069547999999998
 20
153.4515209999999
 30
0.0
 40
1.108496999999999
 50
272.10835600000001
 51
357.8731499999999
  0
ARC
  5
397
  8
0
 62
     7
 10
74.069877000000005
 20
153.36957299999989
 30
0.0
 40
1.108155999999999
 50
2.110468
 51
87.908026000000007
  0
ARC
  5
398
  8
0
 62
     7
 10
70.443691000000001
 20
153.410383
 30
0.0
 40
1.066608
 50
90.0
 51
179.99996999999991
  0
ARC
  5
399
  8
0
 62
     7
 10
70.443691000000001
 20
153.410383
 30
0.0
 40
1.066608
 50
179.99996999999991
 51
270.00002000000001
  0
ARC
  5
39A
  8
0
 62
     7
 10
70.443691000000001
 20
153.410383
 30
0.0
 40
1.066608
 50
270.00002000000001
 51
359.99998999999991
  0
ARC
  5
39B
  8
0
 62
     7
 10
70.443691000000001
 20
153.410383
 30
0.0
 40
1.066608
 50
0.00001
 51
89.999980000000008
  0
ARC
  5
39C
  8
0
 62
     7
 10
72.277181999999996
 20
156.58540300000001
 30
0.0
 40
1.066608
 50
90.0
 51
179.99996999999991
  0
ARC
  5
39D
  8
0
 62
     7
 10
72.277181999999996
 20
156.58540300000001
 30
0.0
 40
1.066608
 50
179.99996999999991
 51
270.00002000000001
  0
ARC
  5
39E
  8
0
 62
     7
 10
72.277181999999996
 20
156.58540300000001
 30
0.0
 40
1.066608
 50
270.00002000000001
 51
359.99998999999991
  0
ARC
  5
39F
  8
0
 62
     7
 10
72.277181999999996
 20
156.58540300000001
 30
0.0
 40
1.066608
 50
0.00001
 51
89.999980000000008
  0
ARC
  5
3A0
  8
0
 62
     7
 10
156.89362199999991
 20
166.756293
 30
0.0
 40
0.474882
 50
356.85496499999999
 51
13.575950000000001
  0
ARC
  5
3A1
  8
0
 62
     7
 10
156.63827800000001
 20
166.71321299999991
 30
0.0
 40
0.7334270000000001
 50
12.16486699999999
 51
41.456140999999988
  0
LINE
  5
3A2
  8
0
 62
     7
 10
157.1879999999999
 20
167.19900000000001
 30
0.0
 11
156.37499999999989
 21
168.101
 31
0.0
  0
ARC
  5
3A3
  8
0
 62
     7
 10
156.675633
 20
168.48109099999991
 30
0.0
 40
0.4623800000000001
 50
189.95955699999999
 51
206.84428600000001
  0
ARC
  5
3A4
  8
0
 62
     7
 10
156.84348399999999
 20
168.5300419999999
 30
0.0
 40
0.635061
 50
203.94507899999991
 51
222.45164500000001
  0
ARC
  5
3A5
  8
0
 62
     7
 10
151.43411
 20
167.372772
 30
0.0
 40
4.89534
 50
12.126274
 51
18.560410000000001
  0
ARC
  5
3A6
  8
0
 62
     7
 10
153.23487
 20
167.27091399999989
 30
0.0
 40
2.7969550000000001
 50
359.65141199999999
 51
6.1759699999999986
  0
ARC
  5
3A7
  8
0
 62
     7
 10
150.00210499999989
 20
166.99156099999999
 30
0.0
 40
6.041417
 50
5.511544999999999
 51
17.699642999999998
  0
ARC
  5
3A8
  8
0
 62
     7
 10
149.28004300000001
 20
153.7261639999999
 30
0.0
 40
18.457975000000001
 50
79.275537999999997
 51
81.819108
  0
ARC
  5
3A9
  8
0
 62
     7
 10
146.97815900000001
 20
140.09793699999989
 30
0.0
 40
32.276854999999991
 50
81.217003999999989
 51
83.793081000000015
  0
ARC
  5
3AA
  8
0
 62
     7
 10
149.28447
 20
153.76764199999991
 30
0.0
 40
18.082851000000002
 50
79.254682000000003
 51
81.824656999999988
  0
ARC
  5
3AB
  8
0
 62
     7
 10
147.00098499999999
 20
140.282521
 30
0.0
 40
31.75749699999999
 50
81.206434000000002
 51
83.798247000000003
  0
ARC
  5
3AC
  8
0
 62
     7
 10
142.34912299999991
 20
109.13094100000001
 30
0.0
 40
18.50907999999999
 50
294.40797400000002
 51
296.94405299999988
  0
ARC
  5
3AD
  8
0
 62
     7
 10
136.51957699999991
 20
121.34331299999999
 30
0.0
 40
32.039048999999991
 50
296.34151299999991
 51
298.93642799999992
  0
ARC
  5
3AE
  8
0
 62
     7
 10
142.47704899999999
 20
108.8731029999999
 30
0.0
 40
17.887753
 50
294.36549100000002
 51
296.90232200000003
  0
ARC
  5
3AF
  8
0
 62
     7
 10
136.485567
 20
121.399253
 30
0.0
 40
31.770942999999999
 50
296.3168609999999
 51
298.94228599999991
  0
ARC
  5
3B0
  8
0
 62
     7
 10
135.77104099999991
 20
98.697711000000012
 30
0.0
 40
18.581466999999989
 50
353.73934300000002
 51
356.26626800000003
  0
ARC
  5
3B1
  8
0
 62
     7
 10
122.4861949999999
 20
99.892557999999994
 30
0.0
 40
31.917601000000001
 50
355.67888900000003
 51
358.28418799999992
  0
ARC
  5
3B2
  8
0
 62
     7
 10
135.98452399999999
 20
98.67877
 30
0.0
 40
18.033799999999989
 50
353.714699
 51
356.29192999999992
  0
ARC
  5
3B3
  8
0
 62
     7
 10
122.51560499999999
 20
99.893561000000005
 30
0.0
 40
31.554931
 50
355.6724319999999
 51
358.28141399999998
  0
LINE
  5
3B4
  8
0
 62
     7
 10
156.03499999999991
 20
167.16399999999999
 30
0.0
 11
156.03200000000001
 21
167.25399999999999
 31
0.0
  0
LINE
  5
3B5
  8
0
 62
     7
 10
156.904
 20
166.364
 30
0.0
 11
156.86799999999999
 21
166.4009999999999
 31
0.0
  0
ARC
  5
3B6
  8
0
 62
     7
 10
150.66890100000001
 20
96.097673000000015
 30
0.0
 40
3.1037080000000001
 50
295.83242300000001
 51
310.99019700000002
  0
ARC
  5
3B7
  8
0
 62
     7
 10
149.78520299999991
 20
97.156734
 30
0.0
 40
4.4828390000000002
 50
310.63697200000001
 51
353.78428799999989
  0
ARC
  5
3B8
  8
0
 62
     7
 10
150.61503400000001
 20
96.170959999999994
 30
0.0
 40
2.860087
 50
295.8131709999999
 51
310.99741599999999
  0
ARC
  5
3B9
  8
0
 62
     7
 10
149.76045300000001
 20
97.20327300000001
 30
0.0
 40
4.1999639999999987
 50
310.557635
 51
346.86981400000002
  0
ARC
  5
3BA
  8
0
 62
     7
 10
151.08655899999999
 20
96.840780000000009
 30
0.0
 40
2.8266550000000001
 50
347.91929699999997
 51
357.23538300000001
  0
LINE
  5
3BB
  8
0
 62
     7
 10
157.0
 20
160.76699999999991
 30
0.0
 11
155.05600000000001
 21
98.936899999999994
 31
0.0
  0
LINE
  5
3BC
  8
0
 62
     7
 10
156.333
 20
160.7879999999999
 30
0.0
 11
154.38900000000001
 21
98.936899999999994
 31
0.0
  0
LINE
  5
3BD
  8
0
 62
     7
 10
156.03499999999991
 20
161.89699999999999
 30
0.0
 11
154.05600000000001
 21
98.947199999999995
 31
0.0
  0
ARC
  5
3BE
  8
0
 62
     7
 10
156.23420100000001
 20
167.37092999999999
 30
0.0
 40
0.206694
 50
183.890254
 51
268.32091799999989
  0
LINE
  5
3BF
  8
0
 62
     7
 10
156.44799999999989
 20
167.16399999999999
 30
0.0
 11
156.03499999999991
 21
167.16399999999999
 31
0.0
  0
LINE
  5
3C0
  8
0
 62
     7
 10
157.36799999999991
 20
166.364
 30
0.0
 11
156.86799999999999
 21
166.364
 31
0.0
  0
LINE
  5
3C1
  8
0
 62
     7
 10
156.86799999999999
 20
162.69799999999989
 30
0.0
 11
157.36799999999991
 21
162.69799999999989
 31
0.0
  0
LINE
  5
3C2
  8
0
 62
     7
 10
156.86799999999999
 20
166.69799999999989
 30
0.0
 11
156.44799999999989
 21
167.16399999999999
 31
0.0
  0
LINE
  5
3C3
  8
0
 62
     7
 10
156.86799999999999
 20
164.51900000000001
 30
0.0
 11
156.86799999999999
 21
166.69799999999989
 31
0.0
  0
ARC
  5
3C4
  8
0
 62
     7
 10
156.364001
 20
166.976461
 30
0.0
 40
0.187938
 50
40.364313000000003
 51
91.61205799999999
  0
LINE
  5
3C5
  8
0
 62
     7
 10
157.36799999999991
 20
164.51900000000001
 30
0.0
 11
157.36799999999991
 21
166.72999999999999
 31
0.0
  0
ARC
  5
3C6
  8
0
 62
     7
 10
156.68000599999999
 20
166.62556499999999
 30
0.0
 40
0.187951
 50
358.61727000000002
 51
43.398364000000008
  0
ARC
  5
3C7
  8
0
 62
     7
 10
156.8493179999999
 20
162.313626
 30
0.0
 40
0.4802780000000001
 50
314.83622700000001
 51
331.84265099999999
  0
ARC
  5
3C8
  8
0
 62
     7
 10
156.63825900000001
 20
162.44707500000001
 30
0.0
 40
0.7295560000000001
 50
330.42437799999999
 51
359.51479399999988
  0
ARC
  5
3C9
  8
0
 62
     7
 10
156.67689899999991
 20
162.43755400000001
 30
0.0
 40
0.191032
 50
316.98181099999999
 51
1.002554999999999
  0
LINE
  5
3CA
  8
0
 62
     7
 10
157.36799999999991
 20
164.51900000000001
 30
0.0
 11
157.36799999999991
 21
162.441
 31
0.0
  0
ARC
  5
3CB
  8
0
 62
     7
 10
156.35836499999991
 20
162.09846200000001
 30
0.0
 40
0.200516
 50
270.09986400000003
 51
317.923766
  0
ARC
  5
3CC
  8
0
 62
     7
 10
156.23578699999999
 20
161.6905459999999
 30
0.0
 40
0.207529
 50
92.015349999999984
 51
176.38204599999989
  0
LINE
  5
3CD
  8
0
 62
     7
 10
156.44799999999989
 20
161.898
 30
0.0
 11
156.03499999999991
 21
161.898
 31
0.0
  0
LINE
  5
3CE
  8
0
 62
     7
 10
156.86799999999999
 20
164.51900000000001
 30
0.0
 11
156.86799999999999
 21
162.36399999999989
 31
0.0
  0
ARC
  5
3CF
  8
0
 62
     7
 10
156.82390000000001
 20
160.89228499999999
 30
0.0
 40
0.452954
 50
134.913218
 51
151.80860499999989
  0
ARC
  5
3D0
  8
0
 62
     7
 10
157.02724599999991
 20
160.7608469999999
 30
0.0
 40
0.6945540000000001
 50
150.17653799999991
 51
177.76533000000001
  0
LINE
  5
3D1
  8
0
 62
     7
 10
157.1879999999999
 20
161.9729999999999
 30
0.0
 11
156.50399999999991
 21
161.21299999999999
 31
0.0
  0
LINE
  5
3D2
  8
0
 62
     7
 10
156.86799999999999
 20
162.36399999999989
 30
0.0
 11
156.44799999999989
 21
161.898
 31
0.0
  0
LINE
  5
3D3
  8
0
 62
     7
 10
156.03499999999991
 20
167.16399999999999
 30
0.0
 11
156.03499999999991
 21
161.898
 31
0.0
  0
LINE
  5
3D4
  8
0
 62
     7
 10
126.0709999999999
 20
81.118700000000004
 30
0.0
 11
149.99799999999991
 21
92.2761
 31
0.0
  0
LINE
  5
3D5
  8
0
 62
     7
 10
125.93000000000001
 20
81.421199999999999
 30
0.0
 11
149.85699999999991
 21
92.578599999999994
 31
0.0
  0
ARC
  5
3D6
  8
0
 62
     7
 10
125.916876
 20
180.605479
 30
0.0
 40
0.5494820000000001
 50
95.38672600000001
 51
179.03308000000001
  0
ARC
  5
3D7
  8
0
 62
     7
 10
125.91622700000001
 20
75.228589999999997
 30
0.0
 40
0.549866
 50
180.96678399999999
 51
264.57682699999998
  0
ARC
  5
3D8
  8
0
 62
     7
 10
152.751666
 20
168.022299
 30
0.0
 40
3.4451649999999998
 50
15.293013999999999
 51
37.459282999999999
  0
ARC
  5
3D9
  8
0
 62
     7
 10
151.78418099999999
 20
167.384804
 30
0.0
 40
4.6016009999999996
 50
36.43339799999999
 51
70.315996999999996
  0
ARC
  5
3DA
  8
0
 62
     7
 10
152.27009699999991
 20
168.55028599999989
 30
0.0
 40
3.3411839999999988
 50
71.429851999999997
 51
82.351146000000014
  0
ARC
  5
3DB
  8
0
 62
     7
 10
152.66847999999999
 20
167.983465
 30
0.0
 40
3.2025099999999989
 50
15.296191
 51
38.536544999999997
  0
ARC
  5
3DC
  8
0
 62
     7
 10
151.87312900000001
 20
167.45010099999999
 30
0.0
 40
4.1576729999999991
 50
37.457295999999999
 51
79.148042000000004
  0
LINE
  5
3DD
  8
0
 62
     7
 10
126.167
 20
174.85599999999991
 30
0.0
 11
150.46799999999999
 21
172.18599999999989
 31
0.0
  0
LINE
  5
3DE
  8
0
 62
     7
 10
126.1309999999999
 20
174.524
 30
0.0
 11
150.43199999999999
 21
171.85400000000001
 31
0.0
  0
ARC
  5
3DF
  8
0
 62
     7
 10
126.20008
 20
80.824425000000005
 30
0.0
 40
0.321521
 50
113.74359
 51
178.14128199999999
  0
ARC
  5
3E0
  8
0
 62
     7
 10
126.18449099999989
 20
80.835288000000006
 30
0.0
 40
0.638781
 50
113.47227599999999
 51
178.49375800000001
  0
ARC
  5
3E1
  8
0
 62
     7
 10
125.97502900000001
 20
75.283447999999993
 30
0.0
 40
0.274801
 50
181.01752500000001
 51
264.63879900000001
  0
ARC
  5
3E2
  8
0
 62
     7
 10
189.81786899999989
 20
76.981750000000005
 30
0.0
 40
64.055132999999984
 50
176.55139
 51
177.92480499999991
  0
ARC
  5
3E3
  8
0
 62
     7
 10
262.78027300000002
 20
73.731132999999986
 30
0.0
 40
137.08873600000001
 50
177.671335
 51
179.35322099999991
  0
ARC
  5
3E4
  8
0
 62
     7
 10
188.79938599999991
 20
77.028908000000001
 30
0.0
 40
63.368890999999998
 50
176.541112
 51
177.90607499999999
  0
ARC
  5
3E5
  8
0
 62
     7
 10
262.35307499999999
 20
73.750726999999998
 30
0.0
 40
136.99450699999991
 50
177.65993099999989
 51
179.38575599999999
  0
LINE
  5
3E6
  8
0
 62
     7
 10
125.9489999999999
 20
75.009799999999998
 30
0.0
 11
127.3679999999999
 21
74.915499999999994
 31
0.0
  0
LINE
  5
3E7
  8
0
 62
     7
 10
125.8639999999999
 20
74.681200000000004
 30
0.0
 11
127.3679999999999
 21
74.581299999999999
 31
0.0
  0
LINE
  5
3E8
  8
0
 62
     7
 10
127.3679999999999
 20
74.581299999999999
 30
0.0
 11
127.3679999999999
 21
76.676599999999993
 31
0.0
  0
LINE
  5
3E9
  8
0
 62
     7
 10
127.3679999999999
 20
74.581299999999999
 30
0.0
 11
127.3679999999999
 21
74.915499999999994
 31
0.0
  0
LINE
  5
3EA
  8
0
 62
     7
 10
127.3679999999999
 20
74.581299999999999
 30
0.0
 11
127.3679999999999
 21
74.915499999999994
 31
0.0
  0
LINE
  5
3EB
  8
0
 62
     7
 10
127.3679999999999
 20
74.581299999999999
 30
0.0
 11
127.3679999999999
 21
74.915499999999994
 31
0.0
  0
LINE
  5
3EC
  8
0
 62
     7
 10
125.95
 20
180.8239999999999
 30
0.0
 11
127.3689999999999
 21
180.91900000000001
 31
0.0
  0
ARC
  5
3ED
  8
0
 62
     7
 10
125.976637
 20
180.55009000000001
 30
0.0
 40
0.275379
 50
95.469924999999989
 51
178.946946
  0
ARC
  5
3EE
  8
0
 62
     7
 10
190.03550399999989
 20
180.82007999999999
 30
0.0
 40
64.334744999999984
 50
180.23596399999991
 51
181.60132999999999
  0
ARC
  5
3EF
  8
0
 62
     7
 10
260.82546000000002
 20
182.17282800000001
 30
0.0
 40
135.13630699999999
 50
181.335927
 51
182.97113899999991
  0
ARC
  5
3F0
  8
0
 62
     7
 10
126.2077459999999
 20
175.19075100000001
 30
0.0
 40
0.337618
 50
183.625956
 51
263.14153599999992
  0
ARC
  5
3F1
  8
0
 62
     7
 10
126.212687
 20
175.1952169999999
 30
0.0
 40
0.6760520000000002
 50
183.65042799999989
 51
263.05244799999991
  0
ARC
  5
3F2
  8
0
 62
     7
 10
190.93435799999989
 20
180.85904500000001
 30
0.0
 40
65.567340999999985
 50
180.21349599999999
 51
181.572417
  0
ARC
  5
3F3
  8
0
 62
     7
 10
260.93479300000001
 20
182.17536000000001
 30
0.0
 40
135.57888600000001
 50
181.31674399999989
 51
182.9699379999999
  0
LINE
  5
3F4
  8
0
 62
     7
 10
125.86499999999999
 20
181.15299999999991
 30
0.0
 11
127.3689999999999
 21
181.2529999999999
 31
0.0
  0
LINE
  5
3F5
  8
0
 62
     7
 10
127.3689999999999
 20
179.15700000000001
 30
0.0
 11
127.3689999999999
 21
181.2529999999999
 31
0.0
  0
LINE
  5
3F6
  8
0
 62
     7
 10
127.3689999999999
 20
174.72
 30
0.0
 11
127.3689999999999
 21
174.72399999999999
 31
0.0
  0
LINE
  5
3F7
  8
0
 62
     7
 10
127.3689999999999
 20
174.72399999999999
 30
0.0
 11
127.3689999999999
 21
174.72
 31
0.0
  0
LINE
  5
3F8
  8
0
 62
     7
 10
127.3689999999999
 20
181.2529999999999
 30
0.0
 11
127.3689999999999
 21
179.15700000000001
 31
0.0
  0
LINE
  5
3F9
  8
0
 62
     7
 10
127.3689999999999
 20
181.2529999999999
 30
0.0
 11
127.3689999999999
 21
180.91900000000001
 31
0.0
  0
LINE
  5
3FA
  8
0
 62
     7
 10
127.3689999999999
 20
181.2529999999999
 30
0.0
 11
127.3689999999999
 21
180.91900000000001
 31
0.0
  0
ARC
  5
3FB
  8
0
 62
     7
 10
47.997351999999992
 20
180.6991779999999
 30
0.0
 40
0.5539810000000001
 50
92.100484000000009
 51
177.899486
  0
ARC
  5
3FC
  8
0
 62
     7
 10
47.99736699999999
 20
75.139034999999993
 30
0.0
 40
0.5539970000000001
 50
182.10201399999991
 51
267.89801599999998
  0
LINE
  5
3FD
  8
0
 62
     7
 10
47.443699999999993
 20
180.71899999999999
 30
0.0
 11
47.443699999999993
 21
75.118700000000004
 31
0.0
  0
ARC
  5
3FE
  8
0
 62
     7
 10
100.223918
 20
75.138751999999997
 30
0.0
 40
0.553703
 50
272.07380699999987
 51
357.92620299999987
  0
LINE
  5
3FF
  8
0
 62
     7
 10
47.97699999999999
 20
74.585400000000007
 30
0.0
 11
100.2439999999999
 21
74.585400000000007
 31
0.0
  0
LINE
  5
400
  8
0
  6
AIGENLINE001
 62
     7
 10
51.310400000000001
 20
169.172
 30
0.0
 11
51.310400000000001
 21
176.12499999999989
 31
0.0
  0
LINE
  5
401
  8
0
 62
     7
 10
100.777
 20
75.118700000000004
 30
0.0
 11
100.777
 21
180.71899999999999
 31
0.0
  0
ARC
  5
402
  8
0
 62
     7
 10
100.22364499999991
 20
180.699173
 30
0.0
 40
0.553986
 50
2.1010110000000002
 51
87.898978999999997
  0
LINE
  5
403
  8
0
  6
AIGENLINE001
 62
     7
 10
54.643700000000003
 20
172.5859999999999
 30
0.0
 11
47.8127
 21
172.5859999999999
 31
0.0
  0
LINE
  5
404
  8
0
 62
     7
 10
100.2439999999999
 20
181.2529999999999
 30
0.0
 11
47.97699999999999
 21
181.2529999999999
 31
0.0
  0
ARC
  5
405
  8
0
 62
     7
 10
56.18641199999999
 20
83.328436999999994
 30
0.0
 40
2.0774300000000001
 50
182.1100689999999
 51
267.899832
  0
ARC
  5
406
  8
0
 62
     7
 10
56.18676
 20
172.50942599999991
 30
0.0
 40
2.077777999999999
 50
92.109434999999991
 51
177.890535
  0
LINE
  5
407
  8
0
 62
     7
 10
54.110399999999991
 20
172.5859999999999
 30
0.0
 11
54.110399999999991
 21
83.251900000000006
 31
0.0
  0
LINE
  5
408
  8
0
 62
     7
 10
94.110600000000005
 20
83.251900000000006
 30
0.0
 11
94.110600000000005
 21
172.5859999999999
 31
0.0
  0
ARC
  5
409
  8
0
 62
     7
 10
92.033940999999999
 20
83.329099999999997
 30
0.0
 40
2.078104999999999
 50
272.10794399999997
 51
357.87232599999999
  0
LINE
  5
40A
  8
0
 62
     7
 10
56.110300000000002
 20
81.252399999999994
 30
0.0
 11
92.110399999999998
 21
81.252399999999994
 31
0.0
  0
ARC
  5
40B
  8
0
 62
     7
 10
92.034241000000009
 20
172.509411
 30
0.0
 40
2.0777809999999999
 50
2.109856999999999
 51
87.900001999999986
  0
LINE
  5
40C
  8
0
 62
     7
 10
92.110399999999998
 20
174.5859999999999
 30
0.0
 11
56.110300000000002
 21
174.5859999999999
 31
0.0
  0
LINE
  5
40D
  8
0
 62
     7
 10
61.4437
 20
94.470600000000005
 30
0.0
 11
86.776999999999987
 21
94.470600000000005
 31
0.0
  0
LINE
  5
40E
  8
0
 62
     7
 10
61.4437
 20
171.2529999999999
 30
0.0
 11
86.776999999999987
 21
171.2529999999999
 31
0.0
  0
LINE
  5
40F
  8
0
 62
     7
 10
57.443899999999999
 20
167.2529999999999
 30
0.0
 11
57.443899999999999
 21
98.471100000000007
 31
0.0
  0
LINE
  5
410
  8
0
 62
     7
 10
90.777100000000004
 20
98.471100000000007
 30
0.0
 11
90.777100000000004
 21
167.2529999999999
 31
0.0
  0
ARC
  5
411
  8
0
 62
     7
 10
61.443839000000011
 20
167.252691
 30
0.0
 40
3.9999539999999998
 50
90.00246700000001
 51
180.002477
  0
ARC
  5
412
  8
0
 62
     7
 10
86.77699100000001
 20
167.25251899999989
 30
0.0
 40
4.000125999999999
 50
0.00001
 51
89.999980000000008
  0
ARC
  5
413
  8
0
 62
     7
 10
86.776818999999989
 20
98.470926000000006
 30
0.0
 40
4.000299
 50
270.00248699999997
 51
0.002457
  0
ARC
  5
414
  8
0
 62
     7
 10
61.444009999999999
 20
98.470753000000002
 30
0.0
 40
4.0001249999999988
 50
179.995036
 51
269.99508500000002
  0
LINE
  5
415
  8
0
 62
     7
 10
125.3679999999999
 20
180.589
 30
0.0
 11
125.3679999999999
 21
75.342600000000004
 31
0.0
  0
ARC
  5
416
  8
0
 62
     7
 10
74.110416000000001
 20
164.58591200000001
 30
0.0
 40
3.0000949999999991
 50
90.001644999999996
 51
180.001655
  0
ARC
  5
417
  8
0
 62
     7
 10
74.110329000000007
 20
164.58582599999991
 30
0.0
 40
3.0000079999999998
 50
179.99996999999991
 51
270.00002000000001
  0
ARC
  5
418
  8
0
 62
     7
 10
74.110329000000007
 20
164.58582699999991
 30
0.0
 40
3.000008999999999
 50
270.00002000000001
 51
359.99998999999991
  0
ARC
  5
419
  8
0
 62
     7
 10
74.110241999999985
 20
164.58591200000001
 30
0.0
 40
3.0000949999999991
 50
359.99836499999992
 51
89.998334999999983
  0
ARC
  5
41A
  8
0
 62
     7
 10
74.110588000000007
 20
164.586084
 30
0.0
 40
1.8334060000000001
 50
90.008075000000005
 51
180.00808499999999
  0
ARC
  5
41B
  8
0
 62
     7
 10
74.180986000000004
 20
164.65612499999989
 30
0.0
 40
1.905100999999999
 50
182.114732
 51
267.87453099999999
  0
ARC
  5
41C
  8
0
 62
     7
 10
74.040014999999997
 20
164.65613999999991
 30
0.0
 40
1.905103
 50
272.11516799999998
 51
357.88484199999988
  0
ARC
  5
41D
  8
0
 62
     7
 10
74.110243000000011
 20
164.58591200000001
 30
0.0
 40
1.833577999999999
 50
359.997319
 51
89.997288999999995
  0
TEXT
  5
41E
  8
0
 62
     7
 10
173.22200000000001
 20
235.72213499999989
 30
0.0
 40
3.0923400000000001
  1
300
 50
90.0
 41
0.5
 72
     1
 11
173.22200000000001
 21
237.5259999999999
 31
0.0
  0
TEXT
  5
41F
  8
0
 62
     7
 10
173.22200000000001
 20
253.92728749999989
 30
0.0
 40
3.0923400000000001
  1
250
 50
90.0
 41
0.5
 72
     1
 11
173.22200000000001
 21
255.86000000000001
 31
0.0
  0
TEXT
  5
420
  8
0
 62
     7
 10
173.22200000000001
 20
217.26028749999989
 30
0.0
 40
3.0923400000000001
  1
250
 50
90.0
 41
0.5
 72
     1
 11
173.22200000000001
 21
219.1929999999999
 31
0.0
  0
TEXT
  5
421
  8
0
 62
     7
 10
72.306434999999993
 20
190.43499999999989
 30
0.0
 40
3.0923400000000001
  1
600
 41
0.5
 72
     1
 11
74.110299999999995
 21
190.43499999999989
 31
0.0
  0
TEXT
  5
422
  8
0
 62
     7
 10
95.842429999999979
 20
190.57900000000001
 30
0.0
 40
3.0923400000000001
  1
100
 41
0.5
 72
     1
 11
97.388599999999997
 21
190.57900000000001
 31
0.0
  0
TEXT
  5
423
  8
0
 62
     7
 10
49.175229999999999
 20
190.64699999999999
 30
0.0
 40
3.0923400000000001
  1
100
 41
0.5
 72
     1
 11
50.721400000000003
 21
190.64699999999999
 31
0.0
  0
TEXT
  5
424
  8
0
 62
     7
 10
143.56413499999999
 20
194.16399999999999
 30
0.0
 40
3.0923400000000001
  1
600
 41
0.5
 72
     1
 11
145.36799999999999
 21
194.16399999999999
 31
0.0
  0
TEXT
  5
425
  8
0
 62
     7
 10
40.693199999999997
 20
175.24498249999999
 30
0.0
 40
3.0923400000000001
  1
130
 50
90.0
 41
0.5
 72
     1
 11
40.693199999999997
 21
176.9199999999999
 31
0.0
  0
TEXT
  5
426
  8
0
 62
     7
 10
173.22200000000001
 20
166.6492874999999
 30
0.0
 40
3.0923400000000001
  1
380
 50
90.0
 41
0.5
 72
     1
 11
173.22200000000001
 21
168.58199999999991
 31
0.0
  0
TEXT
  5
427
  8
0
 62
     7
 10
115.8689999999999
 20
125.1587449999999
 30
0.0
 40
3.0923400000000001
  1
1400
 50
90.0
 41
0.5
 72
     1
 11
115.8689999999999
 21
127.47799999999999
 31
0.0
  0
TEXT
  5
428
  8
0
 62
     7
 10
138.7682874999999
 20
164.18799999999999
 30
0.0
 40
3.0923400000000001
  1
460
 41
0.5
 72
     1
 11
140.70099999999991
 21
164.18799999999999
 31
0.0
  0
TEXT
  5
429
  8
0
 62
     7
 10
115.72799999999989
 20
176.28282999999999
 30
0.0
 40
3.0923400000000001
  1
100
 50
90.0
 41
0.5
 72
     1
 11
115.72799999999989
 21
177.82900000000001
 31
0.0
  0
TEXT
  5
42A
  8
0
 62
     7
 10
115.72799999999989
 20
76.527029999999996
 30
0.0
 40
3.0923400000000001
  1
100
 50
90.0
 41
0.5
 72
     1
 11
115.72799999999989
 21
78.0732
 31
0.0
  0
TEXT
  5
42B
  8
0
 62
     7
 10
40.874600000000001
 20
162.90399999999991
 30
0.0
 40
3.0923400000000001
  1
58
 41
0.5
  0
TEXT
  5
42C
  8
0
 62
     7
 10
72.306434999999993
 20
197.28399999999999
 30
0.0
 40
3.0923400000000001
  1
800
 41
0.5
 72
     1
 11
74.110299999999995
 21
197.28399999999999
 31
0.0
  0
TEXT
  5
42D
  8
0
 62
     7
 10
33.195399999999992
 20
125.53274500000001
 30
0.0
 40
3.0923400000000001
  1
1600
 50
90.0
 41
0.5
 72
     1
 11
33.195399999999992
 21
127.852
 31
0.0
  0
TEXT
  5
42E
  8
0
 62
     7
 10
118.886
 20
187.76300000000001
 30
0.0
 40
3.0923400000000001
  1
30
 41
0.5
  0
LINE
  5
42F
  8
0
 62
     7
 10
59.493699999999997
 20
164.40299999999991
 30
0.0
 11
65.908000000000001
 21
164.40299999999991
 31
0.0
  0
LINE
  5
430
  8
0
 62
     7
 10
47.960500000000003
 20
175.09899999999999
 30
0.0
 11
49.9435
 21
173.95400000000001
 31
0.0
  0
LINE
  5
431
  8
0
 62
     7
 10
49.9435
 20
173.95400000000001
 30
0.0
 11
48.798400000000001
 21
175.93700000000001
 31
0.0
  0
LINE
  5
432
  8
0
 62
     7
 10
48.798400000000001
 20
175.93700000000001
 30
0.0
 11
47.960500000000003
 21
175.09899999999999
 31
0.0
  0
LINE
  5
433
  8
0
 62
     7
 10
54.660699999999999
 20
170.07400000000001
 30
0.0
 11
52.677700000000002
 21
171.21899999999999
 31
0.0
  0
LINE
  5
434
  8
0
 62
     7
 10
52.677700000000002
 20
171.21899999999999
 30
0.0
 11
53.822200000000002
 21
169.2359999999999
 31
0.0
  0
LINE
  5
435
  8
0
 62
     7
 10
53.822200000000002
 20
169.2359999999999
 30
0.0
 11
54.660699999999999
 21
170.07400000000001
 31
0.0
  0
LINE
  5
436
  8
0
 62
     7
 10
59.493699999999997
 20
164.40299999999991
 30
0.0
 11
46.973700000000001
 21
176.923
 31
0.0
  0
LINE
  5
437
  8
0
 62
     7
 10
79.030299999999997
 20
159.66599999999991
 30
0.0
 11
85.444399999999987
 21
159.66599999999991
 31
0.0
  0
LINE
  5
438
  8
0
 62
     7
 10
70.831599999999995
 20
167.02699999999999
 30
0.0
 11
72.814599999999999
 21
165.88200000000001
 31
0.0
  0
LINE
  5
439
  8
0
 62
     7
 10
72.814599999999999
 20
165.88200000000001
 30
0.0
 11
71.669499999999985
 21
167.86500000000001
 31
0.0
  0
LINE
  5
43A
  8
0
 62
     7
 10
71.669499999999985
 20
167.86500000000001
 30
0.0
 11
70.831599999999995
 21
167.02699999999999
 31
0.0
  0
LINE
  5
43B
  8
0
 62
     7
 10
77.389700000000005
 20
162.14500000000001
 30
0.0
 11
75.406700000000001
 21
163.28999999999999
 31
0.0
  0
LINE
  5
43C
  8
0
 62
     7
 10
75.406700000000001
 20
163.28999999999999
 30
0.0
 11
76.551199999999994
 21
161.30699999999999
 31
0.0
  0
LINE
  5
43D
  8
0
 62
     7
 10
76.551199999999994
 20
161.30699999999999
 30
0.0
 11
77.389700000000005
 21
162.14500000000001
 31
0.0
  0
LINE
  5
43E
  8
0
 62
     7
 10
79.030299999999997
 20
159.66599999999991
 30
0.0
 11
69.702600000000004
 21
168.994
 31
0.0
  0
LINE
  5
43F
  8
0
 62
     7
 10
75.584800000000001
 20
70.717200000000005
 30
0.0
 11
74.110299999999995
 21
70.322400000000002
 31
0.0
  0
LINE
  5
440
  8
0
 62
     7
 10
74.110299999999995
 20
70.322400000000002
 30
0.0
 11
75.584800000000001
 21
69.926900000000003
 31
0.0
  0
LINE
  5
441
  8
0
 62
     7
 10
75.584800000000001
 20
69.926900000000003
 30
0.0
 11
75.584800000000001
 21
70.717200000000005
 31
0.0
  0
LINE
  5
442
  8
0
 62
     7
 10
74.110299999999995
 20
70.322400000000002
 30
0.0
 11
78.720600000000005
 21
70.322400000000002
 31
0.0
  0
LINE
  5
443
  8
0
 62
     7
 10
75.584800000000001
 20
184.52199999999999
 30
0.0
 11
74.110299999999995
 21
184.1279999999999
 31
0.0
  0
LINE
  5
444
  8
0
 62
     7
 10
74.110299999999995
 20
184.1279999999999
 30
0.0
 11
75.584800000000001
 21
183.732
 31
0.0
  0
LINE
  5
445
  8
0
 62
     7
 10
75.584800000000001
 20
183.732
 30
0.0
 11
75.584800000000001
 21
184.52199999999999
 31
0.0
  0
LINE
  5
446
  8
0
 62
     7
 10
74.110299999999995
 20
184.1279999999999
 30
0.0
 11
78.720600000000005
 21
184.1279999999999
 31
0.0
  0
LINE
  5
447
  8
_________2
 62
     7
 10
210.00099999999989
 20
148.482
 30
0.0
 11
188.25099999999989
 21
148.482
 31
0.0
  0
LINE
  5
448
  8
_________2
 62
     7
 10
105.0
 20
16.979900000000001
 30
0.0
 11
105.0
 21
-0.000344512
 31
0.0
  0
LINE
  5
449
  8
_________2
 62
     7
 10
105.0
 20
297.00200000000001
 30
0.0
 11
105.0
 21
279.98200000000003
 31
0.0
  0
LINE
  5
44A
  8
_________2
 62
     7
 10
21.749700000000001
 20
148.482
 30
0.0
 11
-0.000689023
 21
148.482
 31
0.0
  0
LINE
  5
44B
  8
_________2
 62
     7
 10
81.441199999999995
 20
50.875799999999991
 30
0.0
 11
79.254900000000006
 21
50.875799999999991
 31
0.0
  0
LINE
  5
44C
  8
_________2
 62
     7
 10
81.933800000000005
 20
50.875799999999991
 30
0.0
 11
81.681700000000006
 21
50.875799999999991
 31
0.0
  0
LINE
  5
44D
  8
_________2
 62
     7
 10
82.426500000000004
 20
50.875799999999991
 30
0.0
 11
85.351399999999998
 21
50.875799999999991
 31
0.0
  0
LINE
  5
44E
  8
_________2
 62
     7
 10
81.933800000000005
 20
50.875799999999991
 30
0.0
 11
82.186000000000007
 21
50.875799999999991
 31
0.0
  0
LINE
  5
44F
  8
_________2
 62
     7
 10
75.537599999999998
 20
50.875799999999991
 30
0.0
 11
73.350700000000003
 21
50.875799999999991
 31
0.0
  0
LINE
  5
450
  8
_________2
 62
     7
 10
76.029600000000002
 20
50.875799999999991
 30
0.0
 11
75.778099999999995
 21
50.875799999999991
 31
0.0
  0
LINE
  5
451
  8
_________2
 62
     7
 10
76.029600000000002
 20
51.368400000000001
 30
0.0
 11
76.029600000000002
 21
53.555399999999999
 31
0.0
  0
LINE
  5
452
  8
_________2
 62
     7
 10
76.029600000000002
 20
50.875799999999991
 30
0.0
 11
76.029600000000002
 21
51.128
 31
0.0
  0
LINE
  5
453
  8
_________2
 62
     7
 10
76.522300000000001
 20
50.875799999999991
 30
0.0
 11
78.709199999999996
 21
50.875799999999991
 31
0.0
  0
LINE
  5
454
  8
_________2
 62
     7
 10
76.029600000000002
 20
50.875799999999991
 30
0.0
 11
76.281800000000004
 21
50.875799999999991
 31
0.0
  0
LINE
  5
455
  8
_________2
 62
     7
 10
76.029600000000002
 20
50.383800000000001
 30
0.0
 11
76.029600000000002
 21
48.196800000000003
 31
0.0
  0
LINE
  5
456
  8
_________2
 62
     7
 10
76.029600000000002
 20
50.875799999999991
 30
0.0
 11
76.029600000000002
 21
50.624299999999991
 31
0.0
  0
LINE
  5
457
  8
_________2
 62
     7
 10
79.740700000000004
 20
49.656199999999998
 30
0.0
 11
84.918700000000001
 21
48.791499999999999
 31
0.0
  0
LINE
  5
458
  8
_________2
 62
     7
 10
79.740700000000004
 20
52.095300000000002
 30
0.0
 11
84.918700000000001
 21
52.960799999999992
 31
0.0
  0
LINE
  5
459
  8
_________2
 62
     7
 10
84.918700000000001
 20
48.791499999999999
 30
0.0
 11
84.918700000000001
 21
52.960799999999992
 31
0.0
  0
LINE
  5
45A
  8
_________2
 62
     7
 10
79.740700000000004
 20
49.656199999999998
 30
0.0
 11
79.740700000000004
 21
52.095300000000002
 31
0.0
  0
ARC
  5
45B
  8
_________2
 62
     7
 10
75.983362999999997
 20
50.828812999999997
 30
0.0
 40
1.2673709999999989
 50
2.1232950000000002
 51
87.909056000000007
  0
ARC
  5
45C
  8
_________2
 62
     7
 10
76.076526999999999
 20
50.828847000000003
 30
0.0
 40
1.267363
 50
92.121785999999986
 51
177.878185
  0
ARC
  5
45D
  8
_________2
 62
     7
 10
76.076526999999999
 20
50.922691999999998
 30
0.0
 40
1.267363
 50
182.12181499999991
 51
267.87821400000001
  0
ARC
  5
45E
  8
_________2
 62
     7
 10
75.982714000000001
 20
50.923374000000003
 30
0.0
 40
1.2680439999999991
 50
272.11916400000001
 51
357.84848499999993
  0
ARC
  5
45F
  8
_________2
 62
     7
 10
76.029604000000006
 20
50.875768999999998
 30
0.0
 40
2.0849849999999992
 50
0.00001
 51
89.999980000000008
  0
ARC
  5
460
  8
_________2
 62
     7
 10
76.109640999999996
 20
50.796447000000001
 30
0.0
 40
2.1657860000000002
 50
92.117855000000034
 51
177.90105299999991
  0
ARC
  5
461
  8
_________2
 62
     7
 10
76.109607999999994
 20
50.955773000000001
 30
0.0
 40
2.1657779999999991
 50
182.11700400000001
 51
267.88302499999992
  0
ARC
  5
462
  8
_________2
 62
     7
 10
75.949632999999992
 20
50.956456000000003
 30
0.0
 40
2.1664590000000001
 50
272.11546800000002
 51
357.86560400000002
  0
TEXT
  5
463
  8
_________2
 62
     7
 10
109.30500000000001
 20
22.750499999999992
 30
0.0
 40
3.0923400000000001
  1
図番
 41
0.5
  0
LINE
  5
464
  8
_________2
 62
     7
 10
108.25
 20
26.979700000000001
 30
0.0
 11
188.25099999999989
 21
26.979700000000001
 31
0.0
  0
TEXT
  5
465
  8
_________2
 62
     7
 10
109.30500000000001
 20
32.750300000000003
 30
0.0
 40
3.0923400000000001
  1
品番
 41
0.5
  0
TEXT
  5
466
  8
_________2
 62
     7
 10
109.30500000000001
 20
52.889099999999999
 30
0.0
 40
3.0923400000000001
  1
名称
 41
0.5
  0
TEXT
  5
467
  8
_________2
 62
     7
 10
96.545258333333337
 20
47.892999999999986
 30
0.0
 40
3.6545800000000002
  1
mm
 41
0.5
 72
     1
 11
98.067999999999998
 21
47.892999999999986
 31
0.0
  0
TEXT
  5
468
  8
_________2
 62
     7
 10
90.343400000000003
 20
52.889099999999999
 30
0.0
 40
3.0923400000000001
  1
単位
 41
0.5
  0
TEXT
  5
469
  8
_________2
 62
     7
 10
90.343400000000003
 20
40.481900000000003
 30
0.0
 40
3.0923400000000001
  1
尺度
 41
0.5
  0
TEXT
  5
46A
  8
_________2
 62
     7
 10
94.639861999999994
 20
34.288899999999991
 30
0.0
 40
3.6545800000000002
  1
1 ： 15
 41
0.5
 72
     1
 11
98.659899999999993
 21
34.288899999999991
 31
0.0
  0
TEXT
  5
46B
  8
_________2
 62
     7
 10
138.08277499999991
 20
30.178899999999992
 30
0.0
 40
3.9357000000000002
  1
CEY21600SV6
 41
0.5
 72
     1
 11
148.24999999999989
 21
30.178899999999992
 31
0.0
  0
TEXT
  5
46C
  8
_________2
 62
     7
 10
138.08277499999991
 20
20.1784
 30
0.0
 40
3.9357000000000002
  1
CEY21600SV6
 41
0.5
 72
     1
 11
148.24999999999989
 21
20.1784
 31
0.0
  0
TEXT
  5
46D
  8
_________2
 62
     7
 10
29.286899999999989
 20
21.778300000000002
 30
0.0
 40
3.9357000000000002
  1
満水容量：310L　重量：30kg
 41
0.5
  0
TEXT
  5
46E
  8
_________2
 62
     7
 10
113.87899999999991
 20
45.296700000000001
 30
0.0
 40
3.9357000000000002
  1
アクリル製 バスタブ（1600サイズ）
 41
0.5
  0
TEXT
  5
46F
  8
_________2
 62
     7
 10
44.06459066666666
 20
34.674100000000003
 30
0.0
 40
3.6545800000000002
  1
石原
 41
0.5
 72
     1
 11
46.0137
 21
34.674100000000003
 31
0.0
  0
TEXT
  5
470
  8
_________2
 62
     7
 10
25.490590666666659
 20
34.674100000000003
 30
0.0
 40
3.6545800000000002
  1
麻生
 41
0.5
 72
     1
 11
27.439699999999998
 21
34.674100000000003
 31
0.0
  0
TEXT
  5
471
  8
_________2
 62
     7
 10
72.486000000000004
 20
34.288899999999991
 30
0.0
 40
3.6545800000000002
  1
12.01.20
 41
0.5
  0
TEXT
  5
472
  8
_________2
 62
     7
 10
71.293300000000002
 20
40.481900000000003
 30
0.0
 40
3.0923400000000001
  1
日付
 41
0.5
  0
TEXT
  5
473
  8
_________2
 62
     7
 10
34.33959999999999
 20
40.481900000000003
 30
0.0
 40
3.0923400000000001
  1
検図
 41
0.5
  0
TEXT
  5
474
  8
_________2
 62
     7
 10
22.7212
 20
26.282499999999992
 30
0.0
 40
3.0923400000000001
  1
備考
 41
0.5
  0
TEXT
  5
475
  8
_________2
 62
     7
 10
22.7212
 20
40.481900000000003
 30
0.0
 40
3.0923400000000001
  1
製図
 41
0.5
  0
TEXT
  5
476
  8
_________2
 62
     7
 10
28.488665333333341
 20
49.00780000000001
 30
0.0
 40
4.4979399999999989
  1
セラトレーディング株式会社
 41
0.5
 72
     1
 11
45.880699999999997
 21
49.00780000000001
 31
0.0
  0
LINE
  5
477
  8
_________2
 62
     7
 10
188.25099999999989
 20
16.979900000000001
 30
0.0
 11
21.749700000000001
 21
16.979900000000001
 31
0.0
  0
LINE
  5
478
  8
_________2
 62
     7
 10
21.749700000000001
 20
16.979900000000001
 30
0.0
 11
21.749700000000001
 21
279.98200000000003
 31
0.0
  0
LINE
  5
479
  8
_________2
 62
     7
 10
21.749700000000001
 20
279.98200000000003
 30
0.0
 11
188.25099999999989
 21
279.98200000000003
 31
0.0
  0
LINE
  5
47A
  8
_________2
 62
     7
 10
188.25099999999989
 20
279.98200000000003
 30
0.0
 11
188.25099999999989
 21
16.979900000000001
 31
0.0
  0
LINE
  5
47B
  8
_________2
 62
     7
 10
70.250100000000003
 20
30.48
 30
0.0
 11
70.250100000000003
 21
56.979799999999997
 31
0.0
  0
LINE
  5
47C
  8
_________2
 62
     7
 10
89.249899999999997
 20
30.48
 30
0.0
 11
89.249899999999997
 21
56.979799999999997
 31
0.0
  0
LINE
  5
47D
  8
_________2
 62
     7
 10
108.25
 20
16.979900000000001
 30
0.0
 11
108.25
 21
56.979799999999997
 31
0.0
  0
LINE
  5
47E
  8
_________2
 62
     7
 10
33.249499999999991
 20
30.48
 30
0.0
 11
33.249499999999991
 21
44.4803
 31
0.0
  0
LINE
  5
47F
  8
_________2
 62
     7
 10
21.749700000000001
 20
30.48
 30
0.0
 11
108.25
 21
30.48
 31
0.0
  0
LINE
  5
480
  8
_________2
 62
     7
 10
21.749700000000001
 20
44.4803
 30
0.0
 11
108.25
 21
44.4803
 31
0.0
  0
LINE
  5
481
  8
_________2
 62
     7
 10
108.25
 20
36.979500000000002
 30
0.0
 11
188.25099999999989
 21
36.979500000000002
 31
0.0
  0
LINE
  5
482
  8
_________2
 62
     7
 10
21.749700000000001
 20
56.979799999999997
 30
0.0
 11
188.25099999999989
 21
56.979799999999997
 31
0.0
  0
ENDSEC
  0
EOF
