  0
SECTION
  2
HEADER
  9
$ACADVER
  1
AC1009
  9
$INSBASE
 10
0.0
 20
0.0
 30
0.0
  9
$EXTMIN
 10
-0.000689023
 20
-0.000344512
 30
0.0
  9
$EXTMAX
 10
210.001
 20
297.00200000000001
 30
0.0
  9
$LIMMIN
 10
0.0
 20
0.0
  9
$LIMMAX
 10
12.0
 20
9.0
  9
$ORTHOMODE
 70
     0
  9
$REGENMODE
 70
     1
  9
$FILLMODE
 70
     1
  9
$QTEXTMODE
 70
     0
  9
$MIRRTEXT
 70
     1
  9
$DRAGMODE
 70
     2
  9
$LTSCALE
 40
1.0
  9
$OSMODE
 70
    37
  9
$ATTMODE
 70
     1
  9
$TEXTSIZE
 40
0.0
  9
$TRACEWID
 40
0.05
  9
$TEXTSTYLE
  7
STANDARD
  9
$CLAYER
  8
0
  9
$CELTYPE
  6
CONTINUOUS
  9
$CECOLOR
 62
   256
  9
$DIMSCALE
 40
1.0
  9
$DIMASZ
 40
0.18
  9
$DIMEXO
 40
0.0625
  9
$DIMDLI
 40
0.38
  9
$DIMRND
 40
0.0
  9
$DIMDLE
 40
0.0
  9
$DIMEXE
 40
0.18
  9
$DIMTP
 40
0.0
  9
$DIMTM
 40
0.0
  9
$DIMTXT
 40
0.18
  9
$DIMCEN
 40
0.09
  9
$DIMTSZ
 40
0.0
  9
$DIMTOL
 70
     0
  9
$DIMLIM
 70
     0
  9
$DIMTIH
 70
     1
  9
$DIMTOH
 70
     1
  9
$DIMSE1
 70
     0
  9
$DIMSE2
 70
     0
  9
$DIMTAD
 70
     0
  9
$DIMZIN
 70
     0
  9
$DIMBLK
  1

  9
$DIMASO
 70
     1
  9
$DIMSHO
 70
     1
  9
$DIMPOST
  1

  9
$DIMAPOST
  1

  9
$DIMALT
 70
     0
  9
$DIMALTD
 70
     2
  9
$DIMALTF
 40
25.399999999999999
  9
$DIMLFAC
 40
1.0
  9
$DIMTOFL
 70
     0
  9
$DIMTVP
 40
0.0
  9
$DIMTIX
 70
     0
  9
$DIMSOXD
 70
     0
  9
$DIMSAH
 70
     0
  9
$DIMBLK1
  1

  9
$DIMBLK2
  1

  9
$DIMSTYLE
  2
STANDARD
  9
$DIMCLRD
 70
     0
  9
$DIMCLRE
 70
     0
  9
$DIMCLRT
 70
     0
  9
$DIMTFAC
 40
1.0
  9
$DIMGAP
 40
0.09
  9
$LUNITS
 70
     2
  9
$LUPREC
 70
     4
  9
$SKETCHINC
 40
0.1
  9
$FILLETRAD
 40
0.0
  9
$AUNITS
 70
     0
  9
$AUPREC
 70
     0
  9
$MENU
  1
.
  9
$ELEVATION
 40
0.0
  9
$PELEVATION
 40
0.0
  9
$THICKNESS
 40
0.0
  9
$LIMCHECK
 70
     0
  9
$BLIPMODE
 70
     0
  9
$CHAMFERA
 40
0.0
  9
$CHAMFERB
 40
0.0
  9
$SKPOLY
 70
     0
  9
$TDCREATE
 40
2444972.375
  9
$TDUPDATE
 40
2459402.2089526621
  9
$TDINDWG
 40
0.0000420602
  9
$TDUSRTIMER
 40
0.0000420602
  9
$USRTIMER
 70
     1
  9
$ANGBASE
 50
0.0
  9
$ANGDIR
 70
     0
  9
$PDMODE
 70
     0
  9
$PDSIZE
 40
0.0
  9
$PLINEWID
 40
0.0
  9
$COORDS
 70
     1
  9
$SPLFRAME
 70
     0
  9
$SPLINETYPE
 70
     6
  9
$SPLINESEGS
 70
     8
  9
$ATTDIA
 70
     1
  9
$ATTREQ
 70
     1
  9
$HANDLING
 70
     1
  9
$HANDSEED
  5
7AE
  9
$SURFTAB1
 70
     6
  9
$SURFTAB2
 70
     6
  9
$SURFTYPE
 70
     6
  9
$SURFU
 70
     6
  9
$SURFV
 70
     6
  9
$UCSNAME
  2

  9
$UCSORG
 10
0.0
 20
0.0
 30
0.0
  9
$UCSXDIR
 10
1.0
 20
0.0
 30
0.0
  9
$UCSYDIR
 10
0.0
 20
1.0
 30
0.0
  9
$PUCSNAME
  2

  9
$PUCSORG
 10
0.0
 20
0.0
 30
0.0
  9
$PUCSXDIR
 10
1.0
 20
0.0
 30
0.0
  9
$PUCSYDIR
 10
0.0
 20
1.0
 30
0.0
  9
$USERI1
 70
     0
  9
$USERI2
 70
     0
  9
$USERI3
 70
     0
  9
$USERI4
 70
     0
  9
$USERI5
 70
     0
  9
$USERR1
 40
0.0
  9
$USERR2
 40
0.0
  9
$USERR3
 40
0.0
  9
$USERR4
 40
0.0
  9
$USERR5
 40
0.0
  9
$WORLDVIEW
 70
     1
  9
$SHADEDGE
 70
     3
  9
$SHADEDIF
 70
    70
  9
$TILEMODE
 70
     1
  9
$MAXACTVP
 70
    48
  9
$PLIMCHECK
 70
     0
  9
$PEXTMIN
 10
1.0000000000000000E+020
 20
1.0000000000000000E+020
 30
1.0000000000000000E+020
  9
$PEXTMAX
 10
-1.0000000000000000E+020
 20
-1.0000000000000000E+020
 30
-1.0000000000000000E+020
  9
$PLIMMIN
 10
0.0
 20
0.0
  9
$PLIMMAX
 10
12.0
 20
9.0
  9
$UNITMODE
 70
     0
  9
$VISRETAIN
 70
     1
  9
$PLINEGEN
 70
     0
  9
$PSLTSCALE
 70
     1
  0
ENDSEC
  0
SECTION
  2
TABLES
  0
TABLE
  2
VPORT
 70
     1
  0
VPORT
  2
*ACTIVE
 70
     0
 10
0.0
 20
0.0
 11
1.0
 21
1.0
 12
159.34605105868701
 22
148.50082774399999
 13
0.0
 23
0.0
 14
1.0
 24
1.0
 15
0.0
 25
0.0
 16
0.0
 26
0.0
 36
1.0
 17
0.0
 27
0.0
 37
0.0
 40
257.19546954755867
 41
2.2294736842105261
 42
50.0
 43
0.0
 44
0.0
 50
0.0
 51
0.0
 71
     0
 72
   100
 73
     1
 74
     1
 75
     0
 76
     0
 77
     0
 78
     0
  0
ENDTAB
  0
TABLE
  2
LTYPE
 70
     3
  0
LTYPE
  2
CONTINUOUS
 70
     0
  3
Solid line
 72
    65
 73
     0
 40
0.0
  0
LTYPE
  2
AIGENLINE001
 70
     0
  3
generate AI->DXF Converter
 72
    65
 73
     6
 40
7.4083750000000004
 49
3.5278
 49
-0.776115
 49
0.776115
 49
-0.776115
 49
0.776115
 49
-0.776115
  0
LTYPE
  2
AIGENLINE002
 70
     0
  3
generate AI->DXF Converter
 72
    65
 73
     4
 40
5.8561449999999988
 49
3.5278
 49
-0.776115
 49
0.776115
 49
-0.776115
  0
ENDTAB
  0
TABLE
  2
LAYER
 70
     4
  0
LAYER
  2
0
 70
     0
 62
     7
  6
CONTINUOUS
  0
LAYER
  2
____
 70
     0
 62
     7
  6
CONTINUOUS
  0
LAYER
  2
_________1
 70
     0
 62
     7
  6
CONTINUOUS
  0
LAYER
  2
_________2
 70
     0
 62
     7
  6
CONTINUOUS
  0
ENDTAB
  0
TABLE
  2
STYLE
 70
     1
  0
STYLE
  2
STANDARD
 70
     0
 40
0.0
 41
0.0
 50
0.0
 71
     0
 42
0.0
  3
TXT
  4
EXTFONT.SHX
  0
ENDTAB
  0
TABLE
  2
VIEW
 70
     0
  0
ENDTAB
  0
TABLE
  2
UCS
 70
     0
  0
ENDTAB
  0
TABLE
  2
APPID
 70
     3
  0
APPID
  2
ACAD
 70
     0
  0
APPID
  2
ACAD_NAV_VCDISPLAY
 70
     0
  0
APPID
  2
ACAD_MLEADERVER
 70
     0
  0
ENDTAB
  0
TABLE
  2
DIMSTYLE
 70
     1
  0
DIMSTYLE
  2
STANDARD
 70
     0
  3

  4

  5

  6

  7

 40
1.0
 41
0.18
 42
0.0625
 43
0.38
 44
0.18
 45
0.0
 46
0.0
 47
0.0
 48
0.0
140
0.18
141
0.09
142
0.0
143
25.399999999999999
144
1.0
145
0.0
146
1.0
147
0.09
 71
     0
 72
     0
 73
     1
 74
     1
 75
     0
 76
     0
 77
     0
 78
     0
170
     0
171
     2
172
     0
173
     0
174
     0
175
     0
176
     0
177
     0
178
     0
  0
ENDTAB
  0
ENDSEC
  0
SECTION
  2
BLOCKS
  0
BLOCK
  8
0
  2
$MODEL_SPACE
 70
     0
 10
0.0
 20
0.0
 30
0.0
  3
$MODEL_SPACE
  1

  0
ENDBLK
  5
1A
  8
0
  0
BLOCK
 67
     1
  8
0
  2
$PAPER_SPACE
 70
     0
 10
0.0
 20
0.0
 30
0.0
  3
$PAPER_SPACE
  1

  0
ENDBLK
  5
17
 67
     1
  8
0
  0
BLOCK
  8
_________1
  2
AIGNBL02010002
 70
     0
 10
0.0
 20
0.0
 30
0.0
  3
AIGNBL02010002
  1

  0
LINE
  5
27
  8
_________1
 62
     7
 10
96.8626
 20
72.065299999999993
 30
0.0
 11
94.651499999999984
 21
71.473100000000002
 31
0.0
  0
LINE
  5
28
  8
_________1
 62
     7
 10
94.651499999999984
 20
71.473100000000002
 30
0.0
 11
96.8626
 21
70.880499999999984
 31
0.0
  0
LINE
  5
29
  8
_________1
 62
     7
 10
96.8626
 20
70.880499999999984
 30
0.0
 11
96.8626
 21
72.065299999999993
 31
0.0
  0
LINE
  5
2A
  8
_________1
 62
     7
 10
94.651499999999984
 20
71.4803
 30
0.0
 11
100.542
 21
71.4803
 31
0.0
  0
LINE
  5
2B
  8
_________1
 62
     7
 10
100.542
 20
71.4803
 30
0.0
 11
100.542
 21
74.814199999999985
 31
0.0
  0
ENDBLK
  5
2C
  8
_________1
  0
BLOCK
  8
_________1
  2
AIGNBL02010003
 70
     0
 10
0.0
 20
0.0
 30
0.0
  3
AIGNBL02010003
  1

  0
LINE
  5
2F
  8
_________1
 62
     7
 10
72.638400000000004
 20
188.572
 30
0.0
 11
70.427300000000002
 21
187.97999999999999
 31
0.0
  0
LINE
  5
30
  8
_________1
 62
     7
 10
70.427300000000002
 20
187.97999999999999
 30
0.0
 11
72.638400000000004
 21
187.387
 31
0.0
  0
LINE
  5
31
  8
_________1
 62
     7
 10
72.638400000000004
 20
187.387
 30
0.0
 11
72.638400000000004
 21
188.572
 31
0.0
  0
LINE
  5
32
  8
_________1
 62
     7
 10
75.037400000000005
 20
187.98699999999999
 30
0.0
 11
70.427300000000002
 21
187.98699999999999
 31
0.0
  0
ENDBLK
  5
33
  8
_________1
  0
BLOCK
  8
_________1
  2
AIGNBL02010004
 70
     0
 10
0.0
 20
0.0
 30
0.0
  3
AIGNBL02010004
  1

  0
LINE
  5
36
  8
_________1
 62
     7
 10
171.09299999999999
 20
154.899
 30
0.0
 11
170.50099999999989
 21
157.10900000000001
 31
0.0
  0
LINE
  5
37
  8
_________1
 62
     7
 10
170.50099999999989
 20
157.10900000000001
 30
0.0
 11
169.90899999999999
 21
154.899
 31
0.0
  0
LINE
  5
38
  8
_________1
 62
     7
 10
169.90899999999999
 20
154.899
 30
0.0
 11
171.09299999999999
 21
154.899
 31
0.0
  0
LINE
  5
39
  8
_________1
 62
     7
 10
169.92400000000001
 20
106.98699999999999
 30
0.0
 11
170.51599999999999
 21
104.776
 31
0.0
  0
LINE
  5
3A
  8
_________1
 62
     7
 10
170.51599999999999
 20
104.776
 30
0.0
 11
171.108
 21
106.98699999999999
 31
0.0
  0
LINE
  5
3B
  8
_________1
 62
     7
 10
171.108
 20
106.98699999999999
 30
0.0
 11
169.92400000000001
 21
106.98699999999999
 31
0.0
  0
LINE
  5
3C
  8
_________1
 62
     7
 10
170.50800000000001
 20
157.10900000000001
 30
0.0
 11
170.50800000000001
 21
104.776
 31
0.0
  0
ENDBLK
  5
3D
  8
_________1
  0
BLOCK
  8
_________1
  2
AIGNBL02010005
 70
     0
 10
0.0
 20
0.0
 30
0.0
  3
AIGNBL02010005
  1

  0
LINE
  5
40
  8
_________1
 62
     7
 10
122.336
 20
186.76300000000001
 30
0.0
 11
124.547
 21
187.35499999999999
 31
0.0
  0
LINE
  5
41
  8
_________1
 62
     7
 10
124.547
 20
187.35499999999999
 30
0.0
 11
122.336
 21
187.947
 31
0.0
  0
LINE
  5
42
  8
_________1
 62
     7
 10
122.336
 20
187.947
 30
0.0
 11
122.336
 21
186.76300000000001
 31
0.0
  0
LINE
  5
43
  8
_________1
 62
     7
 10
128.76300000000001
 20
187.93299999999999
 30
0.0
 11
126.55200000000001
 21
187.34
 31
0.0
  0
LINE
  5
44
  8
_________1
 62
     7
 10
126.55200000000001
 20
187.34
 30
0.0
 11
128.76300000000001
 21
186.74799999999999
 31
0.0
  0
LINE
  5
45
  8
_________1
 62
     7
 10
128.76300000000001
 20
186.74799999999999
 30
0.0
 11
128.76300000000001
 21
187.93299999999999
 31
0.0
  0
LINE
  5
46
  8
_________1
 62
     7
 10
133.40799999999999
 20
187.3479999999999
 30
0.0
 11
120.886
 21
187.3479999999999
 31
0.0
  0
ENDBLK
  5
47
  8
_________1
  0
BLOCK
  8
_________1
  2
AIGNBL02010006
 70
     0
 10
0.0
 20
0.0
 30
0.0
  3
AIGNBL02010006
  1

  0
LINE
  5
4A
  8
_________1
 62
     7
 10
151.00700000000001
 20
165.589
 30
0.0
 11
153.21700000000001
 21
166.18100000000001
 31
0.0
  0
LINE
  5
4B
  8
_________1
 62
     7
 10
153.21700000000001
 20
166.18100000000001
 30
0.0
 11
151.00700000000001
 21
166.774
 31
0.0
  0
LINE
  5
4C
  8
_________1
 62
     7
 10
151.00700000000001
 20
166.774
 30
0.0
 11
151.00700000000001
 21
165.589
 31
0.0
  0
LINE
  5
4D
  8
_________1
 62
     7
 10
126.758
 20
166.75899999999999
 30
0.0
 11
124.547
 21
166.167
 31
0.0
  0
LINE
  5
4E
  8
_________1
 62
     7
 10
124.547
 20
166.167
 30
0.0
 11
126.758
 21
165.57400000000001
 31
0.0
  0
LINE
  5
4F
  8
_________1
 62
     7
 10
126.758
 20
165.57400000000001
 30
0.0
 11
126.758
 21
166.75899999999999
 31
0.0
  0
LINE
  5
50
  8
_________1
 62
     7
 10
153.21700000000001
 20
166.17400000000001
 30
0.0
 11
124.547
 21
166.17400000000001
 31
0.0
  0
ENDBLK
  5
51
  8
_________1
  0
BLOCK
  8
_________1
  2
AIGNBL02010007
 70
     0
 10
0.0
 20
0.0
 30
0.0
  3
AIGNBL02010007
  1

  0
LINE
  5
54
  8
_________1
 62
     7
 10
157.66900000000001
 20
194.09100000000001
 30
0.0
 11
159.88
 21
194.68299999999999
 31
0.0
  0
LINE
  5
55
  8
_________1
 62
     7
 10
159.88
 20
194.68299999999999
 30
0.0
 11
157.66900000000001
 21
195.2759999999999
 31
0.0
  0
LINE
  5
56
  8
_________1
 62
     7
 10
157.66900000000001
 20
195.2759999999999
 30
0.0
 11
157.66900000000001
 21
194.09100000000001
 31
0.0
  0
LINE
  5
57
  8
_________1
 62
     7
 10
126.758
 20
195.261
 30
0.0
 11
124.547
 21
194.66900000000001
 31
0.0
  0
LINE
  5
58
  8
_________1
 62
     7
 10
124.547
 20
194.66900000000001
 30
0.0
 11
126.758
 21
194.07599999999999
 31
0.0
  0
LINE
  5
59
  8
_________1
 62
     7
 10
126.758
 20
194.07599999999999
 30
0.0
 11
126.758
 21
195.261
 31
0.0
  0
LINE
  5
5A
  8
_________1
 62
     7
 10
159.88
 20
194.67599999999999
 30
0.0
 11
124.547
 21
194.67599999999999
 31
0.0
  0
ENDBLK
  5
5B
  8
_________1
  0
BLOCK
  8
_________1
  2
AIGNBL02010008
 70
     0
 10
0.0
 20
0.0
 30
0.0
  3
AIGNBL02010008
  1

  0
LINE
  5
5E
  8
_________1
 62
     7
 10
171.09299999999999
 20
227.71700000000001
 30
0.0
 11
170.50099999999989
 21
229.928
 31
0.0
  0
LINE
  5
5F
  8
_________1
 62
     7
 10
170.50099999999989
 20
229.928
 30
0.0
 11
169.90899999999999
 21
227.71700000000001
 31
0.0
  0
LINE
  5
60
  8
_________1
 62
     7
 10
169.90899999999999
 20
227.71700000000001
 30
0.0
 11
171.09299999999999
 21
227.71700000000001
 31
0.0
  0
LINE
  5
61
  8
_________1
 62
     7
 10
169.92400000000001
 20
214.80500000000001
 30
0.0
 11
170.51599999999999
 21
212.59399999999999
 31
0.0
  0
LINE
  5
62
  8
_________1
 62
     7
 10
170.51599999999999
 20
212.59399999999999
 30
0.0
 11
171.108
 21
214.80500000000001
 31
0.0
  0
LINE
  5
63
  8
_________1
 62
     7
 10
171.108
 20
214.80500000000001
 30
0.0
 11
169.92400000000001
 21
214.80500000000001
 31
0.0
  0
LINE
  5
64
  8
_________1
 62
     7
 10
170.50800000000001
 20
229.928
 30
0.0
 11
170.50800000000001
 21
212.59399999999999
 31
0.0
  0
ENDBLK
  5
65
  8
_________1
  0
BLOCK
  8
_________1
  2
AIGNBL02010009
 70
     0
 10
0.0
 20
0.0
 30
0.0
  3
AIGNBL02010009
  1

  0
LINE
  5
68
  8
_________1
 62
     7
 10
171.09299999999999
 20
243.05099999999999
 30
0.0
 11
170.50099999999989
 21
245.261
 31
0.0
  0
LINE
  5
69
  8
_________1
 62
     7
 10
170.50099999999989
 20
245.261
 30
0.0
 11
169.90899999999999
 21
243.05099999999999
 31
0.0
  0
LINE
  5
6A
  8
_________1
 62
     7
 10
169.90899999999999
 20
243.05099999999999
 30
0.0
 11
171.09299999999999
 21
243.05099999999999
 31
0.0
  0
LINE
  5
6B
  8
_________1
 62
     7
 10
169.92400000000001
 20
232.13900000000001
 30
0.0
 11
170.51599999999999
 21
229.928
 31
0.0
  0
LINE
  5
6C
  8
_________1
 62
     7
 10
170.51599999999999
 20
229.928
 30
0.0
 11
171.108
 21
232.13900000000001
 31
0.0
  0
LINE
  5
6D
  8
_________1
 62
     7
 10
171.108
 20
232.13900000000001
 30
0.0
 11
169.92400000000001
 21
232.13900000000001
 31
0.0
  0
LINE
  5
6E
  8
_________1
 62
     7
 10
170.50800000000001
 20
245.261
 30
0.0
 11
170.50800000000001
 21
229.928
 31
0.0
  0
ENDBLK
  5
6F
  8
_________1
  0
BLOCK
  8
_________1
  2
AIGNBL0201000A
 70
     0
 10
0.0
 20
0.0
 30
0.0
  3
AIGNBL0201000A
  1

  0
LINE
  5
72
  8
_________1
 62
     7
 10
171.09299999999999
 20
260.38400000000001
 30
0.0
 11
170.50099999999989
 21
262.59500000000003
 31
0.0
  0
LINE
  5
73
  8
_________1
 62
     7
 10
170.50099999999989
 20
262.59500000000003
 30
0.0
 11
169.90899999999999
 21
260.38400000000001
 31
0.0
  0
LINE
  5
74
  8
_________1
 62
     7
 10
169.90899999999999
 20
260.38400000000001
 30
0.0
 11
171.09299999999999
 21
260.38400000000001
 31
0.0
  0
LINE
  5
75
  8
_________1
 62
     7
 10
169.92400000000001
 20
247.47200000000001
 30
0.0
 11
170.51599999999999
 21
245.261
 31
0.0
  0
LINE
  5
76
  8
_________1
 62
     7
 10
170.51599999999999
 20
245.261
 30
0.0
 11
171.108
 21
247.47200000000001
 31
0.0
  0
LINE
  5
77
  8
_________1
 62
     7
 10
171.108
 20
247.47200000000001
 30
0.0
 11
169.92400000000001
 21
247.47200000000001
 31
0.0
  0
LINE
  5
78
  8
_________1
 62
     7
 10
170.50800000000001
 20
262.59500000000003
 30
0.0
 11
170.50800000000001
 21
245.261
 31
0.0
  0
ENDBLK
  5
79
  8
_________1
  0
BLOCK
  8
_________1
  2
AIGNBL0201000B
 70
     0
 10
0.0
 20
0.0
 30
0.0
  3
AIGNBL0201000B
  1

  0
LINE
  5
7C
  8
_________1
 62
     7
 10
171.09299999999999
 20
179.232
 30
0.0
 11
170.50099999999989
 21
181.4429999999999
 31
0.0
  0
LINE
  5
7D
  8
_________1
 62
     7
 10
170.50099999999989
 20
181.4429999999999
 30
0.0
 11
169.90899999999999
 21
179.232
 31
0.0
  0
LINE
  5
7E
  8
_________1
 62
     7
 10
169.90899999999999
 20
179.232
 30
0.0
 11
171.09299999999999
 21
179.232
 31
0.0
  0
LINE
  5
7F
  8
_________1
 62
     7
 10
169.92400000000001
 20
159.31999999999999
 30
0.0
 11
170.51599999999999
 21
157.10900000000001
 31
0.0
  0
LINE
  5
80
  8
_________1
 62
     7
 10
170.51599999999999
 20
157.10900000000001
 30
0.0
 11
171.108
 21
159.31999999999999
 31
0.0
  0
LINE
  5
81
  8
_________1
 62
     7
 10
171.108
 20
159.31999999999999
 30
0.0
 11
169.92400000000001
 21
159.31999999999999
 31
0.0
  0
LINE
  5
82
  8
_________1
 62
     7
 10
170.50800000000001
 20
181.4429999999999
 30
0.0
 11
170.50800000000001
 21
157.10900000000001
 31
0.0
  0
ENDBLK
  5
83
  8
_________1
  0
BLOCK
  8
_________1
  2
AIGNBL0201000C
 70
     0
 10
0.0
 20
0.0
 30
0.0
  3
AIGNBL0201000C
  1

  0
LINE
  5
86
  8
_________1
 62
     7
 10
171.09299999999999
 20
102.565
 30
0.0
 11
170.50099999999989
 21
104.776
 31
0.0
  0
LINE
  5
87
  8
_________1
 62
     7
 10
170.50099999999989
 20
104.776
 30
0.0
 11
169.90899999999999
 21
102.565
 31
0.0
  0
LINE
  5
88
  8
_________1
 62
     7
 10
169.90899999999999
 20
102.565
 30
0.0
 11
171.09299999999999
 21
102.565
 31
0.0
  0
LINE
  5
89
  8
_________1
 62
     7
 10
169.92400000000001
 20
76.986699999999985
 30
0.0
 11
170.51599999999999
 21
74.775599999999997
 31
0.0
  0
LINE
  5
8A
  8
_________1
 62
     7
 10
170.51599999999999
 20
74.775599999999997
 30
0.0
 11
171.108
 21
76.986699999999985
 31
0.0
  0
LINE
  5
8B
  8
_________1
 62
     7
 10
171.108
 20
76.986699999999985
 30
0.0
 11
169.92400000000001
 21
76.986699999999985
 31
0.0
  0
LINE
  5
8C
  8
_________1
 62
     7
 10
170.50800000000001
 20
104.776
 30
0.0
 11
170.50800000000001
 21
74.775599999999997
 31
0.0
  0
ENDBLK
  5
8D
  8
_________1
  0
BLOCK
  8
_________1
  2
AIGNBL0201000D
 70
     0
 10
0.0
 20
0.0
 30
0.0
  3
AIGNBL0201000D
  1

  0
LINE
  5
90
  8
_________1
 62
     7
 10
43.216799999999992
 20
186.65100000000001
 30
0.0
 11
45.427100000000003
 21
187.24299999999999
 31
0.0
  0
LINE
  5
91
  8
_________1
 62
     7
 10
45.427100000000003
 20
187.24299999999999
 30
0.0
 11
43.216799999999992
 21
187.83500000000001
 31
0.0
  0
LINE
  5
92
  8
_________1
 62
     7
 10
43.216799999999992
 20
187.83500000000001
 30
0.0
 11
43.216799999999992
 21
186.65100000000001
 31
0.0
  0
LINE
  5
93
  8
_________1
 62
     7
 10
51.971299999999999
 20
187.821
 30
0.0
 11
49.760199999999998
 21
187.22800000000001
 31
0.0
  0
LINE
  5
94
  8
_________1
 62
     7
 10
49.760199999999998
 20
187.22800000000001
 30
0.0
 11
51.971299999999999
 21
186.636
 31
0.0
  0
LINE
  5
95
  8
_________1
 62
     7
 10
51.971299999999999
 20
186.636
 30
0.0
 11
51.971299999999999
 21
187.821
 31
0.0
  0
LINE
  5
96
  8
_________1
 62
     7
 10
52.791800000000002
 20
187.23599999999999
 30
0.0
 11
41.896799999999999
 21
187.23599999999999
 31
0.0
  0
ENDBLK
  5
97
  8
_________1
  0
BLOCK
  8
_________1
  2
AIGNBL0201000E
 70
     0
 10
0.0
 20
0.0
 30
0.0
  3
AIGNBL0201000E
  1

  0
LINE
  5
9A
  8
_________1
 62
     7
 10
39.403399999999998
 20
174.87899999999999
 30
0.0
 11
39.99560000000001
 21
177.09
 31
0.0
  0
LINE
  5
9B
  8
_________1
 62
     7
 10
39.99560000000001
 20
177.09
 30
0.0
 11
40.588099999999997
 21
174.87899999999999
 31
0.0
  0
LINE
  5
9C
  8
_________1
 62
     7
 10
40.588099999999997
 20
174.87899999999999
 30
0.0
 11
39.403399999999998
 21
174.87899999999999
 31
0.0
  0
LINE
  5
9D
  8
_________1
 62
     7
 10
40.573300000000003
 20
183.63399999999999
 30
0.0
 11
39.981099999999998
 21
181.423
 31
0.0
  0
LINE
  5
9E
  8
_________1
 62
     7
 10
39.981099999999998
 20
181.423
 30
0.0
 11
39.388199999999998
 21
183.63399999999999
 31
0.0
  0
LINE
  5
9F
  8
_________1
 62
     7
 10
39.388199999999998
 20
183.63399999999999
 30
0.0
 11
40.573300000000003
 21
183.63399999999999
 31
0.0
  0
LINE
  5
A0
  8
_________1
 62
     7
 10
39.988300000000002
 20
184.45500000000001
 30
0.0
 11
39.988300000000002
 21
173.404
 31
0.0
  0
ENDBLK
  5
A1
  8
_________1
  0
BLOCK
  8
_________1
  2
AIGNBL0201000F
 70
     0
 10
0.0
 20
0.0
 30
0.0
  3
AIGNBL0201000F
  1

  0
LINE
  5
A4
  8
_________1
 62
     7
 10
102.971
 20
166.98599999999999
 30
0.0
 11
103.563
 21
164.77600000000001
 31
0.0
  0
LINE
  5
A5
  8
_________1
 62
     7
 10
103.563
 20
164.77600000000001
 30
0.0
 11
104.15600000000001
 21
166.98599999999999
 31
0.0
  0
LINE
  5
A6
  8
_________1
 62
     7
 10
104.15600000000001
 20
166.98599999999999
 30
0.0
 11
102.971
 21
166.98599999999999
 31
0.0
  0
LINE
  5
A7
  8
_________1
 62
     7
 10
104.14100000000001
 20
179.233
 30
0.0
 11
103.54900000000001
 21
181.44499999999999
 31
0.0
  0
LINE
  5
A8
  8
_________1
 62
     7
 10
103.54900000000001
 20
181.44499999999999
 30
0.0
 11
102.956
 21
179.233
 31
0.0
  0
LINE
  5
A9
  8
_________1
 62
     7
 10
102.956
 20
179.233
 30
0.0
 11
104.14100000000001
 21
179.233
 31
0.0
  0
LINE
  5
AA
  8
_________1
 62
     7
 10
103.556
 20
164.77600000000001
 30
0.0
 11
103.556
 21
181.44499999999999
 31
0.0
  0
ENDBLK
  5
AB
  8
_________1
  0
BLOCK
  8
_________1
  2
AIGNBL02010010
 70
     0
 10
0.0
 20
0.0
 30
0.0
  3
AIGNBL02010010
  1

  0
LINE
  5
AE
  8
_________1
 62
     7
 10
157.66900000000001
 20
66.633700000000005
 30
0.0
 11
159.88
 21
67.225999999999985
 31
0.0
  0
LINE
  5
AF
  8
_________1
 62
     7
 10
159.88
 20
67.225999999999985
 30
0.0
 11
157.66900000000001
 21
67.8185
 31
0.0
  0
LINE
  5
B0
  8
_________1
 62
     7
 10
157.66900000000001
 20
67.8185
 30
0.0
 11
157.66900000000001
 21
66.633700000000005
 31
0.0
  0
LINE
  5
B1
  8
_________1
 62
     7
 10
123.09099999999999
 20
67.803700000000006
 30
0.0
 11
120.88
 21
67.211500000000001
 31
0.0
  0
LINE
  5
B2
  8
_________1
 62
     7
 10
120.88
 20
67.211500000000001
 30
0.0
 11
123.09099999999999
 21
66.618899999999996
 31
0.0
  0
LINE
  5
B3
  8
_________1
 62
     7
 10
123.09099999999999
 20
66.618899999999996
 30
0.0
 11
123.09099999999999
 21
67.803700000000006
 31
0.0
  0
LINE
  5
B4
  8
_________1
 62
     7
 10
159.88
 20
67.218699999999998
 30
0.0
 11
120.88
 21
67.218699999999998
 31
0.0
  0
ENDBLK
  5
B5
  8
_________1
  0
BLOCK
  8
_________1
  2
AIGNBL02010011
 70
     0
 10
0.0
 20
0.0
 30
0.0
  3
AIGNBL02010011
  1

  0
LINE
  5
B8
  8
_________1
 62
     7
 10
86.224400000000003
 20
126.303
 30
0.0
 11
88.434799999999996
 21
126.895
 31
0.0
  0
LINE
  5
B9
  8
_________1
 62
     7
 10
88.434799999999996
 20
126.895
 30
0.0
 11
86.224400000000003
 21
127.488
 31
0.0
  0
LINE
  5
BA
  8
_________1
 62
     7
 10
86.224400000000003
 20
127.488
 30
0.0
 11
86.224400000000003
 21
126.303
 31
0.0
  0
LINE
  5
BB
  8
_________1
 62
     7
 10
54.675600000000003
 20
127.473
 30
0.0
 11
52.464500000000001
 21
126.881
 31
0.0
  0
LINE
  5
BC
  8
_________1
 62
     7
 10
52.464500000000001
 20
126.881
 30
0.0
 11
54.675600000000003
 21
126.288
 31
0.0
  0
LINE
  5
BD
  8
_________1
 62
     7
 10
54.675600000000003
 20
126.288
 30
0.0
 11
54.675600000000003
 21
127.473
 31
0.0
  0
LINE
  5
BE
  8
_________1
 62
     7
 10
88.434799999999996
 20
126.88800000000001
 30
0.0
 11
52.464500000000001
 21
126.88800000000001
 31
0.0
  0
ENDBLK
  5
BF
  8
_________1
  0
BLOCK
  8
_________1
  2
AIGNBL02010012
 70
     0
 10
0.0
 20
0.0
 30
0.0
  3
AIGNBL02010012
  1

  0
LINE
  5
C2
  8
_________1
 62
     7
 10
93.216800000000006
 20
194.09100000000001
 30
0.0
 11
95.427199999999999
 21
194.68299999999999
 31
0.0
  0
LINE
  5
C3
  8
_________1
 62
     7
 10
95.427199999999999
 20
194.68299999999999
 30
0.0
 11
93.216800000000006
 21
195.2759999999999
 31
0.0
  0
LINE
  5
C4
  8
_________1
 62
     7
 10
93.216800000000006
 20
195.2759999999999
 30
0.0
 11
93.216800000000006
 21
194.09100000000001
 31
0.0
  0
LINE
  5
C5
  8
_________1
 62
     7
 10
47.638199999999991
 20
195.261
 30
0.0
 11
45.427100000000003
 21
194.66900000000001
 31
0.0
  0
LINE
  5
C6
  8
_________1
 62
     7
 10
45.427100000000003
 20
194.66900000000001
 30
0.0
 11
47.638199999999991
 21
194.07599999999999
 31
0.0
  0
LINE
  5
C7
  8
_________1
 62
     7
 10
47.638199999999991
 20
194.07599999999999
 30
0.0
 11
47.638199999999991
 21
195.261
 31
0.0
  0
LINE
  5
C8
  8
_________1
 62
     7
 10
95.427199999999999
 20
194.67599999999999
 30
0.0
 11
45.427100000000003
 21
194.67599999999999
 31
0.0
  0
ENDBLK
  5
C9
  8
_________1
  0
BLOCK
  8
_________1
  2
AIGNBL02010013
 70
     0
 10
0.0
 20
0.0
 30
0.0
  3
AIGNBL02010013
  1

  0
LINE
  5
CC
  8
_________1
 62
     7
 10
33.925400000000003
 20
179.23400000000001
 30
0.0
 11
33.333199999999998
 21
181.44499999999999
 31
0.0
  0
LINE
  5
CD
  8
_________1
 62
     7
 10
33.333199999999998
 20
181.44499999999999
 30
0.0
 11
32.740699999999997
 21
179.23400000000001
 31
0.0
  0
LINE
  5
CE
  8
_________1
 62
     7
 10
32.740699999999997
 20
179.23400000000001
 30
0.0
 11
33.925400000000003
 21
179.23400000000001
 31
0.0
  0
LINE
  5
CF
  8
_________1
 62
     7
 10
32.755499999999998
 20
76.988
 30
0.0
 11
33.34770000000001
 21
74.777000000000001
 31
0.0
  0
LINE
  5
D0
  8
_________1
 62
     7
 10
33.34770000000001
 20
74.777000000000001
 30
0.0
 11
33.940300000000001
 21
76.988
 31
0.0
  0
LINE
  5
D1
  8
_________1
 62
     7
 10
33.940300000000001
 20
76.988
 30
0.0
 11
32.755499999999998
 21
76.988
 31
0.0
  0
LINE
  5
D2
  8
_________1
 62
     7
 10
33.340499999999999
 20
181.44499999999999
 30
0.0
 11
33.340499999999999
 21
74.777000000000001
 31
0.0
  0
ENDBLK
  5
D3
  8
_________1
  0
BLOCK
  8
_________2
  2
AIGNBL03010002
 70
     0
 10
0.0
 20
0.0
 30
0.0
  3
AIGNBL03010002
  1

  0
LINE
  5
D6
  8
_________2
 62
     7
 10
81.441199999999995
 20
50.875799999999991
 30
0.0
 11
79.254900000000006
 21
50.875799999999991
 31
0.0
  0
LINE
  5
D7
  8
_________2
 62
     7
 10
81.933800000000005
 20
50.875799999999991
 30
0.0
 11
81.681700000000006
 21
50.875799999999991
 31
0.0
  0
LINE
  5
D8
  8
_________2
 62
     7
 10
82.426500000000004
 20
50.875799999999991
 30
0.0
 11
85.351399999999998
 21
50.875799999999991
 31
0.0
  0
LINE
  5
D9
  8
_________2
 62
     7
 10
81.933800000000005
 20
50.875799999999991
 30
0.0
 11
82.186000000000007
 21
50.875799999999991
 31
0.0
  0
LINE
  5
DA
  8
_________2
 62
     7
 10
75.537599999999998
 20
50.875799999999991
 30
0.0
 11
73.350700000000003
 21
50.875799999999991
 31
0.0
  0
LINE
  5
DB
  8
_________2
 62
     7
 10
76.029600000000002
 20
50.875799999999991
 30
0.0
 11
75.778099999999995
 21
50.875799999999991
 31
0.0
  0
LINE
  5
DC
  8
_________2
 62
     7
 10
76.029600000000002
 20
51.368400000000001
 30
0.0
 11
76.029600000000002
 21
53.555399999999999
 31
0.0
  0
LINE
  5
DD
  8
_________2
 62
     7
 10
76.029600000000002
 20
50.875799999999991
 30
0.0
 11
76.029600000000002
 21
51.128
 31
0.0
  0
LINE
  5
DE
  8
_________2
 62
     7
 10
76.522300000000001
 20
50.875799999999991
 30
0.0
 11
78.709199999999996
 21
50.875799999999991
 31
0.0
  0
LINE
  5
DF
  8
_________2
 62
     7
 10
76.029600000000002
 20
50.875799999999991
 30
0.0
 11
76.281800000000004
 21
50.875799999999991
 31
0.0
  0
LINE
  5
E0
  8
_________2
 62
     7
 10
76.029600000000002
 20
50.383800000000001
 30
0.0
 11
76.029600000000002
 21
48.196800000000003
 31
0.0
  0
LINE
  5
E1
  8
_________2
 62
     7
 10
76.029600000000002
 20
50.875799999999991
 30
0.0
 11
76.029600000000002
 21
50.624299999999991
 31
0.0
  0
LINE
  5
E2
  8
_________2
 62
     7
 10
79.740700000000004
 20
49.656199999999998
 30
0.0
 11
84.918700000000001
 21
48.791499999999999
 31
0.0
  0
LINE
  5
E3
  8
_________2
 62
     7
 10
79.740700000000004
 20
52.095300000000002
 30
0.0
 11
84.918700000000001
 21
52.960799999999992
 31
0.0
  0
LINE
  5
E4
  8
_________2
 62
     7
 10
84.918700000000001
 20
48.791499999999999
 30
0.0
 11
84.918700000000001
 21
52.960799999999992
 31
0.0
  0
LINE
  5
E5
  8
_________2
 62
     7
 10
79.740700000000004
 20
49.656199999999998
 30
0.0
 11
79.740700000000004
 21
52.095300000000002
 31
0.0
  0
ARC
  5
E6
  8
_________2
 62
     7
 10
75.983362999999997
 20
50.828812999999997
 30
0.0
 40
1.2673709999999989
 50
2.1232950000000002
 51
87.909056000000007
  0
ARC
  5
E7
  8
_________2
 62
     7
 10
76.076526999999999
 20
50.828847000000003
 30
0.0
 40
1.267363
 50
92.121785999999986
 51
177.878185
  0
ARC
  5
E8
  8
_________2
 62
     7
 10
76.076526999999999
 20
50.922691999999998
 30
0.0
 40
1.267363
 50
182.121815
 51
267.87821400000001
  0
ARC
  5
E9
  8
_________2
 62
     7
 10
75.982714000000001
 20
50.923374000000003
 30
0.0
 40
1.2680439999999991
 50
272.11916400000001
 51
357.84848499999998
  0
ARC
  5
EA
  8
_________2
 62
     7
 10
76.029604000000006
 20
50.875768999999998
 30
0.0
 40
2.0849849999999992
 50
0.00001
 51
89.999980000000008
  0
ARC
  5
EB
  8
_________2
 62
     7
 10
76.109640999999996
 20
50.796447000000001
 30
0.0
 40
2.1657860000000002
 50
92.117855000000034
 51
177.90105299999999
  0
ARC
  5
EC
  8
_________2
 62
     7
 10
76.109607999999994
 20
50.955773000000001
 30
0.0
 40
2.1657779999999991
 50
182.11700400000001
 51
267.88302499999998
  0
ARC
  5
ED
  8
_________2
 62
     7
 10
75.949632999999992
 20
50.956456000000003
 30
0.0
 40
2.1664590000000001
 50
272.11546800000002
 51
357.86560400000002
  0
ENDBLK
  5
EE
  8
_________2
  0
ENDSEC
  0
SECTION
  2
ENTITIES
  0
TEXT
  5
EF
  8
____
 62
     7
 10
104.20999999999999
 20
71.055210000000002
 30
0.0
 40
3.0923400000000001
  1
A
 50
90.0
 41
0.5
 72
     1
 11
104.20999999999999
 21
71.570599999999999
 31
0.0
  0
TEXT
  5
F0
  8
____
 62
     7
 10
177.65700000000001
 20
128.88043999999999
 30
0.0
 40
3.0923400000000001
  1
A-A
 50
90.0
 41
0.5
 72
     1
 11
177.65700000000001
 21
130.94200000000001
 31
0.0
  0
TEXT
  5
F1
  8
____
 62
     7
 10
78.513499999999993
 20
187.47161
 30
0.0
 40
3.0923400000000001
  1
A
 50
90.0
 41
0.5
 72
     1
 11
78.513499999999993
 21
187.98699999999999
 31
0.0
  0
TEXT
  5
F2
  8
____
 62
     7
 10
136.9492875
 20
166.874
 30
0.0
 40
3.0923400000000001
  1
430
 41
0.5
 72
     1
 11
138.88200000000001
 21
166.874
 31
0.0
  0
TEXT
  5
F3
  8
____
 62
     7
 10
131.08874499999999
 20
188.048
 30
0.0
 40
3.0923400000000001
  1
30
 41
0.5
 72
     2
 11
133.40799999999999
 21
188.048
 31
0.0
  0
TEXT
  5
F4
  8
____
 62
     7
 10
140.28028749999999
 20
195.37599999999989
 30
0.0
 40
3.0923400000000001
  1
530
 41
0.5
 72
     1
 11
142.21299999999999
 21
195.37599999999989
 31
0.0
  0
TEXT
  5
F5
  8
____
 62
     7
 10
169.80799999999999
 20
128.88043999999999
 30
0.0
 40
3.0923400000000001
  1
785
 50
90.0
 41
0.5
 72
     1
 11
169.80799999999999
 21
130.94200000000001
 31
0.0
  0
TEXT
  5
F6
  8
____
 62
     7
 10
169.80799999999999
 20
167.21443999999991
 30
0.0
 40
3.0923400000000001
  1
365
 50
90.0
 41
0.5
 72
     1
 11
169.80799999999999
 21
169.2759999999999
 31
0.0
  0
TEXT
  5
F7
  8
____
 62
     7
 10
169.80799999999999
 20
87.842887499999989
 30
0.0
 40
3.0923400000000001
  1
450
 50
90.0
 41
0.5
 72
     1
 11
169.80799999999999
 21
89.775599999999997
 31
0.0
  0
TEXT
  5
F8
  8
____
 62
     7
 10
138.31844000000001
 20
67.918800000000005
 30
0.0
 40
3.0923400000000001
  1
585
 41
0.5
 72
     1
 11
140.38
 21
67.918800000000005
 31
0.0
  0
TEXT
  5
F9
  8
____
 62
     7
 10
169.80799999999999
 20
219.32828749999999
 30
0.0
 40
3.0923400000000001
  1
260
 50
90.0
 41
0.5
 72
     1
 11
169.80799999999999
 21
221.261
 31
0.0
  0
TEXT
  5
FA
  8
____
 62
     7
 10
169.80799999999999
 20
235.66128749999999
 30
0.0
 40
3.0923400000000001
  1
230
 50
90.0
 41
0.5
 72
     1
 11
169.80799999999999
 21
237.59399999999999
 31
0.0
  0
TEXT
  5
FB
  8
____
 62
     7
 10
169.80799999999999
 20
251.99528749999999
 30
0.0
 40
3.0923400000000001
  1
260
 50
90.0
 41
0.5
 72
     1
 11
169.80799999999999
 21
253.928
 31
0.0
  0
TEXT
  5
FC
  8
____
 62
     7
 10
102.85599999999999
 20
171.17728750000001
 30
0.0
 40
3.0923400000000001
  1
250
 50
90.0
 41
0.5
 72
     1
 11
102.85599999999999
 21
173.11000000000001
 31
0.0
  0
TEXT
  5
FD
  8
____
 62
     7
 10
39.2883
 20
178.010525
 30
0.0
 40
3.0923400000000001
  1
65
 50
90.0
 41
0.5
 72
     1
 11
39.2883
 21
179.29900000000001
 31
0.0
  0
TEXT
  5
FE
  8
____
 62
     7
 10
46.394524999999987
 20
187.93600000000001
 30
0.0
 40
3.0923400000000001
  1
65
 41
0.5
 72
     1
 11
47.682999999999993
 21
187.93600000000001
 31
0.0
  0
TEXT
  5
FF
  8
____
 62
     7
 10
68.494487500000005
 20
195.37599999999989
 30
0.0
 40
3.0923400000000001
  1
750
 41
0.5
 72
     1
 11
70.427199999999999
 21
195.37599999999989
 31
0.0
  0
TEXT
  5
100
  8
____
 62
     7
 10
63.723134999999999
 20
127.58799999999999
 30
0.0
 40
3.0923400000000001
  1
515
 41
0.5
 72
     1
 11
65.527000000000001
 21
127.58799999999999
 31
0.0
  0
TEXT
  5
101
  8
____
 62
     7
 10
32.6404
 20
125.844745
 30
0.0
 40
3.0923400000000001
  1
1600
 50
90.0
 41
0.5
 72
     1
 11
32.6404
 21
128.16399999999999
 31
0.0
  0
TEXT
  5
102
  8
____
 62
     7
 10
58.949779999999997
 20
184.185
 30
0.0
 40
3.0923400000000001
  1
%%c44
 41
0.5
 72
     2
 11
63.072899999999997
 21
184.185
 31
0.0
  0
TEXT
  5
103
  8
____
 62
     7
 10
59.79829999999999
 20
162.28800000000001
 30
0.0
 40
3.0923400000000001
  1
%%c55
 41
0.5
  0
LINE
  5
104
  8
_________1
  6
AIGENLINE001
 62
     7
 10
70.427300000000002
 20
118.57299999999999
 30
0.0
 11
100.542
 21
118.57299999999999
 31
0.0
  0
LINE
  5
105
  8
_________1
  6
AIGENLINE001
 62
     7
 10
100.542
 20
118.57299999999999
 30
0.0
 11
100.542
 21
114.07899999999999
 31
0.0
  0
INSERT
  5
106
  8
_________1
 62
     7
  2
AIGNBL02010002
 10
0.0
 20
0.0
 30
0.0
  0
LINE
  5
107
  8
_________1
 62
     7
 10
128.76900000000001
 20
135.536
 30
0.0
 11
128.76900000000001
 21
118.57299999999999
 31
0.0
  0
LINE
  5
108
  8
_________1
 62
     7
 10
126.786
 20
136.20699999999999
 30
0.0
 11
126.786
 21
118.57299999999999
 31
0.0
  0
INSERT
  5
109
  8
_________1
 62
     7
  2
AIGNBL02010003
 10
0.0
 20
0.0
 30
0.0
  0
ARC
  5
10A
  8
_________1
 62
     7
 10
107.150057
 20
127.643327
 30
0.0
 40
18.16816
 50
153.01785599999999
 51
166.723377
  0
ARC
  5
10B
  8
_________1
 62
     7
 10
109.609348
 20
126.950442
 30
0.0
 40
20.721132999999998
 50
166.42036400000001
 51
180.192275
  0
ARC
  5
10C
  8
_________1
 62
     7
 10
110.054379
 20
126.885216
 30
0.0
 40
21.166048
 50
180.01166900000001
 51
196.91486
  0
ARC
  5
10D
  8
_________1
 62
     7
 10
107.45552600000001
 20
126.22091
 30
0.0
 40
18.486737999999999
 50
197.28854200000001
 51
207.350233
  0
ARC
  5
10E
  8
_________1
 62
     7
 10
108.34454100000001
 20
127.178662
 30
0.0
 40
18.088619000000001
 50
157.12752399999999
 51
174.542081
  0
ARC
  5
10F
  8
_________1
 62
     7
 10
110.06390399999999
 20
126.890125
 30
0.0
 40
19.828016999999999
 50
174.184651
 51
180.02663899999999
  0
ARC
  5
110
  8
_________1
 62
     7
 10
109.752638
 20
126.887936
 30
0.0
 40
19.516749999999998
 50
180.02063799999999
 51
199.302661
  0
ARC
  5
111
  8
_________1
 62
     7
 10
107.753001
 20
126.335606
 30
0.0
 40
17.447503000000001
 50
199.76147599999999
 51
202.87952100000001
  0
ARC
  5
112
  8
_________1
 62
     7
 10
33.722467000000002
 20
127.64709999999999
 30
0.0
 40
18.157277000000001
 50
13.272477
 51
26.986250999999999
  0
ARC
  5
113
  8
_________1
 62
     7
 10
31.252825000000001
 20
126.950435
 30
0.0
 40
20.721191999999999
 50
359.80776500000002
 51
13.579596
  0
ARC
  5
114
  8
_________1
 62
     7
 10
30.807804000000001
 20
126.885223
 30
0.0
 40
21.166097000000001
 50
343.08517999999998
 51
359.98833100000002
  0
ARC
  5
115
  8
_________1
 62
     7
 10
33.406706999999997
 20
126.22091
 30
0.0
 40
18.486737999999999
 50
332.649787
 51
342.711478
  0
ARC
  5
116
  8
_________1
 62
     7
 10
32.507156999999999
 20
127.175985
 30
0.0
 40
18.099364999999999
 50
5.4631610000000004
 51
22.867303
  0
ARC
  5
117
  8
_________1
 62
     7
 10
30.789587999999998
 20
126.889736
 30
0.0
 40
19.836756999999999
 50
359.97451699999999
 51
5.8138879999999986
  0
ARC
  5
118
  8
_________1
 62
     7
 10
31.109553999999999
 20
126.88794300000001
 30
0.0
 40
19.51679
 50
340.69737900000001
 51
359.97936199999998
  0
ARC
  5
119
  8
_________1
 62
     7
 10
33.109231999999999
 20
126.335606
 30
0.0
 40
17.447503000000001
 50
337.120498
 51
340.23854399999999
  0
INSERT
  5
11A
  8
_________1
 62
     7
  2
AIGNBL02010004
 10
0.0
 20
0.0
 30
0.0
  0
INSERT
  5
11B
  8
_________1
 62
     7
  2
AIGNBL02010005
 10
0.0
 20
0.0
 30
0.0
  0
INSERT
  5
11C
  8
_________1
 62
     7
  2
AIGNBL02010006
 10
0.0
 20
0.0
 30
0.0
  0
INSERT
  5
11D
  8
_________1
 62
     7
  2
AIGNBL02010007
 10
0.0
 20
0.0
 30
0.0
  0
INSERT
  5
11E
  8
_________1
 62
     7
  2
AIGNBL02010008
 10
0.0
 20
0.0
 30
0.0
  0
INSERT
  5
11F
  8
_________1
 62
     7
  2
AIGNBL02010009
 10
0.0
 20
0.0
 30
0.0
  0
INSERT
  5
120
  8
_________1
 62
     7
  2
AIGNBL0201000A
 10
0.0
 20
0.0
 30
0.0
  0
INSERT
  5
121
  8
_________1
 62
     7
  2
AIGNBL0201000B
 10
0.0
 20
0.0
 30
0.0
  0
INSERT
  5
122
  8
_________1
 62
     7
  2
AIGNBL0201000C
 10
0.0
 20
0.0
 30
0.0
  0
LINE
  5
123
  8
_________1
 62
     7
 10
46.740099999999991
 20
174.928
 30
0.0
 11
48.723100000000002
 21
176.072
 31
0.0
  0
LINE
  5
124
  8
_________1
 62
     7
 10
48.723100000000002
 20
176.072
 30
0.0
 11
47.578299999999999
 21
174.09
 31
0.0
  0
LINE
  5
125
  8
_________1
 62
     7
 10
47.578299999999999
 20
174.09
 30
0.0
 11
46.740099999999991
 21
174.928
 31
0.0
  0
LINE
  5
126
  8
_________1
 62
     7
 10
52.780099999999997
 20
179.291
 30
0.0
 11
50.79740000000001
 21
178.14699999999999
 31
0.0
  0
LINE
  5
127
  8
_________1
 62
     7
 10
50.79740000000001
 20
178.14699999999999
 30
0.0
 11
51.9422
 21
180.13
 31
0.0
  0
LINE
  5
128
  8
_________1
 62
     7
 10
51.9422
 20
180.13
 30
0.0
 11
52.780099999999997
 21
179.291
 31
0.0
  0
LINE
  5
129
  8
_________1
 62
     7
 10
46.3294
 20
173.679
 30
0.0
 11
56.135899999999999
 21
183.48500000000001
 31
0.0
  0
LINE
  5
12A
  8
_________1
 62
     7
 10
56.135899999999999
 20
183.48500000000001
 30
0.0
 11
63.072899999999997
 21
183.48500000000001
 31
0.0
  0
INSERT
  5
12B
  8
_________1
 62
     7
  2
AIGNBL0201000D
 10
0.0
 20
0.0
 30
0.0
  0
ARC
  5
12C
  8
_________1
 62
     7
 10
49.760240000000003
 20
177.10934399999999
 30
0.0
 40
1.466758999999999
 50
89.993270999999993
 51
179.99324100000001
  0
ARC
  5
12D
  8
_________1
 62
     7
 10
49.760240000000003
 20
177.109689
 30
0.0
 40
1.466758
 50
180.00673900000001
 51
270.00674900000001
  0
ARC
  5
12E
  8
_________1
 62
     7
 10
49.760412000000002
 20
177.10951700000001
 30
0.0
 40
1.4665870000000001
 50
270.00002000000001
 51
359.99999000000003
  0
ARC
  5
12F
  8
_________1
 62
     7
 10
49.760412000000002
 20
177.1095159999999
 30
0.0
 40
1.4665870000000001
 50
0.00001
 51
89.999980000000008
  0
LINE
  5
130
  8
_________1
  6
AIGENLINE002
 62
     7
 10
49.760199999999998
 20
179.85900000000001
 30
0.0
 11
49.760199999999998
 21
174.35900000000001
 31
0.0
  0
LINE
  5
131
  8
_________1
  6
AIGENLINE002
 62
     7
 10
47.010300000000001
 20
177.10900000000001
 30
0.0
 11
52.510300000000001
 21
177.10900000000001
 31
0.0
  0
LINE
  5
132
  8
_________1
 62
     7
 10
49.760199999999998
 20
180.559
 30
0.0
 11
49.760199999999998
 21
187.94300000000001
 31
0.0
  0
LINE
  5
133
  8
_________1
 62
     7
 10
73.706599999999995
 20
167.21700000000001
 30
0.0
 11
71.723600000000005
 21
166.072
 31
0.0
  0
LINE
  5
134
  8
_________1
 62
     7
 10
71.723600000000005
 20
166.072
 30
0.0
 11
72.868399999999994
 21
168.05500000000001
 31
0.0
  0
LINE
  5
135
  8
_________1
 62
     7
 10
72.868399999999994
 20
168.05500000000001
 30
0.0
 11
73.706599999999995
 21
167.21700000000001
 31
0.0
  0
LINE
  5
136
  8
_________1
 62
     7
 10
67.150199999999984
 20
162.33699999999999
 30
0.0
 11
69.132800000000003
 21
163.48099999999999
 31
0.0
  0
LINE
  5
137
  8
_________1
 62
     7
 10
69.132800000000003
 20
163.48099999999999
 30
0.0
 11
67.987999999999985
 21
161.499
 31
0.0
  0
LINE
  5
138
  8
_________1
 62
     7
 10
67.987999999999985
 20
161.499
 30
0.0
 11
67.150199999999984
 21
162.33699999999999
 31
0.0
  0
LINE
  5
139
  8
_________1
 62
     7
 10
74.117199999999997
 20
168.46600000000001
 30
0.0
 11
67.239699999999999
 21
161.58799999999999
 31
0.0
  0
LINE
  5
13A
  8
_________1
 62
     7
 10
67.239699999999999
 20
161.58799999999999
 30
0.0
 11
59.79829999999999
 21
161.58799999999999
 31
0.0
  0
INSERT
  5
13B
  8
_________1
 62
     7
  2
AIGNBL0201000E
 10
0.0
 20
0.0
 30
0.0
  0
INSERT
  5
13C
  8
_________1
 62
     7
  2
AIGNBL0201000F
 10
0.0
 20
0.0
 30
0.0
  0
INSERT
  5
13D
  8
_________1
 62
     7
  2
AIGNBL02010010
 10
0.0
 20
0.0
 30
0.0
  0
LINE
  5
13E
  8
_________1
 62
     7
 10
120.88
 20
78.303399999999996
 30
0.0
 11
120.88
 21
66.525899999999993
 31
0.0
  0
LINE
  5
13F
  8
_________1
  6
AIGENLINE002
 62
     7
 10
155.90199999999999
 20
164.78099999999989
 30
0.0
 11
151.43700000000001
 21
164.78099999999989
 31
0.0
  0
LINE
  5
140
  8
_________1
 62
     7
 10
171.21600000000001
 20
212.59399999999999
 30
0.0
 11
127.252
 21
212.59399999999999
 31
0.0
  0
LINE
  5
141
  8
_________1
 62
     7
 10
171.21600000000001
 20
262.59500000000003
 30
0.0
 11
127.252
 21
262.59500000000003
 31
0.0
  0
LINE
  5
142
  8
_________1
 62
     7
 10
171.21600000000001
 20
245.261
 30
0.0
 11
161.75999999999999
 21
245.261
 31
0.0
  0
LINE
  5
143
  8
_________1
  6
AIGENLINE002
 62
     7
 10
161.06
 20
245.261
 30
0.0
 11
150.49199999999999
 21
245.261
 31
0.0
  0
LINE
  5
144
  8
_________1
 62
     7
 10
171.21600000000001
 20
229.928
 30
0.0
 11
161.75999999999999
 21
229.928
 31
0.0
  0
LINE
  5
145
  8
_________1
  6
AIGENLINE002
 62
     7
 10
161.06
 20
229.928
 30
0.0
 11
150.49199999999999
 21
229.928
 31
0.0
  0
LINE
  5
146
  8
_________1
 62
     7
 10
171.21600000000001
 20
157.10900000000001
 30
0.0
 11
161.75999999999999
 21
157.10900000000001
 31
0.0
  0
LINE
  5
147
  8
_________1
  6
AIGENLINE002
 62
     7
 10
161.06
 20
157.10900000000001
 30
0.0
 11
150.49199999999999
 21
157.10900000000001
 31
0.0
  0
LINE
  5
148
  8
_________1
 62
     7
 10
171.21600000000001
 20
104.776
 30
0.0
 11
161.75999999999999
 21
104.776
 31
0.0
  0
LINE
  5
149
  8
_________1
 62
     7
 10
171.21600000000001
 20
181.4429999999999
 30
0.0
 11
127.252
 21
181.4429999999999
 31
0.0
  0
LINE
  5
14A
  8
_________1
 62
     7
 10
171.21600000000001
 20
74.775599999999997
 30
0.0
 11
127.252
 21
74.775599999999997
 31
0.0
  0
LINE
  5
14B
  8
_________1
 62
     7
 10
126.55200000000001
 20
188.03999999999999
 30
0.0
 11
126.55200000000001
 21
182.143
 31
0.0
  0
LINE
  5
14C
  8
_________1
 62
     7
 10
159.88
 20
195.38300000000001
 30
0.0
 11
159.88
 21
159.3239999999999
 31
0.0
  0
LINE
  5
14D
  8
_________1
 62
     7
 10
124.547
 20
195.369
 30
0.0
 11
124.547
 21
180.17500000000001
 31
0.0
  0
LINE
  5
14E
  8
_________1
 62
     7
 10
159.88
 20
102.56100000000001
 30
0.0
 11
159.88
 21
66.525899999999993
 31
0.0
  0
INSERT
  5
14F
  8
_________1
 62
     7
  2
AIGNBL02010011
 10
0.0
 20
0.0
 30
0.0
  0
INSERT
  5
150
  8
_________1
 62
     7
  2
AIGNBL02010012
 10
0.0
 20
0.0
 30
0.0
  0
LINE
  5
151
  8
_________1
 62
     7
 10
45.427100000000003
 20
195.369
 30
0.0
 11
45.427100000000003
 21
182.14500000000001
 31
0.0
  0
LINE
  5
152
  8
_________1
 62
     7
 10
95.427199999999999
 20
195.369
 30
0.0
 11
95.427199999999999
 21
182.14500000000001
 31
0.0
  0
ARC
  5
153
  8
_________1
 62
     7
 10
70.427325999999994
 20
164.77599599999999
 30
0.0
 40
3.000008999999999
 50
0.00001
 51
89.999980000000008
  0
ARC
  5
154
  8
_________1
 62
     7
 10
70.427325999999994
 20
164.77599699999999
 30
0.0
 40
3.000008999999999
 50
270.00002000000001
 51
359.99999000000003
  0
ARC
  5
155
  8
_________1
 62
     7
 10
70.427325999999994
 20
164.77599599999999
 30
0.0
 40
3.0000079999999998
 50
179.99996999999999
 51
270.00002000000001
  0
ARC
  5
156
  8
_________1
 62
     7
 10
70.427327000000005
 20
164.77599599999999
 30
0.0
 40
3.000008999999999
 50
90.0
 51
179.99996999999999
  0
ARC
  5
157
  8
_________1
 62
     7
 10
70.427325999999994
 20
164.77599699999999
 30
0.0
 40
2.166634999999999
 50
0.00001
 51
89.999980000000008
  0
ARC
  5
158
  8
_________1
 62
     7
 10
70.427325999999994
 20
164.77599699999999
 30
0.0
 40
2.166634999999999
 50
270.00002000000001
 51
359.99999000000003
  0
ARC
  5
159
  8
_________1
 62
     7
 10
70.427154000000002
 20
164.77616900000001
 30
0.0
 40
2.1668059999999998
 50
180.00456500000001
 51
270.00457499999999
  0
ARC
  5
15A
  8
_________1
 62
     7
 10
70.427154999999985
 20
164.775824
 30
0.0
 40
2.166806999999999
 50
89.995444999999975
 51
179.99541500000001
  0
ARC
  5
15B
  8
_________1
 62
     7
 10
70.356994
 20
164.70602199999999
 30
0.0
 40
1.904765
 50
2.1053410000000001
 51
87.883881999999986
  0
ARC
  5
15C
  8
_________1
 62
     7
 10
70.357028
 20
164.846295
 30
0.0
 40
1.9047430000000001
 50
272.11510700000002
 51
357.88490300000001
  0
ARC
  5
15D
  8
_________1
 62
     7
 10
70.497610999999992
 20
164.84663900000001
 30
0.0
 40
1.9050860000000001
 50
182.12508
 51
267.885717
  0
ARC
  5
15E
  8
_________1
 62
     7
 10
70.497640000000004
 20
164.70568399999999
 30
0.0
 40
1.905103
 50
92.115131000000034
 51
177.884839
  0
LINE
  5
15F
  8
_________1
  6
AIGENLINE002
 62
     7
 10
156.876
 20
237.59399999999999
 30
0.0
 11
118.568
 21
237.59399999999999
 31
0.0
  0
LINE
  5
160
  8
_________1
  6
AIGENLINE002
 62
     7
 10
75.439099999999996
 20
164.77600000000001
 30
0.0
 11
66.574100000000001
 21
164.77600000000001
 31
0.0
  0
LINE
  5
161
  8
_________1
  6
AIGENLINE002
 62
     7
 10
161.06
 20
104.776
 30
0.0
 11
150.49199999999999
 21
104.776
 31
0.0
  0
LINE
  5
162
  8
_________1
  6
AIGENLINE001
 62
     7
 10
155.476
 20
118.57299999999999
 30
0.0
 11
121.611
 21
118.57299999999999
 31
0.0
  0
LINE
  5
163
  8
_________1
  6
AIGENLINE002
 62
     7
 10
70.427300000000002
 20
69.620699999999999
 30
0.0
 11
70.427300000000002
 21
191.0859999999999
 31
0.0
  0
LINE
  5
164
  8
_________1
 62
     7
 10
154.31200000000001
 20
248.52500000000001
 30
0.0
 11
154.31200000000001
 21
241.91300000000001
 31
0.0
  0
LINE
  5
165
  8
_________1
 62
     7
 10
154.31200000000001
 20
248.52500000000001
 30
0.0
 11
154.26900000000001
 21
248.54599999999999
 31
0.0
  0
LINE
  5
166
  8
_________1
 62
     7
 10
154.26900000000001
 20
241.89099999999999
 30
0.0
 11
153.75700000000001
 21
241.89099999999999
 31
0.0
  0
LINE
  5
167
  8
_________1
 62
     7
 10
154.26900000000001
 20
248.54599999999999
 30
0.0
 11
153.523
 21
248.54599999999999
 31
0.0
  0
LINE
  5
168
  8
_________1
 62
     7
 10
154.31200000000001
 20
241.91300000000001
 30
0.0
 11
154.26900000000001
 21
241.89099999999999
 31
0.0
  0
LINE
  5
169
  8
_________1
 62
     7
 10
159.49600000000001
 20
246.92500000000001
 30
0.0
 11
159.38900000000001
 21
246.88200000000001
 31
0.0
  0
LINE
  5
16A
  8
_________1
 62
     7
 10
159.38900000000001
 20
246.88200000000001
 30
0.0
 11
159.32499999999999
 21
246.81800000000001
 31
0.0
  0
LINE
  5
16B
  8
_________1
 62
     7
 10
159.32499999999999
 20
246.81800000000001
 30
0.0
 11
159.28200000000001
 21
246.71199999999999
 31
0.0
  0
LINE
  5
16C
  8
_________1
 62
     7
 10
159.624
 20
246.92500000000001
 30
0.0
 11
159.49600000000001
 21
246.92500000000001
 31
0.0
  0
LINE
  5
16D
  8
_________1
 62
     7
 10
159.88
 20
246.77600000000001
 30
0.0
 11
159.624
 21
246.77600000000001
 31
0.0
  0
LINE
  5
16E
  8
_________1
 62
     7
 10
159.624
 20
243.619
 30
0.0
 11
159.49600000000001
 21
243.619
 31
0.0
  0
LINE
  5
16F
  8
_________1
 62
     7
 10
159.88
 20
243.74600000000001
 30
0.0
 11
159.624
 21
243.74600000000001
 31
0.0
  0
LINE
  5
170
  8
_________1
 62
     7
 10
159.28200000000001
 20
243.81100000000001
 30
0.0
 11
159.32499999999999
 21
243.72499999999999
 31
0.0
  0
LINE
  5
171
  8
_________1
 62
     7
 10
159.32499999999999
 20
243.72499999999999
 30
0.0
 11
159.38900000000001
 21
243.63999999999999
 31
0.0
  0
LINE
  5
172
  8
_________1
 62
     7
 10
159.38900000000001
 20
243.63999999999999
 30
0.0
 11
159.49600000000001
 21
243.619
 31
0.0
  0
LINE
  5
173
  8
_________1
 62
     7
 10
158.85599999999999
 20
244.899
 30
0.0
 11
158.77000000000001
 21
244.899
 31
0.0
  0
LINE
  5
174
  8
_________1
 62
     7
 10
158.85599999999999
 20
245.624
 30
0.0
 11
158.77000000000001
 21
245.624
 31
0.0
  0
LINE
  5
175
  8
_________1
 62
     7
 10
158.77000000000001
 20
245.667
 30
0.0
 11
157.85299999999989
 21
245.667
 31
0.0
  0
LINE
  5
176
  8
_________1
 62
     7
 10
158.77000000000001
 20
244.85599999999999
 30
0.0
 11
157.85299999999989
 21
244.85599999999999
 31
0.0
  0
LINE
  5
177
  8
_________1
 62
     7
 10
158.77000000000001
 20
244.941
 30
0.0
 11
157.85299999999989
 21
244.941
 31
0.0
  0
LINE
  5
178
  8
_________1
 62
     7
 10
158.77000000000001
 20
245.60300000000001
 30
0.0
 11
157.85299999999989
 21
245.60300000000001
 31
0.0
  0
LINE
  5
179
  8
_________1
 62
     7
 10
158.77000000000001
 20
244.85599999999999
 30
0.0
 11
158.77000000000001
 21
245.667
 31
0.0
  0
LINE
  5
17A
  8
_________1
 62
     7
 10
159.197
 20
245.005
 30
0.0
 11
158.91999999999999
 21
245.005
 31
0.0
  0
LINE
  5
17B
  8
_________1
 62
     7
 10
159.197
 20
245.53899999999999
 30
0.0
 11
158.91999999999999
 21
245.53899999999999
 31
0.0
  0
LINE
  5
17C
  8
_________1
 62
     7
 10
159.197
 20
244.72800000000001
 30
0.0
 11
158.91999999999999
 21
244.72800000000001
 31
0.0
  0
LINE
  5
17D
  8
_________1
 62
     7
 10
159.197
 20
245.79499999999999
 30
0.0
 11
158.91999999999999
 21
245.79499999999999
 31
0.0
  0
LINE
  5
17E
  8
_________1
 62
     7
 10
158.85599999999999
 20
244.85599999999999
 30
0.0
 11
158.85599999999999
 21
245.667
 31
0.0
  0
LINE
  5
17F
  8
_________1
 62
     7
 10
158.91999999999999
 20
245.53899999999999
 30
0.0
 11
158.85599999999999
 21
245.262
 31
0.0
  0
LINE
  5
180
  8
_________1
 62
     7
 10
158.85599999999999
 20
245.262
 30
0.0
 11
158.91999999999999
 21
245.005
 31
0.0
  0
LINE
  5
181
  8
_________1
 62
     7
 10
158.85599999999999
 20
245.58099999999999
 30
0.0
 11
158.85599999999999
 21
245.667
 31
0.0
  0
LINE
  5
182
  8
_________1
 62
     7
 10
158.85599999999999
 20
245.667
 30
0.0
 11
158.91999999999999
 21
245.79499999999999
 31
0.0
  0
LINE
  5
183
  8
_________1
 62
     7
 10
158.85599999999999
 20
245.667
 30
0.0
 11
158.91999999999999
 21
245.53899999999999
 31
0.0
  0
LINE
  5
184
  8
_________1
 62
     7
 10
158.91999999999999
 20
245.005
 30
0.0
 11
158.85599999999999
 21
244.85599999999999
 31
0.0
  0
LINE
  5
185
  8
_________1
 62
     7
 10
158.85599999999999
 20
244.85599999999999
 30
0.0
 11
158.91999999999999
 21
244.72800000000001
 31
0.0
  0
LINE
  5
186
  8
_________1
 62
     7
 10
159.88
 20
243.74600000000001
 30
0.0
 11
159.88
 21
246.77600000000001
 31
0.0
  0
LINE
  5
187
  8
_________1
 62
     7
 10
159.28200000000001
 20
246.71199999999999
 30
0.0
 11
159.28200000000001
 21
243.81100000000001
 31
0.0
  0
LINE
  5
188
  8
_________1
 62
     7
 10
159.624
 20
245.262
 30
0.0
 11
159.624
 21
243.619
 31
0.0
  0
LINE
  5
189
  8
_________1
 62
     7
 10
159.624
 20
243.74600000000001
 30
0.0
 11
159.624
 21
246.92500000000001
 31
0.0
  0
LINE
  5
18A
  8
_________1
 62
     7
 10
159.28200000000001
 20
244.429
 30
0.0
 11
159.197
 21
244.429
 31
0.0
  0
LINE
  5
18B
  8
_________1
 62
     7
 10
159.28200000000001
 20
246.09299999999999
 30
0.0
 11
159.197
 21
246.09299999999999
 31
0.0
  0
LINE
  5
18C
  8
_________1
 62
     7
 10
159.197
 20
246.09299999999999
 30
0.0
 11
159.197
 21
244.429
 31
0.0
  0
LINE
  5
18D
  8
_________1
 62
     7
 10
154.31200000000001
 20
226.685
 30
0.0
 11
154.31200000000001
 21
233.27699999999999
 31
0.0
  0
LINE
  5
18E
  8
_________1
 62
     7
 10
154.31200000000001
 20
226.685
 30
0.0
 11
154.26900000000001
 21
226.643
 31
0.0
  0
LINE
  5
18F
  8
_________1
 62
     7
 10
154.26900000000001
 20
233.31899999999999
 30
0.0
 11
153.75700000000001
 21
233.31899999999999
 31
0.0
  0
LINE
  5
190
  8
_________1
 62
     7
 10
154.26900000000001
 20
226.643
 30
0.0
 11
153.523
 21
226.643
 31
0.0
  0
LINE
  5
191
  8
_________1
 62
     7
 10
154.31200000000001
 20
233.27699999999999
 30
0.0
 11
154.26900000000001
 21
233.31899999999999
 31
0.0
  0
LINE
  5
192
  8
_________1
 62
     7
 10
154.50399999999999
 20
244.536
 30
0.0
 11
154.52500000000001
 21
244.57900000000001
 31
0.0
  0
LINE
  5
193
  8
_________1
 62
     7
 10
154.52500000000001
 20
244.57900000000001
 30
0.0
 11
154.56800000000001
 21
244.59999999999999
 31
0.0
  0
LINE
  5
194
  8
_________1
 62
     7
 10
154.56800000000001
 20
244.59999999999999
 30
0.0
 11
154.50399999999999
 21
244.685
 31
0.0
  0
LINE
  5
195
  8
_________1
 62
     7
 10
154.50399999999999
 20
244.749
 30
0.0
 11
154.56800000000001
 21
244.83500000000001
 31
0.0
  0
LINE
  5
196
  8
_________1
 62
     7
 10
154.56800000000001
 20
244.83500000000001
 30
0.0
 11
154.67400000000001
 21
244.85599999999999
 31
0.0
  0
LINE
  5
197
  8
_________1
 62
     7
 10
154.50399999999999
 20
244.685
 30
0.0
 11
154.50399999999999
 21
245.262
 31
0.0
  0
LINE
  5
198
  8
_________1
 62
     7
 10
154.67400000000001
 20
244.85599999999999
 30
0.0
 11
154.547
 21
245.048
 31
0.0
  0
LINE
  5
199
  8
_________1
 62
     7
 10
154.547
 20
245.048
 30
0.0
 11
154.50399999999999
 21
245.262
 31
0.0
  0
LINE
  5
19A
  8
_________1
 62
     7
 10
154.50399999999999
 20
245.262
 30
0.0
 11
154.547
 21
245.47399999999999
 31
0.0
  0
LINE
  5
19B
  8
_________1
 62
     7
 10
154.547
 20
245.47399999999999
 30
0.0
 11
154.67400000000001
 21
245.667
 31
0.0
  0
LINE
  5
19C
  8
_________1
 62
     7
 10
154.50399999999999
 20
245.83799999999999
 30
0.0
 11
154.50399999999999
 21
245.262
 31
0.0
  0
LINE
  5
19D
  8
_________1
 62
     7
 10
154.67400000000001
 20
245.667
 30
0.0
 11
154.56800000000001
 21
245.68799999999999
 31
0.0
  0
LINE
  5
19E
  8
_________1
 62
     7
 10
154.56800000000001
 20
245.68799999999999
 30
0.0
 11
154.50399999999999
 21
245.79499999999999
 31
0.0
  0
LINE
  5
19F
  8
_________1
 62
     7
 10
157.78899999999999
 20
245.94399999999999
 30
0.0
 11
154.56800000000001
 21
245.94399999999999
 31
0.0
  0
LINE
  5
1A0
  8
_________1
 62
     7
 10
154.56800000000001
 20
245.94399999999999
 30
0.0
 11
154.50399999999999
 21
245.83799999999999
 31
0.0
  0
LINE
  5
1A1
  8
_________1
 62
     7
 10
154.56800000000001
 20
245.94399999999999
 30
0.0
 11
154.52500000000001
 21
245.965
 31
0.0
  0
LINE
  5
1A2
  8
_________1
 62
     7
 10
154.52500000000001
 20
245.965
 30
0.0
 11
154.50399999999999
 21
246.00800000000001
 31
0.0
  0
LINE
  5
1A3
  8
_________1
 62
     7
 10
154.56800000000001
 20
244.59999999999999
 30
0.0
 11
157.78899999999999
 21
244.59999999999999
 31
0.0
  0
LINE
  5
1A4
  8
_________1
 62
     7
 10
157.85299999999989
 20
245.83799999999999
 30
0.0
 11
157.78899999999999
 21
245.94399999999999
 31
0.0
  0
LINE
  5
1A5
  8
_________1
 62
     7
 10
157.85299999999989
 20
245.79499999999999
 30
0.0
 11
157.78899999999999
 21
245.68799999999999
 31
0.0
  0
LINE
  5
1A6
  8
_________1
 62
     7
 10
157.78899999999999
 20
245.68799999999999
 30
0.0
 11
157.68199999999999
 21
245.667
 31
0.0
  0
LINE
  5
1A7
  8
_________1
 62
     7
 10
157.68199999999999
 20
245.667
 30
0.0
 11
157.81
 21
245.47399999999999
 31
0.0
  0
LINE
  5
1A8
  8
_________1
 62
     7
 10
157.81
 20
245.47399999999999
 30
0.0
 11
157.85299999999989
 21
245.262
 31
0.0
  0
LINE
  5
1A9
  8
_________1
 62
     7
 10
157.85299999999989
 20
245.262
 30
0.0
 11
157.85299999999989
 21
245.83799999999999
 31
0.0
  0
LINE
  5
1AA
  8
_________1
 62
     7
 10
157.85299999999989
 20
244.685
 30
0.0
 11
157.85299999999989
 21
245.262
 31
0.0
  0
LINE
  5
1AB
  8
_________1
 62
     7
 10
157.85299999999989
 20
245.262
 30
0.0
 11
157.81
 21
245.048
 31
0.0
  0
LINE
  5
1AC
  8
_________1
 62
     7
 10
157.81
 20
245.048
 30
0.0
 11
157.68199999999999
 21
244.85599999999999
 31
0.0
  0
LINE
  5
1AD
  8
_________1
 62
     7
 10
157.68199999999999
 20
244.85599999999999
 30
0.0
 11
157.78899999999999
 21
244.83500000000001
 31
0.0
  0
LINE
  5
1AE
  8
_________1
 62
     7
 10
157.78899999999999
 20
244.83500000000001
 30
0.0
 11
157.85299999999989
 21
244.749
 31
0.0
  0
LINE
  5
1AF
  8
_________1
 62
     7
 10
157.85299999999989
 20
244.685
 30
0.0
 11
157.78899999999999
 21
244.59999999999999
 31
0.0
  0
LINE
  5
1B0
  8
_________1
 62
     7
 10
154.46100000000001
 20
245.262
 30
0.0
 11
154.46100000000001
 21
243.256
 31
0.0
  0
LINE
  5
1B1
  8
_________1
 62
     7
 10
154.46100000000001
 20
243.256
 30
0.0
 11
154.35400000000001
 21
243.256
 31
0.0
  0
LINE
  5
1B2
  8
_________1
 62
     7
 10
154.50399999999999
 20
243.298
 30
0.0
 11
154.46100000000001
 21
243.256
 31
0.0
  0
LINE
  5
1B3
  8
_________1
 62
     7
 10
154.31200000000001
 20
243.298
 30
0.0
 11
154.35400000000001
 21
243.256
 31
0.0
  0
LINE
  5
1B4
  8
_________1
 62
     7
 10
154.35400000000001
 20
243.256
 30
0.0
 11
154.35400000000001
 21
245.262
 31
0.0
  0
LINE
  5
1B5
  8
_________1
 62
     7
 10
154.50399999999999
 20
243.298
 30
0.0
 11
154.50399999999999
 21
247.22399999999999
 31
0.0
  0
LINE
  5
1B6
  8
_________1
 62
     7
 10
154.35400000000001
 20
245.262
 30
0.0
 11
154.35400000000001
 21
247.26599999999999
 31
0.0
  0
LINE
  5
1B7
  8
_________1
 62
     7
 10
154.35400000000001
 20
247.26599999999999
 30
0.0
 11
154.31200000000001
 21
247.22399999999999
 31
0.0
  0
LINE
  5
1B8
  8
_________1
 62
     7
 10
154.50399999999999
 20
247.22399999999999
 30
0.0
 11
154.46100000000001
 21
247.26599999999999
 31
0.0
  0
LINE
  5
1B9
  8
_________1
 62
     7
 10
154.46100000000001
 20
247.26599999999999
 30
0.0
 11
154.35400000000001
 21
247.26599999999999
 31
0.0
  0
LINE
  5
1BA
  8
_________1
 62
     7
 10
154.46100000000001
 20
247.26599999999999
 30
0.0
 11
154.46100000000001
 21
245.262
 31
0.0
  0
LINE
  5
1BB
  8
_________1
 62
     7
 10
154.67400000000001
 20
244.85599999999999
 30
0.0
 11
157.68199999999999
 21
244.85599999999999
 31
0.0
  0
LINE
  5
1BC
  8
_________1
 62
     7
 10
154.67400000000001
 20
245.667
 30
0.0
 11
157.68199999999999
 21
245.667
 31
0.0
  0
LINE
  5
1BD
  8
_________1
 62
     7
 10
154.31200000000001
 20
247.22399999999999
 30
0.0
 11
154.31200000000001
 21
243.298
 31
0.0
  0
LINE
  5
1BE
  8
_________1
 62
     7
 10
159.28200000000001
 20
228.477
 30
0.0
 11
159.32499999999999
 21
228.392
 31
0.0
  0
LINE
  5
1BF
  8
_________1
 62
     7
 10
159.32499999999999
 20
228.392
 30
0.0
 11
159.38900000000001
 21
228.30600000000001
 31
0.0
  0
LINE
  5
1C0
  8
_________1
 62
     7
 10
159.38900000000001
 20
228.30600000000001
 30
0.0
 11
159.49600000000001
 21
228.285
 31
0.0
  0
LINE
  5
1C1
  8
_________1
 62
     7
 10
159.49600000000001
 20
228.285
 30
0.0
 11
159.624
 21
228.285
 31
0.0
  0
LINE
  5
1C2
  8
_________1
 62
     7
 10
159.88
 20
228.41300000000001
 30
0.0
 11
159.624
 21
228.41300000000001
 31
0.0
  0
LINE
  5
1C3
  8
_________1
 62
     7
 10
159.624
 20
231.59200000000001
 30
0.0
 11
159.49600000000001
 21
231.59200000000001
 31
0.0
  0
LINE
  5
1C4
  8
_________1
 62
     7
 10
159.88
 20
231.44200000000001
 30
0.0
 11
159.624
 21
231.44200000000001
 31
0.0
  0
LINE
  5
1C5
  8
_________1
 62
     7
 10
159.49600000000001
 20
231.59200000000001
 30
0.0
 11
159.38900000000001
 21
231.54900000000001
 31
0.0
  0
LINE
  5
1C6
  8
_________1
 62
     7
 10
159.38900000000001
 20
231.54900000000001
 30
0.0
 11
159.32499999999999
 21
231.48400000000001
 31
0.0
  0
LINE
  5
1C7
  8
_________1
 62
     7
 10
159.32499999999999
 20
231.48400000000001
 30
0.0
 11
159.28200000000001
 21
231.37799999999999
 31
0.0
  0
LINE
  5
1C8
  8
_________1
 62
     7
 10
158.85599999999999
 20
230.31100000000001
 30
0.0
 11
158.77000000000001
 21
230.31100000000001
 31
0.0
  0
LINE
  5
1C9
  8
_________1
 62
     7
 10
158.85599999999999
 20
229.565
 30
0.0
 11
158.77000000000001
 21
229.565
 31
0.0
  0
LINE
  5
1CA
  8
_________1
 62
     7
 10
158.77000000000001
 20
229.54400000000001
 30
0.0
 11
157.85299999999989
 21
229.54400000000001
 31
0.0
  0
LINE
  5
1CB
  8
_________1
 62
     7
 10
158.77000000000001
 20
230.333
 30
0.0
 11
157.85299999999989
 21
230.333
 31
0.0
  0
LINE
  5
1CC
  8
_________1
 62
     7
 10
158.77000000000001
 20
230.26900000000001
 30
0.0
 11
157.85299999999989
 21
230.26900000000001
 31
0.0
  0
LINE
  5
1CD
  8
_________1
 62
     7
 10
158.77000000000001
 20
229.608
 30
0.0
 11
157.85299999999989
 21
229.608
 31
0.0
  0
LINE
  5
1CE
  8
_________1
 62
     7
 10
158.77000000000001
 20
230.333
 30
0.0
 11
158.77000000000001
 21
229.54400000000001
 31
0.0
  0
LINE
  5
1CF
  8
_________1
 62
     7
 10
159.197
 20
230.20500000000001
 30
0.0
 11
158.91999999999999
 21
230.20500000000001
 31
0.0
  0
LINE
  5
1D0
  8
_________1
 62
     7
 10
159.197
 20
229.67099999999999
 30
0.0
 11
158.91999999999999
 21
229.67099999999999
 31
0.0
  0
LINE
  5
1D1
  8
_________1
 62
     7
 10
159.197
 20
230.482
 30
0.0
 11
158.91999999999999
 21
230.482
 31
0.0
  0
LINE
  5
1D2
  8
_________1
 62
     7
 10
159.197
 20
229.39400000000001
 30
0.0
 11
158.91999999999999
 21
229.39400000000001
 31
0.0
  0
LINE
  5
1D3
  8
_________1
 62
     7
 10
158.85599999999999
 20
230.333
 30
0.0
 11
158.85599999999999
 21
229.52199999999999
 31
0.0
  0
LINE
  5
1D4
  8
_________1
 62
     7
 10
158.91999999999999
 20
230.20500000000001
 30
0.0
 11
158.85599999999999
 21
229.928
 31
0.0
  0
LINE
  5
1D5
  8
_________1
 62
     7
 10
158.85599999999999
 20
229.928
 30
0.0
 11
158.91999999999999
 21
229.67099999999999
 31
0.0
  0
LINE
  5
1D6
  8
_________1
 62
     7
 10
158.85599999999999
 20
229.62899999999999
 30
0.0
 11
158.85599999999999
 21
229.52199999999999
 31
0.0
  0
LINE
  5
1D7
  8
_________1
 62
     7
 10
158.85599999999999
 20
229.52199999999999
 30
0.0
 11
158.91999999999999
 21
229.67099999999999
 31
0.0
  0
LINE
  5
1D8
  8
_________1
 62
     7
 10
158.85599999999999
 20
229.52199999999999
 30
0.0
 11
158.91999999999999
 21
229.39400000000001
 31
0.0
  0
LINE
  5
1D9
  8
_________1
 62
     7
 10
158.91999999999999
 20
230.482
 30
0.0
 11
158.85599999999999
 21
230.333
 31
0.0
  0
LINE
  5
1DA
  8
_________1
 62
     7
 10
158.85599999999999
 20
230.333
 30
0.0
 11
158.91999999999999
 21
230.20500000000001
 31
0.0
  0
LINE
  5
1DB
  8
_________1
 62
     7
 10
159.88
 20
231.44200000000001
 30
0.0
 11
159.88
 21
228.41300000000001
 31
0.0
  0
LINE
  5
1DC
  8
_________1
 62
     7
 10
159.28200000000001
 20
228.477
 30
0.0
 11
159.28200000000001
 21
231.37799999999999
 31
0.0
  0
LINE
  5
1DD
  8
_________1
 62
     7
 10
159.624
 20
229.928
 30
0.0
 11
159.624
 21
231.59200000000001
 31
0.0
  0
LINE
  5
1DE
  8
_________1
 62
     7
 10
159.624
 20
231.44200000000001
 30
0.0
 11
159.624
 21
228.285
 31
0.0
  0
LINE
  5
1DF
  8
_________1
 62
     7
 10
159.28200000000001
 20
230.75899999999999
 30
0.0
 11
159.197
 21
230.75899999999999
 31
0.0
  0
LINE
  5
1E0
  8
_________1
 62
     7
 10
159.28200000000001
 20
229.096
 30
0.0
 11
159.197
 21
229.096
 31
0.0
  0
LINE
  5
1E1
  8
_________1
 62
     7
 10
159.197
 20
229.096
 30
0.0
 11
159.197
 21
230.75899999999999
 31
0.0
  0
LINE
  5
1E2
  8
_________1
 62
     7
 10
154.50399999999999
 20
230.67400000000001
 30
0.0
 11
154.52500000000001
 21
230.631
 31
0.0
  0
LINE
  5
1E3
  8
_________1
 62
     7
 10
154.52500000000001
 20
230.631
 30
0.0
 11
154.56800000000001
 21
230.61000000000001
 31
0.0
  0
LINE
  5
1E4
  8
_________1
 62
     7
 10
154.56800000000001
 20
230.61000000000001
 30
0.0
 11
154.50399999999999
 21
230.50399999999999
 31
0.0
  0
LINE
  5
1E5
  8
_________1
 62
     7
 10
154.50399999999999
 20
230.46100000000001
 30
0.0
 11
154.56800000000001
 21
230.376
 31
0.0
  0
LINE
  5
1E6
  8
_________1
 62
     7
 10
154.56800000000001
 20
230.376
 30
0.0
 11
154.67400000000001
 21
230.333
 31
0.0
  0
LINE
  5
1E7
  8
_________1
 62
     7
 10
154.50399999999999
 20
230.50399999999999
 30
0.0
 11
154.50399999999999
 21
229.928
 31
0.0
  0
LINE
  5
1E8
  8
_________1
 62
     7
 10
154.67400000000001
 20
230.333
 30
0.0
 11
154.547
 21
230.14099999999999
 31
0.0
  0
LINE
  5
1E9
  8
_________1
 62
     7
 10
154.547
 20
230.14099999999999
 30
0.0
 11
154.50399999999999
 21
229.928
 31
0.0
  0
LINE
  5
1EA
  8
_________1
 62
     7
 10
154.50399999999999
 20
229.928
 30
0.0
 11
154.547
 21
229.714
 31
0.0
  0
LINE
  5
1EB
  8
_________1
 62
     7
 10
154.547
 20
229.714
 30
0.0
 11
154.67400000000001
 21
229.54400000000001
 31
0.0
  0
LINE
  5
1EC
  8
_________1
 62
     7
 10
154.50399999999999
 20
229.351
 30
0.0
 11
154.50399999999999
 21
229.928
 31
0.0
  0
LINE
  5
1ED
  8
_________1
 62
     7
 10
154.67400000000001
 20
229.54400000000001
 30
0.0
 11
154.56800000000001
 21
229.501
 31
0.0
  0
LINE
  5
1EE
  8
_________1
 62
     7
 10
154.56800000000001
 20
229.501
 30
0.0
 11
154.50399999999999
 21
229.416
 31
0.0
  0
LINE
  5
1EF
  8
_________1
 62
     7
 10
157.78899999999999
 20
229.267
 30
0.0
 11
154.56800000000001
 21
229.267
 31
0.0
  0
LINE
  5
1F0
  8
_________1
 62
     7
 10
154.56800000000001
 20
229.267
 30
0.0
 11
154.50399999999999
 21
229.351
 31
0.0
  0
LINE
  5
1F1
  8
_________1
 62
     7
 10
154.56800000000001
 20
229.267
 30
0.0
 11
154.52500000000001
 21
229.245
 31
0.0
  0
LINE
  5
1F2
  8
_________1
 62
     7
 10
154.52500000000001
 20
229.245
 30
0.0
 11
154.50399999999999
 21
229.202
 31
0.0
  0
LINE
  5
1F3
  8
_________1
 62
     7
 10
154.56800000000001
 20
230.61000000000001
 30
0.0
 11
157.78899999999999
 21
230.61000000000001
 31
0.0
  0
LINE
  5
1F4
  8
_________1
 62
     7
 10
157.85299999999989
 20
229.351
 30
0.0
 11
157.78899999999999
 21
229.267
 31
0.0
  0
LINE
  5
1F5
  8
_________1
 62
     7
 10
157.85299999999989
 20
229.416
 30
0.0
 11
157.78899999999999
 21
229.501
 31
0.0
  0
LINE
  5
1F6
  8
_________1
 62
     7
 10
157.78899999999999
 20
229.501
 30
0.0
 11
157.68199999999999
 21
229.54400000000001
 31
0.0
  0
LINE
  5
1F7
  8
_________1
 62
     7
 10
157.68199999999999
 20
229.54400000000001
 30
0.0
 11
157.81
 21
229.714
 31
0.0
  0
LINE
  5
1F8
  8
_________1
 62
     7
 10
157.81
 20
229.714
 30
0.0
 11
157.85299999999989
 21
229.928
 31
0.0
  0
LINE
  5
1F9
  8
_________1
 62
     7
 10
157.85299999999989
 20
229.928
 30
0.0
 11
157.85299999999989
 21
229.351
 31
0.0
  0
LINE
  5
1FA
  8
_________1
 62
     7
 10
157.85299999999989
 20
230.50399999999999
 30
0.0
 11
157.85299999999989
 21
229.928
 31
0.0
  0
LINE
  5
1FB
  8
_________1
 62
     7
 10
157.85299999999989
 20
229.928
 30
0.0
 11
157.81
 21
230.14099999999999
 31
0.0
  0
LINE
  5
1FC
  8
_________1
 62
     7
 10
157.81
 20
230.14099999999999
 30
0.0
 11
157.68199999999999
 21
230.333
 31
0.0
  0
LINE
  5
1FD
  8
_________1
 62
     7
 10
157.68199999999999
 20
230.333
 30
0.0
 11
157.78899999999999
 21
230.376
 31
0.0
  0
LINE
  5
1FE
  8
_________1
 62
     7
 10
157.78899999999999
 20
230.376
 30
0.0
 11
157.85299999999989
 21
230.46100000000001
 31
0.0
  0
LINE
  5
1FF
  8
_________1
 62
     7
 10
157.85299999999989
 20
230.50399999999999
 30
0.0
 11
157.78899999999999
 21
230.61000000000001
 31
0.0
  0
LINE
  5
200
  8
_________1
 62
     7
 10
154.46100000000001
 20
229.928
 30
0.0
 11
154.46100000000001
 21
231.93299999999999
 31
0.0
  0
LINE
  5
201
  8
_________1
 62
     7
 10
154.46100000000001
 20
231.93299999999999
 30
0.0
 11
154.35400000000001
 21
231.93299999999999
 31
0.0
  0
LINE
  5
202
  8
_________1
 62
     7
 10
154.50399999999999
 20
231.88999999999999
 30
0.0
 11
154.46100000000001
 21
231.93299999999999
 31
0.0
  0
LINE
  5
203
  8
_________1
 62
     7
 10
154.31200000000001
 20
231.88999999999999
 30
0.0
 11
154.35400000000001
 21
231.93299999999999
 31
0.0
  0
LINE
  5
204
  8
_________1
 62
     7
 10
154.35400000000001
 20
231.93299999999999
 30
0.0
 11
154.35400000000001
 21
229.928
 31
0.0
  0
LINE
  5
205
  8
_________1
 62
     7
 10
154.50399999999999
 20
231.88999999999999
 30
0.0
 11
154.50399999999999
 21
227.965
 31
0.0
  0
LINE
  5
206
  8
_________1
 62
     7
 10
154.35400000000001
 20
229.928
 30
0.0
 11
154.35400000000001
 21
227.94399999999999
 31
0.0
  0
LINE
  5
207
  8
_________1
 62
     7
 10
154.35400000000001
 20
227.94399999999999
 30
0.0
 11
154.31200000000001
 21
227.965
 31
0.0
  0
LINE
  5
208
  8
_________1
 62
     7
 10
154.50399999999999
 20
227.965
 30
0.0
 11
154.46100000000001
 21
227.94399999999999
 31
0.0
  0
LINE
  5
209
  8
_________1
 62
     7
 10
154.46100000000001
 20
227.94399999999999
 30
0.0
 11
154.35400000000001
 21
227.94399999999999
 31
0.0
  0
LINE
  5
20A
  8
_________1
 62
     7
 10
154.46100000000001
 20
227.94399999999999
 30
0.0
 11
154.46100000000001
 21
229.928
 31
0.0
  0
LINE
  5
20B
  8
_________1
 62
     7
 10
154.67400000000001
 20
230.333
 30
0.0
 11
157.68199999999999
 21
230.333
 31
0.0
  0
LINE
  5
20C
  8
_________1
 62
     7
 10
154.67400000000001
 20
229.54400000000001
 30
0.0
 11
157.68199999999999
 21
229.54400000000001
 31
0.0
  0
LINE
  5
20D
  8
_________1
 62
     7
 10
154.31200000000001
 20
227.965
 30
0.0
 11
154.31200000000001
 21
231.88999999999999
 31
0.0
  0
LINE
  5
20E
  8
_________1
 62
     7
 10
159.261
 20
155.65799999999999
 30
0.0
 11
159.304
 21
155.57300000000001
 31
0.0
  0
LINE
  5
20F
  8
_________1
 62
     7
 10
159.304
 20
155.57300000000001
 30
0.0
 11
159.36799999999999
 21
155.488
 31
0.0
  0
LINE
  5
210
  8
_________1
 62
     7
 10
159.36799999999999
 20
155.488
 30
0.0
 11
159.47399999999999
 21
155.46700000000001
 31
0.0
  0
LINE
  5
211
  8
_________1
 62
     7
 10
159.47399999999999
 20
155.46700000000001
 30
0.0
 11
159.60300000000001
 21
155.46700000000001
 31
0.0
  0
LINE
  5
212
  8
_________1
 62
     7
 10
159.88
 20
155.595
 30
0.0
 11
159.60300000000001
 21
155.595
 31
0.0
  0
LINE
  5
213
  8
_________1
 62
     7
 10
159.60300000000001
 20
158.773
 30
0.0
 11
159.47399999999999
 21
158.773
 31
0.0
  0
LINE
  5
214
  8
_________1
 62
     7
 10
159.88
 20
158.624
 30
0.0
 11
159.60300000000001
 21
158.624
 31
0.0
  0
LINE
  5
215
  8
_________1
 62
     7
 10
159.47399999999999
 20
158.773
 30
0.0
 11
159.36799999999999
 21
158.73099999999999
 31
0.0
  0
LINE
  5
216
  8
_________1
 62
     7
 10
159.36799999999999
 20
158.73099999999999
 30
0.0
 11
159.304
 21
158.667
 31
0.0
  0
LINE
  5
217
  8
_________1
 62
     7
 10
159.304
 20
158.667
 30
0.0
 11
159.261
 21
158.56
 31
0.0
  0
LINE
  5
218
  8
_________1
 62
     7
 10
158.834
 20
157.49299999999999
 30
0.0
 11
158.749
 21
157.49299999999999
 31
0.0
  0
LINE
  5
219
  8
_________1
 62
     7
 10
158.834
 20
156.74600000000001
 30
0.0
 11
158.749
 21
156.74600000000001
 31
0.0
  0
LINE
  5
21A
  8
_________1
 62
     7
 10
158.749
 20
156.72499999999999
 30
0.0
 11
157.78999999999999
 21
156.72499999999999
 31
0.0
  0
LINE
  5
21B
  8
_________1
 62
     7
 10
158.749
 20
157.51400000000001
 30
0.0
 11
157.78999999999999
 21
157.51400000000001
 31
0.0
  0
LINE
  5
21C
  8
_________1
 62
     7
 10
157.66200000000001
 20
157.51400000000001
 30
0.0
 11
156.851
 21
157.51400000000001
 31
0.0
  0
LINE
  5
21D
  8
_________1
 62
     7
 10
158.749
 20
157.45099999999999
 30
0.0
 11
157.78999999999999
 21
157.45099999999999
 31
0.0
  0
LINE
  5
21E
  8
_________1
 62
     7
 10
158.749
 20
156.78899999999999
 30
0.0
 11
157.78999999999999
 21
156.78899999999999
 31
0.0
  0
LINE
  5
21F
  8
_________1
 62
     7
 10
158.749
 20
157.51400000000001
 30
0.0
 11
158.749
 21
156.72499999999999
 31
0.0
  0
LINE
  5
220
  8
_________1
 62
     7
 10
159.17599999999999
 20
157.387
 30
0.0
 11
158.898
 21
157.387
 31
0.0
  0
LINE
  5
221
  8
_________1
 62
     7
 10
159.17599999999999
 20
156.85299999999989
 30
0.0
 11
158.898
 21
156.85299999999989
 31
0.0
  0
LINE
  5
222
  8
_________1
 62
     7
 10
159.17599999999999
 20
157.66399999999999
 30
0.0
 11
158.898
 21
157.66399999999999
 31
0.0
  0
LINE
  5
223
  8
_________1
 62
     7
 10
159.17599999999999
 20
156.57599999999999
 30
0.0
 11
158.898
 21
156.57599999999999
 31
0.0
  0
LINE
  5
224
  8
_________1
 62
     7
 10
158.834
 20
157.51400000000001
 30
0.0
 11
158.834
 21
156.70400000000001
 31
0.0
  0
LINE
  5
225
  8
_________1
 62
     7
 10
158.898
 20
157.387
 30
0.0
 11
158.834
 21
157.10900000000001
 31
0.0
  0
LINE
  5
226
  8
_________1
 62
     7
 10
158.834
 20
157.10900000000001
 30
0.0
 11
158.898
 21
156.85299999999989
 31
0.0
  0
LINE
  5
227
  8
_________1
 62
     7
 10
158.834
 20
156.81100000000001
 30
0.0
 11
158.834
 21
156.70400000000001
 31
0.0
  0
LINE
  5
228
  8
_________1
 62
     7
 10
158.834
 20
156.70400000000001
 30
0.0
 11
158.898
 21
156.85299999999989
 31
0.0
  0
LINE
  5
229
  8
_________1
 62
     7
 10
158.834
 20
156.70400000000001
 30
0.0
 11
158.898
 21
156.57599999999999
 31
0.0
  0
LINE
  5
22A
  8
_________1
 62
     7
 10
158.898
 20
157.66399999999999
 30
0.0
 11
158.834
 21
157.51400000000001
 31
0.0
  0
LINE
  5
22B
  8
_________1
 62
     7
 10
158.834
 20
157.51400000000001
 30
0.0
 11
158.898
 21
157.387
 31
0.0
  0
LINE
  5
22C
  8
_________1
 62
     7
 10
159.88
 20
158.624
 30
0.0
 11
159.88
 21
155.595
 31
0.0
  0
LINE
  5
22D
  8
_________1
 62
     7
 10
159.261
 20
155.65799999999999
 30
0.0
 11
159.261
 21
158.56
 31
0.0
  0
LINE
  5
22E
  8
_________1
 62
     7
 10
159.60300000000001
 20
157.10900000000001
 30
0.0
 11
159.60300000000001
 21
158.773
 31
0.0
  0
LINE
  5
22F
  8
_________1
 62
     7
 10
159.60300000000001
 20
158.624
 30
0.0
 11
159.60300000000001
 21
155.46700000000001
 31
0.0
  0
LINE
  5
230
  8
_________1
 62
     7
 10
159.261
 20
157.941
 30
0.0
 11
159.17599999999999
 21
157.941
 31
0.0
  0
LINE
  5
231
  8
_________1
 62
     7
 10
159.261
 20
156.27699999999999
 30
0.0
 11
159.17599999999999
 21
156.27699999999999
 31
0.0
  0
LINE
  5
232
  8
_________1
 62
     7
 10
159.17599999999999
 20
156.27699999999999
 30
0.0
 11
159.17599999999999
 21
157.941
 31
0.0
  0
LINE
  5
233
  8
_________1
 62
     7
 10
154.357
 20
160.459
 30
0.0
 11
154.33600000000001
 21
160.501
 31
0.0
  0
LINE
  5
234
  8
_________1
 62
     7
 10
154.357
 20
153.86699999999999
 30
0.0
 11
154.357
 21
160.459
 31
0.0
  0
LINE
  5
235
  8
_________1
 62
     7
 10
154.357
 20
153.86699999999999
 30
0.0
 11
154.33600000000001
 21
153.82400000000001
 31
0.0
  0
LINE
  5
236
  8
_________1
 62
     7
 10
154.33600000000001
 20
160.501
 30
0.0
 11
153.78100000000001
 21
160.501
 31
0.0
  0
LINE
  5
237
  8
_________1
 62
     7
 10
154.33600000000001
 20
153.82400000000001
 30
0.0
 11
153.63200000000001
 21
153.82400000000001
 31
0.0
  0
LINE
  5
238
  8
_________1
 62
     7
 10
154.56999999999999
 20
157.85599999999999
 30
0.0
 11
154.59100000000001
 21
157.8129999999999
 31
0.0
  0
LINE
  5
239
  8
_________1
 62
     7
 10
154.59100000000001
 20
157.8129999999999
 30
0.0
 11
154.63399999999999
 21
157.792
 31
0.0
  0
LINE
  5
23A
  8
_________1
 62
     7
 10
154.56999999999999
 20
157.70699999999999
 30
0.0
 11
154.613
 21
157.792
 31
0.0
  0
LINE
  5
23B
  8
_________1
 62
     7
 10
154.56999999999999
 20
157.643
 30
0.0
 11
154.613
 21
157.55699999999999
 31
0.0
  0
LINE
  5
23C
  8
_________1
 62
     7
 10
154.613
 20
157.55699999999999
 30
0.0
 11
154.72
 21
157.51400000000001
 31
0.0
  0
LINE
  5
23D
  8
_________1
 62
     7
 10
154.56999999999999
 20
157.70699999999999
 30
0.0
 11
154.56999999999999
 21
157.131
 31
0.0
  0
LINE
  5
23E
  8
_________1
 62
     7
 10
154.72
 20
157.51400000000001
 30
0.0
 11
154.613
 21
157.34399999999999
 31
0.0
  0
LINE
  5
23F
  8
_________1
 62
     7
 10
154.613
 20
157.34399999999999
 30
0.0
 11
154.56999999999999
 21
157.131
 31
0.0
  0
LINE
  5
240
  8
_________1
 62
     7
 10
154.56999999999999
 20
157.131
 30
0.0
 11
154.613
 21
156.89599999999999
 31
0.0
  0
LINE
  5
241
  8
_________1
 62
     7
 10
154.613
 20
156.89599999999999
 30
0.0
 11
154.72
 21
156.72499999999999
 31
0.0
  0
LINE
  5
242
  8
_________1
 62
     7
 10
154.56999999999999
 20
156.53299999999999
 30
0.0
 11
154.56999999999999
 21
157.131
 31
0.0
  0
LINE
  5
243
  8
_________1
 62
     7
 10
154.72
 20
156.72499999999999
 30
0.0
 11
154.613
 21
156.68299999999999
 31
0.0
  0
LINE
  5
244
  8
_________1
 62
     7
 10
154.613
 20
156.68299999999999
 30
0.0
 11
154.56999999999999
 21
156.59700000000001
 31
0.0
  0
LINE
  5
245
  8
_________1
 62
     7
 10
154.63399999999999
 20
156.44800000000001
 30
0.0
 11
157.833
 21
156.44800000000001
 31
0.0
  0
LINE
  5
246
  8
_________1
 62
     7
 10
154.56999999999999
 20
156.53299999999999
 30
0.0
 11
154.613
 21
156.44800000000001
 31
0.0
  0
LINE
  5
247
  8
_________1
 62
     7
 10
154.63399999999999
 20
156.44800000000001
 30
0.0
 11
154.59100000000001
 21
156.42599999999999
 31
0.0
  0
LINE
  5
248
  8
_________1
 62
     7
 10
154.59100000000001
 20
156.42599999999999
 30
0.0
 11
154.56999999999999
 21
156.38399999999999
 31
0.0
  0
LINE
  5
249
  8
_________1
 62
     7
 10
154.63399999999999
 20
157.792
 30
0.0
 11
157.833
 21
157.792
 31
0.0
  0
LINE
  5
24A
  8
_________1
 62
     7
 10
157.89699999999999
 20
156.53299999999999
 30
0.0
 11
157.833
 21
156.44800000000001
 31
0.0
  0
LINE
  5
24B
  8
_________1
 62
     7
 10
157.89699999999999
 20
156.59700000000001
 30
0.0
 11
157.833
 21
156.68299999999999
 31
0.0
  0
LINE
  5
24C
  8
_________1
 62
     7
 10
157.833
 20
156.68299999999999
 30
0.0
 11
157.726
 21
156.72499999999999
 31
0.0
  0
LINE
  5
24D
  8
_________1
 62
     7
 10
157.726
 20
156.72499999999999
 30
0.0
 11
157.85400000000001
 21
156.89599999999999
 31
0.0
  0
LINE
  5
24E
  8
_________1
 62
     7
 10
157.85400000000001
 20
156.89599999999999
 30
0.0
 11
157.89699999999999
 21
157.131
 31
0.0
  0
LINE
  5
24F
  8
_________1
 62
     7
 10
157.89699999999999
 20
157.131
 30
0.0
 11
157.89699999999999
 21
156.53299999999999
 31
0.0
  0
LINE
  5
250
  8
_________1
 62
     7
 10
157.89699999999999
 20
157.70699999999999
 30
0.0
 11
157.89699999999999
 21
157.131
 31
0.0
  0
LINE
  5
251
  8
_________1
 62
     7
 10
157.89699999999999
 20
157.131
 30
0.0
 11
157.85400000000001
 21
157.34399999999999
 31
0.0
  0
LINE
  5
252
  8
_________1
 62
     7
 10
157.85400000000001
 20
157.34399999999999
 30
0.0
 11
157.726
 21
157.51400000000001
 31
0.0
  0
LINE
  5
253
  8
_________1
 62
     7
 10
157.726
 20
157.51400000000001
 30
0.0
 11
157.833
 21
157.55699999999999
 31
0.0
  0
LINE
  5
254
  8
_________1
 62
     7
 10
157.833
 20
157.55699999999999
 30
0.0
 11
157.89699999999999
 21
157.643
 31
0.0
  0
LINE
  5
255
  8
_________1
 62
     7
 10
157.89699999999999
 20
157.70699999999999
 30
0.0
 11
157.833
 21
157.792
 31
0.0
  0
LINE
  5
256
  8
_________1
 62
     7
 10
154.52699999999999
 20
157.131
 30
0.0
 11
154.52699999999999
 21
159.114
 31
0.0
  0
LINE
  5
257
  8
_________1
 62
     7
 10
154.52699999999999
 20
159.114
 30
0.0
 11
154.399
 21
159.114
 31
0.0
  0
LINE
  5
258
  8
_________1
 62
     7
 10
154.56999999999999
 20
159.072
 30
0.0
 11
154.52699999999999
 21
159.114
 31
0.0
  0
LINE
  5
259
  8
_________1
 62
     7
 10
154.357
 20
159.072
 30
0.0
 11
154.399
 21
159.114
 31
0.0
  0
LINE
  5
25A
  8
_________1
 62
     7
 10
154.399
 20
159.114
 30
0.0
 11
154.399
 21
157.131
 31
0.0
  0
LINE
  5
25B
  8
_________1
 62
     7
 10
154.56999999999999
 20
159.072
 30
0.0
 11
154.56999999999999
 21
155.16800000000001
 31
0.0
  0
LINE
  5
25C
  8
_________1
 62
     7
 10
154.399
 20
157.131
 30
0.0
 11
154.399
 21
155.125
 31
0.0
  0
LINE
  5
25D
  8
_________1
 62
     7
 10
154.399
 20
155.125
 30
0.0
 11
154.357
 21
155.16800000000001
 31
0.0
  0
LINE
  5
25E
  8
_________1
 62
     7
 10
154.56999999999999
 20
155.16800000000001
 30
0.0
 11
154.52699999999999
 21
155.125
 31
0.0
  0
LINE
  5
25F
  8
_________1
 62
     7
 10
154.52699999999999
 20
155.125
 30
0.0
 11
154.399
 21
155.125
 31
0.0
  0
LINE
  5
260
  8
_________1
 62
     7
 10
154.52699999999999
 20
155.125
 30
0.0
 11
154.52699999999999
 21
157.131
 31
0.0
  0
LINE
  5
261
  8
_________1
 62
     7
 10
154.72
 20
157.51400000000001
 30
0.0
 11
157.726
 21
157.51400000000001
 31
0.0
  0
LINE
  5
262
  8
_________1
 62
     7
 10
154.72
 20
156.72499999999999
 30
0.0
 11
157.726
 21
156.72499999999999
 31
0.0
  0
LINE
  5
263
  8
_________1
 62
     7
 10
154.357
 20
155.16800000000001
 30
0.0
 11
154.357
 21
159.072
 31
0.0
  0
LINE
  5
264
  8
_________1
 62
     7
 10
159.261
 20
103.325
 30
0.0
 11
159.304
 21
103.218
 31
0.0
  0
LINE
  5
265
  8
_________1
 62
     7
 10
159.304
 20
103.218
 30
0.0
 11
159.36799999999999
 21
103.154
 31
0.0
  0
LINE
  5
266
  8
_________1
 62
     7
 10
159.36799999999999
 20
103.154
 30
0.0
 11
159.47399999999999
 21
103.133
 31
0.0
  0
LINE
  5
267
  8
_________1
 62
     7
 10
159.47399999999999
 20
103.133
 30
0.0
 11
159.60300000000001
 21
103.133
 31
0.0
  0
LINE
  5
268
  8
_________1
 62
     7
 10
159.88
 20
103.261
 30
0.0
 11
159.60300000000001
 21
103.261
 31
0.0
  0
LINE
  5
269
  8
_________1
 62
     7
 10
159.60300000000001
 20
106.41800000000001
 30
0.0
 11
159.47399999999999
 21
106.41800000000001
 31
0.0
  0
LINE
  5
26A
  8
_________1
 62
     7
 10
159.88
 20
106.291
 30
0.0
 11
159.60300000000001
 21
106.291
 31
0.0
  0
LINE
  5
26B
  8
_________1
 62
     7
 10
159.47399999999999
 20
106.41800000000001
 30
0.0
 11
159.36799999999999
 21
106.39700000000001
 31
0.0
  0
LINE
  5
26C
  8
_________1
 62
     7
 10
159.36799999999999
 20
106.39700000000001
 30
0.0
 11
159.304
 21
106.334
 31
0.0
  0
LINE
  5
26D
  8
_________1
 62
     7
 10
159.304
 20
106.334
 30
0.0
 11
159.261
 21
106.227
 31
0.0
  0
LINE
  5
26E
  8
_________1
 62
     7
 10
158.834
 20
105.13800000000001
 30
0.0
 11
158.749
 21
105.13800000000001
 31
0.0
  0
LINE
  5
26F
  8
_________1
 62
     7
 10
158.834
 20
104.413
 30
0.0
 11
158.749
 21
104.413
 31
0.0
  0
LINE
  5
270
  8
_________1
 62
     7
 10
158.749
 20
104.371
 30
0.0
 11
156.83099999999999
 21
104.371
 31
0.0
  0
LINE
  5
271
  8
_________1
 62
     7
 10
158.749
 20
105.181
 30
0.0
 11
156.83099999999999
 21
105.181
 31
0.0
  0
LINE
  5
272
  8
_________1
 62
     7
 10
158.749
 20
105.117
 30
0.0
 11
156.83099999999999
 21
105.117
 31
0.0
  0
LINE
  5
273
  8
_________1
 62
     7
 10
158.749
 20
104.435
 30
0.0
 11
156.83099999999999
 21
104.435
 31
0.0
  0
LINE
  5
274
  8
_________1
 62
     7
 10
158.749
 20
105.181
 30
0.0
 11
158.749
 21
104.371
 31
0.0
  0
LINE
  5
275
  8
_________1
 62
     7
 10
159.17599999999999
 20
105.053
 30
0.0
 11
158.898
 21
105.053
 31
0.0
  0
LINE
  5
276
  8
_________1
 62
     7
 10
159.17599999999999
 20
104.499
 30
0.0
 11
158.898
 21
104.499
 31
0.0
  0
LINE
  5
277
  8
_________1
 62
     7
 10
159.17599999999999
 20
105.309
 30
0.0
 11
158.898
 21
105.309
 31
0.0
  0
LINE
  5
278
  8
_________1
 62
     7
 10
159.17599999999999
 20
104.242
 30
0.0
 11
158.898
 21
104.242
 31
0.0
  0
LINE
  5
279
  8
_________1
 62
     7
 10
158.834
 20
105.181
 30
0.0
 11
158.834
 21
104.371
 31
0.0
  0
LINE
  5
27A
  8
_________1
 62
     7
 10
158.898
 20
105.053
 30
0.0
 11
158.834
 21
104.776
 31
0.0
  0
LINE
  5
27B
  8
_________1
 62
     7
 10
158.834
 20
104.776
 30
0.0
 11
158.898
 21
104.499
 31
0.0
  0
LINE
  5
27C
  8
_________1
 62
     7
 10
158.834
 20
104.456
 30
0.0
 11
158.834
 21
104.371
 31
0.0
  0
LINE
  5
27D
  8
_________1
 62
     7
 10
158.834
 20
104.371
 30
0.0
 11
158.898
 21
104.499
 31
0.0
  0
LINE
  5
27E
  8
_________1
 62
     7
 10
158.834
 20
104.371
 30
0.0
 11
158.898
 21
104.242
 31
0.0
  0
LINE
  5
27F
  8
_________1
 62
     7
 10
158.898
 20
105.309
 30
0.0
 11
158.834
 21
105.181
 31
0.0
  0
LINE
  5
280
  8
_________1
 62
     7
 10
158.834
 20
105.181
 30
0.0
 11
158.898
 21
105.053
 31
0.0
  0
LINE
  5
281
  8
_________1
 62
     7
 10
159.88
 20
106.291
 30
0.0
 11
159.88
 21
103.261
 31
0.0
  0
LINE
  5
282
  8
_________1
 62
     7
 10
159.261
 20
103.325
 30
0.0
 11
159.261
 21
106.227
 31
0.0
  0
LINE
  5
283
  8
_________1
 62
     7
 10
159.60300000000001
 20
104.776
 30
0.0
 11
159.60300000000001
 21
106.41800000000001
 31
0.0
  0
LINE
  5
284
  8
_________1
 62
     7
 10
159.60300000000001
 20
106.291
 30
0.0
 11
159.60300000000001
 21
103.133
 31
0.0
  0
LINE
  5
285
  8
_________1
 62
     7
 10
159.261
 20
105.608
 30
0.0
 11
159.17599999999999
 21
105.608
 31
0.0
  0
LINE
  5
286
  8
_________1
 62
     7
 10
159.261
 20
103.943
 30
0.0
 11
159.17599999999999
 21
103.943
 31
0.0
  0
LINE
  5
287
  8
_________1
 62
     7
 10
159.17599999999999
 20
103.943
 30
0.0
 11
159.17599999999999
 21
105.608
 31
0.0
  0
LINE
  5
288
  8
_________1
 62
     7
 10
153.28999999999999
 20
108.01900000000001
 30
0.0
 11
153.26900000000001
 21
108.06100000000001
 31
0.0
  0
LINE
  5
289
  8
_________1
 62
     7
 10
153.28999999999999
 20
101.426
 30
0.0
 11
153.28999999999999
 21
108.01900000000001
 31
0.0
  0
LINE
  5
28A
  8
_________1
 62
     7
 10
153.28999999999999
 20
101.426
 30
0.0
 11
153.26900000000001
 21
101.384
 31
0.0
  0
LINE
  5
28B
  8
_________1
 62
     7
 10
153.26900000000001
 20
108.06100000000001
 30
0.0
 11
152.715
 21
108.06100000000001
 31
0.0
  0
LINE
  5
28C
  8
_________1
 62
     7
 10
153.26900000000001
 20
101.384
 30
0.0
 11
152.43700000000001
 21
101.384
 31
0.0
  0
LINE
  5
28D
  8
_________1
 62
     7
 10
153.50399999999999
 20
105.523
 30
0.0
 11
153.52500000000001
 21
105.458
 31
0.0
  0
LINE
  5
28E
  8
_________1
 62
     7
 10
153.52500000000001
 20
105.458
 30
0.0
 11
153.56700000000001
 21
105.437
 31
0.0
  0
LINE
  5
28F
  8
_________1
 62
     7
 10
153.50399999999999
 20
105.352
 30
0.0
 11
153.54599999999999
 21
105.437
 31
0.0
  0
LINE
  5
290
  8
_________1
 62
     7
 10
153.50399999999999
 20
105.288
 30
0.0
 11
153.54599999999999
 21
105.202
 31
0.0
  0
LINE
  5
291
  8
_________1
 62
     7
 10
153.54599999999999
 20
105.202
 30
0.0
 11
153.65299999999999
 21
105.181
 31
0.0
  0
LINE
  5
292
  8
_________1
 62
     7
 10
153.50399999999999
 20
105.352
 30
0.0
 11
153.50399999999999
 21
104.776
 31
0.0
  0
LINE
  5
293
  8
_________1
 62
     7
 10
153.65299999999999
 20
105.181
 30
0.0
 11
153.54599999999999
 21
104.989
 31
0.0
  0
LINE
  5
294
  8
_________1
 62
     7
 10
153.54599999999999
 20
104.989
 30
0.0
 11
153.50399999999999
 21
104.776
 31
0.0
  0
LINE
  5
295
  8
_________1
 62
     7
 10
153.50399999999999
 20
104.776
 30
0.0
 11
153.54599999999999
 21
104.562
 31
0.0
  0
LINE
  5
296
  8
_________1
 62
     7
 10
153.54599999999999
 20
104.562
 30
0.0
 11
153.65299999999999
 21
104.371
 31
0.0
  0
LINE
  5
297
  8
_________1
 62
     7
 10
153.50399999999999
 20
104.2
 30
0.0
 11
153.50399999999999
 21
104.776
 31
0.0
  0
LINE
  5
298
  8
_________1
 62
     7
 10
153.65299999999999
 20
104.371
 30
0.0
 11
153.54599999999999
 21
104.349
 31
0.0
  0
LINE
  5
299
  8
_________1
 62
     7
 10
153.54599999999999
 20
104.349
 30
0.0
 11
153.50399999999999
 21
104.264
 31
0.0
  0
LINE
  5
29A
  8
_________1
 62
     7
 10
153.56700000000001
 20
104.114
 30
0.0
 11
156.767
 21
104.114
 31
0.0
  0
LINE
  5
29B
  8
_________1
 62
     7
 10
153.50399999999999
 20
104.2
 30
0.0
 11
153.54599999999999
 21
104.114
 31
0.0
  0
LINE
  5
29C
  8
_________1
 62
     7
 10
153.56700000000001
 20
104.114
 30
0.0
 11
153.52500000000001
 21
104.09399999999999
 31
0.0
  0
LINE
  5
29D
  8
_________1
 62
     7
 10
153.52500000000001
 20
104.09399999999999
 30
0.0
 11
153.50399999999999
 21
104.029
 31
0.0
  0
LINE
  5
29E
  8
_________1
 62
     7
 10
153.56700000000001
 20
105.437
 30
0.0
 11
156.767
 21
105.437
 31
0.0
  0
LINE
  5
29F
  8
_________1
 62
     7
 10
156.83099999999999
 20
104.2
 30
0.0
 11
156.767
 21
104.114
 31
0.0
  0
LINE
  5
2A0
  8
_________1
 62
     7
 10
156.83099999999999
 20
104.264
 30
0.0
 11
156.767
 21
104.349
 31
0.0
  0
LINE
  5
2A1
  8
_________1
 62
     7
 10
156.767
 20
104.349
 30
0.0
 11
156.66
 21
104.371
 31
0.0
  0
LINE
  5
2A2
  8
_________1
 62
     7
 10
156.66
 20
104.371
 30
0.0
 11
156.78800000000001
 21
104.562
 31
0.0
  0
LINE
  5
2A3
  8
_________1
 62
     7
 10
156.78800000000001
 20
104.562
 30
0.0
 11
156.83099999999999
 21
104.776
 31
0.0
  0
LINE
  5
2A4
  8
_________1
 62
     7
 10
156.83099999999999
 20
104.776
 30
0.0
 11
156.83099999999999
 21
104.2
 31
0.0
  0
LINE
  5
2A5
  8
_________1
 62
     7
 10
156.83099999999999
 20
105.352
 30
0.0
 11
156.83099999999999
 21
104.776
 31
0.0
  0
LINE
  5
2A6
  8
_________1
 62
     7
 10
156.83099999999999
 20
104.776
 30
0.0
 11
156.78800000000001
 21
104.989
 31
0.0
  0
LINE
  5
2A7
  8
_________1
 62
     7
 10
156.78800000000001
 20
104.989
 30
0.0
 11
156.66
 21
105.181
 31
0.0
  0
LINE
  5
2A8
  8
_________1
 62
     7
 10
156.66
 20
105.181
 30
0.0
 11
156.767
 21
105.202
 31
0.0
  0
LINE
  5
2A9
  8
_________1
 62
     7
 10
156.767
 20
105.202
 30
0.0
 11
156.83099999999999
 21
105.288
 31
0.0
  0
LINE
  5
2AA
  8
_________1
 62
     7
 10
156.83099999999999
 20
105.352
 30
0.0
 11
156.767
 21
105.437
 31
0.0
  0
LINE
  5
2AB
  8
_________1
 62
     7
 10
153.46100000000001
 20
104.776
 30
0.0
 11
153.46100000000001
 21
106.78100000000001
 31
0.0
  0
LINE
  5
2AC
  8
_________1
 62
     7
 10
153.46100000000001
 20
106.78100000000001
 30
0.0
 11
153.333
 21
106.78100000000001
 31
0.0
  0
LINE
  5
2AD
  8
_________1
 62
     7
 10
153.50399999999999
 20
106.739
 30
0.0
 11
153.46100000000001
 21
106.78100000000001
 31
0.0
  0
LINE
  5
2AE
  8
_________1
 62
     7
 10
153.28999999999999
 20
106.739
 30
0.0
 11
153.333
 21
106.78100000000001
 31
0.0
  0
LINE
  5
2AF
  8
_________1
 62
     7
 10
153.333
 20
106.78100000000001
 30
0.0
 11
153.333
 21
104.776
 31
0.0
  0
LINE
  5
2B0
  8
_________1
 62
     7
 10
153.50399999999999
 20
106.739
 30
0.0
 11
153.50399999999999
 21
102.813
 31
0.0
  0
LINE
  5
2B1
  8
_________1
 62
     7
 10
153.333
 20
104.776
 30
0.0
 11
153.333
 21
102.771
 31
0.0
  0
LINE
  5
2B2
  8
_________1
 62
     7
 10
153.333
 20
102.771
 30
0.0
 11
153.28999999999999
 21
102.813
 31
0.0
  0
LINE
  5
2B3
  8
_________1
 62
     7
 10
153.50399999999999
 20
102.813
 30
0.0
 11
153.46100000000001
 21
102.771
 31
0.0
  0
LINE
  5
2B4
  8
_________1
 62
     7
 10
153.46100000000001
 20
102.771
 30
0.0
 11
153.333
 21
102.771
 31
0.0
  0
LINE
  5
2B5
  8
_________1
 62
     7
 10
153.46100000000001
 20
102.771
 30
0.0
 11
153.46100000000001
 21
104.776
 31
0.0
  0
LINE
  5
2B6
  8
_________1
 62
     7
 10
153.65299999999999
 20
105.181
 30
0.0
 11
156.66
 21
105.181
 31
0.0
  0
LINE
  5
2B7
  8
_________1
 62
     7
 10
153.65299999999999
 20
104.371
 30
0.0
 11
156.66
 21
104.371
 31
0.0
  0
LINE
  5
2B8
  8
_________1
 62
     7
 10
153.28999999999999
 20
102.813
 30
0.0
 11
153.28999999999999
 21
106.739
 31
0.0
  0
ARC
  5
2B9
  8
_________1
 62
     7
 10
78.870373999999998
 20
133.17993200000001
 30
0.0
 40
1.2691639999999991
 50
94.597470000000001
 51
119.656554
  0
ARC
  5
2BA
  8
_________1
 62
     7
 10
78.888992000000002
 20
133.463435
 30
0.0
 40
1.0438019999999999
 50
128.277118
 51
253.34269599999999
  0
ARC
  5
2BB
  8
_________1
 62
     7
 10
78.855897999999996
 20
133.79750100000001
 30
0.0
 40
1.360349
 50
258.71917200000001
 51
266.32250199999999
  0
ARC
  5
2BC
  8
_________1
 62
     7
 10
78.685628000000008
 20
133.70113699999999
 30
0.0
 40
1.2639119999999999
 50
273.76604200000003
 51
298.88710400000002
  0
ARC
  5
2BD
  8
_________1
 62
     7
 10
78.680482999999995
 20
133.429419
 30
0.0
 40
1.0374110000000001
 50
306.407059
 51
64.150431000000012
  0
ARC
  5
2BE
  8
_________1
 62
     7
 10
78.683156000000011
 20
133.21551299999999
 30
0.0
 40
1.2324679999999999
 50
68.602541999999985
 51
86.022567000000009
  0
ARC
  5
2BF
  8
_________1
 62
     7
 10
75.527118999999999
 20
133.199748
 30
0.0
 40
1.2482619999999991
 50
93.971627999999995
 51
119.54095
  0
ARC
  5
2C0
  8
_________1
 62
     7
 10
75.560911000000004
 20
133.464111
 30
0.0
 40
1.0471820000000001
 50
128.315394
 51
253.510188
  0
ARC
  5
2C1
  8
_________1
 62
     7
 10
75.498138999999995
 20
133.73875699999999
 30
0.0
 40
1.3000739999999991
 50
259.60997900000001
 51
267.466047
  0
ARC
  5
2C2
  8
_________1
 62
     7
 10
75.360926000000006
 20
133.675017
 30
0.0
 40
1.2376339999999999
 50
273.69386700000001
 51
299.02712400000001
  0
ARC
  5
2C3
  8
_________1
 62
     7
 10
75.332255000000004
 20
133.422608
 30
0.0
 40
1.041347
 50
307.17254600000001
 51
69.185826000000006
  0
ARC
  5
2C4
  8
_________1
 62
     7
 10
75.330212000000003
 20
133.13280399999999
 30
0.0
 40
1.316848999999999
 50
73.587620000000001
 51
85.188710999999998
  0
ARC
  5
2C5
  8
_________1
 62
     7
 10
72.187337999999997
 20
133.19554099999999
 30
0.0
 40
1.2517
 50
93.419546999999994
 51
119.100218
  0
ARC
  5
2C6
  8
_________1
 62
     7
 10
72.234374000000003
 20
133.47219699999999
 30
0.0
 40
1.0476700000000001
 50
128.751746
 51
258.24771900000002
  0
ARC
  5
2C7
  8
_________1
 62
     7
 10
72.165325999999993
 20
133.82523599999999
 30
0.0
 40
1.386282
 50
264.02344199999999
 51
267.82351199999999
  0
ARC
  5
2C8
  8
_________1
 62
     7
 10
72.046334000000002
 20
133.64095
 30
0.0
 40
1.2028270000000001
 50
273.161833
 51
299.04228499999999
  0
ARC
  5
2C9
  8
_________1
 62
     7
 10
72.105268999999993
 20
133.43509900000001
 30
0.0
 40
0.9954270000000001
 50
301.82966699999997
 51
11.374962999999999
  0
ARC
  5
2CA
  8
_________1
 62
     7
 10
72.086068000000012
 20
133.42381700000001
 30
0.0
 40
1.016502
 50
11.784945
 51
80.036258000000004
  0
ARC
  5
2CB
  8
_________1
 62
     7
 10
72.006771000000001
 20
133.08918700000001
 30
0.0
 40
1.359955
 50
79.185116000000008
 51
85.533557999999999
  0
ARC
  5
2CC
  8
_________1
 62
     7
 10
68.876675000000006
 20
133.16715199999999
 30
0.0
 40
1.282877
 50
95.068607999999998
 51
119.945644
  0
ARC
  5
2CD
  8
_________1
 62
     7
 10
68.890080000000012
 20
133.46484899999999
 30
0.0
 40
1.0439819999999991
 50
128.77363500000001
 51
254.738078
  0
ARC
  5
2CE
  8
_________1
 62
     7
 10
68.850329999999985
 20
133.793453
 30
0.0
 40
1.3562920000000001
 50
260.01964900000002
 51
266.32242500000001
  0
ARC
  5
2CF
  8
_________1
 62
     7
 10
68.684069999999991
 20
133.713268
 30
0.0
 40
1.2757789999999991
 50
273.56213700000001
 51
298.59983099999999
  0
ARC
  5
2D0
  8
_________1
 62
     7
 10
68.673537999999994
 20
133.42461499999999
 30
0.0
 40
1.037911
 50
306.76555999999999
 51
68.489304000000004
  0
ARC
  5
2D1
  8
_________1
 62
     7
 10
68.668386999999996
 20
133.14182700000001
 30
0.0
 40
1.30664
 50
72.830185999999998
 51
85.832902999999988
  0
ARC
  5
2D2
  8
_________1
 62
     7
 10
65.536732000000001
 20
133.18049199999999
 30
0.0
 40
1.268605999999999
 50
94.599250999999995
 51
119.663352
  0
ARC
  5
2D3
  8
_________1
 62
     7
 10
65.555541000000005
 20
133.46342899999999
 30
0.0
 40
1.0438359999999991
 50
128.278941
 51
253.33531199999999
  0
ARC
  5
2D4
  8
_________1
 62
     7
 10
65.522233
 20
133.79674499999999
 30
0.0
 40
1.359591999999999
 50
258.71606300000002
 51
266.32160399999998
  0
ARC
  5
2D5
  8
_________1
 62
     7
 10
65.351990000000001
 20
133.70113699999999
 30
0.0
 40
1.2639119999999999
 50
273.76604200000003
 51
298.88710400000002
  0
ARC
  5
2D6
  8
_________1
 62
     7
 10
65.346845000000002
 20
133.429419
 30
0.0
 40
1.0374110000000001
 50
306.407059
 51
64.150431000000012
  0
ARC
  5
2D7
  8
_________1
 62
     7
 10
65.349519000000001
 20
133.21551299999999
 30
0.0
 40
1.2324679999999999
 50
68.602541999999985
 51
86.022567000000009
  0
ARC
  5
2D8
  8
_________1
 62
     7
 10
62.209203000000002
 20
133.15611000000001
 30
0.0
 40
1.2929189999999999
 50
94.517486000000005
 51
119.372557
  0
ARC
  5
2D9
  8
_________1
 62
     7
 10
62.218541000000002
 20
133.46332100000001
 30
0.0
 40
1.0419549999999991
 50
128.14005499999999
 51
253.766761
  0
ARC
  5
2DA
  8
_________1
 62
     7
 10
62.19130899999999
 20
133.81668400000001
 30
0.0
 40
1.379286
 50
258.96343100000001
 51
266.51096000000001
  0
ARC
  5
2DB
  8
_________1
 62
     7
 10
62.027653000000001
 20
133.67450700000001
 30
0.0
 40
1.237123999999999
 50
273.69449500000002
 51
299.03321899999997
  0
ARC
  5
2DC
  8
_________1
 62
     7
 10
61.998743999999988
 20
133.42261500000001
 30
0.0
 40
1.041415999999999
 50
307.17690299999998
 51
69.174765000000008
  0
ARC
  5
2DD
  8
_________1
 62
     7
 10
61.996906000000003
 20
133.132777
 30
0.0
 40
1.3168770000000001
 50
73.587645999999992
 51
85.188259000000016
  0
LINE
  5
2DE
  8
_________1
 62
     7
 10
49.840299999999999
 20
117.72
 30
0.0
 11
49.6267
 21
118.33799999999999
 31
0.0
  0
LINE
  5
2DF
  8
_________1
 62
     7
 10
49.413800000000002
 20
118.893
 30
0.0
 11
49.200600000000001
 21
119.512
 31
0.0
  0
LINE
  5
2E0
  8
_________1
 62
     7
 10
49.200600000000001
 20
134.03999999999999
 30
0.0
 11
49.413800000000002
 21
134.65899999999999
 31
0.0
  0
LINE
  5
2E1
  8
_________1
 62
     7
 10
49.6267
 20
135.23500000000001
 30
0.0
 11
49.840299999999999
 21
135.85300000000001
 31
0.0
  0
LINE
  5
2E2
  8
_________1
 62
     7
 10
91.035300000000007
 20
117.72
 30
0.0
 11
91.248900000000006
 21
118.33799999999999
 31
0.0
  0
LINE
  5
2E3
  8
_________1
 62
     7
 10
91.461799999999997
 20
118.893
 30
0.0
 11
91.675399999999996
 21
119.512
 31
0.0
  0
LINE
  5
2E4
  8
_________1
 62
     7
 10
91.675399999999996
 20
134.03999999999999
 30
0.0
 11
91.461799999999997
 21
134.65899999999999
 31
0.0
  0
LINE
  5
2E5
  8
_________1
 62
     7
 10
91.248900000000006
 20
135.23500000000001
 30
0.0
 11
91.035300000000007
 21
135.85300000000001
 31
0.0
  0
LINE
  5
2E6
  8
_________1
 62
     7
 10
73.584400000000002
 20
171.011
 30
0.0
 11
72.005899999999997
 21
171.07499999999999
 31
0.0
  0
LINE
  5
2E7
  8
_________1
 62
     7
 10
72.005899999999997
 20
171.07499999999999
 30
0.0
 11
70.426999999999992
 21
171.11699999999999
 31
0.0
  0
LINE
  5
2E8
  8
_________1
 62
     7
 10
70.426999999999992
 20
171.11699999999999
 30
0.0
 11
68.869799999999998
 21
171.07499999999999
 31
0.0
  0
LINE
  5
2E9
  8
_________1
 62
     7
 10
68.869799999999998
 20
171.07499999999999
 30
0.0
 11
67.291200000000003
 21
171.011
 31
0.0
  0
LINE
  5
2EA
  8
_________1
 62
     7
 10
73.840699999999998
 20
176.28
 30
0.0
 11
72.134
 21
176.387
 31
0.0
  0
LINE
  5
2EB
  8
_________1
 62
     7
 10
72.134
 20
176.387
 30
0.0
 11
70.426999999999992
 21
176.40799999999999
 31
0.0
  0
LINE
  5
2EC
  8
_________1
 62
     7
 10
70.426999999999992
 20
176.40799999999999
 30
0.0
 11
68.742000000000004
 21
176.387
 31
0.0
  0
LINE
  5
2ED
  8
_________1
 62
     7
 10
68.742000000000004
 20
176.387
 30
0.0
 11
67.034899999999993
 21
176.28
 31
0.0
  0
LINE
  5
2EE
  8
_________1
 62
     7
 10
73.520399999999995
 20
178.69
 30
0.0
 11
71.984499999999997
 21
178.755
 31
0.0
  0
LINE
  5
2EF
  8
_________1
 62
     7
 10
71.984499999999997
 20
178.755
 30
0.0
 11
70.426999999999992
 21
178.77600000000001
 31
0.0
  0
LINE
  5
2F0
  8
_________1
 62
     7
 10
70.426999999999992
 20
178.77600000000001
 30
0.0
 11
68.891099999999994
 21
178.755
 31
0.0
  0
LINE
  5
2F1
  8
_________1
 62
     7
 10
68.891099999999994
 20
178.755
 30
0.0
 11
67.355000000000004
 21
178.69
 31
0.0
  0
ARC
  5
2F2
  8
_________1
 62
     7
 10
-39.278560999999989
 20
237.594235
 30
0.0
 40
193.09917300000001
 50
356.59280999999999
 51
3.4071899999999991
  0
ARC
  5
2F3
  8
_________1
 62
     7
 10
-56.799084999999991
 20
237.59440699999999
 30
0.0
 40
210.270915
 50
356.87712900000002
 51
3.1228709999999991
  0
LINE
  5
2F4
  8
_________1
 62
     7
 10
126.55200000000001
 20
212.59399999999999
 30
0.0
 11
126.55200000000001
 21
262.59500000000003
 31
0.0
  0
LINE
  5
2F5
  8
_________1
 62
     7
 10
124.547
 20
213.81
 30
0.0
 11
124.547
 21
261.35700000000003
 31
0.0
  0
ARC
  5
2F6
  8
_________1
 62
     7
 10
244.68329499999999
 20
237.58372700000001
 30
0.0
 40
123.794133
 50
169.6916159999999
 51
190.30838399999999
  0
ARC
  5
2F7
  8
_________1
 62
     7
 10
147.3299899999999
 20
226.767267
 30
0.0
 40
6.0073270000000001
 50
282.98242499999998
 51
312.85988300000002
  0
ARC
  5
2F8
  8
_________1
 62
     7
 10
147.46304699999999
 20
226.479423
 30
0.0
 40
5.706669999999999
 50
313.84647799999999
 51
356.58401900000001
  0
LINE
  5
2F9
  8
_________1
 62
     7
 10
148.68000000000001
 20
220.91300000000001
 30
0.0
 11
126.616
 21
216.178
 31
0.0
  0
LINE
  5
2FA
  8
_________1
 62
     7
 10
134.18799999999999
 20
217.79900000000001
 30
0.0
 11
137.11199999999999
 21
218.24700000000001
 31
0.0
  0
LINE
  5
2FB
  8
_________1
 62
     7
 10
137.11199999999999
 20
218.24700000000001
 30
0.0
 11
137.28200000000001
 21
218.31100000000001
 31
0.0
  0
LINE
  5
2FC
  8
_________1
 62
     7
 10
137.28200000000001
 20
218.31100000000001
 30
0.0
 11
137.43100000000001
 21
218.39599999999999
 31
0.0
  0
LINE
  5
2FD
  8
_________1
 62
     7
 10
137.43100000000001
 20
218.39599999999999
 30
0.0
 11
137.559
 21
218.524
 31
0.0
  0
LINE
  5
2FE
  8
_________1
 62
     7
 10
126.55200000000001
 20
215.43100000000001
 30
0.0
 11
127.61799999999999
 21
215.751
 31
0.0
  0
LINE
  5
2FF
  8
_________1
 62
     7
 10
123.122
 20
215.98599999999999
 30
0.0
 11
122.973
 21
215.83600000000001
 31
0.0
  0
LINE
  5
300
  8
_________1
 62
     7
 10
122.973
 20
215.83600000000001
 30
0.0
 11
122.90900000000001
 21
215.64500000000001
 31
0.0
  0
LINE
  5
301
  8
_________1
 62
     7
 10
122.90900000000001
 20
215.64500000000001
 30
0.0
 11
122.887
 21
215.43100000000001
 31
0.0
  0
ARC
  5
302
  8
_________1
 62
     7
 10
123.333063
 20
213.37055100000001
 30
0.0
 40
1.299882999999999
 50
357.74574200000001
 51
20.750906000000001
  0
ARC
  5
303
  8
_________1
 62
     7
 10
122.92962900000001
 20
213.224581
 30
0.0
 40
1.7288769999999991
 50
20.537561
 51
74.165607999999992
  0
ARC
  5
304
  8
_________1
 62
     7
 10
123.100708
 20
213.64974799999999
 30
0.0
 40
1.274089
 50
76.350689000000003
 51
85.181607000000014
  0
LINE
  5
305
  8
_________1
 62
     7
 10
122.887
 20
215.43100000000001
 30
0.0
 11
122.93000000000001
 21
215.239
 31
0.0
  0
LINE
  5
306
  8
_________1
 62
     7
 10
122.93000000000001
 20
215.239
 30
0.0
 11
123.03700000000001
 21
215.047
 31
0.0
  0
LINE
  5
307
  8
_________1
 62
     7
 10
123.03700000000001
 20
215.047
 30
0.0
 11
123.208
 21
214.91900000000001
 31
0.0
  0
LINE
  5
308
  8
_________1
 62
     7
 10
126.55200000000001
 20
212.59399999999999
 30
0.0
 11
125.27200000000001
 21
212.679
 31
0.0
  0
ARC
  5
309
  8
_________1
 62
     7
 10
125.55548899999999
 20
213.431014
 30
0.0
 40
0.9302659999999999
 50
186.889668
 51
205.30455900000001
  0
ARC
  5
30A
  8
_________1
 62
     7
 10
125.280079
 20
213.32477900000001
 30
0.0
 40
0.636243
 50
207.25703999999999
 51
257.15087599999998
  0
ARC
  5
30B
  8
_________1
 62
     7
 10
125.388272
 20
213.66275400000001
 30
0.0
 40
0.9902799999999999
 50
255.39612399999999
 51
263.25967500000002
  0
LINE
  5
30C
  8
_________1
 62
     7
 10
127.61799999999999
 20
215.751
 30
0.0
 11
128.51400000000001
 21
216.071
 31
0.0
  0
LINE
  5
30D
  8
_________1
 62
     7
 10
128.51400000000001
 20
216.071
 30
0.0
 11
129.36699999999999
 21
216.477
 31
0.0
  0
LINE
  5
30E
  8
_________1
 62
     7
 10
129.36699999999999
 20
216.477
 30
0.0
 11
130.179
 21
216.946
 31
0.0
  0
LINE
  5
30F
  8
_________1
 62
     7
 10
123.122
 20
215.98599999999999
 30
0.0
 11
124.547
 21
217.351
 31
0.0
  0
LINE
  5
310
  8
_________1
 62
     7
 10
153.47900000000001
 20
226.11799999999999
 30
0.0
 11
153.16
 21
226.13900000000001
 31
0.0
  0
LINE
  5
311
  8
_________1
 62
     7
 10
154.39699999999999
 20
235.71700000000001
 30
0.0
 11
154.39699999999999
 21
239.44999999999999
 31
0.0
  0
LINE
  5
312
  8
_________1
 62
     7
 10
154.05500000000001
 20
234.971
 30
0.0
 11
154.24799999999999
 21
235.184
 31
0.0
  0
LINE
  5
313
  8
_________1
 62
     7
 10
154.24799999999999
 20
235.184
 30
0.0
 11
154.35400000000001
 21
235.44
 31
0.0
  0
LINE
  5
314
  8
_________1
 62
     7
 10
154.35400000000001
 20
235.44
 30
0.0
 11
154.39699999999999
 21
235.71700000000001
 31
0.0
  0
LINE
  5
315
  8
_________1
 62
     7
 10
153.80000000000001
 20
234.73599999999999
 30
0.0
 11
154.05500000000001
 21
234.971
 31
0.0
  0
LINE
  5
316
  8
_________1
 62
     7
 10
153.80000000000001
 20
240.453
 30
0.0
 11
154.05500000000001
 21
240.197
 31
0.0
  0
LINE
  5
317
  8
_________1
 62
     7
 10
154.39699999999999
 20
239.44999999999999
 30
0.0
 11
154.35400000000001
 21
239.72800000000001
 31
0.0
  0
LINE
  5
318
  8
_________1
 62
     7
 10
154.35400000000001
 20
239.72800000000001
 30
0.0
 11
154.24799999999999
 21
239.98400000000001
 31
0.0
  0
LINE
  5
319
  8
_________1
 62
     7
 10
154.24799999999999
 20
239.98400000000001
 30
0.0
 11
154.05500000000001
 21
240.197
 31
0.0
  0
LINE
  5
31A
  8
_________1
 62
     7
 10
148.68000000000001
 20
254.25399999999999
 30
0.0
 11
126.616
 21
258.99000000000001
 31
0.0
  0
ARC
  5
31B
  8
_________1
 62
     7
 10
147.3624889999999
 20
248.589787
 30
0.0
 40
5.815281999999999
 50
4.5333389999999989
 51
76.909931
  0
LINE
  5
31C
  8
_________1
 62
     7
 10
153.16
 20
249.04900000000001
 30
0.0
 11
153.47900000000001
 21
249.06999999999999
 31
0.0
  0
LINE
  5
31D
  8
_________1
 62
     7
 10
137.559
 20
256.64299999999997
 30
0.0
 11
137.43100000000001
 21
256.7709999999999
 31
0.0
  0
LINE
  5
31E
  8
_________1
 62
     7
 10
137.43100000000001
 20
256.7709999999999
 30
0.0
 11
137.28200000000001
 21
256.87799999999999
 31
0.0
  0
LINE
  5
31F
  8
_________1
 62
     7
 10
137.28200000000001
 20
256.87799999999999
 30
0.0
 11
137.11199999999999
 21
256.92000000000002
 31
0.0
  0
LINE
  5
320
  8
_________1
 62
     7
 10
137.11199999999999
 20
256.92000000000002
 30
0.0
 11
134.18799999999999
 21
257.36900000000003
 31
0.0
  0
ARC
  5
321
  8
_________1
 62
     7
 10
122.930435
 20
261.949862
 30
0.0
 40
1.7241859999999991
 50
279.25484799999998
 51
345.56509499999999
  0
ARC
  5
322
  8
_________1
 62
     7
 10
123.239947
 20
261.81725699999998
 30
0.0
 40
1.392333
 50
347.67513500000001
 51
1.2665399999999991
  0
LINE
  5
323
  8
_________1
 62
     7
 10
123.208
 20
260.24799999999999
 30
0.0
 11
123.03700000000001
 21
260.12
 31
0.0
  0
LINE
  5
324
  8
_________1
 62
     7
 10
123.03700000000001
 20
260.12
 30
0.0
 11
122.93000000000001
 21
259.94999999999999
 31
0.0
  0
LINE
  5
325
  8
_________1
 62
     7
 10
122.93000000000001
 20
259.94999999999999
 30
0.0
 11
122.887
 21
259.73599999999999
 31
0.0
  0
LINE
  5
326
  8
_________1
 62
     7
 10
123.208
 20
260.24799999999999
 30
0.0
 11
123.01600000000001
 21
260.09899999999999
 31
0.0
  0
LINE
  5
327
  8
_________1
 62
     7
 10
123.01600000000001
 20
260.09899999999999
 30
0.0
 11
122.90900000000001
 21
259.86399999999998
 31
0.0
  0
LINE
  5
328
  8
_________1
 62
     7
 10
126.55200000000001
 20
259.75799999999998
 30
0.0
 11
127.61799999999999
 21
259.43700000000001
 31
0.0
  0
LINE
  5
329
  8
_________1
 62
     7
 10
123.122
 20
259.18200000000002
 30
0.0
 11
124.547
 21
257.83800000000002
 31
0.0
  0
LINE
  5
32A
  8
_________1
 62
     7
 10
122.887
 20
259.73599999999999
 30
0.0
 11
122.90900000000001
 21
259.54399999999998
 31
0.0
  0
LINE
  5
32B
  8
_________1
 62
     7
 10
122.90900000000001
 20
259.54399999999998
 30
0.0
 11
122.973
 21
259.35199999999998
 31
0.0
  0
LINE
  5
32C
  8
_________1
 62
     7
 10
122.973
 20
259.35199999999998
 30
0.0
 11
123.122
 21
259.18200000000002
 31
0.0
  0
LINE
  5
32D
  8
_________1
 62
     7
 10
130.179
 20
258.24299999999999
 30
0.0
 11
129.36699999999999
 21
258.71199999999999
 31
0.0
  0
LINE
  5
32E
  8
_________1
 62
     7
 10
129.36699999999999
 20
258.71199999999999
 30
0.0
 11
128.51400000000001
 21
259.11799999999999
 31
0.0
  0
LINE
  5
32F
  8
_________1
 62
     7
 10
128.51400000000001
 20
259.11799999999999
 30
0.0
 11
127.61799999999999
 21
259.43700000000001
 31
0.0
  0
ARC
  5
330
  8
_________1
 62
     7
 10
126.308302
 20
264.081885
 30
0.0
 40
1.507056999999999
 50
274.98549700000001
 51
279.28889400000003
  0
ARC
  5
331
  8
_________1
 62
     7
 10
126.176756
 20
265.54645299999999
 30
0.0
 40
2.977519
 50
271.65233599999999
 51
275.058089
  0
ARC
  5
332
  8
_________1
 62
     7
 10
127.951487
 20
182.65578500000001
 30
0.0
 40
79.932231000000002
 50
91.210673999999983
 51
91.721089999999975
  0
ARC
  5
333
  8
_________1
 62
     7
 10
125.720516
 20
260.23296699999997
 30
0.0
 40
2.3251930000000001
 50
94.186374000000015
 51
101.807931
  0
ARC
  5
334
  8
_________1
 62
     7
 10
125.49189
 20
261.37692099999998
 30
0.0
 40
1.1587080000000001
 50
102.31731000000001
 51
114.6776629999999
  0
ARC
  5
335
  8
_________1
 62
     7
 10
125.292642
 20
261.83801399999999
 30
0.0
 40
0.656637
 50
115.67777700000001
 51
172.381032
  0
ARC
  5
336
  8
_________1
 62
     7
 10
125.701938
 20
261.77602100000001
 30
0.0
 40
1.070562999999999
 50
171.99677199999999
 51
181.862132
  0
ARC
  5
337
  8
_________1
 62
     7
 10
8.4185699999999972
 20
126.848894
 30
0.0
 40
43.429257
 50
4.0580559999999988
 51
8.6467159999999996
  0
ARC
  5
338
  8
_________1
 62
     7
 10
19.026325
 20
128.34041099999999
 30
0.0
 40
32.718052
 50
8.8572469999999992
 51
15.977703
  0
LINE
  5
339
  8
_________1
 62
     7
 10
90.075500000000005
 20
119.98099999999999
 30
0.0
 11
90.437899999999985
 21
118.57299999999999
 31
0.0
  0
LINE
  5
33A
  8
_________1
 62
     7
 10
90.437899999999985
 20
118.57299999999999
 30
0.0
 11
90.885800000000003
 21
117.18600000000001
 31
0.0
  0
ARC
  5
33B
  8
_________1
 62
     7
 10
62.180475999999999
 20
104.633223
 30
0.0
 40
11.143041
 50
175.120091
 51
263.13490000000002
  0
ARC
  5
33C
  8
_________1
 62
     7
 10
71.332370999999995
 20
102.66723500000001
 30
0.0
 40
23.578531000000002
 50
182.19891100000001
 51
267.79937699999999
  0
ARC
  5
33D
  8
_________1
 62
     7
 10
69.541822999999994
 20
102.669567
 30
0.0
 40
23.580093000000002
 50
272.15130599999998
 51
357.79558300000002
  0
LINE
  5
33E
  8
_________1
 62
     7
 10
77.126000000000005
 20
92.908600000000007
 30
0.0
 11
78.491299999999995
 21
93.164899999999989
 31
0.0
  0
LINE
  5
33F
  8
_________1
 62
     7
 10
78.491299999999995
 20
93.164899999999989
 30
0.0
 11
79.8566
 21
93.506
 31
0.0
  0
LINE
  5
340
  8
_________1
 62
     7
 10
79.8566
 20
93.506
 30
0.0
 11
81.200900000000004
 21
93.954499999999996
 31
0.0
  0
LINE
  5
341
  8
_________1
 62
     7
 10
78.342100000000002
 20
99.223500000000016
 30
0.0
 11
79.749799999999993
 21
99.543899999999994
 31
0.0
  0
LINE
  5
342
  8
_________1
 62
     7
 10
79.749799999999993
 20
99.543899999999994
 30
0.0
 11
81.136499999999984
 21
99.991799999999998
 31
0.0
  0
ARC
  5
343
  8
_________1
 62
     7
 10
78.130628000000002
 20
101.942532
 30
0.0
 40
8.5577119999999987
 50
291.02482099999997
 51
337.05843299999998
  0
ARC
  5
344
  8
_________1
 62
     7
 10
78.584811999999985
 20
101.61134800000001
 30
0.0
 40
8.0113810000000001
 50
337.97355399999998
 51
346.14381300000002
  0
ARC
  5
345
  8
_________1
 62
     7
 10
78.734256999999999
 20
104.601445
 30
0.0
 40
11.106877000000001
 50
276.68464
 51
5.0603689999999997
  0
LINE
  5
346
  8
_________1
 62
     7
 10
86.363099999999989
 20
99.692700000000016
 30
0.0
 11
86.640699999999995
 21
100.866
 31
0.0
  0
LINE
  5
347
  8
_________1
 62
     7
 10
86.640699999999995
 20
100.866
 30
0.0
 11
86.832599999999999
 21
102.08199999999999
 31
0.0
  0
ARC
  5
348
  8
_________1
 62
     7
 10
79.378399000000002
 20
105.243583
 30
0.0
 40
5.5382610000000003
 50
288.50828000000001
 51
310.44365499999998
  0
ARC
  5
349
  8
_________1
 62
     7
 10
79.025740999999996
 20
105.755617
 30
0.0
 40
6.1570410000000004
 50
309.85023100000012
 51
335.85015399999997
  0
ARC
  5
34A
  8
_________1
 62
     7
 10
79.853627000000003
 20
105.324313
 30
0.0
 40
5.2254440000000004
 50
336.45156100000003
 51
347.50906600000002
  0
ARC
  5
34B
  8
_________1
 62
     7
 10
62.475045999999999
 20
101.74346799999999
 30
0.0
 40
8.2433029999999992
 50
194.40508500000001
 51
224.9698609999999
  0
ARC
  5
34C
  8
_________1
 62
     7
 10
62.593056000000011
 20
101.78442
 30
0.0
 40
8.355912
 50
224.596644
 51
249.56121099999999
  0
ARC
  5
34D
  8
_________1
 62
     7
 10
70.438006000000001
 20
140.58589599999999
 30
0.0
 40
48.144083999999999
 50
262.014859
 51
277.98516100000001
  0
LINE
  5
34E
  8
_________1
 62
     7
 10
59.6751
 20
93.954499999999996
 30
0.0
 11
61.019100000000002
 21
93.506
 31
0.0
  0
LINE
  5
34F
  8
_________1
 62
     7
 10
61.019100000000002
 20
93.506
 30
0.0
 11
62.362999999999992
 21
93.164899999999989
 31
0.0
  0
LINE
  5
350
  8
_________1
 62
     7
 10
62.362999999999992
 20
93.164899999999989
 30
0.0
 11
63.75
 21
92.908600000000007
 31
0.0
  0
ARC
  5
351
  8
_________1
 62
     7
 10
70.427325999999994
 20
138.70594600000001
 30
0.0
 40
40.267938999999998
 50
258.66451000000001
 51
281.33551
  0
LINE
  5
352
  8
_________1
 62
     7
 10
54.042999999999999
 20
102.08199999999999
 30
0.0
 11
54.23490000000001
 21
100.866
 31
0.0
  0
LINE
  5
353
  8
_________1
 62
     7
 10
54.23490000000001
 20
100.866
 30
0.0
 11
54.490900000000003
 21
99.692700000000016
 31
0.0
  0
ARC
  5
354
  8
_________1
 62
     7
 10
62.597648
 20
105.90706900000001
 30
0.0
 40
6.8935759999999986
 50
194.38782900000001
 51
206.20460399999999
  0
ARC
  5
355
  8
_________1
 62
     7
 10
61.41669799999999
 20
105.39036
 30
0.0
 40
5.6061319999999988
 50
206.796143
 51
239.07163800000001
  0
ARC
  5
356
  8
_________1
 62
     7
 10
62.474702999999998
 20
107.00012700000001
 30
0.0
 40
7.5312130000000002
 50
238.461468
 51
248.00742099999999
  0
ARC
  5
357
  8
_________1
 62
     7
 10
63.668503999999999
 20
109.76831199999999
 30
0.0
 40
10.545260000000001
 50
247.625551
 51
253.973376
  0
ARC
  5
358
  8
_________1
 62
     7
 10
65.167252000000005
 20
114.738564
 30
0.0
 40
15.736264
 50
253.724737
 51
258.68333899999999
  0
ARC
  5
359
  8
_________1
 62
     7
 10
66.785984999999997
 20
122.220552
 30
0.0
 40
23.390733999999998
 50
258.3917009999999
 51
259.47298499999999
  0
ARC
  5
35A
  8
_________1
 62
     7
 10
62.173413000000011
 20
159.87851000000001
 30
0.0
 40
1.2350270000000001
 50
93.065418000000008
 51
118.844112
  0
ARC
  5
35B
  8
_________1
 62
     7
 10
62.216031999999991
 20
160.13120000000001
 30
0.0
 40
1.0464340000000001
 50
127.596853
 51
252.40064799999999
  0
ARC
  5
35C
  8
_________1
 62
     7
 10
62.173589
 20
160.41063299999999
 30
0.0
 40
1.3059449999999999
 50
257.89079700000002
 51
267.09346699999998
  0
ARC
  5
35D
  8
_________1
 62
     7
 10
62.030196999999987
 20
160.325425
 30
0.0
 40
1.2214979999999991
 50
273.62223399999999
 51
299.37604399999998
  0
ARC
  5
35E
  8
_________1
 62
     7
 10
61.978848999999997
 20
160.08302800000001
 30
0.0
 40
1.048308999999999
 50
308.35717900000009
 51
74.668218999999993
  0
ARC
  5
35F
  8
_________1
 62
     7
 10
62.024208999999992
 20
159.78329299999999
 30
0.0
 40
1.3310770000000001
 50
79.970151999999985
 51
86.418080000000003
  0
LINE
  5
360
  8
_________1
 62
     7
 10
50.971000000000011
 20
159.70400000000001
 30
0.0
 11
50.757800000000003
 21
152.25899999999999
 31
0.0
  0
LINE
  5
361
  8
_________1
 62
     7
 10
50.757800000000003
 20
152.25899999999999
 30
0.0
 11
50.587200000000003
 21
144.792
 31
0.0
  0
LINE
  5
362
  8
_________1
 62
     7
 10
50.587200000000003
 20
144.792
 30
0.0
 11
50.480400000000003
 21
137.346
 31
0.0
  0
ARC
  5
363
  8
_________1
 62
     7
 10
68.840539000000007
 20
159.891265
 30
0.0
 40
1.222944
 50
93.619476000000006
 51
119.358182
  0
ARC
  5
364
  8
_________1
 62
     7
 10
68.891323999999997
 20
160.13512299999999
 30
0.0
 40
1.0481830000000001
 50
128.349682
 51
254.69607099999999
  0
ARC
  5
365
  8
_________1
 62
     7
 10
68.846530999999999
 20
160.43522100000001
 30
0.0
 40
1.3314549999999989
 50
259.97121600000003
 51
266.41754300000002
  0
ARC
  5
366
  8
_________1
 62
     7
 10
68.697788000000003
 20
160.337729
 30
0.0
 40
1.233104999999999
 50
273.0470620000001
 51
298.85236200000003
  0
ARC
  5
367
  8
_________1
 62
     7
 10
68.654482000000002
 20
160.086894
 30
0.0
 40
1.0464500000000001
 50
307.590259
 51
72.395953000000006
  0
ARC
  5
368
  8
_________1
 62
     7
 10
68.696588000000006
 20
159.80704600000001
 30
0.0
 40
1.306430999999999
 50
77.876310000000004
 51
87.071403000000004
  0
ARC
  5
369
  8
_________1
 62
     7
 10
65.509169999999997
 20
159.884489
 30
0.0
 40
1.2295199999999999
 50
93.458109999999991
 51
119.171313
  0
ARC
  5
36A
  8
_________1
 62
     7
 10
65.554845999999984
 20
160.13301000000001
 30
0.0
 40
1.0472360000000001
 50
128.01588599999999
 51
253.47890000000001
  0
ARC
  5
36B
  8
_________1
 62
     7
 10
65.512623000000005
 20
160.42717300000001
 30
0.0
 40
1.323083999999999
 50
258.86227400000001
 51
266.63693999999998
  0
ARC
  5
36C
  8
_________1
 62
     7
 10
65.361294999999998
 20
160.33355499999999
 30
0.0
 40
1.2294
 50
273.43740700000001
 51
299.15786100000003
  0
ARC
  5
36D
  8
_________1
 62
     7
 10
65.315631999999994
 20
160.085093
 30
0.0
 40
1.0471109999999999
 50
307.99877400000003
 51
73.500557999999984
  0
ARC
  5
36E
  8
_________1
 62
     7
 10
65.357511000000002
 20
159.793824
 30
0.0
 40
1.320222999999999
 50
78.840964999999997
 51
86.634833999999998
  0
ARC
  5
36F
  8
_________1
 62
     7
 10
75.488759999999985
 20
159.92951400000001
 30
0.0
 40
1.1832339999999999
 50
92.329722000000004
 51
118.917022
  0
ARC
  5
370
  8
_________1
 62
     7
 10
75.423642999999998
 20
160.13120499999999
 30
0.0
 40
0.976044
 50
121.296797
 51
178.60958299999999
  0
ARC
  5
371
  8
_________1
 62
     7
 10
75.492043999999993
 20
160.14927499999999
 30
0.0
 40
1.044173
 50
179.691947
 51
267.17941000000002
  0
ARC
  5
372
  8
_________1
 62
     7
 10
75.363467
 20
160.326482
 30
0.0
 40
1.2225539999999999
 50
273.62016599999998
 51
299.36299600000001
  0
ARC
  5
373
  8
_________1
 62
     7
 10
75.312537000000006
 20
160.08302499999999
 30
0.0
 40
1.048219
 50
308.35121900000001
 51
74.686779999999999
  0
ARC
  5
374
  8
_________1
 62
     7
 10
75.357429999999994
 20
159.78213400000001
 30
0.0
 40
1.3322389999999991
 50
79.973996999999983
 51
86.418138999999996
  0
ARC
  5
375
  8
_________1
 62
     7
 10
78.842834999999994
 20
159.883848
 30
0.0
 40
1.2301610000000001
 50
93.457600999999997
 51
119.16359
  0
ARC
  5
376
  8
_________1
 62
     7
 10
78.888296999999994
 20
160.133016
 30
0.0
 40
1.0472030000000001
 50
128.01407900000001
 51
253.486242
  0
ARC
  5
377
  8
_________1
 62
     7
 10
78.846284999999995
 20
160.42791199999999
 30
0.0
 40
1.3238229999999991
 50
258.86535800000001
 51
266.63776100000001
  0
ARC
  5
378
  8
_________1
 62
     7
 10
78.694959999999995
 20
160.33291500000001
 30
0.0
 40
1.228758999999999
 50
273.43791299999998
 51
299.16558100000009
  0
ARC
  5
379
  8
_________1
 62
     7
 10
78.649081999999993
 20
160.08509900000001
 30
0.0
 40
1.0471440000000001
 50
308.0005799999999
 51
73.493217999999999
  0
ARC
  5
37A
  8
_________1
 62
     7
 10
78.691172999999992
 20
159.79455999999999
 30
0.0
 40
1.3194859999999999
 50
78.837874999999997
 51
86.634011999999998
  0
ARC
  5
37B
  8
_________1
 62
     7
 10
72.153576999999999
 20
159.91675599999999
 30
0.0
 40
1.195713
 50
91.960183999999984
 51
118.513977
  0
ARC
  5
37C
  8
_________1
 62
     7
 10
72.084815000000006
 20
160.13007200000001
 30
0.0
 40
0.976326
 50
120.944834
 51
178.54660100000001
  0
ARC
  5
37D
  8
_________1
 62
     7
 10
72.153762999999984
 20
160.15052800000001
 30
0.0
 40
1.044969
 50
179.763837
 51
267.74673100000001
  0
ARC
  5
37E
  8
_________1
 62
     7
 10
72.051811999999998
 20
160.28676299999989
 30
0.0
 40
1.181964
 50
272.95180699999997
 51
299.35707400000001
  0
ARC
  5
37F
  8
_________1
 62
     7
 10
72.116170999999994
 20
160.0899189999999
 30
0.0
 40
0.9796790000000001
 50
301.72098899999997
 51
359.79268400000012
  0
ARC
  5
380
  8
_________1
 62
     7
 10
72.053682999999992
 20
160.071169
 30
0.0
 40
1.042271999999999
 50
0.8358979999999998
 51
86.755183999999986
  0
ARC
  5
381
  8
_________1
 62
     7
 10
72.196999000000005
 20
157.242862
 30
0.0
 40
13.837496
 50
4.0090289999999991
 51
84.245491000000015
  0
ARC
  5
382
  8
_________1
 62
     7
 10
71.441756000000012
 20
158.34451899999999
 30
0.0
 40
20.451864
 50
357.113362
 51
84.166740999999988
  0
LINE
  5
383
  8
_________1
 62
     7
 10
90.395200000000017
 20
137.49600000000001
 30
0.0
 11
90.288799999999995
 21
144.898
 31
0.0
  0
LINE
  5
384
  8
_________1
 62
     7
 10
90.288799999999995
 20
144.898
 30
0.0
 11
90.117900000000006
 21
152.30099999999999
 31
0.0
  0
LINE
  5
385
  8
_________1
 62
     7
 10
90.117900000000006
 20
152.30099999999999
 30
0.0
 11
89.883300000000006
 21
159.70400000000001
 31
0.0
  0
ARC
  5
386
  8
_________1
 62
     7
 10
69.477141000000003
 20
158.308109
 30
0.0
 40
20.492552
 50
95.944087999999994
 51
182.77899899999991
  0
ARC
  5
387
  8
_________1
 62
     7
 10
68.716359999999995
 20
157.20630299999999
 30
0.0
 40
13.877691
 50
95.894181000000003
 51
175.85126
  0
ARC
  5
388
  8
_________1
 62
     7
 10
71.997360999999984
 20
126.98867199999999
 30
0.0
 40
23.880163
 50
154.29474099999999
 51
175.641988
  0
ARC
  5
389
  8
_________1
 62
     7
 10
73.102831999999992
 20
126.806265
 30
0.0
 40
24.996490000000001
 50
175.41763900000001
 51
200.62567200000001
  0
ARC
  5
38A
  8
_________1
 62
     7
 10
71.582542000000004
 20
126.37513
 30
0.0
 40
23.422148
 50
200.948667
 51
202.928112
  0
LINE
  5
38B
  8
_________1
 62
     7
 10
50.480400000000003
 20
137.346
 30
0.0
 11
49.008699999999997
 21
157.315
 31
0.0
  0
ARC
  5
38C
  8
_________1
 62
     7
 10
60.500574999999998
 20
136.53075899999999
 30
0.0
 40
1.2435849999999991
 50
92.668024000000017
 51
118.36071
  0
ARC
  5
38D
  8
_________1
 62
     7
 10
60.423518000000008
 20
136.77866399999999
 30
0.0
 40
0.9900909999999999
 50
121.252639
 51
190.5996669999999
  0
ARC
  5
38E
  8
_________1
 62
     7
 10
60.448357999999999
 20
136.79068599999999
 30
0.0
 40
1.0167440000000001
 50
191.00807
 51
257.86790400000001
  0
ARC
  5
38F
  8
_________1
 62
     7
 10
60.517752000000002
 20
137.07960700000001
 30
0.0
 40
1.3138160000000001
 50
257.55729400000001
 51
266.72466100000003
  0
ARC
  5
390
  8
_________1
 62
     7
 10
60.329279
 20
137.04673700000001
 30
0.0
 40
1.283819
 50
275.06795699999998
 51
299.93077099999999
  0
ARC
  5
391
  8
_________1
 62
     7
 10
60.316262000000002
 20
136.74806599999999
 30
0.0
 40
1.0438590000000001
 50
308.76457099999999
 51
74.754365000000021
  0
ARC
  5
392
  8
_________1
 62
     7
 10
60.355223000000002
 20
136.42124699999999
 30
0.0
 40
1.3545750000000001
 50
79.986690999999993
 51
86.297845999999979
  0
LINE
  5
393
  8
_________1
 62
     7
 10
49.989899999999999
 20
117.18600000000001
 30
0.0
 11
50.41640000000001
 21
118.57299999999999
 31
0.0
  0
LINE
  5
394
  8
_________1
 62
     7
 10
50.41640000000001
 20
118.57299999999999
 30
0.0
 11
50.800499999999992
 21
119.98099999999999
 31
0.0
  0
LINE
  5
395
  8
_________1
 62
     7
 10
54.875
 20
158.21000000000001
 30
0.0
 11
54.619100000000003
 21
148.61099999999999
 31
0.0
  0
LINE
  5
396
  8
_________1
 62
     7
 10
54.619100000000003
 20
148.61099999999999
 30
0.0
 11
54.448199999999993
 21
139.03200000000001
 31
0.0
  0
LINE
  5
397
  8
_________1
 62
     7
 10
54.448199999999993
 20
139.03200000000001
 30
0.0
 11
54.384099999999997
 21
129.43199999999999
 31
0.0
  0
ARC
  5
398
  8
_________1
 62
     7
 10
67.180081000000001
 20
136.53564499999999
 30
0.0
 40
1.239981999999999
 50
93.733289999999997
 51
119.027303
  0
ARC
  5
399
  8
_________1
 62
     7
 10
67.207476
 20
136.790222
 30
0.0
 40
1.041172999999999
 50
127.170582
 51
249.19417100000001
  0
ARC
  5
39A
  8
_________1
 62
     7
 10
67.209661999999994
 20
137.08025799999999
 30
0.0
 40
1.316948999999999
 50
253.59167400000001
 51
265.19479799999999
  0
ARC
  5
39B
  8
_________1
 62
     7
 10
67.012869999999992
 20
137.012652
 30
0.0
 40
1.247714999999999
 50
273.97409800000003
 51
299.54381000000001
  0
ARC
  5
39C
  8
_________1
 62
     7
 10
66.978785000000002
 20
136.74879300000001
 30
0.0
 40
1.047228
 50
308.31876299999999
 51
73.493639999999999
  0
ARC
  5
39D
  8
_________1
 62
     7
 10
67.041494
 20
136.476463
 30
0.0
 40
1.297822
 50
79.575311999999997
 51
87.445228
  0
ARC
  5
39E
  8
_________1
 62
     7
 10
70.493318000000002
 20
136.57210799999999
 30
0.0
 40
1.2027179999999991
 50
93.161754999999985
 51
119.043594
  0
ARC
  5
39F
  8
_________1
 62
     7
 10
70.434413000000006
 20
136.77796599999999
 30
0.0
 40
0.995329
 50
121.83319299999999
 51
191.38290599999999
  0
ARC
  5
3A0
  8
_________1
 62
     7
 10
70.453760000000003
 20
136.789132
 30
0.0
 40
1.0165239999999991
 50
191.78468899999999
 51
260.02902699999999
  0
ARC
  5
3A1
  8
_________1
 62
     7
 10
70.532915000000003
 20
137.123482
 30
0.0
 40
1.359677
 50
259.18336799999997
 51
265.53153200000003
  0
ARC
  5
3A2
  8
_________1
 62
     7
 10
70.352307999999994
 20
137.01836
 30
0.0
 40
1.2526509999999991
 50
273.417598
 51
299.088863
  0
ARC
  5
3A3
  8
_________1
 62
     7
 10
70.305593000000002
 20
136.74074400000001
 30
0.0
 40
1.047615999999999
 50
308.74881099999999
 51
78.264263
  0
ARC
  5
3A4
  8
_________1
 62
     7
 10
70.37433399999999
 20
136.38771399999999
 30
0.0
 40
1.386282
 50
84.023422999999994
 51
87.823492000000002
  0
ARC
  5
3A5
  8
_________1
 62
     7
 10
80.513365000000007
 20
136.53575900000001
 30
0.0
 40
1.2398670000000001
 50
93.733232999999998
 51
119.028642
  0
ARC
  5
3A6
  8
_________1
 62
     7
 10
80.540790999999999
 20
136.79023100000001
 30
0.0
 40
1.0411669999999991
 50
127.17092
 51
249.19651400000001
  0
ARC
  5
3A7
  8
_________1
 62
     7
 10
80.542899000000006
 20
137.07946699999999
 30
0.0
 40
1.316157
 50
253.58699799999999
 51
265.19435499999997
  0
ARC
  5
3A8
  8
_________1
 62
     7
 10
80.346163000000004
 20
137.012652
 30
0.0
 40
1.247714999999999
 50
273.97409800000003
 51
299.54381000000001
  0
ARC
  5
3A9
  8
_________1
 62
     7
 10
80.312078
 20
136.74879300000001
 30
0.0
 40
1.047228
 50
308.31876299999999
 51
73.493639999999999
  0
ARC
  5
3AA
  8
_________1
 62
     7
 10
80.374786999999984
 20
136.476463
 30
0.0
 40
1.297822
 50
79.575311999999997
 51
87.445228
  0
ARC
  5
3AB
  8
_________1
 62
     7
 10
77.160204000000007
 20
136.566643
 30
0.0
 40
1.207630999999999
 50
92.636556000000013
 51
118.63409299999999
  0
ARC
  5
3AC
  8
_________1
 62
     7
 10
77.100917999999993
 20
136.777995
 30
0.0
 40
0.994937
 50
121.471277
 51
191.45618200000001
  0
ARC
  5
3AD
  8
_________1
 62
     7
 10
77.118491000000006
 20
136.78796
 30
0.0
 40
1.014159
 50
191.81078199999999
 51
259.00766199999998
  0
ARC
  5
3AE
  8
_________1
 62
     7
 10
77.195830000000001
 20
137.10773699999999
 30
0.0
 40
1.3428990000000001
 50
258.37001199999997
 51
266.10688299999998
  0
ARC
  5
3AF
  8
_________1
 62
     7
 10
77.002933999999996
 20
137.03289899999999
 30
0.0
 40
1.2690449999999991
 50
274.59743200000003
 51
299.65795100000003
  0
ARC
  5
3B0
  8
_________1
 62
     7
 10
76.984282999999991
 20
136.74951100000001
 30
0.0
 40
1.0438000000000001
 50
308.27732600000002
 51
73.343795999999998
  0
ARC
  5
3B1
  8
_________1
 62
     7
 10
77.017386000000002
 20
136.41583800000001
 30
0.0
 40
1.3599600000000001
 50
78.717184000000003
 51
86.320887999999997
  0
ARC
  5
3B2
  8
_________1
 62
     7
 10
73.855590000000007
 20
136.49968200000001
 30
0.0
 40
1.2757789999999991
 50
93.562117000000015
 51
118.599812
  0
ARC
  5
3B3
  8
_________1
 62
     7
 10
73.866122000000004
 20
136.78833399999999
 30
0.0
 40
1.037911
 50
126.76552599999999
 51
248.489339
  0
ARC
  5
3B4
  8
_________1
 62
     7
 10
73.87127199999999
 20
137.071123
 30
0.0
 40
1.30664
 50
252.830206
 51
265.83292299999999
  0
ARC
  5
3B5
  8
_________1
 62
     7
 10
73.662927999999994
 20
137.046616
 30
0.0
 40
1.283696999999999
 50
275.06789800000001
 51
299.93217200000009
  0
ARC
  5
3B6
  8
_________1
 62
     7
 10
73.649877000000004
 20
136.748063
 30
0.0
 40
1.043857
 50
308.764702
 51
74.755207999999996
  0
ARC
  5
3B7
  8
_________1
 62
     7
 10
73.688896999999997
 20
136.42205000000001
 30
0.0
 40
1.3537719999999991
 50
79.983881000000011
 51
86.297197999999995
  0
ARC
  5
3B8
  8
_________1
 62
     7
 10
67.869780000000006
 20
126.788943
 30
0.0
 40
24.88089200000001
 50
337.93608999999998
 51
24.782359
  0
LINE
  5
3B9
  8
_________1
 62
     7
 10
90.395200000000017
 20
137.346
 30
0.0
 11
89.926000000000016
 21
135.53299999999999
 31
0.0
  0
LINE
  5
3BA
  8
_________1
 62
     7
 10
89.926000000000016
 20
135.53299999999999
 30
0.0
 11
89.563199999999995
 21
133.67699999999999
 31
0.0
  0
LINE
  5
3BB
  8
_________1
 62
     7
 10
89.563199999999995
 20
133.67699999999999
 30
0.0
 11
89.307299999999998
 21
131.821
 31
0.0
  0
LINE
  5
3BC
  8
_________1
 62
     7
 10
89.307299999999998
 20
131.821
 30
0.0
 11
89.136399999999995
 21
129.94399999999999
 31
0.0
  0
LINE
  5
3BD
  8
_________1
 62
     7
 10
86.469899999999996
 20
129.43199999999999
 30
0.0
 11
86.427099999999996
 21
139.03200000000001
 31
0.0
  0
LINE
  5
3BE
  8
_________1
 62
     7
 10
86.427099999999996
 20
139.03200000000001
 30
0.0
 11
86.256600000000006
 21
148.61099999999999
 31
0.0
  0
LINE
  5
3BF
  8
_________1
 62
     7
 10
86.256600000000006
 20
148.61099999999999
 30
0.0
 11
86.000600000000006
 21
158.21000000000001
 31
0.0
  0
ARC
  5
3C0
  8
_________1
 62
     7
 10
63.826560999999998
 20
136.56675000000001
 30
0.0
 40
1.207524
 50
92.636499999999998
 51
118.635374
  0
ARC
  5
3C1
  8
_________1
 62
     7
 10
63.767217000000002
 20
136.778142
 30
0.0
 40
0.9947669999999999
 50
121.47153400000001
 51
191.46682799999999
  0
ARC
  5
3C2
  8
_________1
 62
     7
 10
63.785159
 20
136.78810300000001
 30
0.0
 40
1.0143489999999991
 50
191.81680600000001
 51
258.99469199999999
  0
ARC
  5
3C3
  8
_________1
 62
     7
 10
63.862147999999998
 20
137.10693499999999
 30
0.0
 40
1.3420959999999991
 50
258.36676699999998
 51
266.106449
  0
ARC
  5
3C4
  8
_________1
 62
     7
 10
63.657640000000001
 20
137.04565700000001
 30
0.0
 40
1.2827399999999991
 50
275.070741
 51
299.94376599999998
  0
ARC
  5
3C5
  8
_________1
 62
     7
 10
63.644245999999988
 20
136.74807899999999
 30
0.0
 40
1.0439249999999991
 50
308.76799599999998
 51
74.738278000000008
  0
ARC
  5
3C6
  8
_________1
 62
     7
 10
63.683626000000011
 20
136.42244099999999
 30
0.0
 40
1.3533790000000001
 50
79.982830000000007
 51
86.297756000000007
  0
ARC
  5
3C7
  8
_________1
 62
     7
 10
-160.75047599999999
 20
129.16836900000001
 30
0.0
 40
247.22457700000001
 50
354.882654
 51
359.65784600000001
  0
ARC
  5
3C8
  8
_________1
 62
     7
 10
-134.19378399999999
 20
128.58301700000001
 30
0.0
 40
220.66527500000001
 50
359.76865299999997
 51
0.220355
  0
LINE
  5
3C9
  8
_________1
 62
     7
 10
90.9285
 20
117.443
 30
0.0
 11
90.885800000000003
 21
117.18600000000001
 31
0.0
  0
LINE
  5
3CA
  8
_________1
 62
     7
 10
90.885800000000003
 20
117.18600000000001
 30
0.0
 11
90.9285
 21
116.952
 31
0.0
  0
ARC
  5
3CB
  8
_________1
 62
     7
 10
320.27441099999999
 20
130.04374300000001
 30
0.0
 40
265.89101099999999
 50
180.131911
 51
184.00731400000001
  0
ARC
  5
3CC
  8
_________1
 62
     7
 10
287.70856900000001
 20
128.204466
 30
0.0
 40
233.276669
 50
184.11563799999999
 51
185.186464
  0
ARC
  5
3CD
  8
_________1
 62
     7
 10
78.789860000000004
 20
153.279123
 30
0.0
 40
1.1555159999999991
 50
91.052017000000006
 51
118.21734499999999
  0
ARC
  5
3CE
  8
_________1
 62
     7
 10
78.726031000000006
 20
153.479885
 30
0.0
 40
0.9492209999999998
 50
120.552752
 51
172.585846
  0
ARC
  5
3CF
  8
_________1
 62
     7
 10
78.833606000000003
 20
153.45353299999999
 30
0.0
 40
1.059369
 50
171.92329899999999
 51
225.25921199999999
  0
ARC
  5
3D0
  8
_________1
 62
     7
 10
78.729347000000004
 20
153.41445100000001
 30
0.0
 40
0.95935
 50
228.04013
 51
265.13941499999999
  0
ARC
  5
3D1
  8
_________1
 62
     7
 10
78.791223999999985
 20
153.73493199999999
 30
0.0
 40
1.2843850000000001
 50
263.600234
 51
268.99269399999997
  0
ARC
  5
3D2
  8
_________1
 62
     7
 10
78.74826800000001
 20
153.604849
 30
0.0
 40
1.1542829999999991
 50
271.01149199999998
 51
298.20292000000001
  0
ARC
  5
3D3
  8
_________1
 62
     7
 10
78.812224000000001
 20
153.40444099999999
 30
0.0
 40
0.9482179999999999
 50
300.520758
 51
352.59910300000001
  0
ARC
  5
3D4
  8
_________1
 62
     7
 10
78.703373999999997
 20
153.43117899999999
 30
0.0
 40
1.0596799999999991
 50
351.923517
 51
45.252377999999993
  0
ARC
  5
3D5
  8
_________1
 62
     7
 10
78.807172999999992
 20
153.469765
 30
0.0
 40
0.960332
 50
48.031100000000002
 51
85.098334999999992
  0
ARC
  5
3D6
  8
_________1
 62
     7
 10
78.74519699999999
 20
153.14569
 30
0.0
 40
1.2889679999999999
 50
83.584259000000003
 51
88.957689999999985
  0
ARC
  5
3D7
  8
_________1
 62
     7
 10
78.842871000000002
 20
146.54987600000001
 30
0.0
 40
1.2306699999999999
 50
93.457836
 51
119.153435
  0
ARC
  5
3D8
  8
_________1
 62
     7
 10
78.887946999999997
 20
146.79971699999999
 30
0.0
 40
1.0469029999999999
 50
128.00406100000001
 51
253.49891299999999
  0
ARC
  5
3D9
  8
_________1
 62
     7
 10
78.846129000000005
 20
147.09158500000001
 30
0.0
 40
1.3206139999999991
 50
258.84294799999998
 51
266.63636600000001
  0
ARC
  5
3DA
  8
_________1
 62
     7
 10
78.694439000000003
 20
147.00187399999999
 30
0.0
 40
1.230866
 50
273.45628099999999
 51
299.15091699999999
  0
ARC
  5
3DB
  8
_________1
 62
     7
 10
78.649403000000007
 20
146.75180800000001
 30
0.0
 40
1.0468869999999999
 50
308.00536
 51
73.507056000000006
  0
ARC
  5
3DC
  8
_________1
 62
     7
 10
78.691186999999999
 20
146.46114499999999
 30
0.0
 40
1.3194360000000001
 50
78.837827000000004
 51
86.634495000000001
  0
ARC
  5
3DD
  8
_________1
 62
     7
 10
78.789860000000004
 20
139.94565800000001
 30
0.0
 40
1.1555159999999991
 50
91.052017000000006
 51
118.21734499999999
  0
ARC
  5
3DE
  8
_________1
 62
     7
 10
78.726031000000006
 20
140.14642000000001
 30
0.0
 40
0.9492209999999998
 50
120.552752
 51
172.585846
  0
ARC
  5
3DF
  8
_________1
 62
     7
 10
78.833606000000003
 20
140.120068
 30
0.0
 40
1.059369
 50
171.92329899999999
 51
225.25921199999999
  0
ARC
  5
3E0
  8
_________1
 62
     7
 10
78.729347000000004
 20
140.080986
 30
0.0
 40
0.95935
 50
228.04013
 51
265.13941499999999
  0
ARC
  5
3E1
  8
_________1
 62
     7
 10
78.791223999999985
 20
140.401467
 30
0.0
 40
1.2843850000000001
 50
263.600234
 51
268.99269399999997
  0
ARC
  5
3E2
  8
_________1
 62
     7
 10
78.74826800000001
 20
140.27138299999999
 30
0.0
 40
1.1542829999999991
 50
271.01149199999998
 51
298.20292000000001
  0
ARC
  5
3E3
  8
_________1
 62
     7
 10
78.812224000000001
 20
140.070976
 30
0.0
 40
0.9482179999999999
 50
300.520758
 51
352.59910300000001
  0
ARC
  5
3E4
  8
_________1
 62
     7
 10
78.703373999999997
 20
140.097714
 30
0.0
 40
1.0596799999999991
 50
351.923517
 51
45.252377999999993
  0
ARC
  5
3E5
  8
_________1
 62
     7
 10
78.807172999999992
 20
140.13630000000001
 30
0.0
 40
0.960332
 50
48.031100000000002
 51
85.098334999999992
  0
ARC
  5
3E6
  8
_________1
 62
     7
 10
78.74519699999999
 20
139.81222399999999
 30
0.0
 40
1.2889679999999999
 50
83.584259000000003
 51
88.957689999999985
  0
LINE
  5
3E7
  8
_________1
 62
     7
 10
90.395200000000017
 20
137.346
 30
0.0
 11
91.867699999999999
 21
157.315
 31
0.0
  0
LINE
  5
3E8
  8
_________1
 62
     7
 10
90.395200000000017
 20
137.49600000000001
 30
0.0
 11
90.459299999999999
 21
137.21799999999999
 31
0.0
  0
ARC
  5
3E9
  8
_________1
 62
     7
 10
80.515249999999995
 20
143.234936
 30
0.0
 40
1.218189999999999
 50
93.888593
 51
119.796868
  0
ARC
  5
3EA
  8
_________1
 62
     7
 10
80.583590000000015
 20
143.485376
 30
0.0
 40
1.0510090000000001
 50
129.86605
 51
261.742166
  0
ARC
  5
3EB
  8
_________1
 62
     7
 10
80.420613999999986
 20
143.53286
 30
0.0
 40
1.0876629999999989
 50
270.63329299999998
 51
303.51443
  0
ARC
  5
3EC
  8
_________1
 62
     7
 10
80.442466999999994
 20
143.42335299999999
 30
0.0
 40
0.9852019999999999
 50
305.97195399999998
 51
358.008599
  0
ARC
  5
3ED
  8
_________1
 62
     7
 10
80.398925000000006
 20
143.41888
 30
0.0
 40
1.0285799999999989
 50
358.34193499999998
 51
76.031777000000005
  0
ARC
  5
3EE
  8
_________1
 62
     7
 10
80.329357999999999
 20
143.075986
 30
0.0
 40
1.3782110000000001
 50
76.666134
 51
85.702430000000007
  0
ARC
  5
3EF
  8
_________1
 62
     7
 10
80.513357999999997
 20
149.869327
 30
0.0
 40
1.239765
 50
93.733187000000001
 51
119.030867
  0
ARC
  5
3F0
  8
_________1
 62
     7
 10
80.540848999999994
 20
150.123606
 30
0.0
 40
1.041264999999999
 50
127.170834
 51
249.195155
  0
ARC
  5
3F1
  8
_________1
 62
     7
 10
80.542899000000006
 20
150.41275999999999
 30
0.0
 40
1.316157
 50
253.58699799999999
 51
265.19435499999997
  0
ARC
  5
3F2
  8
_________1
 62
     7
 10
80.346580000000003
 20
150.346101
 30
0.0
 40
1.2478419999999999
 50
273.95449200000002
 51
299.51848899999999
  0
ARC
  5
3F3
  8
_________1
 62
     7
 10
80.312092000000007
 20
150.082076
 30
0.0
 40
1.0473879999999991
 50
308.31083699999999
 51
73.497046999999995
  0
ARC
  5
3F4
  8
_________1
 62
     7
 10
80.375100000000003
 20
149.81336399999989
 30
0.0
 40
1.2943759999999991
 50
79.561351999999999
 51
87.452306000000021
  0
ARC
  5
3F5
  8
_________1
 62
     7
 10
80.514780999999999
 20
156.568727
 30
0.0
 40
1.2178329999999991
 50
93.867627000000013
 51
119.78718499999999
  0
ARC
  5
3F6
  8
_________1
 62
     7
 10
80.583433999999997
 20
156.81888900000001
 30
0.0
 40
1.0510349999999991
 50
129.86181199999999
 51
261.7509720000001
  0
ARC
  5
3F7
  8
_________1
 62
     7
 10
80.420626999999996
 20
156.86563699999999
 30
0.0
 40
1.086975
 50
270.633037
 51
303.53767099999999
  0
ARC
  5
3F8
  8
_________1
 62
     7
 10
80.442466999999994
 20
156.75694799999999
 30
0.0
 40
0.9852019999999999
 50
305.97195399999998
 51
358.008599
  0
ARC
  5
3F9
  8
_________1
 62
     7
 10
80.399079999999998
 20
156.752466
 30
0.0
 40
1.028424999999999
 50
358.34214800000001
 51
76.038499999999999
  0
ARC
  5
3FA
  8
_________1
 62
     7
 10
80.329357999999999
 20
156.40945099999999
 30
0.0
 40
1.3782110000000001
 50
76.666134
 51
85.702430000000007
  0
ARC
  5
3FB
  8
_________1
 62
     7
 10
63.870576999999997
 20
143.16589200000001
 30
0.0
 40
1.288281999999999
 50
94.432354999999987
 51
119.867744
  0
ARC
  5
3FC
  8
_________1
 62
     7
 10
63.761485999999998
 20
143.45166900000001
 30
0.0
 40
0.9872899999999999
 50
122.6379239999999
 51
186.2792179999999
  0
ARC
  5
3FD
  8
_________1
 62
     7
 10
63.799944000000004
 20
143.472825
 30
0.0
 40
1.0279689999999999
 50
187.21692899999999
 51
268.38742000000002
  0
ARC
  5
3FE
  8
_________1
 62
     7
 10
63.718604999999997
 20
143.635346
 30
0.0
 40
1.1912359999999991
 50
272.52164900000002
 51
298.75130100000001
  0
ARC
  5
3FF
  8
_________1
 62
     7
 10
63.789869999999993
 20
143.421266
 30
0.0
 40
0.970115
 50
301.14365199999997
 51
359.52942000000002
  0
ARC
  5
400
  8
_________1
 62
     7
 10
63.707710999999989
 20
143.399901
 30
0.0
 40
1.052327
 50
0.729468
 51
86.551193999999995
  0
ARC
  5
401
  8
_________1
 62
     7
 10
75.450252000000006
 20
139.96422999999999
 30
0.0
 40
1.136789
 50
90.483388000000005
 51
118.059003
  0
ARC
  5
402
  8
_________1
 62
     7
 10
75.385269999999991
 20
140.16265000000001
 30
0.0
 40
0.93182
 50
120.27238699999999
 51
166.325917
  0
ARC
  5
403
  8
_________1
 62
     7
 10
75.528925999999984
 20
140.11828499999999
 30
0.0
 40
1.0819309999999991
 50
165.84151399999999
 51
219.47680699999989
  0
ARC
  5
404
  8
_________1
 62
     7
 10
75.389863000000005
 20
140.059718
 30
0.0
 40
0.9383510000000001
 50
222.11583300000001
 51
265.73491899999999
  0
ARC
  5
405
  8
_________1
 62
     7
 10
75.450655999999995
 20
140.38833700000001
 30
0.0
 40
1.271096
 50
264.10362900000001
 51
269.54948100000001
  0
ARC
  5
406
  8
_________1
 62
     7
 10
75.410138000000003
 20
140.278167
 30
0.0
 40
1.161287999999999
 50
271.50611300000003
 51
298.45512100000002
  0
ARC
  5
407
  8
_________1
 62
     7
 10
75.477257999999992
 20
140.074547
 30
0.0
 40
0.951046
 50
300.74552799999998
 51
352.47228899999999
  0
ARC
  5
408
  8
_________1
 62
     7
 10
75.377406999999991
 20
140.09755899999999
 30
0.0
 40
1.0530959999999989
 50
351.94277299999999
 51
46.629370999999992
  0
ARC
  5
409
  8
_________1
 62
     7
 10
75.466339000000005
 20
140.122637
 30
0.0
 40
0.9749499999999999
 50
49.417561999999997
 51
86.173191000000017
  0
ARC
  5
40A
  8
_________1
 62
     7
 10
75.405073999999999
 20
139.77825000000001
 30
0.0
 40
1.323207
 50
84.521328999999994
 51
88.458873999999994
  0
ARC
  5
40B
  8
_________1
 62
     7
 10
72.108176
 20
139.96581900000001
 30
0.0
 40
1.1351690000000001
 50
89.772788000000006
 51
117.584855
  0
ARC
  5
40C
  8
_________1
 62
     7
 10
72.04361999999999
 20
140.16879700000001
 30
0.0
 40
0.926101
 50
119.860535
 51
165.045537
  0
ARC
  5
40D
  8
_________1
 62
     7
 10
72.202567000000002
 20
140.114858
 30
0.0
 40
1.0936399999999991
 50
164.464214
 51
213.098973
  0
ARC
  5
40E
  8
_________1
 62
     7
 10
72.041712000000004
 20
140.045715
 30
0.0
 40
0.9216149999999999
 50
214.95930100000001
 51
259.71119599999997
  0
ARC
  5
40F
  8
_________1
 62
     7
 10
72.102694999999997
 20
140.301703
 30
0.0
 40
1.184464999999999
 50
259.02037300000001
 51
270.48290600000001
  0
ARC
  5
410
  8
_________1
 62
     7
 10
72.098227000000009
 20
140.23733100000001
 30
0.0
 40
1.120144
 50
270.7391970000001
 51
298.43325800000002
  0
ARC
  5
411
  8
_________1
 62
     7
 10
72.157783999999992
 20
140.05247
 30
0.0
 40
0.9299089999999999
 50
300.63009099999999
 51
346.530394
  0
ARC
  5
412
  8
_________1
 62
     7
 10
72.003519999999995
 20
140.10293300000001
 30
0.0
 40
1.0917629999999989
 50
345.8406700000001
 51
34.019522000000002
  0
ARC
  5
413
  8
_________1
 62
     7
 10
72.161805000000001
 20
140.171763
 30
0.0
 40
0.922599
 50
35.976557999999997
 51
80.366772999999995
  0
ARC
  5
414
  8
_________1
 62
     7
 10
72.101146999999997
 20
139.91642400000001
 30
0.0
 40
1.1846110000000001
 50
79.540914000000001
 51
89.442250000000016
  0
ARC
  5
415
  8
_________1
 62
     7
 10
68.793869999999998
 20
139.94032300000001
 30
0.0
 40
1.161057
 50
91.506993999999978
 51
118.45803100000001
  0
ARC
  5
416
  8
_________1
 62
     7
 10
68.727020999999993
 20
140.143359
 30
0.0
 40
0.9514590000000001
 50
120.74569099999999
 51
172.45408800000001
  0
ARC
  5
417
  8
_________1
 62
     7
 10
68.826059999999998
 20
140.12042600000001
 30
0.0
 40
1.0526969999999991
 50
171.9246
 51
226.63069200000001
  0
ARC
  5
418
  8
_________1
 62
     7
 10
68.737465
 20
140.095786
 30
0.0
 40
0.9751040000000001
 50
229.42185499999999
 51
266.18258500000002
  0
ARC
  5
419
  8
_________1
 62
     7
 10
68.798929000000001
 20
140.44111000000001
 30
0.0
 40
1.324308
 50
264.52371599999998
 51
268.45984800000002
  0
ARC
  5
41A
  8
_________1
 62
     7
 10
68.739390999999998
 20
140.29966400000001
 30
0.0
 40
1.1826259999999991
 50
271.16010899999998
 51
297.9638819999999
  0
ARC
  5
41B
  8
_________1
 62
     7
 10
68.804656999999992
 20
140.08599000000001
 30
0.0
 40
0.964235
 50
300.49302699999998
 51
358.65216900000001
  0
ARC
  5
41C
  8
_________1
 62
     7
 10
68.737293999999991
 20
140.099727
 30
0.0
 40
1.0319739999999991
 50
357.97765299999998
 51
51.721786999999999
  0
ARC
  5
41D
  8
_________1
 62
     7
 10
68.795523000000003
 20
140.101067
 30
0.0
 40
0.9958629999999999
 50
54.304844999999993
 51
84.833221999999992
  0
ARC
  5
41E
  8
_________1
 62
     7
 10
68.736514999999997
 20
139.775927
 30
0.0
 40
1.325323
 50
83.558273999999997
 51
88.840431999999979
  0
ARC
  5
41F
  8
_________1
 62
     7
 10
65.456224000000006
 20
139.94618700000001
 30
0.0
 40
1.1549869999999991
 50
91.052587000000003
 51
118.223956
  0
ARC
  5
420
  8
_________1
 62
     7
 10
65.392693999999992
 20
140.14647099999999
 30
0.0
 40
0.9492620000000001
 50
120.562941
 51
172.589259
  0
ARC
  5
421
  8
_________1
 62
     7
 10
65.500617000000005
 20
140.12013400000001
 30
0.0
 40
1.0597499999999991
 50
171.92983100000001
 51
225.243458
  0
ARC
  5
422
  8
_________1
 62
     7
 10
65.395831000000001
 20
140.08081899999999
 30
0.0
 40
0.959192
 50
228.035753
 51
265.132948
  0
ARC
  5
423
  8
_________1
 62
     7
 10
65.457591000000008
 20
140.40104299999999
 30
0.0
 40
1.283962
 50
263.59911899999997
 51
268.9921589999999
  0
ARC
  5
424
  8
_________1
 62
     7
 10
65.414631
 20
140.27138299999999
 30
0.0
 40
1.1542829999999991
 50
271.01149199999998
 51
298.20292000000001
  0
ARC
  5
425
  8
_________1
 62
     7
 10
65.478587000000005
 20
140.070976
 30
0.0
 40
0.9482179999999999
 50
300.520758
 51
352.59910300000001
  0
ARC
  5
426
  8
_________1
 62
     7
 10
65.369737000000001
 20
140.097714
 30
0.0
 40
1.0596799999999991
 50
351.923517
 51
45.252377999999993
  0
ARC
  5
427
  8
_________1
 62
     7
 10
65.473534999999984
 20
140.13630000000001
 30
0.0
 40
0.960332
 50
48.031100000000002
 51
85.098334999999992
  0
ARC
  5
428
  8
_________1
 62
     7
 10
65.411559999999994
 20
139.81222399999999
 30
0.0
 40
1.2889679999999999
 50
83.584259000000003
 51
88.957689999999985
  0
ARC
  5
429
  8
_________1
 62
     7
 10
75.488759999999985
 20
146.59604899999999
 30
0.0
 40
1.1832339999999999
 50
92.329722000000004
 51
118.917022
  0
ARC
  5
42A
  8
_________1
 62
     7
 10
75.423642000000001
 20
146.79774
 30
0.0
 40
0.976044
 50
121.296718
 51
178.607023
  0
ARC
  5
42B
  8
_________1
 62
     7
 10
75.491744999999995
 20
146.81586999999999
 30
0.0
 40
1.0438739999999991
 50
179.69277199999999
 51
267.19503600000002
  0
ARC
  5
42C
  8
_________1
 62
     7
 10
75.363877000000002
 20
146.99359999999999
 30
0.0
 40
1.222766
 50
273.600281
 51
299.33420699999999
  0
ARC
  5
42D
  8
_________1
 62
     7
 10
75.316282999999999
 20
146.751857
 30
0.0
 40
1.0476149999999991
 50
308.11490900000001
 51
73.283759000000003
  0
ARC
  5
42E
  8
_________1
 62
     7
 10
75.359375999999997
 20
146.466576
 30
0.0
 40
1.3142450000000001
 50
78.66825
 51
86.454013000000003
  0
ARC
  5
42F
  8
_________1
 62
     7
 10
72.153576999999999
 20
146.583291
 30
0.0
 40
1.195713
 50
91.960183999999984
 51
118.513977
  0
ARC
  5
430
  8
_________1
 62
     7
 10
72.084813999999994
 20
146.796606
 30
0.0
 40
0.976326
 50
120.944774
 51
178.544679
  0
ARC
  5
431
  8
_________1
 62
     7
 10
72.153456000000006
 20
146.81711299999989
 30
0.0
 40
1.0446619999999991
 50
179.76470800000001
 51
267.76290799999998
  0
ARC
  5
432
  8
_________1
 62
     7
 10
72.052258999999992
 20
146.95312999999999
 30
0.0
 40
1.1814290000000001
 50
272.93140099999999
 51
299.34675099999998
  0
ARC
  5
433
  8
_________1
 62
     7
 10
72.116816
 20
146.75628800000001
 30
0.0
 40
0.979035
 50
301.699973
 51
359.7972180000001
  0
ARC
  5
434
  8
_________1
 62
     7
 10
72.053595000000001
 20
146.73761999999999
 30
0.0
 40
1.0423610000000001
 50
0.835674
 51
86.750600000000006
  0
ARC
  5
435
  8
_________1
 62
     7
 10
68.840527000000009
 20
146.55871999999999
 30
0.0
 40
1.222024999999999
 50
93.621627000000004
 51
119.37162600000001
  0
ARC
  5
436
  8
_________1
 62
     7
 10
68.888131000000001
 20
146.79955799999999
 30
0.0
 40
1.0477229999999991
 50
128.134131
 51
253.25672900000001
  0
ARC
  5
437
  8
_________1
 62
     7
 10
68.843976999999995
 20
147.08641900000001
 30
0.0
 40
1.315645999999999
 50
258.70524499999999
 51
266.48588599999999
  0
ARC
  5
438
  8
_________1
 62
     7
 10
68.697706999999994
 20
147.00589099999999
 30
0.0
 40
1.234389999999999
 50
273.047641
 51
298.82378
  0
ARC
  5
439
  8
_________1
 62
     7
 10
68.651239000000004
 20
146.75138799999999
 30
0.0
 40
1.0466569999999991
 50
307.80592899999999
 51
73.826782999999992
  0
ARC
  5
43A
  8
_________1
 62
     7
 10
68.694153999999997
 20
146.45242200000001
 30
0.0
 40
1.3276859999999999
 50
79.207059000000015
 51
87.013176999999999
  0
ARC
  5
43B
  8
_________1
 62
     7
 10
65.509206000000006
 20
146.55051700000001
 30
0.0
 40
1.2300279999999999
 50
93.458345999999992
 51
119.16115499999999
  0
ARC
  5
43C
  8
_________1
 62
     7
 10
65.554547999999997
 20
146.79972000000001
 30
0.0
 40
1.046961
 50
128.00841500000001
 51
253.489024
  0
ARC
  5
43D
  8
_________1
 62
     7
 10
65.512467000000001
 20
147.09084799999999
 30
0.0
 40
1.319876
 50
258.83985899999999
 51
266.63554500000009
  0
ARC
  5
43E
  8
_________1
 62
     7
 10
65.360793999999999
 20
147.00198499999999
 30
0.0
 40
1.2309779999999999
 50
273.45633900000001
 51
299.14959399999998
  0
ARC
  5
43F
  8
_________1
 62
     7
 10
65.315840000000009
 20
146.751822
 30
0.0
 40
1.0468660000000001
 50
308.00263799999999
 51
73.508475000000004
  0
ARC
  5
440
  8
_________1
 62
     7
 10
65.357511000000002
 20
146.46035800000001
 30
0.0
 40
1.320222999999999
 50
78.840964999999997
 51
86.634833999999998
  0
ARC
  5
441
  8
_________1
 62
     7
 10
77.204239999999999
 20
143.16535400000001
 30
0.0
 40
1.288821999999999
 50
94.431657999999999
 51
119.86138699999999
  0
ARC
  5
442
  8
_________1
 62
     7
 10
77.094910999999996
 20
143.451708
 30
0.0
 40
0.9872059999999999
 50
122.634564
 51
186.28204299999999
  0
ARC
  5
443
  8
_________1
 62
     7
 10
77.133572999999998
 20
143.47295700000001
 30
0.0
 40
1.0281
 50
187.223409
 51
268.38806399999999
  0
ARC
  5
444
  8
_________1
 62
     7
 10
77.059728000000007
 20
143.63495900000001
 30
0.0
 40
1.1905429999999999
 50
272.16254300000003
 51
298.49990400000002
  0
ARC
  5
445
  8
_________1
 62
     7
 10
77.13167
 20
143.41792000000001
 30
0.0
 40
0.9663209999999999
 50
300.89234099999999
 51
358.35966400000001
  0
ARC
  5
446
  8
_________1
 62
     7
 10
77.043599999999998
 20
143.39806799999999
 30
0.0
 40
1.054022999999999
 50
359.57551899999999
 51
86.679368999999994
  0
ARC
  5
447
  8
_________1
 62
     7
 10
73.897019999999983
 20
143.108588
 30
0.0
 40
1.3471519999999999
 50
95.140161999999975
 51
119.76925900000001
  0
ARC
  5
448
  8
_________1
 62
     7
 10
73.902845999999997
 20
143.481437
 30
0.0
 40
1.0438700000000001
 50
130.26649599999999
 51
263.03840300000002
  0
ARC
  5
449
  8
_________1
 62
     7
 10
73.723915000000005
 20
143.635346
 30
0.0
 40
1.1912359999999991
 50
272.52164900000002
 51
298.75130100000001
  0
ARC
  5
44A
  8
_________1
 62
     7
 10
73.795180000000002
 20
143.421266
 30
0.0
 40
0.970115
 50
301.14365199999997
 51
359.52942000000002
  0
ARC
  5
44B
  8
_________1
 62
     7
 10
73.713020999999998
 20
143.399901
 30
0.0
 40
1.052327
 50
0.729468
 51
86.551193999999995
  0
ARC
  5
44C
  8
_________1
 62
     7
 10
70.491352000000006
 20
143.27884599999999
 30
0.0
 40
1.173243
 50
93.145103999999989
 51
119.79538700000001
  0
ARC
  5
44D
  8
_________1
 62
     7
 10
70.434436000000005
 20
143.45938799999999
 30
0.0
 40
0.989108
 50
122.131647
 51
180.02310499999999
  0
ARC
  5
44E
  8
_________1
 62
     7
 10
70.485306000000008
 20
143.44434100000001
 30
0.0
 40
1.040081
 50
179.193017
 51
228.207528
  0
ARC
  5
44F
  8
_________1
 62
     7
 10
70.400075999999999
 20
143.409954
 30
0.0
 40
0.9585049999999998
 50
230.636809
 51
261.10626999999999
  0
ARC
  5
450
  8
_________1
 62
     7
 10
70.463572999999997
 20
143.68142399999999
 30
0.0
 40
1.2367019999999991
 50
260.14425
 51
268.30449399999998
  0
ARC
  5
451
  8
_________1
 62
     7
 10
70.411442000000008
 20
143.60752500000001
 30
0.0
 40
1.162366
 50
270.766009
 51
297.88779899999997
  0
ARC
  5
452
  8
_________1
 62
     7
 10
70.477489000000006
 20
143.39987199999999
 30
0.0
 40
0.948728
 50
300.22877299999999
 51
352.45501300000001
  0
ARC
  5
453
  8
_________1
 62
     7
 10
70.358068000000003
 20
143.42783
 30
0.0
 40
1.0708530000000001
 50
351.81103400000001
 51
45.109219999999993
  0
ARC
  5
454
  8
_________1
 62
     7
 10
70.446365999999998
 20
143.45605900000001
 30
0.0
 40
0.989456
 50
47.578682000000001
 51
84.059714
  0
ARC
  5
455
  8
_________1
 62
     7
 10
70.378485999999995
 20
143.128872
 30
0.0
 40
1.3223400000000001
 50
82.601311999999993
 51
87.898212999999984
  0
ARC
  5
456
  8
_________1
 62
     7
 10
67.181956999999997
 20
143.234936
 30
0.0
 40
1.218189999999999
 50
93.888593
 51
119.796868
  0
ARC
  5
457
  8
_________1
 62
     7
 10
67.250298000000001
 20
143.485376
 30
0.0
 40
1.0510090000000001
 50
129.86605
 51
261.742166
  0
ARC
  5
458
  8
_________1
 62
     7
 10
67.08731800000001
 20
143.532353
 30
0.0
 40
1.087156
 50
270.63376599999998
 51
303.52248900000001
  0
ARC
  5
459
  8
_________1
 62
     7
 10
67.108896999999999
 20
143.42328599999999
 30
0.0
 40
0.985219
 50
305.97997700000002
 51
358.01254799999998
  0
ARC
  5
45A
  8
_________1
 62
     7
 10
67.065326999999996
 20
143.41889399999999
 30
0.0
 40
1.0286269999999991
 50
358.34123099999999
 51
76.018006999999997
  0
ARC
  5
45B
  8
_________1
 62
     7
 10
66.996105
 20
143.07675699999999
 30
0.0
 40
1.377438999999999
 50
76.662529000000006
 51
85.701679999999996
  0
ARC
  5
45C
  8
_________1
 62
     7
 10
62.131314000000003
 20
139.91765599999999
 30
0.0
 40
1.183565999999999
 50
91.159268000000026
 51
117.952523
  0
ARC
  5
45D
  8
_________1
 62
     7
 10
62.065551999999997
 20
140.132385
 30
0.0
 40
0.9640019999999999
 50
120.48303900000001
 51
178.65871300000001
  0
ARC
  5
45E
  8
_________1
 62
     7
 10
62.13308399999999
 20
140.11865800000001
 30
0.0
 40
1.0319089999999991
 50
177.98451399999999
 51
231.73772299999999
  0
ARC
  5
45F
  8
_________1
 62
     7
 10
62.075183000000003
 20
140.11739
 30
0.0
 40
0.9960589999999999
 50
234.30855700000001
 51
264.83406600000001
  0
ARC
  5
460
  8
_________1
 62
     7
 10
62.134188000000002
 20
140.44233199999999
 30
0.0
 40
1.325323
 50
263.55829399999999
 51
268.84045200000003
  0
ARC
  5
461
  8
_________1
 62
     7
 10
62.076841000000002
 20
140.277738
 30
0.0
 40
1.1608590000000001
 50
271.50690100000003
 51
298.46052200000003
  0
ARC
  5
462
  8
_________1
 62
     7
 10
62.143785999999992
 20
140.074546
 30
0.0
 40
0.9510799999999999
 50
300.74895900000001
 51
352.47258299999999
  0
ARC
  5
463
  8
_________1
 62
     7
 10
62.044138000000011
 20
140.097703
 30
0.0
 40
1.052948999999999
 50
351.933697
 51
46.626409000000002
  0
ARC
  5
464
  8
_________1
 62
     7
 10
62.133086999999989
 20
140.122839
 30
0.0
 40
0.974745
 50
49.413356
 51
86.175122000000002
  0
ARC
  5
465
  8
_________1
 62
     7
 10
62.071793999999997
 20
139.77857900000001
 30
0.0
 40
1.3228789999999999
 50
84.520747999999998
 51
88.459040000000002
  0
ARC
  5
466
  8
_________1
 62
     7
 10
62.173413000000011
 20
146.54504499999999
 30
0.0
 40
1.2350270000000001
 50
93.065418000000008
 51
118.844112
  0
ARC
  5
467
  8
_________1
 62
     7
 10
62.215930000000007
 20
146.797876
 30
0.0
 40
1.0462599999999991
 50
127.59709599999999
 51
252.40352300000001
  0
ARC
  5
468
  8
_________1
 62
     7
 10
62.173580000000001
 20
147.07996299999999
 30
0.0
 40
1.3083929999999999
 50
257.91417000000001
 51
267.0992819999999
  0
ARC
  5
469
  8
_________1
 62
     7
 10
62.030586
 20
146.99307099999999
 30
0.0
 40
1.222237999999999
 50
273.601744
 51
299.34077300000001
  0
ARC
  5
46A
  8
_________1
 62
     7
 10
61.982756000000009
 20
146.75185300000001
 30
0.0
 40
1.047672999999999
 50
308.11935999999997
 51
73.274093000000008
  0
ARC
  5
46B
  8
_________1
 62
     7
 10
62.026108999999991
 20
146.46731399999999
 30
0.0
 40
1.3135069999999991
 50
78.665094999999994
 51
86.453139000000007
  0
ARC
  5
46C
  8
_________1
 62
     7
 10
60.502169999999992
 20
143.23526799999999
 30
0.0
 40
1.216507999999999
 50
92.802654000000004
 51
119.06450700000001
  0
ARC
  5
46D
  8
_________1
 62
     7
 10
60.435074
 20
143.44832500000001
 30
0.0
 40
0.998694
 50
121.638723
 51
184.669994
  0
ARC
  5
46E
  8
_________1
 62
     7
 10
60.457054999999997
 20
143.46746999999999
 30
0.0
 40
1.0223070000000001
 50
185.63913199999999
 51
269.19474300000002
  0
ARC
  5
46F
  8
_________1
 62
     7
 10
60.390270999999998
 20
143.63598300000001
 30
0.0
 40
1.1918729999999991
 50
272.52061600000002
 51
298.74341700000002
  0
ARC
  5
470
  8
_________1
 62
     7
 10
60.461866000000001
 20
143.42143799999999
 30
0.0
 40
0.970175
 50
301.12996500000003
 51
359.51932099999999
  0
ARC
  5
471
  8
_________1
 62
     7
 10
60.379879000000003
 20
143.39998600000001
 30
0.0
 40
1.0522119999999999
 50
0.7248970000000002
 51
86.577880000000007
  0
ARC
  5
472
  8
_________1
 62
     7
 10
63.870593999999997
 20
156.499157
 30
0.0
 40
1.2884839999999991
 50
94.432442000000023
 51
119.8635
  0
ARC
  5
473
  8
_________1
 62
     7
 10
63.761468000000001
 20
156.78517600000001
 30
0.0
 40
0.9872629999999999
 50
122.637697
 51
186.27433500000001
  0
ARC
  5
474
  8
_________1
 62
     7
 10
63.800088999999993
 20
156.806432
 30
0.0
 40
1.028114999999999
 50
187.21660600000001
 51
268.37954400000001
  0
ARC
  5
475
  8
_________1
 62
     7
 10
63.718615
 20
156.96861999999999
 30
0.0
 40
1.1910439999999991
 50
272.52155900000002
 51
298.755786
  0
ARC
  5
476
  8
_________1
 62
     7
 10
63.789554000000003
 20
156.754932
 30
0.0
 40
0.9704319999999999
 50
301.154155
 51
359.52472299999999
  0
ARC
  5
477
  8
_________1
 62
     7
 10
63.707836999999998
 20
156.733485
 30
0.0
 40
1.0522
 50
0.729528
 51
86.557670999999999
  0
ARC
  5
478
  8
_________1
 62
     7
 10
63.826533999999988
 20
149.900701
 30
0.0
 40
1.2070369999999999
 50
92.636275000000012
 51
118.64653199999999
  0
ARC
  5
479
  8
_________1
 62
     7
 10
63.758683999999988
 20
150.11678800000001
 30
0.0
 40
0.9858579999999999
 50
121.20737099999999
 51
185.31613499999989
  0
ARC
  5
47A
  8
_________1
 62
     7
 10
63.796768000000007
 20
150.12989200000001
 30
0.0
 40
1.0250360000000001
 50
185.84822500000001
 51
258.44930299999999
  0
ARC
  5
47B
  8
_________1
 62
     7
 10
63.86178799999999
 20
150.44222500000001
 30
0.0
 40
1.344063999999999
 50
258.39968399999998
 51
266.12751800000001
  0
ARC
  5
47C
  8
_________1
 62
     7
 10
63.65764999999999
 20
150.37884600000001
 30
0.0
 40
1.2826349999999991
 50
275.070696
 51
299.94594000000001
  0
ARC
  5
47D
  8
_________1
 62
     7
 10
63.644188
 20
150.08145999999999
 30
0.0
 40
1.044022
 50
308.76781599999998
 51
74.73643100000001
  0
ARC
  5
47E
  8
_________1
 62
     7
 10
63.683626000000011
 20
149.75590600000001
 30
0.0
 40
1.3533790000000001
 50
79.982830000000007
 51
86.297756000000007
  0
ARC
  5
47F
  8
_________1
 62
     7
 10
65.456224000000006
 20
153.279652
 30
0.0
 40
1.1549869999999991
 50
91.052587000000003
 51
118.223956
  0
ARC
  5
480
  8
_________1
 62
     7
 10
65.392693999999992
 20
153.47993600000001
 30
0.0
 40
0.9492620000000001
 50
120.562941
 51
172.589259
  0
ARC
  5
481
  8
_________1
 62
     7
 10
65.500617000000005
 20
153.453599
 30
0.0
 40
1.0597499999999991
 50
171.92983100000001
 51
225.243458
  0
ARC
  5
482
  8
_________1
 62
     7
 10
65.395831000000001
 20
153.41428500000001
 30
0.0
 40
0.959192
 50
228.035753
 51
265.132948
  0
ARC
  5
483
  8
_________1
 62
     7
 10
65.457591000000008
 20
153.73450800000001
 30
0.0
 40
1.283962
 50
263.59911899999997
 51
268.9921589999999
  0
ARC
  5
484
  8
_________1
 62
     7
 10
65.414631
 20
153.604849
 30
0.0
 40
1.1542829999999991
 50
271.01149199999998
 51
298.20292000000001
  0
ARC
  5
485
  8
_________1
 62
     7
 10
65.478587000000005
 20
153.40444099999999
 30
0.0
 40
0.9482179999999999
 50
300.520758
 51
352.59910300000001
  0
ARC
  5
486
  8
_________1
 62
     7
 10
65.369737000000001
 20
153.43117899999999
 30
0.0
 40
1.0596799999999991
 50
351.923517
 51
45.252377999999993
  0
ARC
  5
487
  8
_________1
 62
     7
 10
65.473534999999984
 20
153.469765
 30
0.0
 40
0.960332
 50
48.031100000000002
 51
85.098334999999992
  0
ARC
  5
488
  8
_________1
 62
     7
 10
65.411559999999994
 20
153.14569
 30
0.0
 40
1.2889679999999999
 50
83.584259000000003
 51
88.957689999999985
  0
ARC
  5
489
  8
_________1
 62
     7
 10
68.79383399999999
 20
153.27478600000001
 30
0.0
 40
1.1600589999999991
 50
91.506506999999985
 51
118.482743
  0
ARC
  5
48A
  8
_________1
 62
     7
 10
68.727018999999999
 20
153.47671099999999
 30
0.0
 40
0.951453
 50
120.745721
 51
172.45569499999999
  0
ARC
  5
48B
  8
_________1
 62
     7
 10
68.825839999999999
 20
153.453765
 30
0.0
 40
1.0524770000000001
 50
171.92362199999999
 51
226.63588100000001
  0
ARC
  5
48C
  8
_________1
 62
     7
 10
68.737356000000005
 20
153.42908700000001
 30
0.0
 40
0.9749329999999998
 50
229.42168100000001
 51
266.18833100000001
  0
ARC
  5
48D
  8
_________1
 62
     7
 10
68.798929000000001
 20
153.774575
 30
0.0
 40
1.324308
 50
264.52371599999998
 51
268.45984800000002
  0
ARC
  5
48E
  8
_________1
 62
     7
 10
68.739380000000011
 20
153.633499
 30
0.0
 40
1.182995999999999
 50
271.16028599999999
 51
297.954993
  0
ARC
  5
48F
  8
_________1
 62
     7
 10
68.804970999999995
 20
153.41923399999999
 30
0.0
 40
0.963922
 50
300.48234500000001
 51
358.65018300000003
  0
ARC
  5
490
  8
_________1
 62
     7
 10
68.737292999999994
 20
153.43294399999999
 30
0.0
 40
1.0319750000000001
 50
357.97766799999999
 51
51.721772999999999
  0
ARC
  5
491
  8
_________1
 62
     7
 10
68.794981000000007
 20
153.43382099999999
 30
0.0
 40
0.996555
 50
54.295070999999979
 51
84.805519000000004
  0
ARC
  5
492
  8
_________1
 62
     7
 10
68.735841000000008
 20
153.10975300000001
 30
0.0
 40
1.324975999999999
 50
83.527256000000008
 51
88.810982999999993
  0
ARC
  5
493
  8
_________1
 62
     7
 10
72.108568000000005
 20
153.29943800000001
 30
0.0
 40
1.1350129999999989
 50
89.792511000000005
 51
117.61126299999999
  0
ARC
  5
494
  8
_________1
 62
     7
 10
72.043953999999999
 20
153.50180700000001
 30
0.0
 40
0.9264659999999999
 50
119.871387
 51
165.04102499999999
  0
ARC
  5
495
  8
_________1
 62
     7
 10
72.202280999999985
 20
153.448103
 30
0.0
 40
1.093345999999999
 50
164.463808
 51
213.10272599999999
  0
ARC
  5
496
  8
_________1
 62
     7
 10
72.041500999999997
 20
153.37901600000001
 30
0.0
 40
0.9214159999999999
 50
214.96449699999999
 51
259.72228200000001
  0
ARC
  5
497
  8
_________1
 62
     7
 10
72.102694999999997
 20
153.63516799999999
 30
0.0
 40
1.184464999999999
 50
259.02037300000001
 51
270.48290600000001
  0
ARC
  5
498
  8
_________1
 62
     7
 10
72.098219
 20
153.57114100000001
 30
0.0
 40
1.120488999999999
 50
270.739372
 51
298.42417599999999
  0
ARC
  5
499
  8
_________1
 62
     7
 10
72.158090999999999
 20
153.38572099999999
 30
0.0
 40
0.9296049999999999
 50
300.61914899999999
 51
346.52719300000001
  0
ARC
  5
49A
  8
_________1
 62
     7
 10
72.003831999999989
 20
153.436184
 30
0.0
 40
1.091454999999999
 50
345.83770199999998
 51
34.024878999999999
  0
ARC
  5
49B
  8
_________1
 62
     7
 10
72.161218999999988
 20
153.50449
 30
0.0
 40
0.923329
 50
35.977156000000001
 51
80.337607999999989
  0
ARC
  5
49C
  8
_________1
 62
     7
 10
72.100414000000001
 20
153.24805499999999
 30
0.0
 40
1.1864520000000001
 50
79.521365000000003
 51
89.407747000000015
  0
ARC
  5
49D
  8
_________1
 62
     7
 10
75.449842000000004
 20
153.298417
 30
0.0
 40
1.1360639999999991
 50
90.463041000000004
 51
118.055076
  0
ARC
  5
49E
  8
_________1
 62
     7
 10
75.384922000000003
 20
153.49647999999999
 30
0.0
 40
0.9314309999999998
 50
120.261568
 51
166.33370199999999
  0
ARC
  5
49F
  8
_________1
 62
     7
 10
75.529077000000001
 20
153.451865
 30
0.0
 40
1.0820860000000001
 50
165.84161800000001
 51
219.474211
  0
ARC
  5
4A0
  8
_________1
 62
     7
 10
75.389825000000002
 20
153.39299600000001
 30
0.0
 40
0.9381619999999999
 50
222.10645500000001
 51
265.73635000000002
  0
ARC
  5
4A1
  8
_________1
 62
     7
 10
75.450655999999995
 20
153.721802
 30
0.0
 40
1.271096
 50
264.10362900000001
 51
269.54948100000001
  0
ARC
  5
4A2
  8
_________1
 62
     7
 10
75.41013199999999
 20
153.61181400000001
 30
0.0
 40
1.16147
 50
271.50620199999997
 51
298.45062899999999
  0
ARC
  5
4A3
  8
_________1
 62
     7
 10
75.477581999999998
 20
153.407792
 30
0.0
 40
0.9507100000000001
 50
300.73484300000001
 51
352.476427
  0
ARC
  5
4A4
  8
_________1
 62
     7
 10
75.377521999999985
 20
153.43092899999999
 30
0.0
 40
1.0529850000000001
 50
351.94118900000001
 51
46.632218000000002
  0
ARC
  5
4A5
  8
_________1
 62
     7
 10
75.46615899999999
 20
153.45601600000001
 30
0.0
 40
0.975026
 50
49.407437000000002
 51
86.162880000000001
  0
ARC
  5
4A6
  8
_________1
 62
     7
 10
75.405597
 20
153.12527900000001
 30
0.0
 40
1.3096350000000001
 50
84.487343999999993
 51
88.465770999999989
  0
ARC
  5
4A7
  8
_________1
 62
     7
 10
67.180074000000005
 20
149.869212
 30
0.0
 40
1.239879
 50
93.733244999999997
 51
119.029528
  0
ARC
  5
4A8
  8
_________1
 62
     7
 10
67.207533999999995
 20
150.12359799999999
 30
0.0
 40
1.0412709999999989
 50
127.170495
 51
249.192812
  0
ARC
  5
4A9
  8
_________1
 62
     7
 10
67.209661999999994
 20
150.41355100000001
 30
0.0
 40
1.316948999999999
 50
253.59167400000001
 51
265.19479799999999
  0
ARC
  5
4AA
  8
_________1
 62
     7
 10
67.013287000000005
 20
150.346101
 30
0.0
 40
1.2478419999999999
 50
273.95449200000002
 51
299.51848899999999
  0
ARC
  5
4AB
  8
_________1
 62
     7
 10
66.978798999999995
 20
150.082076
 30
0.0
 40
1.0473879999999991
 50
308.31083699999999
 51
73.497046999999995
  0
ARC
  5
4AC
  8
_________1
 62
     7
 10
67.041806999999991
 20
149.81336399999989
 30
0.0
 40
1.2943759999999991
 50
79.561351999999999
 51
87.452306000000021
  0
ARC
  5
4AD
  8
_________1
 62
     7
 10
70.493241999999995
 20
149.906745
 30
0.0
 40
1.2015439999999991
 50
93.161214999999984
 51
119.070536
  0
ARC
  5
4AE
  8
_________1
 62
     7
 10
70.434709999999995
 20
150.11115699999999
 30
0.0
 40
0.9956089999999999
 50
121.843309
 51
191.37624099999999
  0
ARC
  5
4AF
  8
_________1
 62
     7
 10
70.453693999999999
 20
150.12236799999999
 30
0.0
 40
1.0164569999999991
 50
191.78470100000001
 51
260.03212300000001
  0
ARC
  5
4B0
  8
_________1
 62
     7
 10
70.532915000000003
 20
150.45677499999999
 30
0.0
 40
1.359677
 50
259.18336799999997
 51
265.53153200000003
  0
ARC
  5
4B1
  8
_________1
 62
     7
 10
70.352320999999989
 20
150.35122200000001
 30
0.0
 40
1.2522200000000001
 50
273.41819099999998
 51
299.0929680000001
  0
ARC
  5
4B2
  8
_________1
 62
     7
 10
70.305432999999994
 20
150.0741129999999
 30
0.0
 40
1.0477110000000001
 50
308.74759900000009
 51
78.256384999999995
  0
ARC
  5
4B3
  8
_________1
 62
     7
 10
70.373867000000004
 20
149.72144399999999
 30
0.0
 40
1.3860349999999999
 50
84.002956999999995
 51
87.803799000000012
  0
ARC
  5
4B4
  8
_________1
 62
     7
 10
73.85556600000001
 20
149.833482
 30
0.0
 40
1.2754430000000001
 50
93.561959999999999
 51
118.604584
  0
ARC
  5
4B5
  8
_________1
 62
     7
 10
73.866272999999993
 20
150.12174200000001
 30
0.0
 40
1.0380119999999999
 50
126.768771
 51
248.49089799999999
  0
ARC
  5
4B6
  8
_________1
 62
     7
 10
73.871369000000001
 20
150.40369799999999
 30
0.0
 40
1.305931999999999
 50
252.82258899999999
 51
265.82640199999997
  0
ARC
  5
4B7
  8
_________1
 62
     7
 10
73.662937999999997
 20
150.37980400000001
 30
0.0
 40
1.2835920000000001
 50
275.06785400000001
 51
299.93434500000001
  0
ARC
  5
4B8
  8
_________1
 62
     7
 10
73.649818999999994
 20
150.081444
 30
0.0
 40
1.043954
 50
308.764522
 51
74.753360000000001
  0
ARC
  5
4B9
  8
_________1
 62
     7
 10
73.688896999999997
 20
149.755515
 30
0.0
 40
1.3537719999999991
 50
79.983881000000011
 51
86.297197999999995
  0
ARC
  5
4BA
  8
_________1
 62
     7
 10
77.160177000000004
 20
149.90059400000001
 30
0.0
 40
1.2071439999999991
 50
92.636331999999996
 51
118.645251
  0
ARC
  5
4BB
  8
_________1
 62
     7
 10
77.101268999999974
 20
150.111188
 30
0.0
 40
0.9953059999999998
 50
121.48194100000001
 51
191.459329
  0
ARC
  5
4BC
  8
_________1
 62
     7
 10
77.118274999999997
 20
150.12098399999999
 30
0.0
 40
1.013938999999999
 50
191.81093799999991
 51
259.01768299999998
  0
ARC
  5
4BD
  8
_________1
 62
     7
 10
77.19547
 20
150.443028
 30
0.0
 40
1.3448679999999991
 50
258.40291999999999
 51
266.127948
  0
ARC
  5
4BE
  8
_________1
 62
     7
 10
77.002923999999993
 20
150.36629500000001
 30
0.0
 40
1.2691490000000001
 50
274.59747700000003
 51
299.65576600000003
  0
ARC
  5
4BF
  8
_________1
 62
     7
 10
76.984232999999989
 20
150.08286000000001
 30
0.0
 40
1.043884
 50
308.27719200000001
 51
73.342306000000008
  0
ARC
  5
4C0
  8
_________1
 62
     7
 10
77.016842000000011
 20
149.74760699999999
 30
0.0
 40
1.361688
 50
78.708331999999984
 51
86.302610999999999
  0
ARC
  5
4C1
  8
_________1
 62
     7
 10
67.18146800000001
 20
156.56922499999999
 30
0.0
 40
1.2173359999999991
 50
93.868281999999994
 51
119.793397
  0
ARC
  5
4C2
  8
_________1
 62
     7
 10
67.250337999999999
 20
156.818904
 30
0.0
 40
1.0510779999999991
 50
129.86582899999999
 51
261.74046099999998
  0
ARC
  5
4C3
  8
_________1
 62
     7
 10
67.087331000000006
 20
156.86512999999999
 30
0.0
 40
1.0864679999999991
 50
270.633511
 51
303.54573500000009
  0
ARC
  5
4C4
  8
_________1
 62
     7
 10
67.108896999999999
 20
156.75688
 30
0.0
 40
0.985219
 50
305.97997700000002
 51
358.01254799999998
  0
ARC
  5
4C5
  8
_________1
 62
     7
 10
67.065481999999989
 20
156.75247999999999
 30
0.0
 40
1.0284719999999989
 50
358.34144400000002
 51
76.024729000000008
  0
ARC
  5
4C6
  8
_________1
 62
     7
 10
66.996105
 20
156.410222
 30
0.0
 40
1.377438999999999
 50
76.662529000000006
 51
85.701679999999996
  0
ARC
  5
4C7
  8
_________1
 62
     7
 10
70.491352000000006
 20
156.61231100000001
 30
0.0
 40
1.173243
 50
93.145103999999989
 51
119.79538700000001
  0
ARC
  5
4C8
  8
_________1
 62
     7
 10
70.434436000000005
 20
156.79285300000001
 30
0.0
 40
0.989108
 50
122.131647
 51
180.02310499999999
  0
ARC
  5
4C9
  8
_________1
 62
     7
 10
70.485306000000008
 20
156.777806
 30
0.0
 40
1.040081
 50
179.193017
 51
228.207528
  0
ARC
  5
4CA
  8
_________1
 62
     7
 10
70.400075999999999
 20
156.74341899999999
 30
0.0
 40
0.9585049999999998
 50
230.636809
 51
261.10626999999999
  0
ARC
  5
4CB
  8
_________1
 62
     7
 10
70.463572999999997
 20
157.01488900000001
 30
0.0
 40
1.2367019999999991
 50
260.14425
 51
268.30449399999998
  0
ARC
  5
4CC
  8
_________1
 62
     7
 10
70.411442000000008
 20
156.94099
 30
0.0
 40
1.162366
 50
270.766009
 51
297.88779899999997
  0
ARC
  5
4CD
  8
_________1
 62
     7
 10
70.477489000000006
 20
156.73333700000001
 30
0.0
 40
0.948728
 50
300.22877299999999
 51
352.45501300000001
  0
ARC
  5
4CE
  8
_________1
 62
     7
 10
70.358068000000003
 20
156.76129599999999
 30
0.0
 40
1.0708530000000001
 50
351.81103400000001
 51
45.109219999999993
  0
ARC
  5
4CF
  8
_________1
 62
     7
 10
70.446365999999998
 20
156.789524
 30
0.0
 40
0.989456
 50
47.578682000000001
 51
84.059714
  0
ARC
  5
4D0
  8
_________1
 62
     7
 10
70.378485999999995
 20
156.46233699999999
 30
0.0
 40
1.3223400000000001
 50
82.601311999999993
 51
87.898212999999984
  0
ARC
  5
4D1
  8
_________1
 62
     7
 10
73.897062000000005
 20
156.44162499999999
 30
0.0
 40
1.3475820000000001
 50
95.140338000000014
 51
119.760891
  0
ARC
  5
4D2
  8
_________1
 62
     7
 10
73.902861000000001
 20
156.81492600000001
 30
0.0
 40
1.0438940000000001
 50
130.26640900000001
 51
263.03775100000001
  0
ARC
  5
4D3
  8
_________1
 62
     7
 10
73.723924999999994
 20
156.96861999999999
 30
0.0
 40
1.1910439999999991
 50
272.52155900000002
 51
298.755786
  0
ARC
  5
4D4
  8
_________1
 62
     7
 10
73.794864000000004
 20
156.754932
 30
0.0
 40
0.9704319999999999
 50
301.154155
 51
359.52472299999999
  0
ARC
  5
4D5
  8
_________1
 62
     7
 10
73.713146999999992
 20
156.733485
 30
0.0
 40
1.0522
 50
0.729528
 51
86.557670999999999
  0
ARC
  5
4D6
  8
_________1
 62
     7
 10
77.204257999999996
 20
156.49861799999999
 30
0.0
 40
1.289023
 50
94.431745999999976
 51
119.85714400000001
  0
ARC
  5
4D7
  8
_________1
 62
     7
 10
77.094892999999999
 20
156.78521599999999
 30
0.0
 40
0.987179
 50
122.634338
 51
186.27716000000001
  0
ARC
  5
4D8
  8
_________1
 62
     7
 10
77.133718999999999
 20
156.80656400000001
 30
0.0
 40
1.0282459999999991
 50
187.223086
 51
268.38018799999998
  0
ARC
  5
4D9
  8
_________1
 62
     7
 10
77.059269
 20
156.969313
 30
0.0
 40
1.1914489999999991
 50
272.182996
 51
298.50138299999998
  0
ARC
  5
4DA
  8
_________1
 62
     7
 10
77.131041999999994
 20
156.75185999999999
 30
0.0
 40
0.9669579999999999
 50
300.91307799999998
 51
358.34027000000009
  0
ARC
  5
4DB
  8
_________1
 62
     7
 10
77.043731000000008
 20
156.73165599999999
 30
0.0
 40
1.0538929999999991
 50
359.57578599999999
 51
86.686070999999998
  0
ARC
  5
4DC
  8
_________1
 62
     7
 10
62.131717000000002
 20
153.251282
 30
0.0
 40
1.1834119999999999
 50
91.178946999999994
 51
117.978562
  0
ARC
  5
4DD
  8
_________1
 62
     7
 10
62.065860000000001
 20
153.46544399999999
 30
0.0
 40
0.9643139999999998
 50
120.493407
 51
178.65101100000001
  0
ARC
  5
4DE
  8
_________1
 62
     7
 10
62.132684999999988
 20
153.451865
 30
0.0
 40
1.031509999999999
 50
177.98433299999999
 51
231.748469
  0
ARC
  5
4DF
  8
_________1
 62
     7
 10
62.075161999999999
 20
153.45108500000001
 30
0.0
 40
0.996287
 50
234.31941499999999
 51
264.83643599999999
  0
ARC
  5
4E0
  8
_________1
 62
     7
 10
62.134188000000002
 20
153.77579700000001
 30
0.0
 40
1.325323
 50
263.55829399999999
 51
268.84045200000003
  0
ARC
  5
4E1
  8
_________1
 62
     7
 10
62.076833999999998
 20
153.61138399999999
 30
0.0
 40
1.1610409999999991
 50
271.50698999999997
 51
298.456028
  0
ARC
  5
4E2
  8
_________1
 62
     7
 10
62.144110999999988
 20
153.407792
 30
0.0
 40
0.9507429999999999
 50
300.7382740000001
 51
352.476721
  0
ARC
  5
4E3
  8
_________1
 62
     7
 10
62.044252999999998
 20
153.431074
 30
0.0
 40
1.052837
 50
351.93211100000002
 51
46.629259000000012
  0
ARC
  5
4E4
  8
_________1
 62
     7
 10
62.132906999999989
 20
153.45621800000001
 30
0.0
 40
0.9748210000000001
 50
49.403230000000008
 51
86.164810999999986
  0
ARC
  5
4E5
  8
_________1
 62
     7
 10
62.072317000000012
 20
153.12560199999999
 30
0.0
 40
1.3093109999999999
 50
84.486761000000001
 51
88.465937999999994
  0
ARC
  5
4E6
  8
_________1
 62
     7
 10
60.500569999999989
 20
149.86432400000001
 30
0.0
 40
1.2434849999999991
 50
92.667979000000017
 51
118.362904
  0
ARC
  5
4E7
  8
_________1
 62
     7
 10
60.423811000000001
 20
150.11197100000001
 30
0.0
 40
0.99037
 50
121.262671
 51
190.59365500000001
  0
ARC
  5
4E8
  8
_________1
 62
     7
 10
60.44845999999999
 20
150.12406300000001
 30
0.0
 40
1.0168479999999991
 50
191.00807
 51
257.86327899999998
  0
ARC
  5
4E9
  8
_________1
 62
     7
 10
60.517752000000002
 20
150.41290000000001
 30
0.0
 40
1.3138160000000001
 50
257.55729400000001
 51
266.72466100000003
  0
ARC
  5
4EA
  8
_________1
 62
     7
 10
60.329289000000003
 20
150.37992600000001
 30
0.0
 40
1.283714
 50
275.06791199999998
 51
299.93294500000002
  0
ARC
  5
4EB
  8
_________1
 62
     7
 10
60.316204000000013
 20
150.081447
 30
0.0
 40
1.0439549999999991
 50
308.76439099999999
 51
74.752518000000009
  0
ARC
  5
4EC
  8
_________1
 62
     7
 10
60.355223000000002
 20
149.75471200000001
 30
0.0
 40
1.3545750000000001
 50
79.986690999999993
 51
86.297845999999979
  0
ARC
  5
4ED
  8
_________1
 62
     7
 10
60.502589999999998
 20
156.56869499999999
 30
0.0
 40
1.2165669999999991
 50
92.822330000000008
 51
119.085605
  0
ARC
  5
4EE
  8
_________1
 62
     7
 10
60.435651999999997
 20
156.78130100000001
 30
0.0
 40
0.9992399999999999
 50
121.658357
 51
184.64609100000001
  0
ARC
  5
4EF
  8
_________1
 62
     7
 10
60.456986000000001
 20
156.800872
 30
0.0
 40
1.0222439999999999
 50
185.64263600000001
 51
269.19857400000001
  0
ARC
  5
4F0
  8
_________1
 62
     7
 10
60.390281000000009
 20
156.969257
 30
0.0
 40
1.1916809999999991
 50
272.52052600000002
 51
298.7479009999999
  0
ARC
  5
4F1
  8
_________1
 62
     7
 10
60.461550000000003
 20
156.75510299999999
 30
0.0
 40
0.9704919999999999
 50
301.140466
 51
359.51462800000002
  0
ARC
  5
4F2
  8
_________1
 62
     7
 10
60.380006000000009
 20
156.73356999999999
 30
0.0
 40
1.052084999999999
 50
0.724958
 51
86.584355000000016
  0
ARC
  5
4F3
  8
_________1
 62
     7
 10
68.850672000000003
 20
158.448487
 30
0.0
 40
17.923655
 50
95.814301
 51
175.98404600000001
  0
ARC
  5
4F4
  8
_________1
 62
     7
 10
72.028082999999995
 20
158.47450000000001
 30
0.0
 40
17.897462000000001
 50
3.938342
 51
84.187073999999996
  0
LINE
  5
4F5
  8
_________1
 62
     7
 10
84.933999999999983
 20
104.10899999999999
 30
0.0
 11
85.275400000000005
 21
105.602
 31
0.0
  0
LINE
  5
4F6
  8
_________1
 62
     7
 10
85.275400000000005
 20
105.602
 30
0.0
 11
85.488699999999994
 21
107.117
 31
0.0
  0
ARC
  5
4F7
  8
_________1
 62
     7
 10
39.59492800000001
 20
101.84780600000001
 30
0.0
 40
53.509605999999998
 50
359.908725
 51
16.395866999999999
  0
ARC
  5
4F8
  8
_________1
 62
     7
 10
306.00924300000003
 20
130.108273
 30
0.0
 40
217.598139
 50
180.04899800000001
 51
186.47201699999999
  0
ARC
  5
4F9
  8
_________1
 62
     7
 10
-133.90430799999999
 20
128.276534
 30
0.0
 40
222.281194
 50
353.14937900000001
 51
357.979715
  0
ARC
  5
4FA
  8
_________1
 62
     7
 10
-163.13926000000001
 20
129.75520399999999
 30
0.0
 40
251.550498
 50
357.87787400000002
 51
0.038051
  0
LINE
  5
4FB
  8
_________1
 62
     7
 10
125.208
 20
181.01599999999999
 30
0.0
 11
125.05800000000001
 21
180.97300000000001
 31
0.0
  0
LINE
  5
4FC
  8
_________1
 62
     7
 10
125.05800000000001
 20
180.97300000000001
 30
0.0
 11
124.93000000000001
 21
180.845
 31
0.0
  0
LINE
  5
4FD
  8
_________1
 62
     7
 10
124.93000000000001
 20
180.845
 30
0.0
 11
124.88800000000001
 21
180.696
 31
0.0
  0
LINE
  5
4FE
  8
_________1
 62
     7
 10
124.88800000000001
 20
180.696
 30
0.0
 11
124.93000000000001
 21
180.52500000000001
 31
0.0
  0
LINE
  5
4FF
  8
_________1
 62
     7
 10
124.93000000000001
 20
180.52500000000001
 30
0.0
 11
125.05800000000001
 21
180.39699999999999
 31
0.0
  0
LINE
  5
500
  8
_________1
 62
     7
 10
125.05800000000001
 20
180.39699999999999
 30
0.0
 11
125.208
 21
180.35499999999999
 31
0.0
  0
LINE
  5
501
  8
_________1
 62
     7
 10
125.208
 20
180.35499999999999
 30
0.0
 11
125.378
 21
180.39699999999999
 31
0.0
  0
LINE
  5
502
  8
_________1
 62
     7
 10
125.378
 20
180.39699999999999
 30
0.0
 11
125.506
 21
180.52500000000001
 31
0.0
  0
LINE
  5
503
  8
_________1
 62
     7
 10
125.506
 20
180.52500000000001
 30
0.0
 11
125.54900000000001
 21
180.696
 31
0.0
  0
LINE
  5
504
  8
_________1
 62
     7
 10
125.54900000000001
 20
180.696
 30
0.0
 11
125.506
 21
180.845
 31
0.0
  0
LINE
  5
505
  8
_________1
 62
     7
 10
125.506
 20
180.845
 30
0.0
 11
125.378
 21
180.97300000000001
 31
0.0
  0
LINE
  5
506
  8
_________1
 62
     7
 10
125.378
 20
180.97300000000001
 30
0.0
 11
125.208
 21
181.01599999999999
 31
0.0
  0
LINE
  5
507
  8
_________1
 62
     7
 10
125.16500000000001
 20
181.357
 30
0.0
 11
124.973
 21
181.315
 31
0.0
  0
LINE
  5
508
  8
_________1
 62
     7
 10
124.973
 20
181.315
 30
0.0
 11
124.803
 21
181.208
 31
0.0
  0
LINE
  5
509
  8
_________1
 62
     7
 10
124.803
 20
181.208
 30
0.0
 11
124.675
 21
181.059
 31
0.0
  0
LINE
  5
50A
  8
_________1
 62
     7
 10
124.675
 20
181.059
 30
0.0
 11
124.589
 21
180.88800000000001
 31
0.0
  0
LINE
  5
50B
  8
_________1
 62
     7
 10
124.589
 20
180.88800000000001
 30
0.0
 11
124.547
 21
180.696
 31
0.0
  0
LINE
  5
50C
  8
_________1
 62
     7
 10
125.187
 20
181.01599999999999
 30
0.0
 11
125.01600000000001
 21
180.952
 31
0.0
  0
LINE
  5
50D
  8
_________1
 62
     7
 10
125.01600000000001
 20
180.952
 30
0.0
 11
124.90900000000001
 21
180.82400000000001
 31
0.0
  0
LINE
  5
50E
  8
_________1
 62
     7
 10
124.90900000000001
 20
180.82400000000001
 30
0.0
 11
124.88800000000001
 21
180.654
 31
0.0
  0
LINE
  5
50F
  8
_________1
 62
     7
 10
124.88800000000001
 20
180.654
 30
0.0
 11
124.952
 21
179.99199999999999
 31
0.0
  0
LINE
  5
510
  8
_________1
 62
     7
 10
124.952
 20
179.99199999999999
 30
0.0
 11
125.08
 21
179.352
 31
0.0
  0
LINE
  5
511
  8
_________1
 62
     7
 10
125.16500000000001
 20
181.357
 30
0.0
 11
126.55200000000001
 21
181.4429999999999
 31
0.0
  0
LINE
  5
512
  8
_________1
 62
     7
 10
125.187
 20
181.01599999999999
 30
0.0
 11
126.55200000000001
 21
181.101
 31
0.0
  0
ARC
  5
513
  8
_________1
 62
     7
 10
124.93726100000001
 20
177.264017
 30
0.0
 40
1.546368
 50
8.6301649999999999
 51
50.226271999999987
  0
ARC
  5
514
  8
_________1
 62
     7
 10
124.881784
 20
177.23845299999999
 30
0.0
 40
1.601723999999999
 50
49.286037
 51
76.709761999999998
  0
LINE
  5
515
  8
_________1
 62
     7
 10
124.76000000000001
 20
179.267
 30
0.0
 11
124.866
 21
179.053
 31
0.0
  0
LINE
  5
516
  8
_________1
 62
     7
 10
124.866
 20
179.053
 30
0.0
 11
125.03700000000001
 21
178.88300000000001
 31
0.0
  0
LINE
  5
517
  8
_________1
 62
     7
 10
125.03700000000001
 20
178.88300000000001
 30
0.0
 11
125.25
 21
178.797
 31
0.0
  0
LINE
  5
518
  8
_________1
 62
     7
 10
126.53
 20
176.96299999999999
 30
0.0
 11
126.46599999999999
 21
177.49600000000001
 31
0.0
  0
ARC
  5
519
  8
_________1
 62
     7
 10
122.532082
 20
176.655472
 30
0.0
 40
4.3516129999999986
 50
4.3312089999999994
 51
13.056414
  0
ARC
  5
51A
  8
_________1
 62
     7
 10
124.35137400000001
 20
177.041515
 30
0.0
 40
2.4923860000000002
 50
13.859527999999999
 51
26.089808999999999
  0
ARC
  5
51B
  8
_________1
 62
     7
 10
124.973506
 20
177.31870900000001
 30
0.0
 40
1.8119089999999991
 50
26.869336999999991
 51
63.888933999999999
  0
ARC
  5
51C
  8
_________1
 62
     7
 10
124.614593
 20
176.64981
 30
0.0
 40
2.570654999999999
 50
63.267234000000002
 51
73.715244999999996
  0
LINE
  5
51D
  8
_________1
 62
     7
 10
126.55200000000001
 20
178.221
 30
0.0
 11
126.55200000000001
 21
181.4429999999999
 31
0.0
  0
LINE
  5
51E
  8
_________1
 62
     7
 10
126.55200000000001
 20
181.4429999999999
 30
0.0
 11
126.55200000000001
 21
178.221
 31
0.0
  0
LINE
  5
51F
  8
_________1
 62
     7
 10
124.547
 20
180.696
 30
0.0
 11
124.611
 21
179.97099999999989
 31
0.0
  0
LINE
  5
520
  8
_________1
 62
     7
 10
124.611
 20
179.97099999999989
 30
0.0
 11
124.76000000000001
 21
179.267
 31
0.0
  0
LINE
  5
521
  8
_________1
 62
     7
 10
125.08
 20
179.352
 30
0.0
 11
125.16500000000001
 21
179.202
 31
0.0
  0
LINE
  5
522
  8
_________1
 62
     7
 10
125.16500000000001
 20
179.202
 30
0.0
 11
125.33499999999999
 21
179.11699999999999
 31
0.0
  0
LINE
  5
523
  8
_________1
 62
     7
 10
55.387
 20
107.117
 30
0.0
 11
55.6006
 21
105.602
 31
0.0
  0
LINE
  5
524
  8
_________1
 62
     7
 10
55.6006
 20
105.602
 30
0.0
 11
55.942
 21
104.10899999999999
 31
0.0
  0
ARC
  5
525
  8
_________1
 62
     7
 10
102.36750600000001
 20
101.780553
 30
0.0
 40
54.596306999999989
 50
163.60982799999999
 51
180.018899
  0
ARC
  5
526
  8
_________1
 62
     7
 10
-147.05015
 20
128.508611
 30
0.0
 40
199.450154
 50
353.39906100000002
 51
357.06729300000012
  0
ARC
  5
527
  8
_________1
 62
     7
 10
-181.183581
 20
130.65863100000001
 30
0.0
 40
233.64922599999991
 50
356.96899999999999
 51
359.81942600000002
  0
ARC
  5
528
  8
_________1
 62
     7
 10
304.13741900000002
 20
129.861786
 30
0.0
 40
251.67294100000001
 50
179.98621199999999
 51
183.951334
  0
ARC
  5
529
  8
_________1
 62
     7
 10
275.70501200000001
 20
128.26716999999999
 30
0.0
 40
223.19854000000001
 50
184.045908
 51
186.819929
  0
LINE
  5
52A
  8
_________1
 62
     7
 10
124.88800000000001
 20
180.696
 30
0.0
 11
125.208
 21
181.01599999999999
 31
0.0
  0
LINE
  5
52B
  8
_________1
 62
     7
 10
124.952
 20
180.483
 30
0.0
 11
125.42100000000001
 21
180.952
 31
0.0
  0
LINE
  5
52C
  8
_________1
 62
     7
 10
125.14400000000001
 20
180.35499999999999
 30
0.0
 11
125.54900000000001
 21
180.75999999999999
 31
0.0
  0
LINE
  5
52D
  8
_________1
 62
     7
 10
126.53
 20
176.96299999999999
 30
0.0
 11
126.572
 21
176.75
 31
0.0
  0
LINE
  5
52E
  8
_________1
 62
     7
 10
126.572
 20
176.75
 30
0.0
 11
126.7
 21
176.55699999999999
 31
0.0
  0
LINE
  5
52F
  8
_________1
 62
     7
 10
126.7
 20
176.55699999999999
 30
0.0
 11
126.871
 21
176.429
 31
0.0
  0
LINE
  5
530
  8
_________1
 62
     7
 10
126.871
 20
176.429
 30
0.0
 11
127.084
 21
176.34399999999999
 31
0.0
  0
LINE
  5
531
  8
_________1
 62
     7
 10
126.871
 20
176.98400000000001
 30
0.0
 11
126.914
 21
176.83500000000001
 31
0.0
  0
LINE
  5
532
  8
_________1
 62
     7
 10
126.914
 20
176.83500000000001
 30
0.0
 11
126.999
 21
176.72799999999989
 31
0.0
  0
LINE
  5
533
  8
_________1
 62
     7
 10
126.999
 20
176.72799999999989
 30
0.0
 11
127.127
 21
176.685
 31
0.0
  0
LINE
  5
534
  8
_________1
 62
     7
 10
131.51900000000001
 20
175.874
 30
0.0
 11
131.45500000000001
 21
175.55500000000001
 31
0.0
  0
LINE
  5
535
  8
_________1
 62
     7
 10
127.575
 20
176.59999999999999
 30
0.0
 11
127.511
 21
176.25899999999999
 31
0.0
  0
LINE
  5
536
  8
_________1
 62
     7
 10
127.191
 20
176.32300000000001
 30
0.0
 11
126.53
 21
176.98400000000001
 31
0.0
  0
LINE
  5
537
  8
_________1
 62
     7
 10
127.532
 20
176.28
 30
0.0
 11
127.127
 21
176.685
 31
0.0
  0
LINE
  5
538
  8
_________1
 62
     7
 10
126.871
 20
176.94099999999989
 30
0.0
 11
126.48699999999999
 21
177.32599999999999
 31
0.0
  0
LINE
  5
539
  8
_________1
 62
     7
 10
127.575
 20
176.536
 30
0.0
 11
127.489
 21
176.62100000000001
 31
0.0
  0
LINE
  5
53A
  8
_________1
 62
     7
 10
125.33499999999999
 20
178.77600000000001
 30
0.0
 11
124.739
 21
179.37299999999999
 31
0.0
  0
LINE
  5
53B
  8
_________1
 62
     7
 10
126.82899999999999
 20
177.28299999999999
 30
0.0
 11
126.423
 21
177.68799999999999
 31
0.0
  0
LINE
  5
53C
  8
_________1
 62
     7
 10
126.786
 20
177.624
 30
0.0
 11
125.271
 21
179.13900000000001
 31
0.0
  0
LINE
  5
53D
  8
_________1
 62
     7
 10
125.101
 20
179.309
 30
0.0
 11
124.65300000000001
 21
179.75700000000001
 31
0.0
  0
LINE
  5
53E
  8
_________1
 62
     7
 10
126.616
 20
178.09299999999999
 30
0.0
 11
125.741
 21
178.96799999999999
 31
0.0
  0
LINE
  5
53F
  8
_________1
 62
     7
 10
124.994
 20
179.715
 30
0.0
 11
124.589
 21
180.12
 31
0.0
  0
LINE
  5
540
  8
_________1
 62
     7
 10
124.93000000000001
 20
180.077
 30
0.0
 11
124.569
 21
180.44
 31
0.0
  0
LINE
  5
541
  8
_________1
 62
     7
 10
124.90900000000001
 20
180.41900000000001
 30
0.0
 11
124.547
 21
180.75999999999999
 31
0.0
  0
LINE
  5
542
  8
_________1
 62
     7
 10
124.88800000000001
 20
180.71799999999999
 30
0.0
 11
124.611
 21
180.995
 31
0.0
  0
LINE
  5
543
  8
_________1
 62
     7
 10
124.973
 20
180.93000000000001
 30
0.0
 11
124.739
 21
181.16499999999999
 31
0.0
  0
LINE
  5
544
  8
_________1
 62
     7
 10
125.187
 20
181.01599999999999
 30
0.0
 11
124.93000000000001
 21
181.29300000000001
 31
0.0
  0
LINE
  5
545
  8
_________1
 62
     7
 10
125.464
 20
181.03700000000001
 30
0.0
 11
125.16500000000001
 21
181.357
 31
0.0
  0
LINE
  5
546
  8
_________1
 62
     7
 10
125.741
 20
181.059
 30
0.0
 11
125.44199999999999
 21
181.37899999999999
 31
0.0
  0
LINE
  5
547
  8
_________1
 62
     7
 10
126.04000000000001
 20
181.08000000000001
 30
0.0
 11
125.71899999999999
 21
181.40000000000001
 31
0.0
  0
LINE
  5
548
  8
_________1
 62
     7
 10
126.31699999999999
 20
181.101
 30
0.0
 11
125.997
 21
181.40000000000001
 31
0.0
  0
LINE
  5
549
  8
_________1
 62
     7
 10
126.55200000000001
 20
181.16499999999999
 30
0.0
 11
126.274
 21
181.42099999999999
 31
0.0
  0
LINE
  5
54A
  8
_________1
 62
     7
 10
153.97300000000001
 20
162.947
 30
0.0
 11
154.31399999999999
 21
162.947
 31
0.0
  0
LINE
  5
54B
  8
_________1
 62
     7
 10
153.31200000000001
 20
161.965
 30
0.0
 11
153.78100000000001
 21
162.435
 31
0.0
  0
LINE
  5
54C
  8
_________1
 62
     7
 10
153.78100000000001
 20
162.435
 30
0.0
 11
153.90899999999999
 21
162.62700000000001
 31
0.0
  0
LINE
  5
54D
  8
_________1
 62
     7
 10
153.90899999999999
 20
162.62700000000001
 30
0.0
 11
153.97300000000001
 21
162.86099999999999
 31
0.0
  0
LINE
  5
54E
  8
_________1
 62
     7
 10
153.31200000000001
 20
161.965
 30
0.0
 11
153.184
 21
161.75200000000001
 31
0.0
  0
LINE
  5
54F
  8
_________1
 62
     7
 10
153.184
 20
161.75200000000001
 30
0.0
 11
153.12
 21
161.517
 31
0.0
  0
LINE
  5
550
  8
_________1
 62
     7
 10
154.01499999999999
 20
162.19999999999999
 30
0.0
 11
153.54599999999999
 21
161.73099999999999
 31
0.0
  0
LINE
  5
551
  8
_________1
 62
     7
 10
153.54599999999999
 20
161.73099999999999
 30
0.0
 11
153.46100000000001
 21
161.49600000000001
 31
0.0
  0
LINE
  5
552
  8
_________1
 62
     7
 10
154.01499999999999
 20
162.19999999999999
 30
0.0
 11
154.16499999999999
 21
162.392
 31
0.0
  0
LINE
  5
553
  8
_________1
 62
     7
 10
154.16499999999999
 20
162.392
 30
0.0
 11
154.25
 21
162.60599999999999
 31
0.0
  0
LINE
  5
554
  8
_________1
 62
     7
 10
154.25
 20
162.60599999999999
 30
0.0
 11
154.29300000000001
 21
162.81800000000001
 31
0.0
  0
LINE
  5
555
  8
_________1
 62
     7
 10
153.12
 20
168.024
 30
0.0
 11
153.184
 21
167.78899999999999
 31
0.0
  0
LINE
  5
556
  8
_________1
 62
     7
 10
153.184
 20
167.78899999999999
 30
0.0
 11
153.333
 21
167.59700000000001
 31
0.0
  0
LINE
  5
557
  8
_________1
 62
     7
 10
154.05799999999999
 20
167.363
 30
0.0
 11
153.56700000000001
 21
167.83199999999999
 31
0.0
  0
LINE
  5
558
  8
_________1
 62
     7
 10
153.56700000000001
 20
167.83199999999999
 30
0.0
 11
153.46100000000001
 21
168.06700000000001
 31
0.0
  0
LINE
  5
559
  8
_________1
 62
     7
 10
153.46100000000001
 20
168.06700000000001
 30
0.0
 11
153.46100000000001
 21
168.08799999999999
 31
0.0
  0
LINE
  5
55A
  8
_________1
 62
     7
 10
154.03700000000001
 20
166.61600000000001
 30
0.0
 11
154.37799999999999
 21
166.61600000000001
 31
0.0
  0
LINE
  5
55B
  8
_________1
 62
     7
 10
154.03700000000001
 20
166.68000000000001
 30
0.0
 11
153.994
 21
166.91499999999999
 31
0.0
  0
LINE
  5
55C
  8
_________1
 62
     7
 10
153.994
 20
166.91499999999999
 30
0.0
 11
153.845
 21
167.12799999999999
 31
0.0
  0
LINE
  5
55D
  8
_________1
 62
     7
 10
153.845
 20
167.12799999999999
 30
0.0
 11
153.333
 21
167.59700000000001
 31
0.0
  0
LINE
  5
55E
  8
_________1
 62
     7
 10
154.37799999999999
 20
166.68000000000001
 30
0.0
 11
154.33600000000001
 21
166.93599999999989
 31
0.0
  0
LINE
  5
55F
  8
_________1
 62
     7
 10
154.33600000000001
 20
166.93599999999989
 30
0.0
 11
154.22900000000001
 21
167.17099999999999
 31
0.0
  0
LINE
  5
560
  8
_________1
 62
     7
 10
154.22900000000001
 20
167.17099999999999
 30
0.0
 11
154.05799999999999
 21
167.363
 31
0.0
  0
LINE
  5
561
  8
_________1
 62
     7
 10
150.477
 20
172.37599999999989
 30
0.0
 11
148.70599999999999
 21
172.82400000000001
 31
0.0
  0
LINE
  5
562
  8
_________1
 62
     7
 10
148.70599999999999
 20
172.82400000000001
 30
0.0
 11
146.93600000000001
 21
173.16499999999999
 31
0.0
  0
LINE
  5
563
  8
_________1
 62
     7
 10
146.93600000000001
 20
173.16499999999999
 30
0.0
 11
145.14599999999999
 21
173.422
 31
0.0
  0
LINE
  5
564
  8
_________1
 62
     7
 10
150.39099999999999
 20
172.05600000000001
 30
0.0
 11
148.642
 21
172.482
 31
0.0
  0
LINE
  5
565
  8
_________1
 62
     7
 10
148.642
 20
172.482
 30
0.0
 11
146.87200000000001
 21
172.845
 31
0.0
  0
LINE
  5
566
  8
_________1
 62
     7
 10
146.87200000000001
 20
172.845
 30
0.0
 11
145.10300000000001
 21
173.08000000000001
 31
0.0
  0
LINE
  5
567
  8
_________1
 62
     7
 10
127.084
 20
176.34399999999999
 30
0.0
 11
145.10300000000001
 21
173.08000000000001
 31
0.0
  0
LINE
  5
568
  8
_________1
 62
     7
 10
127.127
 20
176.685
 30
0.0
 11
145.167
 21
173.422
 31
0.0
  0
ARC
  5
569
  8
_________1
 62
     7
 10
148.63842
 20
167.84066899999999
 30
0.0
 40
4.827558999999999
 50
2.6844919999999992
 51
35.141956999999998
  0
ARC
  5
56A
  8
_________1
 62
     7
 10
148.40168499999999
 20
167.73371700000001
 30
0.0
 40
5.0829399999999989
 50
34.591771999999999
 51
65.379846999999984
  0
ARC
  5
56B
  8
_________1
 62
     7
 10
148.68992800000001
 20
167.909976
 30
0.0
 40
4.4263560000000002
 50
5.0731190000000002
 51
42.782893999999999
  0
ARC
  5
56C
  8
_________1
 62
     7
 10
148.366502
 20
167.68563900000001
 30
0.0
 40
4.8164169999999986
 50
42.128246999999988
 51
65.143321999999998
  0
LINE
  5
56D
  8
_________1
 62
     7
 10
153.97300000000001
 20
162.86099999999999
 30
0.0
 11
154.05799999999999
 21
164.75999999999999
 31
0.0
  0
LINE
  5
56E
  8
_________1
 62
     7
 10
154.05799999999999
 20
164.75999999999999
 30
0.0
 11
154.03700000000001
 21
166.68000000000001
 31
0.0
  0
LINE
  5
56F
  8
_________1
 62
     7
 10
154.29300000000001
 20
162.81800000000001
 30
0.0
 11
154.399
 21
164.75999999999999
 31
0.0
  0
LINE
  5
570
  8
_________1
 62
     7
 10
154.399
 20
164.75999999999999
 30
0.0
 11
154.37799999999999
 21
166.68000000000001
 31
0.0
  0
LINE
  5
571
  8
_________1
 62
     7
 10
153.16200000000001
 20
163.37299999999999
 30
0.0
 11
153.226
 21
165.01599999999999
 31
0.0
  0
LINE
  5
572
  8
_________1
 62
     7
 10
153.226
 20
165.01599999999999
 30
0.0
 11
153.20500000000001
 21
166.65899999999999
 31
0.0
  0
LINE
  5
573
  8
_________1
 62
     7
 10
153.20500000000001
 20
166.65899999999999
 30
0.0
 11
153.09899999999999
 21
168.30099999999999
 31
0.0
  0
LINE
  5
574
  8
_________1
 62
     7
 10
137.53299999999999
 20
118.57299999999999
 30
0.0
 11
137.53299999999999
 21
129.43199999999999
 31
0.0
  0
ARC
  5
575
  8
_________1
 62
     7
 10
-167.99221
 20
130.590915
 30
0.0
 40
305.52693499999998
 50
357.74562400000002
 51
359.78260599999999
  0
LINE
  5
576
  8
_________1
 62
     7
 10
124.76000000000001
 20
126.765
 30
0.0
 11
124.547
 21
121.304
 31
0.0
  0
LINE
  5
577
  8
_________1
 62
     7
 10
129.55799999999999
 20
118.57299999999999
 30
0.0
 11
129.899
 21
118.914
 31
0.0
  0
LINE
  5
578
  8
_________1
 62
     7
 10
129.899
 20
118.914
 30
0.0
 11
130.17699999999999
 21
119.298
 31
0.0
  0
LINE
  5
579
  8
_________1
 62
     7
 10
125.54900000000001
 20
150.61600000000001
 30
0.0
 11
125.208
 21
147.501
 31
0.0
  0
LINE
  5
57A
  8
_________1
 62
     7
 10
125.208
 20
147.501
 30
0.0
 11
124.952
 21
144.36500000000001
 31
0.0
  0
LINE
  5
57B
  8
_________1
 62
     7
 10
124.952
 20
144.36500000000001
 30
0.0
 11
124.803
 21
141.25
 31
0.0
  0
LINE
  5
57C
  8
_________1
 62
     7
 10
124.803
 20
141.25
 30
0.0
 11
124.76000000000001
 21
138.11500000000001
 31
0.0
  0
LINE
  5
57D
  8
_________1
 62
     7
 10
127.959
 20
135.875
 30
0.0
 11
125.25
 21
136.642
 31
0.0
  0
LINE
  5
57E
  8
_________1
 62
     7
 10
124.76000000000001
 20
137.28200000000001
 30
0.0
 11
124.803
 21
137.06899999999999
 31
0.0
  0
LINE
  5
57F
  8
_________1
 62
     7
 10
124.803
 20
137.06899999999999
 30
0.0
 11
124.88800000000001
 21
136.87700000000001
 31
0.0
  0
LINE
  5
580
  8
_________1
 62
     7
 10
124.88800000000001
 20
136.87700000000001
 30
0.0
 11
125.03700000000001
 21
136.72800000000001
 31
0.0
  0
LINE
  5
581
  8
_________1
 62
     7
 10
125.03700000000001
 20
136.72800000000001
 30
0.0
 11
125.25
 21
136.642
 31
0.0
  0
ARC
  5
582
  8
_________1
 62
     7
 10
123.330215
 20
128.86133699999999
 30
0.0
 40
8.7279789999999995
 50
38.334031000000003
 51
42.016884999999988
  0
ARC
  5
583
  8
_________1
 62
     7
 10
126.39205200000001
 20
131.59210400000001
 30
0.0
 40
4.6254019999999993
 50
42.272348999999998
 51
51.303533999999999
  0
ARC
  5
584
  8
_________1
 62
     7
 10
127.056506
 20
132.35733500000001
 30
0.0
 40
3.612973999999999
 50
51.940542999999998
 51
66.333409000000003
  0
ARC
  5
585
  8
_________1
 62
     7
 10
126.37771499999999
 20
130.88798399999999
 30
0.0
 40
5.2313210000000003
 50
65.984185999999994
 51
72.411066000000005
  0
LINE
  5
586
  8
_________1
 62
     7
 10
124.547
 20
122.029
 30
0.0
 11
124.547
 21
180.696
 31
0.0
  0
LINE
  5
587
  8
_________1
 62
     7
 10
124.76000000000001
 20
179.267
 30
0.0
 11
124.76000000000001
 21
126.765
 31
0.0
  0
LINE
  5
588
  8
_________1
 62
     7
 10
152.203
 20
118.57299999999999
 30
0.0
 11
153.16200000000001
 21
163.37299999999999
 31
0.0
  0
ARC
  5
589
  8
_________1
 62
     7
 10
28.756535
 20
167.372074
 30
0.0
 40
98.232190000000017
 50
350.17850300000009
 51
3.671435999999999
  0
ARC
  5
58A
  8
_________1
 62
     7
 10
23.636884999999999
 20
167.29282699999999
 30
0.0
 40
103.346706
 50
3.533526999999999
 51
5.3688949999999993
  0
ARC
  5
58B
  8
_________1
 62
     7
 10
119.42200699999999
 20
126.661063
 30
0.0
 40
13.033457
 50
325.60330399999998
 51
355.66549600000002
  0
ARC
  5
58C
  8
_________1
 62
     7
 10
118.845195
 20
126.72919400000001
 30
0.0
 40
13.613789000000001
 50
355.56305300000002
 51
33.660012999999999
  0
LINE
  5
58D
  8
_________1
 62
     7
 10
153.376
 20
158.125
 30
0.0
 11
153.71799999999999
 21
158.46700000000001
 31
0.0
  0
LINE
  5
58E
  8
_________1
 62
     7
 10
153.376
 20
157.827
 30
0.0
 11
153.71799999999999
 21
158.16800000000001
 31
0.0
  0
LINE
  5
58F
  8
_________1
 62
     7
 10
153.376
 20
157.52799999999999
 30
0.0
 11
153.71799999999999
 21
157.869
 31
0.0
  0
LINE
  5
590
  8
_________1
 62
     7
 10
153.35499999999999
 20
157.208
 30
0.0
 11
153.696
 21
157.54900000000001
 31
0.0
  0
LINE
  5
591
  8
_________1
 62
     7
 10
153.35499999999999
 20
156.90899999999999
 30
0.0
 11
153.696
 21
157.25
 31
0.0
  0
LINE
  5
592
  8
_________1
 62
     7
 10
153.35499999999999
 20
156.61000000000001
 30
0.0
 11
153.696
 21
156.952
 31
0.0
  0
LINE
  5
593
  8
_________1
 62
     7
 10
153.333
 20
156.28999999999999
 30
0.0
 11
153.67400000000001
 21
156.63200000000001
 31
0.0
  0
LINE
  5
594
  8
_________1
 62
     7
 10
153.333
 20
155.99199999999999
 30
0.0
 11
153.67400000000001
 21
156.333
 31
0.0
  0
LINE
  5
595
  8
_________1
 62
     7
 10
153.333
 20
155.672
 30
0.0
 11
153.67400000000001
 21
156.01300000000001
 31
0.0
  0
LINE
  5
596
  8
_________1
 62
     7
 10
153.31200000000001
 20
155.37299999999999
 30
0.0
 11
153.65299999999999
 21
155.714
 31
0.0
  0
LINE
  5
597
  8
_________1
 62
     7
 10
153.31200000000001
 20
155.07499999999999
 30
0.0
 11
153.65299999999999
 21
155.416
 31
0.0
  0
LINE
  5
598
  8
_________1
 62
     7
 10
153.31200000000001
 20
154.75399999999999
 30
0.0
 11
153.65299999999999
 21
155.096
 31
0.0
  0
LINE
  5
599
  8
_________1
 62
     7
 10
153.28999999999999
 20
154.45599999999999
 30
0.0
 11
153.63200000000001
 21
154.797
 31
0.0
  0
LINE
  5
59A
  8
_________1
 62
     7
 10
153.28999999999999
 20
154.15700000000001
 30
0.0
 11
153.63200000000001
 21
154.499
 31
0.0
  0
LINE
  5
59B
  8
_________1
 62
     7
 10
153.28999999999999
 20
153.83699999999999
 30
0.0
 11
153.63200000000001
 21
154.178
 31
0.0
  0
LINE
  5
59C
  8
_________1
 62
     7
 10
153.26900000000001
 20
153.53800000000001
 30
0.0
 11
153.61000000000001
 21
153.88
 31
0.0
  0
LINE
  5
59D
  8
_________1
 62
     7
 10
153.26900000000001
 20
153.24000000000001
 30
0.0
 11
153.61000000000001
 21
153.58099999999999
 31
0.0
  0
LINE
  5
59E
  8
_________1
 62
     7
 10
153.26900000000001
 20
152.91999999999999
 30
0.0
 11
153.61000000000001
 21
153.261
 31
0.0
  0
LINE
  5
59F
  8
_________1
 62
     7
 10
153.24799999999999
 20
152.62100000000001
 30
0.0
 11
153.589
 21
152.96199999999999
 31
0.0
  0
LINE
  5
5A0
  8
_________1
 62
     7
 10
153.24799999999999
 20
152.30099999999999
 30
0.0
 11
153.589
 21
152.643
 31
0.0
  0
LINE
  5
5A1
  8
_________1
 62
     7
 10
153.24799999999999
 20
152.00200000000001
 30
0.0
 11
153.589
 21
152.34399999999999
 31
0.0
  0
LINE
  5
5A2
  8
_________1
 62
     7
 10
153.226
 20
151.70400000000001
 30
0.0
 11
153.56700000000001
 21
152.04499999999999
 31
0.0
  0
LINE
  5
5A3
  8
_________1
 62
     7
 10
153.226
 20
151.38399999999999
 30
0.0
 11
153.56700000000001
 21
151.72499999999999
 31
0.0
  0
LINE
  5
5A4
  8
_________1
 62
     7
 10
153.226
 20
151.08500000000001
 30
0.0
 11
153.56700000000001
 21
151.42699999999999
 31
0.0
  0
LINE
  5
5A5
  8
_________1
 62
     7
 10
153.20500000000001
 20
150.78700000000001
 30
0.0
 11
153.54599999999999
 21
151.12799999999999
 31
0.0
  0
LINE
  5
5A6
  8
_________1
 62
     7
 10
153.20500000000001
 20
150.46600000000001
 30
0.0
 11
153.54599999999999
 21
150.80799999999999
 31
0.0
  0
LINE
  5
5A7
  8
_________1
 62
     7
 10
153.20500000000001
 20
150.16800000000001
 30
0.0
 11
153.54599999999999
 21
150.50899999999999
 31
0.0
  0
LINE
  5
5A8
  8
_________1
 62
     7
 10
153.184
 20
149.84700000000001
 30
0.0
 11
153.52500000000001
 21
150.18899999999999
 31
0.0
  0
LINE
  5
5A9
  8
_________1
 62
     7
 10
153.184
 20
149.54900000000001
 30
0.0
 11
153.52500000000001
 21
149.88999999999999
 31
0.0
  0
LINE
  5
5AA
  8
_________1
 62
     7
 10
153.184
 20
149.25
 30
0.0
 11
153.52500000000001
 21
149.59200000000001
 31
0.0
  0
LINE
  5
5AB
  8
_________1
 62
     7
 10
153.16200000000001
 20
148.93000000000001
 30
0.0
 11
153.50399999999999
 21
149.27099999999999
 31
0.0
  0
LINE
  5
5AC
  8
_________1
 62
     7
 10
153.16200000000001
 20
148.631
 30
0.0
 11
153.50399999999999
 21
148.9729999999999
 31
0.0
  0
LINE
  5
5AD
  8
_________1
 62
     7
 10
153.16200000000001
 20
148.333
 30
0.0
 11
153.50399999999999
 21
148.67400000000001
 31
0.0
  0
LINE
  5
5AE
  8
_________1
 62
     7
 10
153.142
 20
148.01300000000001
 30
0.0
 11
153.483
 21
148.35400000000001
 31
0.0
  0
LINE
  5
5AF
  8
_________1
 62
     7
 10
153.142
 20
147.714
 30
0.0
 11
153.483
 21
148.05500000000001
 31
0.0
  0
LINE
  5
5B0
  8
_________1
 62
     7
 10
153.142
 20
147.416
 30
0.0
 11
153.483
 21
147.75700000000001
 31
0.0
  0
LINE
  5
5B1
  8
_________1
 62
     7
 10
153.12
 20
147.095
 30
0.0
 11
153.46100000000001
 21
147.43700000000001
 31
0.0
  0
LINE
  5
5B2
  8
_________1
 62
     7
 10
153.12
 20
146.797
 30
0.0
 11
153.46100000000001
 21
147.13800000000001
 31
0.0
  0
LINE
  5
5B3
  8
_________1
 62
     7
 10
153.12
 20
146.477
 30
0.0
 11
153.46100000000001
 21
146.81800000000001
 31
0.0
  0
LINE
  5
5B4
  8
_________1
 62
     7
 10
153.09899999999999
 20
146.178
 30
0.0
 11
153.44
 21
146.51900000000001
 31
0.0
  0
LINE
  5
5B5
  8
_________1
 62
     7
 10
153.09899999999999
 20
145.87899999999999
 30
0.0
 11
153.44
 21
146.221
 31
0.0
  0
LINE
  5
5B6
  8
_________1
 62
     7
 10
153.09899999999999
 20
145.56
 30
0.0
 11
153.44
 21
145.90100000000001
 31
0.0
  0
LINE
  5
5B7
  8
_________1
 62
     7
 10
153.077
 20
145.261
 30
0.0
 11
153.41900000000001
 21
145.602
 31
0.0
  0
LINE
  5
5B8
  8
_________1
 62
     7
 10
153.077
 20
144.96199999999999
 30
0.0
 11
153.41900000000001
 21
145.303
 31
0.0
  0
LINE
  5
5B9
  8
_________1
 62
     7
 10
153.077
 20
144.643
 30
0.0
 11
153.41900000000001
 21
144.98400000000001
 31
0.0
  0
LINE
  5
5BA
  8
_________1
 62
     7
 10
153.05600000000001
 20
144.34399999999999
 30
0.0
 11
153.39699999999999
 21
144.685
 31
0.0
  0
LINE
  5
5BB
  8
_________1
 62
     7
 10
153.05600000000001
 20
144.024
 30
0.0
 11
153.39699999999999
 21
144.36500000000001
 31
0.0
  0
LINE
  5
5BC
  8
_________1
 62
     7
 10
153.05600000000001
 20
143.72499999999999
 30
0.0
 11
153.39699999999999
 21
144.06700000000001
 31
0.0
  0
LINE
  5
5BD
  8
_________1
 62
     7
 10
153.035
 20
143.42599999999999
 30
0.0
 11
153.376
 21
143.767
 31
0.0
  0
LINE
  5
5BE
  8
_________1
 62
     7
 10
153.035
 20
143.10599999999999
 30
0.0
 11
153.376
 21
143.44799999999989
 31
0.0
  0
LINE
  5
5BF
  8
_________1
 62
     7
 10
153.035
 20
142.80799999999999
 30
0.0
 11
153.376
 21
143.149
 31
0.0
  0
LINE
  5
5C0
  8
_________1
 62
     7
 10
153.01400000000001
 20
142.50899999999999
 30
0.0
 11
153.35499999999999
 21
142.84999999999999
 31
0.0
  0
LINE
  5
5C1
  8
_________1
 62
     7
 10
153.01400000000001
 20
142.18899999999999
 30
0.0
 11
153.35499999999999
 21
142.53
 31
0.0
  0
LINE
  5
5C2
  8
_________1
 62
     7
 10
153.01400000000001
 20
141.88999999999999
 30
0.0
 11
153.35499999999999
 21
142.232
 31
0.0
  0
LINE
  5
5C3
  8
_________1
 62
     7
 10
152.99199999999999
 20
141.59200000000001
 30
0.0
 11
153.333
 21
141.93299999999999
 31
0.0
  0
LINE
  5
5C4
  8
_________1
 62
     7
 10
152.99199999999999
 20
141.27099999999999
 30
0.0
 11
153.333
 21
141.613
 31
0.0
  0
LINE
  5
5C5
  8
_________1
 62
     7
 10
152.99199999999999
 20
140.97300000000001
 30
0.0
 11
153.333
 21
141.31399999999999
 31
0.0
  0
LINE
  5
5C6
  8
_________1
 62
     7
 10
152.971
 20
140.65299999999999
 30
0.0
 11
153.31200000000001
 21
140.995
 31
0.0
  0
LINE
  5
5C7
  8
_________1
 62
     7
 10
152.971
 20
140.35499999999999
 30
0.0
 11
153.31200000000001
 21
140.696
 31
0.0
  0
LINE
  5
5C8
  8
_________1
 62
     7
 10
152.971
 20
140.05600000000001
 30
0.0
 11
153.31200000000001
 21
140.39699999999999
 31
0.0
  0
LINE
  5
5C9
  8
_________1
 62
     7
 10
152.94900000000001
 20
139.73599999999999
 30
0.0
 11
153.28999999999999
 21
140.077
 31
0.0
  0
LINE
  5
5CA
  8
_________1
 62
     7
 10
152.94900000000001
 20
139.43700000000001
 30
0.0
 11
153.28999999999999
 21
139.779
 31
0.0
  0
LINE
  5
5CB
  8
_________1
 62
     7
 10
152.94900000000001
 20
139.13900000000001
 30
0.0
 11
153.28999999999999
 21
139.47999999999999
 31
0.0
  0
LINE
  5
5CC
  8
_________1
 62
     7
 10
152.928
 20
138.81800000000001
 30
0.0
 11
153.26900000000001
 21
139.16
 31
0.0
  0
LINE
  5
5CD
  8
_________1
 62
     7
 10
152.928
 20
138.52000000000001
 30
0.0
 11
153.26900000000001
 21
138.86099999999999
 31
0.0
  0
LINE
  5
5CE
  8
_________1
 62
     7
 10
152.928
 20
138.19999999999999
 30
0.0
 11
153.26900000000001
 21
138.541
 31
0.0
  0
LINE
  5
5CF
  8
_________1
 62
     7
 10
152.90700000000001
 20
137.90100000000001
 30
0.0
 11
153.24799999999999
 21
138.24299999999999
 31
0.0
  0
LINE
  5
5D0
  8
_________1
 62
     7
 10
152.90700000000001
 20
137.60300000000001
 30
0.0
 11
153.24799999999999
 21
137.94399999999999
 31
0.0
  0
LINE
  5
5D1
  8
_________1
 62
     7
 10
152.90700000000001
 20
137.28200000000001
 30
0.0
 11
153.24799999999999
 21
137.624
 31
0.0
  0
LINE
  5
5D2
  8
_________1
 62
     7
 10
152.88499999999999
 20
136.98400000000001
 30
0.0
 11
153.226
 21
137.32499999999999
 31
0.0
  0
LINE
  5
5D3
  8
_________1
 62
     7
 10
152.88499999999999
 20
136.685
 30
0.0
 11
153.226
 21
137.02699999999999
 31
0.0
  0
LINE
  5
5D4
  8
_________1
 62
     7
 10
152.88499999999999
 20
136.36500000000001
 30
0.0
 11
153.226
 21
136.70599999999999
 31
0.0
  0
LINE
  5
5D5
  8
_________1
 62
     7
 10
152.86500000000001
 20
136.066
 30
0.0
 11
153.20500000000001
 21
136.40799999999999
 31
0.0
  0
LINE
  5
5D6
  8
_________1
 62
     7
 10
152.86500000000001
 20
135.768
 30
0.0
 11
153.20500000000001
 21
136.10900000000001
 31
0.0
  0
LINE
  5
5D7
  8
_________1
 62
     7
 10
152.86500000000001
 20
135.44800000000001
 30
0.0
 11
153.20500000000001
 21
135.78899999999999
 31
0.0
  0
LINE
  5
5D8
  8
_________1
 62
     7
 10
152.84299999999999
 20
135.149
 30
0.0
 11
153.184
 21
135.49000000000001
 31
0.0
  0
LINE
  5
5D9
  8
_________1
 62
     7
 10
152.84299999999999
 20
134.82900000000001
 30
0.0
 11
153.184
 21
135.17099999999999
 31
0.0
  0
LINE
  5
5DA
  8
_________1
 62
     7
 10
152.84299999999999
 20
134.53
 30
0.0
 11
153.184
 21
134.87200000000001
 31
0.0
  0
LINE
  5
5DB
  8
_________1
 62
     7
 10
152.821
 20
134.232
 30
0.0
 11
153.16200000000001
 21
134.57300000000001
 31
0.0
  0
LINE
  5
5DC
  8
_________1
 62
     7
 10
152.821
 20
133.91200000000001
 30
0.0
 11
153.16200000000001
 21
134.25299999999999
 31
0.0
  0
LINE
  5
5DD
  8
_________1
 62
     7
 10
152.821
 20
133.613
 30
0.0
 11
153.16200000000001
 21
133.95400000000001
 31
0.0
  0
LINE
  5
5DE
  8
_________1
 62
     7
 10
152.80099999999999
 20
133.31399999999999
 30
0.0
 11
153.142
 21
133.655
 31
0.0
  0
LINE
  5
5DF
  8
_________1
 62
     7
 10
152.80099999999999
 20
132.995
 30
0.0
 11
153.142
 21
133.33600000000001
 31
0.0
  0
LINE
  5
5E0
  8
_________1
 62
     7
 10
152.80099999999999
 20
132.696
 30
0.0
 11
153.142
 21
133.03700000000001
 31
0.0
  0
LINE
  5
5E1
  8
_________1
 62
     7
 10
152.779
 20
132.376
 30
0.0
 11
153.12
 21
132.71700000000001
 31
0.0
  0
LINE
  5
5E2
  8
_________1
 62
     7
 10
152.779
 20
132.077
 30
0.0
 11
153.12
 21
132.4189999999999
 31
0.0
  0
LINE
  5
5E3
  8
_________1
 62
     7
 10
152.779
 20
131.77799999999999
 30
0.0
 11
153.12
 21
132.12
 31
0.0
  0
LINE
  5
5E4
  8
_________1
 62
     7
 10
152.75800000000001
 20
131.459
 30
0.0
 11
153.09899999999999
 21
131.80000000000001
 31
0.0
  0
LINE
  5
5E5
  8
_________1
 62
     7
 10
152.75800000000001
 20
131.16
 30
0.0
 11
153.09899999999999
 21
131.50200000000001
 31
0.0
  0
LINE
  5
5E6
  8
_________1
 62
     7
 10
152.75800000000001
 20
130.86099999999999
 30
0.0
 11
153.09899999999999
 21
131.202
 31
0.0
  0
LINE
  5
5E7
  8
_________1
 62
     7
 10
152.73599999999999
 20
130.541
 30
0.0
 11
153.077
 21
130.88300000000001
 31
0.0
  0
LINE
  5
5E8
  8
_________1
 62
     7
 10
152.73599999999999
 20
130.24299999999999
 30
0.0
 11
153.077
 21
130.584
 31
0.0
  0
LINE
  5
5E9
  8
_________1
 62
     7
 10
152.73599999999999
 20
129.922
 30
0.0
 11
153.077
 21
130.285
 31
0.0
  0
LINE
  5
5EA
  8
_________1
 62
     7
 10
152.715
 20
129.624
 30
0.0
 11
153.05600000000001
 21
129.965
 31
0.0
  0
LINE
  5
5EB
  8
_________1
 62
     7
 10
152.715
 20
129.32499999999999
 30
0.0
 11
153.05600000000001
 21
129.667
 31
0.0
  0
LINE
  5
5EC
  8
_________1
 62
     7
 10
152.715
 20
129.005
 30
0.0
 11
153.05600000000001
 21
129.346
 31
0.0
  0
LINE
  5
5ED
  8
_________1
 62
     7
 10
152.69300000000001
 20
128.70599999999999
 30
0.0
 11
153.035
 21
129.048
 31
0.0
  0
LINE
  5
5EE
  8
_________1
 62
     7
 10
152.69300000000001
 20
128.40799999999999
 30
0.0
 11
153.035
 21
128.749
 31
0.0
  0
LINE
  5
5EF
  8
_________1
 62
     7
 10
152.69300000000001
 20
128.08799999999999
 30
0.0
 11
153.035
 21
128.429
 31
0.0
  0
LINE
  5
5F0
  8
_________1
 62
     7
 10
152.672
 20
127.789
 30
0.0
 11
153.01400000000001
 21
128.13
 31
0.0
  0
LINE
  5
5F1
  8
_________1
 62
     7
 10
152.672
 20
127.491
 30
0.0
 11
153.01400000000001
 21
127.83199999999999
 31
0.0
  0
LINE
  5
5F2
  8
_________1
 62
     7
 10
152.672
 20
127.17
 30
0.0
 11
153.01400000000001
 21
127.512
 31
0.0
  0
LINE
  5
5F3
  8
_________1
 62
     7
 10
152.65100000000001
 20
126.872
 30
0.0
 11
152.99199999999999
 21
127.21299999999999
 31
0.0
  0
LINE
  5
5F4
  8
_________1
 62
     7
 10
152.65100000000001
 20
126.55200000000001
 30
0.0
 11
152.99199999999999
 21
126.893
 31
0.0
  0
LINE
  5
5F5
  8
_________1
 62
     7
 10
152.63
 20
126.253
 30
0.0
 11
152.99199999999999
 21
126.59399999999999
 31
0.0
  0
LINE
  5
5F6
  8
_________1
 62
     7
 10
152.63
 20
125.955
 30
0.0
 11
152.971
 21
126.29600000000001
 31
0.0
  0
LINE
  5
5F7
  8
_________1
 62
     7
 10
152.63
 20
125.634
 30
0.0
 11
152.971
 21
125.976
 31
0.0
  0
LINE
  5
5F8
  8
_________1
 62
     7
 10
152.608
 20
125.336
 30
0.0
 11
152.94900000000001
 21
125.67700000000001
 31
0.0
  0
LINE
  5
5F9
  8
_________1
 62
     7
 10
152.608
 20
125.03700000000001
 30
0.0
 11
152.94900000000001
 21
125.379
 31
0.0
  0
LINE
  5
5FA
  8
_________1
 62
     7
 10
152.608
 20
124.717
 30
0.0
 11
152.94900000000001
 21
125.05800000000001
 31
0.0
  0
LINE
  5
5FB
  8
_________1
 62
     7
 10
152.58699999999999
 20
124.41800000000001
 30
0.0
 11
152.928
 21
124.76000000000001
 31
0.0
  0
LINE
  5
5FC
  8
_________1
 62
     7
 10
152.58699999999999
 20
124.099
 30
0.0
 11
152.928
 21
124.44
 31
0.0
  0
LINE
  5
5FD
  8
_________1
 62
     7
 10
152.58699999999999
 20
123.8
 30
0.0
 11
152.928
 21
124.14100000000001
 31
0.0
  0
LINE
  5
5FE
  8
_________1
 62
     7
 10
152.566
 20
123.501
 30
0.0
 11
152.90700000000001
 21
123.842
 31
0.0
  0
LINE
  5
5FF
  8
_________1
 62
     7
 10
152.566
 20
123.181
 30
0.0
 11
152.90700000000001
 21
123.523
 31
0.0
  0
LINE
  5
600
  8
_________1
 62
     7
 10
152.566
 20
122.883
 30
0.0
 11
152.90700000000001
 21
123.224
 31
0.0
  0
LINE
  5
601
  8
_________1
 62
     7
 10
152.54400000000001
 20
122.583
 30
0.0
 11
152.88499999999999
 21
122.925
 31
0.0
  0
LINE
  5
602
  8
_________1
 62
     7
 10
152.54400000000001
 20
122.264
 30
0.0
 11
152.88499999999999
 21
122.605
 31
0.0
  0
LINE
  5
603
  8
_________1
 62
     7
 10
152.54400000000001
 20
121.965
 30
0.0
 11
152.88499999999999
 21
122.306
 31
0.0
  0
LINE
  5
604
  8
_________1
 62
     7
 10
152.523
 20
121.666
 30
0.0
 11
152.86500000000001
 21
122.00700000000001
 31
0.0
  0
LINE
  5
605
  8
_________1
 62
     7
 10
152.523
 20
121.34699999999999
 30
0.0
 11
152.86500000000001
 21
121.688
 31
0.0
  0
LINE
  5
606
  8
_________1
 62
     7
 10
152.523
 20
121.048
 30
0.0
 11
152.86500000000001
 21
121.389
 31
0.0
  0
LINE
  5
607
  8
_________1
 62
     7
 10
152.50200000000001
 20
120.72799999999999
 30
0.0
 11
152.84299999999999
 21
121.069
 31
0.0
  0
LINE
  5
608
  8
_________1
 62
     7
 10
152.50200000000001
 20
120.429
 30
0.0
 11
152.84299999999999
 21
120.771
 31
0.0
  0
LINE
  5
609
  8
_________1
 62
     7
 10
152.50200000000001
 20
120.131
 30
0.0
 11
152.84299999999999
 21
120.47199999999999
 31
0.0
  0
LINE
  5
60A
  8
_________1
 62
     7
 10
152.47999999999999
 20
119.81
 30
0.0
 11
152.821
 21
120.152
 31
0.0
  0
LINE
  5
60B
  8
_________1
 62
     7
 10
152.47999999999999
 20
119.512
 30
0.0
 11
152.821
 21
119.85299999999999
 31
0.0
  0
LINE
  5
60C
  8
_________1
 62
     7
 10
152.47999999999999
 20
119.21299999999999
 30
0.0
 11
152.821
 21
119.55500000000001
 31
0.0
  0
LINE
  5
60D
  8
_________1
 62
     7
 10
152.46000000000001
 20
118.893
 30
0.0
 11
152.80099999999999
 21
119.23399999999999
 31
0.0
  0
LINE
  5
60E
  8
_________1
 62
     7
 10
152.46000000000001
 20
118.595
 30
0.0
 11
152.80099999999999
 21
118.93600000000001
 31
0.0
  0
LINE
  5
60F
  8
_________1
 62
     7
 10
152.75800000000001
 20
118.57299999999999
 30
0.0
 11
152.80099999999999
 21
118.61499999999999
 31
0.0
  0
LINE
  5
610
  8
_________1
 62
     7
 10
152.24600000000001
 20
118.57299999999999
 30
0.0
 11
152.203
 21
118.61499999999999
 31
0.0
  0
LINE
  5
611
  8
_________1
 62
     7
 10
152.54400000000001
 20
118.595
 30
0.0
 11
152.203
 21
118.914
 31
0.0
  0
LINE
  5
612
  8
_________1
 62
     7
 10
152.54400000000001
 20
118.872
 30
0.0
 11
152.22499999999999
 21
119.21299999999999
 31
0.0
  0
LINE
  5
613
  8
_________1
 62
     7
 10
152.54400000000001
 20
119.17100000000001
 30
0.0
 11
152.22499999999999
 21
119.48999999999999
 31
0.0
  0
LINE
  5
614
  8
_________1
 62
     7
 10
152.566
 20
119.46899999999999
 30
0.0
 11
152.22499999999999
 21
119.789
 31
0.0
  0
LINE
  5
615
  8
_________1
 62
     7
 10
152.566
 20
119.767
 30
0.0
 11
152.24600000000001
 21
120.08799999999999
 31
0.0
  0
LINE
  5
616
  8
_________1
 62
     7
 10
152.566
 20
120.045
 30
0.0
 11
152.24600000000001
 21
120.386
 31
0.0
  0
LINE
  5
617
  8
_________1
 62
     7
 10
152.58699999999999
 20
120.343
 30
0.0
 11
152.24600000000001
 21
120.664
 31
0.0
  0
LINE
  5
618
  8
_________1
 62
     7
 10
152.58699999999999
 20
120.642
 30
0.0
 11
152.267
 21
120.96299999999999
 31
0.0
  0
LINE
  5
619
  8
_________1
 62
     7
 10
152.58699999999999
 20
120.92
 30
0.0
 11
152.267
 21
121.261
 31
0.0
  0
LINE
  5
61A
  8
_________1
 62
     7
 10
152.58699999999999
 20
121.21899999999999
 30
0.0
 11
152.267
 21
121.538
 31
0.0
  0
LINE
  5
61B
  8
_________1
 62
     7
 10
152.608
 20
121.517
 30
0.0
 11
152.28899999999999
 21
121.837
 31
0.0
  0
LINE
  5
61C
  8
_________1
 62
     7
 10
152.608
 20
121.816
 30
0.0
 11
152.28899999999999
 21
122.136
 31
0.0
  0
LINE
  5
61D
  8
_________1
 62
     7
 10
152.608
 20
122.093
 30
0.0
 11
152.28899999999999
 21
122.435
 31
0.0
  0
LINE
  5
61E
  8
_________1
 62
     7
 10
152.63
 20
122.392
 30
0.0
 11
152.309
 21
122.712
 31
0.0
  0
LINE
  5
61F
  8
_________1
 62
     7
 10
152.63
 20
122.69
 30
0.0
 11
152.309
 21
123.011
 31
0.0
  0
LINE
  5
620
  8
_________1
 62
     7
 10
152.63
 20
122.968
 30
0.0
 11
152.309
 21
123.309
 31
0.0
  0
LINE
  5
621
  8
_________1
 62
     7
 10
152.65100000000001
 20
123.26600000000001
 30
0.0
 11
152.309
 21
123.587
 31
0.0
  0
LINE
  5
622
  8
_________1
 62
     7
 10
152.65100000000001
 20
123.565
 30
0.0
 11
152.33099999999999
 21
123.88500000000001
 31
0.0
  0
LINE
  5
623
  8
_________1
 62
     7
 10
152.65100000000001
 20
123.864
 30
0.0
 11
152.33099999999999
 21
124.184
 31
0.0
  0
LINE
  5
624
  8
_________1
 62
     7
 10
152.672
 20
124.14100000000001
 30
0.0
 11
152.33099999999999
 21
124.482
 31
0.0
  0
LINE
  5
625
  8
_________1
 62
     7
 10
152.672
 20
124.44
 30
0.0
 11
152.352
 21
124.76000000000001
 31
0.0
  0
LINE
  5
626
  8
_________1
 62
     7
 10
152.672
 20
124.738
 30
0.0
 11
152.352
 21
125.05800000000001
 31
0.0
  0
LINE
  5
627
  8
_________1
 62
     7
 10
152.69300000000001
 20
125.01600000000001
 30
0.0
 11
152.352
 21
125.357
 31
0.0
  0
LINE
  5
628
  8
_________1
 62
     7
 10
152.69300000000001
 20
125.31399999999999
 30
0.0
 11
152.374
 21
125.634
 31
0.0
  0
LINE
  5
629
  8
_________1
 62
     7
 10
152.69300000000001
 20
125.613
 30
0.0
 11
152.374
 21
125.93300000000001
 31
0.0
  0
LINE
  5
62A
  8
_________1
 62
     7
 10
152.715
 20
125.91200000000001
 30
0.0
 11
152.374
 21
126.232
 31
0.0
  0
LINE
  5
62B
  8
_________1
 62
     7
 10
152.715
 20
126.18899999999999
 30
0.0
 11
152.39500000000001
 21
126.53
 31
0.0
  0
LINE
  5
62C
  8
_________1
 62
     7
 10
152.715
 20
126.488
 30
0.0
 11
152.39500000000001
 21
126.80800000000001
 31
0.0
  0
LINE
  5
62D
  8
_________1
 62
     7
 10
152.73599999999999
 20
126.78700000000001
 30
0.0
 11
152.39500000000001
 21
127.10599999999999
 31
0.0
  0
LINE
  5
62E
  8
_________1
 62
     7
 10
152.73599999999999
 20
127.06399999999999
 30
0.0
 11
152.417
 21
127.405
 31
0.0
  0
LINE
  5
62F
  8
_________1
 62
     7
 10
152.73599999999999
 20
127.363
 30
0.0
 11
152.417
 21
127.682
 31
0.0
  0
LINE
  5
630
  8
_________1
 62
     7
 10
152.75800000000001
 20
127.661
 30
0.0
 11
152.417
 21
127.98099999999999
 31
0.0
  0
LINE
  5
631
  8
_________1
 62
     7
 10
152.75800000000001
 20
127.95999999999999
 30
0.0
 11
152.43700000000001
 21
128.28
 31
0.0
  0
LINE
  5
632
  8
_________1
 62
     7
 10
152.75800000000001
 20
128.238
 30
0.0
 11
152.43700000000001
 21
128.57900000000001
 31
0.0
  0
LINE
  5
633
  8
_________1
 62
     7
 10
152.779
 20
128.536
 30
0.0
 11
152.43700000000001
 21
128.85599999999999
 31
0.0
  0
LINE
  5
634
  8
_________1
 62
     7
 10
152.779
 20
128.834
 30
0.0
 11
152.46000000000001
 21
129.155
 31
0.0
  0
LINE
  5
635
  8
_________1
 62
     7
 10
152.779
 20
129.11199999999999
 30
0.0
 11
152.46000000000001
 21
129.453
 31
0.0
  0
LINE
  5
636
  8
_________1
 62
     7
 10
152.779
 20
129.41
 30
0.0
 11
152.46000000000001
 21
129.72999999999999
 31
0.0
  0
LINE
  5
637
  8
_________1
 62
     7
 10
152.80099999999999
 20
129.709
 30
0.0
 11
152.47999999999999
 21
130.029
 31
0.0
  0
LINE
  5
638
  8
_________1
 62
     7
 10
152.80099999999999
 20
130.00800000000001
 30
0.0
 11
152.47999999999999
 21
130.327
 31
0.0
  0
LINE
  5
639
  8
_________1
 62
     7
 10
152.80099999999999
 20
130.285
 30
0.0
 11
152.47999999999999
 21
130.626
 31
0.0
  0
LINE
  5
63A
  8
_________1
 62
     7
 10
152.821
 20
130.584
 30
0.0
 11
152.47999999999999
 21
130.904
 31
0.0
  0
LINE
  5
63B
  8
_________1
 62
     7
 10
152.821
 20
130.88300000000001
 30
0.0
 11
152.50200000000001
 21
131.202
 31
0.0
  0
LINE
  5
63C
  8
_________1
 62
     7
 10
152.821
 20
131.16
 30
0.0
 11
152.50200000000001
 21
131.50200000000001
 31
0.0
  0
LINE
  5
63D
  8
_________1
 62
     7
 10
152.84299999999999
 20
131.459
 30
0.0
 11
152.50200000000001
 21
131.77799999999999
 31
0.0
  0
LINE
  5
63E
  8
_________1
 62
     7
 10
152.84299999999999
 20
131.75700000000001
 30
0.0
 11
152.523
 21
132.077
 31
0.0
  0
LINE
  5
63F
  8
_________1
 62
     7
 10
152.84299999999999
 20
132.05500000000001
 30
0.0
 11
152.523
 21
132.376
 31
0.0
  0
LINE
  5
640
  8
_________1
 62
     7
 10
152.86500000000001
 20
132.333
 30
0.0
 11
152.523
 21
132.67400000000001
 31
0.0
  0
LINE
  5
641
  8
_________1
 62
     7
 10
152.86500000000001
 20
132.63200000000001
 30
0.0
 11
152.54400000000001
 21
132.952
 31
0.0
  0
LINE
  5
642
  8
_________1
 62
     7
 10
152.86500000000001
 20
132.93100000000001
 30
0.0
 11
152.54400000000001
 21
133.25
 31
0.0
  0
LINE
  5
643
  8
_________1
 62
     7
 10
152.88499999999999
 20
133.208
 30
0.0
 11
152.54400000000001
 21
133.54900000000001
 31
0.0
  0
LINE
  5
644
  8
_________1
 62
     7
 10
152.88499999999999
 20
133.50700000000001
 30
0.0
 11
152.566
 21
133.82599999999999
 31
0.0
  0
LINE
  5
645
  8
_________1
 62
     7
 10
152.88499999999999
 20
133.80500000000001
 30
0.0
 11
152.566
 21
134.125
 31
0.0
  0
LINE
  5
646
  8
_________1
 62
     7
 10
152.90700000000001
 20
134.10400000000001
 30
0.0
 11
152.566
 21
134.42400000000001
 31
0.0
  0
LINE
  5
647
  8
_________1
 62
     7
 10
152.90700000000001
 20
134.381
 30
0.0
 11
152.58699999999999
 21
134.72300000000001
 31
0.0
  0
LINE
  5
648
  8
_________1
 62
     7
 10
152.90700000000001
 20
134.68000000000001
 30
0.0
 11
152.58699999999999
 21
135.0
 31
0.0
  0
LINE
  5
649
  8
_________1
 62
     7
 10
152.928
 20
134.97799999999989
 30
0.0
 11
152.58699999999999
 21
135.29900000000001
 31
0.0
  0
LINE
  5
64A
  8
_________1
 62
     7
 10
152.928
 20
135.256
 30
0.0
 11
152.608
 21
135.59700000000001
 31
0.0
  0
LINE
  5
64B
  8
_________1
 62
     7
 10
152.928
 20
135.554
 30
0.0
 11
152.608
 21
135.875
 31
0.0
  0
LINE
  5
64C
  8
_________1
 62
     7
 10
152.94900000000001
 20
135.85300000000001
 30
0.0
 11
152.608
 21
136.173
 31
0.0
  0
LINE
  5
64D
  8
_________1
 62
     7
 10
152.94900000000001
 20
136.15199999999999
 30
0.0
 11
152.63
 21
136.471
 31
0.0
  0
LINE
  5
64E
  8
_________1
 62
     7
 10
152.94900000000001
 20
136.429
 30
0.0
 11
152.63
 21
136.77000000000001
 31
0.0
  0
LINE
  5
64F
  8
_________1
 62
     7
 10
152.94900000000001
 20
136.72800000000001
 30
0.0
 11
152.63
 21
137.047
 31
0.0
  0
LINE
  5
650
  8
_________1
 62
     7
 10
152.971
 20
137.02699999999999
 30
0.0
 11
152.65100000000001
 21
137.346
 31
0.0
  0
LINE
  5
651
  8
_________1
 62
     7
 10
152.971
 20
137.304
 30
0.0
 11
152.65100000000001
 21
137.64500000000001
 31
0.0
  0
LINE
  5
652
  8
_________1
 62
     7
 10
152.971
 20
137.60300000000001
 30
0.0
 11
152.65100000000001
 21
137.923
 31
0.0
  0
LINE
  5
653
  8
_________1
 62
     7
 10
152.99199999999999
 20
137.90100000000001
 30
0.0
 11
152.65100000000001
 21
138.22200000000001
 31
0.0
  0
LINE
  5
654
  8
_________1
 62
     7
 10
152.99199999999999
 20
138.19999999999999
 30
0.0
 11
152.672
 21
138.52000000000001
 31
0.0
  0
LINE
  5
655
  8
_________1
 62
     7
 10
152.99199999999999
 20
138.477
 30
0.0
 11
152.672
 21
138.797
 31
0.0
  0
LINE
  5
656
  8
_________1
 62
     7
 10
153.01400000000001
 20
138.77600000000001
 30
0.0
 11
152.672
 21
139.096
 31
0.0
  0
LINE
  5
657
  8
_________1
 62
     7
 10
153.01400000000001
 20
139.07499999999999
 30
0.0
 11
152.69300000000001
 21
139.39400000000001
 31
0.0
  0
LINE
  5
658
  8
_________1
 62
     7
 10
153.01400000000001
 20
139.352
 30
0.0
 11
152.69300000000001
 21
139.69300000000001
 31
0.0
  0
LINE
  5
659
  8
_________1
 62
     7
 10
153.035
 20
139.65100000000001
 30
0.0
 11
152.69300000000001
 21
139.97
 31
0.0
  0
LINE
  5
65A
  8
_________1
 62
     7
 10
153.035
 20
139.94900000000001
 30
0.0
 11
152.715
 21
140.26900000000001
 31
0.0
  0
LINE
  5
65B
  8
_________1
 62
     7
 10
153.035
 20
140.227
 30
0.0
 11
152.715
 21
140.56800000000001
 31
0.0
  0
LINE
  5
65C
  8
_________1
 62
     7
 10
153.05600000000001
 20
140.52500000000001
 30
0.0
 11
152.715
 21
140.845
 31
0.0
  0
LINE
  5
65D
  8
_________1
 62
     7
 10
153.05600000000001
 20
140.82400000000001
 30
0.0
 11
152.73599999999999
 21
141.14400000000001
 31
0.0
  0
LINE
  5
65E
  8
_________1
 62
     7
 10
153.05600000000001
 20
141.12200000000001
 30
0.0
 11
152.73599999999999
 21
141.44200000000001
 31
0.0
  0
LINE
  5
65F
  8
_________1
 62
     7
 10
153.077
 20
141.399
 30
0.0
 11
152.73599999999999
 21
141.74100000000001
 31
0.0
  0
LINE
  5
660
  8
_________1
 62
     7
 10
153.077
 20
141.69800000000001
 30
0.0
 11
152.75800000000001
 21
142.018
 31
0.0
  0
LINE
  5
661
  8
_________1
 62
     7
 10
153.077
 20
141.99700000000001
 30
0.0
 11
152.75800000000001
 21
142.31700000000001
 31
0.0
  0
LINE
  5
662
  8
_________1
 62
     7
 10
153.09899999999999
 20
142.274
 30
0.0
 11
152.75800000000001
 21
142.61500000000001
 31
0.0
  0
LINE
  5
663
  8
_________1
 62
     7
 10
153.09899999999999
 20
142.57299999999989
 30
0.0
 11
152.779
 21
142.893
 31
0.0
  0
LINE
  5
664
  8
_________1
 62
     7
 10
153.09899999999999
 20
142.87200000000001
 30
0.0
 11
152.779
 21
143.191
 31
0.0
  0
LINE
  5
665
  8
_________1
 62
     7
 10
153.12
 20
143.16999999999999
 30
0.0
 11
152.779
 21
143.49100000000001
 31
0.0
  0
LINE
  5
666
  8
_________1
 62
     7
 10
153.12
 20
143.44799999999989
 30
0.0
 11
152.80099999999999
 21
143.78899999999999
 31
0.0
  0
LINE
  5
667
  8
_________1
 62
     7
 10
153.12
 20
143.74600000000001
 30
0.0
 11
152.80099999999999
 21
144.06700000000001
 31
0.0
  0
LINE
  5
668
  8
_________1
 62
     7
 10
153.12
 20
144.04499999999999
 30
0.0
 11
152.80099999999999
 21
144.36500000000001
 31
0.0
  0
LINE
  5
669
  8
_________1
 62
     7
 10
153.142
 20
144.322
 30
0.0
 11
152.821
 21
144.66399999999999
 31
0.0
  0
LINE
  5
66A
  8
_________1
 62
     7
 10
153.142
 20
144.62100000000001
 30
0.0
 11
152.821
 21
144.941
 31
0.0
  0
LINE
  5
66B
  8
_________1
 62
     7
 10
153.142
 20
144.91999999999999
 30
0.0
 11
152.821
 21
145.24000000000001
 31
0.0
  0
LINE
  5
66C
  8
_________1
 62
     7
 10
153.16200000000001
 20
145.21799999999999
 30
0.0
 11
152.84299999999999
 21
145.53800000000001
 31
0.0
  0
LINE
  5
66D
  8
_________1
 62
     7
 10
153.16200000000001
 20
145.49600000000001
 30
0.0
 11
152.84299999999999
 21
145.83699999999999
 31
0.0
  0
LINE
  5
66E
  8
_________1
 62
     7
 10
153.16200000000001
 20
145.79499999999999
 30
0.0
 11
152.84299999999999
 21
146.114
 31
0.0
  0
LINE
  5
66F
  8
_________1
 62
     7
 10
153.184
 20
146.09299999999999
 30
0.0
 11
152.84299999999999
 21
146.41300000000001
 31
0.0
  0
LINE
  5
670
  8
_________1
 62
     7
 10
153.184
 20
146.37100000000001
 30
0.0
 11
152.86500000000001
 21
146.71199999999999
 31
0.0
  0
LINE
  5
671
  8
_________1
 62
     7
 10
153.184
 20
146.66900000000001
 30
0.0
 11
152.86500000000001
 21
146.989
 31
0.0
  0
LINE
  5
672
  8
_________1
 62
     7
 10
153.20500000000001
 20
146.96799999999999
 30
0.0
 11
152.86500000000001
 21
147.2879999999999
 31
0.0
  0
LINE
  5
673
  8
_________1
 62
     7
 10
153.20500000000001
 20
147.26599999999999
 30
0.0
 11
152.88499999999999
 21
147.58699999999999
 31
0.0
  0
LINE
  5
674
  8
_________1
 62
     7
 10
153.20500000000001
 20
147.54400000000001
 30
0.0
 11
152.88499999999999
 21
147.88499999999999
 31
0.0
  0
LINE
  5
675
  8
_________1
 62
     7
 10
153.226
 20
147.84200000000001
 30
0.0
 11
152.88499999999999
 21
148.16300000000001
 31
0.0
  0
LINE
  5
676
  8
_________1
 62
     7
 10
153.226
 20
148.14099999999999
 30
0.0
 11
152.90700000000001
 21
148.46100000000001
 31
0.0
  0
LINE
  5
677
  8
_________1
 62
     7
 10
153.226
 20
148.41800000000001
 30
0.0
 11
152.90700000000001
 21
148.75899999999999
 31
0.0
  0
LINE
  5
678
  8
_________1
 62
     7
 10
153.24799999999999
 20
148.71700000000001
 30
0.0
 11
152.90700000000001
 21
149.03700000000001
 31
0.0
  0
LINE
  5
679
  8
_________1
 62
     7
 10
153.24799999999999
 20
149.01599999999999
 30
0.0
 11
152.928
 21
149.33500000000001
 31
0.0
  0
LINE
  5
67A
  8
_________1
 62
     7
 10
153.24799999999999
 20
149.31399999999999
 30
0.0
 11
152.928
 21
149.63499999999999
 31
0.0
  0
LINE
  5
67B
  8
_________1
 62
     7
 10
153.26900000000001
 20
149.59200000000001
 30
0.0
 11
152.928
 21
149.93299999999999
 31
0.0
  0
LINE
  5
67C
  8
_________1
 62
     7
 10
153.26900000000001
 20
149.88999999999999
 30
0.0
 11
152.94900000000001
 21
150.21100000000001
 31
0.0
  0
LINE
  5
67D
  8
_________1
 62
     7
 10
153.26900000000001
 20
150.18899999999999
 30
0.0
 11
152.94900000000001
 21
150.50899999999999
 31
0.0
  0
LINE
  5
67E
  8
_________1
 62
     7
 10
153.28999999999999
 20
150.46600000000001
 30
0.0
 11
152.94900000000001
 21
150.80799999999999
 31
0.0
  0
LINE
  5
67F
  8
_________1
 62
     7
 10
153.28999999999999
 20
150.76499999999999
 30
0.0
 11
152.971
 21
151.08500000000001
 31
0.0
  0
LINE
  5
680
  8
_________1
 62
     7
 10
153.28999999999999
 20
151.06399999999999
 30
0.0
 11
152.971
 21
151.38399999999999
 31
0.0
  0
LINE
  5
681
  8
_________1
 62
     7
 10
153.31200000000001
 20
151.36199999999999
 30
0.0
 11
152.971
 21
151.68199999999999
 31
0.0
  0
LINE
  5
682
  8
_________1
 62
     7
 10
153.31200000000001
 20
151.63999999999999
 30
0.0
 11
152.99199999999999
 21
151.98099999999999
 31
0.0
  0
LINE
  5
683
  8
_________1
 62
     7
 10
153.31200000000001
 20
151.93799999999999
 30
0.0
 11
152.99199999999999
 21
152.25899999999999
 31
0.0
  0
LINE
  5
684
  8
_________1
 62
     7
 10
153.31200000000001
 20
152.23699999999999
 30
0.0
 11
152.99199999999999
 21
152.55699999999999
 31
0.0
  0
LINE
  5
685
  8
_________1
 62
     7
 10
153.333
 20
152.51400000000001
 30
0.0
 11
153.01400000000001
 21
152.85599999999999
 31
0.0
  0
LINE
  5
686
  8
_________1
 62
     7
 10
153.333
 20
152.81299999999999
 30
0.0
 11
153.01400000000001
 21
153.13300000000001
 31
0.0
  0
LINE
  5
687
  8
_________1
 62
     7
 10
153.333
 20
153.11199999999999
 30
0.0
 11
153.01400000000001
 21
153.43199999999999
 31
0.0
  0
LINE
  5
688
  8
_________1
 62
     7
 10
153.35499999999999
 20
153.411
 30
0.0
 11
153.01400000000001
 21
153.72999999999999
 31
0.0
  0
LINE
  5
689
  8
_________1
 62
     7
 10
153.35499999999999
 20
153.68799999999999
 30
0.0
 11
153.035
 21
154.029
 31
0.0
  0
LINE
  5
68A
  8
_________1
 62
     7
 10
153.35499999999999
 20
153.98699999999999
 30
0.0
 11
153.035
 21
154.30600000000001
 31
0.0
  0
LINE
  5
68B
  8
_________1
 62
     7
 10
153.376
 20
154.285
 30
0.0
 11
153.035
 21
154.60499999999999
 31
0.0
  0
LINE
  5
68C
  8
_________1
 62
     7
 10
153.376
 20
154.56299999999999
 30
0.0
 11
153.05600000000001
 21
154.904
 31
0.0
  0
LINE
  5
68D
  8
_________1
 62
     7
 10
153.376
 20
154.86099999999999
 30
0.0
 11
153.05600000000001
 21
155.18100000000001
 31
0.0
  0
LINE
  5
68E
  8
_________1
 62
     7
 10
153.39699999999999
 20
155.16
 30
0.0
 11
153.05600000000001
 21
155.47999999999999
 31
0.0
  0
LINE
  5
68F
  8
_________1
 62
     7
 10
153.39699999999999
 20
155.458
 30
0.0
 11
153.077
 21
155.779
 31
0.0
  0
LINE
  5
690
  8
_________1
 62
     7
 10
153.39699999999999
 20
155.73599999999999
 30
0.0
 11
153.077
 21
156.077
 31
0.0
  0
LINE
  5
691
  8
_________1
 62
     7
 10
153.41900000000001
 20
156.03399999999999
 30
0.0
 11
153.077
 21
156.35499999999999
 31
0.0
  0
LINE
  5
692
  8
_________1
 62
     7
 10
153.41900000000001
 20
156.333
 30
0.0
 11
153.09899999999999
 21
156.65299999999999
 31
0.0
  0
LINE
  5
693
  8
_________1
 62
     7
 10
153.41900000000001
 20
156.61000000000001
 30
0.0
 11
153.09899999999999
 21
156.952
 31
0.0
  0
LINE
  5
694
  8
_________1
 62
     7
 10
153.44
 20
156.90899999999999
 30
0.0
 11
153.09899999999999
 21
157.22900000000001
 31
0.0
  0
LINE
  5
695
  8
_________1
 62
     7
 10
153.44
 20
157.208
 30
0.0
 11
153.12
 21
157.52799999999999
 31
0.0
  0
LINE
  5
696
  8
_________1
 62
     7
 10
153.44
 20
157.506
 30
0.0
 11
153.12
 21
157.827
 31
0.0
  0
LINE
  5
697
  8
_________1
 62
     7
 10
153.46100000000001
 20
157.78399999999999
 30
0.0
 11
153.12
 21
158.125
 31
0.0
  0
LINE
  5
698
  8
_________1
 62
     7
 10
153.46100000000001
 20
158.08199999999999
 30
0.0
 11
153.16200000000001
 21
158.381
 31
0.0
  0
LINE
  5
699
  8
_________1
 62
     7
 10
126.55200000000001
 20
74.775599999999997
 30
0.0
 11
126.55200000000001
 21
85.847499999999997
 31
0.0
  0
ARC
  5
69A
  8
_________1
 62
     7
 10
234.115016
 20
80.689555999999996
 30
0.0
 40
113.21477400000001
 50
169.03099900000001
 51
177.63169600000001
  0
ARC
  5
69B
  8
_________1
 62
     7
 10
243.7209
 20
79.990364
 30
0.0
 40
122.841717
 50
177.49099799999999
 51
180.13382999999999
  0
ARC
  5
69C
  8
_________1
 62
     7
 10
120.754209
 20
75.330252999999999
 30
0.0
 40
3.7983019999999992
 50
3.223611
 51
79.370204999999999
  0
LINE
  5
69D
  8
_________1
 62
     7
 10
124.547
 20
75.543800000000005
 30
0.0
 11
124.589
 21
75.351600000000005
 31
0.0
  0
LINE
  5
69E
  8
_________1
 62
     7
 10
124.589
 20
75.351600000000005
 30
0.0
 11
124.675
 21
75.180700000000002
 31
0.0
  0
LINE
  5
69F
  8
_________1
 62
     7
 10
124.675
 20
75.180700000000002
 30
0.0
 11
124.803
 21
75.053299999999993
 31
0.0
  0
LINE
  5
6A0
  8
_________1
 62
     7
 10
124.803
 20
75.053299999999993
 30
0.0
 11
124.952
 21
74.9465
 31
0.0
  0
LINE
  5
6A1
  8
_________1
 62
     7
 10
124.952
 20
74.9465
 30
0.0
 11
125.14400000000001
 21
74.903700000000001
 31
0.0
  0
LINE
  5
6A2
  8
_________1
 62
     7
 10
125.14400000000001
 20
74.903700000000001
 30
0.0
 11
126.55200000000001
 21
74.775599999999997
 31
0.0
  0
LINE
  5
6A3
  8
_________1
 62
     7
 10
120.88
 20
79.703500000000005
 30
0.0
 11
120.922
 21
79.489900000000006
 31
0.0
  0
LINE
  5
6A4
  8
_________1
 62
     7
 10
120.922
 20
79.489900000000006
 30
0.0
 11
121.05
 21
79.277000000000001
 31
0.0
  0
LINE
  5
6A5
  8
_________1
 62
     7
 10
121.05
 20
79.277000000000001
 30
0.0
 11
121.221
 21
79.127499999999984
 31
0.0
  0
LINE
  5
6A6
  8
_________1
 62
     7
 10
121.221
 20
79.127499999999984
 30
0.0
 11
121.455
 21
79.063400000000001
 31
0.0
  0
LINE
  5
6A7
  8
_________1
 62
     7
 10
137.36199999999999
 20
91.948800000000006
 30
0.0
 11
126.55200000000001
 21
85.462999999999994
 31
0.0
  0
LINE
  5
6A8
  8
_________1
 62
     7
 10
141.328
 20
93.741
 30
0.0
 11
142.821
 21
94.146100000000004
 31
0.0
  0
LINE
  5
6A9
  8
_________1
 62
     7
 10
142.821
 20
94.146100000000004
 30
0.0
 11
144.31399999999999
 21
94.636700000000005
 31
0.0
  0
LINE
  5
6AA
  8
_________1
 62
     7
 10
144.31399999999999
 20
94.636700000000005
 30
0.0
 11
145.785
 21
95.191299999999998
 31
0.0
  0
LINE
  5
6AB
  8
_________1
 62
     7
 10
145.785
 20
95.191299999999998
 30
0.0
 11
147.23500000000001
 21
95.810100000000006
 31
0.0
  0
LINE
  5
6AC
  8
_________1
 62
     7
 10
137.36199999999999
 20
91.948800000000006
 30
0.0
 11
138.04400000000001
 21
92.289900000000003
 31
0.0
  0
LINE
  5
6AD
  8
_________1
 62
     7
 10
138.04400000000001
 20
92.289900000000003
 30
0.0
 11
141.328
 21
93.741
 31
0.0
  0
ARC
  5
6AE
  8
_________1
 62
     7
 10
145.27091999999999
 20
102.476358
 30
0.0
 40
6.9580690000000001
 50
286.02675699999998
 51
333.18992700000001
  0
ARC
  5
6AF
  8
_________1
 62
     7
 10
144.906398
 20
102.706068
 30
0.0
 40
7.3871259999999994
 50
332.87498699999998
 51
336.28837200000009
  0
LINE
  5
6B0
  8
_________1
 62
     7
 10
151.99000000000001
 20
99.671400000000006
 30
0.0
 11
152.309
 21
101.506
 31
0.0
  0
LINE
  5
6B1
  8
_________1
 62
     7
 10
152.309
 20
101.506
 30
0.0
 11
152.523
 21
103.36199999999999
 31
0.0
  0
LINE
  5
6B2
  8
_________1
 62
     7
 10
152.523
 20
103.36199999999999
 30
0.0
 11
152.63
 21
105.239
 31
0.0
  0
LINE
  5
6B3
  8
_________1
 62
     7
 10
151.66999999999999
 20
99.735500000000016
 30
0.0
 11
151.99000000000001
 21
101.56999999999999
 31
0.0
  0
LINE
  5
6B4
  8
_________1
 62
     7
 10
151.99000000000001
 20
101.56999999999999
 30
0.0
 11
152.18199999999999
 21
103.405
 31
0.0
  0
LINE
  5
6B5
  8
_________1
 62
     7
 10
152.18199999999999
 20
103.405
 30
0.0
 11
152.309
 21
105.239
 31
0.0
  0
LINE
  5
6B6
  8
_________1
 62
     7
 10
151.99000000000001
 20
99.671400000000006
 30
0.0
 11
151.66999999999999
 21
99.735500000000016
 31
0.0
  0
ARC
  5
6B7
  8
_________1
 62
     7
 10
3.220092999999999
 20
121.737396
 30
0.0
 40
121.32675999999999
 50
350.74845399999998
 51
0.137944
  0
LINE
  5
6B8
  8
_________1
 62
     7
 10
126.55200000000001
 20
74.775599999999997
 30
0.0
 11
126.55200000000001
 21
118.57299999999999
 31
0.0
  0
LINE
  5
6B9
  8
_________1
 62
     7
 10
138.04400000000001
 20
118.44499999999999
 30
0.0
 11
138.04400000000001
 21
92.289900000000003
 31
0.0
  0
ARC
  5
6BA
  8
_________1
 62
     7
 10
819.12731600000006
 20
200.28023099999999
 30
0.0
 40
689.59100899999999
 50
188.827506
 51
189.00965600000001
  0
ARC
  5
6BB
  8
_________1
 62
     7
 10
223.98566
 20
107.62932499999999
 30
0.0
 40
87.280966000000006
 50
187.30506500000001
 51
188.68108100000001
  0
ARC
  5
6BC
  8
_________1
 62
     7
 10
184.83653899999999
 20
102.526782
 30
0.0
 40
47.800884000000003
 50
184.35149799999999
 51
187.2052919999999
  0
ARC
  5
6BD
  8
_________1
 62
     7
 10
170.13440199999999
 20
101.320306
 30
0.0
 40
33.049702000000003
 50
179.64059800000001
 51
184.19984199999999
  0
ARC
  5
6BE
  8
_________1
 62
     7
 10
192.37553199999999
 20
102.12409
 30
0.0
 40
55.293399000000001
 50
178.13317900000001
 51
180.61811700000001
  0
ARC
  5
6BF
  8
_________1
 62
     7
 10
225.507248
 20
101.24320299999999
 30
0.0
 40
88.436449999999994
 50
176.809054
 51
178.26202900000001
  0
ARC
  5
6C0
  8
_________1
 62
     7
 10
322.58732900000001
 20
96.011516999999998
 30
0.0
 40
185.657318
 50
176.089122
 51
176.864676
  0
ARC
  5
6C1
  8
_________1
 62
     7
 10
-198.09733299999999
 20
128.48703999999989
 30
0.0
 40
336.04425500000002
 50
356.61993000000001
 51
357.63614799999999
  0
ARC
  5
6C2
  8
_________1
 62
     7
 10
-425.13270899999998
 20
138.43349499999999
 30
0.0
 40
563.29697199999998
 50
357.57777900000002
 51
357.96646299999998
  0
LINE
  5
6C3
  8
_________1
 62
     7
 10
152.309
 20
105.239
 30
0.0
 11
153.46100000000001
 21
161.49600000000001
 31
0.0
  0
LINE
  5
6C4
  8
_________1
 62
     7
 10
124.547
 20
75.521799999999985
 30
0.0
 11
124.547
 21
118.57299999999999
 31
0.0
  0
LINE
  5
6C5
  8
_________1
 62
     7
 10
152.63
 20
105.239
 30
0.0
 11
153.80199999999999
 21
161.98699999999999
 31
0.0
  0
ARC
  5
6C6
  8
_________1
 62
     7
 10
94.734555
 20
180.751912
 30
0.0
 40
0.6930960000000001
 50
2.1469949999999991
 51
87.823377000000022
  0
LINE
  5
6C7
  8
_________1
 62
     7
 10
95.427199999999999
 20
180.77799999999999
 30
0.0
 11
95.427199999999999
 21
75.443899999999985
 31
0.0
  0
ARC
  5
6C8
  8
_________1
 62
     7
 10
94.734669999999994
 20
75.469426999999996
 30
0.0
 40
0.692964
 50
272.167554
 51
357.89167700000002
  0
LINE
  5
6C9
  8
_________1
 62
     7
 10
94.760900000000007
 20
74.777000000000001
 30
0.0
 11
46.093800000000002
 21
74.777000000000001
 31
0.0
  0
ARC
  5
6CA
  8
_________1
 62
     7
 10
46.119325000000003
 20
75.469127
 30
0.0
 40
0.692639
 50
182.08449200000001
 51
267.88593600000002
  0
LINE
  5
6CB
  8
_________1
 62
     7
 10
45.427100000000003
 20
75.443899999999985
 30
0.0
 11
45.427100000000003
 21
180.77799999999999
 31
0.0
  0
ARC
  5
6CC
  8
_________1
 62
     7
 10
46.119310999999989
 20
180.752341
 30
0.0
 40
0.692638
 50
92.112883000000011
 51
177.88708799999989
  0
LINE
  5
6CD
  8
_________1
 62
     7
 10
46.093800000000002
 20
181.44499999999999
 30
0.0
 11
94.760900000000007
 21
181.44499999999999
 31
0.0
  0
INSERT
  5
6CE
  8
_________1
 62
     7
  2
AIGNBL02010013
 10
0.0
 20
0.0
 30
0.0
  0
LINE
  5
6CF
  8
_________1
 62
     7
 10
32.6477
 20
74.777000000000001
 30
0.0
 11
44.7271
 21
74.777000000000001
 31
0.0
  0
LINE
  5
6D0
  8
_________1
 62
     7
 10
96.127200000000016
 20
181.423
 30
0.0
 11
104.249
 21
181.423
 31
0.0
  0
LINE
  5
6D1
  8
_________1
 62
     7
 10
39.295499999999997
 20
177.10900000000001
 30
0.0
 11
46.310299999999991
 21
177.10900000000001
 31
0.0
  0
LINE
  5
6D2
  8
_________1
 62
     7
 10
76.139200000000002
 20
164.77600000000001
 30
0.0
 11
104.26300000000001
 21
164.77600000000001
 31
0.0
  0
LINE
  5
6D3
  8
_________1
 62
     7
 10
32.6477
 20
181.44499999999999
 30
0.0
 11
44.7271
 21
181.44499999999999
 31
0.0
  0
LINE
  5
6D4
  8
_________2
 62
     7
 10
210.001
 20
148.482
 30
0.0
 11
188.251
 21
148.482
 31
0.0
  0
LINE
  5
6D5
  8
_________2
 62
     7
 10
105.0
 20
16.979900000000001
 30
0.0
 11
105.0
 21
-0.000344512
 31
0.0
  0
LINE
  5
6D6
  8
_________2
 62
     7
 10
105.0
 20
297.00200000000001
 30
0.0
 11
105.0
 21
279.98200000000003
 31
0.0
  0
LINE
  5
6D7
  8
_________2
 62
     7
 10
21.749700000000001
 20
148.482
 30
0.0
 11
-0.000689023
 21
148.482
 31
0.0
  0
INSERT
  5
6D8
  8
_________2
 62
     7
  2
AIGNBL03010002
 10
0.0
 20
0.0
 30
0.0
  0
TEXT
  5
6D9
  8
_________2
 62
     7
 10
109.30500000000001
 20
22.750499999999999
 30
0.0
 40
3.0923400000000001
  1
図番
 41
0.5
  0
LINE
  5
6DA
  8
_________2
 62
     7
 10
108.25
 20
26.979700000000001
 30
0.0
 11
188.251
 21
26.979700000000001
 31
0.0
  0
TEXT
  5
6DB
  8
_________2
 62
     7
 10
109.30500000000001
 20
32.750300000000003
 30
0.0
 40
3.0923400000000001
  1
品番
 41
0.5
  0
TEXT
  5
6DC
  8
_________2
 62
     7
 10
109.30500000000001
 20
52.889099999999999
 30
0.0
 40
3.0923400000000001
  1
名称
 41
0.5
  0
TEXT
  5
6DD
  8
_________2
 62
     7
 10
96.545258333333337
 20
47.892999999999986
 30
0.0
 40
3.6545800000000002
  1
mm
 41
0.5
 72
     1
 11
98.067999999999998
 21
47.892999999999986
 31
0.0
  0
TEXT
  5
6DE
  8
_________2
 62
     7
 10
90.343400000000003
 20
52.889099999999999
 30
0.0
 40
3.0923400000000001
  1
単位
 41
0.5
  0
TEXT
  5
6DF
  8
_________2
 62
     7
 10
90.343400000000003
 20
40.481900000000003
 30
0.0
 40
3.0923400000000001
  1
尺度
 41
0.5
  0
TEXT
  5
6E0
  8
_________2
 62
     7
 10
94.639861999999994
 20
34.288899999999998
 30
0.0
 40
3.6545800000000002
  1
1 ： 15
 41
0.5
 72
     1
 11
98.659899999999993
 21
34.288899999999998
 31
0.0
  0
TEXT
  5
6E1
  8
_________2
 62
     7
 10
137.91878750000001
 20
30.178899999999999
 30
0.0
 40
3.9357000000000002
  1
CEY21640TV6
 41
0.5
 72
     1
 11
148.25
 21
30.178899999999999
 31
0.0
  0
TEXT
  5
6E2
  8
_________2
 62
     7
 10
137.91878750000001
 20
20.1784
 30
0.0
 40
3.9357000000000002
  1
CEY21640TV6
 41
0.5
 72
     1
 11
148.25
 21
20.1784
 31
0.0
  0
TEXT
  5
6E3
  8
_________2
 62
     7
 10
29.286899999999999
 20
21.778300000000002
 30
0.0
 40
3.9357000000000002
  1
満水容量：200L、重量：24.0kg
 41
0.5
  0
TEXT
  5
6E4
  8
_________2
 62
     7
 10
113.879
 20
45.296700000000001
 30
0.0
 40
3.9357000000000002
  1
アクリル製バスタブ（1600サイズ）
 41
0.5
  0
TEXT
  5
6E5
  8
_________2
 62
     7
 10
44.125500333333328
 20
34.674100000000003
 30
0.0
 40
3.6545800000000002
  1
土山
 41
0.5
 72
     1
 11
46.0137
 21
34.674100000000003
 31
0.0
  0
TEXT
  5
6E6
  8
_________2
 62
     7
 10
25.49059066666667
 20
34.674100000000003
 30
0.0
 40
3.6545800000000002
  1
木場
 41
0.5
 72
     1
 11
27.439699999999998
 21
34.674100000000003
 31
0.0
  0
TEXT
  5
6E7
  8
_________2
 62
     7
 10
72.486000000000004
 20
34.288899999999998
 30
0.0
 40
3.6545800000000002
  1
21.06.15
 41
0.5
  0
TEXT
  5
6E8
  8
_________2
 62
     7
 10
71.293300000000002
 20
40.481900000000003
 30
0.0
 40
3.0923400000000001
  1
日付
 41
0.5
  0
TEXT
  5
6E9
  8
_________2
 62
     7
 10
34.339599999999997
 20
40.481900000000003
 30
0.0
 40
3.0923400000000001
  1
検図
 41
0.5
  0
TEXT
  5
6EA
  8
_________2
 62
     7
 10
22.7212
 20
26.282499999999999
 30
0.0
 40
3.0923400000000001
  1
備考
 41
0.5
  0
TEXT
  5
6EB
  8
_________2
 62
     7
 10
22.7212
 20
40.481900000000003
 30
0.0
 40
3.0923400000000001
  1
製図
 41
0.5
  0
TEXT
  5
6EC
  8
_________2
 62
     7
 10
28.488665333333341
 20
49.00780000000001
 30
0.0
 40
4.4979399999999989
  1
セラトレーディング株式会社
 41
0.5
 72
     1
 11
45.880699999999997
 21
49.00780000000001
 31
0.0
  0
LINE
  5
6ED
  8
_________2
 62
     7
 10
188.251
 20
16.979900000000001
 30
0.0
 11
21.749700000000001
 21
16.979900000000001
 31
0.0
  0
LINE
  5
6EE
  8
_________2
 62
     7
 10
21.749700000000001
 20
16.979900000000001
 30
0.0
 11
21.749700000000001
 21
279.98200000000003
 31
0.0
  0
LINE
  5
6EF
  8
_________2
 62
     7
 10
21.749700000000001
 20
279.98200000000003
 30
0.0
 11
188.251
 21
279.98200000000003
 31
0.0
  0
LINE
  5
6F0
  8
_________2
 62
     7
 10
188.251
 20
279.98200000000003
 30
0.0
 11
188.251
 21
16.979900000000001
 31
0.0
  0
LINE
  5
6F1
  8
_________2
 62
     7
 10
70.250100000000003
 20
30.48
 30
0.0
 11
70.250100000000003
 21
56.979799999999997
 31
0.0
  0
LINE
  5
6F2
  8
_________2
 62
     7
 10
89.249899999999997
 20
30.48
 30
0.0
 11
89.249899999999997
 21
56.979799999999997
 31
0.0
  0
LINE
  5
6F3
  8
_________2
 62
     7
 10
108.25
 20
16.979900000000001
 30
0.0
 11
108.25
 21
56.979799999999997
 31
0.0
  0
LINE
  5
6F4
  8
_________2
 62
     7
 10
33.249499999999998
 20
30.48
 30
0.0
 11
33.249499999999998
 21
44.4803
 31
0.0
  0
LINE
  5
6F5
  8
_________2
 62
     7
 10
21.749700000000001
 20
30.48
 30
0.0
 11
108.25
 21
30.48
 31
0.0
  0
LINE
  5
6F6
  8
_________2
 62
     7
 10
21.749700000000001
 20
44.4803
 30
0.0
 11
108.25
 21
44.4803
 31
0.0
  0
LINE
  5
6F7
  8
_________2
 62
     7
 10
108.25
 20
36.979500000000002
 30
0.0
 11
188.251
 21
36.979500000000002
 31
0.0
  0
LINE
  5
6F8
  8
_________2
 62
     7
 10
21.749700000000001
 20
56.979799999999997
 30
0.0
 11
188.251
 21
56.979799999999997
 31
0.0
  0
ENDSEC
  0
EOF
