  0
SECTION
  2
HEADER
  9
$ACADVER
  1
AC1009
  9
$INSBASE
 10
0.0
 20
0.0
 30
0.0
  9
$EXTMIN
 10
-0.000689023
 20
-0.000344512
 30
0.0
  9
$EXTMAX
 10
210.00099999999989
 20
297.00200000000001
 30
0.0
  9
$LIMMIN
 10
0.0
 20
0.0
  9
$LIMMAX
 10
12.0
 20
9.0
  9
$ORTHOMODE
 70
     0
  9
$REGENMODE
 70
     1
  9
$FILLMODE
 70
     1
  9
$QTEXTMODE
 70
     0
  9
$MIRRTEXT
 70
     1
  9
$DRAGMODE
 70
     2
  9
$LTSCALE
 40
1.0
  9
$OSMODE
 70
    37
  9
$ATTMODE
 70
     1
  9
$TEXTSIZE
 40
0.0
  9
$TRACEWID
 40
0.05
  9
$TEXTSTYLE
  7
STANDARD
  9
$CLAYER
  8
0
  9
$CELTYPE
  6
CONTINUOUS
  9
$CECOLOR
 62
   256
  9
$DIMSCALE
 40
1.0
  9
$DIMASZ
 40
0.18
  9
$DIMEXO
 40
0.0625
  9
$DIMDLI
 40
0.38
  9
$DIMRND
 40
0.0
  9
$DIMDLE
 40
0.0
  9
$DIMEXE
 40
0.18
  9
$DIMTP
 40
0.0
  9
$DIMTM
 40
0.0
  9
$DIMTXT
 40
0.18
  9
$DIMCEN
 40
0.09
  9
$DIMTSZ
 40
0.0
  9
$DIMTOL
 70
     0
  9
$DIMLIM
 70
     0
  9
$DIMTIH
 70
     1
  9
$DIMTOH
 70
     1
  9
$DIMSE1
 70
     0
  9
$DIMSE2
 70
     0
  9
$DIMTAD
 70
     0
  9
$DIMZIN
 70
     0
  9
$DIMBLK
  1

  9
$DIMASO
 70
     1
  9
$DIMSHO
 70
     1
  9
$DIMPOST
  1

  9
$DIMAPOST
  1

  9
$DIMALT
 70
     0
  9
$DIMALTD
 70
     2
  9
$DIMALTF
 40
25.399999999999999
  9
$DIMLFAC
 40
1.0
  9
$DIMTOFL
 70
     0
  9
$DIMTVP
 40
0.0
  9
$DIMTIX
 70
     0
  9
$DIMSOXD
 70
     0
  9
$DIMSAH
 70
     0
  9
$DIMBLK1
  1

  9
$DIMBLK2
  1

  9
$DIMSTYLE
  2
STANDARD
  9
$DIMCLRD
 70
     0
  9
$DIMCLRE
 70
     0
  9
$DIMCLRT
 70
     0
  9
$DIMTFAC
 40
1.0
  9
$DIMGAP
 40
0.09
  9
$LUNITS
 70
     2
  9
$LUPREC
 70
     4
  9
$SKETCHINC
 40
0.1
  9
$FILLETRAD
 40
0.0
  9
$AUNITS
 70
     0
  9
$AUPREC
 70
     0
  9
$MENU
  1
.
  9
$ELEVATION
 40
0.0
  9
$PELEVATION
 40
0.0
  9
$THICKNESS
 40
0.0
  9
$LIMCHECK
 70
     0
  9
$BLIPMODE
 70
     0
  9
$CHAMFERA
 40
0.0
  9
$CHAMFERB
 40
0.0
  9
$SKPOLY
 70
     0
  9
$TDCREATE
 40
2444972.375
  9
$TDUPDATE
 40
2456738.2464429508
  9
$TDINDWG
 40
0.0000099421
  9
$TDUSRTIMER
 40
0.0000099421
  9
$USRTIMER
 70
     1
  9
$ANGBASE
 50
0.0
  9
$ANGDIR
 70
     0
  9
$PDMODE
 70
     0
  9
$PDSIZE
 40
0.0
  9
$PLINEWID
 40
0.0
  9
$COORDS
 70
     1
  9
$SPLFRAME
 70
     0
  9
$SPLINETYPE
 70
     6
  9
$SPLINESEGS
 70
     8
  9
$ATTDIA
 70
     0
  9
$ATTREQ
 70
     1
  9
$HANDLING
 70
     1
  9
$HANDSEED
  5
6BF
  9
$SURFTAB1
 70
     6
  9
$SURFTAB2
 70
     6
  9
$SURFTYPE
 70
     6
  9
$SURFU
 70
     6
  9
$SURFV
 70
     6
  9
$UCSNAME
  2

  9
$UCSORG
 10
0.0
 20
0.0
 30
0.0
  9
$UCSXDIR
 10
1.0
 20
0.0
 30
0.0
  9
$UCSYDIR
 10
0.0
 20
1.0
 30
0.0
  9
$PUCSNAME
  2

  9
$PUCSORG
 10
0.0
 20
0.0
 30
0.0
  9
$PUCSXDIR
 10
1.0
 20
0.0
 30
0.0
  9
$PUCSYDIR
 10
0.0
 20
1.0
 30
0.0
  9
$USERI1
 70
     0
  9
$USERI2
 70
     0
  9
$USERI3
 70
     0
  9
$USERI4
 70
     0
  9
$USERI5
 70
     0
  9
$USERR1
 40
0.0
  9
$USERR2
 40
0.0
  9
$USERR3
 40
0.0
  9
$USERR4
 40
0.0
  9
$USERR5
 40
0.0
  9
$WORLDVIEW
 70
     1
  9
$SHADEDGE
 70
     3
  9
$SHADEDIF
 70
    70
  9
$TILEMODE
 70
     1
  9
$MAXACTVP
 70
    48
  9
$PLIMCHECK
 70
     0
  9
$PEXTMIN
 10
1.0000000000000000E+020
 20
1.0000000000000000E+020
 30
1.0000000000000000E+020
  9
$PEXTMAX
 10
-1.0000000000000000E+020
 20
-1.0000000000000000E+020
 30
-1.0000000000000000E+020
  9
$PLIMMIN
 10
0.0
 20
0.0
  9
$PLIMMAX
 10
12.0
 20
9.0
  9
$UNITMODE
 70
     0
  9
$VISRETAIN
 70
     1
  9
$PLINEGEN
 70
     0
  9
$PSLTSCALE
 70
     1
  0
ENDSEC
  0
SECTION
  2
TABLES
  0
TABLE
  2
VPORT
 70
     2
  0
VPORT
  2
*ACTIVE
 70
     0
 10
0.0
 20
0.0
 11
1.0
 21
1.0
 12
206.70668023396189
 22
148.50082774399999
 13
0.0
 23
0.0
 14
1.0
 24
1.0
 15
0.0
 25
0.0
 16
0.0
 26
0.0
 36
1.0
 17
0.0
 27
0.0
 37
0.0
 40
299.4535330499258
 41
2.2894736842105261
 42
50.0
 43
0.0
 44
0.0
 50
0.0
 51
0.0
 71
     0
 72
   100
 73
     1
 74
     1
 75
     0
 76
     0
 77
     0
 78
     0
  0
ENDTAB
  0
TABLE
  2
LTYPE
 70
     3
  0
LTYPE
  2
CONTINUOUS
 70
     0
  3
Solid line
 72
    65
 73
     0
 40
0.0
  0
LTYPE
  2
AIGENLINE001
 70
     0
  3
generate AI->DXF Converter
 72
    65
 73
     6
 40
7.4083750000000004
 49
3.5278
 49
-0.776115
 49
0.776115
 49
-0.776115
 49
0.776115
 49
-0.776115
  0
LTYPE
  2
AIGENLINE002
 70
     0
  3
generate AI->DXF Converter
 72
    65
 73
     4
 40
5.8561449999999988
 49
3.5278
 49
-0.776115
 49
0.776115
 49
-0.776115
  0
ENDTAB
  0
TABLE
  2
LAYER
 70
     2
  0
LAYER
  2
0
 70
     0
 62
     7
  6
CONTINUOUS
  0
LAYER
  2
_________2
 70
     0
 62
     7
  6
CONTINUOUS
  0
ENDTAB
  0
TABLE
  2
STYLE
 70
     1
  0
STYLE
  2
STANDARD
 70
     0
 40
0.0
 41
0.0
 50
0.0
 71
     0
 42
0.0
  3
TXT
  4
EXTFONT.SHX
  0
ENDTAB
  0
TABLE
  2
VIEW
 70
     0
  0
ENDTAB
  0
TABLE
  2
UCS
 70
     0
  0
ENDTAB
  0
TABLE
  2
APPID
 70
     1
  0
APPID
  2
ACAD
 70
     0
  0
ENDTAB
  0
TABLE
  2
DIMSTYLE
 70
     1
  0
DIMSTYLE
  2
STANDARD
 70
     0
  3

  4

  5

  6

  7

 40
1.0
 41
0.18
 42
0.0625
 43
0.38
 44
0.18
 45
0.0
 46
0.0
 47
0.0
 48
0.0
140
0.18
141
0.09
142
0.0
143
25.399999999999999
144
1.0
145
0.0
146
1.0
147
0.09
 71
     0
 72
     0
 73
     1
 74
     1
 75
     0
 76
     0
 77
     0
 78
     0
170
     0
171
     2
172
     0
173
     0
174
     0
175
     0
176
     0
177
     0
178
     0
  0
ENDTAB
  0
ENDSEC
  0
SECTION
  2
BLOCKS
  0
BLOCK
  8
0
  2
$MODEL_SPACE
 70
     0
 10
0.0
 20
0.0
 30
0.0
  3
$MODEL_SPACE
  1

  0
ENDBLK
  5
1A
  8
0
  0
BLOCK
 67
     1
  8
0
  2
$PAPER_SPACE
 70
     0
 10
0.0
 20
0.0
 30
0.0
  3
$PAPER_SPACE
  1

  0
ENDBLK
  5
17
 67
     1
  8
0
  0
ENDSEC
  0
SECTION
  2
ENTITIES
  0
TEXT
  5
23
  8
0
 62
     7
 10
104.20999999999999
 20
71.055210000000002
 30
0.0
 40
3.0923400000000001
  1
A
 50
90.0
 41
0.5
 72
     1
 11
104.20999999999999
 21
71.570599999999999
 31
0.0
  0
TEXT
  5
24
  8
0
 62
     7
 10
180.9429999999999
 20
128.88043999999999
 30
0.0
 40
3.0923400000000001
  1
A-A
 50
90.0
 41
0.5
 72
     1
 11
180.9429999999999
 21
130.94200000000001
 31
0.0
  0
TEXT
  5
25
  8
0
 62
     7
 10
78.513499999999993
 20
189.52761000000001
 30
0.0
 40
3.0923400000000001
  1
A
 50
90.0
 41
0.5
 72
     1
 11
78.513499999999993
 21
190.04300000000001
 31
0.0
  0
TEXT
  5
26
  8
0
 62
     7
 10
140.2352875
 20
166.874
 30
0.0
 40
3.0923400000000001
  1
430
 41
0.5
 72
     1
 11
142.16800000000001
 21
166.874
 31
0.0
  0
TEXT
  5
27
  8
0
 62
     7
 10
134.37574499999999
 20
188.048
 30
0.0
 40
3.0923400000000001
  1
30
 41
0.5
 72
     2
 11
136.69499999999991
 21
188.048
 31
0.0
  0
TEXT
  5
28
  8
0
 62
     7
 10
143.56628749999999
 20
195.37599999999989
 30
0.0
 40
3.0923400000000001
  1
530
 41
0.5
 72
     1
 11
145.499
 21
195.37599999999989
 31
0.0
  0
TEXT
  5
29
  8
0
 62
     7
 10
173.09499999999991
 20
128.88043999999999
 30
0.0
 40
3.0923400000000001
  1
785
 50
90.0
 41
0.5
 72
     1
 11
173.09499999999991
 21
130.94200000000001
 31
0.0
  0
TEXT
  5
2A
  8
0
 62
     7
 10
173.09499999999991
 20
167.21443999999991
 30
0.0
 40
3.0923400000000001
  1
365
 50
90.0
 41
0.5
 72
     1
 11
173.09499999999991
 21
169.2759999999999
 31
0.0
  0
TEXT
  5
2B
  8
0
 62
     7
 10
173.09499999999991
 20
87.842887499999989
 30
0.0
 40
3.0923400000000001
  1
450
 50
90.0
 41
0.5
 72
     1
 11
173.09499999999991
 21
89.775599999999997
 31
0.0
  0
TEXT
  5
2C
  8
0
 62
     7
 10
141.60444000000001
 20
67.918800000000005
 30
0.0
 40
3.0923400000000001
  1
585
 41
0.5
 72
     1
 11
143.666
 21
67.918800000000005
 31
0.0
  0
TEXT
  5
2D
  8
0
 62
     7
 10
173.09499999999991
 20
219.3282874999999
 30
0.0
 40
3.0923400000000001
  1
260
 50
90.0
 41
0.5
 72
     1
 11
173.09499999999991
 21
221.261
 31
0.0
  0
TEXT
  5
2E
  8
0
 62
     7
 10
173.09499999999991
 20
235.66128749999999
 30
0.0
 40
3.0923400000000001
  1
230
 50
90.0
 41
0.5
 72
     1
 11
173.09499999999991
 21
237.59399999999999
 31
0.0
  0
TEXT
  5
2F
  8
0
 62
     7
 10
173.09499999999991
 20
251.9952874999999
 30
0.0
 40
3.0923400000000001
  1
260
 50
90.0
 41
0.5
 72
     1
 11
173.09499999999991
 21
253.928
 31
0.0
  0
TEXT
  5
30
  8
0
 62
     7
 10
109.7409999999999
 20
171.17728750000001
 30
0.0
 40
3.0923400000000001
  1
250
 50
90.0
 41
0.5
 72
     1
 11
109.7409999999999
 21
173.11000000000001
 31
0.0
  0
TEXT
  5
31
  8
0
 62
     7
 10
102.285
 20
178.010525
 30
0.0
 40
3.0923400000000001
  1
65
 50
90.0
 41
0.5
 72
     1
 11
102.285
 21
179.29900000000001
 31
0.0
  0
TEXT
  5
32
  8
0
 62
     7
 10
91.920725000000004
 20
187.93599999999989
 30
0.0
 40
3.0923400000000001
  1
65
 41
0.5
 72
     1
 11
93.209199999999996
 21
187.93599999999989
 31
0.0
  0
TEXT
  5
33
  8
0
 62
     7
 10
68.494487500000005
 20
195.37599999999989
 30
0.0
 40
3.0923400000000001
  1
750
 41
0.5
 72
     1
 11
70.427199999999999
 21
195.37599999999989
 31
0.0
  0
TEXT
  5
34
  8
0
 62
     7
 10
63.723134999999999
 20
127.58799999999989
 30
0.0
 40
3.0923400000000001
  1
515
 41
0.5
 72
     1
 11
65.527000000000001
 21
127.58799999999989
 31
0.0
  0
TEXT
  5
35
  8
0
 62
     7
 10
32.6404
 20
125.844745
 30
0.0
 40
3.0923400000000001
  1
1600
 50
90.0
 41
0.5
 72
     1
 11
32.6404
 21
128.1639999999999
 31
0.0
  0
TEXT
  5
36
  8
0
 62
     7
 10
76.576899999999995
 20
184.535
 30
0.0
 40
3.0923400000000001
  1
%%c44
 41
0.5
  0
TEXT
  5
37
  8
0
 62
     7
 10
59.79829999999999
 20
162.2879999999999
 30
0.0
 40
3.0923400000000001
  1
%%c55
 41
0.5
  0
LINE
  5
38
  8
0
  6
AIGENLINE001
 62
     7
 10
70.427300000000002
 20
118.57299999999989
 30
0.0
 11
100.5419999999999
 21
118.57299999999989
 31
0.0
  0
LINE
  5
39
  8
0
  6
AIGENLINE001
 62
     7
 10
100.5419999999999
 20
118.57299999999989
 30
0.0
 11
100.5419999999999
 21
114.07899999999989
 31
0.0
  0
LINE
  5
3A
  8
0
 62
     7
 10
96.8626
 20
72.065299999999993
 30
0.0
 11
94.651499999999984
 21
71.473100000000002
 31
0.0
  0
LINE
  5
3B
  8
0
 62
     7
 10
94.651499999999984
 20
71.473100000000002
 30
0.0
 11
96.8626
 21
70.880499999999984
 31
0.0
  0
LINE
  5
3C
  8
0
 62
     7
 10
96.8626
 20
70.880499999999984
 30
0.0
 11
96.8626
 21
72.065299999999993
 31
0.0
  0
LINE
  5
3D
  8
0
 62
     7
 10
94.651499999999984
 20
71.4803
 30
0.0
 11
100.5419999999999
 21
71.4803
 31
0.0
  0
LINE
  5
3E
  8
0
 62
     7
 10
100.5419999999999
 20
71.4803
 30
0.0
 11
100.5419999999999
 21
74.814199999999985
 31
0.0
  0
LINE
  5
3F
  8
0
 62
     7
 10
132.05500000000001
 20
135.536
 30
0.0
 11
132.05500000000001
 21
118.57299999999989
 31
0.0
  0
LINE
  5
40
  8
0
 62
     7
 10
130.072
 20
136.20699999999991
 30
0.0
 11
130.072
 21
118.57299999999989
 31
0.0
  0
LINE
  5
41
  8
0
 62
     7
 10
72.638400000000004
 20
190.6279999999999
 30
0.0
 11
70.427300000000002
 21
190.03599999999989
 31
0.0
  0
LINE
  5
42
  8
0
 62
     7
 10
70.427300000000002
 20
190.03599999999989
 30
0.0
 11
72.638400000000004
 21
189.4429999999999
 31
0.0
  0
LINE
  5
43
  8
0
 62
     7
 10
72.638400000000004
 20
189.4429999999999
 30
0.0
 11
72.638400000000004
 21
190.6279999999999
 31
0.0
  0
LINE
  5
44
  8
0
 62
     7
 10
75.037400000000005
 20
190.04300000000001
 30
0.0
 11
70.427300000000002
 21
190.04300000000001
 31
0.0
  0
ARC
  5
45
  8
0
 62
     7
 10
107.1500569999999
 20
127.643327
 30
0.0
 40
18.16816
 50
153.01785599999991
 51
166.72337699999991
  0
ARC
  5
46
  8
0
 62
     7
 10
109.6093479999999
 20
126.950442
 30
0.0
 40
20.721132999999991
 50
166.42036400000001
 51
180.19227499999991
  0
ARC
  5
47
  8
0
 62
     7
 10
110.0543789999999
 20
126.8852159999999
 30
0.0
 40
21.166048
 50
180.0116689999999
 51
196.91486
  0
ARC
  5
48
  8
0
 62
     7
 10
107.45552600000001
 20
126.2209099999999
 30
0.0
 40
18.486737999999999
 50
197.28854199999989
 51
207.350233
  0
ARC
  5
49
  8
0
 62
     7
 10
108.34454099999989
 20
127.178662
 30
0.0
 40
18.088619000000001
 50
157.12752399999999
 51
174.54208099999991
  0
ARC
  5
4A
  8
0
 62
     7
 10
110.06390399999999
 20
126.890125
 30
0.0
 40
19.828016999999999
 50
174.184651
 51
180.02663899999999
  0
ARC
  5
4B
  8
0
 62
     7
 10
109.75263799999991
 20
126.887936
 30
0.0
 40
19.516749999999991
 50
180.02063799999991
 51
199.302661
  0
ARC
  5
4C
  8
0
 62
     7
 10
107.753001
 20
126.335606
 30
0.0
 40
17.447503000000001
 50
199.76147599999999
 51
202.8795209999999
  0
ARC
  5
4D
  8
0
 62
     7
 10
33.722467000000002
 20
127.6470999999999
 30
0.0
 40
18.157277000000001
 50
13.272477
 51
26.986250999999989
  0
ARC
  5
4E
  8
0
 62
     7
 10
31.252825000000001
 20
126.950435
 30
0.0
 40
20.721191999999999
 50
359.80776500000002
 51
13.579596
  0
ARC
  5
4F
  8
0
 62
     7
 10
30.807804000000001
 20
126.885223
 30
0.0
 40
21.166097000000001
 50
343.08517999999992
 51
359.98833100000002
  0
ARC
  5
50
  8
0
 62
     7
 10
33.40670699999999
 20
126.2209099999999
 30
0.0
 40
18.486737999999999
 50
332.649787
 51
342.711478
  0
ARC
  5
51
  8
0
 62
     7
 10
32.507156999999999
 20
127.175985
 30
0.0
 40
18.099364999999999
 50
5.4631610000000004
 51
22.867303
  0
ARC
  5
52
  8
0
 62
     7
 10
30.789587999999998
 20
126.889736
 30
0.0
 40
19.836756999999999
 50
359.97451699999988
 51
5.8138879999999986
  0
ARC
  5
53
  8
0
 62
     7
 10
31.109553999999989
 20
126.88794299999989
 30
0.0
 40
19.51679
 50
340.69737900000001
 51
359.97936199999998
  0
ARC
  5
54
  8
0
 62
     7
 10
33.109231999999992
 20
126.335606
 30
0.0
 40
17.447503000000001
 50
337.12049799999988
 51
340.23854399999988
  0
LINE
  5
55
  8
0
 62
     7
 10
174.38
 20
154.899
 30
0.0
 11
173.7879999999999
 21
157.10900000000001
 31
0.0
  0
LINE
  5
56
  8
0
 62
     7
 10
173.7879999999999
 20
157.10900000000001
 30
0.0
 11
173.19499999999991
 21
154.899
 31
0.0
  0
LINE
  5
57
  8
0
 62
     7
 10
173.19499999999991
 20
154.899
 30
0.0
 11
174.38
 21
154.899
 31
0.0
  0
LINE
  5
58
  8
0
 62
     7
 10
173.21000000000001
 20
106.98699999999999
 30
0.0
 11
173.80199999999999
 21
104.776
 31
0.0
  0
LINE
  5
59
  8
0
 62
     7
 10
173.80199999999999
 20
104.776
 30
0.0
 11
174.39500000000001
 21
106.98699999999999
 31
0.0
  0
LINE
  5
5A
  8
0
 62
     7
 10
174.39500000000001
 20
106.98699999999999
 30
0.0
 11
173.21000000000001
 21
106.98699999999999
 31
0.0
  0
LINE
  5
5B
  8
0
 62
     7
 10
173.7949999999999
 20
157.10900000000001
 30
0.0
 11
173.7949999999999
 21
104.776
 31
0.0
  0
LINE
  5
5C
  8
0
 62
     7
 10
125.622
 20
186.76300000000001
 30
0.0
 11
127.8329999999999
 21
187.3549999999999
 31
0.0
  0
LINE
  5
5D
  8
0
 62
     7
 10
127.8329999999999
 20
187.3549999999999
 30
0.0
 11
125.622
 21
187.94699999999989
 31
0.0
  0
LINE
  5
5E
  8
0
 62
     7
 10
125.622
 20
187.94699999999989
 30
0.0
 11
125.622
 21
186.76300000000001
 31
0.0
  0
LINE
  5
5F
  8
0
 62
     7
 10
132.04900000000001
 20
187.93299999999991
 30
0.0
 11
129.83799999999991
 21
187.34
 31
0.0
  0
LINE
  5
60
  8
0
 62
     7
 10
129.83799999999991
 20
187.34
 30
0.0
 11
132.04900000000001
 21
186.74799999999999
 31
0.0
  0
LINE
  5
61
  8
0
 62
     7
 10
132.04900000000001
 20
186.74799999999999
 30
0.0
 11
132.04900000000001
 21
187.93299999999991
 31
0.0
  0
LINE
  5
62
  8
0
 62
     7
 10
136.69499999999991
 20
187.3479999999999
 30
0.0
 11
124.172
 21
187.3479999999999
 31
0.0
  0
LINE
  5
63
  8
0
 62
     7
 10
154.29300000000001
 20
165.589
 30
0.0
 11
156.5029999999999
 21
166.1809999999999
 31
0.0
  0
LINE
  5
64
  8
0
 62
     7
 10
156.5029999999999
 20
166.1809999999999
 30
0.0
 11
154.29300000000001
 21
166.774
 31
0.0
  0
LINE
  5
65
  8
0
 62
     7
 10
154.29300000000001
 20
166.774
 30
0.0
 11
154.29300000000001
 21
165.589
 31
0.0
  0
LINE
  5
66
  8
0
 62
     7
 10
130.0439999999999
 20
166.75899999999999
 30
0.0
 11
127.8329999999999
 21
166.16699999999989
 31
0.0
  0
LINE
  5
67
  8
0
 62
     7
 10
127.8329999999999
 20
166.16699999999989
 30
0.0
 11
130.0439999999999
 21
165.57400000000001
 31
0.0
  0
LINE
  5
68
  8
0
 62
     7
 10
130.0439999999999
 20
165.57400000000001
 30
0.0
 11
130.0439999999999
 21
166.75899999999999
 31
0.0
  0
LINE
  5
69
  8
0
 62
     7
 10
156.5029999999999
 20
166.17399999999989
 30
0.0
 11
127.8329999999999
 21
166.17399999999989
 31
0.0
  0
LINE
  5
6A
  8
0
 62
     7
 10
160.95599999999999
 20
194.09099999999989
 30
0.0
 11
163.166
 21
194.68299999999999
 31
0.0
  0
LINE
  5
6B
  8
0
 62
     7
 10
163.166
 20
194.68299999999999
 30
0.0
 11
160.95599999999999
 21
195.2759999999999
 31
0.0
  0
LINE
  5
6C
  8
0
 62
     7
 10
160.95599999999999
 20
195.2759999999999
 30
0.0
 11
160.95599999999999
 21
194.09099999999989
 31
0.0
  0
LINE
  5
6D
  8
0
 62
     7
 10
130.0439999999999
 20
195.26099999999991
 30
0.0
 11
127.8329999999999
 21
194.66900000000001
 31
0.0
  0
LINE
  5
6E
  8
0
 62
     7
 10
127.8329999999999
 20
194.66900000000001
 30
0.0
 11
130.0439999999999
 21
194.07599999999999
 31
0.0
  0
LINE
  5
6F
  8
0
 62
     7
 10
130.0439999999999
 20
194.07599999999999
 30
0.0
 11
130.0439999999999
 21
195.26099999999991
 31
0.0
  0
LINE
  5
70
  8
0
 62
     7
 10
163.166
 20
194.6759999999999
 30
0.0
 11
127.8329999999999
 21
194.6759999999999
 31
0.0
  0
LINE
  5
71
  8
0
 62
     7
 10
174.38
 20
227.71700000000001
 30
0.0
 11
173.7879999999999
 21
229.92799999999991
 31
0.0
  0
LINE
  5
72
  8
0
 62
     7
 10
173.7879999999999
 20
229.92799999999991
 30
0.0
 11
173.19499999999991
 21
227.71700000000001
 31
0.0
  0
LINE
  5
73
  8
0
 62
     7
 10
173.19499999999991
 20
227.71700000000001
 30
0.0
 11
174.38
 21
227.71700000000001
 31
0.0
  0
LINE
  5
74
  8
0
 62
     7
 10
173.21000000000001
 20
214.80500000000001
 30
0.0
 11
173.80199999999999
 21
212.59399999999999
 31
0.0
  0
LINE
  5
75
  8
0
 62
     7
 10
173.80199999999999
 20
212.59399999999999
 30
0.0
 11
174.39500000000001
 21
214.80500000000001
 31
0.0
  0
LINE
  5
76
  8
0
 62
     7
 10
174.39500000000001
 20
214.80500000000001
 30
0.0
 11
173.21000000000001
 21
214.80500000000001
 31
0.0
  0
LINE
  5
77
  8
0
 62
     7
 10
173.7949999999999
 20
229.92799999999991
 30
0.0
 11
173.7949999999999
 21
212.59399999999999
 31
0.0
  0
LINE
  5
78
  8
0
 62
     7
 10
174.38
 20
243.0509999999999
 30
0.0
 11
173.7879999999999
 21
245.26099999999991
 31
0.0
  0
LINE
  5
79
  8
0
 62
     7
 10
173.7879999999999
 20
245.26099999999991
 30
0.0
 11
173.19499999999991
 21
243.0509999999999
 31
0.0
  0
LINE
  5
7A
  8
0
 62
     7
 10
173.19499999999991
 20
243.0509999999999
 30
0.0
 11
174.38
 21
243.0509999999999
 31
0.0
  0
LINE
  5
7B
  8
0
 62
     7
 10
173.21000000000001
 20
232.13900000000001
 30
0.0
 11
173.80199999999999
 21
229.92799999999991
 31
0.0
  0
LINE
  5
7C
  8
0
 62
     7
 10
173.80199999999999
 20
229.92799999999991
 30
0.0
 11
174.39500000000001
 21
232.13900000000001
 31
0.0
  0
LINE
  5
7D
  8
0
 62
     7
 10
174.39500000000001
 20
232.13900000000001
 30
0.0
 11
173.21000000000001
 21
232.13900000000001
 31
0.0
  0
LINE
  5
7E
  8
0
 62
     7
 10
173.7949999999999
 20
245.26099999999991
 30
0.0
 11
173.7949999999999
 21
229.92799999999991
 31
0.0
  0
LINE
  5
7F
  8
0
 62
     7
 10
174.38
 20
260.38400000000001
 30
0.0
 11
173.7879999999999
 21
262.59500000000003
 31
0.0
  0
LINE
  5
80
  8
0
 62
     7
 10
173.7879999999999
 20
262.59500000000003
 30
0.0
 11
173.19499999999991
 21
260.38400000000001
 31
0.0
  0
LINE
  5
81
  8
0
 62
     7
 10
173.19499999999991
 20
260.38400000000001
 30
0.0
 11
174.38
 21
260.38400000000001
 31
0.0
  0
LINE
  5
82
  8
0
 62
     7
 10
173.21000000000001
 20
247.47200000000001
 30
0.0
 11
173.80199999999999
 21
245.26099999999991
 31
0.0
  0
LINE
  5
83
  8
0
 62
     7
 10
173.80199999999999
 20
245.26099999999991
 30
0.0
 11
174.39500000000001
 21
247.47200000000001
 31
0.0
  0
LINE
  5
84
  8
0
 62
     7
 10
174.39500000000001
 20
247.47200000000001
 30
0.0
 11
173.21000000000001
 21
247.47200000000001
 31
0.0
  0
LINE
  5
85
  8
0
 62
     7
 10
173.7949999999999
 20
262.59500000000003
 30
0.0
 11
173.7949999999999
 21
245.26099999999991
 31
0.0
  0
LINE
  5
86
  8
0
 62
     7
 10
174.38
 20
179.232
 30
0.0
 11
173.7879999999999
 21
181.4429999999999
 31
0.0
  0
LINE
  5
87
  8
0
 62
     7
 10
173.7879999999999
 20
181.4429999999999
 30
0.0
 11
173.19499999999991
 21
179.232
 31
0.0
  0
LINE
  5
88
  8
0
 62
     7
 10
173.19499999999991
 20
179.232
 30
0.0
 11
174.38
 21
179.232
 31
0.0
  0
LINE
  5
89
  8
0
 62
     7
 10
173.21000000000001
 20
159.31999999999991
 30
0.0
 11
173.80199999999999
 21
157.10900000000001
 31
0.0
  0
LINE
  5
8A
  8
0
 62
     7
 10
173.80199999999999
 20
157.10900000000001
 30
0.0
 11
174.39500000000001
 21
159.31999999999991
 31
0.0
  0
LINE
  5
8B
  8
0
 62
     7
 10
174.39500000000001
 20
159.31999999999991
 30
0.0
 11
173.21000000000001
 21
159.31999999999991
 31
0.0
  0
LINE
  5
8C
  8
0
 62
     7
 10
173.7949999999999
 20
181.4429999999999
 30
0.0
 11
173.7949999999999
 21
157.10900000000001
 31
0.0
  0
LINE
  5
8D
  8
0
 62
     7
 10
174.38
 20
102.5649999999999
 30
0.0
 11
173.7879999999999
 21
104.776
 31
0.0
  0
LINE
  5
8E
  8
0
 62
     7
 10
173.7879999999999
 20
104.776
 30
0.0
 11
173.19499999999991
 21
102.5649999999999
 31
0.0
  0
LINE
  5
8F
  8
0
 62
     7
 10
173.19499999999991
 20
102.5649999999999
 30
0.0
 11
174.38
 21
102.5649999999999
 31
0.0
  0
LINE
  5
90
  8
0
 62
     7
 10
173.21000000000001
 20
76.986699999999985
 30
0.0
 11
173.80199999999999
 21
74.775599999999997
 31
0.0
  0
LINE
  5
91
  8
0
 62
     7
 10
173.80199999999999
 20
74.775599999999997
 30
0.0
 11
174.39500000000001
 21
76.986699999999985
 31
0.0
  0
LINE
  5
92
  8
0
 62
     7
 10
174.39500000000001
 20
76.986699999999985
 30
0.0
 11
173.21000000000001
 21
76.986699999999985
 31
0.0
  0
LINE
  5
93
  8
0
 62
     7
 10
173.7949999999999
 20
104.776
 30
0.0
 11
173.7949999999999
 21
74.775599999999997
 31
0.0
  0
LINE
  5
94
  8
0
 62
     7
 10
94.114199999999997
 20
174.92799999999991
 30
0.0
 11
92.131200000000007
 21
176.072
 31
0.0
  0
LINE
  5
95
  8
0
 62
     7
 10
92.131200000000007
 20
176.072
 30
0.0
 11
93.276000000000025
 21
174.09
 31
0.0
  0
LINE
  5
96
  8
0
 62
     7
 10
93.276000000000025
 20
174.09
 30
0.0
 11
94.114199999999997
 21
174.92799999999991
 31
0.0
  0
LINE
  5
97
  8
0
 62
     7
 10
88.074299999999994
 20
179.291
 30
0.0
 11
90.056899999999985
 21
178.14699999999999
 31
0.0
  0
LINE
  5
98
  8
0
 62
     7
 10
90.056899999999985
 20
178.14699999999999
 30
0.0
 11
88.912099999999995
 21
180.12999999999991
 31
0.0
  0
LINE
  5
99
  8
0
 62
     7
 10
88.912099999999995
 20
180.12999999999991
 30
0.0
 11
88.074299999999994
 21
179.291
 31
0.0
  0
LINE
  5
9A
  8
0
 62
     7
 10
94.524900000000002
 20
173.679
 30
0.0
 11
84.718400000000003
 21
183.48500000000001
 31
0.0
  0
LINE
  5
9B
  8
0
 62
     7
 10
84.718400000000003
 20
183.48500000000001
 30
0.0
 11
76.576899999999995
 21
183.48500000000001
 31
0.0
  0
LINE
  5
9C
  8
0
 62
     7
 10
73.706599999999995
 20
167.21700000000001
 30
0.0
 11
71.723600000000005
 21
166.07199999999989
 31
0.0
  0
LINE
  5
9D
  8
0
 62
     7
 10
71.723600000000005
 20
166.07199999999989
 30
0.0
 11
72.868399999999994
 21
168.05500000000001
 31
0.0
  0
LINE
  5
9E
  8
0
 62
     7
 10
72.868399999999994
 20
168.05500000000001
 30
0.0
 11
73.706599999999995
 21
167.21700000000001
 31
0.0
  0
LINE
  5
9F
  8
0
 62
     7
 10
67.150199999999984
 20
162.33699999999999
 30
0.0
 11
69.132800000000003
 21
163.48099999999991
 31
0.0
  0
LINE
  5
A0
  8
0
 62
     7
 10
69.132800000000003
 20
163.48099999999991
 30
0.0
 11
67.987999999999985
 21
161.49899999999991
 31
0.0
  0
LINE
  5
A1
  8
0
 62
     7
 10
67.987999999999985
 20
161.49899999999991
 30
0.0
 11
67.150199999999984
 21
162.33699999999999
 31
0.0
  0
LINE
  5
A2
  8
0
 62
     7
 10
74.117199999999997
 20
168.46599999999989
 30
0.0
 11
67.239699999999999
 21
161.58799999999991
 31
0.0
  0
LINE
  5
A3
  8
0
 62
     7
 10
67.239699999999999
 20
161.58799999999991
 30
0.0
 11
59.79829999999999
 21
161.58799999999991
 31
0.0
  0
LINE
  5
A4
  8
0
 62
     7
 10
102.40000000000001
 20
174.87899999999999
 30
0.0
 11
102.992
 21
177.09
 31
0.0
  0
LINE
  5
A5
  8
0
 62
     7
 10
102.992
 20
177.09
 30
0.0
 11
103.58499999999989
 21
174.87899999999999
 31
0.0
  0
LINE
  5
A6
  8
0
 62
     7
 10
103.58499999999989
 20
174.87899999999999
 30
0.0
 11
102.40000000000001
 21
174.87899999999999
 31
0.0
  0
LINE
  5
A7
  8
0
 62
     7
 10
103.56999999999989
 20
183.63399999999999
 30
0.0
 11
102.97799999999989
 21
181.423
 31
0.0
  0
LINE
  5
A8
  8
0
 62
     7
 10
102.97799999999989
 20
181.423
 30
0.0
 11
102.38500000000001
 21
183.63399999999999
 31
0.0
  0
LINE
  5
A9
  8
0
 62
     7
 10
102.38500000000001
 20
183.63399999999999
 30
0.0
 11
103.56999999999989
 21
183.63399999999999
 31
0.0
  0
LINE
  5
AA
  8
0
 62
     7
 10
102.9849999999999
 20
184.45500000000001
 30
0.0
 11
102.9849999999999
 21
173.404
 31
0.0
  0
LINE
  5
AB
  8
0
 62
     7
 10
109.85599999999999
 20
166.9859999999999
 30
0.0
 11
110.44799999999989
 21
164.7759999999999
 31
0.0
  0
LINE
  5
AC
  8
0
 62
     7
 10
110.44799999999989
 20
164.7759999999999
 30
0.0
 11
111.04000000000001
 21
166.9859999999999
 31
0.0
  0
LINE
  5
AD
  8
0
 62
     7
 10
111.04000000000001
 20
166.9859999999999
 30
0.0
 11
109.85599999999999
 21
166.9859999999999
 31
0.0
  0
LINE
  5
AE
  8
0
 62
     7
 10
111.026
 20
179.23299999999989
 30
0.0
 11
110.43300000000001
 21
181.44499999999991
 31
0.0
  0
LINE
  5
AF
  8
0
 62
     7
 10
110.43300000000001
 20
181.44499999999991
 30
0.0
 11
109.84099999999999
 21
179.23299999999989
 31
0.0
  0
LINE
  5
B0
  8
0
 62
     7
 10
109.84099999999999
 20
179.23299999999989
 30
0.0
 11
111.026
 21
179.23299999999989
 31
0.0
  0
LINE
  5
B1
  8
0
 62
     7
 10
110.441
 20
164.7759999999999
 30
0.0
 11
110.441
 21
181.44499999999991
 31
0.0
  0
LINE
  5
B2
  8
0
 62
     7
 10
97.637600000000006
 20
186.6509999999999
 30
0.0
 11
95.427199999999999
 21
187.24299999999991
 31
0.0
  0
LINE
  5
B3
  8
0
 62
     7
 10
95.427199999999999
 20
187.24299999999991
 30
0.0
 11
97.637600000000006
 21
187.83500000000001
 31
0.0
  0
LINE
  5
B4
  8
0
 62
     7
 10
97.637600000000006
 20
187.83500000000001
 30
0.0
 11
97.637600000000006
 21
186.6509999999999
 31
0.0
  0
LINE
  5
B5
  8
0
 62
     7
 10
88.882999999999996
 20
187.82099999999991
 30
0.0
 11
91.094099999999997
 21
187.22799999999989
 31
0.0
  0
LINE
  5
B6
  8
0
 62
     7
 10
91.094099999999997
 20
187.22799999999989
 30
0.0
 11
88.882999999999996
 21
186.636
 31
0.0
  0
LINE
  5
B7
  8
0
 62
     7
 10
88.882999999999996
 20
186.636
 30
0.0
 11
88.882999999999996
 21
187.82099999999991
 31
0.0
  0
LINE
  5
B8
  8
0
 62
     7
 10
88.0625
 20
187.23599999999999
 30
0.0
 11
98.957499999999996
 21
187.23599999999999
 31
0.0
  0
LINE
  5
B9
  8
0
 62
     7
 10
160.95599999999999
 20
66.633700000000005
 30
0.0
 11
163.166
 21
67.225999999999985
 31
0.0
  0
LINE
  5
BA
  8
0
 62
     7
 10
163.166
 20
67.225999999999985
 30
0.0
 11
160.95599999999999
 21
67.8185
 31
0.0
  0
LINE
  5
BB
  8
0
 62
     7
 10
160.95599999999999
 20
67.8185
 30
0.0
 11
160.95599999999999
 21
66.633700000000005
 31
0.0
  0
LINE
  5
BC
  8
0
 62
     7
 10
126.377
 20
67.803700000000006
 30
0.0
 11
124.1659999999999
 21
67.211500000000001
 31
0.0
  0
LINE
  5
BD
  8
0
 62
     7
 10
124.1659999999999
 20
67.211500000000001
 30
0.0
 11
126.377
 21
66.618899999999996
 31
0.0
  0
LINE
  5
BE
  8
0
 62
     7
 10
126.377
 20
66.618899999999996
 30
0.0
 11
126.377
 21
67.803700000000006
 31
0.0
  0
LINE
  5
BF
  8
0
 62
     7
 10
163.166
 20
67.218699999999998
 30
0.0
 11
124.1659999999999
 21
67.218699999999998
 31
0.0
  0
LINE
  5
C0
  8
0
 62
     7
 10
124.1659999999999
 20
78.303399999999996
 30
0.0
 11
124.1659999999999
 21
66.525899999999993
 31
0.0
  0
LINE
  5
C1
  8
0
  6
AIGENLINE002
 62
     7
 10
159.18899999999999
 20
164.78099999999989
 30
0.0
 11
154.7229999999999
 21
164.78099999999989
 31
0.0
  0
LINE
  5
C2
  8
0
 62
     7
 10
174.50200000000001
 20
212.59399999999999
 30
0.0
 11
130.5379999999999
 21
212.59399999999999
 31
0.0
  0
LINE
  5
C3
  8
0
 62
     7
 10
174.50200000000001
 20
262.59500000000003
 30
0.0
 11
130.5379999999999
 21
262.59500000000003
 31
0.0
  0
LINE
  5
C4
  8
0
 62
     7
 10
174.50200000000001
 20
245.26099999999991
 30
0.0
 11
165.04599999999991
 21
245.26099999999991
 31
0.0
  0
LINE
  5
C5
  8
0
  6
AIGENLINE002
 62
     7
 10
164.34599999999989
 20
245.26099999999991
 30
0.0
 11
153.77799999999991
 21
245.26099999999991
 31
0.0
  0
LINE
  5
C6
  8
0
 62
     7
 10
174.50200000000001
 20
229.92799999999991
 30
0.0
 11
165.04599999999991
 21
229.92799999999991
 31
0.0
  0
LINE
  5
C7
  8
0
  6
AIGENLINE002
 62
     7
 10
164.34599999999989
 20
229.92799999999991
 30
0.0
 11
153.77799999999991
 21
229.92799999999991
 31
0.0
  0
LINE
  5
C8
  8
0
 62
     7
 10
174.50200000000001
 20
157.10900000000001
 30
0.0
 11
165.04599999999991
 21
157.10900000000001
 31
0.0
  0
LINE
  5
C9
  8
0
  6
AIGENLINE002
 62
     7
 10
164.34599999999989
 20
157.10900000000001
 30
0.0
 11
153.77799999999991
 21
157.10900000000001
 31
0.0
  0
LINE
  5
CA
  8
0
 62
     7
 10
174.50200000000001
 20
104.776
 30
0.0
 11
165.04599999999991
 21
104.776
 31
0.0
  0
LINE
  5
CB
  8
0
 62
     7
 10
174.50200000000001
 20
181.4429999999999
 30
0.0
 11
130.5379999999999
 21
181.4429999999999
 31
0.0
  0
LINE
  5
CC
  8
0
 62
     7
 10
174.50200000000001
 20
74.775599999999997
 30
0.0
 11
130.5379999999999
 21
74.775599999999997
 31
0.0
  0
LINE
  5
CD
  8
0
 62
     7
 10
129.83799999999991
 20
188.03999999999991
 30
0.0
 11
129.83799999999991
 21
182.143
 31
0.0
  0
LINE
  5
CE
  8
0
 62
     7
 10
163.166
 20
195.3829999999999
 30
0.0
 11
163.166
 21
159.3239999999999
 31
0.0
  0
LINE
  5
CF
  8
0
 62
     7
 10
127.8329999999999
 20
195.369
 30
0.0
 11
127.8329999999999
 21
180.17500000000001
 31
0.0
  0
LINE
  5
D0
  8
0
 62
     7
 10
163.166
 20
102.56100000000001
 30
0.0
 11
163.166
 21
66.525899999999993
 31
0.0
  0
LINE
  5
D1
  8
0
 62
     7
 10
86.224400000000003
 20
126.303
 30
0.0
 11
88.434799999999996
 21
126.895
 31
0.0
  0
LINE
  5
D2
  8
0
 62
     7
 10
88.434799999999996
 20
126.895
 30
0.0
 11
86.224400000000003
 21
127.488
 31
0.0
  0
LINE
  5
D3
  8
0
 62
     7
 10
86.224400000000003
 20
127.488
 30
0.0
 11
86.224400000000003
 21
126.303
 31
0.0
  0
LINE
  5
D4
  8
0
 62
     7
 10
54.675600000000003
 20
127.4729999999999
 30
0.0
 11
52.464500000000001
 21
126.8809999999999
 31
0.0
  0
LINE
  5
D5
  8
0
 62
     7
 10
52.464500000000001
 20
126.8809999999999
 30
0.0
 11
54.675600000000003
 21
126.288
 31
0.0
  0
LINE
  5
D6
  8
0
 62
     7
 10
54.675600000000003
 20
126.288
 30
0.0
 11
54.675600000000003
 21
127.4729999999999
 31
0.0
  0
LINE
  5
D7
  8
0
 62
     7
 10
88.434799999999996
 20
126.88800000000001
 30
0.0
 11
52.464500000000001
 21
126.88800000000001
 31
0.0
  0
LINE
  5
D8
  8
0
 62
     7
 10
93.216800000000006
 20
194.09099999999989
 30
0.0
 11
95.427199999999999
 21
194.68299999999999
 31
0.0
  0
LINE
  5
D9
  8
0
 62
     7
 10
95.427199999999999
 20
194.68299999999999
 30
0.0
 11
93.216800000000006
 21
195.2759999999999
 31
0.0
  0
LINE
  5
DA
  8
0
 62
     7
 10
93.216800000000006
 20
195.2759999999999
 30
0.0
 11
93.216800000000006
 21
194.09099999999989
 31
0.0
  0
LINE
  5
DB
  8
0
 62
     7
 10
47.638199999999991
 20
195.26099999999991
 30
0.0
 11
45.427100000000003
 21
194.66900000000001
 31
0.0
  0
LINE
  5
DC
  8
0
 62
     7
 10
45.427100000000003
 20
194.66900000000001
 30
0.0
 11
47.638199999999991
 21
194.07599999999999
 31
0.0
  0
LINE
  5
DD
  8
0
 62
     7
 10
47.638199999999991
 20
194.07599999999999
 30
0.0
 11
47.638199999999991
 21
195.26099999999991
 31
0.0
  0
LINE
  5
DE
  8
0
 62
     7
 10
95.427199999999999
 20
194.6759999999999
 30
0.0
 11
45.427100000000003
 21
194.6759999999999
 31
0.0
  0
LINE
  5
DF
  8
0
 62
     7
 10
45.427100000000003
 20
195.369
 30
0.0
 11
45.427100000000003
 21
182.14500000000001
 31
0.0
  0
LINE
  5
E0
  8
0
 62
     7
 10
95.427199999999999
 20
195.369
 30
0.0
 11
95.427199999999999
 21
182.14500000000001
 31
0.0
  0
ARC
  5
E1
  8
0
 62
     7
 10
70.427325999999994
 20
164.77599599999991
 30
0.0
 40
3.000008999999999
 50
0.00001
 51
89.999980000000008
  0
ARC
  5
E2
  8
0
 62
     7
 10
70.427325999999994
 20
164.7759969999999
 30
0.0
 40
3.000008999999999
 50
270.00002000000001
 51
359.99998999999991
  0
ARC
  5
E3
  8
0
 62
     7
 10
70.427325999999994
 20
164.77599599999991
 30
0.0
 40
3.0000079999999998
 50
179.99996999999991
 51
270.00002000000001
  0
ARC
  5
E4
  8
0
 62
     7
 10
70.427327000000005
 20
164.77599599999991
 30
0.0
 40
3.000008999999999
 50
90.0
 51
179.99996999999991
  0
ARC
  5
E5
  8
0
 62
     7
 10
70.427325999999994
 20
164.7759969999999
 30
0.0
 40
2.166634999999999
 50
0.00001
 51
89.999980000000008
  0
ARC
  5
E6
  8
0
 62
     7
 10
70.427325999999994
 20
164.7759969999999
 30
0.0
 40
2.166634999999999
 50
270.00002000000001
 51
359.99998999999991
  0
ARC
  5
E7
  8
0
 62
     7
 10
70.427154000000002
 20
164.7761689999999
 30
0.0
 40
2.1668059999999998
 50
180.0045649999999
 51
270.00457499999999
  0
ARC
  5
E8
  8
0
 62
     7
 10
70.427154999999985
 20
164.77582399999989
 30
0.0
 40
2.166806999999999
 50
89.995444999999975
 51
179.99541499999989
  0
ARC
  5
E9
  8
0
 62
     7
 10
70.356994
 20
164.70602199999999
 30
0.0
 40
1.904765
 50
2.1053410000000001
 51
87.883881999999986
  0
ARC
  5
EA
  8
0
 62
     7
 10
70.357028
 20
164.846295
 30
0.0
 40
1.9047430000000001
 50
272.11510699999991
 51
357.88490299999989
  0
ARC
  5
EB
  8
0
 62
     7
 10
70.497610999999992
 20
164.8466389999999
 30
0.0
 40
1.9050860000000001
 50
182.12507999999991
 51
267.885717
  0
ARC
  5
EC
  8
0
 62
     7
 10
70.497640000000004
 20
164.70568399999999
 30
0.0
 40
1.905103
 50
92.115131000000034
 51
177.884839
  0
ARC
  5
ED
  8
0
 62
     7
 10
91.094067999999993
 20
177.10934399999999
 30
0.0
 40
1.466758999999999
 50
0.006739
 51
90.006709000000015
  0
ARC
  5
EE
  8
0
 62
     7
 10
91.094067999999993
 20
177.109689
 30
0.0
 40
1.466758999999999
 50
269.993291
 51
359.99326100000002
  0
ARC
  5
EF
  8
0
 62
     7
 10
91.093896000000001
 20
177.1095159999999
 30
0.0
 40
1.4665859999999999
 50
179.99996999999991
 51
270.00002000000001
  0
ARC
  5
F0
  8
0
 62
     7
 10
91.093896000000001
 20
177.1095159999999
 30
0.0
 40
1.4665870000000001
 50
90.0
 51
179.99996999999991
  0
LINE
  5
F1
  8
0
  6
AIGENLINE002
 62
     7
 10
160.16200000000001
 20
237.59399999999999
 30
0.0
 11
121.8539999999999
 21
237.59399999999999
 31
0.0
  0
LINE
  5
F2
  8
0
  6
AIGENLINE002
 62
     7
 10
91.094099999999997
 20
179.85900000000001
 30
0.0
 11
91.094099999999997
 21
174.35900000000001
 31
0.0
  0
LINE
  5
F3
  8
0
  6
AIGENLINE002
 62
     7
 10
93.843999999999994
 20
177.10900000000001
 30
0.0
 11
88.343999999999994
 21
177.10900000000001
 31
0.0
  0
LINE
  5
F4
  8
0
  6
AIGENLINE002
 62
     7
 10
75.439099999999996
 20
164.7759999999999
 30
0.0
 11
66.574100000000001
 21
164.7759999999999
 31
0.0
  0
LINE
  5
F5
  8
0
  6
AIGENLINE002
 62
     7
 10
164.34599999999989
 20
104.776
 30
0.0
 11
153.77799999999991
 21
104.776
 31
0.0
  0
LINE
  5
F6
  8
0
  6
AIGENLINE001
 62
     7
 10
158.762
 20
118.57299999999989
 30
0.0
 11
124.89700000000001
 21
118.57299999999989
 31
0.0
  0
LINE
  5
F7
  8
0
  6
AIGENLINE002
 62
     7
 10
70.427300000000002
 20
69.620699999999999
 30
0.0
 11
70.427300000000002
 21
191.0859999999999
 31
0.0
  0
LINE
  5
F8
  8
0
 62
     7
 10
157.5979999999999
 20
248.52500000000001
 30
0.0
 11
157.5979999999999
 21
241.91300000000001
 31
0.0
  0
LINE
  5
F9
  8
0
 62
     7
 10
157.5979999999999
 20
248.52500000000001
 30
0.0
 11
157.55499999999989
 21
248.54599999999991
 31
0.0
  0
LINE
  5
FA
  8
0
 62
     7
 10
157.55499999999989
 20
241.89099999999991
 30
0.0
 11
157.04299999999989
 21
241.89099999999991
 31
0.0
  0
LINE
  5
FB
  8
0
 62
     7
 10
157.55499999999989
 20
248.54599999999991
 30
0.0
 11
156.80899999999991
 21
248.54599999999991
 31
0.0
  0
LINE
  5
FC
  8
0
 62
     7
 10
157.5979999999999
 20
241.91300000000001
 30
0.0
 11
157.55499999999989
 21
241.89099999999991
 31
0.0
  0
LINE
  5
FD
  8
0
 62
     7
 10
162.78200000000001
 20
246.92500000000001
 30
0.0
 11
162.67500000000001
 21
246.88200000000001
 31
0.0
  0
LINE
  5
FE
  8
0
 62
     7
 10
162.67500000000001
 20
246.88200000000001
 30
0.0
 11
162.6109999999999
 21
246.8179999999999
 31
0.0
  0
LINE
  5
FF
  8
0
 62
     7
 10
162.6109999999999
 20
246.8179999999999
 30
0.0
 11
162.5689999999999
 21
246.71199999999999
 31
0.0
  0
LINE
  5
100
  8
0
 62
     7
 10
162.91
 20
246.92500000000001
 30
0.0
 11
162.78200000000001
 21
246.92500000000001
 31
0.0
  0
LINE
  5
101
  8
0
 62
     7
 10
163.166
 20
246.7759999999999
 30
0.0
 11
162.91
 21
246.7759999999999
 31
0.0
  0
LINE
  5
102
  8
0
 62
     7
 10
162.91
 20
243.619
 30
0.0
 11
162.78200000000001
 21
243.619
 31
0.0
  0
LINE
  5
103
  8
0
 62
     7
 10
163.166
 20
243.7459999999999
 30
0.0
 11
162.91
 21
243.7459999999999
 31
0.0
  0
LINE
  5
104
  8
0
 62
     7
 10
162.5689999999999
 20
243.81099999999989
 30
0.0
 11
162.6109999999999
 21
243.72499999999999
 31
0.0
  0
LINE
  5
105
  8
0
 62
     7
 10
162.6109999999999
 20
243.72499999999999
 30
0.0
 11
162.67500000000001
 21
243.6399999999999
 31
0.0
  0
LINE
  5
106
  8
0
 62
     7
 10
162.67500000000001
 20
243.6399999999999
 30
0.0
 11
162.78200000000001
 21
243.619
 31
0.0
  0
LINE
  5
107
  8
0
 62
     7
 10
162.142
 20
244.899
 30
0.0
 11
162.05699999999999
 21
244.899
 31
0.0
  0
LINE
  5
108
  8
0
 62
     7
 10
162.142
 20
245.624
 30
0.0
 11
162.05699999999999
 21
245.624
 31
0.0
  0
LINE
  5
109
  8
0
 62
     7
 10
162.05699999999999
 20
245.66699999999989
 30
0.0
 11
161.1399999999999
 21
245.66699999999989
 31
0.0
  0
LINE
  5
10A
  8
0
 62
     7
 10
162.05699999999999
 20
244.85599999999999
 30
0.0
 11
161.1399999999999
 21
244.85599999999999
 31
0.0
  0
LINE
  5
10B
  8
0
 62
     7
 10
162.05699999999999
 20
244.94099999999989
 30
0.0
 11
161.1399999999999
 21
244.94099999999989
 31
0.0
  0
LINE
  5
10C
  8
0
 62
     7
 10
162.05699999999999
 20
245.60299999999989
 30
0.0
 11
161.1399999999999
 21
245.60299999999989
 31
0.0
  0
LINE
  5
10D
  8
0
 62
     7
 10
162.05699999999999
 20
244.85599999999999
 30
0.0
 11
162.05699999999999
 21
245.66699999999989
 31
0.0
  0
LINE
  5
10E
  8
0
 62
     7
 10
162.48400000000001
 20
245.005
 30
0.0
 11
162.20599999999999
 21
245.005
 31
0.0
  0
LINE
  5
10F
  8
0
 62
     7
 10
162.48400000000001
 20
245.53899999999999
 30
0.0
 11
162.20599999999999
 21
245.53899999999999
 31
0.0
  0
LINE
  5
110
  8
0
 62
     7
 10
162.48400000000001
 20
244.72799999999989
 30
0.0
 11
162.20599999999999
 21
244.72799999999989
 31
0.0
  0
LINE
  5
111
  8
0
 62
     7
 10
162.48400000000001
 20
245.7949999999999
 30
0.0
 11
162.20599999999999
 21
245.7949999999999
 31
0.0
  0
LINE
  5
112
  8
0
 62
     7
 10
162.142
 20
244.85599999999999
 30
0.0
 11
162.142
 21
245.66699999999989
 31
0.0
  0
LINE
  5
113
  8
0
 62
     7
 10
162.20599999999999
 20
245.53899999999999
 30
0.0
 11
162.142
 21
245.262
 31
0.0
  0
LINE
  5
114
  8
0
 62
     7
 10
162.142
 20
245.262
 30
0.0
 11
162.20599999999999
 21
245.005
 31
0.0
  0
LINE
  5
115
  8
0
 62
     7
 10
162.142
 20
245.58099999999999
 30
0.0
 11
162.142
 21
245.66699999999989
 31
0.0
  0
LINE
  5
116
  8
0
 62
     7
 10
162.142
 20
245.66699999999989
 30
0.0
 11
162.20599999999999
 21
245.7949999999999
 31
0.0
  0
LINE
  5
117
  8
0
 62
     7
 10
162.142
 20
245.66699999999989
 30
0.0
 11
162.20599999999999
 21
245.53899999999999
 31
0.0
  0
LINE
  5
118
  8
0
 62
     7
 10
162.20599999999999
 20
245.005
 30
0.0
 11
162.142
 21
244.85599999999999
 31
0.0
  0
LINE
  5
119
  8
0
 62
     7
 10
162.142
 20
244.85599999999999
 30
0.0
 11
162.20599999999999
 21
244.72799999999989
 31
0.0
  0
LINE
  5
11A
  8
0
 62
     7
 10
163.166
 20
243.7459999999999
 30
0.0
 11
163.166
 21
246.7759999999999
 31
0.0
  0
LINE
  5
11B
  8
0
 62
     7
 10
162.5689999999999
 20
246.71199999999999
 30
0.0
 11
162.5689999999999
 21
243.81099999999989
 31
0.0
  0
LINE
  5
11C
  8
0
 62
     7
 10
162.91
 20
245.262
 30
0.0
 11
162.91
 21
243.619
 31
0.0
  0
LINE
  5
11D
  8
0
 62
     7
 10
162.91
 20
243.7459999999999
 30
0.0
 11
162.91
 21
246.92500000000001
 31
0.0
  0
LINE
  5
11E
  8
0
 62
     7
 10
162.5689999999999
 20
244.429
 30
0.0
 11
162.48400000000001
 21
244.429
 31
0.0
  0
LINE
  5
11F
  8
0
 62
     7
 10
162.5689999999999
 20
246.0929999999999
 30
0.0
 11
162.48400000000001
 21
246.0929999999999
 31
0.0
  0
LINE
  5
120
  8
0
 62
     7
 10
162.48400000000001
 20
246.0929999999999
 30
0.0
 11
162.48400000000001
 21
244.429
 31
0.0
  0
LINE
  5
121
  8
0
 62
     7
 10
157.5979999999999
 20
226.685
 30
0.0
 11
157.5979999999999
 21
233.27699999999999
 31
0.0
  0
LINE
  5
122
  8
0
 62
     7
 10
157.5979999999999
 20
226.685
 30
0.0
 11
157.55499999999989
 21
226.643
 31
0.0
  0
LINE
  5
123
  8
0
 62
     7
 10
157.55499999999989
 20
233.31899999999999
 30
0.0
 11
157.04299999999989
 21
233.31899999999999
 31
0.0
  0
LINE
  5
124
  8
0
 62
     7
 10
157.55499999999989
 20
226.643
 30
0.0
 11
156.80899999999991
 21
226.643
 31
0.0
  0
LINE
  5
125
  8
0
 62
     7
 10
157.5979999999999
 20
233.27699999999999
 30
0.0
 11
157.55499999999989
 21
233.31899999999999
 31
0.0
  0
LINE
  5
126
  8
0
 62
     7
 10
157.78999999999991
 20
244.53599999999989
 30
0.0
 11
157.81200000000001
 21
244.57900000000001
 31
0.0
  0
LINE
  5
127
  8
0
 62
     7
 10
157.81200000000001
 20
244.57900000000001
 30
0.0
 11
157.8539999999999
 21
244.59999999999999
 31
0.0
  0
LINE
  5
128
  8
0
 62
     7
 10
157.8539999999999
 20
244.59999999999999
 30
0.0
 11
157.78999999999991
 21
244.68499999999989
 31
0.0
  0
LINE
  5
129
  8
0
 62
     7
 10
157.78999999999991
 20
244.749
 30
0.0
 11
157.8539999999999
 21
244.83500000000001
 31
0.0
  0
LINE
  5
12A
  8
0
 62
     7
 10
157.8539999999999
 20
244.83500000000001
 30
0.0
 11
157.96000000000001
 21
244.85599999999999
 31
0.0
  0
LINE
  5
12B
  8
0
 62
     7
 10
157.78999999999991
 20
244.68499999999989
 30
0.0
 11
157.78999999999991
 21
245.262
 31
0.0
  0
LINE
  5
12C
  8
0
 62
     7
 10
157.96000000000001
 20
244.85599999999999
 30
0.0
 11
157.833
 21
245.048
 31
0.0
  0
LINE
  5
12D
  8
0
 62
     7
 10
157.833
 20
245.048
 30
0.0
 11
157.78999999999991
 21
245.262
 31
0.0
  0
LINE
  5
12E
  8
0
 62
     7
 10
157.78999999999991
 20
245.262
 30
0.0
 11
157.833
 21
245.47399999999999
 31
0.0
  0
LINE
  5
12F
  8
0
 62
     7
 10
157.833
 20
245.47399999999999
 30
0.0
 11
157.96000000000001
 21
245.66699999999989
 31
0.0
  0
LINE
  5
130
  8
0
 62
     7
 10
157.78999999999991
 20
245.83799999999999
 30
0.0
 11
157.78999999999991
 21
245.262
 31
0.0
  0
LINE
  5
131
  8
0
 62
     7
 10
157.96000000000001
 20
245.66699999999989
 30
0.0
 11
157.8539999999999
 21
245.6879999999999
 31
0.0
  0
LINE
  5
132
  8
0
 62
     7
 10
157.8539999999999
 20
245.6879999999999
 30
0.0
 11
157.78999999999991
 21
245.7949999999999
 31
0.0
  0
LINE
  5
133
  8
0
 62
     7
 10
161.0749999999999
 20
245.94399999999999
 30
0.0
 11
157.8539999999999
 21
245.94399999999999
 31
0.0
  0
LINE
  5
134
  8
0
 62
     7
 10
157.8539999999999
 20
245.94399999999999
 30
0.0
 11
157.78999999999991
 21
245.83799999999999
 31
0.0
  0
LINE
  5
135
  8
0
 62
     7
 10
157.8539999999999
 20
245.94399999999999
 30
0.0
 11
157.81200000000001
 21
245.96499999999989
 31
0.0
  0
LINE
  5
136
  8
0
 62
     7
 10
157.81200000000001
 20
245.96499999999989
 30
0.0
 11
157.78999999999991
 21
246.00800000000001
 31
0.0
  0
LINE
  5
137
  8
0
 62
     7
 10
157.8539999999999
 20
244.59999999999999
 30
0.0
 11
161.0749999999999
 21
244.59999999999999
 31
0.0
  0
LINE
  5
138
  8
0
 62
     7
 10
161.1399999999999
 20
245.83799999999999
 30
0.0
 11
161.0749999999999
 21
245.94399999999999
 31
0.0
  0
LINE
  5
139
  8
0
 62
     7
 10
161.1399999999999
 20
245.7949999999999
 30
0.0
 11
161.0749999999999
 21
245.6879999999999
 31
0.0
  0
LINE
  5
13A
  8
0
 62
     7
 10
161.0749999999999
 20
245.6879999999999
 30
0.0
 11
160.96899999999999
 21
245.66699999999989
 31
0.0
  0
LINE
  5
13B
  8
0
 62
     7
 10
160.96899999999999
 20
245.66699999999989
 30
0.0
 11
161.09700000000001
 21
245.47399999999999
 31
0.0
  0
LINE
  5
13C
  8
0
 62
     7
 10
161.09700000000001
 20
245.47399999999999
 30
0.0
 11
161.1399999999999
 21
245.262
 31
0.0
  0
LINE
  5
13D
  8
0
 62
     7
 10
161.1399999999999
 20
245.262
 30
0.0
 11
161.1399999999999
 21
245.83799999999999
 31
0.0
  0
LINE
  5
13E
  8
0
 62
     7
 10
161.1399999999999
 20
244.68499999999989
 30
0.0
 11
161.1399999999999
 21
245.262
 31
0.0
  0
LINE
  5
13F
  8
0
 62
     7
 10
161.1399999999999
 20
245.262
 30
0.0
 11
161.09700000000001
 21
245.048
 31
0.0
  0
LINE
  5
140
  8
0
 62
     7
 10
161.09700000000001
 20
245.048
 30
0.0
 11
160.96899999999999
 21
244.85599999999999
 31
0.0
  0
LINE
  5
141
  8
0
 62
     7
 10
160.96899999999999
 20
244.85599999999999
 30
0.0
 11
161.0749999999999
 21
244.83500000000001
 31
0.0
  0
LINE
  5
142
  8
0
 62
     7
 10
161.0749999999999
 20
244.83500000000001
 30
0.0
 11
161.1399999999999
 21
244.749
 31
0.0
  0
LINE
  5
143
  8
0
 62
     7
 10
161.1399999999999
 20
244.68499999999989
 30
0.0
 11
161.0749999999999
 21
244.59999999999999
 31
0.0
  0
LINE
  5
144
  8
0
 62
     7
 10
157.74700000000001
 20
245.262
 30
0.0
 11
157.74700000000001
 21
243.25599999999989
 31
0.0
  0
LINE
  5
145
  8
0
 62
     7
 10
157.74700000000001
 20
243.25599999999989
 30
0.0
 11
157.64099999999991
 21
243.25599999999989
 31
0.0
  0
LINE
  5
146
  8
0
 62
     7
 10
157.78999999999991
 20
243.298
 30
0.0
 11
157.74700000000001
 21
243.25599999999989
 31
0.0
  0
LINE
  5
147
  8
0
 62
     7
 10
157.5979999999999
 20
243.298
 30
0.0
 11
157.64099999999991
 21
243.25599999999989
 31
0.0
  0
LINE
  5
148
  8
0
 62
     7
 10
157.64099999999991
 20
243.25599999999989
 30
0.0
 11
157.64099999999991
 21
245.262
 31
0.0
  0
LINE
  5
149
  8
0
 62
     7
 10
157.78999999999991
 20
243.298
 30
0.0
 11
157.78999999999991
 21
247.22399999999999
 31
0.0
  0
LINE
  5
14A
  8
0
 62
     7
 10
157.64099999999991
 20
245.262
 30
0.0
 11
157.64099999999991
 21
247.26599999999991
 31
0.0
  0
LINE
  5
14B
  8
0
 62
     7
 10
157.64099999999991
 20
247.26599999999991
 30
0.0
 11
157.5979999999999
 21
247.22399999999999
 31
0.0
  0
LINE
  5
14C
  8
0
 62
     7
 10
157.78999999999991
 20
247.22399999999999
 30
0.0
 11
157.74700000000001
 21
247.26599999999991
 31
0.0
  0
LINE
  5
14D
  8
0
 62
     7
 10
157.74700000000001
 20
247.26599999999991
 30
0.0
 11
157.64099999999991
 21
247.26599999999991
 31
0.0
  0
LINE
  5
14E
  8
0
 62
     7
 10
157.74700000000001
 20
247.26599999999991
 30
0.0
 11
157.74700000000001
 21
245.262
 31
0.0
  0
LINE
  5
14F
  8
0
 62
     7
 10
157.96000000000001
 20
244.85599999999999
 30
0.0
 11
160.96899999999999
 21
244.85599999999999
 31
0.0
  0
LINE
  5
150
  8
0
 62
     7
 10
157.96000000000001
 20
245.66699999999989
 30
0.0
 11
160.96899999999999
 21
245.66699999999989
 31
0.0
  0
LINE
  5
151
  8
0
 62
     7
 10
157.5979999999999
 20
247.22399999999999
 30
0.0
 11
157.5979999999999
 21
243.298
 31
0.0
  0
LINE
  5
152
  8
0
 62
     7
 10
162.5689999999999
 20
228.47699999999989
 30
0.0
 11
162.6109999999999
 21
228.392
 31
0.0
  0
LINE
  5
153
  8
0
 62
     7
 10
162.6109999999999
 20
228.392
 30
0.0
 11
162.67500000000001
 21
228.3059999999999
 31
0.0
  0
LINE
  5
154
  8
0
 62
     7
 10
162.67500000000001
 20
228.3059999999999
 30
0.0
 11
162.78200000000001
 21
228.28499999999991
 31
0.0
  0
LINE
  5
155
  8
0
 62
     7
 10
162.78200000000001
 20
228.28499999999991
 30
0.0
 11
162.91
 21
228.28499999999991
 31
0.0
  0
LINE
  5
156
  8
0
 62
     7
 10
163.166
 20
228.4129999999999
 30
0.0
 11
162.91
 21
228.4129999999999
 31
0.0
  0
LINE
  5
157
  8
0
 62
     7
 10
162.91
 20
231.59200000000001
 30
0.0
 11
162.78200000000001
 21
231.59200000000001
 31
0.0
  0
LINE
  5
158
  8
0
 62
     7
 10
163.166
 20
231.44200000000001
 30
0.0
 11
162.91
 21
231.44200000000001
 31
0.0
  0
LINE
  5
159
  8
0
 62
     7
 10
162.78200000000001
 20
231.59200000000001
 30
0.0
 11
162.67500000000001
 21
231.54900000000001
 31
0.0
  0
LINE
  5
15A
  8
0
 62
     7
 10
162.67500000000001
 20
231.54900000000001
 30
0.0
 11
162.6109999999999
 21
231.48400000000001
 31
0.0
  0
LINE
  5
15B
  8
0
 62
     7
 10
162.6109999999999
 20
231.48400000000001
 30
0.0
 11
162.5689999999999
 21
231.3779999999999
 31
0.0
  0
LINE
  5
15C
  8
0
 62
     7
 10
162.142
 20
230.31099999999989
 30
0.0
 11
162.05699999999999
 21
230.31099999999989
 31
0.0
  0
LINE
  5
15D
  8
0
 62
     7
 10
162.142
 20
229.565
 30
0.0
 11
162.05699999999999
 21
229.565
 31
0.0
  0
LINE
  5
15E
  8
0
 62
     7
 10
162.05699999999999
 20
229.54400000000001
 30
0.0
 11
161.1399999999999
 21
229.54400000000001
 31
0.0
  0
LINE
  5
15F
  8
0
 62
     7
 10
162.05699999999999
 20
230.33299999999991
 30
0.0
 11
161.1399999999999
 21
230.33299999999991
 31
0.0
  0
LINE
  5
160
  8
0
 62
     7
 10
162.05699999999999
 20
230.26900000000001
 30
0.0
 11
161.1399999999999
 21
230.26900000000001
 31
0.0
  0
LINE
  5
161
  8
0
 62
     7
 10
162.05699999999999
 20
229.60799999999989
 30
0.0
 11
161.1399999999999
 21
229.60799999999989
 31
0.0
  0
LINE
  5
162
  8
0
 62
     7
 10
162.05699999999999
 20
230.33299999999991
 30
0.0
 11
162.05699999999999
 21
229.54400000000001
 31
0.0
  0
LINE
  5
163
  8
0
 62
     7
 10
162.48400000000001
 20
230.20500000000001
 30
0.0
 11
162.20599999999999
 21
230.20500000000001
 31
0.0
  0
LINE
  5
164
  8
0
 62
     7
 10
162.48400000000001
 20
229.67099999999999
 30
0.0
 11
162.20599999999999
 21
229.67099999999999
 31
0.0
  0
LINE
  5
165
  8
0
 62
     7
 10
162.48400000000001
 20
230.48199999999991
 30
0.0
 11
162.20599999999999
 21
230.48199999999991
 31
0.0
  0
LINE
  5
166
  8
0
 62
     7
 10
162.48400000000001
 20
229.39400000000001
 30
0.0
 11
162.20599999999999
 21
229.39400000000001
 31
0.0
  0
LINE
  5
167
  8
0
 62
     7
 10
162.142
 20
230.33299999999991
 30
0.0
 11
162.142
 21
229.52199999999999
 31
0.0
  0
LINE
  5
168
  8
0
 62
     7
 10
162.20599999999999
 20
230.20500000000001
 30
0.0
 11
162.142
 21
229.92799999999991
 31
0.0
  0
LINE
  5
169
  8
0
 62
     7
 10
162.142
 20
229.92799999999991
 30
0.0
 11
162.20599999999999
 21
229.67099999999999
 31
0.0
  0
LINE
  5
16A
  8
0
 62
     7
 10
162.142
 20
229.62899999999999
 30
0.0
 11
162.142
 21
229.52199999999999
 31
0.0
  0
LINE
  5
16B
  8
0
 62
     7
 10
162.142
 20
229.52199999999999
 30
0.0
 11
162.20599999999999
 21
229.67099999999999
 31
0.0
  0
LINE
  5
16C
  8
0
 62
     7
 10
162.142
 20
229.52199999999999
 30
0.0
 11
162.20599999999999
 21
229.39400000000001
 31
0.0
  0
LINE
  5
16D
  8
0
 62
     7
 10
162.20599999999999
 20
230.48199999999991
 30
0.0
 11
162.142
 21
230.33299999999991
 31
0.0
  0
LINE
  5
16E
  8
0
 62
     7
 10
162.142
 20
230.33299999999991
 30
0.0
 11
162.20599999999999
 21
230.20500000000001
 31
0.0
  0
LINE
  5
16F
  8
0
 62
     7
 10
163.166
 20
231.44200000000001
 30
0.0
 11
163.166
 21
228.4129999999999
 31
0.0
  0
LINE
  5
170
  8
0
 62
     7
 10
162.5689999999999
 20
228.47699999999989
 30
0.0
 11
162.5689999999999
 21
231.3779999999999
 31
0.0
  0
LINE
  5
171
  8
0
 62
     7
 10
162.91
 20
229.92799999999991
 30
0.0
 11
162.91
 21
231.59200000000001
 31
0.0
  0
LINE
  5
172
  8
0
 62
     7
 10
162.91
 20
231.44200000000001
 30
0.0
 11
162.91
 21
228.28499999999991
 31
0.0
  0
LINE
  5
173
  8
0
 62
     7
 10
162.5689999999999
 20
230.75899999999999
 30
0.0
 11
162.48400000000001
 21
230.75899999999999
 31
0.0
  0
LINE
  5
174
  8
0
 62
     7
 10
162.5689999999999
 20
229.09599999999989
 30
0.0
 11
162.48400000000001
 21
229.09599999999989
 31
0.0
  0
LINE
  5
175
  8
0
 62
     7
 10
162.48400000000001
 20
229.09599999999989
 30
0.0
 11
162.48400000000001
 21
230.75899999999999
 31
0.0
  0
LINE
  5
176
  8
0
 62
     7
 10
157.78999999999991
 20
230.67400000000001
 30
0.0
 11
157.81200000000001
 21
230.63099999999989
 31
0.0
  0
LINE
  5
177
  8
0
 62
     7
 10
157.81200000000001
 20
230.63099999999989
 30
0.0
 11
157.8539999999999
 21
230.61000000000001
 31
0.0
  0
LINE
  5
178
  8
0
 62
     7
 10
157.8539999999999
 20
230.61000000000001
 30
0.0
 11
157.78999999999991
 21
230.50399999999999
 31
0.0
  0
LINE
  5
179
  8
0
 62
     7
 10
157.78999999999991
 20
230.4609999999999
 30
0.0
 11
157.8539999999999
 21
230.376
 31
0.0
  0
LINE
  5
17A
  8
0
 62
     7
 10
157.8539999999999
 20
230.376
 30
0.0
 11
157.96000000000001
 21
230.33299999999991
 31
0.0
  0
LINE
  5
17B
  8
0
 62
     7
 10
157.78999999999991
 20
230.50399999999999
 30
0.0
 11
157.78999999999991
 21
229.92799999999991
 31
0.0
  0
LINE
  5
17C
  8
0
 62
     7
 10
157.96000000000001
 20
230.33299999999991
 30
0.0
 11
157.833
 21
230.14099999999999
 31
0.0
  0
LINE
  5
17D
  8
0
 62
     7
 10
157.833
 20
230.14099999999999
 30
0.0
 11
157.78999999999991
 21
229.92799999999991
 31
0.0
  0
LINE
  5
17E
  8
0
 62
     7
 10
157.78999999999991
 20
229.92799999999991
 30
0.0
 11
157.833
 21
229.714
 31
0.0
  0
LINE
  5
17F
  8
0
 62
     7
 10
157.833
 20
229.714
 30
0.0
 11
157.96000000000001
 21
229.54400000000001
 31
0.0
  0
LINE
  5
180
  8
0
 62
     7
 10
157.78999999999991
 20
229.35099999999991
 30
0.0
 11
157.78999999999991
 21
229.92799999999991
 31
0.0
  0
LINE
  5
181
  8
0
 62
     7
 10
157.96000000000001
 20
229.54400000000001
 30
0.0
 11
157.8539999999999
 21
229.50099999999989
 31
0.0
  0
LINE
  5
182
  8
0
 62
     7
 10
157.8539999999999
 20
229.50099999999989
 30
0.0
 11
157.78999999999991
 21
229.416
 31
0.0
  0
LINE
  5
183
  8
0
 62
     7
 10
161.0749999999999
 20
229.267
 30
0.0
 11
157.8539999999999
 21
229.267
 31
0.0
  0
LINE
  5
184
  8
0
 62
     7
 10
157.8539999999999
 20
229.267
 30
0.0
 11
157.78999999999991
 21
229.35099999999991
 31
0.0
  0
LINE
  5
185
  8
0
 62
     7
 10
157.8539999999999
 20
229.267
 30
0.0
 11
157.81200000000001
 21
229.245
 31
0.0
  0
LINE
  5
186
  8
0
 62
     7
 10
157.81200000000001
 20
229.245
 30
0.0
 11
157.78999999999991
 21
229.20199999999991
 31
0.0
  0
LINE
  5
187
  8
0
 62
     7
 10
157.8539999999999
 20
230.61000000000001
 30
0.0
 11
161.0749999999999
 21
230.61000000000001
 31
0.0
  0
LINE
  5
188
  8
0
 62
     7
 10
161.1399999999999
 20
229.35099999999991
 30
0.0
 11
161.0749999999999
 21
229.267
 31
0.0
  0
LINE
  5
189
  8
0
 62
     7
 10
161.1399999999999
 20
229.416
 30
0.0
 11
161.0749999999999
 21
229.50099999999989
 31
0.0
  0
LINE
  5
18A
  8
0
 62
     7
 10
161.0749999999999
 20
229.50099999999989
 30
0.0
 11
160.96899999999999
 21
229.54400000000001
 31
0.0
  0
LINE
  5
18B
  8
0
 62
     7
 10
160.96899999999999
 20
229.54400000000001
 30
0.0
 11
161.09700000000001
 21
229.714
 31
0.0
  0
LINE
  5
18C
  8
0
 62
     7
 10
161.09700000000001
 20
229.714
 30
0.0
 11
161.1399999999999
 21
229.92799999999991
 31
0.0
  0
LINE
  5
18D
  8
0
 62
     7
 10
161.1399999999999
 20
229.92799999999991
 30
0.0
 11
161.1399999999999
 21
229.35099999999991
 31
0.0
  0
LINE
  5
18E
  8
0
 62
     7
 10
161.1399999999999
 20
230.50399999999999
 30
0.0
 11
161.1399999999999
 21
229.92799999999991
 31
0.0
  0
LINE
  5
18F
  8
0
 62
     7
 10
161.1399999999999
 20
229.92799999999991
 30
0.0
 11
161.09700000000001
 21
230.14099999999999
 31
0.0
  0
LINE
  5
190
  8
0
 62
     7
 10
161.09700000000001
 20
230.14099999999999
 30
0.0
 11
160.96899999999999
 21
230.33299999999991
 31
0.0
  0
LINE
  5
191
  8
0
 62
     7
 10
160.96899999999999
 20
230.33299999999991
 30
0.0
 11
161.0749999999999
 21
230.376
 31
0.0
  0
LINE
  5
192
  8
0
 62
     7
 10
161.0749999999999
 20
230.376
 30
0.0
 11
161.1399999999999
 21
230.4609999999999
 31
0.0
  0
LINE
  5
193
  8
0
 62
     7
 10
161.1399999999999
 20
230.50399999999999
 30
0.0
 11
161.0749999999999
 21
230.61000000000001
 31
0.0
  0
LINE
  5
194
  8
0
 62
     7
 10
157.74700000000001
 20
229.92799999999991
 30
0.0
 11
157.74700000000001
 21
231.93299999999991
 31
0.0
  0
LINE
  5
195
  8
0
 62
     7
 10
157.74700000000001
 20
231.93299999999991
 30
0.0
 11
157.64099999999991
 21
231.93299999999991
 31
0.0
  0
LINE
  5
196
  8
0
 62
     7
 10
157.78999999999991
 20
231.8899999999999
 30
0.0
 11
157.74700000000001
 21
231.93299999999991
 31
0.0
  0
LINE
  5
197
  8
0
 62
     7
 10
157.5979999999999
 20
231.8899999999999
 30
0.0
 11
157.64099999999991
 21
231.93299999999991
 31
0.0
  0
LINE
  5
198
  8
0
 62
     7
 10
157.64099999999991
 20
231.93299999999991
 30
0.0
 11
157.64099999999991
 21
229.92799999999991
 31
0.0
  0
LINE
  5
199
  8
0
 62
     7
 10
157.78999999999991
 20
231.8899999999999
 30
0.0
 11
157.78999999999991
 21
227.965
 31
0.0
  0
LINE
  5
19A
  8
0
 62
     7
 10
157.64099999999991
 20
229.92799999999991
 30
0.0
 11
157.64099999999991
 21
227.94399999999999
 31
0.0
  0
LINE
  5
19B
  8
0
 62
     7
 10
157.64099999999991
 20
227.94399999999999
 30
0.0
 11
157.5979999999999
 21
227.965
 31
0.0
  0
LINE
  5
19C
  8
0
 62
     7
 10
157.78999999999991
 20
227.965
 30
0.0
 11
157.74700000000001
 21
227.94399999999999
 31
0.0
  0
LINE
  5
19D
  8
0
 62
     7
 10
157.74700000000001
 20
227.94399999999999
 30
0.0
 11
157.64099999999991
 21
227.94399999999999
 31
0.0
  0
LINE
  5
19E
  8
0
 62
     7
 10
157.74700000000001
 20
227.94399999999999
 30
0.0
 11
157.74700000000001
 21
229.92799999999991
 31
0.0
  0
LINE
  5
19F
  8
0
 62
     7
 10
157.96000000000001
 20
230.33299999999991
 30
0.0
 11
160.96899999999999
 21
230.33299999999991
 31
0.0
  0
LINE
  5
1A0
  8
0
 62
     7
 10
157.96000000000001
 20
229.54400000000001
 30
0.0
 11
160.96899999999999
 21
229.54400000000001
 31
0.0
  0
LINE
  5
1A1
  8
0
 62
     7
 10
157.5979999999999
 20
227.965
 30
0.0
 11
157.5979999999999
 21
231.8899999999999
 31
0.0
  0
LINE
  5
1A2
  8
0
 62
     7
 10
162.54699999999991
 20
155.6579999999999
 30
0.0
 11
162.59
 21
155.57299999999989
 31
0.0
  0
LINE
  5
1A3
  8
0
 62
     7
 10
162.59
 20
155.57299999999989
 30
0.0
 11
162.654
 21
155.48799999999989
 31
0.0
  0
LINE
  5
1A4
  8
0
 62
     7
 10
162.654
 20
155.48799999999989
 30
0.0
 11
162.76099999999991
 21
155.46700000000001
 31
0.0
  0
LINE
  5
1A5
  8
0
 62
     7
 10
162.76099999999991
 20
155.46700000000001
 30
0.0
 11
162.88900000000001
 21
155.46700000000001
 31
0.0
  0
LINE
  5
1A6
  8
0
 62
     7
 10
163.166
 20
155.59499999999991
 30
0.0
 11
162.88900000000001
 21
155.59499999999991
 31
0.0
  0
LINE
  5
1A7
  8
0
 62
     7
 10
162.88900000000001
 20
158.773
 30
0.0
 11
162.76099999999991
 21
158.773
 31
0.0
  0
LINE
  5
1A8
  8
0
 62
     7
 10
163.166
 20
158.624
 30
0.0
 11
162.88900000000001
 21
158.624
 31
0.0
  0
LINE
  5
1A9
  8
0
 62
     7
 10
162.76099999999991
 20
158.773
 30
0.0
 11
162.654
 21
158.73099999999991
 31
0.0
  0
LINE
  5
1AA
  8
0
 62
     7
 10
162.654
 20
158.73099999999991
 30
0.0
 11
162.59
 21
158.66699999999989
 31
0.0
  0
LINE
  5
1AB
  8
0
 62
     7
 10
162.59
 20
158.66699999999989
 30
0.0
 11
162.54699999999991
 21
158.56
 31
0.0
  0
LINE
  5
1AC
  8
0
 62
     7
 10
162.12100000000001
 20
157.49299999999991
 30
0.0
 11
162.035
 21
157.49299999999991
 31
0.0
  0
LINE
  5
1AD
  8
0
 62
     7
 10
162.12100000000001
 20
156.74600000000001
 30
0.0
 11
162.035
 21
156.74600000000001
 31
0.0
  0
LINE
  5
1AE
  8
0
 62
     7
 10
162.035
 20
156.72499999999999
 30
0.0
 11
161.07599999999991
 21
156.72499999999999
 31
0.0
  0
LINE
  5
1AF
  8
0
 62
     7
 10
162.035
 20
157.51400000000001
 30
0.0
 11
161.07599999999991
 21
157.51400000000001
 31
0.0
  0
LINE
  5
1B0
  8
0
 62
     7
 10
160.94799999999989
 20
157.51400000000001
 30
0.0
 11
160.13799999999989
 21
157.51400000000001
 31
0.0
  0
LINE
  5
1B1
  8
0
 62
     7
 10
162.035
 20
157.45099999999999
 30
0.0
 11
161.07599999999991
 21
157.45099999999999
 31
0.0
  0
LINE
  5
1B2
  8
0
 62
     7
 10
162.035
 20
156.78899999999999
 30
0.0
 11
161.07599999999991
 21
156.78899999999999
 31
0.0
  0
LINE
  5
1B3
  8
0
 62
     7
 10
162.035
 20
157.51400000000001
 30
0.0
 11
162.035
 21
156.72499999999999
 31
0.0
  0
LINE
  5
1B4
  8
0
 62
     7
 10
162.46199999999999
 20
157.387
 30
0.0
 11
162.185
 21
157.387
 31
0.0
  0
LINE
  5
1B5
  8
0
 62
     7
 10
162.46199999999999
 20
156.85299999999989
 30
0.0
 11
162.185
 21
156.85299999999989
 31
0.0
  0
LINE
  5
1B6
  8
0
 62
     7
 10
162.46199999999999
 20
157.6639999999999
 30
0.0
 11
162.185
 21
157.6639999999999
 31
0.0
  0
LINE
  5
1B7
  8
0
 62
     7
 10
162.46199999999999
 20
156.57599999999999
 30
0.0
 11
162.185
 21
156.57599999999999
 31
0.0
  0
LINE
  5
1B8
  8
0
 62
     7
 10
162.12100000000001
 20
157.51400000000001
 30
0.0
 11
162.12100000000001
 21
156.70400000000001
 31
0.0
  0
LINE
  5
1B9
  8
0
 62
     7
 10
162.185
 20
157.387
 30
0.0
 11
162.12100000000001
 21
157.10900000000001
 31
0.0
  0
LINE
  5
1BA
  8
0
 62
     7
 10
162.12100000000001
 20
157.10900000000001
 30
0.0
 11
162.185
 21
156.85299999999989
 31
0.0
  0
LINE
  5
1BB
  8
0
 62
     7
 10
162.12100000000001
 20
156.81100000000001
 30
0.0
 11
162.12100000000001
 21
156.70400000000001
 31
0.0
  0
LINE
  5
1BC
  8
0
 62
     7
 10
162.12100000000001
 20
156.70400000000001
 30
0.0
 11
162.185
 21
156.85299999999989
 31
0.0
  0
LINE
  5
1BD
  8
0
 62
     7
 10
162.12100000000001
 20
156.70400000000001
 30
0.0
 11
162.185
 21
156.57599999999999
 31
0.0
  0
LINE
  5
1BE
  8
0
 62
     7
 10
162.185
 20
157.6639999999999
 30
0.0
 11
162.12100000000001
 21
157.51400000000001
 31
0.0
  0
LINE
  5
1BF
  8
0
 62
     7
 10
162.12100000000001
 20
157.51400000000001
 30
0.0
 11
162.185
 21
157.387
 31
0.0
  0
LINE
  5
1C0
  8
0
 62
     7
 10
163.166
 20
158.624
 30
0.0
 11
163.166
 21
155.59499999999991
 31
0.0
  0
LINE
  5
1C1
  8
0
 62
     7
 10
162.54699999999991
 20
155.6579999999999
 30
0.0
 11
162.54699999999991
 21
158.56
 31
0.0
  0
LINE
  5
1C2
  8
0
 62
     7
 10
162.88900000000001
 20
157.10900000000001
 30
0.0
 11
162.88900000000001
 21
158.773
 31
0.0
  0
LINE
  5
1C3
  8
0
 62
     7
 10
162.88900000000001
 20
158.624
 30
0.0
 11
162.88900000000001
 21
155.46700000000001
 31
0.0
  0
LINE
  5
1C4
  8
0
 62
     7
 10
162.54699999999991
 20
157.941
 30
0.0
 11
162.46199999999999
 21
157.941
 31
0.0
  0
LINE
  5
1C5
  8
0
 62
     7
 10
162.54699999999991
 20
156.27699999999999
 30
0.0
 11
162.46199999999999
 21
156.27699999999999
 31
0.0
  0
LINE
  5
1C6
  8
0
 62
     7
 10
162.46199999999999
 20
156.27699999999999
 30
0.0
 11
162.46199999999999
 21
157.941
 31
0.0
  0
LINE
  5
1C7
  8
0
 62
     7
 10
157.643
 20
160.45899999999989
 30
0.0
 11
157.62200000000001
 21
160.501
 31
0.0
  0
LINE
  5
1C8
  8
0
 62
     7
 10
157.643
 20
153.86699999999999
 30
0.0
 11
157.643
 21
160.45899999999989
 31
0.0
  0
LINE
  5
1C9
  8
0
 62
     7
 10
157.643
 20
153.86699999999999
 30
0.0
 11
157.62200000000001
 21
153.8239999999999
 31
0.0
  0
LINE
  5
1CA
  8
0
 62
     7
 10
157.62200000000001
 20
160.501
 30
0.0
 11
157.06699999999989
 21
160.501
 31
0.0
  0
LINE
  5
1CB
  8
0
 62
     7
 10
157.62200000000001
 20
153.8239999999999
 30
0.0
 11
156.91800000000001
 21
153.8239999999999
 31
0.0
  0
LINE
  5
1CC
  8
0
 62
     7
 10
157.85599999999991
 20
157.85599999999991
 30
0.0
 11
157.8779999999999
 21
157.8129999999999
 31
0.0
  0
LINE
  5
1CD
  8
0
 62
     7
 10
157.8779999999999
 20
157.8129999999999
 30
0.0
 11
157.9199999999999
 21
157.79199999999989
 31
0.0
  0
LINE
  5
1CE
  8
0
 62
     7
 10
157.85599999999991
 20
157.70699999999991
 30
0.0
 11
157.899
 21
157.79199999999989
 31
0.0
  0
LINE
  5
1CF
  8
0
 62
     7
 10
157.85599999999991
 20
157.643
 30
0.0
 11
157.899
 21
157.55699999999999
 31
0.0
  0
LINE
  5
1D0
  8
0
 62
     7
 10
157.899
 20
157.55699999999999
 30
0.0
 11
158.006
 21
157.51400000000001
 31
0.0
  0
LINE
  5
1D1
  8
0
 62
     7
 10
157.85599999999991
 20
157.70699999999991
 30
0.0
 11
157.85599999999991
 21
157.13099999999989
 31
0.0
  0
LINE
  5
1D2
  8
0
 62
     7
 10
158.006
 20
157.51400000000001
 30
0.0
 11
157.899
 21
157.34399999999991
 31
0.0
  0
LINE
  5
1D3
  8
0
 62
     7
 10
157.899
 20
157.34399999999991
 30
0.0
 11
157.85599999999991
 21
157.13099999999989
 31
0.0
  0
LINE
  5
1D4
  8
0
 62
     7
 10
157.85599999999991
 20
157.13099999999989
 30
0.0
 11
157.899
 21
156.89599999999999
 31
0.0
  0
LINE
  5
1D5
  8
0
 62
     7
 10
157.899
 20
156.89599999999999
 30
0.0
 11
158.006
 21
156.72499999999999
 31
0.0
  0
LINE
  5
1D6
  8
0
 62
     7
 10
157.85599999999991
 20
156.5329999999999
 30
0.0
 11
157.85599999999991
 21
157.13099999999989
 31
0.0
  0
LINE
  5
1D7
  8
0
 62
     7
 10
158.006
 20
156.72499999999999
 30
0.0
 11
157.899
 21
156.68299999999991
 31
0.0
  0
LINE
  5
1D8
  8
0
 62
     7
 10
157.899
 20
156.68299999999991
 30
0.0
 11
157.85599999999991
 21
156.59700000000001
 31
0.0
  0
LINE
  5
1D9
  8
0
 62
     7
 10
157.9199999999999
 20
156.44799999999989
 30
0.0
 11
161.119
 21
156.44799999999989
 31
0.0
  0
LINE
  5
1DA
  8
0
 62
     7
 10
157.85599999999991
 20
156.5329999999999
 30
0.0
 11
157.899
 21
156.44799999999989
 31
0.0
  0
LINE
  5
1DB
  8
0
 62
     7
 10
157.9199999999999
 20
156.44799999999989
 30
0.0
 11
157.8779999999999
 21
156.42599999999999
 31
0.0
  0
LINE
  5
1DC
  8
0
 62
     7
 10
157.8779999999999
 20
156.42599999999999
 30
0.0
 11
157.85599999999991
 21
156.3839999999999
 31
0.0
  0
LINE
  5
1DD
  8
0
 62
     7
 10
157.9199999999999
 20
157.79199999999989
 30
0.0
 11
161.119
 21
157.79199999999989
 31
0.0
  0
LINE
  5
1DE
  8
0
 62
     7
 10
161.18299999999991
 20
156.5329999999999
 30
0.0
 11
161.119
 21
156.44799999999989
 31
0.0
  0
LINE
  5
1DF
  8
0
 62
     7
 10
161.18299999999991
 20
156.59700000000001
 30
0.0
 11
161.119
 21
156.68299999999991
 31
0.0
  0
LINE
  5
1E0
  8
0
 62
     7
 10
161.119
 20
156.68299999999991
 30
0.0
 11
161.012
 21
156.72499999999999
 31
0.0
  0
LINE
  5
1E1
  8
0
 62
     7
 10
161.012
 20
156.72499999999999
 30
0.0
 11
161.1399999999999
 21
156.89599999999999
 31
0.0
  0
LINE
  5
1E2
  8
0
 62
     7
 10
161.1399999999999
 20
156.89599999999999
 30
0.0
 11
161.18299999999991
 21
157.13099999999989
 31
0.0
  0
LINE
  5
1E3
  8
0
 62
     7
 10
161.18299999999991
 20
157.13099999999989
 30
0.0
 11
161.18299999999991
 21
156.5329999999999
 31
0.0
  0
LINE
  5
1E4
  8
0
 62
     7
 10
161.18299999999991
 20
157.70699999999991
 30
0.0
 11
161.18299999999991
 21
157.13099999999989
 31
0.0
  0
LINE
  5
1E5
  8
0
 62
     7
 10
161.18299999999991
 20
157.13099999999989
 30
0.0
 11
161.1399999999999
 21
157.34399999999991
 31
0.0
  0
LINE
  5
1E6
  8
0
 62
     7
 10
161.1399999999999
 20
157.34399999999991
 30
0.0
 11
161.012
 21
157.51400000000001
 31
0.0
  0
LINE
  5
1E7
  8
0
 62
     7
 10
161.012
 20
157.51400000000001
 30
0.0
 11
161.119
 21
157.55699999999999
 31
0.0
  0
LINE
  5
1E8
  8
0
 62
     7
 10
161.119
 20
157.55699999999999
 30
0.0
 11
161.18299999999991
 21
157.643
 31
0.0
  0
LINE
  5
1E9
  8
0
 62
     7
 10
161.18299999999991
 20
157.70699999999991
 30
0.0
 11
161.119
 21
157.79199999999989
 31
0.0
  0
LINE
  5
1EA
  8
0
 62
     7
 10
157.81399999999991
 20
157.13099999999989
 30
0.0
 11
157.81399999999991
 21
159.114
 31
0.0
  0
LINE
  5
1EB
  8
0
 62
     7
 10
157.81399999999991
 20
159.114
 30
0.0
 11
157.685
 21
159.114
 31
0.0
  0
LINE
  5
1EC
  8
0
 62
     7
 10
157.85599999999991
 20
159.072
 30
0.0
 11
157.81399999999991
 21
159.114
 31
0.0
  0
LINE
  5
1ED
  8
0
 62
     7
 10
157.643
 20
159.072
 30
0.0
 11
157.685
 21
159.114
 31
0.0
  0
LINE
  5
1EE
  8
0
 62
     7
 10
157.685
 20
159.114
 30
0.0
 11
157.685
 21
157.13099999999989
 31
0.0
  0
LINE
  5
1EF
  8
0
 62
     7
 10
157.85599999999991
 20
159.072
 30
0.0
 11
157.85599999999991
 21
155.16800000000001
 31
0.0
  0
LINE
  5
1F0
  8
0
 62
     7
 10
157.685
 20
157.13099999999989
 30
0.0
 11
157.685
 21
155.125
 31
0.0
  0
LINE
  5
1F1
  8
0
 62
     7
 10
157.685
 20
155.125
 30
0.0
 11
157.643
 21
155.16800000000001
 31
0.0
  0
LINE
  5
1F2
  8
0
 62
     7
 10
157.85599999999991
 20
155.16800000000001
 30
0.0
 11
157.81399999999991
 21
155.125
 31
0.0
  0
LINE
  5
1F3
  8
0
 62
     7
 10
157.81399999999991
 20
155.125
 30
0.0
 11
157.685
 21
155.125
 31
0.0
  0
LINE
  5
1F4
  8
0
 62
     7
 10
157.81399999999991
 20
155.125
 30
0.0
 11
157.81399999999991
 21
157.13099999999989
 31
0.0
  0
LINE
  5
1F5
  8
0
 62
     7
 10
158.006
 20
157.51400000000001
 30
0.0
 11
161.012
 21
157.51400000000001
 31
0.0
  0
LINE
  5
1F6
  8
0
 62
     7
 10
158.006
 20
156.72499999999999
 30
0.0
 11
161.012
 21
156.72499999999999
 31
0.0
  0
LINE
  5
1F7
  8
0
 62
     7
 10
157.643
 20
155.16800000000001
 30
0.0
 11
157.643
 21
159.072
 31
0.0
  0
LINE
  5
1F8
  8
0
 62
     7
 10
162.54699999999991
 20
103.325
 30
0.0
 11
162.59
 21
103.2179999999999
 31
0.0
  0
LINE
  5
1F9
  8
0
 62
     7
 10
162.59
 20
103.2179999999999
 30
0.0
 11
162.654
 21
103.1539999999999
 31
0.0
  0
LINE
  5
1FA
  8
0
 62
     7
 10
162.654
 20
103.1539999999999
 30
0.0
 11
162.76099999999991
 21
103.133
 31
0.0
  0
LINE
  5
1FB
  8
0
 62
     7
 10
162.76099999999991
 20
103.133
 30
0.0
 11
162.88900000000001
 21
103.133
 31
0.0
  0
LINE
  5
1FC
  8
0
 62
     7
 10
163.166
 20
103.261
 30
0.0
 11
162.88900000000001
 21
103.261
 31
0.0
  0
LINE
  5
1FD
  8
0
 62
     7
 10
162.88900000000001
 20
106.41799999999991
 30
0.0
 11
162.76099999999991
 21
106.41799999999991
 31
0.0
  0
LINE
  5
1FE
  8
0
 62
     7
 10
163.166
 20
106.291
 30
0.0
 11
162.88900000000001
 21
106.291
 31
0.0
  0
LINE
  5
1FF
  8
0
 62
     7
 10
162.76099999999991
 20
106.41799999999991
 30
0.0
 11
162.654
 21
106.39700000000001
 31
0.0
  0
LINE
  5
200
  8
0
 62
     7
 10
162.654
 20
106.39700000000001
 30
0.0
 11
162.59
 21
106.3339999999999
 31
0.0
  0
LINE
  5
201
  8
0
 62
     7
 10
162.59
 20
106.3339999999999
 30
0.0
 11
162.54699999999991
 21
106.227
 31
0.0
  0
LINE
  5
202
  8
0
 62
     7
 10
162.12100000000001
 20
105.13799999999991
 30
0.0
 11
162.035
 21
105.13799999999991
 31
0.0
  0
LINE
  5
203
  8
0
 62
     7
 10
162.12100000000001
 20
104.413
 30
0.0
 11
162.035
 21
104.413
 31
0.0
  0
LINE
  5
204
  8
0
 62
     7
 10
162.035
 20
104.371
 30
0.0
 11
160.11699999999999
 21
104.371
 31
0.0
  0
LINE
  5
205
  8
0
 62
     7
 10
162.035
 20
105.1809999999999
 30
0.0
 11
160.11699999999999
 21
105.1809999999999
 31
0.0
  0
LINE
  5
206
  8
0
 62
     7
 10
162.035
 20
105.117
 30
0.0
 11
160.11699999999999
 21
105.117
 31
0.0
  0
LINE
  5
207
  8
0
 62
     7
 10
162.035
 20
104.435
 30
0.0
 11
160.11699999999999
 21
104.435
 31
0.0
  0
LINE
  5
208
  8
0
 62
     7
 10
162.035
 20
105.1809999999999
 30
0.0
 11
162.035
 21
104.371
 31
0.0
  0
LINE
  5
209
  8
0
 62
     7
 10
162.46199999999999
 20
105.0529999999999
 30
0.0
 11
162.185
 21
105.0529999999999
 31
0.0
  0
LINE
  5
20A
  8
0
 62
     7
 10
162.46199999999999
 20
104.4989999999999
 30
0.0
 11
162.185
 21
104.4989999999999
 31
0.0
  0
LINE
  5
20B
  8
0
 62
     7
 10
162.46199999999999
 20
105.309
 30
0.0
 11
162.185
 21
105.309
 31
0.0
  0
LINE
  5
20C
  8
0
 62
     7
 10
162.46199999999999
 20
104.242
 30
0.0
 11
162.185
 21
104.242
 31
0.0
  0
LINE
  5
20D
  8
0
 62
     7
 10
162.12100000000001
 20
105.1809999999999
 30
0.0
 11
162.12100000000001
 21
104.371
 31
0.0
  0
LINE
  5
20E
  8
0
 62
     7
 10
162.185
 20
105.0529999999999
 30
0.0
 11
162.12100000000001
 21
104.776
 31
0.0
  0
LINE
  5
20F
  8
0
 62
     7
 10
162.12100000000001
 20
104.776
 30
0.0
 11
162.185
 21
104.4989999999999
 31
0.0
  0
LINE
  5
210
  8
0
 62
     7
 10
162.12100000000001
 20
104.456
 30
0.0
 11
162.12100000000001
 21
104.371
 31
0.0
  0
LINE
  5
211
  8
0
 62
     7
 10
162.12100000000001
 20
104.371
 30
0.0
 11
162.185
 21
104.4989999999999
 31
0.0
  0
LINE
  5
212
  8
0
 62
     7
 10
162.12100000000001
 20
104.371
 30
0.0
 11
162.185
 21
104.242
 31
0.0
  0
LINE
  5
213
  8
0
 62
     7
 10
162.185
 20
105.309
 30
0.0
 11
162.12100000000001
 21
105.1809999999999
 31
0.0
  0
LINE
  5
214
  8
0
 62
     7
 10
162.12100000000001
 20
105.1809999999999
 30
0.0
 11
162.185
 21
105.0529999999999
 31
0.0
  0
LINE
  5
215
  8
0
 62
     7
 10
163.166
 20
106.291
 30
0.0
 11
163.166
 21
103.261
 31
0.0
  0
LINE
  5
216
  8
0
 62
     7
 10
162.54699999999991
 20
103.325
 30
0.0
 11
162.54699999999991
 21
106.227
 31
0.0
  0
LINE
  5
217
  8
0
 62
     7
 10
162.88900000000001
 20
104.776
 30
0.0
 11
162.88900000000001
 21
106.41799999999991
 31
0.0
  0
LINE
  5
218
  8
0
 62
     7
 10
162.88900000000001
 20
106.291
 30
0.0
 11
162.88900000000001
 21
103.133
 31
0.0
  0
LINE
  5
219
  8
0
 62
     7
 10
162.54699999999991
 20
105.6079999999999
 30
0.0
 11
162.46199999999999
 21
105.6079999999999
 31
0.0
  0
LINE
  5
21A
  8
0
 62
     7
 10
162.54699999999991
 20
103.943
 30
0.0
 11
162.46199999999999
 21
103.943
 31
0.0
  0
LINE
  5
21B
  8
0
 62
     7
 10
162.46199999999999
 20
103.943
 30
0.0
 11
162.46199999999999
 21
105.6079999999999
 31
0.0
  0
LINE
  5
21C
  8
0
 62
     7
 10
156.577
 20
108.01899999999991
 30
0.0
 11
156.55499999999989
 21
108.06100000000001
 31
0.0
  0
LINE
  5
21D
  8
0
 62
     7
 10
156.577
 20
101.4259999999999
 30
0.0
 11
156.577
 21
108.01899999999991
 31
0.0
  0
LINE
  5
21E
  8
0
 62
     7
 10
156.577
 20
101.4259999999999
 30
0.0
 11
156.55499999999989
 21
101.384
 31
0.0
  0
LINE
  5
21F
  8
0
 62
     7
 10
156.55499999999989
 20
108.06100000000001
 30
0.0
 11
156.001
 21
108.06100000000001
 31
0.0
  0
LINE
  5
220
  8
0
 62
     7
 10
156.55499999999989
 20
101.384
 30
0.0
 11
155.72399999999999
 21
101.384
 31
0.0
  0
LINE
  5
221
  8
0
 62
     7
 10
156.78999999999991
 20
105.5229999999999
 30
0.0
 11
156.81200000000001
 21
105.458
 31
0.0
  0
LINE
  5
222
  8
0
 62
     7
 10
156.81200000000001
 20
105.458
 30
0.0
 11
156.8539999999999
 21
105.437
 31
0.0
  0
LINE
  5
223
  8
0
 62
     7
 10
156.78999999999991
 20
105.352
 30
0.0
 11
156.83199999999991
 21
105.437
 31
0.0
  0
LINE
  5
224
  8
0
 62
     7
 10
156.78999999999991
 20
105.288
 30
0.0
 11
156.83199999999991
 21
105.202
 31
0.0
  0
LINE
  5
225
  8
0
 62
     7
 10
156.83199999999991
 20
105.202
 30
0.0
 11
156.93899999999999
 21
105.1809999999999
 31
0.0
  0
LINE
  5
226
  8
0
 62
     7
 10
156.78999999999991
 20
105.352
 30
0.0
 11
156.78999999999991
 21
104.776
 31
0.0
  0
LINE
  5
227
  8
0
 62
     7
 10
156.93899999999999
 20
105.1809999999999
 30
0.0
 11
156.83199999999991
 21
104.9889999999999
 31
0.0
  0
LINE
  5
228
  8
0
 62
     7
 10
156.83199999999991
 20
104.9889999999999
 30
0.0
 11
156.78999999999991
 21
104.776
 31
0.0
  0
LINE
  5
229
  8
0
 62
     7
 10
156.78999999999991
 20
104.776
 30
0.0
 11
156.83199999999991
 21
104.562
 31
0.0
  0
LINE
  5
22A
  8
0
 62
     7
 10
156.83199999999991
 20
104.562
 30
0.0
 11
156.93899999999999
 21
104.371
 31
0.0
  0
LINE
  5
22B
  8
0
 62
     7
 10
156.78999999999991
 20
104.2
 30
0.0
 11
156.78999999999991
 21
104.776
 31
0.0
  0
LINE
  5
22C
  8
0
 62
     7
 10
156.93899999999999
 20
104.371
 30
0.0
 11
156.83199999999991
 21
104.3489999999999
 31
0.0
  0
LINE
  5
22D
  8
0
 62
     7
 10
156.83199999999991
 20
104.3489999999999
 30
0.0
 11
156.78999999999991
 21
104.264
 31
0.0
  0
LINE
  5
22E
  8
0
 62
     7
 10
156.8539999999999
 20
104.1139999999999
 30
0.0
 11
160.053
 21
104.1139999999999
 31
0.0
  0
LINE
  5
22F
  8
0
 62
     7
 10
156.78999999999991
 20
104.2
 30
0.0
 11
156.83199999999991
 21
104.1139999999999
 31
0.0
  0
LINE
  5
230
  8
0
 62
     7
 10
156.8539999999999
 20
104.1139999999999
 30
0.0
 11
156.81200000000001
 21
104.09399999999989
 31
0.0
  0
LINE
  5
231
  8
0
 62
     7
 10
156.81200000000001
 20
104.09399999999989
 30
0.0
 11
156.78999999999991
 21
104.0289999999999
 31
0.0
  0
LINE
  5
232
  8
0
 62
     7
 10
156.8539999999999
 20
105.437
 30
0.0
 11
160.053
 21
105.437
 31
0.0
  0
LINE
  5
233
  8
0
 62
     7
 10
160.11699999999999
 20
104.2
 30
0.0
 11
160.053
 21
104.1139999999999
 31
0.0
  0
LINE
  5
234
  8
0
 62
     7
 10
160.11699999999999
 20
104.264
 30
0.0
 11
160.053
 21
104.3489999999999
 31
0.0
  0
LINE
  5
235
  8
0
 62
     7
 10
160.053
 20
104.3489999999999
 30
0.0
 11
159.946
 21
104.371
 31
0.0
  0
LINE
  5
236
  8
0
 62
     7
 10
159.946
 20
104.371
 30
0.0
 11
160.0739999999999
 21
104.562
 31
0.0
  0
LINE
  5
237
  8
0
 62
     7
 10
160.0739999999999
 20
104.562
 30
0.0
 11
160.11699999999999
 21
104.776
 31
0.0
  0
LINE
  5
238
  8
0
 62
     7
 10
160.11699999999999
 20
104.776
 30
0.0
 11
160.11699999999999
 21
104.2
 31
0.0
  0
LINE
  5
239
  8
0
 62
     7
 10
160.11699999999999
 20
105.352
 30
0.0
 11
160.11699999999999
 21
104.776
 31
0.0
  0
LINE
  5
23A
  8
0
 62
     7
 10
160.11699999999999
 20
104.776
 30
0.0
 11
160.0739999999999
 21
104.9889999999999
 31
0.0
  0
LINE
  5
23B
  8
0
 62
     7
 10
160.0739999999999
 20
104.9889999999999
 30
0.0
 11
159.946
 21
105.1809999999999
 31
0.0
  0
LINE
  5
23C
  8
0
 62
     7
 10
159.946
 20
105.1809999999999
 30
0.0
 11
160.053
 21
105.202
 31
0.0
  0
LINE
  5
23D
  8
0
 62
     7
 10
160.053
 20
105.202
 30
0.0
 11
160.11699999999999
 21
105.288
 31
0.0
  0
LINE
  5
23E
  8
0
 62
     7
 10
160.11699999999999
 20
105.352
 30
0.0
 11
160.053
 21
105.437
 31
0.0
  0
LINE
  5
23F
  8
0
 62
     7
 10
156.74700000000001
 20
104.776
 30
0.0
 11
156.74700000000001
 21
106.78100000000001
 31
0.0
  0
LINE
  5
240
  8
0
 62
     7
 10
156.74700000000001
 20
106.78100000000001
 30
0.0
 11
156.62
 21
106.78100000000001
 31
0.0
  0
LINE
  5
241
  8
0
 62
     7
 10
156.78999999999991
 20
106.7389999999999
 30
0.0
 11
156.74700000000001
 21
106.78100000000001
 31
0.0
  0
LINE
  5
242
  8
0
 62
     7
 10
156.577
 20
106.7389999999999
 30
0.0
 11
156.62
 21
106.78100000000001
 31
0.0
  0
LINE
  5
243
  8
0
 62
     7
 10
156.62
 20
106.78100000000001
 30
0.0
 11
156.62
 21
104.776
 31
0.0
  0
LINE
  5
244
  8
0
 62
     7
 10
156.78999999999991
 20
106.7389999999999
 30
0.0
 11
156.78999999999991
 21
102.8129999999999
 31
0.0
  0
LINE
  5
245
  8
0
 62
     7
 10
156.62
 20
104.776
 30
0.0
 11
156.62
 21
102.771
 31
0.0
  0
LINE
  5
246
  8
0
 62
     7
 10
156.62
 20
102.771
 30
0.0
 11
156.577
 21
102.8129999999999
 31
0.0
  0
LINE
  5
247
  8
0
 62
     7
 10
156.78999999999991
 20
102.8129999999999
 30
0.0
 11
156.74700000000001
 21
102.771
 31
0.0
  0
LINE
  5
248
  8
0
 62
     7
 10
156.74700000000001
 20
102.771
 30
0.0
 11
156.62
 21
102.771
 31
0.0
  0
LINE
  5
249
  8
0
 62
     7
 10
156.74700000000001
 20
102.771
 30
0.0
 11
156.74700000000001
 21
104.776
 31
0.0
  0
LINE
  5
24A
  8
0
 62
     7
 10
156.93899999999999
 20
105.1809999999999
 30
0.0
 11
159.946
 21
105.1809999999999
 31
0.0
  0
LINE
  5
24B
  8
0
 62
     7
 10
156.93899999999999
 20
104.371
 30
0.0
 11
159.946
 21
104.371
 31
0.0
  0
LINE
  5
24C
  8
0
 62
     7
 10
156.577
 20
102.8129999999999
 30
0.0
 11
156.577
 21
106.7389999999999
 31
0.0
  0
ARC
  5
24D
  8
0
 62
     7
 10
78.870373999999998
 20
133.17993200000001
 30
0.0
 40
1.2691639999999991
 50
94.597470000000001
 51
119.6565539999999
  0
ARC
  5
24E
  8
0
 62
     7
 10
78.888992000000002
 20
133.46343499999989
 30
0.0
 40
1.0438019999999999
 50
128.277118
 51
253.3426959999999
  0
ARC
  5
24F
  8
0
 62
     7
 10
78.855897999999996
 20
133.79750100000001
 30
0.0
 40
1.360349
 50
258.71917200000001
 51
266.32250199999999
  0
ARC
  5
250
  8
0
 62
     7
 10
78.685628000000008
 20
133.70113699999999
 30
0.0
 40
1.2639119999999999
 50
273.76604199999991
 51
298.88710400000002
  0
ARC
  5
251
  8
0
 62
     7
 10
78.680482999999995
 20
133.429419
 30
0.0
 40
1.0374110000000001
 50
306.407059
 51
64.150431000000012
  0
ARC
  5
252
  8
0
 62
     7
 10
78.683156000000011
 20
133.2155129999999
 30
0.0
 40
1.2324679999999999
 50
68.602541999999985
 51
86.022567000000009
  0
ARC
  5
253
  8
0
 62
     7
 10
75.527118999999999
 20
133.199748
 30
0.0
 40
1.2482619999999991
 50
93.971627999999995
 51
119.5409499999999
  0
ARC
  5
254
  8
0
 62
     7
 10
75.560911000000004
 20
133.46411099999989
 30
0.0
 40
1.0471820000000001
 50
128.315394
 51
253.510188
  0
ARC
  5
255
  8
0
 62
     7
 10
75.498138999999995
 20
133.73875699999991
 30
0.0
 40
1.3000739999999991
 50
259.60997900000001
 51
267.466047
  0
ARC
  5
256
  8
0
 62
     7
 10
75.360926000000006
 20
133.67501699999991
 30
0.0
 40
1.2376339999999999
 50
273.69386700000001
 51
299.02712400000001
  0
ARC
  5
257
  8
0
 62
     7
 10
75.332255000000004
 20
133.422608
 30
0.0
 40
1.041347
 50
307.17254600000001
 51
69.185826000000006
  0
ARC
  5
258
  8
0
 62
     7
 10
75.330212000000003
 20
133.13280399999999
 30
0.0
 40
1.316848999999999
 50
73.587620000000001
 51
85.188710999999998
  0
ARC
  5
259
  8
0
 62
     7
 10
72.187337999999997
 20
133.19554099999991
 30
0.0
 40
1.2517
 50
93.419546999999994
 51
119.1002179999999
  0
ARC
  5
25A
  8
0
 62
     7
 10
72.234374000000003
 20
133.47219699999991
 30
0.0
 40
1.0476700000000001
 50
128.75174599999991
 51
258.24771900000002
  0
ARC
  5
25B
  8
0
 62
     7
 10
72.165325999999993
 20
133.82523599999999
 30
0.0
 40
1.386282
 50
264.02344199999999
 51
267.82351199999999
  0
ARC
  5
25C
  8
0
 62
     7
 10
72.046334000000002
 20
133.64095
 30
0.0
 40
1.2028270000000001
 50
273.16183299999989
 51
299.04228499999988
  0
ARC
  5
25D
  8
0
 62
     7
 10
72.105268999999993
 20
133.43509900000001
 30
0.0
 40
0.9954270000000001
 50
301.82966699999992
 51
11.374962999999999
  0
ARC
  5
25E
  8
0
 62
     7
 10
72.086068000000012
 20
133.4238169999999
 30
0.0
 40
1.016502
 50
11.784945
 51
80.036258000000004
  0
ARC
  5
25F
  8
0
 62
     7
 10
72.006771000000001
 20
133.08918700000001
 30
0.0
 40
1.359955
 50
79.185116000000008
 51
85.533557999999999
  0
ARC
  5
260
  8
0
 62
     7
 10
68.876675000000006
 20
133.16715199999999
 30
0.0
 40
1.282877
 50
95.068607999999998
 51
119.945644
  0
ARC
  5
261
  8
0
 62
     7
 10
68.890080000000012
 20
133.4648489999999
 30
0.0
 40
1.0439819999999991
 50
128.77363500000001
 51
254.73807799999989
  0
ARC
  5
262
  8
0
 62
     7
 10
68.850329999999985
 20
133.793453
 30
0.0
 40
1.3562920000000001
 50
260.01964900000002
 51
266.32242500000001
  0
ARC
  5
263
  8
0
 62
     7
 10
68.684069999999991
 20
133.713268
 30
0.0
 40
1.2757789999999991
 50
273.56213700000001
 51
298.59983099999988
  0
ARC
  5
264
  8
0
 62
     7
 10
68.673537999999994
 20
133.42461499999999
 30
0.0
 40
1.037911
 50
306.76555999999999
 51
68.489304000000004
  0
ARC
  5
265
  8
0
 62
     7
 10
68.668386999999996
 20
133.14182700000001
 30
0.0
 40
1.30664
 50
72.830185999999998
 51
85.832902999999988
  0
ARC
  5
266
  8
0
 62
     7
 10
65.536732000000001
 20
133.1804919999999
 30
0.0
 40
1.268605999999999
 50
94.599250999999995
 51
119.6633519999999
  0
ARC
  5
267
  8
0
 62
     7
 10
65.555541000000005
 20
133.46342899999991
 30
0.0
 40
1.0438359999999991
 50
128.278941
 51
253.33531199999999
  0
ARC
  5
268
  8
0
 62
     7
 10
65.522233
 20
133.7967449999999
 30
0.0
 40
1.359591999999999
 50
258.71606299999991
 51
266.32160399999998
  0
ARC
  5
269
  8
0
 62
     7
 10
65.351990000000001
 20
133.70113699999999
 30
0.0
 40
1.2639119999999999
 50
273.76604199999991
 51
298.88710400000002
  0
ARC
  5
26A
  8
0
 62
     7
 10
65.346845000000002
 20
133.429419
 30
0.0
 40
1.0374110000000001
 50
306.407059
 51
64.150431000000012
  0
ARC
  5
26B
  8
0
 62
     7
 10
65.349519000000001
 20
133.2155129999999
 30
0.0
 40
1.2324679999999999
 50
68.602541999999985
 51
86.022567000000009
  0
ARC
  5
26C
  8
0
 62
     7
 10
62.209203000000002
 20
133.15611000000001
 30
0.0
 40
1.2929189999999999
 50
94.517486000000005
 51
119.372557
  0
ARC
  5
26D
  8
0
 62
     7
 10
62.218541000000002
 20
133.46332100000001
 30
0.0
 40
1.0419549999999991
 50
128.14005499999999
 51
253.76676099999989
  0
ARC
  5
26E
  8
0
 62
     7
 10
62.19130899999999
 20
133.81668400000001
 30
0.0
 40
1.379286
 50
258.96343100000001
 51
266.51096000000001
  0
ARC
  5
26F
  8
0
 62
     7
 10
62.027653000000001
 20
133.67450700000001
 30
0.0
 40
1.237123999999999
 50
273.69449500000002
 51
299.03321899999992
  0
ARC
  5
270
  8
0
 62
     7
 10
61.998743999999988
 20
133.42261499999989
 30
0.0
 40
1.041415999999999
 50
307.17690299999998
 51
69.174765000000008
  0
ARC
  5
271
  8
0
 62
     7
 10
61.996906000000003
 20
133.132777
 30
0.0
 40
1.3168770000000001
 50
73.587645999999992
 51
85.188259000000016
  0
LINE
  5
272
  8
0
 62
     7
 10
49.840299999999999
 20
117.72
 30
0.0
 11
49.6267
 21
118.33799999999989
 31
0.0
  0
LINE
  5
273
  8
0
 62
     7
 10
49.413800000000002
 20
118.8929999999999
 30
0.0
 11
49.200600000000001
 21
119.5119999999999
 31
0.0
  0
LINE
  5
274
  8
0
 62
     7
 10
49.200600000000001
 20
134.03999999999999
 30
0.0
 11
49.413800000000002
 21
134.65899999999991
 31
0.0
  0
LINE
  5
275
  8
0
 62
     7
 10
49.6267
 20
135.23500000000001
 30
0.0
 11
49.840299999999999
 21
135.85299999999989
 31
0.0
  0
LINE
  5
276
  8
0
 62
     7
 10
91.035300000000007
 20
117.72
 30
0.0
 11
91.248900000000006
 21
118.33799999999989
 31
0.0
  0
LINE
  5
277
  8
0
 62
     7
 10
91.461799999999997
 20
118.8929999999999
 30
0.0
 11
91.675399999999996
 21
119.5119999999999
 31
0.0
  0
LINE
  5
278
  8
0
 62
     7
 10
91.675399999999996
 20
134.03999999999999
 30
0.0
 11
91.461799999999997
 21
134.65899999999991
 31
0.0
  0
LINE
  5
279
  8
0
 62
     7
 10
91.248900000000006
 20
135.23500000000001
 30
0.0
 11
91.035300000000007
 21
135.85299999999989
 31
0.0
  0
LINE
  5
27A
  8
0
 62
     7
 10
73.584400000000002
 20
171.011
 30
0.0
 11
72.005899999999997
 21
171.0749999999999
 31
0.0
  0
LINE
  5
27B
  8
0
 62
     7
 10
72.005899999999997
 20
171.0749999999999
 30
0.0
 11
70.426999999999992
 21
171.11699999999999
 31
0.0
  0
LINE
  5
27C
  8
0
 62
     7
 10
70.426999999999992
 20
171.11699999999999
 30
0.0
 11
68.869799999999998
 21
171.0749999999999
 31
0.0
  0
LINE
  5
27D
  8
0
 62
     7
 10
68.869799999999998
 20
171.0749999999999
 30
0.0
 11
67.291200000000003
 21
171.011
 31
0.0
  0
LINE
  5
27E
  8
0
 62
     7
 10
73.840699999999998
 20
176.28
 30
0.0
 11
72.134
 21
176.387
 31
0.0
  0
LINE
  5
27F
  8
0
 62
     7
 10
72.134
 20
176.387
 30
0.0
 11
70.426999999999992
 21
176.4079999999999
 31
0.0
  0
LINE
  5
280
  8
0
 62
     7
 10
70.426999999999992
 20
176.4079999999999
 30
0.0
 11
68.742000000000004
 21
176.387
 31
0.0
  0
LINE
  5
281
  8
0
 62
     7
 10
68.742000000000004
 20
176.387
 30
0.0
 11
67.034899999999993
 21
176.28
 31
0.0
  0
LINE
  5
282
  8
0
 62
     7
 10
73.520399999999995
 20
178.68999999999991
 30
0.0
 11
71.984499999999997
 21
178.75499999999991
 31
0.0
  0
LINE
  5
283
  8
0
 62
     7
 10
71.984499999999997
 20
178.75499999999991
 30
0.0
 11
70.426999999999992
 21
178.7759999999999
 31
0.0
  0
LINE
  5
284
  8
0
 62
     7
 10
70.426999999999992
 20
178.7759999999999
 30
0.0
 11
68.891099999999994
 21
178.75499999999991
 31
0.0
  0
LINE
  5
285
  8
0
 62
     7
 10
68.891099999999994
 20
178.75499999999991
 30
0.0
 11
67.355000000000004
 21
178.68999999999991
 31
0.0
  0
ARC
  5
286
  8
0
 62
     7
 10
-35.992263999999999
 20
237.59423499999991
 30
0.0
 40
193.09917300000001
 50
356.59280999999987
 51
3.4071899999999991
  0
ARC
  5
287
  8
0
 62
     7
 10
-53.512788
 20
237.59440699999999
 30
0.0
 40
210.27091499999989
 50
356.87712900000002
 51
3.1228709999999991
  0
LINE
  5
288
  8
0
 62
     7
 10
129.83799999999991
 20
212.59399999999999
 30
0.0
 11
129.83799999999991
 21
262.59500000000003
 31
0.0
  0
LINE
  5
289
  8
0
 62
     7
 10
127.8329999999999
 20
213.81
 30
0.0
 11
127.8329999999999
 21
261.35700000000003
 31
0.0
  0
ARC
  5
28A
  8
0
 62
     7
 10
247.969593
 20
237.58372700000001
 30
0.0
 40
123.7941329999999
 50
169.6916159999999
 51
190.30838399999999
  0
ARC
  5
28B
  8
0
 62
     7
 10
150.61628699999989
 20
226.767267
 30
0.0
 40
6.0073270000000001
 50
282.98242499999992
 51
312.85988300000002
  0
ARC
  5
28C
  8
0
 62
     7
 10
150.74934500000001
 20
226.479423
 30
0.0
 40
5.706669999999999
 50
313.84647799999999
 51
356.58401900000001
  0
LINE
  5
28D
  8
0
 62
     7
 10
151.96600000000001
 20
220.91300000000001
 30
0.0
 11
129.90199999999999
 21
216.17799999999991
 31
0.0
  0
LINE
  5
28E
  8
0
 62
     7
 10
137.4739999999999
 20
217.79900000000001
 30
0.0
 11
140.39799999999991
 21
218.24700000000001
 31
0.0
  0
LINE
  5
28F
  8
0
 62
     7
 10
140.39799999999991
 20
218.24700000000001
 30
0.0
 11
140.5679999999999
 21
218.31099999999989
 31
0.0
  0
LINE
  5
290
  8
0
 62
     7
 10
140.5679999999999
 20
218.31099999999989
 30
0.0
 11
140.7179999999999
 21
218.3959999999999
 31
0.0
  0
LINE
  5
291
  8
0
 62
     7
 10
140.7179999999999
 20
218.3959999999999
 30
0.0
 11
140.846
 21
218.52399999999989
 31
0.0
  0
LINE
  5
292
  8
0
 62
     7
 10
129.83799999999991
 20
215.4309999999999
 30
0.0
 11
130.90399999999991
 21
215.75099999999989
 31
0.0
  0
LINE
  5
293
  8
0
 62
     7
 10
126.40899999999991
 20
215.98599999999999
 30
0.0
 11
126.259
 21
215.83600000000001
 31
0.0
  0
LINE
  5
294
  8
0
 62
     7
 10
126.259
 20
215.83600000000001
 30
0.0
 11
126.19499999999989
 21
215.6449999999999
 31
0.0
  0
LINE
  5
295
  8
0
 62
     7
 10
126.19499999999989
 20
215.6449999999999
 30
0.0
 11
126.17399999999989
 21
215.4309999999999
 31
0.0
  0
ARC
  5
296
  8
0
 62
     7
 10
126.61936
 20
213.37055099999989
 30
0.0
 40
1.299882999999999
 50
357.74574199999989
 51
20.750906000000001
  0
ARC
  5
297
  8
0
 62
     7
 10
126.215926
 20
213.224581
 30
0.0
 40
1.7288769999999991
 50
20.537561
 51
74.165607999999992
  0
ARC
  5
298
  8
0
 62
     7
 10
126.387006
 20
213.64974799999999
 30
0.0
 40
1.274089
 50
76.350689000000003
 51
85.181607000000014
  0
LINE
  5
299
  8
0
 62
     7
 10
126.17399999999989
 20
215.4309999999999
 30
0.0
 11
126.21599999999999
 21
215.239
 31
0.0
  0
LINE
  5
29A
  8
0
 62
     7
 10
126.21599999999999
 20
215.239
 30
0.0
 11
126.32299999999989
 21
215.04699999999991
 31
0.0
  0
LINE
  5
29B
  8
0
 62
     7
 10
126.32299999999989
 20
215.04699999999991
 30
0.0
 11
126.4939999999999
 21
214.91900000000001
 31
0.0
  0
LINE
  5
29C
  8
0
 62
     7
 10
129.83799999999991
 20
212.59399999999999
 30
0.0
 11
128.55799999999991
 21
212.679
 31
0.0
  0
ARC
  5
29D
  8
0
 62
     7
 10
128.84178600000001
 20
213.431014
 30
0.0
 40
0.9302659999999999
 50
186.88966799999989
 51
205.30455900000001
  0
ARC
  5
29E
  8
0
 62
     7
 10
128.56637599999999
 20
213.32477899999989
 30
0.0
 40
0.636243
 50
207.25703999999999
 51
257.15087599999993
  0
ARC
  5
29F
  8
0
 62
     7
 10
128.67456899999991
 20
213.66275400000001
 30
0.0
 40
0.9902799999999999
 50
255.39612399999999
 51
263.25967500000002
  0
LINE
  5
2A0
  8
0
 62
     7
 10
130.90399999999991
 20
215.75099999999989
 30
0.0
 11
131.80000000000001
 21
216.07099999999991
 31
0.0
  0
LINE
  5
2A1
  8
0
 62
     7
 10
131.80000000000001
 20
216.07099999999991
 30
0.0
 11
132.65299999999991
 21
216.477
 31
0.0
  0
LINE
  5
2A2
  8
0
 62
     7
 10
132.65299999999991
 20
216.477
 30
0.0
 11
133.465
 21
216.94599999999991
 31
0.0
  0
LINE
  5
2A3
  8
0
 62
     7
 10
126.40899999999991
 20
215.98599999999999
 30
0.0
 11
127.8329999999999
 21
217.35099999999991
 31
0.0
  0
LINE
  5
2A4
  8
0
 62
     7
 10
156.76599999999999
 20
226.11799999999991
 30
0.0
 11
156.44599999999991
 21
226.13900000000001
 31
0.0
  0
LINE
  5
2A5
  8
0
 62
     7
 10
157.68299999999991
 20
235.7169999999999
 30
0.0
 11
157.68299999999991
 21
239.4499999999999
 31
0.0
  0
LINE
  5
2A6
  8
0
 62
     7
 10
157.34200000000001
 20
234.97099999999989
 30
0.0
 11
157.53399999999991
 21
235.184
 31
0.0
  0
LINE
  5
2A7
  8
0
 62
     7
 10
157.53399999999991
 20
235.184
 30
0.0
 11
157.64099999999991
 21
235.44
 31
0.0
  0
LINE
  5
2A8
  8
0
 62
     7
 10
157.64099999999991
 20
235.44
 30
0.0
 11
157.68299999999991
 21
235.7169999999999
 31
0.0
  0
LINE
  5
2A9
  8
0
 62
     7
 10
157.08600000000001
 20
234.73599999999999
 30
0.0
 11
157.34200000000001
 21
234.97099999999989
 31
0.0
  0
LINE
  5
2AA
  8
0
 62
     7
 10
157.08600000000001
 20
240.453
 30
0.0
 11
157.34200000000001
 21
240.19699999999989
 31
0.0
  0
LINE
  5
2AB
  8
0
 62
     7
 10
157.68299999999991
 20
239.4499999999999
 30
0.0
 11
157.64099999999991
 21
239.72799999999989
 31
0.0
  0
LINE
  5
2AC
  8
0
 62
     7
 10
157.64099999999991
 20
239.72799999999989
 30
0.0
 11
157.53399999999991
 21
239.98400000000001
 31
0.0
  0
LINE
  5
2AD
  8
0
 62
     7
 10
157.53399999999991
 20
239.98400000000001
 30
0.0
 11
157.34200000000001
 21
240.19699999999989
 31
0.0
  0
LINE
  5
2AE
  8
0
 62
     7
 10
151.96600000000001
 20
254.25399999999999
 30
0.0
 11
129.90199999999999
 21
258.99000000000001
 31
0.0
  0
ARC
  5
2AF
  8
0
 62
     7
 10
150.648786
 20
248.589787
 30
0.0
 40
5.815281999999999
 50
4.5333389999999989
 51
76.909931
  0
LINE
  5
2B0
  8
0
 62
     7
 10
156.44599999999991
 20
249.04900000000001
 30
0.0
 11
156.76599999999999
 21
249.06999999999991
 31
0.0
  0
LINE
  5
2B1
  8
0
 62
     7
 10
140.846
 20
256.64299999999992
 30
0.0
 11
140.7179999999999
 21
256.7709999999999
 31
0.0
  0
LINE
  5
2B2
  8
0
 62
     7
 10
140.7179999999999
 20
256.7709999999999
 30
0.0
 11
140.5679999999999
 21
256.87799999999987
 31
0.0
  0
LINE
  5
2B3
  8
0
 62
     7
 10
140.5679999999999
 20
256.87799999999987
 30
0.0
 11
140.39799999999991
 21
256.92000000000002
 31
0.0
  0
LINE
  5
2B4
  8
0
 62
     7
 10
140.39799999999991
 20
256.92000000000002
 30
0.0
 11
137.4739999999999
 21
257.36900000000003
 31
0.0
  0
ARC
  5
2B5
  8
0
 62
     7
 10
126.21673199999999
 20
261.94986199999988
 30
0.0
 40
1.7241859999999991
 50
279.25484799999992
 51
345.56509499999999
  0
ARC
  5
2B6
  8
0
 62
     7
 10
126.52624399999991
 20
261.81725699999998
 30
0.0
 40
1.392333
 50
347.67513500000001
 51
1.2665399999999991
  0
LINE
  5
2B7
  8
0
 62
     7
 10
126.4939999999999
 20
260.24799999999988
 30
0.0
 11
126.32299999999989
 21
260.11999999999989
 31
0.0
  0
LINE
  5
2B8
  8
0
 62
     7
 10
126.32299999999989
 20
260.11999999999989
 30
0.0
 11
126.21599999999999
 21
259.94999999999987
 31
0.0
  0
LINE
  5
2B9
  8
0
 62
     7
 10
126.21599999999999
 20
259.94999999999987
 30
0.0
 11
126.17399999999989
 21
259.73599999999999
 31
0.0
  0
LINE
  5
2BA
  8
0
 62
     7
 10
126.4939999999999
 20
260.24799999999988
 30
0.0
 11
126.30200000000001
 21
260.09899999999988
 31
0.0
  0
LINE
  5
2BB
  8
0
 62
     7
 10
126.30200000000001
 20
260.09899999999988
 30
0.0
 11
126.19499999999989
 21
259.86399999999998
 31
0.0
  0
LINE
  5
2BC
  8
0
 62
     7
 10
129.83799999999991
 20
259.75799999999992
 30
0.0
 11
130.90399999999991
 21
259.43700000000001
 31
0.0
  0
LINE
  5
2BD
  8
0
 62
     7
 10
126.40899999999991
 20
259.18200000000002
 30
0.0
 11
127.8329999999999
 21
257.83799999999991
 31
0.0
  0
LINE
  5
2BE
  8
0
 62
     7
 10
126.17399999999989
 20
259.73599999999999
 30
0.0
 11
126.19499999999989
 21
259.54399999999998
 31
0.0
  0
LINE
  5
2BF
  8
0
 62
     7
 10
126.19499999999989
 20
259.54399999999998
 30
0.0
 11
126.259
 21
259.35199999999998
 31
0.0
  0
LINE
  5
2C0
  8
0
 62
     7
 10
126.259
 20
259.35199999999998
 30
0.0
 11
126.40899999999991
 21
259.18200000000002
 31
0.0
  0
LINE
  5
2C1
  8
0
 62
     7
 10
133.465
 20
258.24299999999999
 30
0.0
 11
132.65299999999991
 21
258.71199999999999
 31
0.0
  0
LINE
  5
2C2
  8
0
 62
     7
 10
132.65299999999991
 20
258.71199999999999
 30
0.0
 11
131.80000000000001
 21
259.11799999999999
 31
0.0
  0
LINE
  5
2C3
  8
0
 62
     7
 10
131.80000000000001
 20
259.11799999999999
 30
0.0
 11
130.90399999999991
 21
259.43700000000001
 31
0.0
  0
ARC
  5
2C4
  8
0
 62
     7
 10
129.5945989999999
 20
264.081885
 30
0.0
 40
1.507056999999999
 50
274.98549700000001
 51
279.28889399999991
  0
ARC
  5
2C5
  8
0
 62
     7
 10
129.463053
 20
265.54645299999987
 30
0.0
 40
2.977519
 50
271.65233599999999
 51
275.058089
  0
ARC
  5
2C6
  8
0
 62
     7
 10
131.237784
 20
182.65578500000001
 30
0.0
 40
79.932231000000002
 50
91.210673999999983
 51
91.721089999999975
  0
ARC
  5
2C7
  8
0
 62
     7
 10
129.00681399999999
 20
260.23296699999992
 30
0.0
 40
2.3251930000000001
 50
94.186374000000015
 51
101.807931
  0
ARC
  5
2C8
  8
0
 62
     7
 10
128.778188
 20
261.37692099999998
 30
0.0
 40
1.1587080000000001
 50
102.31731000000001
 51
114.6776629999999
  0
ARC
  5
2C9
  8
0
 62
     7
 10
128.57893899999991
 20
261.83801399999987
 30
0.0
 40
0.656637
 50
115.67777700000001
 51
172.381032
  0
ARC
  5
2CA
  8
0
 62
     7
 10
128.988235
 20
261.77602100000001
 30
0.0
 40
1.070562999999999
 50
171.99677199999991
 51
181.86213199999989
  0
ARC
  5
2CB
  8
0
 62
     7
 10
8.4185699999999972
 20
126.848894
 30
0.0
 40
43.429257
 50
4.0580559999999988
 51
8.6467159999999996
  0
ARC
  5
2CC
  8
0
 62
     7
 10
19.026325
 20
128.34041099999999
 30
0.0
 40
32.718052
 50
8.8572469999999992
 51
15.977703
  0
LINE
  5
2CD
  8
0
 62
     7
 10
90.075500000000005
 20
119.98099999999999
 30
0.0
 11
90.437899999999985
 21
118.57299999999989
 31
0.0
  0
LINE
  5
2CE
  8
0
 62
     7
 10
90.437899999999985
 20
118.57299999999989
 30
0.0
 11
90.885800000000003
 21
117.18600000000001
 31
0.0
  0
ARC
  5
2CF
  8
0
 62
     7
 10
62.180475999999999
 20
104.6332229999999
 30
0.0
 40
11.143041
 50
175.120091
 51
263.13490000000002
  0
ARC
  5
2D0
  8
0
 62
     7
 10
71.332370999999995
 20
102.66723499999991
 30
0.0
 40
23.578530999999991
 50
182.19891100000001
 51
267.79937699999999
  0
ARC
  5
2D1
  8
0
 62
     7
 10
69.541822999999994
 20
102.669567
 30
0.0
 40
23.580092999999991
 50
272.15130599999998
 51
357.79558300000002
  0
LINE
  5
2D2
  8
0
 62
     7
 10
77.126000000000005
 20
92.908600000000007
 30
0.0
 11
78.491299999999995
 21
93.164899999999989
 31
0.0
  0
LINE
  5
2D3
  8
0
 62
     7
 10
78.491299999999995
 20
93.164899999999989
 30
0.0
 11
79.8566
 21
93.506
 31
0.0
  0
LINE
  5
2D4
  8
0
 62
     7
 10
79.8566
 20
93.506
 30
0.0
 11
81.200900000000004
 21
93.954499999999996
 31
0.0
  0
LINE
  5
2D5
  8
0
 62
     7
 10
78.342100000000002
 20
99.223500000000016
 30
0.0
 11
79.749799999999993
 21
99.543899999999994
 31
0.0
  0
LINE
  5
2D6
  8
0
 62
     7
 10
79.749799999999993
 20
99.543899999999994
 30
0.0
 11
81.136499999999984
 21
99.991799999999998
 31
0.0
  0
ARC
  5
2D7
  8
0
 62
     7
 10
78.130628000000002
 20
101.942532
 30
0.0
 40
8.5577119999999987
 50
291.02482099999992
 51
337.05843299999992
  0
ARC
  5
2D8
  8
0
 62
     7
 10
78.584811999999985
 20
101.61134800000001
 30
0.0
 40
8.0113810000000001
 50
337.97355399999992
 51
346.14381299999991
  0
ARC
  5
2D9
  8
0
 62
     7
 10
78.734256999999999
 20
104.6014449999999
 30
0.0
 40
11.106877000000001
 50
276.68463999999989
 51
5.0603689999999997
  0
LINE
  5
2DA
  8
0
 62
     7
 10
86.363099999999989
 20
99.692700000000016
 30
0.0
 11
86.640699999999995
 21
100.866
 31
0.0
  0
LINE
  5
2DB
  8
0
 62
     7
 10
86.640699999999995
 20
100.866
 30
0.0
 11
86.832599999999999
 21
102.08199999999999
 31
0.0
  0
ARC
  5
2DC
  8
0
 62
     7
 10
79.378399000000002
 20
105.243583
 30
0.0
 40
5.5382610000000003
 50
288.50828000000001
 51
310.44365499999992
  0
ARC
  5
2DD
  8
0
 62
     7
 10
79.025740999999996
 20
105.7556169999999
 30
0.0
 40
6.1570410000000004
 50
309.85023100000001
 51
335.85015399999997
  0
ARC
  5
2DE
  8
0
 62
     7
 10
79.853627000000003
 20
105.3243129999999
 30
0.0
 40
5.2254440000000004
 50
336.45156099999991
 51
347.50906600000002
  0
ARC
  5
2DF
  8
0
 62
     7
 10
62.475045999999999
 20
101.74346799999999
 30
0.0
 40
8.2433029999999992
 50
194.40508500000001
 51
224.9698609999999
  0
ARC
  5
2E0
  8
0
 62
     7
 10
62.593056000000011
 20
101.78442
 30
0.0
 40
8.355912
 50
224.596644
 51
249.5612109999999
  0
ARC
  5
2E1
  8
0
 62
     7
 10
70.438006000000001
 20
140.58589599999991
 30
0.0
 40
48.144083999999999
 50
262.01485899999989
 51
277.98516100000001
  0
LINE
  5
2E2
  8
0
 62
     7
 10
59.6751
 20
93.954499999999996
 30
0.0
 11
61.019100000000002
 21
93.506
 31
0.0
  0
LINE
  5
2E3
  8
0
 62
     7
 10
61.019100000000002
 20
93.506
 30
0.0
 11
62.362999999999992
 21
93.164899999999989
 31
0.0
  0
LINE
  5
2E4
  8
0
 62
     7
 10
62.362999999999992
 20
93.164899999999989
 30
0.0
 11
63.75
 21
92.908600000000007
 31
0.0
  0
ARC
  5
2E5
  8
0
 62
     7
 10
70.427325999999994
 20
138.7059459999999
 30
0.0
 40
40.267938999999998
 50
258.66451000000001
 51
281.33550999999989
  0
LINE
  5
2E6
  8
0
 62
     7
 10
54.042999999999999
 20
102.08199999999999
 30
0.0
 11
54.23490000000001
 21
100.866
 31
0.0
  0
LINE
  5
2E7
  8
0
 62
     7
 10
54.23490000000001
 20
100.866
 30
0.0
 11
54.490900000000003
 21
99.692700000000016
 31
0.0
  0
ARC
  5
2E8
  8
0
 62
     7
 10
62.597648
 20
105.90706899999989
 30
0.0
 40
6.8935759999999986
 50
194.38782900000001
 51
206.20460399999999
  0
ARC
  5
2E9
  8
0
 62
     7
 10
61.41669799999999
 20
105.39036
 30
0.0
 40
5.6061319999999988
 50
206.79614299999989
 51
239.07163800000001
  0
ARC
  5
2EA
  8
0
 62
     7
 10
62.474702999999998
 20
107.00012700000001
 30
0.0
 40
7.5312130000000002
 50
238.461468
 51
248.00742099999999
  0
ARC
  5
2EB
  8
0
 62
     7
 10
63.668503999999999
 20
109.76831199999999
 30
0.0
 40
10.545260000000001
 50
247.62555099999989
 51
253.973376
  0
ARC
  5
2EC
  8
0
 62
     7
 10
65.167252000000005
 20
114.7385639999999
 30
0.0
 40
15.736264
 50
253.724737
 51
258.68333899999988
  0
ARC
  5
2ED
  8
0
 62
     7
 10
66.785984999999997
 20
122.2205519999999
 30
0.0
 40
23.390733999999991
 50
258.3917009999999
 51
259.47298499999988
  0
ARC
  5
2EE
  8
0
 62
     7
 10
62.173413000000011
 20
159.87851000000001
 30
0.0
 40
1.2350270000000001
 50
93.065418000000008
 51
118.844112
  0
ARC
  5
2EF
  8
0
 62
     7
 10
62.216031999999991
 20
160.13120000000001
 30
0.0
 40
1.0464340000000001
 50
127.5968529999999
 51
252.40064799999999
  0
ARC
  5
2F0
  8
0
 62
     7
 10
62.173589
 20
160.41063299999999
 30
0.0
 40
1.3059449999999999
 50
257.89079700000002
 51
267.09346699999992
  0
ARC
  5
2F1
  8
0
 62
     7
 10
62.030196999999987
 20
160.32542499999991
 30
0.0
 40
1.2214979999999991
 50
273.62223399999988
 51
299.37604399999992
  0
ARC
  5
2F2
  8
0
 62
     7
 10
61.978848999999997
 20
160.08302800000001
 30
0.0
 40
1.048308999999999
 50
308.35717899999997
 51
74.668218999999993
  0
ARC
  5
2F3
  8
0
 62
     7
 10
62.024208999999992
 20
159.7832929999999
 30
0.0
 40
1.3310770000000001
 50
79.970151999999985
 51
86.418080000000003
  0
LINE
  5
2F4
  8
0
 62
     7
 10
50.971000000000011
 20
159.70399999999989
 30
0.0
 11
50.757800000000003
 21
152.2589999999999
 31
0.0
  0
LINE
  5
2F5
  8
0
 62
     7
 10
50.757800000000003
 20
152.2589999999999
 30
0.0
 11
50.587200000000003
 21
144.792
 31
0.0
  0
LINE
  5
2F6
  8
0
 62
     7
 10
50.587200000000003
 20
144.792
 30
0.0
 11
50.480400000000003
 21
137.346
 31
0.0
  0
ARC
  5
2F7
  8
0
 62
     7
 10
68.840539000000007
 20
159.891265
 30
0.0
 40
1.222944
 50
93.619476000000006
 51
119.358182
  0
ARC
  5
2F8
  8
0
 62
     7
 10
68.891323999999997
 20
160.13512299999991
 30
0.0
 40
1.0481830000000001
 50
128.349682
 51
254.69607099999999
  0
ARC
  5
2F9
  8
0
 62
     7
 10
68.846530999999999
 20
160.4352209999999
 30
0.0
 40
1.3314549999999989
 50
259.97121600000003
 51
266.41754300000002
  0
ARC
  5
2FA
  8
0
 62
     7
 10
68.697788000000003
 20
160.337729
 30
0.0
 40
1.233104999999999
 50
273.04706199999998
 51
298.85236200000003
  0
ARC
  5
2FB
  8
0
 62
     7
 10
68.654482000000002
 20
160.08689399999989
 30
0.0
 40
1.0464500000000001
 50
307.590259
 51
72.395953000000006
  0
ARC
  5
2FC
  8
0
 62
     7
 10
68.696588000000006
 20
159.8070459999999
 30
0.0
 40
1.306430999999999
 50
77.876310000000004
 51
87.071403000000004
  0
ARC
  5
2FD
  8
0
 62
     7
 10
65.509169999999997
 20
159.884489
 30
0.0
 40
1.2295199999999999
 50
93.458109999999991
 51
119.1713129999999
  0
ARC
  5
2FE
  8
0
 62
     7
 10
65.554845999999984
 20
160.13301000000001
 30
0.0
 40
1.0472360000000001
 50
128.01588599999999
 51
253.47890000000001
  0
ARC
  5
2FF
  8
0
 62
     7
 10
65.512623000000005
 20
160.42717300000001
 30
0.0
 40
1.323083999999999
 50
258.86227400000001
 51
266.63693999999992
  0
ARC
  5
300
  8
0
 62
     7
 10
65.361294999999998
 20
160.33355499999999
 30
0.0
 40
1.2294
 50
273.43740700000001
 51
299.15786099999991
  0
ARC
  5
301
  8
0
 62
     7
 10
65.315631999999994
 20
160.085093
 30
0.0
 40
1.0471109999999999
 50
307.99877400000003
 51
73.500557999999984
  0
ARC
  5
302
  8
0
 62
     7
 10
65.357511000000002
 20
159.79382399999989
 30
0.0
 40
1.320222999999999
 50
78.840964999999997
 51
86.634833999999998
  0
ARC
  5
303
  8
0
 62
     7
 10
75.488759999999985
 20
159.9295139999999
 30
0.0
 40
1.1832339999999999
 50
92.329722000000004
 51
118.917022
  0
ARC
  5
304
  8
0
 62
     7
 10
75.423642999999998
 20
160.13120499999991
 30
0.0
 40
0.976044
 50
121.296797
 51
178.60958299999999
  0
ARC
  5
305
  8
0
 62
     7
 10
75.492043999999993
 20
160.14927499999999
 30
0.0
 40
1.044173
 50
179.69194699999991
 51
267.17941000000002
  0
ARC
  5
306
  8
0
 62
     7
 10
75.363467
 20
160.32648199999991
 30
0.0
 40
1.2225539999999999
 50
273.62016599999998
 51
299.36299600000001
  0
ARC
  5
307
  8
0
 62
     7
 10
75.312537000000006
 20
160.08302499999999
 30
0.0
 40
1.048219
 50
308.35121900000001
 51
74.686779999999999
  0
ARC
  5
308
  8
0
 62
     7
 10
75.357429999999994
 20
159.78213400000001
 30
0.0
 40
1.3322389999999991
 50
79.973996999999983
 51
86.418138999999996
  0
ARC
  5
309
  8
0
 62
     7
 10
78.842834999999994
 20
159.88384799999989
 30
0.0
 40
1.2301610000000001
 50
93.457600999999997
 51
119.1635899999999
  0
ARC
  5
30A
  8
0
 62
     7
 10
78.888296999999994
 20
160.133016
 30
0.0
 40
1.0472030000000001
 50
128.01407900000001
 51
253.486242
  0
ARC
  5
30B
  8
0
 62
     7
 10
78.846284999999995
 20
160.42791199999999
 30
0.0
 40
1.3238229999999991
 50
258.86535800000001
 51
266.63776100000001
  0
ARC
  5
30C
  8
0
 62
     7
 10
78.694959999999995
 20
160.3329149999999
 30
0.0
 40
1.228758999999999
 50
273.43791299999992
 51
299.16558099999997
  0
ARC
  5
30D
  8
0
 62
     7
 10
78.649081999999993
 20
160.0850989999999
 30
0.0
 40
1.0471440000000001
 50
308.0005799999999
 51
73.493217999999999
  0
ARC
  5
30E
  8
0
 62
     7
 10
78.691172999999992
 20
159.79455999999999
 30
0.0
 40
1.3194859999999999
 50
78.837874999999997
 51
86.634011999999998
  0
ARC
  5
30F
  8
0
 62
     7
 10
72.153576999999999
 20
159.91675599999991
 30
0.0
 40
1.195713
 50
91.960183999999984
 51
118.513977
  0
ARC
  5
310
  8
0
 62
     7
 10
72.084815000000006
 20
160.1300719999999
 30
0.0
 40
0.976326
 50
120.944834
 51
178.54660100000001
  0
ARC
  5
311
  8
0
 62
     7
 10
72.153762999999984
 20
160.15052800000001
 30
0.0
 40
1.044969
 50
179.763837
 51
267.74673100000001
  0
ARC
  5
312
  8
0
 62
     7
 10
72.051811999999998
 20
160.28676299999989
 30
0.0
 40
1.181964
 50
272.95180699999992
 51
299.35707400000001
  0
ARC
  5
313
  8
0
 62
     7
 10
72.116170999999994
 20
160.0899189999999
 30
0.0
 40
0.9796790000000001
 50
301.72098899999997
 51
359.79268400000001
  0
ARC
  5
314
  8
0
 62
     7
 10
72.053682999999992
 20
160.07116899999991
 30
0.0
 40
1.042271999999999
 50
0.8358979999999998
 51
86.755183999999986
  0
ARC
  5
315
  8
0
 62
     7
 10
72.196999000000005
 20
157.242862
 30
0.0
 40
13.837496
 50
4.0090289999999991
 51
84.245491000000015
  0
ARC
  5
316
  8
0
 62
     7
 10
71.441756000000012
 20
158.34451899999991
 30
0.0
 40
20.45186399999999
 50
357.11336199999988
 51
84.166740999999988
  0
LINE
  5
317
  8
0
 62
     7
 10
90.395200000000017
 20
137.49600000000001
 30
0.0
 11
90.288799999999995
 21
144.89799999999991
 31
0.0
  0
LINE
  5
318
  8
0
 62
     7
 10
90.288799999999995
 20
144.89799999999991
 30
0.0
 11
90.117900000000006
 21
152.30099999999999
 31
0.0
  0
LINE
  5
319
  8
0
 62
     7
 10
90.117900000000006
 20
152.30099999999999
 30
0.0
 11
89.883300000000006
 21
159.70399999999989
 31
0.0
  0
ARC
  5
31A
  8
0
 62
     7
 10
69.477141000000003
 20
158.308109
 30
0.0
 40
20.492552
 50
95.944087999999994
 51
182.77899899999991
  0
ARC
  5
31B
  8
0
 62
     7
 10
68.716359999999995
 20
157.20630299999991
 30
0.0
 40
13.877691
 50
95.894181000000003
 51
175.85125999999991
  0
ARC
  5
31C
  8
0
 62
     7
 10
71.997360999999984
 20
126.98867199999989
 30
0.0
 40
23.880162999999989
 50
154.29474099999999
 51
175.64198799999991
  0
ARC
  5
31D
  8
0
 62
     7
 10
73.102831999999992
 20
126.806265
 30
0.0
 40
24.996489999999991
 50
175.41763899999989
 51
200.62567200000001
  0
ARC
  5
31E
  8
0
 62
     7
 10
71.582542000000004
 20
126.37513
 30
0.0
 40
23.422148
 50
200.948667
 51
202.92811199999991
  0
LINE
  5
31F
  8
0
 62
     7
 10
50.480400000000003
 20
137.346
 30
0.0
 11
49.008699999999997
 21
157.315
 31
0.0
  0
ARC
  5
320
  8
0
 62
     7
 10
60.500574999999998
 20
136.53075899999999
 30
0.0
 40
1.2435849999999991
 50
92.668024000000017
 51
118.36071
  0
ARC
  5
321
  8
0
 62
     7
 10
60.423518000000008
 20
136.77866399999999
 30
0.0
 40
0.9900909999999999
 50
121.2526389999999
 51
190.5996669999999
  0
ARC
  5
322
  8
0
 62
     7
 10
60.448357999999999
 20
136.79068599999999
 30
0.0
 40
1.0167440000000001
 50
191.00806999999989
 51
257.86790400000001
  0
ARC
  5
323
  8
0
 62
     7
 10
60.517752000000002
 20
137.07960700000001
 30
0.0
 40
1.3138160000000001
 50
257.55729400000001
 51
266.72466099999991
  0
ARC
  5
324
  8
0
 62
     7
 10
60.329279
 20
137.04673700000001
 30
0.0
 40
1.283819
 50
275.06795699999992
 51
299.93077099999999
  0
ARC
  5
325
  8
0
 62
     7
 10
60.316262000000002
 20
136.74806599999999
 30
0.0
 40
1.0438590000000001
 50
308.76457099999988
 51
74.754365000000021
  0
ARC
  5
326
  8
0
 62
     7
 10
60.355223000000002
 20
136.42124699999999
 30
0.0
 40
1.3545750000000001
 50
79.986690999999993
 51
86.297845999999979
  0
LINE
  5
327
  8
0
 62
     7
 10
49.989899999999999
 20
117.18600000000001
 30
0.0
 11
50.41640000000001
 21
118.57299999999989
 31
0.0
  0
LINE
  5
328
  8
0
 62
     7
 10
50.41640000000001
 20
118.57299999999989
 30
0.0
 11
50.800499999999992
 21
119.98099999999999
 31
0.0
  0
LINE
  5
329
  8
0
 62
     7
 10
54.875
 20
158.21000000000001
 30
0.0
 11
54.619100000000003
 21
148.6109999999999
 31
0.0
  0
LINE
  5
32A
  8
0
 62
     7
 10
54.619100000000003
 20
148.6109999999999
 30
0.0
 11
54.448199999999993
 21
139.03200000000001
 31
0.0
  0
LINE
  5
32B
  8
0
 62
     7
 10
54.448199999999993
 20
139.03200000000001
 30
0.0
 11
54.384099999999997
 21
129.43199999999999
 31
0.0
  0
ARC
  5
32C
  8
0
 62
     7
 10
67.180081000000001
 20
136.5356449999999
 30
0.0
 40
1.239981999999999
 50
93.733289999999997
 51
119.0273029999999
  0
ARC
  5
32D
  8
0
 62
     7
 10
67.207476
 20
136.79022199999989
 30
0.0
 40
1.041172999999999
 50
127.170582
 51
249.19417100000001
  0
ARC
  5
32E
  8
0
 62
     7
 10
67.209661999999994
 20
137.08025799999999
 30
0.0
 40
1.316948999999999
 50
253.59167400000001
 51
265.19479799999999
  0
ARC
  5
32F
  8
0
 62
     7
 10
67.012869999999992
 20
137.012652
 30
0.0
 40
1.247714999999999
 50
273.97409800000003
 51
299.54381000000001
  0
ARC
  5
330
  8
0
 62
     7
 10
66.978785000000002
 20
136.74879300000001
 30
0.0
 40
1.047228
 50
308.31876299999988
 51
73.493639999999999
  0
ARC
  5
331
  8
0
 62
     7
 10
67.041494
 20
136.476463
 30
0.0
 40
1.297822
 50
79.575311999999997
 51
87.445228
  0
ARC
  5
332
  8
0
 62
     7
 10
70.493318000000002
 20
136.57210799999999
 30
0.0
 40
1.2027179999999991
 50
93.161754999999985
 51
119.043594
  0
ARC
  5
333
  8
0
 62
     7
 10
70.434413000000006
 20
136.77796599999991
 30
0.0
 40
0.995329
 50
121.83319299999999
 51
191.38290599999999
  0
ARC
  5
334
  8
0
 62
     7
 10
70.453760000000003
 20
136.789132
 30
0.0
 40
1.0165239999999991
 50
191.7846889999999
 51
260.02902699999993
  0
ARC
  5
335
  8
0
 62
     7
 10
70.532915000000003
 20
137.12348199999991
 30
0.0
 40
1.359677
 50
259.18336799999997
 51
265.53153199999991
  0
ARC
  5
336
  8
0
 62
     7
 10
70.352307999999994
 20
137.01836
 30
0.0
 40
1.2526509999999991
 50
273.41759799999988
 51
299.088863
  0
ARC
  5
337
  8
0
 62
     7
 10
70.305593000000002
 20
136.74074400000001
 30
0.0
 40
1.047615999999999
 50
308.74881099999988
 51
78.264263
  0
ARC
  5
338
  8
0
 62
     7
 10
70.37433399999999
 20
136.3877139999999
 30
0.0
 40
1.386282
 50
84.023422999999994
 51
87.823492000000002
  0
ARC
  5
339
  8
0
 62
     7
 10
80.513365000000007
 20
136.53575900000001
 30
0.0
 40
1.2398670000000001
 50
93.733232999999998
 51
119.028642
  0
ARC
  5
33A
  8
0
 62
     7
 10
80.540790999999999
 20
136.79023100000001
 30
0.0
 40
1.0411669999999991
 50
127.1709199999999
 51
249.19651400000001
  0
ARC
  5
33B
  8
0
 62
     7
 10
80.542899000000006
 20
137.07946699999991
 30
0.0
 40
1.316157
 50
253.58699799999999
 51
265.19435499999992
  0
ARC
  5
33C
  8
0
 62
     7
 10
80.346163000000004
 20
137.012652
 30
0.0
 40
1.247714999999999
 50
273.97409800000003
 51
299.54381000000001
  0
ARC
  5
33D
  8
0
 62
     7
 10
80.312078
 20
136.74879300000001
 30
0.0
 40
1.047228
 50
308.31876299999988
 51
73.493639999999999
  0
ARC
  5
33E
  8
0
 62
     7
 10
80.374786999999984
 20
136.476463
 30
0.0
 40
1.297822
 50
79.575311999999997
 51
87.445228
  0
ARC
  5
33F
  8
0
 62
     7
 10
77.160204000000007
 20
136.566643
 30
0.0
 40
1.207630999999999
 50
92.636556000000013
 51
118.63409299999999
  0
ARC
  5
340
  8
0
 62
     7
 10
77.100917999999993
 20
136.777995
 30
0.0
 40
0.994937
 50
121.471277
 51
191.45618200000001
  0
ARC
  5
341
  8
0
 62
     7
 10
77.118491000000006
 20
136.78795999999991
 30
0.0
 40
1.014159
 50
191.81078199999999
 51
259.00766199999998
  0
ARC
  5
342
  8
0
 62
     7
 10
77.195830000000001
 20
137.10773699999999
 30
0.0
 40
1.3428990000000001
 50
258.37001199999997
 51
266.10688299999998
  0
ARC
  5
343
  8
0
 62
     7
 10
77.002933999999996
 20
137.0328989999999
 30
0.0
 40
1.2690449999999991
 50
274.59743199999991
 51
299.65795099999991
  0
ARC
  5
344
  8
0
 62
     7
 10
76.984282999999991
 20
136.74951100000001
 30
0.0
 40
1.0438000000000001
 50
308.2773259999999
 51
73.343795999999998
  0
ARC
  5
345
  8
0
 62
     7
 10
77.017386000000002
 20
136.41583799999989
 30
0.0
 40
1.3599600000000001
 50
78.717184000000003
 51
86.320887999999997
  0
ARC
  5
346
  8
0
 62
     7
 10
73.855590000000007
 20
136.49968199999989
 30
0.0
 40
1.2757789999999991
 50
93.562117000000015
 51
118.599812
  0
ARC
  5
347
  8
0
 62
     7
 10
73.866122000000004
 20
136.78833399999999
 30
0.0
 40
1.037911
 50
126.76552599999989
 51
248.489339
  0
ARC
  5
348
  8
0
 62
     7
 10
73.87127199999999
 20
137.07112299999989
 30
0.0
 40
1.30664
 50
252.830206
 51
265.83292299999999
  0
ARC
  5
349
  8
0
 62
     7
 10
73.662927999999994
 20
137.046616
 30
0.0
 40
1.283696999999999
 50
275.0678979999999
 51
299.93217199999998
  0
ARC
  5
34A
  8
0
 62
     7
 10
73.649877000000004
 20
136.74806299999989
 30
0.0
 40
1.043857
 50
308.76470199999989
 51
74.755207999999996
  0
ARC
  5
34B
  8
0
 62
     7
 10
73.688896999999997
 20
136.42205000000001
 30
0.0
 40
1.3537719999999991
 50
79.983881000000011
 51
86.297197999999995
  0
ARC
  5
34C
  8
0
 62
     7
 10
67.869780000000006
 20
126.7889429999999
 30
0.0
 40
24.880891999999999
 50
337.93608999999998
 51
24.782359
  0
LINE
  5
34D
  8
0
 62
     7
 10
90.395200000000017
 20
137.346
 30
0.0
 11
89.926000000000016
 21
135.5329999999999
 31
0.0
  0
LINE
  5
34E
  8
0
 62
     7
 10
89.926000000000016
 20
135.5329999999999
 30
0.0
 11
89.563199999999995
 21
133.67699999999999
 31
0.0
  0
LINE
  5
34F
  8
0
 62
     7
 10
89.563199999999995
 20
133.67699999999999
 30
0.0
 11
89.307299999999998
 21
131.821
 31
0.0
  0
LINE
  5
350
  8
0
 62
     7
 10
89.307299999999998
 20
131.821
 30
0.0
 11
89.136399999999995
 21
129.9439999999999
 31
0.0
  0
LINE
  5
351
  8
0
 62
     7
 10
86.469899999999996
 20
129.43199999999999
 30
0.0
 11
86.427099999999996
 21
139.03200000000001
 31
0.0
  0
LINE
  5
352
  8
0
 62
     7
 10
86.427099999999996
 20
139.03200000000001
 30
0.0
 11
86.256600000000006
 21
148.6109999999999
 31
0.0
  0
LINE
  5
353
  8
0
 62
     7
 10
86.256600000000006
 20
148.6109999999999
 30
0.0
 11
86.000600000000006
 21
158.21000000000001
 31
0.0
  0
ARC
  5
354
  8
0
 62
     7
 10
63.826560999999998
 20
136.56675000000001
 30
0.0
 40
1.207524
 50
92.636499999999998
 51
118.6353739999999
  0
ARC
  5
355
  8
0
 62
     7
 10
63.767217000000002
 20
136.778142
 30
0.0
 40
0.9947669999999999
 50
121.47153400000001
 51
191.46682799999999
  0
ARC
  5
356
  8
0
 62
     7
 10
63.785159
 20
136.78810300000001
 30
0.0
 40
1.0143489999999991
 50
191.81680600000001
 51
258.99469199999999
  0
ARC
  5
357
  8
0
 62
     7
 10
63.862147999999998
 20
137.10693499999999
 30
0.0
 40
1.3420959999999991
 50
258.36676699999998
 51
266.106449
  0
ARC
  5
358
  8
0
 62
     7
 10
63.657640000000001
 20
137.04565699999989
 30
0.0
 40
1.2827399999999991
 50
275.07074099999988
 51
299.94376599999998
  0
ARC
  5
359
  8
0
 62
     7
 10
63.644245999999988
 20
136.7480789999999
 30
0.0
 40
1.0439249999999991
 50
308.76799599999998
 51
74.738278000000008
  0
ARC
  5
35A
  8
0
 62
     7
 10
63.683626000000011
 20
136.42244099999999
 30
0.0
 40
1.3533790000000001
 50
79.982830000000007
 51
86.297756000000007
  0
ARC
  5
35B
  8
0
 62
     7
 10
-160.75047599999991
 20
129.1683689999999
 30
0.0
 40
247.22457700000001
 50
354.882654
 51
359.65784599999989
  0
ARC
  5
35C
  8
0
 62
     7
 10
-134.19378399999999
 20
128.5830169999999
 30
0.0
 40
220.66527499999989
 50
359.76865299999992
 51
0.220355
  0
LINE
  5
35D
  8
0
 62
     7
 10
90.9285
 20
117.443
 30
0.0
 11
90.885800000000003
 21
117.18600000000001
 31
0.0
  0
LINE
  5
35E
  8
0
 62
     7
 10
90.885800000000003
 20
117.18600000000001
 30
0.0
 11
90.9285
 21
116.952
 31
0.0
  0
ARC
  5
35F
  8
0
 62
     7
 10
320.27441099999987
 20
130.04374300000001
 30
0.0
 40
265.89101099999988
 50
180.131911
 51
184.00731400000001
  0
ARC
  5
360
  8
0
 62
     7
 10
287.70856900000001
 20
128.20446599999991
 30
0.0
 40
233.276669
 50
184.1156379999999
 51
185.186464
  0
ARC
  5
361
  8
0
 62
     7
 10
78.789860000000004
 20
153.27912299999991
 30
0.0
 40
1.1555159999999991
 50
91.052017000000006
 51
118.2173449999999
  0
ARC
  5
362
  8
0
 62
     7
 10
78.726031000000006
 20
153.479885
 30
0.0
 40
0.9492209999999998
 50
120.5527519999999
 51
172.58584599999989
  0
ARC
  5
363
  8
0
 62
     7
 10
78.833606000000003
 20
153.45353299999999
 30
0.0
 40
1.059369
 50
171.9232989999999
 51
225.25921199999999
  0
ARC
  5
364
  8
0
 62
     7
 10
78.729347000000004
 20
153.41445100000001
 30
0.0
 40
0.95935
 50
228.04012999999989
 51
265.13941499999987
  0
ARC
  5
365
  8
0
 62
     7
 10
78.791223999999985
 20
153.73493199999999
 30
0.0
 40
1.2843850000000001
 50
263.600234
 51
268.99269399999991
  0
ARC
  5
366
  8
0
 62
     7
 10
78.74826800000001
 20
153.60484899999989
 30
0.0
 40
1.1542829999999991
 50
271.01149199999992
 51
298.20291999999989
  0
ARC
  5
367
  8
0
 62
     7
 10
78.812224000000001
 20
153.40444099999991
 30
0.0
 40
0.9482179999999999
 50
300.52075799999989
 51
352.5991029999999
  0
ARC
  5
368
  8
0
 62
     7
 10
78.703373999999997
 20
153.43117899999999
 30
0.0
 40
1.0596799999999991
 50
351.92351699999989
 51
45.252377999999993
  0
ARC
  5
369
  8
0
 62
     7
 10
78.807172999999992
 20
153.469765
 30
0.0
 40
0.960332
 50
48.031100000000002
 51
85.098334999999992
  0
ARC
  5
36A
  8
0
 62
     7
 10
78.74519699999999
 20
153.14569
 30
0.0
 40
1.2889679999999999
 50
83.584259000000003
 51
88.957689999999985
  0
ARC
  5
36B
  8
0
 62
     7
 10
78.842871000000002
 20
146.54987600000001
 30
0.0
 40
1.2306699999999999
 50
93.457836
 51
119.153435
  0
ARC
  5
36C
  8
0
 62
     7
 10
78.887946999999997
 20
146.7997169999999
 30
0.0
 40
1.0469029999999999
 50
128.00406100000001
 51
253.49891299999999
  0
ARC
  5
36D
  8
0
 62
     7
 10
78.846129000000005
 20
147.09158500000001
 30
0.0
 40
1.3206139999999991
 50
258.84294799999992
 51
266.63636600000001
  0
ARC
  5
36E
  8
0
 62
     7
 10
78.694439000000003
 20
147.0018739999999
 30
0.0
 40
1.230866
 50
273.45628099999988
 51
299.15091699999999
  0
ARC
  5
36F
  8
0
 62
     7
 10
78.649403000000007
 20
146.75180800000001
 30
0.0
 40
1.0468869999999999
 50
308.00535999999988
 51
73.507056000000006
  0
ARC
  5
370
  8
0
 62
     7
 10
78.691186999999999
 20
146.4611449999999
 30
0.0
 40
1.3194360000000001
 50
78.837827000000004
 51
86.634495000000001
  0
ARC
  5
371
  8
0
 62
     7
 10
78.789860000000004
 20
139.94565800000001
 30
0.0
 40
1.1555159999999991
 50
91.052017000000006
 51
118.2173449999999
  0
ARC
  5
372
  8
0
 62
     7
 10
78.726031000000006
 20
140.14642000000001
 30
0.0
 40
0.9492209999999998
 50
120.5527519999999
 51
172.58584599999989
  0
ARC
  5
373
  8
0
 62
     7
 10
78.833606000000003
 20
140.120068
 30
0.0
 40
1.059369
 50
171.9232989999999
 51
225.25921199999999
  0
ARC
  5
374
  8
0
 62
     7
 10
78.729347000000004
 20
140.080986
 30
0.0
 40
0.95935
 50
228.04012999999989
 51
265.13941499999987
  0
ARC
  5
375
  8
0
 62
     7
 10
78.791223999999985
 20
140.401467
 30
0.0
 40
1.2843850000000001
 50
263.600234
 51
268.99269399999991
  0
ARC
  5
376
  8
0
 62
     7
 10
78.74826800000001
 20
140.27138299999999
 30
0.0
 40
1.1542829999999991
 50
271.01149199999992
 51
298.20291999999989
  0
ARC
  5
377
  8
0
 62
     7
 10
78.812224000000001
 20
140.07097599999989
 30
0.0
 40
0.9482179999999999
 50
300.52075799999989
 51
352.5991029999999
  0
ARC
  5
378
  8
0
 62
     7
 10
78.703373999999997
 20
140.09771399999991
 30
0.0
 40
1.0596799999999991
 50
351.92351699999989
 51
45.252377999999993
  0
ARC
  5
379
  8
0
 62
     7
 10
78.807172999999992
 20
140.13630000000001
 30
0.0
 40
0.960332
 50
48.031100000000002
 51
85.098334999999992
  0
ARC
  5
37A
  8
0
 62
     7
 10
78.74519699999999
 20
139.8122239999999
 30
0.0
 40
1.2889679999999999
 50
83.584259000000003
 51
88.957689999999985
  0
LINE
  5
37B
  8
0
 62
     7
 10
90.395200000000017
 20
137.346
 30
0.0
 11
91.867699999999999
 21
157.315
 31
0.0
  0
LINE
  5
37C
  8
0
 62
     7
 10
90.395200000000017
 20
137.49600000000001
 30
0.0
 11
90.459299999999999
 21
137.2179999999999
 31
0.0
  0
ARC
  5
37D
  8
0
 62
     7
 10
80.515249999999995
 20
143.234936
 30
0.0
 40
1.218189999999999
 50
93.888593
 51
119.7968679999999
  0
ARC
  5
37E
  8
0
 62
     7
 10
80.583590000000015
 20
143.485376
 30
0.0
 40
1.0510090000000001
 50
129.86604999999989
 51
261.742166
  0
ARC
  5
37F
  8
0
 62
     7
 10
80.420613999999986
 20
143.53286
 30
0.0
 40
1.0876629999999989
 50
270.63329299999998
 51
303.51443
  0
ARC
  5
380
  8
0
 62
     7
 10
80.442466999999994
 20
143.42335299999999
 30
0.0
 40
0.9852019999999999
 50
305.97195399999993
 51
358.008599
  0
ARC
  5
381
  8
0
 62
     7
 10
80.398925000000006
 20
143.41888
 30
0.0
 40
1.0285799999999989
 50
358.34193499999998
 51
76.031777000000005
  0
ARC
  5
382
  8
0
 62
     7
 10
80.329357999999999
 20
143.075986
 30
0.0
 40
1.3782110000000001
 50
76.666134
 51
85.702430000000007
  0
ARC
  5
383
  8
0
 62
     7
 10
80.513357999999997
 20
149.86932699999991
 30
0.0
 40
1.239765
 50
93.733187000000001
 51
119.030867
  0
ARC
  5
384
  8
0
 62
     7
 10
80.540848999999994
 20
150.123606
 30
0.0
 40
1.041264999999999
 50
127.170834
 51
249.19515499999989
  0
ARC
  5
385
  8
0
 62
     7
 10
80.542899000000006
 20
150.41275999999999
 30
0.0
 40
1.316157
 50
253.58699799999999
 51
265.19435499999992
  0
ARC
  5
386
  8
0
 62
     7
 10
80.346580000000003
 20
150.346101
 30
0.0
 40
1.2478419999999999
 50
273.95449200000002
 51
299.51848899999987
  0
ARC
  5
387
  8
0
 62
     7
 10
80.312092000000007
 20
150.082076
 30
0.0
 40
1.0473879999999991
 50
308.31083699999999
 51
73.497046999999995
  0
ARC
  5
388
  8
0
 62
     7
 10
80.375100000000003
 20
149.81336399999989
 30
0.0
 40
1.2943759999999991
 50
79.561351999999999
 51
87.452306000000021
  0
ARC
  5
389
  8
0
 62
     7
 10
80.514780999999999
 20
156.56872699999991
 30
0.0
 40
1.2178329999999991
 50
93.867627000000013
 51
119.78718499999999
  0
ARC
  5
38A
  8
0
 62
     7
 10
80.583433999999997
 20
156.8188889999999
 30
0.0
 40
1.0510349999999991
 50
129.86181199999999
 51
261.75097199999999
  0
ARC
  5
38B
  8
0
 62
     7
 10
80.420626999999996
 20
156.86563699999999
 30
0.0
 40
1.086975
 50
270.63303699999989
 51
303.53767099999988
  0
ARC
  5
38C
  8
0
 62
     7
 10
80.442466999999994
 20
156.75694799999991
 30
0.0
 40
0.9852019999999999
 50
305.97195399999993
 51
358.008599
  0
ARC
  5
38D
  8
0
 62
     7
 10
80.399079999999998
 20
156.752466
 30
0.0
 40
1.028424999999999
 50
358.34214800000001
 51
76.038499999999999
  0
ARC
  5
38E
  8
0
 62
     7
 10
80.329357999999999
 20
156.4094509999999
 30
0.0
 40
1.3782110000000001
 50
76.666134
 51
85.702430000000007
  0
ARC
  5
38F
  8
0
 62
     7
 10
63.870576999999997
 20
143.1658919999999
 30
0.0
 40
1.288281999999999
 50
94.432354999999987
 51
119.8677439999999
  0
ARC
  5
390
  8
0
 62
     7
 10
63.761485999999998
 20
143.4516689999999
 30
0.0
 40
0.9872899999999999
 50
122.6379239999999
 51
186.2792179999999
  0
ARC
  5
391
  8
0
 62
     7
 10
63.799944000000004
 20
143.472825
 30
0.0
 40
1.0279689999999999
 50
187.21692899999999
 51
268.38742000000002
  0
ARC
  5
392
  8
0
 62
     7
 10
63.718604999999997
 20
143.635346
 30
0.0
 40
1.1912359999999991
 50
272.52164900000002
 51
298.7513009999999
  0
ARC
  5
393
  8
0
 62
     7
 10
63.789869999999993
 20
143.421266
 30
0.0
 40
0.970115
 50
301.14365199999992
 51
359.52942000000002
  0
ARC
  5
394
  8
0
 62
     7
 10
63.707710999999989
 20
143.39990099999989
 30
0.0
 40
1.052327
 50
0.729468
 51
86.551193999999995
  0
ARC
  5
395
  8
0
 62
     7
 10
75.450252000000006
 20
139.96422999999999
 30
0.0
 40
1.136789
 50
90.483388000000005
 51
118.059003
  0
ARC
  5
396
  8
0
 62
     7
 10
75.385269999999991
 20
140.16265000000001
 30
0.0
 40
0.93182
 50
120.27238699999999
 51
166.325917
  0
ARC
  5
397
  8
0
 62
     7
 10
75.528925999999984
 20
140.11828499999999
 30
0.0
 40
1.0819309999999991
 50
165.8415139999999
 51
219.47680699999989
  0
ARC
  5
398
  8
0
 62
     7
 10
75.389863000000005
 20
140.059718
 30
0.0
 40
0.9383510000000001
 50
222.11583300000001
 51
265.73491899999999
  0
ARC
  5
399
  8
0
 62
     7
 10
75.450655999999995
 20
140.38833700000001
 30
0.0
 40
1.271096
 50
264.10362900000001
 51
269.54948100000001
  0
ARC
  5
39A
  8
0
 62
     7
 10
75.410138000000003
 20
140.27816699999991
 30
0.0
 40
1.161287999999999
 50
271.50611299999991
 51
298.45512100000002
  0
ARC
  5
39B
  8
0
 62
     7
 10
75.477257999999992
 20
140.07454699999991
 30
0.0
 40
0.951046
 50
300.74552799999992
 51
352.47228899999999
  0
ARC
  5
39C
  8
0
 62
     7
 10
75.377406999999991
 20
140.09755899999999
 30
0.0
 40
1.0530959999999989
 50
351.94277299999987
 51
46.629370999999992
  0
ARC
  5
39D
  8
0
 62
     7
 10
75.466339000000005
 20
140.122637
 30
0.0
 40
0.9749499999999999
 50
49.417561999999997
 51
86.173191000000017
  0
ARC
  5
39E
  8
0
 62
     7
 10
75.405073999999999
 20
139.77825000000001
 30
0.0
 40
1.323207
 50
84.521328999999994
 51
88.458873999999994
  0
ARC
  5
39F
  8
0
 62
     7
 10
72.108176
 20
139.9658189999999
 30
0.0
 40
1.1351690000000001
 50
89.772788000000006
 51
117.58485499999991
  0
ARC
  5
3A0
  8
0
 62
     7
 10
72.04361999999999
 20
140.1687969999999
 30
0.0
 40
0.926101
 50
119.860535
 51
165.045537
  0
ARC
  5
3A1
  8
0
 62
     7
 10
72.202567000000002
 20
140.114858
 30
0.0
 40
1.0936399999999991
 50
164.464214
 51
213.098973
  0
ARC
  5
3A2
  8
0
 62
     7
 10
72.041712000000004
 20
140.045715
 30
0.0
 40
0.9216149999999999
 50
214.95930100000001
 51
259.71119599999992
  0
ARC
  5
3A3
  8
0
 62
     7
 10
72.102694999999997
 20
140.30170299999989
 30
0.0
 40
1.184464999999999
 50
259.02037300000001
 51
270.48290600000001
  0
ARC
  5
3A4
  8
0
 62
     7
 10
72.098227000000009
 20
140.23733100000001
 30
0.0
 40
1.120144
 50
270.73919699999999
 51
298.43325800000002
  0
ARC
  5
3A5
  8
0
 62
     7
 10
72.157783999999992
 20
140.05247
 30
0.0
 40
0.9299089999999999
 50
300.63009099999999
 51
346.530394
  0
ARC
  5
3A6
  8
0
 62
     7
 10
72.003519999999995
 20
140.10293300000001
 30
0.0
 40
1.0917629999999989
 50
345.84066999999999
 51
34.019521999999988
  0
ARC
  5
3A7
  8
0
 62
     7
 10
72.161805000000001
 20
140.171763
 30
0.0
 40
0.922599
 50
35.976557999999997
 51
80.366772999999995
  0
ARC
  5
3A8
  8
0
 62
     7
 10
72.101146999999997
 20
139.91642400000001
 30
0.0
 40
1.1846110000000001
 50
79.540914000000001
 51
89.442250000000016
  0
ARC
  5
3A9
  8
0
 62
     7
 10
68.793869999999998
 20
139.94032300000001
 30
0.0
 40
1.161057
 50
91.506993999999978
 51
118.45803100000001
  0
ARC
  5
3AA
  8
0
 62
     7
 10
68.727020999999993
 20
140.143359
 30
0.0
 40
0.9514590000000001
 50
120.74569099999999
 51
172.4540879999999
  0
ARC
  5
3AB
  8
0
 62
     7
 10
68.826059999999998
 20
140.12042600000001
 30
0.0
 40
1.0526969999999991
 50
171.9246
 51
226.6306919999999
  0
ARC
  5
3AC
  8
0
 62
     7
 10
68.737465
 20
140.095786
 30
0.0
 40
0.9751040000000001
 50
229.42185499999999
 51
266.18258500000002
  0
ARC
  5
3AD
  8
0
 62
     7
 10
68.798929000000001
 20
140.44111000000001
 30
0.0
 40
1.324308
 50
264.52371599999998
 51
268.45984800000002
  0
ARC
  5
3AE
  8
0
 62
     7
 10
68.739390999999998
 20
140.29966399999989
 30
0.0
 40
1.1826259999999991
 50
271.16010899999992
 51
297.9638819999999
  0
ARC
  5
3AF
  8
0
 62
     7
 10
68.804656999999992
 20
140.0859899999999
 30
0.0
 40
0.964235
 50
300.49302699999998
 51
358.65216900000001
  0
ARC
  5
3B0
  8
0
 62
     7
 10
68.737293999999991
 20
140.09972699999989
 30
0.0
 40
1.0319739999999991
 50
357.97765299999992
 51
51.721786999999999
  0
ARC
  5
3B1
  8
0
 62
     7
 10
68.795523000000003
 20
140.10106699999989
 30
0.0
 40
0.9958629999999999
 50
54.304844999999993
 51
84.833221999999992
  0
ARC
  5
3B2
  8
0
 62
     7
 10
68.736514999999997
 20
139.77592699999991
 30
0.0
 40
1.325323
 50
83.558273999999997
 51
88.840431999999979
  0
ARC
  5
3B3
  8
0
 62
     7
 10
65.456224000000006
 20
139.94618700000001
 30
0.0
 40
1.1549869999999991
 50
91.052587000000003
 51
118.2239559999999
  0
ARC
  5
3B4
  8
0
 62
     7
 10
65.392693999999992
 20
140.14647099999991
 30
0.0
 40
0.9492620000000001
 50
120.562941
 51
172.58925899999991
  0
ARC
  5
3B5
  8
0
 62
     7
 10
65.500617000000005
 20
140.12013400000001
 30
0.0
 40
1.0597499999999991
 50
171.92983100000001
 51
225.243458
  0
ARC
  5
3B6
  8
0
 62
     7
 10
65.395831000000001
 20
140.08081899999999
 30
0.0
 40
0.959192
 50
228.03575299999989
 51
265.132948
  0
ARC
  5
3B7
  8
0
 62
     7
 10
65.457591000000008
 20
140.4010429999999
 30
0.0
 40
1.283962
 50
263.59911899999992
 51
268.9921589999999
  0
ARC
  5
3B8
  8
0
 62
     7
 10
65.414631
 20
140.27138299999999
 30
0.0
 40
1.1542829999999991
 50
271.01149199999992
 51
298.20291999999989
  0
ARC
  5
3B9
  8
0
 62
     7
 10
65.478587000000005
 20
140.07097599999989
 30
0.0
 40
0.9482179999999999
 50
300.52075799999989
 51
352.5991029999999
  0
ARC
  5
3BA
  8
0
 62
     7
 10
65.369737000000001
 20
140.09771399999991
 30
0.0
 40
1.0596799999999991
 50
351.92351699999989
 51
45.252377999999993
  0
ARC
  5
3BB
  8
0
 62
     7
 10
65.473534999999984
 20
140.13630000000001
 30
0.0
 40
0.960332
 50
48.031100000000002
 51
85.098334999999992
  0
ARC
  5
3BC
  8
0
 62
     7
 10
65.411559999999994
 20
139.8122239999999
 30
0.0
 40
1.2889679999999999
 50
83.584259000000003
 51
88.957689999999985
  0
ARC
  5
3BD
  8
0
 62
     7
 10
75.488759999999985
 20
146.59604899999999
 30
0.0
 40
1.1832339999999999
 50
92.329722000000004
 51
118.917022
  0
ARC
  5
3BE
  8
0
 62
     7
 10
75.423642000000001
 20
146.79774
 30
0.0
 40
0.976044
 50
121.296718
 51
178.60702299999991
  0
ARC
  5
3BF
  8
0
 62
     7
 10
75.491744999999995
 20
146.8158699999999
 30
0.0
 40
1.0438739999999991
 50
179.69277199999999
 51
267.1950359999999
  0
ARC
  5
3C0
  8
0
 62
     7
 10
75.363877000000002
 20
146.9935999999999
 30
0.0
 40
1.222766
 50
273.600281
 51
299.33420699999999
  0
ARC
  5
3C1
  8
0
 62
     7
 10
75.316282999999999
 20
146.751857
 30
0.0
 40
1.0476149999999991
 50
308.11490900000001
 51
73.283759000000003
  0
ARC
  5
3C2
  8
0
 62
     7
 10
75.359375999999997
 20
146.466576
 30
0.0
 40
1.3142450000000001
 50
78.66825
 51
86.454013000000003
  0
ARC
  5
3C3
  8
0
 62
     7
 10
72.153576999999999
 20
146.583291
 30
0.0
 40
1.195713
 50
91.960183999999984
 51
118.513977
  0
ARC
  5
3C4
  8
0
 62
     7
 10
72.084813999999994
 20
146.796606
 30
0.0
 40
0.976326
 50
120.944774
 51
178.544679
  0
ARC
  5
3C5
  8
0
 62
     7
 10
72.153456000000006
 20
146.81711299999989
 30
0.0
 40
1.0446619999999991
 50
179.76470800000001
 51
267.76290799999992
  0
ARC
  5
3C6
  8
0
 62
     7
 10
72.052258999999992
 20
146.95312999999999
 30
0.0
 40
1.1814290000000001
 50
272.93140099999988
 51
299.34675099999993
  0
ARC
  5
3C7
  8
0
 62
     7
 10
72.116816
 20
146.7562879999999
 30
0.0
 40
0.979035
 50
301.699973
 51
359.79721799999999
  0
ARC
  5
3C8
  8
0
 62
     7
 10
72.053595000000001
 20
146.73761999999991
 30
0.0
 40
1.0423610000000001
 50
0.835674
 51
86.750600000000006
  0
ARC
  5
3C9
  8
0
 62
     7
 10
68.840527000000009
 20
146.55871999999991
 30
0.0
 40
1.222024999999999
 50
93.621627000000004
 51
119.37162599999991
  0
ARC
  5
3CA
  8
0
 62
     7
 10
68.888131000000001
 20
146.79955799999999
 30
0.0
 40
1.0477229999999991
 50
128.13413099999991
 51
253.25672899999989
  0
ARC
  5
3CB
  8
0
 62
     7
 10
68.843976999999995
 20
147.08641900000001
 30
0.0
 40
1.315645999999999
 50
258.70524499999988
 51
266.48588599999988
  0
ARC
  5
3CC
  8
0
 62
     7
 10
68.697706999999994
 20
147.00589099999991
 30
0.0
 40
1.234389999999999
 50
273.047641
 51
298.82378
  0
ARC
  5
3CD
  8
0
 62
     7
 10
68.651239000000004
 20
146.75138799999999
 30
0.0
 40
1.0466569999999991
 50
307.80592899999999
 51
73.826782999999992
  0
ARC
  5
3CE
  8
0
 62
     7
 10
68.694153999999997
 20
146.4524219999999
 30
0.0
 40
1.3276859999999999
 50
79.207059000000015
 51
87.013176999999999
  0
ARC
  5
3CF
  8
0
 62
     7
 10
65.509206000000006
 20
146.5505169999999
 30
0.0
 40
1.2300279999999999
 50
93.458345999999992
 51
119.16115499999999
  0
ARC
  5
3D0
  8
0
 62
     7
 10
65.554547999999997
 20
146.79972000000001
 30
0.0
 40
1.046961
 50
128.0084149999999
 51
253.489024
  0
ARC
  5
3D1
  8
0
 62
     7
 10
65.512467000000001
 20
147.09084799999999
 30
0.0
 40
1.319876
 50
258.83985899999999
 51
266.63554499999998
  0
ARC
  5
3D2
  8
0
 62
     7
 10
65.360793999999999
 20
147.00198499999999
 30
0.0
 40
1.2309779999999999
 50
273.45633900000001
 51
299.14959399999998
  0
ARC
  5
3D3
  8
0
 62
     7
 10
65.315840000000009
 20
146.751822
 30
0.0
 40
1.0468660000000001
 50
308.00263799999999
 51
73.508475000000004
  0
ARC
  5
3D4
  8
0
 62
     7
 10
65.357511000000002
 20
146.46035800000001
 30
0.0
 40
1.320222999999999
 50
78.840964999999997
 51
86.634833999999998
  0
ARC
  5
3D5
  8
0
 62
     7
 10
77.204239999999999
 20
143.16535400000001
 30
0.0
 40
1.288821999999999
 50
94.431657999999999
 51
119.86138699999999
  0
ARC
  5
3D6
  8
0
 62
     7
 10
77.094910999999996
 20
143.45170799999991
 30
0.0
 40
0.9872059999999999
 50
122.6345639999999
 51
186.28204299999999
  0
ARC
  5
3D7
  8
0
 62
     7
 10
77.133572999999998
 20
143.47295700000001
 30
0.0
 40
1.0281
 50
187.22340899999989
 51
268.38806399999987
  0
ARC
  5
3D8
  8
0
 62
     7
 10
77.059728000000007
 20
143.63495900000001
 30
0.0
 40
1.1905429999999999
 50
272.16254300000003
 51
298.49990400000002
  0
ARC
  5
3D9
  8
0
 62
     7
 10
77.13167
 20
143.41792000000001
 30
0.0
 40
0.9663209999999999
 50
300.89234099999987
 51
358.35966400000001
  0
ARC
  5
3DA
  8
0
 62
     7
 10
77.043599999999998
 20
143.39806799999991
 30
0.0
 40
1.054022999999999
 50
359.57551899999987
 51
86.679368999999994
  0
ARC
  5
3DB
  8
0
 62
     7
 10
73.897019999999983
 20
143.10858799999991
 30
0.0
 40
1.3471519999999999
 50
95.140161999999975
 51
119.76925900000001
  0
ARC
  5
3DC
  8
0
 62
     7
 10
73.902845999999997
 20
143.48143699999989
 30
0.0
 40
1.0438700000000001
 50
130.2664959999999
 51
263.0384029999999
  0
ARC
  5
3DD
  8
0
 62
     7
 10
73.723915000000005
 20
143.635346
 30
0.0
 40
1.1912359999999991
 50
272.52164900000002
 51
298.7513009999999
  0
ARC
  5
3DE
  8
0
 62
     7
 10
73.795180000000002
 20
143.421266
 30
0.0
 40
0.970115
 50
301.14365199999992
 51
359.52942000000002
  0
ARC
  5
3DF
  8
0
 62
     7
 10
73.713020999999998
 20
143.39990099999989
 30
0.0
 40
1.052327
 50
0.729468
 51
86.551193999999995
  0
ARC
  5
3E0
  8
0
 62
     7
 10
70.491352000000006
 20
143.2788459999999
 30
0.0
 40
1.173243
 50
93.145103999999989
 51
119.79538700000001
  0
ARC
  5
3E1
  8
0
 62
     7
 10
70.434436000000005
 20
143.4593879999999
 30
0.0
 40
0.989108
 50
122.131647
 51
180.02310499999999
  0
ARC
  5
3E2
  8
0
 62
     7
 10
70.485306000000008
 20
143.44434099999989
 30
0.0
 40
1.040081
 50
179.193017
 51
228.20752799999991
  0
ARC
  5
3E3
  8
0
 62
     7
 10
70.400075999999999
 20
143.409954
 30
0.0
 40
0.9585049999999998
 50
230.63680899999989
 51
261.10626999999999
  0
ARC
  5
3E4
  8
0
 62
     7
 10
70.463572999999997
 20
143.68142399999991
 30
0.0
 40
1.2367019999999991
 50
260.14425
 51
268.30449399999992
  0
ARC
  5
3E5
  8
0
 62
     7
 10
70.411442000000008
 20
143.60752500000001
 30
0.0
 40
1.162366
 50
270.766009
 51
297.88779899999997
  0
ARC
  5
3E6
  8
0
 62
     7
 10
70.477489000000006
 20
143.3998719999999
 30
0.0
 40
0.948728
 50
300.22877299999988
 51
352.45501300000001
  0
ARC
  5
3E7
  8
0
 62
     7
 10
70.358068000000003
 20
143.42783
 30
0.0
 40
1.0708530000000001
 50
351.81103400000001
 51
45.109219999999993
  0
ARC
  5
3E8
  8
0
 62
     7
 10
70.446365999999998
 20
143.45605900000001
 30
0.0
 40
0.989456
 50
47.578682000000001
 51
84.059714
  0
ARC
  5
3E9
  8
0
 62
     7
 10
70.378485999999995
 20
143.12887199999989
 30
0.0
 40
1.3223400000000001
 50
82.601311999999993
 51
87.898212999999984
  0
ARC
  5
3EA
  8
0
 62
     7
 10
67.181956999999997
 20
143.234936
 30
0.0
 40
1.218189999999999
 50
93.888593
 51
119.7968679999999
  0
ARC
  5
3EB
  8
0
 62
     7
 10
67.250298000000001
 20
143.485376
 30
0.0
 40
1.0510090000000001
 50
129.86604999999989
 51
261.742166
  0
ARC
  5
3EC
  8
0
 62
     7
 10
67.08731800000001
 20
143.53235299999989
 30
0.0
 40
1.087156
 50
270.63376599999998
 51
303.52248900000001
  0
ARC
  5
3ED
  8
0
 62
     7
 10
67.108896999999999
 20
143.42328599999999
 30
0.0
 40
0.985219
 50
305.97997700000002
 51
358.01254799999992
  0
ARC
  5
3EE
  8
0
 62
     7
 10
67.065326999999996
 20
143.41889399999999
 30
0.0
 40
1.0286269999999991
 50
358.34123099999988
 51
76.018006999999997
  0
ARC
  5
3EF
  8
0
 62
     7
 10
66.996105
 20
143.07675699999999
 30
0.0
 40
1.377438999999999
 50
76.662529000000006
 51
85.701679999999996
  0
ARC
  5
3F0
  8
0
 62
     7
 10
62.131314000000003
 20
139.91765599999991
 30
0.0
 40
1.183565999999999
 50
91.159268000000026
 51
117.952523
  0
ARC
  5
3F1
  8
0
 62
     7
 10
62.065551999999997
 20
140.13238499999991
 30
0.0
 40
0.9640019999999999
 50
120.48303899999991
 51
178.65871299999989
  0
ARC
  5
3F2
  8
0
 62
     7
 10
62.13308399999999
 20
140.11865800000001
 30
0.0
 40
1.0319089999999991
 50
177.9845139999999
 51
231.73772299999999
  0
ARC
  5
3F3
  8
0
 62
     7
 10
62.075183000000003
 20
140.11739
 30
0.0
 40
0.9960589999999999
 50
234.30855699999989
 51
264.83406600000001
  0
ARC
  5
3F4
  8
0
 62
     7
 10
62.134188000000002
 20
140.44233199999999
 30
0.0
 40
1.325323
 50
263.55829399999988
 51
268.84045200000003
  0
ARC
  5
3F5
  8
0
 62
     7
 10
62.076841000000002
 20
140.277738
 30
0.0
 40
1.1608590000000001
 50
271.50690099999991
 51
298.46052200000003
  0
ARC
  5
3F6
  8
0
 62
     7
 10
62.143785999999992
 20
140.07454599999991
 30
0.0
 40
0.9510799999999999
 50
300.74895900000001
 51
352.47258299999987
  0
ARC
  5
3F7
  8
0
 62
     7
 10
62.044138000000011
 20
140.09770299999991
 30
0.0
 40
1.052948999999999
 50
351.93369699999988
 51
46.626409000000002
  0
ARC
  5
3F8
  8
0
 62
     7
 10
62.133086999999989
 20
140.12283899999991
 30
0.0
 40
0.974745
 50
49.413356
 51
86.175122000000002
  0
ARC
  5
3F9
  8
0
 62
     7
 10
62.071793999999997
 20
139.77857900000001
 30
0.0
 40
1.3228789999999999
 50
84.520747999999998
 51
88.459040000000002
  0
ARC
  5
3FA
  8
0
 62
     7
 10
62.173413000000011
 20
146.5450449999999
 30
0.0
 40
1.2350270000000001
 50
93.065418000000008
 51
118.844112
  0
ARC
  5
3FB
  8
0
 62
     7
 10
62.215930000000007
 20
146.797876
 30
0.0
 40
1.0462599999999991
 50
127.59709599999989
 51
252.40352300000001
  0
ARC
  5
3FC
  8
0
 62
     7
 10
62.173580000000001
 20
147.07996299999991
 30
0.0
 40
1.3083929999999999
 50
257.91417000000001
 51
267.0992819999999
  0
ARC
  5
3FD
  8
0
 62
     7
 10
62.030586
 20
146.9930709999999
 30
0.0
 40
1.222237999999999
 50
273.60174399999988
 51
299.34077300000001
  0
ARC
  5
3FE
  8
0
 62
     7
 10
61.982756000000009
 20
146.75185300000001
 30
0.0
 40
1.047672999999999
 50
308.11935999999997
 51
73.274093000000008
  0
ARC
  5
3FF
  8
0
 62
     7
 10
62.026108999999991
 20
146.4673139999999
 30
0.0
 40
1.3135069999999991
 50
78.665094999999994
 51
86.453139000000007
  0
ARC
  5
400
  8
0
 62
     7
 10
60.502169999999992
 20
143.23526799999991
 30
0.0
 40
1.216507999999999
 50
92.802654000000004
 51
119.06450700000001
  0
ARC
  5
401
  8
0
 62
     7
 10
60.435074
 20
143.44832500000001
 30
0.0
 40
0.998694
 50
121.638723
 51
184.669994
  0
ARC
  5
402
  8
0
 62
     7
 10
60.457054999999997
 20
143.46746999999991
 30
0.0
 40
1.0223070000000001
 50
185.63913199999999
 51
269.19474300000002
  0
ARC
  5
403
  8
0
 62
     7
 10
60.390270999999998
 20
143.63598300000001
 30
0.0
 40
1.1918729999999991
 50
272.52061600000002
 51
298.74341699999991
  0
ARC
  5
404
  8
0
 62
     7
 10
60.461866000000001
 20
143.42143799999999
 30
0.0
 40
0.970175
 50
301.12996499999991
 51
359.51932099999999
  0
ARC
  5
405
  8
0
 62
     7
 10
60.379879000000003
 20
143.39998600000001
 30
0.0
 40
1.0522119999999999
 50
0.7248970000000002
 51
86.577880000000007
  0
ARC
  5
406
  8
0
 62
     7
 10
63.870593999999997
 20
156.499157
 30
0.0
 40
1.2884839999999991
 50
94.432442000000023
 51
119.8635
  0
ARC
  5
407
  8
0
 62
     7
 10
63.761468000000001
 20
156.78517600000001
 30
0.0
 40
0.9872629999999999
 50
122.637697
 51
186.27433499999989
  0
ARC
  5
408
  8
0
 62
     7
 10
63.800088999999993
 20
156.80643199999989
 30
0.0
 40
1.028114999999999
 50
187.2166059999999
 51
268.37954400000001
  0
ARC
  5
409
  8
0
 62
     7
 10
63.718615
 20
156.9686199999999
 30
0.0
 40
1.1910439999999991
 50
272.52155899999991
 51
298.75578599999989
  0
ARC
  5
40A
  8
0
 62
     7
 10
63.789554000000003
 20
156.75493199999991
 30
0.0
 40
0.9704319999999999
 50
301.154155
 51
359.52472299999999
  0
ARC
  5
40B
  8
0
 62
     7
 10
63.707836999999998
 20
156.73348499999989
 30
0.0
 40
1.0522
 50
0.729528
 51
86.557670999999999
  0
ARC
  5
40C
  8
0
 62
     7
 10
63.826533999999988
 20
149.90070099999991
 30
0.0
 40
1.2070369999999999
 50
92.636275000000012
 51
118.64653199999999
  0
ARC
  5
40D
  8
0
 62
     7
 10
63.758683999999988
 20
150.1167879999999
 30
0.0
 40
0.9858579999999999
 50
121.20737099999999
 51
185.31613499999989
  0
ARC
  5
40E
  8
0
 62
     7
 10
63.796768000000007
 20
150.1298919999999
 30
0.0
 40
1.0250360000000001
 50
185.84822500000001
 51
258.44930299999987
  0
ARC
  5
40F
  8
0
 62
     7
 10
63.86178799999999
 20
150.44222500000001
 30
0.0
 40
1.344063999999999
 50
258.39968399999992
 51
266.12751800000001
  0
ARC
  5
410
  8
0
 62
     7
 10
63.65764999999999
 20
150.37884600000001
 30
0.0
 40
1.2826349999999991
 50
275.070696
 51
299.94594000000001
  0
ARC
  5
411
  8
0
 62
     7
 10
63.644188
 20
150.08145999999999
 30
0.0
 40
1.044022
 50
308.76781599999998
 51
74.73643100000001
  0
ARC
  5
412
  8
0
 62
     7
 10
63.683626000000011
 20
149.75590600000001
 30
0.0
 40
1.3533790000000001
 50
79.982830000000007
 51
86.297756000000007
  0
ARC
  5
413
  8
0
 62
     7
 10
65.456224000000006
 20
153.27965199999991
 30
0.0
 40
1.1549869999999991
 50
91.052587000000003
 51
118.2239559999999
  0
ARC
  5
414
  8
0
 62
     7
 10
65.392693999999992
 20
153.47993600000001
 30
0.0
 40
0.9492620000000001
 50
120.562941
 51
172.58925899999991
  0
ARC
  5
415
  8
0
 62
     7
 10
65.500617000000005
 20
153.453599
 30
0.0
 40
1.0597499999999991
 50
171.92983100000001
 51
225.243458
  0
ARC
  5
416
  8
0
 62
     7
 10
65.395831000000001
 20
153.41428500000001
 30
0.0
 40
0.959192
 50
228.03575299999989
 51
265.132948
  0
ARC
  5
417
  8
0
 62
     7
 10
65.457591000000008
 20
153.73450800000001
 30
0.0
 40
1.283962
 50
263.59911899999992
 51
268.9921589999999
  0
ARC
  5
418
  8
0
 62
     7
 10
65.414631
 20
153.60484899999989
 30
0.0
 40
1.1542829999999991
 50
271.01149199999992
 51
298.20291999999989
  0
ARC
  5
419
  8
0
 62
     7
 10
65.478587000000005
 20
153.40444099999991
 30
0.0
 40
0.9482179999999999
 50
300.52075799999989
 51
352.5991029999999
  0
ARC
  5
41A
  8
0
 62
     7
 10
65.369737000000001
 20
153.43117899999999
 30
0.0
 40
1.0596799999999991
 50
351.92351699999989
 51
45.252377999999993
  0
ARC
  5
41B
  8
0
 62
     7
 10
65.473534999999984
 20
153.469765
 30
0.0
 40
0.960332
 50
48.031100000000002
 51
85.098334999999992
  0
ARC
  5
41C
  8
0
 62
     7
 10
65.411559999999994
 20
153.14569
 30
0.0
 40
1.2889679999999999
 50
83.584259000000003
 51
88.957689999999985
  0
ARC
  5
41D
  8
0
 62
     7
 10
68.79383399999999
 20
153.27478600000001
 30
0.0
 40
1.1600589999999991
 50
91.506506999999985
 51
118.4827429999999
  0
ARC
  5
41E
  8
0
 62
     7
 10
68.727018999999999
 20
153.47671099999999
 30
0.0
 40
0.951453
 50
120.745721
 51
172.45569499999999
  0
ARC
  5
41F
  8
0
 62
     7
 10
68.825839999999999
 20
153.453765
 30
0.0
 40
1.0524770000000001
 50
171.92362199999991
 51
226.63588100000001
  0
ARC
  5
420
  8
0
 62
     7
 10
68.737356000000005
 20
153.42908700000001
 30
0.0
 40
0.9749329999999998
 50
229.42168100000001
 51
266.18833099999989
  0
ARC
  5
421
  8
0
 62
     7
 10
68.798929000000001
 20
153.774575
 30
0.0
 40
1.324308
 50
264.52371599999998
 51
268.45984800000002
  0
ARC
  5
422
  8
0
 62
     7
 10
68.739380000000011
 20
153.633499
 30
0.0
 40
1.182995999999999
 50
271.16028599999993
 51
297.954993
  0
ARC
  5
423
  8
0
 62
     7
 10
68.804970999999995
 20
153.41923399999999
 30
0.0
 40
0.963922
 50
300.4823449999999
 51
358.65018300000003
  0
ARC
  5
424
  8
0
 62
     7
 10
68.737292999999994
 20
153.43294399999999
 30
0.0
 40
1.0319750000000001
 50
357.97766799999999
 51
51.721772999999999
  0
ARC
  5
425
  8
0
 62
     7
 10
68.794981000000007
 20
153.43382099999999
 30
0.0
 40
0.996555
 50
54.295070999999979
 51
84.805519000000004
  0
ARC
  5
426
  8
0
 62
     7
 10
68.735841000000008
 20
153.10975300000001
 30
0.0
 40
1.324975999999999
 50
83.527256000000008
 51
88.810982999999993
  0
ARC
  5
427
  8
0
 62
     7
 10
72.108568000000005
 20
153.2994379999999
 30
0.0
 40
1.1350129999999989
 50
89.792511000000005
 51
117.61126299999989
  0
ARC
  5
428
  8
0
 62
     7
 10
72.043953999999999
 20
153.50180700000001
 30
0.0
 40
0.9264659999999999
 50
119.871387
 51
165.04102499999999
  0
ARC
  5
429
  8
0
 62
     7
 10
72.202280999999985
 20
153.448103
 30
0.0
 40
1.093345999999999
 50
164.463808
 51
213.1027259999999
  0
ARC
  5
42A
  8
0
 62
     7
 10
72.041500999999997
 20
153.37901599999989
 30
0.0
 40
0.9214159999999999
 50
214.96449699999999
 51
259.72228200000001
  0
ARC
  5
42B
  8
0
 62
     7
 10
72.102694999999997
 20
153.63516799999991
 30
0.0
 40
1.184464999999999
 50
259.02037300000001
 51
270.48290600000001
  0
ARC
  5
42C
  8
0
 62
     7
 10
72.098219
 20
153.5711409999999
 30
0.0
 40
1.120488999999999
 50
270.739372
 51
298.42417599999987
  0
ARC
  5
42D
  8
0
 62
     7
 10
72.158090999999999
 20
153.3857209999999
 30
0.0
 40
0.9296049999999999
 50
300.61914899999999
 51
346.52719300000001
  0
ARC
  5
42E
  8
0
 62
     7
 10
72.003831999999989
 20
153.436184
 30
0.0
 40
1.091454999999999
 50
345.83770199999992
 51
34.024878999999999
  0
ARC
  5
42F
  8
0
 62
     7
 10
72.161218999999988
 20
153.50449
 30
0.0
 40
0.923329
 50
35.977156000000001
 51
80.337607999999989
  0
ARC
  5
430
  8
0
 62
     7
 10
72.100414000000001
 20
153.24805499999999
 30
0.0
 40
1.1864520000000001
 50
79.521365000000003
 51
89.407747000000015
  0
ARC
  5
431
  8
0
 62
     7
 10
75.449842000000004
 20
153.29841699999989
 30
0.0
 40
1.1360639999999991
 50
90.463041000000004
 51
118.055076
  0
ARC
  5
432
  8
0
 62
     7
 10
75.384922000000003
 20
153.49647999999999
 30
0.0
 40
0.9314309999999998
 50
120.261568
 51
166.3337019999999
  0
ARC
  5
433
  8
0
 62
     7
 10
75.529077000000001
 20
153.451865
 30
0.0
 40
1.0820860000000001
 50
165.8416179999999
 51
219.47421099999991
  0
ARC
  5
434
  8
0
 62
     7
 10
75.389825000000002
 20
153.3929959999999
 30
0.0
 40
0.9381619999999999
 50
222.1064549999999
 51
265.73635000000002
  0
ARC
  5
435
  8
0
 62
     7
 10
75.450655999999995
 20
153.721802
 30
0.0
 40
1.271096
 50
264.10362900000001
 51
269.54948100000001
  0
ARC
  5
436
  8
0
 62
     7
 10
75.41013199999999
 20
153.6118139999999
 30
0.0
 40
1.16147
 50
271.50620199999997
 51
298.45062899999999
  0
ARC
  5
437
  8
0
 62
     7
 10
75.477581999999998
 20
153.407792
 30
0.0
 40
0.9507100000000001
 50
300.73484300000001
 51
352.47642699999989
  0
ARC
  5
438
  8
0
 62
     7
 10
75.377521999999985
 20
153.43092899999991
 30
0.0
 40
1.0529850000000001
 50
351.94118900000001
 51
46.632218000000002
  0
ARC
  5
439
  8
0
 62
     7
 10
75.46615899999999
 20
153.45601600000001
 30
0.0
 40
0.975026
 50
49.407437000000002
 51
86.162880000000001
  0
ARC
  5
43A
  8
0
 62
     7
 10
75.405597
 20
153.12527900000001
 30
0.0
 40
1.3096350000000001
 50
84.487343999999993
 51
88.465770999999989
  0
ARC
  5
43B
  8
0
 62
     7
 10
67.180074000000005
 20
149.869212
 30
0.0
 40
1.239879
 50
93.733244999999997
 51
119.0295279999999
  0
ARC
  5
43C
  8
0
 62
     7
 10
67.207533999999995
 20
150.1235979999999
 30
0.0
 40
1.0412709999999989
 50
127.1704949999999
 51
249.192812
  0
ARC
  5
43D
  8
0
 62
     7
 10
67.209661999999994
 20
150.41355100000001
 30
0.0
 40
1.316948999999999
 50
253.59167400000001
 51
265.19479799999999
  0
ARC
  5
43E
  8
0
 62
     7
 10
67.013287000000005
 20
150.346101
 30
0.0
 40
1.2478419999999999
 50
273.95449200000002
 51
299.51848899999987
  0
ARC
  5
43F
  8
0
 62
     7
 10
66.978798999999995
 20
150.082076
 30
0.0
 40
1.0473879999999991
 50
308.31083699999999
 51
73.497046999999995
  0
ARC
  5
440
  8
0
 62
     7
 10
67.041806999999991
 20
149.81336399999989
 30
0.0
 40
1.2943759999999991
 50
79.561351999999999
 51
87.452306000000021
  0
ARC
  5
441
  8
0
 62
     7
 10
70.493241999999995
 20
149.906745
 30
0.0
 40
1.2015439999999991
 50
93.161214999999984
 51
119.070536
  0
ARC
  5
442
  8
0
 62
     7
 10
70.434709999999995
 20
150.11115699999999
 30
0.0
 40
0.9956089999999999
 50
121.84330899999991
 51
191.37624099999991
  0
ARC
  5
443
  8
0
 62
     7
 10
70.453693999999999
 20
150.12236799999999
 30
0.0
 40
1.0164569999999991
 50
191.78470100000001
 51
260.03212300000001
  0
ARC
  5
444
  8
0
 62
     7
 10
70.532915000000003
 20
150.45677499999991
 30
0.0
 40
1.359677
 50
259.18336799999997
 51
265.53153199999991
  0
ARC
  5
445
  8
0
 62
     7
 10
70.352320999999989
 20
150.35122200000001
 30
0.0
 40
1.2522200000000001
 50
273.41819099999998
 51
299.09296799999998
  0
ARC
  5
446
  8
0
 62
     7
 10
70.305432999999994
 20
150.0741129999999
 30
0.0
 40
1.0477110000000001
 50
308.74759899999998
 51
78.256384999999995
  0
ARC
  5
447
  8
0
 62
     7
 10
70.373867000000004
 20
149.72144399999999
 30
0.0
 40
1.3860349999999999
 50
84.002956999999995
 51
87.803799000000012
  0
ARC
  5
448
  8
0
 62
     7
 10
73.85556600000001
 20
149.833482
 30
0.0
 40
1.2754430000000001
 50
93.561959999999999
 51
118.604584
  0
ARC
  5
449
  8
0
 62
     7
 10
73.866272999999993
 20
150.1217419999999
 30
0.0
 40
1.0380119999999999
 50
126.768771
 51
248.49089799999999
  0
ARC
  5
44A
  8
0
 62
     7
 10
73.871369000000001
 20
150.40369799999991
 30
0.0
 40
1.305931999999999
 50
252.82258899999999
 51
265.82640199999997
  0
ARC
  5
44B
  8
0
 62
     7
 10
73.662937999999997
 20
150.37980400000001
 30
0.0
 40
1.2835920000000001
 50
275.06785400000001
 51
299.93434499999989
  0
ARC
  5
44C
  8
0
 62
     7
 10
73.649818999999994
 20
150.081444
 30
0.0
 40
1.043954
 50
308.764522
 51
74.753360000000001
  0
ARC
  5
44D
  8
0
 62
     7
 10
73.688896999999997
 20
149.755515
 30
0.0
 40
1.3537719999999991
 50
79.983881000000011
 51
86.297197999999995
  0
ARC
  5
44E
  8
0
 62
     7
 10
77.160177000000004
 20
149.9005939999999
 30
0.0
 40
1.2071439999999991
 50
92.636331999999996
 51
118.645251
  0
ARC
  5
44F
  8
0
 62
     7
 10
77.101268999999974
 20
150.111188
 30
0.0
 40
0.9953059999999998
 50
121.48194100000001
 51
191.45932899999991
  0
ARC
  5
450
  8
0
 62
     7
 10
77.118274999999997
 20
150.12098399999999
 30
0.0
 40
1.013938999999999
 50
191.81093799999991
 51
259.01768299999998
  0
ARC
  5
451
  8
0
 62
     7
 10
77.19547
 20
150.443028
 30
0.0
 40
1.3448679999999991
 50
258.40291999999988
 51
266.127948
  0
ARC
  5
452
  8
0
 62
     7
 10
77.002923999999993
 20
150.36629500000001
 30
0.0
 40
1.2691490000000001
 50
274.59747700000003
 51
299.65576600000003
  0
ARC
  5
453
  8
0
 62
     7
 10
76.984232999999989
 20
150.08286000000001
 30
0.0
 40
1.043884
 50
308.27719200000001
 51
73.342306000000008
  0
ARC
  5
454
  8
0
 62
     7
 10
77.016842000000011
 20
149.74760699999999
 30
0.0
 40
1.361688
 50
78.708331999999984
 51
86.302610999999999
  0
ARC
  5
455
  8
0
 62
     7
 10
67.18146800000001
 20
156.5692249999999
 30
0.0
 40
1.2173359999999991
 50
93.868281999999994
 51
119.793397
  0
ARC
  5
456
  8
0
 62
     7
 10
67.250337999999999
 20
156.818904
 30
0.0
 40
1.0510779999999991
 50
129.86582899999991
 51
261.74046099999993
  0
ARC
  5
457
  8
0
 62
     7
 10
67.087331000000006
 20
156.86512999999991
 30
0.0
 40
1.0864679999999991
 50
270.63351099999988
 51
303.54573499999998
  0
ARC
  5
458
  8
0
 62
     7
 10
67.108896999999999
 20
156.75688
 30
0.0
 40
0.985219
 50
305.97997700000002
 51
358.01254799999992
  0
ARC
  5
459
  8
0
 62
     7
 10
67.065481999999989
 20
156.75247999999991
 30
0.0
 40
1.0284719999999989
 50
358.34144399999991
 51
76.024729000000008
  0
ARC
  5
45A
  8
0
 62
     7
 10
66.996105
 20
156.410222
 30
0.0
 40
1.377438999999999
 50
76.662529000000006
 51
85.701679999999996
  0
ARC
  5
45B
  8
0
 62
     7
 10
70.491352000000006
 20
156.61231100000001
 30
0.0
 40
1.173243
 50
93.145103999999989
 51
119.79538700000001
  0
ARC
  5
45C
  8
0
 62
     7
 10
70.434436000000005
 20
156.79285300000001
 30
0.0
 40
0.989108
 50
122.131647
 51
180.02310499999999
  0
ARC
  5
45D
  8
0
 62
     7
 10
70.485306000000008
 20
156.777806
 30
0.0
 40
1.040081
 50
179.193017
 51
228.20752799999991
  0
ARC
  5
45E
  8
0
 62
     7
 10
70.400075999999999
 20
156.7434189999999
 30
0.0
 40
0.9585049999999998
 50
230.63680899999989
 51
261.10626999999999
  0
ARC
  5
45F
  8
0
 62
     7
 10
70.463572999999997
 20
157.0148889999999
 30
0.0
 40
1.2367019999999991
 50
260.14425
 51
268.30449399999992
  0
ARC
  5
460
  8
0
 62
     7
 10
70.411442000000008
 20
156.94099
 30
0.0
 40
1.162366
 50
270.766009
 51
297.88779899999997
  0
ARC
  5
461
  8
0
 62
     7
 10
70.477489000000006
 20
156.73333700000001
 30
0.0
 40
0.948728
 50
300.22877299999988
 51
352.45501300000001
  0
ARC
  5
462
  8
0
 62
     7
 10
70.358068000000003
 20
156.7612959999999
 30
0.0
 40
1.0708530000000001
 50
351.81103400000001
 51
45.109219999999993
  0
ARC
  5
463
  8
0
 62
     7
 10
70.446365999999998
 20
156.789524
 30
0.0
 40
0.989456
 50
47.578682000000001
 51
84.059714
  0
ARC
  5
464
  8
0
 62
     7
 10
70.378485999999995
 20
156.46233699999999
 30
0.0
 40
1.3223400000000001
 50
82.601311999999993
 51
87.898212999999984
  0
ARC
  5
465
  8
0
 62
     7
 10
73.897062000000005
 20
156.4416249999999
 30
0.0
 40
1.3475820000000001
 50
95.140338000000014
 51
119.7608909999999
  0
ARC
  5
466
  8
0
 62
     7
 10
73.902861000000001
 20
156.81492600000001
 30
0.0
 40
1.0438940000000001
 50
130.26640900000001
 51
263.0377509999999
  0
ARC
  5
467
  8
0
 62
     7
 10
73.723924999999994
 20
156.9686199999999
 30
0.0
 40
1.1910439999999991
 50
272.52155899999991
 51
298.75578599999989
  0
ARC
  5
468
  8
0
 62
     7
 10
73.794864000000004
 20
156.75493199999991
 30
0.0
 40
0.9704319999999999
 50
301.154155
 51
359.52472299999999
  0
ARC
  5
469
  8
0
 62
     7
 10
73.713146999999992
 20
156.73348499999989
 30
0.0
 40
1.0522
 50
0.729528
 51
86.557670999999999
  0
ARC
  5
46A
  8
0
 62
     7
 10
77.204257999999996
 20
156.49861799999999
 30
0.0
 40
1.289023
 50
94.431745999999976
 51
119.85714400000001
  0
ARC
  5
46B
  8
0
 62
     7
 10
77.094892999999999
 20
156.78521599999991
 30
0.0
 40
0.987179
 50
122.6343379999999
 51
186.27716000000001
  0
ARC
  5
46C
  8
0
 62
     7
 10
77.133718999999999
 20
156.8065639999999
 30
0.0
 40
1.0282459999999991
 50
187.223086
 51
268.38018799999992
  0
ARC
  5
46D
  8
0
 62
     7
 10
77.059269
 20
156.969313
 30
0.0
 40
1.1914489999999991
 50
272.18299599999989
 51
298.50138299999998
  0
ARC
  5
46E
  8
0
 62
     7
 10
77.131041999999994
 20
156.75185999999999
 30
0.0
 40
0.9669579999999999
 50
300.91307799999998
 51
358.34026999999998
  0
ARC
  5
46F
  8
0
 62
     7
 10
77.043731000000008
 20
156.73165599999999
 30
0.0
 40
1.0538929999999991
 50
359.57578599999988
 51
86.686070999999998
  0
ARC
  5
470
  8
0
 62
     7
 10
62.131717000000002
 20
153.25128199999989
 30
0.0
 40
1.1834119999999999
 50
91.178946999999994
 51
117.978562
  0
ARC
  5
471
  8
0
 62
     7
 10
62.065860000000001
 20
153.46544399999991
 30
0.0
 40
0.9643139999999998
 50
120.49340699999991
 51
178.65101100000001
  0
ARC
  5
472
  8
0
 62
     7
 10
62.132684999999988
 20
153.451865
 30
0.0
 40
1.031509999999999
 50
177.98433299999999
 51
231.748469
  0
ARC
  5
473
  8
0
 62
     7
 10
62.075161999999999
 20
153.45108500000001
 30
0.0
 40
0.996287
 50
234.31941499999991
 51
264.83643599999988
  0
ARC
  5
474
  8
0
 62
     7
 10
62.134188000000002
 20
153.77579700000001
 30
0.0
 40
1.325323
 50
263.55829399999988
 51
268.84045200000003
  0
ARC
  5
475
  8
0
 62
     7
 10
62.076833999999998
 20
153.61138399999999
 30
0.0
 40
1.1610409999999991
 50
271.50698999999992
 51
298.456028
  0
ARC
  5
476
  8
0
 62
     7
 10
62.144110999999988
 20
153.407792
 30
0.0
 40
0.9507429999999999
 50
300.73827399999999
 51
352.476721
  0
ARC
  5
477
  8
0
 62
     7
 10
62.044252999999998
 20
153.431074
 30
0.0
 40
1.052837
 50
351.93211099999991
 51
46.629259000000012
  0
ARC
  5
478
  8
0
 62
     7
 10
62.132906999999989
 20
153.45621799999989
 30
0.0
 40
0.9748210000000001
 50
49.403230000000008
 51
86.164810999999986
  0
ARC
  5
479
  8
0
 62
     7
 10
62.072317000000012
 20
153.12560199999999
 30
0.0
 40
1.3093109999999999
 50
84.486761000000001
 51
88.465937999999994
  0
ARC
  5
47A
  8
0
 62
     7
 10
60.500569999999989
 20
149.8643239999999
 30
0.0
 40
1.2434849999999991
 50
92.667979000000017
 51
118.362904
  0
ARC
  5
47B
  8
0
 62
     7
 10
60.423811000000001
 20
150.1119709999999
 30
0.0
 40
0.99037
 50
121.262671
 51
190.59365500000001
  0
ARC
  5
47C
  8
0
 62
     7
 10
60.44845999999999
 20
150.12406299999989
 30
0.0
 40
1.0168479999999991
 50
191.00806999999989
 51
257.86327899999992
  0
ARC
  5
47D
  8
0
 62
     7
 10
60.517752000000002
 20
150.41290000000001
 30
0.0
 40
1.3138160000000001
 50
257.55729400000001
 51
266.72466099999991
  0
ARC
  5
47E
  8
0
 62
     7
 10
60.329289000000003
 20
150.37992600000001
 30
0.0
 40
1.283714
 50
275.06791199999998
 51
299.93294500000002
  0
ARC
  5
47F
  8
0
 62
     7
 10
60.316204000000013
 20
150.08144699999991
 30
0.0
 40
1.0439549999999991
 50
308.76439099999999
 51
74.752518000000009
  0
ARC
  5
480
  8
0
 62
     7
 10
60.355223000000002
 20
149.75471200000001
 30
0.0
 40
1.3545750000000001
 50
79.986690999999993
 51
86.297845999999979
  0
ARC
  5
481
  8
0
 62
     7
 10
60.502589999999998
 20
156.56869499999991
 30
0.0
 40
1.2165669999999991
 50
92.822330000000008
 51
119.085605
  0
ARC
  5
482
  8
0
 62
     7
 10
60.435651999999997
 20
156.78130100000001
 30
0.0
 40
0.9992399999999999
 50
121.658357
 51
184.64609100000001
  0
ARC
  5
483
  8
0
 62
     7
 10
60.456986000000001
 20
156.80087199999991
 30
0.0
 40
1.0222439999999999
 50
185.64263600000001
 51
269.19857400000001
  0
ARC
  5
484
  8
0
 62
     7
 10
60.390281000000009
 20
156.96925699999991
 30
0.0
 40
1.1916809999999991
 50
272.5205259999999
 51
298.7479009999999
  0
ARC
  5
485
  8
0
 62
     7
 10
60.461550000000003
 20
156.75510299999991
 30
0.0
 40
0.9704919999999999
 50
301.140466
 51
359.5146279999999
  0
ARC
  5
486
  8
0
 62
     7
 10
60.380006000000009
 20
156.7335699999999
 30
0.0
 40
1.052084999999999
 50
0.724958
 51
86.584355000000016
  0
ARC
  5
487
  8
0
 62
     7
 10
68.850672000000003
 20
158.448487
 30
0.0
 40
17.923655
 50
95.814301
 51
175.98404600000001
  0
ARC
  5
488
  8
0
 62
     7
 10
72.028082999999995
 20
158.47450000000001
 30
0.0
 40
17.897462000000001
 50
3.938342
 51
84.187073999999996
  0
LINE
  5
489
  8
0
 62
     7
 10
84.933999999999983
 20
104.10899999999999
 30
0.0
 11
85.275400000000005
 21
105.6019999999999
 31
0.0
  0
LINE
  5
48A
  8
0
 62
     7
 10
85.275400000000005
 20
105.6019999999999
 30
0.0
 11
85.488699999999994
 21
107.117
 31
0.0
  0
ARC
  5
48B
  8
0
 62
     7
 10
39.594928000000003
 20
101.84780600000001
 30
0.0
 40
53.509605999999998
 50
359.908725
 51
16.395866999999999
  0
ARC
  5
48C
  8
0
 62
     7
 10
306.00924300000003
 20
130.108273
 30
0.0
 40
217.598139
 50
180.04899800000001
 51
186.47201699999999
  0
ARC
  5
48D
  8
0
 62
     7
 10
-133.90430799999999
 20
128.276534
 30
0.0
 40
222.281194
 50
353.14937900000001
 51
357.979715
  0
ARC
  5
48E
  8
0
 62
     7
 10
-163.13926000000001
 20
129.75520399999999
 30
0.0
 40
251.550498
 50
357.87787400000002
 51
0.038051
  0
LINE
  5
48F
  8
0
 62
     7
 10
128.49399999999989
 20
181.01599999999991
 30
0.0
 11
128.34499999999991
 21
180.9729999999999
 31
0.0
  0
LINE
  5
490
  8
0
 62
     7
 10
128.34499999999991
 20
180.9729999999999
 30
0.0
 11
128.21700000000001
 21
180.845
 31
0.0
  0
LINE
  5
491
  8
0
 62
     7
 10
128.21700000000001
 20
180.845
 30
0.0
 11
128.17400000000001
 21
180.696
 31
0.0
  0
LINE
  5
492
  8
0
 62
     7
 10
128.17400000000001
 20
180.696
 30
0.0
 11
128.21700000000001
 21
180.52500000000001
 31
0.0
  0
LINE
  5
493
  8
0
 62
     7
 10
128.21700000000001
 20
180.52500000000001
 30
0.0
 11
128.34499999999991
 21
180.39699999999999
 31
0.0
  0
LINE
  5
494
  8
0
 62
     7
 10
128.34499999999991
 20
180.39699999999999
 30
0.0
 11
128.49399999999989
 21
180.3549999999999
 31
0.0
  0
LINE
  5
495
  8
0
 62
     7
 10
128.49399999999989
 20
180.3549999999999
 30
0.0
 11
128.66399999999999
 21
180.39699999999999
 31
0.0
  0
LINE
  5
496
  8
0
 62
     7
 10
128.66399999999999
 20
180.39699999999999
 30
0.0
 11
128.79300000000001
 21
180.52500000000001
 31
0.0
  0
LINE
  5
497
  8
0
 62
     7
 10
128.79300000000001
 20
180.52500000000001
 30
0.0
 11
128.83500000000001
 21
180.696
 31
0.0
  0
LINE
  5
498
  8
0
 62
     7
 10
128.83500000000001
 20
180.696
 30
0.0
 11
128.79300000000001
 21
180.845
 31
0.0
  0
LINE
  5
499
  8
0
 62
     7
 10
128.79300000000001
 20
180.845
 30
0.0
 11
128.66399999999999
 21
180.9729999999999
 31
0.0
  0
LINE
  5
49A
  8
0
 62
     7
 10
128.66399999999999
 20
180.9729999999999
 30
0.0
 11
128.49399999999989
 21
181.01599999999991
 31
0.0
  0
LINE
  5
49B
  8
0
 62
     7
 10
128.45099999999999
 20
181.357
 30
0.0
 11
128.2589999999999
 21
181.315
 31
0.0
  0
LINE
  5
49C
  8
0
 62
     7
 10
128.2589999999999
 20
181.315
 30
0.0
 11
128.089
 21
181.20799999999991
 31
0.0
  0
LINE
  5
49D
  8
0
 62
     7
 10
128.089
 20
181.20799999999991
 30
0.0
 11
127.9609999999999
 21
181.059
 31
0.0
  0
LINE
  5
49E
  8
0
 62
     7
 10
127.9609999999999
 20
181.059
 30
0.0
 11
127.876
 21
180.88800000000001
 31
0.0
  0
LINE
  5
49F
  8
0
 62
     7
 10
127.876
 20
180.88800000000001
 30
0.0
 11
127.8329999999999
 21
180.696
 31
0.0
  0
LINE
  5
4A0
  8
0
 62
     7
 10
128.4729999999999
 20
181.01599999999991
 30
0.0
 11
128.30199999999999
 21
180.952
 31
0.0
  0
LINE
  5
4A1
  8
0
 62
     7
 10
128.30199999999999
 20
180.952
 30
0.0
 11
128.19499999999991
 21
180.8239999999999
 31
0.0
  0
LINE
  5
4A2
  8
0
 62
     7
 10
128.19499999999991
 20
180.8239999999999
 30
0.0
 11
128.17400000000001
 21
180.654
 31
0.0
  0
LINE
  5
4A3
  8
0
 62
     7
 10
128.17400000000001
 20
180.654
 30
0.0
 11
128.239
 21
179.99199999999999
 31
0.0
  0
LINE
  5
4A4
  8
0
 62
     7
 10
128.239
 20
179.99199999999999
 30
0.0
 11
128.36600000000001
 21
179.352
 31
0.0
  0
LINE
  5
4A5
  8
0
 62
     7
 10
128.45099999999999
 20
181.357
 30
0.0
 11
129.83799999999991
 21
181.4429999999999
 31
0.0
  0
LINE
  5
4A6
  8
0
 62
     7
 10
128.4729999999999
 20
181.01599999999991
 30
0.0
 11
129.83799999999991
 21
181.10099999999991
 31
0.0
  0
ARC
  5
4A7
  8
0
 62
     7
 10
128.223558
 20
177.264017
 30
0.0
 40
1.546368
 50
8.6301649999999999
 51
50.226271999999987
  0
ARC
  5
4A8
  8
0
 62
     7
 10
128.168081
 20
177.23845299999999
 30
0.0
 40
1.601723999999999
 50
49.286037
 51
76.709761999999998
  0
LINE
  5
4A9
  8
0
 62
     7
 10
128.04599999999991
 20
179.267
 30
0.0
 11
128.15299999999991
 21
179.05299999999991
 31
0.0
  0
LINE
  5
4AA
  8
0
 62
     7
 10
128.15299999999991
 20
179.05299999999991
 30
0.0
 11
128.32299999999989
 21
178.8829999999999
 31
0.0
  0
LINE
  5
4AB
  8
0
 62
     7
 10
128.32299999999989
 20
178.8829999999999
 30
0.0
 11
128.536
 21
178.797
 31
0.0
  0
LINE
  5
4AC
  8
0
 62
     7
 10
129.81599999999989
 20
176.96299999999999
 30
0.0
 11
129.75200000000001
 21
177.4959999999999
 31
0.0
  0
ARC
  5
4AD
  8
0
 62
     7
 10
125.81837899999999
 20
176.655472
 30
0.0
 40
4.3516129999999986
 50
4.3312089999999994
 51
13.056414
  0
ARC
  5
4AE
  8
0
 62
     7
 10
127.637671
 20
177.041515
 30
0.0
 40
2.4923860000000002
 50
13.859527999999999
 51
26.089808999999999
  0
ARC
  5
4AF
  8
0
 62
     7
 10
128.25980300000001
 20
177.31870900000001
 30
0.0
 40
1.8119089999999991
 50
26.869336999999991
 51
63.888933999999999
  0
ARC
  5
4B0
  8
0
 62
     7
 10
127.90089
 20
176.64980999999989
 30
0.0
 40
2.570654999999999
 50
63.267234000000002
 51
73.715244999999996
  0
LINE
  5
4B1
  8
0
 62
     7
 10
129.83799999999991
 20
178.22099999999989
 30
0.0
 11
129.83799999999991
 21
181.4429999999999
 31
0.0
  0
LINE
  5
4B2
  8
0
 62
     7
 10
129.83799999999991
 20
181.4429999999999
 30
0.0
 11
129.83799999999991
 21
178.22099999999989
 31
0.0
  0
LINE
  5
4B3
  8
0
 62
     7
 10
127.8329999999999
 20
180.696
 30
0.0
 11
127.89700000000001
 21
179.97099999999989
 31
0.0
  0
LINE
  5
4B4
  8
0
 62
     7
 10
127.89700000000001
 20
179.97099999999989
 30
0.0
 11
128.04599999999991
 21
179.267
 31
0.0
  0
LINE
  5
4B5
  8
0
 62
     7
 10
128.36600000000001
 20
179.352
 30
0.0
 11
128.45099999999999
 21
179.20199999999991
 31
0.0
  0
LINE
  5
4B6
  8
0
 62
     7
 10
128.45099999999999
 20
179.20199999999991
 30
0.0
 11
128.62200000000001
 21
179.11699999999999
 31
0.0
  0
LINE
  5
4B7
  8
0
 62
     7
 10
55.387
 20
107.117
 30
0.0
 11
55.6006
 21
105.6019999999999
 31
0.0
  0
LINE
  5
4B8
  8
0
 62
     7
 10
55.6006
 20
105.6019999999999
 30
0.0
 11
55.942
 21
104.10899999999999
 31
0.0
  0
ARC
  5
4B9
  8
0
 62
     7
 10
102.36750599999991
 20
101.7805529999999
 30
0.0
 40
54.596306999999989
 50
163.60982799999999
 51
180.018899
  0
ARC
  5
4BA
  8
0
 62
     7
 10
-147.05015
 20
128.50861099999989
 30
0.0
 40
199.450154
 50
353.3990609999999
 51
357.06729300000001
  0
ARC
  5
4BB
  8
0
 62
     7
 10
-181.183581
 20
130.65863100000001
 30
0.0
 40
233.64922599999991
 50
356.96899999999999
 51
359.81942599999991
  0
ARC
  5
4BC
  8
0
 62
     7
 10
304.13741900000002
 20
129.861786
 30
0.0
 40
251.67294099999989
 50
179.98621199999999
 51
183.951334
  0
ARC
  5
4BD
  8
0
 62
     7
 10
275.70501200000001
 20
128.26716999999991
 30
0.0
 40
223.19853999999989
 50
184.04590799999991
 51
186.81992899999989
  0
LINE
  5
4BE
  8
0
 62
     7
 10
128.17400000000001
 20
180.696
 30
0.0
 11
128.49399999999989
 21
181.01599999999991
 31
0.0
  0
LINE
  5
4BF
  8
0
 62
     7
 10
128.239
 20
180.483
 30
0.0
 11
128.70699999999991
 21
180.952
 31
0.0
  0
LINE
  5
4C0
  8
0
 62
     7
 10
128.42999999999989
 20
180.3549999999999
 30
0.0
 11
128.83500000000001
 21
180.75999999999991
 31
0.0
  0
LINE
  5
4C1
  8
0
 62
     7
 10
129.81599999999989
 20
176.96299999999999
 30
0.0
 11
129.85900000000001
 21
176.75
 31
0.0
  0
LINE
  5
4C2
  8
0
 62
     7
 10
129.85900000000001
 20
176.75
 30
0.0
 11
129.98699999999999
 21
176.55699999999999
 31
0.0
  0
LINE
  5
4C3
  8
0
 62
     7
 10
129.98699999999999
 20
176.55699999999999
 30
0.0
 11
130.1579999999999
 21
176.429
 31
0.0
  0
LINE
  5
4C4
  8
0
 62
     7
 10
130.1579999999999
 20
176.429
 30
0.0
 11
130.37
 21
176.34399999999999
 31
0.0
  0
LINE
  5
4C5
  8
0
 62
     7
 10
130.1579999999999
 20
176.98400000000001
 30
0.0
 11
130.1999999999999
 21
176.83500000000001
 31
0.0
  0
LINE
  5
4C6
  8
0
 62
     7
 10
130.1999999999999
 20
176.83500000000001
 30
0.0
 11
130.286
 21
176.72799999999989
 31
0.0
  0
LINE
  5
4C7
  8
0
 62
     7
 10
130.286
 20
176.72799999999989
 30
0.0
 11
130.4129999999999
 21
176.68499999999989
 31
0.0
  0
LINE
  5
4C8
  8
0
 62
     7
 10
134.80600000000001
 20
175.874
 30
0.0
 11
134.74199999999999
 21
175.55500000000001
 31
0.0
  0
LINE
  5
4C9
  8
0
 62
     7
 10
130.8609999999999
 20
176.59999999999999
 30
0.0
 11
130.798
 21
176.25899999999999
 31
0.0
  0
LINE
  5
4CA
  8
0
 62
     7
 10
130.47699999999989
 20
176.32299999999989
 30
0.0
 11
129.81599999999989
 21
176.98400000000001
 31
0.0
  0
LINE
  5
4CB
  8
0
 62
     7
 10
130.8179999999999
 20
176.28
 30
0.0
 11
130.4129999999999
 21
176.68499999999989
 31
0.0
  0
LINE
  5
4CC
  8
0
 62
     7
 10
130.1579999999999
 20
176.94099999999989
 30
0.0
 11
129.774
 21
177.32599999999999
 31
0.0
  0
LINE
  5
4CD
  8
0
 62
     7
 10
130.8609999999999
 20
176.53599999999989
 30
0.0
 11
130.77600000000001
 21
176.6209999999999
 31
0.0
  0
LINE
  5
4CE
  8
0
 62
     7
 10
128.62200000000001
 20
178.7759999999999
 30
0.0
 11
128.02500000000001
 21
179.37299999999999
 31
0.0
  0
LINE
  5
4CF
  8
0
 62
     7
 10
130.11500000000001
 20
177.2829999999999
 30
0.0
 11
129.71000000000001
 21
177.68799999999999
 31
0.0
  0
LINE
  5
4D0
  8
0
 62
     7
 10
130.072
 20
177.624
 30
0.0
 11
128.55799999999991
 21
179.1389999999999
 31
0.0
  0
LINE
  5
4D1
  8
0
 62
     7
 10
128.387
 20
179.309
 30
0.0
 11
127.94
 21
179.75700000000001
 31
0.0
  0
LINE
  5
4D2
  8
0
 62
     7
 10
129.90199999999999
 20
178.0929999999999
 30
0.0
 11
129.02699999999999
 21
178.9679999999999
 31
0.0
  0
LINE
  5
4D3
  8
0
 62
     7
 10
128.28100000000001
 20
179.715
 30
0.0
 11
127.876
 21
180.12
 31
0.0
  0
LINE
  5
4D4
  8
0
 62
     7
 10
128.21700000000001
 20
180.07699999999991
 30
0.0
 11
127.855
 21
180.44
 31
0.0
  0
LINE
  5
4D5
  8
0
 62
     7
 10
128.19499999999991
 20
180.41900000000001
 30
0.0
 11
127.8329999999999
 21
180.75999999999991
 31
0.0
  0
LINE
  5
4D6
  8
0
 62
     7
 10
128.17400000000001
 20
180.7179999999999
 30
0.0
 11
127.89700000000001
 21
180.995
 31
0.0
  0
LINE
  5
4D7
  8
0
 62
     7
 10
128.2589999999999
 20
180.93000000000001
 30
0.0
 11
128.02500000000001
 21
181.16499999999999
 31
0.0
  0
LINE
  5
4D8
  8
0
 62
     7
 10
128.4729999999999
 20
181.01599999999991
 30
0.0
 11
128.21700000000001
 21
181.29300000000001
 31
0.0
  0
LINE
  5
4D9
  8
0
 62
     7
 10
128.75
 20
181.03699999999989
 30
0.0
 11
128.45099999999999
 21
181.357
 31
0.0
  0
LINE
  5
4DA
  8
0
 62
     7
 10
129.02699999999999
 20
181.059
 30
0.0
 11
128.7289999999999
 21
181.37899999999999
 31
0.0
  0
LINE
  5
4DB
  8
0
 62
     7
 10
129.32599999999991
 20
181.08000000000001
 30
0.0
 11
129.00599999999989
 21
181.40000000000001
 31
0.0
  0
LINE
  5
4DC
  8
0
 62
     7
 10
129.60299999999989
 20
181.10099999999991
 30
0.0
 11
129.2829999999999
 21
181.40000000000001
 31
0.0
  0
LINE
  5
4DD
  8
0
 62
     7
 10
129.83799999999991
 20
181.16499999999999
 30
0.0
 11
129.56
 21
181.42099999999991
 31
0.0
  0
LINE
  5
4DE
  8
0
 62
     7
 10
157.25999999999991
 20
162.94699999999989
 30
0.0
 11
157.601
 21
162.94699999999989
 31
0.0
  0
LINE
  5
4DF
  8
0
 62
     7
 10
156.5979999999999
 20
161.965
 30
0.0
 11
157.06699999999989
 21
162.43499999999989
 31
0.0
  0
LINE
  5
4E0
  8
0
 62
     7
 10
157.06699999999989
 20
162.43499999999989
 30
0.0
 11
157.19499999999999
 21
162.62700000000001
 31
0.0
  0
LINE
  5
4E1
  8
0
 62
     7
 10
157.19499999999999
 20
162.62700000000001
 30
0.0
 11
157.25999999999991
 21
162.8609999999999
 31
0.0
  0
LINE
  5
4E2
  8
0
 62
     7
 10
156.5979999999999
 20
161.965
 30
0.0
 11
156.471
 21
161.75200000000001
 31
0.0
  0
LINE
  5
4E3
  8
0
 62
     7
 10
156.471
 20
161.75200000000001
 30
0.0
 11
156.40600000000001
 21
161.51699999999991
 31
0.0
  0
LINE
  5
4E4
  8
0
 62
     7
 10
157.30199999999999
 20
162.1999999999999
 30
0.0
 11
156.83199999999991
 21
161.73099999999991
 31
0.0
  0
LINE
  5
4E5
  8
0
 62
     7
 10
156.83199999999991
 20
161.73099999999991
 30
0.0
 11
156.74700000000001
 21
161.49600000000001
 31
0.0
  0
LINE
  5
4E6
  8
0
 62
     7
 10
157.30199999999999
 20
162.1999999999999
 30
0.0
 11
157.45099999999999
 21
162.392
 31
0.0
  0
LINE
  5
4E7
  8
0
 62
     7
 10
157.45099999999999
 20
162.392
 30
0.0
 11
157.53700000000001
 21
162.60599999999999
 31
0.0
  0
LINE
  5
4E8
  8
0
 62
     7
 10
157.53700000000001
 20
162.60599999999999
 30
0.0
 11
157.57900000000001
 21
162.8179999999999
 31
0.0
  0
LINE
  5
4E9
  8
0
 62
     7
 10
156.40600000000001
 20
168.02399999999989
 30
0.0
 11
156.471
 21
167.78899999999999
 31
0.0
  0
LINE
  5
4EA
  8
0
 62
     7
 10
156.471
 20
167.78899999999999
 30
0.0
 11
156.62
 21
167.59700000000001
 31
0.0
  0
LINE
  5
4EB
  8
0
 62
     7
 10
157.34399999999991
 20
167.36299999999989
 30
0.0
 11
156.8539999999999
 21
167.83199999999999
 31
0.0
  0
LINE
  5
4EC
  8
0
 62
     7
 10
156.8539999999999
 20
167.83199999999999
 30
0.0
 11
156.74700000000001
 21
168.06700000000001
 31
0.0
  0
LINE
  5
4ED
  8
0
 62
     7
 10
156.74700000000001
 20
168.06700000000001
 30
0.0
 11
156.74700000000001
 21
168.08799999999991
 31
0.0
  0
LINE
  5
4EE
  8
0
 62
     7
 10
157.32299999999989
 20
166.6159999999999
 30
0.0
 11
157.6639999999999
 21
166.6159999999999
 31
0.0
  0
LINE
  5
4EF
  8
0
 62
     7
 10
157.32299999999989
 20
166.68000000000001
 30
0.0
 11
157.27999999999989
 21
166.91499999999991
 31
0.0
  0
LINE
  5
4F0
  8
0
 62
     7
 10
157.27999999999989
 20
166.91499999999991
 30
0.0
 11
157.13099999999989
 21
167.1279999999999
 31
0.0
  0
LINE
  5
4F1
  8
0
 62
     7
 10
157.13099999999989
 20
167.1279999999999
 30
0.0
 11
156.62
 21
167.59700000000001
 31
0.0
  0
LINE
  5
4F2
  8
0
 62
     7
 10
157.6639999999999
 20
166.68000000000001
 30
0.0
 11
157.62200000000001
 21
166.93599999999989
 31
0.0
  0
LINE
  5
4F3
  8
0
 62
     7
 10
157.62200000000001
 20
166.93599999999989
 30
0.0
 11
157.5149999999999
 21
167.17099999999999
 31
0.0
  0
LINE
  5
4F4
  8
0
 62
     7
 10
157.5149999999999
 20
167.17099999999999
 30
0.0
 11
157.34399999999991
 21
167.36299999999989
 31
0.0
  0
LINE
  5
4F5
  8
0
 62
     7
 10
153.76300000000001
 20
172.37599999999989
 30
0.0
 11
151.99299999999999
 21
172.82400000000001
 31
0.0
  0
LINE
  5
4F6
  8
0
 62
     7
 10
151.99299999999999
 20
172.82400000000001
 30
0.0
 11
150.2229999999999
 21
173.16499999999991
 31
0.0
  0
LINE
  5
4F7
  8
0
 62
     7
 10
150.2229999999999
 20
173.16499999999991
 30
0.0
 11
148.43199999999999
 21
173.422
 31
0.0
  0
LINE
  5
4F8
  8
0
 62
     7
 10
153.67699999999999
 20
172.0559999999999
 30
0.0
 11
151.92899999999989
 21
172.482
 31
0.0
  0
LINE
  5
4F9
  8
0
 62
     7
 10
151.92899999999989
 20
172.482
 30
0.0
 11
150.15899999999999
 21
172.845
 31
0.0
  0
LINE
  5
4FA
  8
0
 62
     7
 10
150.15899999999999
 20
172.845
 30
0.0
 11
148.38900000000001
 21
173.08000000000001
 31
0.0
  0
LINE
  5
4FB
  8
0
 62
     7
 10
130.37
 20
176.34399999999999
 30
0.0
 11
148.38900000000001
 21
173.08000000000001
 31
0.0
  0
LINE
  5
4FC
  8
0
 62
     7
 10
130.4129999999999
 20
176.68499999999989
 30
0.0
 11
148.453
 21
173.422
 31
0.0
  0
ARC
  5
4FD
  8
0
 62
     7
 10
151.9247179999999
 20
167.84066899999991
 30
0.0
 40
4.827558999999999
 50
2.6844919999999992
 51
35.141956999999998
  0
ARC
  5
4FE
  8
0
 62
     7
 10
151.68798199999989
 20
167.7337169999999
 30
0.0
 40
5.0829399999999989
 50
34.591771999999999
 51
65.379846999999984
  0
ARC
  5
4FF
  8
0
 62
     7
 10
151.976225
 20
167.90997599999989
 30
0.0
 40
4.4263560000000002
 50
5.0731190000000002
 51
42.782893999999999
  0
ARC
  5
500
  8
0
 62
     7
 10
151.65280000000001
 20
167.6856389999999
 30
0.0
 40
4.8164169999999986
 50
42.128246999999988
 51
65.143321999999998
  0
LINE
  5
501
  8
0
 62
     7
 10
157.25999999999991
 20
162.8609999999999
 30
0.0
 11
157.34399999999991
 21
164.75999999999991
 31
0.0
  0
LINE
  5
502
  8
0
 62
     7
 10
157.34399999999991
 20
164.75999999999991
 30
0.0
 11
157.32299999999989
 21
166.68000000000001
 31
0.0
  0
LINE
  5
503
  8
0
 62
     7
 10
157.57900000000001
 20
162.8179999999999
 30
0.0
 11
157.685
 21
164.75999999999991
 31
0.0
  0
LINE
  5
504
  8
0
 62
     7
 10
157.685
 20
164.75999999999991
 30
0.0
 11
157.6639999999999
 21
166.68000000000001
 31
0.0
  0
LINE
  5
505
  8
0
 62
     7
 10
156.4489999999999
 20
163.37299999999991
 30
0.0
 11
156.51300000000001
 21
165.01599999999991
 31
0.0
  0
LINE
  5
506
  8
0
 62
     7
 10
156.51300000000001
 20
165.01599999999991
 30
0.0
 11
156.49100000000001
 21
166.65899999999999
 31
0.0
  0
LINE
  5
507
  8
0
 62
     7
 10
156.49100000000001
 20
166.65899999999999
 30
0.0
 11
156.38499999999991
 21
168.3009999999999
 31
0.0
  0
LINE
  5
508
  8
0
 62
     7
 10
140.8189999999999
 20
118.57299999999989
 30
0.0
 11
140.8189999999999
 21
129.43199999999999
 31
0.0
  0
ARC
  5
509
  8
0
 62
     7
 10
-164.70591200000001
 20
130.59091499999991
 30
0.0
 40
305.52693499999998
 50
357.74562400000002
 51
359.78260599999999
  0
LINE
  5
50A
  8
0
 62
     7
 10
128.04599999999991
 20
126.7649999999999
 30
0.0
 11
127.8329999999999
 21
121.304
 31
0.0
  0
LINE
  5
50B
  8
0
 62
     7
 10
132.84399999999999
 20
118.57299999999989
 30
0.0
 11
133.18499999999989
 21
118.914
 31
0.0
  0
LINE
  5
50C
  8
0
 62
     7
 10
133.18499999999989
 20
118.914
 30
0.0
 11
133.46299999999991
 21
119.2979999999999
 31
0.0
  0
LINE
  5
50D
  8
0
 62
     7
 10
128.83500000000001
 20
150.61600000000001
 30
0.0
 11
128.49399999999989
 21
147.501
 31
0.0
  0
LINE
  5
50E
  8
0
 62
     7
 10
128.49399999999989
 20
147.501
 30
0.0
 11
128.239
 21
144.36500000000001
 31
0.0
  0
LINE
  5
50F
  8
0
 62
     7
 10
128.239
 20
144.36500000000001
 30
0.0
 11
128.089
 21
141.25
 31
0.0
  0
LINE
  5
510
  8
0
 62
     7
 10
128.089
 20
141.25
 30
0.0
 11
128.04599999999991
 21
138.11500000000001
 31
0.0
  0
LINE
  5
511
  8
0
 62
     7
 10
131.245
 20
135.875
 30
0.0
 11
128.536
 21
136.64199999999991
 31
0.0
  0
LINE
  5
512
  8
0
 62
     7
 10
128.04599999999991
 20
137.28200000000001
 30
0.0
 11
128.089
 21
137.0689999999999
 31
0.0
  0
LINE
  5
513
  8
0
 62
     7
 10
128.089
 20
137.0689999999999
 30
0.0
 11
128.17400000000001
 21
136.87700000000001
 31
0.0
  0
LINE
  5
514
  8
0
 62
     7
 10
128.17400000000001
 20
136.87700000000001
 30
0.0
 11
128.32299999999989
 21
136.72799999999989
 31
0.0
  0
LINE
  5
515
  8
0
 62
     7
 10
128.32299999999989
 20
136.72799999999989
 30
0.0
 11
128.536
 21
136.64199999999991
 31
0.0
  0
ARC
  5
516
  8
0
 62
     7
 10
126.616512
 20
128.86133699999999
 30
0.0
 40
8.7279789999999995
 50
38.334031000000003
 51
42.016884999999988
  0
ARC
  5
517
  8
0
 62
     7
 10
129.67834999999991
 20
131.59210400000001
 30
0.0
 40
4.6254019999999993
 50
42.272348999999998
 51
51.303533999999999
  0
ARC
  5
518
  8
0
 62
     7
 10
130.342804
 20
132.35733499999989
 30
0.0
 40
3.612973999999999
 50
51.940542999999998
 51
66.333409000000003
  0
ARC
  5
519
  8
0
 62
     7
 10
129.6640129999999
 20
130.88798399999999
 30
0.0
 40
5.2313210000000003
 50
65.984185999999994
 51
72.411066000000005
  0
LINE
  5
51A
  8
0
 62
     7
 10
127.8329999999999
 20
122.029
 30
0.0
 11
127.8329999999999
 21
180.696
 31
0.0
  0
LINE
  5
51B
  8
0
 62
     7
 10
128.04599999999991
 20
179.267
 30
0.0
 11
128.04599999999991
 21
126.7649999999999
 31
0.0
  0
LINE
  5
51C
  8
0
 62
     7
 10
155.49000000000001
 20
118.57299999999989
 30
0.0
 11
156.4489999999999
 21
163.37299999999991
 31
0.0
  0
ARC
  5
51D
  8
0
 62
     7
 10
32.042831999999997
 20
167.372074
 30
0.0
 40
98.232190000000017
 50
350.17850299999998
 51
3.671435999999999
  0
ARC
  5
51E
  8
0
 62
     7
 10
26.923183000000002
 20
167.2928269999999
 30
0.0
 40
103.346706
 50
3.533526999999999
 51
5.3688949999999993
  0
ARC
  5
51F
  8
0
 62
     7
 10
122.7083039999999
 20
126.6610629999999
 30
0.0
 40
13.033457
 50
325.60330399999992
 51
355.66549600000002
  0
ARC
  5
520
  8
0
 62
     7
 10
122.13149299999991
 20
126.72919400000001
 30
0.0
 40
13.613789000000001
 50
355.56305299999991
 51
33.660012999999999
  0
LINE
  5
521
  8
0
 62
     7
 10
156.66200000000001
 20
158.125
 30
0.0
 11
157.00399999999991
 21
158.46700000000001
 31
0.0
  0
LINE
  5
522
  8
0
 62
     7
 10
156.66200000000001
 20
157.827
 30
0.0
 11
157.00399999999991
 21
158.16800000000001
 31
0.0
  0
LINE
  5
523
  8
0
 62
     7
 10
156.66200000000001
 20
157.52799999999999
 30
0.0
 11
157.00399999999991
 21
157.86899999999989
 31
0.0
  0
LINE
  5
524
  8
0
 62
     7
 10
156.64099999999991
 20
157.20799999999991
 30
0.0
 11
156.98199999999991
 21
157.54900000000001
 31
0.0
  0
LINE
  5
525
  8
0
 62
     7
 10
156.64099999999991
 20
156.90899999999991
 30
0.0
 11
156.98199999999991
 21
157.24999999999989
 31
0.0
  0
LINE
  5
526
  8
0
 62
     7
 10
156.64099999999991
 20
156.61000000000001
 30
0.0
 11
156.98199999999991
 21
156.95199999999991
 31
0.0
  0
LINE
  5
527
  8
0
 62
     7
 10
156.62
 20
156.28999999999991
 30
0.0
 11
156.96100000000001
 21
156.63200000000001
 31
0.0
  0
LINE
  5
528
  8
0
 62
     7
 10
156.62
 20
155.99199999999999
 30
0.0
 11
156.96100000000001
 21
156.333
 31
0.0
  0
LINE
  5
529
  8
0
 62
     7
 10
156.62
 20
155.672
 30
0.0
 11
156.96100000000001
 21
156.01300000000001
 31
0.0
  0
LINE
  5
52A
  8
0
 62
     7
 10
156.5979999999999
 20
155.37299999999991
 30
0.0
 11
156.93899999999999
 21
155.71399999999991
 31
0.0
  0
LINE
  5
52B
  8
0
 62
     7
 10
156.5979999999999
 20
155.0749999999999
 30
0.0
 11
156.93899999999999
 21
155.41599999999991
 31
0.0
  0
LINE
  5
52C
  8
0
 62
     7
 10
156.5979999999999
 20
154.75399999999991
 30
0.0
 11
156.93899999999999
 21
155.096
 31
0.0
  0
LINE
  5
52D
  8
0
 62
     7
 10
156.577
 20
154.45599999999999
 30
0.0
 11
156.91800000000001
 21
154.797
 31
0.0
  0
LINE
  5
52E
  8
0
 62
     7
 10
156.577
 20
154.15700000000001
 30
0.0
 11
156.91800000000001
 21
154.499
 31
0.0
  0
LINE
  5
52F
  8
0
 62
     7
 10
156.577
 20
153.83699999999999
 30
0.0
 11
156.91800000000001
 21
154.17799999999991
 31
0.0
  0
LINE
  5
530
  8
0
 62
     7
 10
156.55499999999989
 20
153.5379999999999
 30
0.0
 11
156.89599999999999
 21
153.87999999999991
 31
0.0
  0
LINE
  5
531
  8
0
 62
     7
 10
156.55499999999989
 20
153.24000000000001
 30
0.0
 11
156.89599999999999
 21
153.58099999999999
 31
0.0
  0
LINE
  5
532
  8
0
 62
     7
 10
156.55499999999989
 20
152.9199999999999
 30
0.0
 11
156.89599999999999
 21
153.261
 31
0.0
  0
LINE
  5
533
  8
0
 62
     7
 10
156.535
 20
152.62100000000001
 30
0.0
 11
156.875
 21
152.96199999999999
 31
0.0
  0
LINE
  5
534
  8
0
 62
     7
 10
156.535
 20
152.30099999999999
 30
0.0
 11
156.875
 21
152.64299999999989
 31
0.0
  0
LINE
  5
535
  8
0
 62
     7
 10
156.535
 20
152.00200000000001
 30
0.0
 11
156.875
 21
152.34399999999991
 31
0.0
  0
LINE
  5
536
  8
0
 62
     7
 10
156.51300000000001
 20
151.70400000000001
 30
0.0
 11
156.8539999999999
 21
152.0449999999999
 31
0.0
  0
LINE
  5
537
  8
0
 62
     7
 10
156.51300000000001
 20
151.3839999999999
 30
0.0
 11
156.8539999999999
 21
151.72499999999991
 31
0.0
  0
LINE
  5
538
  8
0
 62
     7
 10
156.51300000000001
 20
151.08500000000001
 30
0.0
 11
156.8539999999999
 21
151.42699999999999
 31
0.0
  0
LINE
  5
539
  8
0
 62
     7
 10
156.49100000000001
 20
150.78700000000001
 30
0.0
 11
156.83199999999991
 21
151.12799999999999
 31
0.0
  0
LINE
  5
53A
  8
0
 62
     7
 10
156.49100000000001
 20
150.46600000000001
 30
0.0
 11
156.83199999999991
 21
150.80799999999991
 31
0.0
  0
LINE
  5
53B
  8
0
 62
     7
 10
156.49100000000001
 20
150.16800000000001
 30
0.0
 11
156.83199999999991
 21
150.5089999999999
 31
0.0
  0
LINE
  5
53C
  8
0
 62
     7
 10
156.471
 20
149.84700000000001
 30
0.0
 11
156.81200000000001
 21
150.18899999999991
 31
0.0
  0
LINE
  5
53D
  8
0
 62
     7
 10
156.471
 20
149.54900000000001
 30
0.0
 11
156.81200000000001
 21
149.8899999999999
 31
0.0
  0
LINE
  5
53E
  8
0
 62
     7
 10
156.471
 20
149.24999999999989
 30
0.0
 11
156.81200000000001
 21
149.59200000000001
 31
0.0
  0
LINE
  5
53F
  8
0
 62
     7
 10
156.4489999999999
 20
148.93000000000001
 30
0.0
 11
156.78999999999991
 21
149.27099999999999
 31
0.0
  0
LINE
  5
540
  8
0
 62
     7
 10
156.4489999999999
 20
148.631
 30
0.0
 11
156.78999999999991
 21
148.9729999999999
 31
0.0
  0
LINE
  5
541
  8
0
 62
     7
 10
156.4489999999999
 20
148.333
 30
0.0
 11
156.78999999999991
 21
148.67400000000001
 31
0.0
  0
LINE
  5
542
  8
0
 62
     7
 10
156.428
 20
148.01300000000001
 30
0.0
 11
156.76899999999989
 21
148.3539999999999
 31
0.0
  0
LINE
  5
543
  8
0
 62
     7
 10
156.428
 20
147.714
 30
0.0
 11
156.76899999999989
 21
148.05500000000001
 31
0.0
  0
LINE
  5
544
  8
0
 62
     7
 10
156.428
 20
147.41599999999991
 30
0.0
 11
156.76899999999989
 21
147.75700000000001
 31
0.0
  0
LINE
  5
545
  8
0
 62
     7
 10
156.40600000000001
 20
147.095
 30
0.0
 11
156.74700000000001
 21
147.43700000000001
 31
0.0
  0
LINE
  5
546
  8
0
 62
     7
 10
156.40600000000001
 20
146.797
 30
0.0
 11
156.74700000000001
 21
147.13800000000001
 31
0.0
  0
LINE
  5
547
  8
0
 62
     7
 10
156.40600000000001
 20
146.477
 30
0.0
 11
156.74700000000001
 21
146.8179999999999
 31
0.0
  0
LINE
  5
548
  8
0
 62
     7
 10
156.38499999999991
 20
146.178
 30
0.0
 11
156.726
 21
146.51899999999989
 31
0.0
  0
LINE
  5
549
  8
0
 62
     7
 10
156.38499999999991
 20
145.87899999999999
 30
0.0
 11
156.726
 21
146.22099999999989
 31
0.0
  0
LINE
  5
54A
  8
0
 62
     7
 10
156.38499999999991
 20
145.56
 30
0.0
 11
156.726
 21
145.90100000000001
 31
0.0
  0
LINE
  5
54B
  8
0
 62
     7
 10
156.363
 20
145.26099999999991
 30
0.0
 11
156.70500000000001
 21
145.602
 31
0.0
  0
LINE
  5
54C
  8
0
 62
     7
 10
156.363
 20
144.96199999999999
 30
0.0
 11
156.70500000000001
 21
145.303
 31
0.0
  0
LINE
  5
54D
  8
0
 62
     7
 10
156.363
 20
144.643
 30
0.0
 11
156.70500000000001
 21
144.98400000000001
 31
0.0
  0
LINE
  5
54E
  8
0
 62
     7
 10
156.3429999999999
 20
144.34399999999999
 30
0.0
 11
156.684
 21
144.68499999999989
 31
0.0
  0
LINE
  5
54F
  8
0
 62
     7
 10
156.3429999999999
 20
144.024
 30
0.0
 11
156.684
 21
144.36500000000001
 31
0.0
  0
LINE
  5
550
  8
0
 62
     7
 10
156.3429999999999
 20
143.72499999999991
 30
0.0
 11
156.684
 21
144.06700000000001
 31
0.0
  0
LINE
  5
551
  8
0
 62
     7
 10
156.32099999999991
 20
143.42599999999999
 30
0.0
 11
156.66200000000001
 21
143.76699999999991
 31
0.0
  0
LINE
  5
552
  8
0
 62
     7
 10
156.32099999999991
 20
143.10599999999991
 30
0.0
 11
156.66200000000001
 21
143.44799999999989
 31
0.0
  0
LINE
  5
553
  8
0
 62
     7
 10
156.32099999999991
 20
142.80799999999999
 30
0.0
 11
156.66200000000001
 21
143.14899999999989
 31
0.0
  0
LINE
  5
554
  8
0
 62
     7
 10
156.30000000000001
 20
142.5089999999999
 30
0.0
 11
156.64099999999991
 21
142.84999999999991
 31
0.0
  0
LINE
  5
555
  8
0
 62
     7
 10
156.30000000000001
 20
142.18899999999991
 30
0.0
 11
156.64099999999991
 21
142.53
 31
0.0
  0
LINE
  5
556
  8
0
 62
     7
 10
156.30000000000001
 20
141.8899999999999
 30
0.0
 11
156.64099999999991
 21
142.232
 31
0.0
  0
LINE
  5
557
  8
0
 62
     7
 10
156.27799999999999
 20
141.59200000000001
 30
0.0
 11
156.62
 21
141.93299999999991
 31
0.0
  0
LINE
  5
558
  8
0
 62
     7
 10
156.27799999999999
 20
141.27099999999999
 30
0.0
 11
156.62
 21
141.613
 31
0.0
  0
LINE
  5
559
  8
0
 62
     7
 10
156.27799999999999
 20
140.9729999999999
 30
0.0
 11
156.62
 21
141.31399999999999
 31
0.0
  0
LINE
  5
55A
  8
0
 62
     7
 10
156.25700000000001
 20
140.65299999999991
 30
0.0
 11
156.5979999999999
 21
140.995
 31
0.0
  0
LINE
  5
55B
  8
0
 62
     7
 10
156.25700000000001
 20
140.3549999999999
 30
0.0
 11
156.5979999999999
 21
140.69599999999991
 31
0.0
  0
LINE
  5
55C
  8
0
 62
     7
 10
156.25700000000001
 20
140.05600000000001
 30
0.0
 11
156.5979999999999
 21
140.39699999999999
 31
0.0
  0
LINE
  5
55D
  8
0
 62
     7
 10
156.2359999999999
 20
139.7359999999999
 30
0.0
 11
156.577
 21
140.077
 31
0.0
  0
LINE
  5
55E
  8
0
 62
     7
 10
156.2359999999999
 20
139.43700000000001
 30
0.0
 11
156.577
 21
139.779
 31
0.0
  0
LINE
  5
55F
  8
0
 62
     7
 10
156.2359999999999
 20
139.13900000000001
 30
0.0
 11
156.577
 21
139.4799999999999
 31
0.0
  0
LINE
  5
560
  8
0
 62
     7
 10
156.214
 20
138.8179999999999
 30
0.0
 11
156.55499999999989
 21
139.15999999999991
 31
0.0
  0
LINE
  5
561
  8
0
 62
     7
 10
156.214
 20
138.52000000000001
 30
0.0
 11
156.55499999999989
 21
138.8609999999999
 31
0.0
  0
LINE
  5
562
  8
0
 62
     7
 10
156.214
 20
138.1999999999999
 30
0.0
 11
156.55499999999989
 21
138.541
 31
0.0
  0
LINE
  5
563
  8
0
 62
     7
 10
156.1929999999999
 20
137.90100000000001
 30
0.0
 11
156.535
 21
138.24299999999999
 31
0.0
  0
LINE
  5
564
  8
0
 62
     7
 10
156.1929999999999
 20
137.60299999999989
 30
0.0
 11
156.535
 21
137.9439999999999
 31
0.0
  0
LINE
  5
565
  8
0
 62
     7
 10
156.1929999999999
 20
137.28200000000001
 30
0.0
 11
156.535
 21
137.62399999999991
 31
0.0
  0
LINE
  5
566
  8
0
 62
     7
 10
156.172
 20
136.98400000000001
 30
0.0
 11
156.51300000000001
 21
137.3249999999999
 31
0.0
  0
LINE
  5
567
  8
0
 62
     7
 10
156.172
 20
136.685
 30
0.0
 11
156.51300000000001
 21
137.02699999999999
 31
0.0
  0
LINE
  5
568
  8
0
 62
     7
 10
156.172
 20
136.36500000000001
 30
0.0
 11
156.51300000000001
 21
136.70599999999999
 31
0.0
  0
LINE
  5
569
  8
0
 62
     7
 10
156.15100000000001
 20
136.06599999999989
 30
0.0
 11
156.49100000000001
 21
136.4079999999999
 31
0.0
  0
LINE
  5
56A
  8
0
 62
     7
 10
156.15100000000001
 20
135.76799999999989
 30
0.0
 11
156.49100000000001
 21
136.10900000000001
 31
0.0
  0
LINE
  5
56B
  8
0
 62
     7
 10
156.15100000000001
 20
135.44799999999989
 30
0.0
 11
156.49100000000001
 21
135.7889999999999
 31
0.0
  0
LINE
  5
56C
  8
0
 62
     7
 10
156.12899999999991
 20
135.149
 30
0.0
 11
156.471
 21
135.49000000000001
 31
0.0
  0
LINE
  5
56D
  8
0
 62
     7
 10
156.12899999999991
 20
134.82900000000001
 30
0.0
 11
156.471
 21
135.17099999999991
 31
0.0
  0
LINE
  5
56E
  8
0
 62
     7
 10
156.12899999999991
 20
134.52999999999989
 30
0.0
 11
156.471
 21
134.87200000000001
 31
0.0
  0
LINE
  5
56F
  8
0
 62
     7
 10
156.108
 20
134.23199999999991
 30
0.0
 11
156.4489999999999
 21
134.57299999999989
 31
0.0
  0
LINE
  5
570
  8
0
 62
     7
 10
156.108
 20
133.91200000000001
 30
0.0
 11
156.4489999999999
 21
134.2529999999999
 31
0.0
  0
LINE
  5
571
  8
0
 62
     7
 10
156.108
 20
133.613
 30
0.0
 11
156.4489999999999
 21
133.95400000000001
 31
0.0
  0
LINE
  5
572
  8
0
 62
     7
 10
156.08699999999999
 20
133.31399999999991
 30
0.0
 11
156.428
 21
133.655
 31
0.0
  0
LINE
  5
573
  8
0
 62
     7
 10
156.08699999999999
 20
132.99499999999989
 30
0.0
 11
156.428
 21
133.33600000000001
 31
0.0
  0
LINE
  5
574
  8
0
 62
     7
 10
156.08699999999999
 20
132.69599999999991
 30
0.0
 11
156.428
 21
133.03700000000001
 31
0.0
  0
LINE
  5
575
  8
0
 62
     7
 10
156.065
 20
132.376
 30
0.0
 11
156.40600000000001
 21
132.71700000000001
 31
0.0
  0
LINE
  5
576
  8
0
 62
     7
 10
156.065
 20
132.07699999999991
 30
0.0
 11
156.40600000000001
 21
132.4189999999999
 31
0.0
  0
LINE
  5
577
  8
0
 62
     7
 10
156.065
 20
131.77799999999991
 30
0.0
 11
156.40600000000001
 21
132.12
 31
0.0
  0
LINE
  5
578
  8
0
 62
     7
 10
156.0439999999999
 20
131.459
 30
0.0
 11
156.38499999999991
 21
131.80000000000001
 31
0.0
  0
LINE
  5
579
  8
0
 62
     7
 10
156.0439999999999
 20
131.16
 30
0.0
 11
156.38499999999991
 21
131.50200000000001
 31
0.0
  0
LINE
  5
57A
  8
0
 62
     7
 10
156.0439999999999
 20
130.8609999999999
 30
0.0
 11
156.38499999999991
 21
131.20199999999991
 31
0.0
  0
LINE
  5
57B
  8
0
 62
     7
 10
156.02199999999999
 20
130.54099999999991
 30
0.0
 11
156.363
 21
130.8829999999999
 31
0.0
  0
LINE
  5
57C
  8
0
 62
     7
 10
156.02199999999999
 20
130.24299999999991
 30
0.0
 11
156.363
 21
130.584
 31
0.0
  0
LINE
  5
57D
  8
0
 62
     7
 10
156.02199999999999
 20
129.922
 30
0.0
 11
156.363
 21
130.285
 31
0.0
  0
LINE
  5
57E
  8
0
 62
     7
 10
156.001
 20
129.624
 30
0.0
 11
156.3429999999999
 21
129.96499999999989
 31
0.0
  0
LINE
  5
57F
  8
0
 62
     7
 10
156.001
 20
129.32499999999999
 30
0.0
 11
156.3429999999999
 21
129.66699999999989
 31
0.0
  0
LINE
  5
580
  8
0
 62
     7
 10
156.001
 20
129.00499999999991
 30
0.0
 11
156.3429999999999
 21
129.346
 31
0.0
  0
LINE
  5
581
  8
0
 62
     7
 10
155.9789999999999
 20
128.70599999999999
 30
0.0
 11
156.32099999999991
 21
129.048
 31
0.0
  0
LINE
  5
582
  8
0
 62
     7
 10
155.9789999999999
 20
128.4079999999999
 30
0.0
 11
156.32099999999991
 21
128.749
 31
0.0
  0
LINE
  5
583
  8
0
 62
     7
 10
155.9789999999999
 20
128.08799999999999
 30
0.0
 11
156.32099999999991
 21
128.429
 31
0.0
  0
LINE
  5
584
  8
0
 62
     7
 10
155.959
 20
127.7889999999999
 30
0.0
 11
156.30000000000001
 21
128.12999999999991
 31
0.0
  0
LINE
  5
585
  8
0
 62
     7
 10
155.959
 20
127.4909999999999
 30
0.0
 11
156.30000000000001
 21
127.83199999999999
 31
0.0
  0
LINE
  5
586
  8
0
 62
     7
 10
155.959
 20
127.17
 30
0.0
 11
156.30000000000001
 21
127.512
 31
0.0
  0
LINE
  5
587
  8
0
 62
     7
 10
155.93700000000001
 20
126.872
 30
0.0
 11
156.27799999999999
 21
127.21299999999989
 31
0.0
  0
LINE
  5
588
  8
0
 62
     7
 10
155.93700000000001
 20
126.55200000000001
 30
0.0
 11
156.27799999999999
 21
126.8929999999999
 31
0.0
  0
LINE
  5
589
  8
0
 62
     7
 10
155.916
 20
126.2529999999999
 30
0.0
 11
156.27799999999999
 21
126.59399999999999
 31
0.0
  0
LINE
  5
58A
  8
0
 62
     7
 10
155.916
 20
125.9549999999999
 30
0.0
 11
156.25700000000001
 21
126.29600000000001
 31
0.0
  0
LINE
  5
58B
  8
0
 62
     7
 10
155.916
 20
125.634
 30
0.0
 11
156.25700000000001
 21
125.9759999999999
 31
0.0
  0
LINE
  5
58C
  8
0
 62
     7
 10
155.89500000000001
 20
125.336
 30
0.0
 11
156.2359999999999
 21
125.67700000000001
 31
0.0
  0
LINE
  5
58D
  8
0
 62
     7
 10
155.89500000000001
 20
125.03699999999991
 30
0.0
 11
156.2359999999999
 21
125.37899999999991
 31
0.0
  0
LINE
  5
58E
  8
0
 62
     7
 10
155.89500000000001
 20
124.717
 30
0.0
 11
156.2359999999999
 21
125.05800000000001
 31
0.0
  0
LINE
  5
58F
  8
0
 62
     7
 10
155.87299999999991
 20
124.41799999999991
 30
0.0
 11
156.214
 21
124.76000000000001
 31
0.0
  0
LINE
  5
590
  8
0
 62
     7
 10
155.87299999999991
 20
124.0989999999999
 30
0.0
 11
156.214
 21
124.4399999999999
 31
0.0
  0
LINE
  5
591
  8
0
 62
     7
 10
155.87299999999991
 20
123.7999999999999
 30
0.0
 11
156.214
 21
124.14100000000001
 31
0.0
  0
LINE
  5
592
  8
0
 62
     7
 10
155.852
 20
123.501
 30
0.0
 11
156.1929999999999
 21
123.842
 31
0.0
  0
LINE
  5
593
  8
0
 62
     7
 10
155.852
 20
123.181
 30
0.0
 11
156.1929999999999
 21
123.523
 31
0.0
  0
LINE
  5
594
  8
0
 62
     7
 10
155.852
 20
122.883
 30
0.0
 11
156.1929999999999
 21
123.224
 31
0.0
  0
LINE
  5
595
  8
0
 62
     7
 10
155.83099999999999
 20
122.5829999999999
 30
0.0
 11
156.172
 21
122.9249999999999
 31
0.0
  0
LINE
  5
596
  8
0
 62
     7
 10
155.83099999999999
 20
122.2639999999999
 30
0.0
 11
156.172
 21
122.605
 31
0.0
  0
LINE
  5
597
  8
0
 62
     7
 10
155.83099999999999
 20
121.965
 30
0.0
 11
156.172
 21
122.306
 31
0.0
  0
LINE
  5
598
  8
0
 62
     7
 10
155.80899999999991
 20
121.666
 30
0.0
 11
156.15100000000001
 21
122.00699999999991
 31
0.0
  0
LINE
  5
599
  8
0
 62
     7
 10
155.80899999999991
 20
121.34699999999999
 30
0.0
 11
156.15100000000001
 21
121.6879999999999
 31
0.0
  0
LINE
  5
59A
  8
0
 62
     7
 10
155.80899999999991
 20
121.048
 30
0.0
 11
156.15100000000001
 21
121.3889999999999
 31
0.0
  0
LINE
  5
59B
  8
0
 62
     7
 10
155.7879999999999
 20
120.72799999999989
 30
0.0
 11
156.12899999999991
 21
121.069
 31
0.0
  0
LINE
  5
59C
  8
0
 62
     7
 10
155.7879999999999
 20
120.429
 30
0.0
 11
156.12899999999991
 21
120.771
 31
0.0
  0
LINE
  5
59D
  8
0
 62
     7
 10
155.7879999999999
 20
120.131
 30
0.0
 11
156.12899999999991
 21
120.47199999999999
 31
0.0
  0
LINE
  5
59E
  8
0
 62
     7
 10
155.76599999999999
 20
119.8099999999999
 30
0.0
 11
156.108
 21
120.152
 31
0.0
  0
LINE
  5
59F
  8
0
 62
     7
 10
155.76599999999999
 20
119.5119999999999
 30
0.0
 11
156.108
 21
119.85299999999989
 31
0.0
  0
LINE
  5
5A0
  8
0
 62
     7
 10
155.76599999999999
 20
119.21299999999989
 30
0.0
 11
156.108
 21
119.55500000000001
 31
0.0
  0
LINE
  5
5A1
  8
0
 62
     7
 10
155.74600000000001
 20
118.8929999999999
 30
0.0
 11
156.08699999999999
 21
119.2339999999999
 31
0.0
  0
LINE
  5
5A2
  8
0
 62
     7
 10
155.74600000000001
 20
118.595
 30
0.0
 11
156.08699999999999
 21
118.93600000000001
 31
0.0
  0
LINE
  5
5A3
  8
0
 62
     7
 10
156.0439999999999
 20
118.57299999999989
 30
0.0
 11
156.08699999999999
 21
118.61499999999999
 31
0.0
  0
LINE
  5
5A4
  8
0
 62
     7
 10
155.53200000000001
 20
118.57299999999989
 30
0.0
 11
155.49000000000001
 21
118.61499999999999
 31
0.0
  0
LINE
  5
5A5
  8
0
 62
     7
 10
155.83099999999999
 20
118.595
 30
0.0
 11
155.49000000000001
 21
118.914
 31
0.0
  0
LINE
  5
5A6
  8
0
 62
     7
 10
155.83099999999999
 20
118.872
 30
0.0
 11
155.51099999999991
 21
119.21299999999989
 31
0.0
  0
LINE
  5
5A7
  8
0
 62
     7
 10
155.83099999999999
 20
119.17100000000001
 30
0.0
 11
155.51099999999991
 21
119.48999999999999
 31
0.0
  0
LINE
  5
5A8
  8
0
 62
     7
 10
155.852
 20
119.46899999999999
 30
0.0
 11
155.51099999999991
 21
119.789
 31
0.0
  0
LINE
  5
5A9
  8
0
 62
     7
 10
155.852
 20
119.767
 30
0.0
 11
155.53200000000001
 21
120.08799999999989
 31
0.0
  0
LINE
  5
5AA
  8
0
 62
     7
 10
155.852
 20
120.045
 30
0.0
 11
155.53200000000001
 21
120.386
 31
0.0
  0
LINE
  5
5AB
  8
0
 62
     7
 10
155.87299999999991
 20
120.3429999999999
 30
0.0
 11
155.53200000000001
 21
120.6639999999999
 31
0.0
  0
LINE
  5
5AC
  8
0
 62
     7
 10
155.87299999999991
 20
120.642
 30
0.0
 11
155.554
 21
120.96299999999989
 31
0.0
  0
LINE
  5
5AD
  8
0
 62
     7
 10
155.87299999999991
 20
120.92
 30
0.0
 11
155.554
 21
121.261
 31
0.0
  0
LINE
  5
5AE
  8
0
 62
     7
 10
155.87299999999991
 20
121.21899999999989
 30
0.0
 11
155.554
 21
121.5379999999999
 31
0.0
  0
LINE
  5
5AF
  8
0
 62
     7
 10
155.89500000000001
 20
121.517
 30
0.0
 11
155.5749999999999
 21
121.8369999999999
 31
0.0
  0
LINE
  5
5B0
  8
0
 62
     7
 10
155.89500000000001
 20
121.816
 30
0.0
 11
155.5749999999999
 21
122.136
 31
0.0
  0
LINE
  5
5B1
  8
0
 62
     7
 10
155.89500000000001
 20
122.0929999999999
 30
0.0
 11
155.5749999999999
 21
122.435
 31
0.0
  0
LINE
  5
5B2
  8
0
 62
     7
 10
155.916
 20
122.392
 30
0.0
 11
155.59599999999989
 21
122.7119999999999
 31
0.0
  0
LINE
  5
5B3
  8
0
 62
     7
 10
155.916
 20
122.69
 30
0.0
 11
155.59599999999989
 21
123.011
 31
0.0
  0
LINE
  5
5B4
  8
0
 62
     7
 10
155.916
 20
122.9679999999999
 30
0.0
 11
155.59599999999989
 21
123.309
 31
0.0
  0
LINE
  5
5B5
  8
0
 62
     7
 10
155.93700000000001
 20
123.26600000000001
 30
0.0
 11
155.59599999999989
 21
123.587
 31
0.0
  0
LINE
  5
5B6
  8
0
 62
     7
 10
155.93700000000001
 20
123.5649999999999
 30
0.0
 11
155.61799999999991
 21
123.88500000000001
 31
0.0
  0
LINE
  5
5B7
  8
0
 62
     7
 10
155.93700000000001
 20
123.8639999999999
 30
0.0
 11
155.61799999999991
 21
124.184
 31
0.0
  0
LINE
  5
5B8
  8
0
 62
     7
 10
155.959
 20
124.14100000000001
 30
0.0
 11
155.61799999999991
 21
124.482
 31
0.0
  0
LINE
  5
5B9
  8
0
 62
     7
 10
155.959
 20
124.4399999999999
 30
0.0
 11
155.63800000000001
 21
124.76000000000001
 31
0.0
  0
LINE
  5
5BA
  8
0
 62
     7
 10
155.959
 20
124.7379999999999
 30
0.0
 11
155.63800000000001
 21
125.05800000000001
 31
0.0
  0
LINE
  5
5BB
  8
0
 62
     7
 10
155.9789999999999
 20
125.01600000000001
 30
0.0
 11
155.63800000000001
 21
125.357
 31
0.0
  0
LINE
  5
5BC
  8
0
 62
     7
 10
155.9789999999999
 20
125.31399999999989
 30
0.0
 11
155.65999999999991
 21
125.634
 31
0.0
  0
LINE
  5
5BD
  8
0
 62
     7
 10
155.9789999999999
 20
125.6129999999999
 30
0.0
 11
155.65999999999991
 21
125.93300000000001
 31
0.0
  0
LINE
  5
5BE
  8
0
 62
     7
 10
156.001
 20
125.91200000000001
 30
0.0
 11
155.65999999999991
 21
126.232
 31
0.0
  0
LINE
  5
5BF
  8
0
 62
     7
 10
156.001
 20
126.18899999999989
 30
0.0
 11
155.68199999999999
 21
126.53
 31
0.0
  0
LINE
  5
5C0
  8
0
 62
     7
 10
156.001
 20
126.488
 30
0.0
 11
155.68199999999999
 21
126.80799999999989
 31
0.0
  0
LINE
  5
5C1
  8
0
 62
     7
 10
156.02199999999999
 20
126.78700000000001
 30
0.0
 11
155.68199999999999
 21
127.10599999999999
 31
0.0
  0
LINE
  5
5C2
  8
0
 62
     7
 10
156.02199999999999
 20
127.06399999999989
 30
0.0
 11
155.703
 21
127.405
 31
0.0
  0
LINE
  5
5C3
  8
0
 62
     7
 10
156.02199999999999
 20
127.363
 30
0.0
 11
155.703
 21
127.682
 31
0.0
  0
LINE
  5
5C4
  8
0
 62
     7
 10
156.0439999999999
 20
127.661
 30
0.0
 11
155.703
 21
127.98099999999999
 31
0.0
  0
LINE
  5
5C5
  8
0
 62
     7
 10
156.0439999999999
 20
127.95999999999999
 30
0.0
 11
155.72399999999999
 21
128.27999999999989
 31
0.0
  0
LINE
  5
5C6
  8
0
 62
     7
 10
156.0439999999999
 20
128.238
 30
0.0
 11
155.72399999999999
 21
128.57900000000001
 31
0.0
  0
LINE
  5
5C7
  8
0
 62
     7
 10
156.065
 20
128.536
 30
0.0
 11
155.72399999999999
 21
128.85599999999991
 31
0.0
  0
LINE
  5
5C8
  8
0
 62
     7
 10
156.065
 20
128.834
 30
0.0
 11
155.74600000000001
 21
129.15499999999989
 31
0.0
  0
LINE
  5
5C9
  8
0
 62
     7
 10
156.065
 20
129.11199999999999
 30
0.0
 11
155.74600000000001
 21
129.45299999999989
 31
0.0
  0
LINE
  5
5CA
  8
0
 62
     7
 10
156.065
 20
129.41
 30
0.0
 11
155.74600000000001
 21
129.7299999999999
 31
0.0
  0
LINE
  5
5CB
  8
0
 62
     7
 10
156.08699999999999
 20
129.709
 30
0.0
 11
155.76599999999999
 21
130.02899999999991
 31
0.0
  0
LINE
  5
5CC
  8
0
 62
     7
 10
156.08699999999999
 20
130.0079999999999
 30
0.0
 11
155.76599999999999
 21
130.32699999999991
 31
0.0
  0
LINE
  5
5CD
  8
0
 62
     7
 10
156.08699999999999
 20
130.285
 30
0.0
 11
155.76599999999999
 21
130.62599999999989
 31
0.0
  0
LINE
  5
5CE
  8
0
 62
     7
 10
156.108
 20
130.584
 30
0.0
 11
155.76599999999999
 21
130.90399999999991
 31
0.0
  0
LINE
  5
5CF
  8
0
 62
     7
 10
156.108
 20
130.8829999999999
 30
0.0
 11
155.7879999999999
 21
131.20199999999991
 31
0.0
  0
LINE
  5
5D0
  8
0
 62
     7
 10
156.108
 20
131.16
 30
0.0
 11
155.7879999999999
 21
131.50200000000001
 31
0.0
  0
LINE
  5
5D1
  8
0
 62
     7
 10
156.12899999999991
 20
131.459
 30
0.0
 11
155.7879999999999
 21
131.77799999999991
 31
0.0
  0
LINE
  5
5D2
  8
0
 62
     7
 10
156.12899999999991
 20
131.75700000000001
 30
0.0
 11
155.80899999999991
 21
132.07699999999991
 31
0.0
  0
LINE
  5
5D3
  8
0
 62
     7
 10
156.12899999999991
 20
132.05500000000001
 30
0.0
 11
155.80899999999991
 21
132.376
 31
0.0
  0
LINE
  5
5D4
  8
0
 62
     7
 10
156.15100000000001
 20
132.333
 30
0.0
 11
155.80899999999991
 21
132.67400000000001
 31
0.0
  0
LINE
  5
5D5
  8
0
 62
     7
 10
156.15100000000001
 20
132.63200000000001
 30
0.0
 11
155.83099999999999
 21
132.952
 31
0.0
  0
LINE
  5
5D6
  8
0
 62
     7
 10
156.15100000000001
 20
132.93100000000001
 30
0.0
 11
155.83099999999999
 21
133.25
 31
0.0
  0
LINE
  5
5D7
  8
0
 62
     7
 10
156.172
 20
133.20799999999991
 30
0.0
 11
155.83099999999999
 21
133.54900000000001
 31
0.0
  0
LINE
  5
5D8
  8
0
 62
     7
 10
156.172
 20
133.50699999999989
 30
0.0
 11
155.852
 21
133.82599999999999
 31
0.0
  0
LINE
  5
5D9
  8
0
 62
     7
 10
156.172
 20
133.80500000000001
 30
0.0
 11
155.852
 21
134.125
 31
0.0
  0
LINE
  5
5DA
  8
0
 62
     7
 10
156.1929999999999
 20
134.1039999999999
 30
0.0
 11
155.852
 21
134.42400000000001
 31
0.0
  0
LINE
  5
5DB
  8
0
 62
     7
 10
156.1929999999999
 20
134.38099999999989
 30
0.0
 11
155.87299999999991
 21
134.7229999999999
 31
0.0
  0
LINE
  5
5DC
  8
0
 62
     7
 10
156.1929999999999
 20
134.67999999999989
 30
0.0
 11
155.87299999999991
 21
135.0
 31
0.0
  0
LINE
  5
5DD
  8
0
 62
     7
 10
156.214
 20
134.97799999999989
 30
0.0
 11
155.87299999999991
 21
135.29900000000001
 31
0.0
  0
LINE
  5
5DE
  8
0
 62
     7
 10
156.214
 20
135.25599999999989
 30
0.0
 11
155.89500000000001
 21
135.59700000000001
 31
0.0
  0
LINE
  5
5DF
  8
0
 62
     7
 10
156.214
 20
135.55399999999989
 30
0.0
 11
155.89500000000001
 21
135.875
 31
0.0
  0
LINE
  5
5E0
  8
0
 62
     7
 10
156.2359999999999
 20
135.85299999999989
 30
0.0
 11
155.89500000000001
 21
136.173
 31
0.0
  0
LINE
  5
5E1
  8
0
 62
     7
 10
156.2359999999999
 20
136.15199999999999
 30
0.0
 11
155.916
 21
136.471
 31
0.0
  0
LINE
  5
5E2
  8
0
 62
     7
 10
156.2359999999999
 20
136.429
 30
0.0
 11
155.916
 21
136.77000000000001
 31
0.0
  0
LINE
  5
5E3
  8
0
 62
     7
 10
156.2359999999999
 20
136.72799999999989
 30
0.0
 11
155.916
 21
137.047
 31
0.0
  0
LINE
  5
5E4
  8
0
 62
     7
 10
156.25700000000001
 20
137.02699999999999
 30
0.0
 11
155.93700000000001
 21
137.346
 31
0.0
  0
LINE
  5
5E5
  8
0
 62
     7
 10
156.25700000000001
 20
137.304
 30
0.0
 11
155.93700000000001
 21
137.64500000000001
 31
0.0
  0
LINE
  5
5E6
  8
0
 62
     7
 10
156.25700000000001
 20
137.60299999999989
 30
0.0
 11
155.93700000000001
 21
137.92299999999989
 31
0.0
  0
LINE
  5
5E7
  8
0
 62
     7
 10
156.27799999999999
 20
137.90100000000001
 30
0.0
 11
155.93700000000001
 21
138.22200000000001
 31
0.0
  0
LINE
  5
5E8
  8
0
 62
     7
 10
156.27799999999999
 20
138.1999999999999
 30
0.0
 11
155.959
 21
138.52000000000001
 31
0.0
  0
LINE
  5
5E9
  8
0
 62
     7
 10
156.27799999999999
 20
138.477
 30
0.0
 11
155.959
 21
138.79699999999991
 31
0.0
  0
LINE
  5
5EA
  8
0
 62
     7
 10
156.30000000000001
 20
138.77600000000001
 30
0.0
 11
155.959
 21
139.09599999999989
 31
0.0
  0
LINE
  5
5EB
  8
0
 62
     7
 10
156.30000000000001
 20
139.0749999999999
 30
0.0
 11
155.9789999999999
 21
139.39400000000001
 31
0.0
  0
LINE
  5
5EC
  8
0
 62
     7
 10
156.30000000000001
 20
139.352
 30
0.0
 11
155.9789999999999
 21
139.6929999999999
 31
0.0
  0
LINE
  5
5ED
  8
0
 62
     7
 10
156.32099999999991
 20
139.65100000000001
 30
0.0
 11
155.9789999999999
 21
139.96999999999991
 31
0.0
  0
LINE
  5
5EE
  8
0
 62
     7
 10
156.32099999999991
 20
139.9489999999999
 30
0.0
 11
156.001
 21
140.26899999999989
 31
0.0
  0
LINE
  5
5EF
  8
0
 62
     7
 10
156.32099999999991
 20
140.227
 30
0.0
 11
156.001
 21
140.5679999999999
 31
0.0
  0
LINE
  5
5F0
  8
0
 62
     7
 10
156.3429999999999
 20
140.52500000000001
 30
0.0
 11
156.001
 21
140.845
 31
0.0
  0
LINE
  5
5F1
  8
0
 62
     7
 10
156.3429999999999
 20
140.8239999999999
 30
0.0
 11
156.02199999999999
 21
141.14399999999989
 31
0.0
  0
LINE
  5
5F2
  8
0
 62
     7
 10
156.3429999999999
 20
141.12200000000001
 30
0.0
 11
156.02199999999999
 21
141.44199999999989
 31
0.0
  0
LINE
  5
5F3
  8
0
 62
     7
 10
156.363
 20
141.399
 30
0.0
 11
156.02199999999999
 21
141.74100000000001
 31
0.0
  0
LINE
  5
5F4
  8
0
 62
     7
 10
156.363
 20
141.69799999999989
 30
0.0
 11
156.0439999999999
 21
142.018
 31
0.0
  0
LINE
  5
5F5
  8
0
 62
     7
 10
156.363
 20
141.99700000000001
 30
0.0
 11
156.0439999999999
 21
142.31700000000001
 31
0.0
  0
LINE
  5
5F6
  8
0
 62
     7
 10
156.38499999999991
 20
142.274
 30
0.0
 11
156.0439999999999
 21
142.6149999999999
 31
0.0
  0
LINE
  5
5F7
  8
0
 62
     7
 10
156.38499999999991
 20
142.57299999999989
 30
0.0
 11
156.065
 21
142.893
 31
0.0
  0
LINE
  5
5F8
  8
0
 62
     7
 10
156.38499999999991
 20
142.87200000000001
 30
0.0
 11
156.065
 21
143.191
 31
0.0
  0
LINE
  5
5F9
  8
0
 62
     7
 10
156.40600000000001
 20
143.16999999999999
 30
0.0
 11
156.065
 21
143.49100000000001
 31
0.0
  0
LINE
  5
5FA
  8
0
 62
     7
 10
156.40600000000001
 20
143.44799999999989
 30
0.0
 11
156.08699999999999
 21
143.7889999999999
 31
0.0
  0
LINE
  5
5FB
  8
0
 62
     7
 10
156.40600000000001
 20
143.74600000000001
 30
0.0
 11
156.08699999999999
 21
144.06700000000001
 31
0.0
  0
LINE
  5
5FC
  8
0
 62
     7
 10
156.40600000000001
 20
144.04499999999999
 30
0.0
 11
156.08699999999999
 21
144.36500000000001
 31
0.0
  0
LINE
  5
5FD
  8
0
 62
     7
 10
156.428
 20
144.32199999999989
 30
0.0
 11
156.108
 21
144.6639999999999
 31
0.0
  0
LINE
  5
5FE
  8
0
 62
     7
 10
156.428
 20
144.62100000000001
 30
0.0
 11
156.108
 21
144.941
 31
0.0
  0
LINE
  5
5FF
  8
0
 62
     7
 10
156.428
 20
144.9199999999999
 30
0.0
 11
156.108
 21
145.24000000000001
 31
0.0
  0
LINE
  5
600
  8
0
 62
     7
 10
156.4489999999999
 20
145.21799999999999
 30
0.0
 11
156.12899999999991
 21
145.5379999999999
 31
0.0
  0
LINE
  5
601
  8
0
 62
     7
 10
156.4489999999999
 20
145.4959999999999
 30
0.0
 11
156.12899999999991
 21
145.83699999999999
 31
0.0
  0
LINE
  5
602
  8
0
 62
     7
 10
156.4489999999999
 20
145.7949999999999
 30
0.0
 11
156.12899999999991
 21
146.114
 31
0.0
  0
LINE
  5
603
  8
0
 62
     7
 10
156.471
 20
146.0929999999999
 30
0.0
 11
156.12899999999991
 21
146.4129999999999
 31
0.0
  0
LINE
  5
604
  8
0
 62
     7
 10
156.471
 20
146.37100000000001
 30
0.0
 11
156.15100000000001
 21
146.71199999999999
 31
0.0
  0
LINE
  5
605
  8
0
 62
     7
 10
156.471
 20
146.6689999999999
 30
0.0
 11
156.15100000000001
 21
146.989
 31
0.0
  0
LINE
  5
606
  8
0
 62
     7
 10
156.49100000000001
 20
146.9679999999999
 30
0.0
 11
156.15100000000001
 21
147.2879999999999
 31
0.0
  0
LINE
  5
607
  8
0
 62
     7
 10
156.49100000000001
 20
147.26599999999991
 30
0.0
 11
156.172
 21
147.58699999999999
 31
0.0
  0
LINE
  5
608
  8
0
 62
     7
 10
156.49100000000001
 20
147.5439999999999
 30
0.0
 11
156.172
 21
147.88499999999991
 31
0.0
  0
LINE
  5
609
  8
0
 62
     7
 10
156.51300000000001
 20
147.84200000000001
 30
0.0
 11
156.172
 21
148.1629999999999
 31
0.0
  0
LINE
  5
60A
  8
0
 62
     7
 10
156.51300000000001
 20
148.14099999999991
 30
0.0
 11
156.1929999999999
 21
148.46100000000001
 31
0.0
  0
LINE
  5
60B
  8
0
 62
     7
 10
156.51300000000001
 20
148.41800000000001
 30
0.0
 11
156.1929999999999
 21
148.7589999999999
 31
0.0
  0
LINE
  5
60C
  8
0
 62
     7
 10
156.535
 20
148.71700000000001
 30
0.0
 11
156.1929999999999
 21
149.03700000000001
 31
0.0
  0
LINE
  5
60D
  8
0
 62
     7
 10
156.535
 20
149.01599999999991
 30
0.0
 11
156.214
 21
149.33500000000001
 31
0.0
  0
LINE
  5
60E
  8
0
 62
     7
 10
156.535
 20
149.31399999999991
 30
0.0
 11
156.214
 21
149.63499999999991
 31
0.0
  0
LINE
  5
60F
  8
0
 62
     7
 10
156.55499999999989
 20
149.59200000000001
 30
0.0
 11
156.214
 21
149.93299999999999
 31
0.0
  0
LINE
  5
610
  8
0
 62
     7
 10
156.55499999999989
 20
149.8899999999999
 30
0.0
 11
156.2359999999999
 21
150.21100000000001
 31
0.0
  0
LINE
  5
611
  8
0
 62
     7
 10
156.55499999999989
 20
150.18899999999991
 30
0.0
 11
156.2359999999999
 21
150.5089999999999
 31
0.0
  0
LINE
  5
612
  8
0
 62
     7
 10
156.577
 20
150.46600000000001
 30
0.0
 11
156.2359999999999
 21
150.80799999999991
 31
0.0
  0
LINE
  5
613
  8
0
 62
     7
 10
156.577
 20
150.7649999999999
 30
0.0
 11
156.25700000000001
 21
151.08500000000001
 31
0.0
  0
LINE
  5
614
  8
0
 62
     7
 10
156.577
 20
151.06399999999991
 30
0.0
 11
156.25700000000001
 21
151.3839999999999
 31
0.0
  0
LINE
  5
615
  8
0
 62
     7
 10
156.5979999999999
 20
151.36199999999991
 30
0.0
 11
156.25700000000001
 21
151.68199999999999
 31
0.0
  0
LINE
  5
616
  8
0
 62
     7
 10
156.5979999999999
 20
151.6399999999999
 30
0.0
 11
156.27799999999999
 21
151.98099999999991
 31
0.0
  0
LINE
  5
617
  8
0
 62
     7
 10
156.5979999999999
 20
151.9379999999999
 30
0.0
 11
156.27799999999999
 21
152.2589999999999
 31
0.0
  0
LINE
  5
618
  8
0
 62
     7
 10
156.5979999999999
 20
152.23699999999999
 30
0.0
 11
156.27799999999999
 21
152.55699999999999
 31
0.0
  0
LINE
  5
619
  8
0
 62
     7
 10
156.62
 20
152.51400000000001
 30
0.0
 11
156.30000000000001
 21
152.85599999999991
 31
0.0
  0
LINE
  5
61A
  8
0
 62
     7
 10
156.62
 20
152.8129999999999
 30
0.0
 11
156.30000000000001
 21
153.1329999999999
 31
0.0
  0
LINE
  5
61B
  8
0
 62
     7
 10
156.62
 20
153.11199999999999
 30
0.0
 11
156.30000000000001
 21
153.43199999999999
 31
0.0
  0
LINE
  5
61C
  8
0
 62
     7
 10
156.64099999999991
 20
153.411
 30
0.0
 11
156.30000000000001
 21
153.7299999999999
 31
0.0
  0
LINE
  5
61D
  8
0
 62
     7
 10
156.64099999999991
 20
153.68799999999999
 30
0.0
 11
156.32099999999991
 21
154.02899999999991
 31
0.0
  0
LINE
  5
61E
  8
0
 62
     7
 10
156.64099999999991
 20
153.98699999999999
 30
0.0
 11
156.32099999999991
 21
154.30600000000001
 31
0.0
  0
LINE
  5
61F
  8
0
 62
     7
 10
156.66200000000001
 20
154.285
 30
0.0
 11
156.32099999999991
 21
154.6049999999999
 31
0.0
  0
LINE
  5
620
  8
0
 62
     7
 10
156.66200000000001
 20
154.5629999999999
 30
0.0
 11
156.3429999999999
 21
154.90399999999991
 31
0.0
  0
LINE
  5
621
  8
0
 62
     7
 10
156.66200000000001
 20
154.86099999999999
 30
0.0
 11
156.3429999999999
 21
155.18100000000001
 31
0.0
  0
LINE
  5
622
  8
0
 62
     7
 10
156.684
 20
155.16
 30
0.0
 11
156.3429999999999
 21
155.47999999999999
 31
0.0
  0
LINE
  5
623
  8
0
 62
     7
 10
156.684
 20
155.458
 30
0.0
 11
156.363
 21
155.77899999999991
 31
0.0
  0
LINE
  5
624
  8
0
 62
     7
 10
156.684
 20
155.7359999999999
 30
0.0
 11
156.363
 21
156.07699999999991
 31
0.0
  0
LINE
  5
625
  8
0
 62
     7
 10
156.70500000000001
 20
156.03399999999999
 30
0.0
 11
156.363
 21
156.35499999999999
 31
0.0
  0
LINE
  5
626
  8
0
 62
     7
 10
156.70500000000001
 20
156.333
 30
0.0
 11
156.38499999999991
 21
156.65299999999999
 31
0.0
  0
LINE
  5
627
  8
0
 62
     7
 10
156.70500000000001
 20
156.61000000000001
 30
0.0
 11
156.38499999999991
 21
156.95199999999991
 31
0.0
  0
LINE
  5
628
  8
0
 62
     7
 10
156.726
 20
156.90899999999991
 30
0.0
 11
156.38499999999991
 21
157.2289999999999
 31
0.0
  0
LINE
  5
629
  8
0
 62
     7
 10
156.726
 20
157.20799999999991
 30
0.0
 11
156.40600000000001
 21
157.52799999999999
 31
0.0
  0
LINE
  5
62A
  8
0
 62
     7
 10
156.726
 20
157.506
 30
0.0
 11
156.40600000000001
 21
157.827
 31
0.0
  0
LINE
  5
62B
  8
0
 62
     7
 10
156.74700000000001
 20
157.78399999999991
 30
0.0
 11
156.40600000000001
 21
158.125
 31
0.0
  0
LINE
  5
62C
  8
0
 62
     7
 10
156.74700000000001
 20
158.08199999999991
 30
0.0
 11
156.4489999999999
 21
158.38099999999989
 31
0.0
  0
LINE
  5
62D
  8
0
 62
     7
 10
129.83799999999991
 20
74.775599999999997
 30
0.0
 11
129.83799999999991
 21
85.847499999999997
 31
0.0
  0
ARC
  5
62E
  8
0
 62
     7
 10
237.4013129999999
 20
80.689555999999996
 30
0.0
 40
113.21477400000001
 50
169.03099900000001
 51
177.63169600000001
  0
ARC
  5
62F
  8
0
 62
     7
 10
247.00719699999999
 20
79.990364
 30
0.0
 40
122.8417169999999
 50
177.49099799999999
 51
180.13382999999999
  0
ARC
  5
630
  8
0
 62
     7
 10
124.04050699999991
 20
75.330252999999999
 30
0.0
 40
3.7983019999999992
 50
3.223611
 51
79.370204999999999
  0
LINE
  5
631
  8
0
 62
     7
 10
127.8329999999999
 20
75.543800000000005
 30
0.0
 11
127.876
 21
75.351600000000005
 31
0.0
  0
LINE
  5
632
  8
0
 62
     7
 10
127.876
 20
75.351600000000005
 30
0.0
 11
127.9609999999999
 21
75.180700000000002
 31
0.0
  0
LINE
  5
633
  8
0
 62
     7
 10
127.9609999999999
 20
75.180700000000002
 30
0.0
 11
128.089
 21
75.053299999999993
 31
0.0
  0
LINE
  5
634
  8
0
 62
     7
 10
128.089
 20
75.053299999999993
 30
0.0
 11
128.239
 21
74.9465
 31
0.0
  0
LINE
  5
635
  8
0
 62
     7
 10
128.239
 20
74.9465
 30
0.0
 11
128.42999999999989
 21
74.903700000000001
 31
0.0
  0
LINE
  5
636
  8
0
 62
     7
 10
128.42999999999989
 20
74.903700000000001
 30
0.0
 11
129.83799999999991
 21
74.775599999999997
 31
0.0
  0
LINE
  5
637
  8
0
 62
     7
 10
124.1659999999999
 20
79.703500000000005
 30
0.0
 11
124.208
 21
79.489900000000006
 31
0.0
  0
LINE
  5
638
  8
0
 62
     7
 10
124.208
 20
79.489900000000006
 30
0.0
 11
124.336
 21
79.277000000000001
 31
0.0
  0
LINE
  5
639
  8
0
 62
     7
 10
124.336
 20
79.277000000000001
 30
0.0
 11
124.50700000000001
 21
79.127499999999984
 31
0.0
  0
LINE
  5
63A
  8
0
 62
     7
 10
124.50700000000001
 20
79.127499999999984
 30
0.0
 11
124.741
 21
79.063400000000001
 31
0.0
  0
LINE
  5
63B
  8
0
 62
     7
 10
140.64899999999989
 20
91.948800000000006
 30
0.0
 11
129.83799999999991
 21
85.462999999999994
 31
0.0
  0
LINE
  5
63C
  8
0
 62
     7
 10
144.61500000000001
 20
93.741
 30
0.0
 11
146.107
 21
94.146100000000004
 31
0.0
  0
LINE
  5
63D
  8
0
 62
     7
 10
146.107
 20
94.146100000000004
 30
0.0
 11
147.59999999999991
 21
94.636700000000005
 31
0.0
  0
LINE
  5
63E
  8
0
 62
     7
 10
147.59999999999991
 20
94.636700000000005
 30
0.0
 11
149.07099999999991
 21
95.191299999999998
 31
0.0
  0
LINE
  5
63F
  8
0
 62
     7
 10
149.07099999999991
 20
95.191299999999998
 30
0.0
 11
150.52099999999999
 21
95.810100000000006
 31
0.0
  0
LINE
  5
640
  8
0
 62
     7
 10
140.64899999999989
 20
91.948800000000006
 30
0.0
 11
141.33099999999999
 21
92.289900000000003
 31
0.0
  0
LINE
  5
641
  8
0
 62
     7
 10
141.33099999999999
 20
92.289900000000003
 30
0.0
 11
144.61500000000001
 21
93.741
 31
0.0
  0
ARC
  5
642
  8
0
 62
     7
 10
148.55721699999989
 20
102.47635799999991
 30
0.0
 40
6.9580690000000001
 50
286.02675699999992
 51
333.18992700000001
  0
ARC
  5
643
  8
0
 62
     7
 10
148.1926949999999
 20
102.7060679999999
 30
0.0
 40
7.3871259999999994
 50
332.87498699999998
 51
336.28837199999998
  0
LINE
  5
644
  8
0
 62
     7
 10
155.27600000000001
 20
99.671400000000006
 30
0.0
 11
155.59599999999989
 21
101.506
 31
0.0
  0
LINE
  5
645
  8
0
 62
     7
 10
155.59599999999989
 20
101.506
 30
0.0
 11
155.80899999999991
 21
103.36199999999999
 31
0.0
  0
LINE
  5
646
  8
0
 62
     7
 10
155.80899999999991
 20
103.36199999999999
 30
0.0
 11
155.916
 21
105.2389999999999
 31
0.0
  0
LINE
  5
647
  8
0
 62
     7
 10
154.95599999999999
 20
99.735500000000016
 30
0.0
 11
155.27600000000001
 21
101.56999999999999
 31
0.0
  0
LINE
  5
648
  8
0
 62
     7
 10
155.27600000000001
 20
101.56999999999999
 30
0.0
 11
155.4679999999999
 21
103.405
 31
0.0
  0
LINE
  5
649
  8
0
 62
     7
 10
155.4679999999999
 20
103.405
 30
0.0
 11
155.59599999999989
 21
105.2389999999999
 31
0.0
  0
LINE
  5
64A
  8
0
 62
     7
 10
155.27600000000001
 20
99.671400000000006
 30
0.0
 11
154.95599999999999
 21
99.735500000000016
 31
0.0
  0
ARC
  5
64B
  8
0
 62
     7
 10
6.5063909999999998
 20
121.7373959999999
 30
0.0
 40
121.32675999999999
 50
350.74845399999998
 51
0.137944
  0
LINE
  5
64C
  8
0
 62
     7
 10
129.83799999999991
 20
74.775599999999997
 30
0.0
 11
129.83799999999991
 21
118.57299999999989
 31
0.0
  0
LINE
  5
64D
  8
0
 62
     7
 10
141.33099999999999
 20
118.44499999999999
 30
0.0
 11
141.33099999999999
 21
92.289900000000003
 31
0.0
  0
ARC
  5
64E
  8
0
 62
     7
 10
822.41361299999994
 20
200.28023099999999
 30
0.0
 40
689.59100899999999
 50
188.827506
 51
189.00965600000001
  0
ARC
  5
64F
  8
0
 62
     7
 10
227.27195699999999
 20
107.62932499999989
 30
0.0
 40
87.280966000000006
 50
187.30506500000001
 51
188.68108100000001
  0
ARC
  5
650
  8
0
 62
     7
 10
188.122837
 20
102.526782
 30
0.0
 40
47.800884000000003
 50
184.35149799999991
 51
187.2052919999999
  0
ARC
  5
651
  8
0
 62
     7
 10
173.42069900000001
 20
101.3203059999999
 30
0.0
 40
33.049702000000003
 50
179.64059800000001
 51
184.1998419999999
  0
ARC
  5
652
  8
0
 62
     7
 10
195.66182900000001
 20
102.12409
 30
0.0
 40
55.293399000000001
 50
178.13317900000001
 51
180.6181169999999
  0
ARC
  5
653
  8
0
 62
     7
 10
228.79354499999999
 20
101.24320299999999
 30
0.0
 40
88.436449999999994
 50
176.809054
 51
178.26202900000001
  0
ARC
  5
654
  8
0
 62
     7
 10
325.873626
 20
96.011516999999998
 30
0.0
 40
185.657318
 50
176.08912199999989
 51
176.864676
  0
ARC
  5
655
  8
0
 62
     7
 10
-194.811036
 20
128.48703999999989
 30
0.0
 40
336.04425499999991
 50
356.61993000000001
 51
357.63614799999999
  0
ARC
  5
656
  8
0
 62
     7
 10
-421.84641199999999
 20
138.43349499999991
 30
0.0
 40
563.29697199999998
 50
357.57777900000002
 51
357.96646299999998
  0
LINE
  5
657
  8
0
 62
     7
 10
155.59599999999989
 20
105.2389999999999
 30
0.0
 11
156.74700000000001
 21
161.49600000000001
 31
0.0
  0
LINE
  5
658
  8
0
 62
     7
 10
127.8329999999999
 20
75.521799999999985
 30
0.0
 11
127.8329999999999
 21
118.57299999999989
 31
0.0
  0
LINE
  5
659
  8
0
 62
     7
 10
155.916
 20
105.2389999999999
 30
0.0
 11
157.089
 21
161.98699999999991
 31
0.0
  0
ARC
  5
65A
  8
0
 62
     7
 10
94.734555
 20
180.751912
 30
0.0
 40
0.6930960000000001
 50
2.1469949999999991
 51
87.823377000000022
  0
LINE
  5
65B
  8
0
 62
     7
 10
95.427199999999999
 20
180.77799999999991
 30
0.0
 11
95.427199999999999
 21
75.443899999999985
 31
0.0
  0
ARC
  5
65C
  8
0
 62
     7
 10
94.734669999999994
 20
75.469426999999996
 30
0.0
 40
0.692964
 50
272.167554
 51
357.89167700000002
  0
LINE
  5
65D
  8
0
 62
     7
 10
94.760900000000007
 20
74.777000000000001
 30
0.0
 11
46.093800000000002
 21
74.777000000000001
 31
0.0
  0
ARC
  5
65E
  8
0
 62
     7
 10
46.119325000000003
 20
75.469127
 30
0.0
 40
0.692639
 50
182.08449200000001
 51
267.88593600000002
  0
LINE
  5
65F
  8
0
 62
     7
 10
45.427100000000003
 20
75.443899999999985
 30
0.0
 11
45.427100000000003
 21
180.77799999999991
 31
0.0
  0
ARC
  5
660
  8
0
 62
     7
 10
46.119310999999989
 20
180.75234099999989
 30
0.0
 40
0.692638
 50
92.112883000000011
 51
177.88708799999989
  0
LINE
  5
661
  8
0
 62
     7
 10
46.093800000000002
 20
181.44499999999991
 30
0.0
 11
94.760900000000007
 21
181.44499999999991
 31
0.0
  0
LINE
  5
662
  8
0
 62
     7
 10
33.925400000000003
 20
179.23400000000001
 30
0.0
 11
33.333199999999998
 21
181.44499999999991
 31
0.0
  0
LINE
  5
663
  8
0
 62
     7
 10
33.333199999999998
 20
181.44499999999991
 30
0.0
 11
32.740699999999997
 21
179.23400000000001
 31
0.0
  0
LINE
  5
664
  8
0
 62
     7
 10
32.740699999999997
 20
179.23400000000001
 30
0.0
 11
33.925400000000003
 21
179.23400000000001
 31
0.0
  0
LINE
  5
665
  8
0
 62
     7
 10
32.755499999999991
 20
76.988
 30
0.0
 11
33.347700000000003
 21
74.777000000000001
 31
0.0
  0
LINE
  5
666
  8
0
 62
     7
 10
33.347700000000003
 20
74.777000000000001
 30
0.0
 11
33.940300000000001
 21
76.988
 31
0.0
  0
LINE
  5
667
  8
0
 62
     7
 10
33.940300000000001
 20
76.988
 30
0.0
 11
32.755499999999991
 21
76.988
 31
0.0
  0
LINE
  5
668
  8
0
 62
     7
 10
33.340499999999992
 20
181.44499999999991
 30
0.0
 11
33.340499999999992
 21
74.777000000000001
 31
0.0
  0
LINE
  5
669
  8
0
 62
     7
 10
32.6477
 20
74.777000000000001
 30
0.0
 11
44.7271
 21
74.777000000000001
 31
0.0
  0
LINE
  5
66A
  8
0
 62
     7
 10
96.127200000000016
 20
181.423
 30
0.0
 11
111.1329999999999
 21
181.423
 31
0.0
  0
LINE
  5
66B
  8
0
 62
     7
 10
91.094099999999997
 20
180.559
 30
0.0
 11
91.094099999999997
 21
187.9429999999999
 31
0.0
  0
LINE
  5
66C
  8
0
 62
     7
 10
94.543999999999997
 20
177.10900000000001
 30
0.0
 11
103.678
 21
177.10900000000001
 31
0.0
  0
LINE
  5
66D
  8
0
 62
     7
 10
76.139200000000002
 20
164.7759999999999
 30
0.0
 11
111.148
 21
164.7759999999999
 31
0.0
  0
LINE
  5
66E
  8
0
 62
     7
 10
32.6477
 20
181.44499999999991
 30
0.0
 11
44.7271
 21
181.44499999999991
 31
0.0
  0
LINE
  5
66F
  8
_________2
 62
     7
 10
210.00099999999989
 20
148.482
 30
0.0
 11
188.25099999999989
 21
148.482
 31
0.0
  0
LINE
  5
670
  8
_________2
 62
     7
 10
105.0
 20
16.979900000000001
 30
0.0
 11
105.0
 21
-0.000344512
 31
0.0
  0
LINE
  5
671
  8
_________2
 62
     7
 10
105.0
 20
297.00200000000001
 30
0.0
 11
105.0
 21
279.98200000000003
 31
0.0
  0
LINE
  5
672
  8
_________2
 62
     7
 10
21.749700000000001
 20
148.482
 30
0.0
 11
-0.000689023
 21
148.482
 31
0.0
  0
LINE
  5
673
  8
_________2
 62
     7
 10
81.441199999999995
 20
50.875799999999991
 30
0.0
 11
79.254900000000006
 21
50.875799999999991
 31
0.0
  0
LINE
  5
674
  8
_________2
 62
     7
 10
81.933800000000005
 20
50.875799999999991
 30
0.0
 11
81.681700000000006
 21
50.875799999999991
 31
0.0
  0
LINE
  5
675
  8
_________2
 62
     7
 10
82.426500000000004
 20
50.875799999999991
 30
0.0
 11
85.351399999999998
 21
50.875799999999991
 31
0.0
  0
LINE
  5
676
  8
_________2
 62
     7
 10
81.933800000000005
 20
50.875799999999991
 30
0.0
 11
82.186000000000007
 21
50.875799999999991
 31
0.0
  0
LINE
  5
677
  8
_________2
 62
     7
 10
75.537599999999998
 20
50.875799999999991
 30
0.0
 11
73.350700000000003
 21
50.875799999999991
 31
0.0
  0
LINE
  5
678
  8
_________2
 62
     7
 10
76.029600000000002
 20
50.875799999999991
 30
0.0
 11
75.778099999999995
 21
50.875799999999991
 31
0.0
  0
LINE
  5
679
  8
_________2
 62
     7
 10
76.029600000000002
 20
51.368400000000001
 30
0.0
 11
76.029600000000002
 21
53.555399999999999
 31
0.0
  0
LINE
  5
67A
  8
_________2
 62
     7
 10
76.029600000000002
 20
50.875799999999991
 30
0.0
 11
76.029600000000002
 21
51.128
 31
0.0
  0
LINE
  5
67B
  8
_________2
 62
     7
 10
76.522300000000001
 20
50.875799999999991
 30
0.0
 11
78.709199999999996
 21
50.875799999999991
 31
0.0
  0
LINE
  5
67C
  8
_________2
 62
     7
 10
76.029600000000002
 20
50.875799999999991
 30
0.0
 11
76.281800000000004
 21
50.875799999999991
 31
0.0
  0
LINE
  5
67D
  8
_________2
 62
     7
 10
76.029600000000002
 20
50.383800000000001
 30
0.0
 11
76.029600000000002
 21
48.196800000000003
 31
0.0
  0
LINE
  5
67E
  8
_________2
 62
     7
 10
76.029600000000002
 20
50.875799999999991
 30
0.0
 11
76.029600000000002
 21
50.624299999999991
 31
0.0
  0
LINE
  5
67F
  8
_________2
 62
     7
 10
79.740700000000004
 20
49.656199999999998
 30
0.0
 11
84.918700000000001
 21
48.791499999999999
 31
0.0
  0
LINE
  5
680
  8
_________2
 62
     7
 10
79.740700000000004
 20
52.095300000000002
 30
0.0
 11
84.918700000000001
 21
52.960799999999992
 31
0.0
  0
LINE
  5
681
  8
_________2
 62
     7
 10
84.918700000000001
 20
48.791499999999999
 30
0.0
 11
84.918700000000001
 21
52.960799999999992
 31
0.0
  0
LINE
  5
682
  8
_________2
 62
     7
 10
79.740700000000004
 20
49.656199999999998
 30
0.0
 11
79.740700000000004
 21
52.095300000000002
 31
0.0
  0
ARC
  5
683
  8
_________2
 62
     7
 10
75.983362999999997
 20
50.828812999999997
 30
0.0
 40
1.2673709999999989
 50
2.1232950000000002
 51
87.909056000000007
  0
ARC
  5
684
  8
_________2
 62
     7
 10
76.076526999999999
 20
50.828847000000003
 30
0.0
 40
1.267363
 50
92.121785999999986
 51
177.878185
  0
ARC
  5
685
  8
_________2
 62
     7
 10
76.076526999999999
 20
50.922691999999998
 30
0.0
 40
1.267363
 50
182.12181499999991
 51
267.87821400000001
  0
ARC
  5
686
  8
_________2
 62
     7
 10
75.982714000000001
 20
50.923374000000003
 30
0.0
 40
1.2680439999999991
 50
272.11916400000001
 51
357.84848499999993
  0
ARC
  5
687
  8
_________2
 62
     7
 10
76.029604000000006
 20
50.875768999999998
 30
0.0
 40
2.0849849999999992
 50
0.00001
 51
89.999980000000008
  0
ARC
  5
688
  8
_________2
 62
     7
 10
76.109640999999996
 20
50.796447000000001
 30
0.0
 40
2.1657860000000002
 50
92.117855000000034
 51
177.90105299999991
  0
ARC
  5
689
  8
_________2
 62
     7
 10
76.109607999999994
 20
50.955773000000001
 30
0.0
 40
2.1657779999999991
 50
182.11700400000001
 51
267.88302499999992
  0
ARC
  5
68A
  8
_________2
 62
     7
 10
75.949632999999992
 20
50.956456000000003
 30
0.0
 40
2.1664590000000001
 50
272.11546800000002
 51
357.86560400000002
  0
TEXT
  5
68B
  8
_________2
 62
     7
 10
109.30500000000001
 20
22.750499999999992
 30
0.0
 40
3.0923400000000001
  1
図番
 41
0.5
  0
LINE
  5
68C
  8
_________2
 62
     7
 10
108.25
 20
26.979700000000001
 30
0.0
 11
188.25099999999989
 21
26.979700000000001
 31
0.0
  0
TEXT
  5
68D
  8
_________2
 62
     7
 10
109.30500000000001
 20
32.750300000000003
 30
0.0
 40
3.0923400000000001
  1
品番
 41
0.5
  0
TEXT
  5
68E
  8
_________2
 62
     7
 10
109.30500000000001
 20
52.889099999999999
 30
0.0
 40
3.0923400000000001
  1
名称
 41
0.5
  0
TEXT
  5
68F
  8
_________2
 62
     7
 10
96.545258333333337
 20
47.892999999999986
 30
0.0
 40
3.6545800000000002
  1
mm
 41
0.5
 72
     1
 11
98.067999999999998
 21
47.892999999999986
 31
0.0
  0
TEXT
  5
690
  8
_________2
 62
     7
 10
90.343400000000003
 20
52.889099999999999
 30
0.0
 40
3.0923400000000001
  1
単位
 41
0.5
  0
TEXT
  5
691
  8
_________2
 62
     7
 10
90.343400000000003
 20
40.481900000000003
 30
0.0
 40
3.0923400000000001
  1
尺度
 41
0.5
  0
TEXT
  5
692
  8
_________2
 62
     7
 10
94.639861999999994
 20
34.288899999999991
 30
0.0
 40
3.6545800000000002
  1
1 ： 15
 41
0.5
 72
     1
 11
98.659899999999993
 21
34.288899999999991
 31
0.0
  0
TEXT
  5
693
  8
_________2
 62
     7
 10
138.90271250000001
 20
30.178899999999992
 30
0.0
 40
3.9357000000000002
  1
CEY21640V7
 41
0.5
 72
     1
 11
148.24999999999989
 21
30.178899999999992
 31
0.0
  0
TEXT
  5
694
  8
_________2
 62
     7
 10
138.90271250000001
 20
20.1784
 30
0.0
 40
3.9357000000000002
  1
CEY21640V7
 41
0.5
 72
     1
 11
148.24999999999989
 21
20.1784
 31
0.0
  0
TEXT
  5
695
  8
_________2
 62
     7
 10
29.286899999999989
 20
21.778300000000002
 30
0.0
 40
3.9357000000000002
  1
満水容量：200L、重量：24.0kg
 41
0.5
  0
TEXT
  5
696
  8
_________2
 62
     7
 10
113.87899999999991
 20
45.296700000000001
 30
0.0
 40
3.9357000000000002
  1
アクリル製バスタブ（1600サイズ）
 41
0.5
  0
TEXT
  5
697
  8
_________2
 62
     7
 10
44.125500333333328
 20
34.674100000000003
 30
0.0
 40
3.6545800000000002
  1
早川
 41
0.5
 72
     1
 11
46.0137
 21
34.674100000000003
 31
0.0
  0
TEXT
  5
698
  8
_________2
 62
     7
 10
25.490590666666659
 20
34.674100000000003
 30
0.0
 40
3.6545800000000002
  1
菅原
 41
0.5
 72
     1
 11
27.439699999999998
 21
34.674100000000003
 31
0.0
  0
TEXT
  5
699
  8
_________2
 62
     7
 10
72.486000000000004
 20
34.288899999999991
 30
0.0
 40
3.6545800000000002
  1
13.12.24
 41
0.5
  0
TEXT
  5
69A
  8
_________2
 62
     7
 10
71.293300000000002
 20
40.481900000000003
 30
0.0
 40
3.0923400000000001
  1
日付
 41
0.5
  0
TEXT
  5
69B
  8
_________2
 62
     7
 10
34.33959999999999
 20
40.481900000000003
 30
0.0
 40
3.0923400000000001
  1
検図
 41
0.5
  0
TEXT
  5
69C
  8
_________2
 62
     7
 10
22.7212
 20
26.282499999999992
 30
0.0
 40
3.0923400000000001
  1
備考
 41
0.5
  0
TEXT
  5
69D
  8
_________2
 62
     7
 10
22.7212
 20
40.481900000000003
 30
0.0
 40
3.0923400000000001
  1
製図
 41
0.5
  0
TEXT
  5
69E
  8
_________2
 62
     7
 10
28.488665333333341
 20
49.00780000000001
 30
0.0
 40
4.4979399999999989
  1
セラトレーディング株式会社
 41
0.5
 72
     1
 11
45.880699999999997
 21
49.00780000000001
 31
0.0
  0
LINE
  5
69F
  8
_________2
 62
     7
 10
188.25099999999989
 20
16.979900000000001
 30
0.0
 11
21.749700000000001
 21
16.979900000000001
 31
0.0
  0
LINE
  5
6A0
  8
_________2
 62
     7
 10
21.749700000000001
 20
16.979900000000001
 30
0.0
 11
21.749700000000001
 21
279.98200000000003
 31
0.0
  0
LINE
  5
6A1
  8
_________2
 62
     7
 10
21.749700000000001
 20
279.98200000000003
 30
0.0
 11
188.25099999999989
 21
279.98200000000003
 31
0.0
  0
LINE
  5
6A2
  8
_________2
 62
     7
 10
188.25099999999989
 20
279.98200000000003
 30
0.0
 11
188.25099999999989
 21
16.979900000000001
 31
0.0
  0
LINE
  5
6A3
  8
_________2
 62
     7
 10
70.250100000000003
 20
30.48
 30
0.0
 11
70.250100000000003
 21
56.979799999999997
 31
0.0
  0
LINE
  5
6A4
  8
_________2
 62
     7
 10
89.249899999999997
 20
30.48
 30
0.0
 11
89.249899999999997
 21
56.979799999999997
 31
0.0
  0
LINE
  5
6A5
  8
_________2
 62
     7
 10
108.25
 20
16.979900000000001
 30
0.0
 11
108.25
 21
56.979799999999997
 31
0.0
  0
LINE
  5
6A6
  8
_________2
 62
     7
 10
33.249499999999991
 20
30.48
 30
0.0
 11
33.249499999999991
 21
44.4803
 31
0.0
  0
LINE
  5
6A7
  8
_________2
 62
     7
 10
21.749700000000001
 20
30.48
 30
0.0
 11
108.25
 21
30.48
 31
0.0
  0
LINE
  5
6A8
  8
_________2
 62
     7
 10
21.749700000000001
 20
44.4803
 30
0.0
 11
108.25
 21
44.4803
 31
0.0
  0
LINE
  5
6A9
  8
_________2
 62
     7
 10
108.25
 20
36.979500000000002
 30
0.0
 11
188.25099999999989
 21
36.979500000000002
 31
0.0
  0
LINE
  5
6AA
  8
_________2
 62
     7
 10
21.749700000000001
 20
56.979799999999997
 30
0.0
 11
188.25099999999989
 21
56.979799999999997
 31
0.0
  0
ENDSEC
  0
EOF
