  0
SECTION
  2
HEADER
  9
$ACADVER
  1
AC1009
  9
$INSBASE
 10
0.0
 20
0.0
 30
0.0
  9
$EXTMIN
 10
-0.000689023
 20
-0.000344512
 30
0.0
  9
$EXTMAX
 10
210.00099999999989
 20
297.00200000000001
 30
0.0
  9
$LIMMIN
 10
0.0
 20
0.0
  9
$LIMMAX
 10
12.0
 20
9.0
  9
$ORTHOMODE
 70
     0
  9
$REGENMODE
 70
     1
  9
$FILLMODE
 70
     1
  9
$QTEXTMODE
 70
     0
  9
$MIRRTEXT
 70
     1
  9
$DRAGMODE
 70
     2
  9
$LTSCALE
 40
1.0
  9
$OSMODE
 70
    37
  9
$ATTMODE
 70
     1
  9
$TEXTSIZE
 40
0.0
  9
$TRACEWID
 40
0.05
  9
$TEXTSTYLE
  7
STANDARD
  9
$CLAYER
  8
0
  9
$CELTYPE
  6
CONTINUOUS
  9
$CECOLOR
 62
   256
  9
$DIMSCALE
 40
1.0
  9
$DIMASZ
 40
0.18
  9
$DIMEXO
 40
0.0625
  9
$DIMDLI
 40
0.38
  9
$DIMRND
 40
0.0
  9
$DIMDLE
 40
0.0
  9
$DIMEXE
 40
0.18
  9
$DIMTP
 40
0.0
  9
$DIMTM
 40
0.0
  9
$DIMTXT
 40
0.18
  9
$DIMCEN
 40
0.09
  9
$DIMTSZ
 40
0.0
  9
$DIMTOL
 70
     0
  9
$DIMLIM
 70
     0
  9
$DIMTIH
 70
     1
  9
$DIMTOH
 70
     1
  9
$DIMSE1
 70
     0
  9
$DIMSE2
 70
     0
  9
$DIMTAD
 70
     0
  9
$DIMZIN
 70
     0
  9
$DIMBLK
  1

  9
$DIMASO
 70
     1
  9
$DIMSHO
 70
     1
  9
$DIMPOST
  1

  9
$DIMAPOST
  1

  9
$DIMALT
 70
     0
  9
$DIMALTD
 70
     2
  9
$DIMALTF
 40
25.399999999999999
  9
$DIMLFAC
 40
1.0
  9
$DIMTOFL
 70
     0
  9
$DIMTVP
 40
0.0
  9
$DIMTIX
 70
     0
  9
$DIMSOXD
 70
     0
  9
$DIMSAH
 70
     0
  9
$DIMBLK1
  1

  9
$DIMBLK2
  1

  9
$DIMSTYLE
  2
STANDARD
  9
$DIMCLRD
 70
     0
  9
$DIMCLRE
 70
     0
  9
$DIMCLRT
 70
     0
  9
$DIMTFAC
 40
1.0
  9
$DIMGAP
 40
0.09
  9
$LUNITS
 70
     2
  9
$LUPREC
 70
     4
  9
$SKETCHINC
 40
0.1
  9
$FILLETRAD
 40
0.0
  9
$AUNITS
 70
     0
  9
$AUPREC
 70
     0
  9
$MENU
  1
.
  9
$ELEVATION
 40
0.0
  9
$PELEVATION
 40
0.0
  9
$THICKNESS
 40
0.0
  9
$LIMCHECK
 70
     0
  9
$BLIPMODE
 70
     0
  9
$CHAMFERA
 40
0.0
  9
$CHAMFERB
 40
0.0
  9
$SKPOLY
 70
     0
  9
$TDCREATE
 40
2444972.375
  9
$TDUPDATE
 40
2455980.3559959028
  9
$TDINDWG
 40
0.0000117245
  9
$TDUSRTIMER
 40
0.0000117245
  9
$USRTIMER
 70
     1
  9
$ANGBASE
 50
0.0
  9
$ANGDIR
 70
     0
  9
$PDMODE
 70
     0
  9
$PDSIZE
 40
0.0
  9
$PLINEWID
 40
0.0
  9
$COORDS
 70
     1
  9
$SPLFRAME
 70
     0
  9
$SPLINETYPE
 70
     6
  9
$SPLINESEGS
 70
     8
  9
$ATTDIA
 70
     0
  9
$ATTREQ
 70
     1
  9
$HANDLING
 70
     1
  9
$HANDSEED
  5
4F7
  9
$SURFTAB1
 70
     6
  9
$SURFTAB2
 70
     6
  9
$SURFTYPE
 70
     6
  9
$SURFU
 70
     6
  9
$SURFV
 70
     6
  9
$UCSNAME
  2

  9
$UCSORG
 10
0.0
 20
0.0
 30
0.0
  9
$UCSXDIR
 10
1.0
 20
0.0
 30
0.0
  9
$UCSYDIR
 10
0.0
 20
1.0
 30
0.0
  9
$PUCSNAME
  2

  9
$PUCSORG
 10
0.0
 20
0.0
 30
0.0
  9
$PUCSXDIR
 10
1.0
 20
0.0
 30
0.0
  9
$PUCSYDIR
 10
0.0
 20
1.0
 30
0.0
  9
$USERI1
 70
     0
  9
$USERI2
 70
     0
  9
$USERI3
 70
     0
  9
$USERI4
 70
     0
  9
$USERI5
 70
     0
  9
$USERR1
 40
0.0
  9
$USERR2
 40
0.0
  9
$USERR3
 40
0.0
  9
$USERR4
 40
0.0
  9
$USERR5
 40
0.0
  9
$WORLDVIEW
 70
     1
  9
$SHADEDGE
 70
     3
  9
$SHADEDIF
 70
    70
  9
$TILEMODE
 70
     1
  9
$MAXACTVP
 70
    48
  9
$PLIMCHECK
 70
     0
  9
$PEXTMIN
 10
1.0000000000000000E+020
 20
1.0000000000000000E+020
 30
1.0000000000000000E+020
  9
$PEXTMAX
 10
-1.0000000000000000E+020
 20
-1.0000000000000000E+020
 30
-1.0000000000000000E+020
  9
$PLIMMIN
 10
0.0
 20
0.0
  9
$PLIMMAX
 10
12.0
 20
9.0
  9
$UNITMODE
 70
     0
  9
$VISRETAIN
 70
     1
  9
$PLINEGEN
 70
     0
  9
$PSLTSCALE
 70
     1
  0
ENDSEC
  0
SECTION
  2
TABLES
  0
TABLE
  2
VPORT
 70
     2
  0
VPORT
  2
*ACTIVE
 70
     0
 10
0.0
 20
0.0
 11
1.0
 21
1.0
 12
210.01058136432829
 22
148.50082774399999
 13
0.0
 23
0.0
 14
1.0
 24
1.0
 15
0.0
 25
0.0
 16
0.0
 26
0.0
 36
1.0
 17
0.0
 27
0.0
 37
0.0
 40
299.24669472241823
 41
2.2894736842105261
 42
50.0
 43
0.0
 44
0.0
 50
0.0
 51
0.0
 71
     0
 72
   100
 73
     1
 74
     1
 75
     0
 76
     0
 77
     0
 78
     0
  0
ENDTAB
  0
TABLE
  2
LTYPE
 70
     2
  0
LTYPE
  2
CONTINUOUS
 70
     0
  3
Solid line
 72
    65
 73
     0
 40
0.0
  0
LTYPE
  2
AIGENLINE001
 70
     0
  3
generate AI->DXF Converter
 72
    65
 73
     4
 40
5.8561449999999988
 49
3.5278
 49
-0.776115
 49
0.776115
 49
-0.776115
  0
ENDTAB
  0
TABLE
  2
LAYER
 70
     2
  0
LAYER
  2
0
 70
     0
 62
     7
  6
CONTINUOUS
  0
LAYER
  2
_________2
 70
     0
 62
     7
  6
CONTINUOUS
  0
ENDTAB
  0
TABLE
  2
STYLE
 70
     1
  0
STYLE
  2
STANDARD
 70
     0
 40
0.0
 41
0.0
 50
0.0
 71
     0
 42
0.0
  3
TXT
  4
EXTFONT.SHX
  0
ENDTAB
  0
TABLE
  2
VIEW
 70
     0
  0
ENDTAB
  0
TABLE
  2
UCS
 70
     0
  0
ENDTAB
  0
TABLE
  2
APPID
 70
     1
  0
APPID
  2
ACAD
 70
     0
  0
ENDTAB
  0
TABLE
  2
DIMSTYLE
 70
     1
  0
DIMSTYLE
  2
STANDARD
 70
     0
  3

  4

  5

  6

  7

 40
1.0
 41
0.18
 42
0.0625
 43
0.38
 44
0.18
 45
0.0
 46
0.0
 47
0.0
 48
0.0
140
0.18
141
0.09
142
0.0
143
25.399999999999999
144
1.0
145
0.0
146
1.0
147
0.09
 71
     0
 72
     0
 73
     1
 74
     1
 75
     0
 76
     0
 77
     0
 78
     0
170
     0
171
     2
172
     0
173
     0
174
     0
175
     0
176
     0
177
     0
178
     0
  0
ENDTAB
  0
ENDSEC
  0
SECTION
  2
BLOCKS
  0
BLOCK
  8
0
  2
$MODEL_SPACE
 70
     0
 10
0.0
 20
0.0
 30
0.0
  3
$MODEL_SPACE
  1

  0
ENDBLK
  5
1A
  8
0
  0
BLOCK
 67
     1
  8
0
  2
$PAPER_SPACE
 70
     0
 10
0.0
 20
0.0
 30
0.0
  3
$PAPER_SPACE
  1

  0
ENDBLK
  5
17
 67
     1
  8
0
  0
ENDSEC
  0
SECTION
  2
ENTITIES
  0
TEXT
  5
22
  8
0
 62
     7
 10
36.961300000000001
 20
127.5694899999999
 30
0.0
 40
3.0923400000000001
  1
1700
 50
90.0
 41
0.5
 72
     2
 11
36.961300000000001
 21
132.20799999999991
 31
0.0
  0
TEXT
  5
23
  8
0
 62
     7
 10
44.328000000000003
 20
125.5737449999999
 30
0.0
 40
3.0923400000000001
  1
1500
 50
90.0
 41
0.5
 72
     1
 11
44.328000000000003
 21
127.8929999999999
 31
0.0
  0
TEXT
  5
24
  8
0
 62
     7
 10
44.153100000000002
 20
179.68082999999999
 30
0.0
 40
3.0923400000000001
  1
100
 50
90.0
 41
0.5
 72
     1
 11
44.153100000000002
 21
181.227
 31
0.0
  0
TEXT
  5
25
  8
0
 62
     7
 10
44.153100000000002
 20
73.013030000000001
 30
0.0
 40
3.0923400000000001
  1
100
 50
90.0
 41
0.5
 72
     1
 11
44.153100000000002
 21
74.559200000000004
 31
0.0
  0
TEXT
  5
26
  8
0
 62
     7
 10
85.163499999999999
 20
67.638710000000003
 30
0.0
 40
3.0923400000000001
  1
A
 50
90.0
 41
0.5
 72
     1
 11
85.163499999999999
 21
68.154099999999985
 31
0.0
  0
TEXT
  5
27
  8
0
 62
     7
 10
85.163499999999999
 20
187.34961000000001
 30
0.0
 40
3.0923400000000001
  1
A
 50
90.0
 41
0.5
 72
     1
 11
85.163499999999999
 21
187.86500000000001
 31
0.0
  0
TEXT
  5
28
  8
0
 62
     7
 10
177.78099999999989
 20
125.8314399999999
 30
0.0
 40
3.0923400000000001
  1
A-A
 50
90.0
 41
0.5
 72
     1
 11
177.78099999999989
 21
127.8929999999999
 31
0.0
  0
TEXT
  5
29
  8
0
 62
     7
 10
113.73399999999999
 20
247.17999999999989
 30
0.0
 40
3.0923400000000001
  1
%%c53
 41
0.5
  0
TEXT
  5
2A
  8
0
 62
     7
 10
84.905779999999993
 20
163.792
 30
0.0
 40
3.0923400000000001
  1
%%c55
 41
0.5
 72
     2
 11
89.028899999999993
 21
163.792
 31
0.0
  0
TEXT
  5
2B
  8
0
 62
     7
 10
111.047
 20
174.29428749999991
 30
0.0
 40
3.0923400000000001
  1
250
 50
90.0
 41
0.5
 72
     1
 11
111.047
 21
176.227
 31
0.0
  0
TEXT
  5
2C
  8
0
 62
     7
 10
170.37599999999989
 20
126.08813499999999
 30
0.0
 40
3.0923400000000001
  1
800
 50
90.0
 41
0.5
 72
     1
 11
170.37599999999989
 21
127.892
 31
0.0
  0
TEXT
  5
2D
  8
0
 62
     7
 10
116.8029999999999
 20
189.97900000000001
 30
0.0
 40
3.0923400000000001
  1
30
 41
0.5
  0
TEXT
  5
2E
  8
0
 62
     7
 10
117.602
 20
232.708
 30
0.0
 40
3.0923400000000001
  1
70
 41
0.5
  0
TEXT
  5
2F
  8
0
 62
     7
 10
134.47828749999991
 20
168.59099999999989
 30
0.0
 40
3.0923400000000001
  1
460
 41
0.5
 72
     1
 11
136.41099999999989
 21
168.59099999999989
 31
0.0
  0
TEXT
  5
30
  8
0
 62
     7
 10
139.4772874999999
 20
196.28599999999989
 30
0.0
 40
3.0923400000000001
  1
590
 41
0.5
 72
     1
 11
141.40999999999991
 21
196.28599999999989
 31
0.0
  0
TEXT
  5
31
  8
0
 62
     7
 10
170.37599999999989
 20
237.2742874999999
 30
0.0
 40
3.0923400000000001
  1
260
 50
90.0
 41
0.5
 72
     1
 11
170.37599999999989
 21
239.20699999999991
 31
0.0
  0
TEXT
  5
32
  8
0
 62
     7
 10
170.37599999999989
 20
254.9402874999999
 30
0.0
 40
3.0923400000000001
  1
270
 50
90.0
 41
0.5
 72
     1
 11
170.37599999999989
 21
256.87299999999988
 31
0.0
  0
TEXT
  5
33
  8
0
 62
     7
 10
170.37599999999989
 20
219.60728750000001
 30
0.0
 40
3.0923400000000001
  1
270
 50
90.0
 41
0.5
 72
     1
 11
170.37599999999989
 21
221.53999999999991
 31
0.0
  0
TEXT
  5
34
  8
0
 62
     7
 10
170.37599999999989
 20
167.62728749999991
 30
0.0
 40
3.0923400000000001
  1
450
 50
90.0
 41
0.5
 72
     1
 11
170.37599999999989
 21
169.55999999999989
 31
0.0
  0
TEXT
  5
35
  8
0
 62
     7
 10
170.37599999999989
 20
84.293087500000027
 30
0.0
 40
3.0923400000000001
  1
450
 50
90.0
 41
0.5
 72
     1
 11
170.37599999999989
 21
86.225800000000007
 31
0.0
  0
TEXT
  5
36
  8
0
 62
     7
 10
99.91583
 20
195.78200000000001
 30
0.0
 40
3.0923400000000001
  1
100
 41
0.5
 72
     1
 11
101.462
 21
195.78200000000001
 31
0.0
  0
TEXT
  5
37
  8
0
 62
     7
 10
53.248730000000002
 20
195.78200000000001
 30
0.0
 40
3.0923400000000001
  1
100
 41
0.5
 72
     1
 11
54.794899999999998
 21
195.78200000000001
 31
0.0
  0
TEXT
  5
38
  8
0
 62
     7
 10
76.324335000000005
 20
195.78200000000001
 30
0.0
 40
3.0923400000000001
  1
600
 41
0.5
 72
     1
 11
78.128200000000007
 21
195.78200000000001
 31
0.0
  0
TEXT
  5
39
  8
0
 62
     7
 10
76.324635000000001
 20
201.77099999999999
 30
0.0
 40
3.0923400000000001
  1
800
 41
0.5
 72
     1
 11
78.128500000000003
 21
201.77099999999999
 31
0.0
  0
ARC
  5
3A
  8
0
 62
     7
 10
88.483479000000003
 20
155.4526929999999
 30
0.0
 40
1.1430610000000001
 50
272.1271089999999
 51
357.88187399999998
  0
ARC
  5
3B
  8
0
 62
     7
 10
88.567781999999994
 20
155.452144
 30
0.0
 40
1.1424920000000001
 50
182.091633
 51
267.89942400000001
  0
ARC
  5
3C
  8
0
 62
     7
 10
88.567993000000001
 20
155.36817899999991
 30
0.0
 40
1.142722999999999
 50
92.110710999999995
 51
177.88028499999999
  0
ARC
  5
3D
  8
0
 62
     7
 10
88.484053000000003
 20
155.368414
 30
0.0
 40
1.1424799999999991
 50
2.1083780000000001
 51
87.900587000000016
  0
ARC
  5
3E
  8
0
 62
     7
 10
88.525733000000017
 20
152.3821879999999
 30
0.0
 40
1.1000259999999991
 50
270.00899199999992
 51
0.008962
  0
ARC
  5
3F
  8
0
 62
     7
 10
88.526077999999984
 20
152.38218699999999
 30
0.0
 40
1.1000259999999991
 50
179.99099799999991
 51
269.99104799999992
  0
ARC
  5
40
  8
0
 62
     7
 10
88.567993000000001
 20
152.34009399999991
 30
0.0
 40
1.142722999999999
 50
92.110710999999995
 51
177.88028499999999
  0
ARC
  5
41
  8
0
 62
     7
 10
88.484053000000003
 20
152.340328
 30
0.0
 40
1.1424799999999991
 50
2.1083780000000001
 51
87.900587000000016
  0
ARC
  5
42
  8
0
 62
     7
 10
88.483479000000003
 20
149.39652099999989
 30
0.0
 40
1.1430610000000001
 50
272.1271089999999
 51
357.88187399999998
  0
ARC
  5
43
  8
0
 62
     7
 10
88.567781999999994
 20
149.395972
 30
0.0
 40
1.1424920000000001
 50
182.091633
 51
267.89942400000001
  0
ARC
  5
44
  8
0
 62
     7
 10
88.567993000000001
 20
149.31200799999999
 30
0.0
 40
1.142722999999999
 50
92.110710999999995
 51
177.88028499999999
  0
ARC
  5
45
  8
0
 62
     7
 10
88.484053000000003
 20
149.31224199999991
 30
0.0
 40
1.1424799999999991
 50
2.1083780000000001
 51
87.900587000000016
  0
ARC
  5
46
  8
0
 62
     7
 10
88.525647000000006
 20
146.32627400000001
 30
0.0
 40
1.1001119999999991
 50
270.01347700000002
 51
0.013447
  0
ARC
  5
47
  8
0
 62
     7
 10
88.526163999999994
 20
146.32627400000001
 30
0.0
 40
1.1001119999999991
 50
179.986513
 51
269.98656299999999
  0
ARC
  5
48
  8
0
 62
     7
 10
88.567993000000001
 20
146.284267
 30
0.0
 40
1.142722999999999
 50
92.110710999999995
 51
177.88028499999999
  0
ARC
  5
49
  8
0
 62
     7
 10
88.484053000000003
 20
146.28450100000001
 30
0.0
 40
1.1424799999999991
 50
2.1083780000000001
 51
87.900587000000016
  0
ARC
  5
4A
  8
0
 62
     7
 10
88.483828000000017
 20
143.34053099999991
 30
0.0
 40
1.142712999999999
 50
272.11025999999998
 51
357.88077599999991
  0
ARC
  5
4B
  8
0
 62
     7
 10
88.567757999999984
 20
143.340306
 30
0.0
 40
1.1424799999999991
 50
182.10838000000001
 51
267.90062399999999
  0
ARC
  5
4C
  8
0
 62
     7
 10
88.567993000000001
 20
143.25600800000001
 30
0.0
 40
1.142722999999999
 50
92.110710999999995
 51
177.88028499999999
  0
ARC
  5
4D
  8
0
 62
     7
 10
88.484053000000003
 20
143.2562429999999
 30
0.0
 40
1.1424799999999991
 50
2.1083780000000001
 51
87.900587000000016
  0
ARC
  5
4E
  8
0
 62
     7
 10
88.483828000000017
 20
140.31227299999989
 30
0.0
 40
1.142712999999999
 50
272.11025999999998
 51
357.88077599999991
  0
ARC
  5
4F
  8
0
 62
     7
 10
88.567757999999984
 20
140.312048
 30
0.0
 40
1.1424799999999991
 50
182.10838000000001
 51
267.90062399999999
  0
ARC
  5
50
  8
0
 62
     7
 10
88.567993000000001
 20
140.2277499999999
 30
0.0
 40
1.142722999999999
 50
92.110710999999995
 51
177.88028499999999
  0
ARC
  5
51
  8
0
 62
     7
 10
88.484053000000003
 20
140.22798499999999
 30
0.0
 40
1.1424799999999991
 50
2.1083780000000001
 51
87.900587000000016
  0
ARC
  5
52
  8
0
 62
     7
 10
88.525647000000006
 20
137.242189
 30
0.0
 40
1.1001119999999991
 50
270.01347700000002
 51
0.013447
  0
ARC
  5
53
  8
0
 62
     7
 10
88.526163999999994
 20
137.242189
 30
0.0
 40
1.1001119999999991
 50
179.986513
 51
269.98656299999999
  0
ARC
  5
54
  8
0
 62
     7
 10
88.567993000000001
 20
137.20018099999999
 30
0.0
 40
1.142722999999999
 50
92.110710999999995
 51
177.88028499999999
  0
ARC
  5
55
  8
0
 62
     7
 10
88.484053000000003
 20
137.2004159999999
 30
0.0
 40
1.1424799999999991
 50
2.1083780000000001
 51
87.900587000000016
  0
ARC
  5
56
  8
0
 62
     7
 10
88.483828000000017
 20
134.2564459999999
 30
0.0
 40
1.142712999999999
 50
272.11025999999998
 51
357.88077599999991
  0
ARC
  5
57
  8
0
 62
     7
 10
88.567757999999984
 20
134.2562209999999
 30
0.0
 40
1.1424799999999991
 50
182.10838000000001
 51
267.90062399999999
  0
ARC
  5
58
  8
0
 62
     7
 10
88.567993000000001
 20
134.17192299999999
 30
0.0
 40
1.142722999999999
 50
92.110710999999995
 51
177.88028499999999
  0
ARC
  5
59
  8
0
 62
     7
 10
88.484053000000003
 20
134.17215799999991
 30
0.0
 40
1.1424799999999991
 50
2.1083780000000001
 51
87.900587000000016
  0
ARC
  5
5A
  8
0
 62
     7
 10
88.525647000000006
 20
131.186362
 30
0.0
 40
1.1001119999999991
 50
270.01347700000002
 51
0.013447
  0
ARC
  5
5B
  8
0
 62
     7
 10
88.526163999999994
 20
131.186362
 30
0.0
 40
1.1001119999999991
 50
179.986513
 51
269.98656299999999
  0
ARC
  5
5C
  8
0
 62
     7
 10
88.567993000000001
 20
131.14435399999991
 30
0.0
 40
1.142722999999999
 50
92.110710999999995
 51
177.88028499999999
  0
ARC
  5
5D
  8
0
 62
     7
 10
88.484053000000003
 20
131.14458899999991
 30
0.0
 40
1.1424799999999991
 50
2.1083780000000001
 51
87.900587000000016
  0
ARC
  5
5E
  8
0
 62
     7
 10
88.525647000000006
 20
128.15810400000001
 30
0.0
 40
1.1001119999999991
 50
270.01347700000002
 51
0.013447
  0
ARC
  5
5F
  8
0
 62
     7
 10
88.526163999999994
 20
128.15810400000001
 30
0.0
 40
1.1001119999999991
 50
179.986513
 51
269.98656299999999
  0
ARC
  5
60
  8
0
 62
     7
 10
88.567993000000001
 20
128.116096
 30
0.0
 40
1.142722999999999
 50
92.110710999999995
 51
177.88028499999999
  0
ARC
  5
61
  8
0
 62
     7
 10
88.484053000000003
 20
128.11633099999989
 30
0.0
 40
1.1424799999999991
 50
2.1083780000000001
 51
87.900587000000016
  0
ARC
  5
62
  8
0
 62
     7
 10
88.483828000000017
 20
125.172361
 30
0.0
 40
1.142712999999999
 50
272.11025999999998
 51
357.88077599999991
  0
ARC
  5
63
  8
0
 62
     7
 10
88.567757999999984
 20
125.172135
 30
0.0
 40
1.1424799999999991
 50
182.10838000000001
 51
267.90062399999999
  0
ARC
  5
64
  8
0
 62
     7
 10
88.567993000000001
 20
125.08783799999991
 30
0.0
 40
1.142722999999999
 50
92.110710999999995
 51
177.88028499999999
  0
ARC
  5
65
  8
0
 62
     7
 10
88.484053000000003
 20
125.08807299999989
 30
0.0
 40
1.1424799999999991
 50
2.1083780000000001
 51
87.900587000000016
  0
ARC
  5
66
  8
0
 62
     7
 10
88.525905000000009
 20
158.438187
 30
0.0
 40
1.0998540000000001
 50
270.00002000000001
 51
359.99998999999991
  0
ARC
  5
67
  8
0
 62
     7
 10
88.525905000000009
 20
158.438187
 30
0.0
 40
1.0998529999999991
 50
179.99996999999991
 51
270.00002000000001
  0
ARC
  5
68
  8
0
 62
     7
 10
88.525906000000006
 20
158.438187
 30
0.0
 40
1.0998540000000001
 50
90.0
 51
179.99996999999991
  0
ARC
  5
69
  8
0
 62
     7
 10
88.525905000000009
 20
158.438187
 30
0.0
 40
1.0998540000000001
 50
0.00001
 51
89.999980000000008
  0
ARC
  5
6A
  8
0
 62
     7
 10
85.884138000000007
 20
156.96647699999991
 30
0.0
 40
1.1430610000000001
 50
272.1271089999999
 51
357.88187399999998
  0
ARC
  5
6B
  8
0
 62
     7
 10
85.968440999999999
 20
156.96592799999991
 30
0.0
 40
1.1424920000000001
 50
182.091633
 51
267.89942400000001
  0
ARC
  5
6C
  8
0
 62
     7
 10
85.968652000000006
 20
156.8819639999999
 30
0.0
 40
1.142722999999999
 50
92.110710999999995
 51
177.88028499999999
  0
ARC
  5
6D
  8
0
 62
     7
 10
85.884711999999979
 20
156.8821979999999
 30
0.0
 40
1.1424799999999991
 50
2.1083780000000001
 51
87.900587000000016
  0
ARC
  5
6E
  8
0
 62
     7
 10
85.884138000000007
 20
153.93839199999991
 30
0.0
 40
1.1430610000000001
 50
272.1271089999999
 51
357.88187399999998
  0
ARC
  5
6F
  8
0
 62
     7
 10
85.968440999999999
 20
153.93784199999999
 30
0.0
 40
1.1424920000000001
 50
182.091633
 51
267.89942400000001
  0
ARC
  5
70
  8
0
 62
     7
 10
85.968652000000006
 20
153.85387800000001
 30
0.0
 40
1.142722999999999
 50
92.110710999999995
 51
177.88028499999999
  0
ARC
  5
71
  8
0
 62
     7
 10
85.884711999999979
 20
153.8541129999999
 30
0.0
 40
1.1424799999999991
 50
2.1083780000000001
 51
87.900587000000016
  0
ARC
  5
72
  8
0
 62
     7
 10
85.884138000000007
 20
150.91030599999991
 30
0.0
 40
1.1430610000000001
 50
272.1271089999999
 51
357.88187399999998
  0
ARC
  5
73
  8
0
 62
     7
 10
85.968440999999999
 20
150.90975700000001
 30
0.0
 40
1.1424920000000001
 50
182.091633
 51
267.89942400000001
  0
ARC
  5
74
  8
0
 62
     7
 10
85.968652000000006
 20
150.82579199999989
 30
0.0
 40
1.142722999999999
 50
92.110710999999995
 51
177.88028499999999
  0
ARC
  5
75
  8
0
 62
     7
 10
85.884711999999979
 20
150.82602700000001
 30
0.0
 40
1.1424799999999991
 50
2.1083780000000001
 51
87.900587000000016
  0
ARC
  5
76
  8
0
 62
     7
 10
85.926306000000011
 20
147.84005899999991
 30
0.0
 40
1.1001119999999991
 50
270.01347700000002
 51
0.013447
  0
ARC
  5
77
  8
0
 62
     7
 10
85.926822999999985
 20
147.84005899999991
 30
0.0
 40
1.1001119999999991
 50
179.986513
 51
269.98656299999999
  0
ARC
  5
78
  8
0
 62
     7
 10
85.968487999999994
 20
147.79803599999991
 30
0.0
 40
1.1425590000000001
 50
92.102773000000013
 51
177.8792479999999
  0
ARC
  5
79
  8
0
 62
     7
 10
85.884724000000006
 20
147.7981189999999
 30
0.0
 40
1.1424739999999991
 50
2.1167529999999992
 51
87.901186999999979
  0
ARC
  5
7A
  8
0
 62
     7
 10
85.884486999999979
 20
144.8543149999999
 30
0.0
 40
1.142712999999999
 50
272.11025999999998
 51
357.88077599999991
  0
ARC
  5
7B
  8
0
 62
     7
 10
85.968417000000002
 20
144.8540899999999
 30
0.0
 40
1.1424799999999991
 50
182.10838000000001
 51
267.90062399999999
  0
ARC
  5
7C
  8
0
 62
     7
 10
85.968652000000006
 20
144.76979299999991
 30
0.0
 40
1.142722999999999
 50
92.110710999999995
 51
177.88028499999999
  0
ARC
  5
7D
  8
0
 62
     7
 10
85.884711999999979
 20
144.770027
 30
0.0
 40
1.1424799999999991
 50
2.1083780000000001
 51
87.900587000000016
  0
ARC
  5
7E
  8
0
 62
     7
 10
85.884486999999979
 20
141.82605699999999
 30
0.0
 40
1.142712999999999
 50
272.11025999999998
 51
357.88077599999991
  0
ARC
  5
7F
  8
0
 62
     7
 10
85.968417000000002
 20
141.82583199999999
 30
0.0
 40
1.1424799999999991
 50
182.10838000000001
 51
267.90062399999999
  0
ARC
  5
80
  8
0
 62
     7
 10
85.968652000000006
 20
141.74153499999991
 30
0.0
 40
1.142722999999999
 50
92.110710999999995
 51
177.88028499999999
  0
ARC
  5
81
  8
0
 62
     7
 10
85.884711999999979
 20
141.74176900000001
 30
0.0
 40
1.1424799999999991
 50
2.1083780000000001
 51
87.900587000000016
  0
ARC
  5
82
  8
0
 62
     7
 10
85.926306000000011
 20
138.75597400000001
 30
0.0
 40
1.1001119999999991
 50
270.01347700000002
 51
0.013447
  0
ARC
  5
83
  8
0
 62
     7
 10
85.926822999999985
 20
138.75597300000001
 30
0.0
 40
1.1001119999999991
 50
179.986513
 51
269.98656299999999
  0
ARC
  5
84
  8
0
 62
     7
 10
85.968652000000006
 20
138.713966
 30
0.0
 40
1.142722999999999
 50
92.110710999999995
 51
177.88028499999999
  0
ARC
  5
85
  8
0
 62
     7
 10
85.884711999999979
 20
138.71420000000001
 30
0.0
 40
1.1424799999999991
 50
2.1083780000000001
 51
87.900587000000016
  0
ARC
  5
86
  8
0
 62
     7
 10
85.884486999999979
 20
135.77022999999991
 30
0.0
 40
1.142712999999999
 50
272.11025999999998
 51
357.88077599999991
  0
ARC
  5
87
  8
0
 62
     7
 10
85.968417000000002
 20
135.770005
 30
0.0
 40
1.1424799999999991
 50
182.10838000000001
 51
267.90062399999999
  0
ARC
  5
88
  8
0
 62
     7
 10
85.968652000000006
 20
135.68570800000001
 30
0.0
 40
1.142722999999999
 50
92.110710999999995
 51
177.88028499999999
  0
ARC
  5
89
  8
0
 62
     7
 10
85.884711999999979
 20
135.6859419999999
 30
0.0
 40
1.1424799999999991
 50
2.1083780000000001
 51
87.900587000000016
  0
ARC
  5
8A
  8
0
 62
     7
 10
85.926306000000011
 20
132.7001469999999
 30
0.0
 40
1.1001119999999991
 50
270.01347700000002
 51
0.013447
  0
ARC
  5
8B
  8
0
 62
     7
 10
85.926822999999985
 20
132.7001459999999
 30
0.0
 40
1.1001119999999991
 50
179.986513
 51
269.98656299999999
  0
ARC
  5
8C
  8
0
 62
     7
 10
85.968652000000006
 20
132.65813899999989
 30
0.0
 40
1.142722999999999
 50
92.110710999999995
 51
177.88028499999999
  0
ARC
  5
8D
  8
0
 62
     7
 10
85.884711999999979
 20
132.65837300000001
 30
0.0
 40
1.1424799999999991
 50
2.1083780000000001
 51
87.900587000000016
  0
ARC
  5
8E
  8
0
 62
     7
 10
85.926306000000011
 20
129.67188899999991
 30
0.0
 40
1.1001119999999991
 50
270.01347700000002
 51
0.013447
  0
ARC
  5
8F
  8
0
 62
     7
 10
85.926822999999985
 20
129.671888
 30
0.0
 40
1.1001119999999991
 50
179.986513
 51
269.98656299999999
  0
ARC
  5
90
  8
0
 62
     7
 10
85.968652000000006
 20
129.62988100000001
 30
0.0
 40
1.142722999999999
 50
92.110710999999995
 51
177.88028499999999
  0
ARC
  5
91
  8
0
 62
     7
 10
85.884711999999979
 20
129.6301149999999
 30
0.0
 40
1.1424799999999991
 50
2.1083780000000001
 51
87.900587000000016
  0
ARC
  5
92
  8
0
 62
     7
 10
85.926306000000011
 20
123.616061
 30
0.0
 40
1.1001119999999991
 50
270.01347700000002
 51
0.013447
  0
ARC
  5
93
  8
0
 62
     7
 10
85.926822999999985
 20
123.616061
 30
0.0
 40
1.1001119999999991
 50
179.986513
 51
269.98656299999999
  0
ARC
  5
94
  8
0
 62
     7
 10
85.968652000000006
 20
123.57405300000001
 30
0.0
 40
1.142722999999999
 50
92.110710999999995
 51
177.88028499999999
  0
ARC
  5
95
  8
0
 62
     7
 10
85.884711999999979
 20
123.5742879999999
 30
0.0
 40
1.1424799999999991
 50
2.1083780000000001
 51
87.900587000000016
  0
ARC
  5
96
  8
0
 62
     7
 10
85.884486999999979
 20
126.6861449999999
 30
0.0
 40
1.142712999999999
 50
272.11025999999998
 51
357.88077599999991
  0
ARC
  5
97
  8
0
 62
     7
 10
85.968417000000002
 20
126.68592
 30
0.0
 40
1.1424799999999991
 50
182.10838000000001
 51
267.90062399999999
  0
ARC
  5
98
  8
0
 62
     7
 10
85.968652000000006
 20
126.6016229999999
 30
0.0
 40
1.142722999999999
 50
92.110710999999995
 51
177.88028499999999
  0
ARC
  5
99
  8
0
 62
     7
 10
85.884711999999979
 20
126.601857
 30
0.0
 40
1.1424799999999991
 50
2.1083780000000001
 51
87.900587000000016
  0
ARC
  5
9A
  8
0
 62
     7
 10
83.284796999999998
 20
155.4526929999999
 30
0.0
 40
1.1430610000000001
 50
272.1271089999999
 51
357.88187399999998
  0
ARC
  5
9B
  8
0
 62
     7
 10
83.369100000000003
 20
155.452144
 30
0.0
 40
1.1424920000000001
 50
182.091633
 51
267.89942400000001
  0
ARC
  5
9C
  8
0
 62
     7
 10
83.369310999999996
 20
155.36817899999991
 30
0.0
 40
1.142722999999999
 50
92.110710999999995
 51
177.88028499999999
  0
ARC
  5
9D
  8
0
 62
     7
 10
83.285370999999998
 20
155.368414
 30
0.0
 40
1.1424799999999991
 50
2.1083780000000001
 51
87.900587000000016
  0
ARC
  5
9E
  8
0
 62
     7
 10
83.327050999999997
 20
152.3821879999999
 30
0.0
 40
1.1000259999999991
 50
270.00899199999992
 51
0.008962
  0
ARC
  5
9F
  8
0
 62
     7
 10
83.327395999999993
 20
152.38218699999999
 30
0.0
 40
1.1000259999999991
 50
179.99099799999991
 51
269.99104799999992
  0
ARC
  5
A0
  8
0
 62
     7
 10
83.369310999999996
 20
152.34009399999991
 30
0.0
 40
1.142722999999999
 50
92.110710999999995
 51
177.88028499999999
  0
ARC
  5
A1
  8
0
 62
     7
 10
83.285370999999998
 20
152.340328
 30
0.0
 40
1.1424799999999991
 50
2.1083780000000001
 51
87.900587000000016
  0
ARC
  5
A2
  8
0
 62
     7
 10
83.284796999999998
 20
149.39652099999989
 30
0.0
 40
1.1430610000000001
 50
272.1271089999999
 51
357.88187399999998
  0
ARC
  5
A3
  8
0
 62
     7
 10
83.369100000000003
 20
149.395972
 30
0.0
 40
1.1424920000000001
 50
182.091633
 51
267.89942400000001
  0
ARC
  5
A4
  8
0
 62
     7
 10
83.369310999999996
 20
149.31200799999999
 30
0.0
 40
1.142722999999999
 50
92.110710999999995
 51
177.88028499999999
  0
ARC
  5
A5
  8
0
 62
     7
 10
83.285370999999998
 20
149.31224199999991
 30
0.0
 40
1.1424799999999991
 50
2.1083780000000001
 51
87.900587000000016
  0
ARC
  5
A6
  8
0
 62
     7
 10
83.326965000000001
 20
146.32627400000001
 30
0.0
 40
1.1001119999999991
 50
270.01347700000002
 51
0.013447
  0
ARC
  5
A7
  8
0
 62
     7
 10
83.327481999999989
 20
146.32627400000001
 30
0.0
 40
1.1001119999999991
 50
179.986513
 51
269.98656299999999
  0
ARC
  5
A8
  8
0
 62
     7
 10
83.369310999999996
 20
146.284267
 30
0.0
 40
1.142722999999999
 50
92.110710999999995
 51
177.88028499999999
  0
ARC
  5
A9
  8
0
 62
     7
 10
83.285370999999998
 20
146.28450100000001
 30
0.0
 40
1.1424799999999991
 50
2.1083780000000001
 51
87.900587000000016
  0
ARC
  5
AA
  8
0
 62
     7
 10
83.285145999999997
 20
143.34053099999991
 30
0.0
 40
1.142712999999999
 50
272.11025999999998
 51
357.88077599999991
  0
ARC
  5
AB
  8
0
 62
     7
 10
83.369076000000007
 20
143.340306
 30
0.0
 40
1.1424799999999991
 50
182.10838000000001
 51
267.90062399999999
  0
ARC
  5
AC
  8
0
 62
     7
 10
83.369310999999996
 20
143.25600800000001
 30
0.0
 40
1.142722999999999
 50
92.110710999999995
 51
177.88028499999999
  0
ARC
  5
AD
  8
0
 62
     7
 10
83.285370999999998
 20
143.2562429999999
 30
0.0
 40
1.1424799999999991
 50
2.1083780000000001
 51
87.900587000000016
  0
ARC
  5
AE
  8
0
 62
     7
 10
83.285145999999997
 20
140.31227299999989
 30
0.0
 40
1.142712999999999
 50
272.11025999999998
 51
357.88077599999991
  0
ARC
  5
AF
  8
0
 62
     7
 10
83.369076000000007
 20
140.312048
 30
0.0
 40
1.1424799999999991
 50
182.10838000000001
 51
267.90062399999999
  0
ARC
  5
B0
  8
0
 62
     7
 10
83.369310999999996
 20
140.2277499999999
 30
0.0
 40
1.142722999999999
 50
92.110710999999995
 51
177.88028499999999
  0
ARC
  5
B1
  8
0
 62
     7
 10
83.285370999999998
 20
140.22798499999999
 30
0.0
 40
1.1424799999999991
 50
2.1083780000000001
 51
87.900587000000016
  0
ARC
  5
B2
  8
0
 62
     7
 10
83.326965000000001
 20
137.242189
 30
0.0
 40
1.1001119999999991
 50
270.01347700000002
 51
0.013447
  0
ARC
  5
B3
  8
0
 62
     7
 10
83.327481999999989
 20
137.242189
 30
0.0
 40
1.1001119999999991
 50
179.986513
 51
269.98656299999999
  0
ARC
  5
B4
  8
0
 62
     7
 10
83.369310999999996
 20
137.20018099999999
 30
0.0
 40
1.142722999999999
 50
92.110710999999995
 51
177.88028499999999
  0
ARC
  5
B5
  8
0
 62
     7
 10
83.285370999999998
 20
137.2004159999999
 30
0.0
 40
1.1424799999999991
 50
2.1083780000000001
 51
87.900587000000016
  0
ARC
  5
B6
  8
0
 62
     7
 10
83.285145999999997
 20
134.2564459999999
 30
0.0
 40
1.142712999999999
 50
272.11025999999998
 51
357.88077599999991
  0
ARC
  5
B7
  8
0
 62
     7
 10
83.369076000000007
 20
134.2562209999999
 30
0.0
 40
1.1424799999999991
 50
182.10838000000001
 51
267.90062399999999
  0
ARC
  5
B8
  8
0
 62
     7
 10
83.369310999999996
 20
134.17192299999999
 30
0.0
 40
1.142722999999999
 50
92.110710999999995
 51
177.88028499999999
  0
ARC
  5
B9
  8
0
 62
     7
 10
83.285370999999998
 20
134.17215799999991
 30
0.0
 40
1.1424799999999991
 50
2.1083780000000001
 51
87.900587000000016
  0
ARC
  5
BA
  8
0
 62
     7
 10
83.326965000000001
 20
131.186362
 30
0.0
 40
1.1001119999999991
 50
270.01347700000002
 51
0.013447
  0
ARC
  5
BB
  8
0
 62
     7
 10
83.327481999999989
 20
131.186362
 30
0.0
 40
1.1001119999999991
 50
179.986513
 51
269.98656299999999
  0
ARC
  5
BC
  8
0
 62
     7
 10
83.369310999999996
 20
131.14435399999991
 30
0.0
 40
1.142722999999999
 50
92.110710999999995
 51
177.88028499999999
  0
ARC
  5
BD
  8
0
 62
     7
 10
83.285370999999998
 20
131.14458899999991
 30
0.0
 40
1.1424799999999991
 50
2.1083780000000001
 51
87.900587000000016
  0
ARC
  5
BE
  8
0
 62
     7
 10
83.326965000000001
 20
128.15810400000001
 30
0.0
 40
1.1001119999999991
 50
270.01347700000002
 51
0.013447
  0
ARC
  5
BF
  8
0
 62
     7
 10
83.327481999999989
 20
128.15810400000001
 30
0.0
 40
1.1001119999999991
 50
179.986513
 51
269.98656299999999
  0
ARC
  5
C0
  8
0
 62
     7
 10
83.369310999999996
 20
128.116096
 30
0.0
 40
1.142722999999999
 50
92.110710999999995
 51
177.88028499999999
  0
ARC
  5
C1
  8
0
 62
     7
 10
83.285370999999998
 20
128.11633099999989
 30
0.0
 40
1.1424799999999991
 50
2.1083780000000001
 51
87.900587000000016
  0
ARC
  5
C2
  8
0
 62
     7
 10
83.285145999999997
 20
125.172361
 30
0.0
 40
1.142712999999999
 50
272.11025999999998
 51
357.88077599999991
  0
ARC
  5
C3
  8
0
 62
     7
 10
83.369076000000007
 20
125.172135
 30
0.0
 40
1.1424799999999991
 50
182.10838000000001
 51
267.90062399999999
  0
ARC
  5
C4
  8
0
 62
     7
 10
83.369310999999996
 20
125.08783799999991
 30
0.0
 40
1.142722999999999
 50
92.110710999999995
 51
177.88028499999999
  0
ARC
  5
C5
  8
0
 62
     7
 10
83.285370999999998
 20
125.08807299999989
 30
0.0
 40
1.1424799999999991
 50
2.1083780000000001
 51
87.900587000000016
  0
ARC
  5
C6
  8
0
 62
     7
 10
85.926563999999999
 20
159.9519719999999
 30
0.0
 40
1.0998540000000001
 50
270.00002000000001
 51
359.99998999999991
  0
ARC
  5
C7
  8
0
 62
     7
 10
85.926563999999999
 20
159.9519709999999
 30
0.0
 40
1.0998529999999991
 50
179.99996999999991
 51
270.00002000000001
  0
ARC
  5
C8
  8
0
 62
     7
 10
85.926564999999997
 20
159.9519709999999
 30
0.0
 40
1.0998540000000001
 50
90.0
 51
179.99996999999991
  0
ARC
  5
C9
  8
0
 62
     7
 10
85.926563999999999
 20
159.9519709999999
 30
0.0
 40
1.0998540000000001
 50
0.00001
 51
89.999980000000008
  0
ARC
  5
CA
  8
0
 62
     7
 10
83.327223000000004
 20
158.438187
 30
0.0
 40
1.0998540000000001
 50
270.00002000000001
 51
359.99998999999991
  0
ARC
  5
CB
  8
0
 62
     7
 10
83.327223000000004
 20
158.438187
 30
0.0
 40
1.0998529999999991
 50
179.99996999999991
 51
270.00002000000001
  0
ARC
  5
CC
  8
0
 62
     7
 10
83.327223999999987
 20
158.438187
 30
0.0
 40
1.0998540000000001
 50
90.0
 51
179.99996999999991
  0
ARC
  5
CD
  8
0
 62
     7
 10
83.327223000000004
 20
158.438187
 30
0.0
 40
1.0998540000000001
 50
0.00001
 51
89.999980000000008
  0
ARC
  5
CE
  8
0
 62
     7
 10
80.685456000000002
 20
156.96647699999991
 30
0.0
 40
1.1430610000000001
 50
272.1271089999999
 51
357.88187399999998
  0
ARC
  5
CF
  8
0
 62
     7
 10
80.769758999999979
 20
156.96592799999991
 30
0.0
 40
1.1424920000000001
 50
182.091633
 51
267.89942400000001
  0
ARC
  5
D0
  8
0
 62
     7
 10
80.769970000000001
 20
156.8819639999999
 30
0.0
 40
1.142722999999999
 50
92.110710999999995
 51
177.88028499999999
  0
ARC
  5
D1
  8
0
 62
     7
 10
80.686030000000017
 20
156.8821979999999
 30
0.0
 40
1.1424799999999991
 50
2.1083780000000001
 51
87.900587000000016
  0
ARC
  5
D2
  8
0
 62
     7
 10
80.685456000000002
 20
153.93839199999991
 30
0.0
 40
1.1430610000000001
 50
272.1271089999999
 51
357.88187399999998
  0
ARC
  5
D3
  8
0
 62
     7
 10
80.769758999999979
 20
153.93784199999999
 30
0.0
 40
1.1424920000000001
 50
182.091633
 51
267.89942400000001
  0
ARC
  5
D4
  8
0
 62
     7
 10
80.769970000000001
 20
153.85387800000001
 30
0.0
 40
1.142722999999999
 50
92.110710999999995
 51
177.88028499999999
  0
ARC
  5
D5
  8
0
 62
     7
 10
80.686030000000017
 20
153.8541129999999
 30
0.0
 40
1.1424799999999991
 50
2.1083780000000001
 51
87.900587000000016
  0
ARC
  5
D6
  8
0
 62
     7
 10
80.685456000000002
 20
150.91030599999991
 30
0.0
 40
1.1430610000000001
 50
272.1271089999999
 51
357.88187399999998
  0
ARC
  5
D7
  8
0
 62
     7
 10
80.769758999999979
 20
150.90975700000001
 30
0.0
 40
1.1424920000000001
 50
182.091633
 51
267.89942400000001
  0
ARC
  5
D8
  8
0
 62
     7
 10
80.769970000000001
 20
150.82579199999989
 30
0.0
 40
1.142722999999999
 50
92.110710999999995
 51
177.88028499999999
  0
ARC
  5
D9
  8
0
 62
     7
 10
80.686030000000017
 20
150.82602700000001
 30
0.0
 40
1.1424799999999991
 50
2.1083780000000001
 51
87.900587000000016
  0
ARC
  5
DA
  8
0
 62
     7
 10
80.727624000000006
 20
147.84005899999991
 30
0.0
 40
1.1001119999999991
 50
270.01347700000002
 51
0.013447
  0
ARC
  5
DB
  8
0
 62
     7
 10
80.728140999999994
 20
147.84005899999991
 30
0.0
 40
1.1001119999999991
 50
179.986513
 51
269.98656299999999
  0
ARC
  5
DC
  8
0
 62
     7
 10
80.769806000000003
 20
147.79803599999991
 30
0.0
 40
1.1425590000000001
 50
92.102773000000013
 51
177.8792479999999
  0
ARC
  5
DD
  8
0
 62
     7
 10
80.686042000000015
 20
147.7981189999999
 30
0.0
 40
1.1424739999999991
 50
2.1167529999999992
 51
87.901186999999979
  0
ARC
  5
DE
  8
0
 62
     7
 10
80.685805000000016
 20
144.8543149999999
 30
0.0
 40
1.142712999999999
 50
272.11025999999998
 51
357.88077599999991
  0
ARC
  5
DF
  8
0
 62
     7
 10
80.769734999999983
 20
144.8540899999999
 30
0.0
 40
1.1424799999999991
 50
182.10838000000001
 51
267.90062399999999
  0
ARC
  5
E0
  8
0
 62
     7
 10
80.769970000000001
 20
144.76979299999991
 30
0.0
 40
1.142722999999999
 50
92.110710999999995
 51
177.88028499999999
  0
ARC
  5
E1
  8
0
 62
     7
 10
80.686030000000017
 20
144.770027
 30
0.0
 40
1.1424799999999991
 50
2.1083780000000001
 51
87.900587000000016
  0
ARC
  5
E2
  8
0
 62
     7
 10
80.685805000000016
 20
141.82605699999999
 30
0.0
 40
1.142712999999999
 50
272.11025999999998
 51
357.88077599999991
  0
ARC
  5
E3
  8
0
 62
     7
 10
80.769734999999983
 20
141.82583199999999
 30
0.0
 40
1.1424799999999991
 50
182.10838000000001
 51
267.90062399999999
  0
ARC
  5
E4
  8
0
 62
     7
 10
80.769970000000001
 20
141.74153499999991
 30
0.0
 40
1.142722999999999
 50
92.110710999999995
 51
177.88028499999999
  0
ARC
  5
E5
  8
0
 62
     7
 10
80.686030000000017
 20
141.74176900000001
 30
0.0
 40
1.1424799999999991
 50
2.1083780000000001
 51
87.900587000000016
  0
ARC
  5
E6
  8
0
 62
     7
 10
80.727624000000006
 20
138.75597400000001
 30
0.0
 40
1.1001119999999991
 50
270.01347700000002
 51
0.013447
  0
ARC
  5
E7
  8
0
 62
     7
 10
80.728140999999994
 20
138.75597300000001
 30
0.0
 40
1.1001119999999991
 50
179.986513
 51
269.98656299999999
  0
ARC
  5
E8
  8
0
 62
     7
 10
80.769970000000001
 20
138.713966
 30
0.0
 40
1.142722999999999
 50
92.110710999999995
 51
177.88028499999999
  0
ARC
  5
E9
  8
0
 62
     7
 10
80.686030000000017
 20
138.71420000000001
 30
0.0
 40
1.1424799999999991
 50
2.1083780000000001
 51
87.900587000000016
  0
ARC
  5
EA
  8
0
 62
     7
 10
80.685805000000016
 20
135.77022999999991
 30
0.0
 40
1.142712999999999
 50
272.11025999999998
 51
357.88077599999991
  0
ARC
  5
EB
  8
0
 62
     7
 10
80.769734999999983
 20
135.770005
 30
0.0
 40
1.1424799999999991
 50
182.10838000000001
 51
267.90062399999999
  0
ARC
  5
EC
  8
0
 62
     7
 10
80.769970000000001
 20
135.68570800000001
 30
0.0
 40
1.142722999999999
 50
92.110710999999995
 51
177.88028499999999
  0
ARC
  5
ED
  8
0
 62
     7
 10
80.686030000000017
 20
135.6859419999999
 30
0.0
 40
1.1424799999999991
 50
2.1083780000000001
 51
87.900587000000016
  0
ARC
  5
EE
  8
0
 62
     7
 10
80.727624000000006
 20
132.7001469999999
 30
0.0
 40
1.1001119999999991
 50
270.01347700000002
 51
0.013447
  0
ARC
  5
EF
  8
0
 62
     7
 10
80.728140999999994
 20
132.7001459999999
 30
0.0
 40
1.1001119999999991
 50
179.986513
 51
269.98656299999999
  0
ARC
  5
F0
  8
0
 62
     7
 10
80.769970000000001
 20
132.65813899999989
 30
0.0
 40
1.142722999999999
 50
92.110710999999995
 51
177.88028499999999
  0
ARC
  5
F1
  8
0
 62
     7
 10
80.686030000000017
 20
132.65837300000001
 30
0.0
 40
1.1424799999999991
 50
2.1083780000000001
 51
87.900587000000016
  0
ARC
  5
F2
  8
0
 62
     7
 10
80.727624000000006
 20
129.67188899999991
 30
0.0
 40
1.1001119999999991
 50
270.01347700000002
 51
0.013447
  0
ARC
  5
F3
  8
0
 62
     7
 10
80.728140999999994
 20
129.671888
 30
0.0
 40
1.1001119999999991
 50
179.986513
 51
269.98656299999999
  0
ARC
  5
F4
  8
0
 62
     7
 10
80.769970000000001
 20
129.62988100000001
 30
0.0
 40
1.142722999999999
 50
92.110710999999995
 51
177.88028499999999
  0
ARC
  5
F5
  8
0
 62
     7
 10
80.686030000000017
 20
129.6301149999999
 30
0.0
 40
1.1424799999999991
 50
2.1083780000000001
 51
87.900587000000016
  0
ARC
  5
F6
  8
0
 62
     7
 10
80.727624000000006
 20
123.616061
 30
0.0
 40
1.1001119999999991
 50
270.01347700000002
 51
0.013447
  0
ARC
  5
F7
  8
0
 62
     7
 10
80.728140999999994
 20
123.616061
 30
0.0
 40
1.1001119999999991
 50
179.986513
 51
269.98656299999999
  0
ARC
  5
F8
  8
0
 62
     7
 10
80.769970000000001
 20
123.57405300000001
 30
0.0
 40
1.142722999999999
 50
92.110710999999995
 51
177.88028499999999
  0
ARC
  5
F9
  8
0
 62
     7
 10
80.686030000000017
 20
123.5742879999999
 30
0.0
 40
1.1424799999999991
 50
2.1083780000000001
 51
87.900587000000016
  0
ARC
  5
FA
  8
0
 62
     7
 10
80.685805000000016
 20
126.6861449999999
 30
0.0
 40
1.142712999999999
 50
272.11025999999998
 51
357.88077599999991
  0
ARC
  5
FB
  8
0
 62
     7
 10
80.769734999999983
 20
126.68592
 30
0.0
 40
1.1424799999999991
 50
182.10838000000001
 51
267.90062399999999
  0
ARC
  5
FC
  8
0
 62
     7
 10
80.769970000000001
 20
126.6016229999999
 30
0.0
 40
1.142722999999999
 50
92.110710999999995
 51
177.88028499999999
  0
ARC
  5
FD
  8
0
 62
     7
 10
80.686030000000017
 20
126.601857
 30
0.0
 40
1.1424799999999991
 50
2.1083780000000001
 51
87.900587000000016
  0
ARC
  5
FE
  8
0
 62
     7
 10
80.727881999999994
 20
159.9519719999999
 30
0.0
 40
1.0998540000000001
 50
270.00002000000001
 51
359.99998999999991
  0
ARC
  5
FF
  8
0
 62
     7
 10
80.727881999999994
 20
159.9519709999999
 30
0.0
 40
1.0998529999999991
 50
179.99996999999991
 51
270.00002000000001
  0
ARC
  5
100
  8
0
 62
     7
 10
80.727882999999991
 20
159.9519709999999
 30
0.0
 40
1.0998540000000001
 50
90.0
 51
179.99996999999991
  0
ARC
  5
101
  8
0
 62
     7
 10
80.727881999999994
 20
159.9519709999999
 30
0.0
 40
1.0998540000000001
 50
0.00001
 51
89.999980000000008
  0
ARC
  5
102
  8
0
 62
     7
 10
67.773604000000006
 20
155.4526929999999
 30
0.0
 40
1.1430610000000001
 50
182.11812900000001
 51
267.872928
  0
ARC
  5
103
  8
0
 62
     7
 10
67.689300000000003
 20
155.452144
 30
0.0
 40
1.1424920000000001
 50
272.10061300000001
 51
357.90836899999999
  0
ARC
  5
104
  8
0
 62
     7
 10
67.689089999999993
 20
155.36817899999991
 30
0.0
 40
1.142722999999999
 50
2.1197119999999989
 51
87.889251999999985
  0
ARC
  5
105
  8
0
 62
     7
 10
67.773030000000006
 20
155.368414
 30
0.0
 40
1.1424799999999991
 50
92.099376000000007
 51
177.8916199999999
  0
ARC
  5
106
  8
0
 62
     7
 10
67.773604000000006
 20
152.42460700000001
 30
0.0
 40
1.1430610000000001
 50
182.11812900000001
 51
267.872928
  0
ARC
  5
107
  8
0
 62
     7
 10
67.689300000000003
 20
152.424058
 30
0.0
 40
1.1424920000000001
 50
272.10061300000001
 51
357.90836899999999
  0
ARC
  5
108
  8
0
 62
     7
 10
67.689089999999993
 20
152.340093
 30
0.0
 40
1.142722999999999
 50
2.1197119999999989
 51
87.889251999999985
  0
ARC
  5
109
  8
0
 62
     7
 10
67.773030000000006
 20
152.340328
 30
0.0
 40
1.1424799999999991
 50
92.099376000000007
 51
177.8916199999999
  0
ARC
  5
10A
  8
0
 62
     7
 10
67.773604000000006
 20
149.39652099999989
 30
0.0
 40
1.1430610000000001
 50
182.11812900000001
 51
267.872928
  0
ARC
  5
10B
  8
0
 62
     7
 10
67.689300000000003
 20
149.395972
 30
0.0
 40
1.1424920000000001
 50
272.10061300000001
 51
357.90836899999999
  0
ARC
  5
10C
  8
0
 62
     7
 10
67.689089999999993
 20
149.31200699999991
 30
0.0
 40
1.142722999999999
 50
2.1197119999999989
 51
87.889251999999985
  0
ARC
  5
10D
  8
0
 62
     7
 10
67.773030000000006
 20
149.31224299999991
 30
0.0
 40
1.1424799999999991
 50
92.099376000000007
 51
177.8916199999999
  0
ARC
  5
10E
  8
0
 62
     7
 10
67.731436000000002
 20
146.32627400000001
 30
0.0
 40
1.1001119999999991
 50
179.986513
 51
269.98656299999999
  0
ARC
  5
10F
  8
0
 62
     7
 10
67.730919
 20
146.32627400000001
 30
0.0
 40
1.1001119999999991
 50
270.01347700000002
 51
0.013447
  0
ARC
  5
110
  8
0
 62
     7
 10
67.689089999999993
 20
146.28426599999989
 30
0.0
 40
1.142722999999999
 50
2.1197119999999989
 51
87.889251999999985
  0
ARC
  5
111
  8
0
 62
     7
 10
67.773030000000006
 20
146.28450100000001
 30
0.0
 40
1.1424799999999991
 50
92.099376000000007
 51
177.8916199999999
  0
ARC
  5
112
  8
0
 62
     7
 10
67.773255000000006
 20
143.34053099999991
 30
0.0
 40
1.142712
 50
182.119227
 51
267.88977699999992
  0
ARC
  5
113
  8
0
 62
     7
 10
67.689324999999997
 20
143.340306
 30
0.0
 40
1.1424799999999991
 50
272.09941299999991
 51
357.89162199999998
  0
ARC
  5
114
  8
0
 62
     7
 10
67.689089999999993
 20
143.25600800000001
 30
0.0
 40
1.142722999999999
 50
2.1197119999999989
 51
87.889251999999985
  0
ARC
  5
115
  8
0
 62
     7
 10
67.773030000000006
 20
143.2562429999999
 30
0.0
 40
1.1424799999999991
 50
92.099376000000007
 51
177.8916199999999
  0
ARC
  5
116
  8
0
 62
     7
 10
67.773255000000006
 20
140.31227299999989
 30
0.0
 40
1.142712
 50
182.119227
 51
267.88977699999992
  0
ARC
  5
117
  8
0
 62
     7
 10
67.689324999999997
 20
140.312048
 30
0.0
 40
1.1424799999999991
 50
272.09941299999991
 51
357.89162199999998
  0
ARC
  5
118
  8
0
 62
     7
 10
67.689089999999993
 20
140.2277499999999
 30
0.0
 40
1.142722999999999
 50
2.1197119999999989
 51
87.889251999999985
  0
ARC
  5
119
  8
0
 62
     7
 10
67.773030000000006
 20
140.22798499999999
 30
0.0
 40
1.1424799999999991
 50
92.099376000000007
 51
177.8916199999999
  0
ARC
  5
11A
  8
0
 62
     7
 10
67.731436000000002
 20
137.242189
 30
0.0
 40
1.1001119999999991
 50
179.986513
 51
269.98656299999999
  0
ARC
  5
11B
  8
0
 62
     7
 10
67.730919
 20
137.242189
 30
0.0
 40
1.1001119999999991
 50
270.01347700000002
 51
0.013447
  0
ARC
  5
11C
  8
0
 62
     7
 10
67.689089999999993
 20
137.20018099999999
 30
0.0
 40
1.142722999999999
 50
2.1197119999999989
 51
87.889251999999985
  0
ARC
  5
11D
  8
0
 62
     7
 10
67.773030000000006
 20
137.2004159999999
 30
0.0
 40
1.1424799999999991
 50
92.099376000000007
 51
177.8916199999999
  0
ARC
  5
11E
  8
0
 62
     7
 10
67.773255000000006
 20
134.2564449999999
 30
0.0
 40
1.142712
 50
182.119227
 51
267.88977699999992
  0
ARC
  5
11F
  8
0
 62
     7
 10
67.689324999999997
 20
134.2562209999999
 30
0.0
 40
1.1424799999999991
 50
272.09941299999991
 51
357.89162199999998
  0
ARC
  5
120
  8
0
 62
     7
 10
67.689089999999993
 20
134.17192299999999
 30
0.0
 40
1.142722999999999
 50
2.1197119999999989
 51
87.889251999999985
  0
ARC
  5
121
  8
0
 62
     7
 10
67.773030000000006
 20
134.17215799999991
 30
0.0
 40
1.1424799999999991
 50
92.099376000000007
 51
177.8916199999999
  0
ARC
  5
122
  8
0
 62
     7
 10
67.731436000000002
 20
131.186362
 30
0.0
 40
1.1001119999999991
 50
179.986513
 51
269.98656299999999
  0
ARC
  5
123
  8
0
 62
     7
 10
67.730919
 20
131.186362
 30
0.0
 40
1.1001119999999991
 50
270.01347700000002
 51
0.013447
  0
ARC
  5
124
  8
0
 62
     7
 10
67.689089999999993
 20
131.14435399999991
 30
0.0
 40
1.142722999999999
 50
2.1197119999999989
 51
87.889251999999985
  0
ARC
  5
125
  8
0
 62
     7
 10
67.773030000000006
 20
131.14458899999991
 30
0.0
 40
1.1424799999999991
 50
92.099376000000007
 51
177.8916199999999
  0
ARC
  5
126
  8
0
 62
     7
 10
67.731436000000002
 20
128.15810400000001
 30
0.0
 40
1.1001119999999991
 50
179.986513
 51
269.98656299999999
  0
ARC
  5
127
  8
0
 62
     7
 10
67.730919
 20
128.15810400000001
 30
0.0
 40
1.1001119999999991
 50
270.01347700000002
 51
0.013447
  0
ARC
  5
128
  8
0
 62
     7
 10
67.689089999999993
 20
128.116096
 30
0.0
 40
1.142722999999999
 50
2.1197119999999989
 51
87.889251999999985
  0
ARC
  5
129
  8
0
 62
     7
 10
67.773030000000006
 20
128.11633099999989
 30
0.0
 40
1.1424799999999991
 50
92.099376000000007
 51
177.8916199999999
  0
ARC
  5
12A
  8
0
 62
     7
 10
67.773255000000006
 20
125.17236
 30
0.0
 40
1.142712
 50
182.119227
 51
267.88977699999992
  0
ARC
  5
12B
  8
0
 62
     7
 10
67.689324999999997
 20
125.17213599999999
 30
0.0
 40
1.1424799999999991
 50
272.09941299999991
 51
357.89162199999998
  0
ARC
  5
12C
  8
0
 62
     7
 10
67.689089999999993
 20
125.08783799999991
 30
0.0
 40
1.142722999999999
 50
2.1197119999999989
 51
87.889251999999985
  0
ARC
  5
12D
  8
0
 62
     7
 10
67.773030000000006
 20
125.08807299999989
 30
0.0
 40
1.1424799999999991
 50
92.099376000000007
 51
177.8916199999999
  0
ARC
  5
12E
  8
0
 62
     7
 10
67.731177000000002
 20
158.438187
 30
0.0
 40
1.0998529999999991
 50
179.99996999999991
 51
270.00002000000001
  0
ARC
  5
12F
  8
0
 62
     7
 10
67.731177000000002
 20
158.438187
 30
0.0
 40
1.0998540000000001
 50
270.00002000000001
 51
359.99998999999991
  0
ARC
  5
130
  8
0
 62
     7
 10
67.731177000000002
 20
158.438187
 30
0.0
 40
1.0998540000000001
 50
0.00001
 51
89.999980000000008
  0
ARC
  5
131
  8
0
 62
     7
 10
67.731178
 20
158.438187
 30
0.0
 40
1.0998540000000001
 50
90.0
 51
179.99996999999991
  0
ARC
  5
132
  8
0
 62
     7
 10
70.372945000000001
 20
156.96647699999991
 30
0.0
 40
1.1430610000000001
 50
182.11812900000001
 51
267.872928
  0
ARC
  5
133
  8
0
 62
     7
 10
70.288640999999984
 20
156.96592799999991
 30
0.0
 40
1.1424920000000001
 50
272.10061300000001
 51
357.90836899999999
  0
ARC
  5
134
  8
0
 62
     7
 10
70.288431000000003
 20
156.8819639999999
 30
0.0
 40
1.142722999999999
 50
2.1197119999999989
 51
87.889251999999985
  0
ARC
  5
135
  8
0
 62
     7
 10
70.372371000000001
 20
156.8821989999999
 30
0.0
 40
1.1424799999999991
 50
92.099376000000007
 51
177.8916199999999
  0
ARC
  5
136
  8
0
 62
     7
 10
70.372945000000001
 20
153.93839099999991
 30
0.0
 40
1.1430610000000001
 50
182.11812900000001
 51
267.872928
  0
ARC
  5
137
  8
0
 62
     7
 10
70.288640999999984
 20
153.93784299999999
 30
0.0
 40
1.1424920000000001
 50
272.10061300000001
 51
357.90836899999999
  0
ARC
  5
138
  8
0
 62
     7
 10
70.288431000000003
 20
153.85387800000001
 30
0.0
 40
1.142722999999999
 50
2.1197119999999989
 51
87.889251999999985
  0
ARC
  5
139
  8
0
 62
     7
 10
70.372371000000001
 20
153.8541129999999
 30
0.0
 40
1.1424799999999991
 50
92.099376000000007
 51
177.8916199999999
  0
ARC
  5
13A
  8
0
 62
     7
 10
70.372945000000001
 20
150.91030499999999
 30
0.0
 40
1.1430610000000001
 50
182.11812900000001
 51
267.872928
  0
ARC
  5
13B
  8
0
 62
     7
 10
70.288640999999984
 20
150.90975700000001
 30
0.0
 40
1.1424920000000001
 50
272.10061300000001
 51
357.90836899999999
  0
ARC
  5
13C
  8
0
 62
     7
 10
70.288431000000003
 20
150.82579199999989
 30
0.0
 40
1.142722999999999
 50
2.1197119999999989
 51
87.889251999999985
  0
ARC
  5
13D
  8
0
 62
     7
 10
70.372371000000001
 20
150.82602700000001
 30
0.0
 40
1.1424799999999991
 50
92.099376000000007
 51
177.8916199999999
  0
ARC
  5
13E
  8
0
 62
     7
 10
70.330776999999983
 20
147.84005899999991
 30
0.0
 40
1.1001119999999991
 50
179.986513
 51
269.98656299999999
  0
ARC
  5
13F
  8
0
 62
     7
 10
70.330259999999996
 20
147.84005899999991
 30
0.0
 40
1.1001119999999991
 50
270.01347700000002
 51
0.013447
  0
ARC
  5
140
  8
0
 62
     7
 10
70.288595000000001
 20
147.79803599999991
 30
0.0
 40
1.14256
 50
2.1207500000000001
 51
87.897190000000009
  0
ARC
  5
141
  8
0
 62
     7
 10
70.372359000000003
 20
147.7981189999999
 30
0.0
 40
1.1424739999999991
 50
92.098776000000015
 51
177.88324399999991
  0
ARC
  5
142
  8
0
 62
     7
 10
70.372596000000001
 20
144.8543149999999
 30
0.0
 40
1.142712
 50
182.119227
 51
267.88977699999992
  0
ARC
  5
143
  8
0
 62
     7
 10
70.288666000000006
 20
144.85409100000001
 30
0.0
 40
1.1424799999999991
 50
272.09941299999991
 51
357.89162199999998
  0
ARC
  5
144
  8
0
 62
     7
 10
70.288431000000003
 20
144.76979299999991
 30
0.0
 40
1.142722999999999
 50
2.1197119999999989
 51
87.889251999999985
  0
ARC
  5
145
  8
0
 62
     7
 10
70.372371000000001
 20
144.770028
 30
0.0
 40
1.1424799999999991
 50
92.099376000000007
 51
177.8916199999999
  0
ARC
  5
146
  8
0
 62
     7
 10
70.372596000000001
 20
141.82605699999999
 30
0.0
 40
1.142712
 50
182.119227
 51
267.88977699999992
  0
ARC
  5
147
  8
0
 62
     7
 10
70.288666000000006
 20
141.82583299999999
 30
0.0
 40
1.1424799999999991
 50
272.09941299999991
 51
357.89162199999998
  0
ARC
  5
148
  8
0
 62
     7
 10
70.288431000000003
 20
141.74153499999991
 30
0.0
 40
1.142722999999999
 50
2.1197119999999989
 51
87.889251999999985
  0
ARC
  5
149
  8
0
 62
     7
 10
70.372371000000001
 20
141.74177
 30
0.0
 40
1.1424799999999991
 50
92.099376000000007
 51
177.8916199999999
  0
ARC
  5
14A
  8
0
 62
     7
 10
70.330776999999983
 20
138.75597300000001
 30
0.0
 40
1.1001119999999991
 50
179.986513
 51
269.98656299999999
  0
ARC
  5
14B
  8
0
 62
     7
 10
70.330259999999996
 20
138.75597400000001
 30
0.0
 40
1.1001119999999991
 50
270.01347700000002
 51
0.013447
  0
ARC
  5
14C
  8
0
 62
     7
 10
70.288431000000003
 20
138.71396499999989
 30
0.0
 40
1.142722999999999
 50
2.1197119999999989
 51
87.889251999999985
  0
ARC
  5
14D
  8
0
 62
     7
 10
70.372371000000001
 20
138.714201
 30
0.0
 40
1.1424799999999991
 50
92.099376000000007
 51
177.8916199999999
  0
ARC
  5
14E
  8
0
 62
     7
 10
70.372596000000001
 20
135.77022999999991
 30
0.0
 40
1.142712
 50
182.119227
 51
267.88977699999992
  0
ARC
  5
14F
  8
0
 62
     7
 10
70.288666000000006
 20
135.77000599999991
 30
0.0
 40
1.1424799999999991
 50
272.09941299999991
 51
357.89162199999998
  0
ARC
  5
150
  8
0
 62
     7
 10
70.288431000000003
 20
135.68570699999989
 30
0.0
 40
1.142722999999999
 50
2.1197119999999989
 51
87.889251999999985
  0
ARC
  5
151
  8
0
 62
     7
 10
70.372371000000001
 20
135.6859429999999
 30
0.0
 40
1.1424799999999991
 50
92.099376000000007
 51
177.8916199999999
  0
ARC
  5
152
  8
0
 62
     7
 10
70.330776999999983
 20
132.7001459999999
 30
0.0
 40
1.1001119999999991
 50
179.986513
 51
269.98656299999999
  0
ARC
  5
153
  8
0
 62
     7
 10
70.330259999999996
 20
132.7001469999999
 30
0.0
 40
1.1001119999999991
 50
270.01347700000002
 51
0.013447
  0
ARC
  5
154
  8
0
 62
     7
 10
70.288431000000003
 20
132.65813799999989
 30
0.0
 40
1.142722999999999
 50
2.1197119999999989
 51
87.889251999999985
  0
ARC
  5
155
  8
0
 62
     7
 10
70.372371000000001
 20
132.65837400000001
 30
0.0
 40
1.1424799999999991
 50
92.099376000000007
 51
177.8916199999999
  0
ARC
  5
156
  8
0
 62
     7
 10
70.330776999999983
 20
129.671888
 30
0.0
 40
1.1001119999999991
 50
179.986513
 51
269.98656299999999
  0
ARC
  5
157
  8
0
 62
     7
 10
70.330259999999996
 20
129.67188899999991
 30
0.0
 40
1.1001119999999991
 50
270.01347700000002
 51
0.013447
  0
ARC
  5
158
  8
0
 62
     7
 10
70.288431000000003
 20
129.62988000000001
 30
0.0
 40
1.142722999999999
 50
2.1197119999999989
 51
87.889251999999985
  0
ARC
  5
159
  8
0
 62
     7
 10
70.372371000000001
 20
129.6301149999999
 30
0.0
 40
1.1424799999999991
 50
92.099376000000007
 51
177.8916199999999
  0
ARC
  5
15A
  8
0
 62
     7
 10
70.330776999999983
 20
123.616061
 30
0.0
 40
1.1001119999999991
 50
179.986513
 51
269.98656299999999
  0
ARC
  5
15B
  8
0
 62
     7
 10
70.330259999999996
 20
123.616061
 30
0.0
 40
1.1001119999999991
 50
270.01347700000002
 51
0.013447
  0
ARC
  5
15C
  8
0
 62
     7
 10
70.288431000000003
 20
123.57405300000001
 30
0.0
 40
1.142722999999999
 50
2.1197119999999989
 51
87.889251999999985
  0
ARC
  5
15D
  8
0
 62
     7
 10
70.372371000000001
 20
123.5742879999999
 30
0.0
 40
1.1424799999999991
 50
92.099376000000007
 51
177.8916199999999
  0
ARC
  5
15E
  8
0
 62
     7
 10
70.372596000000001
 20
126.6861449999999
 30
0.0
 40
1.142712
 50
182.119227
 51
267.88977699999992
  0
ARC
  5
15F
  8
0
 62
     7
 10
70.288666000000006
 20
126.68592
 30
0.0
 40
1.1424799999999991
 50
272.09941299999991
 51
357.89162199999998
  0
ARC
  5
160
  8
0
 62
     7
 10
70.288431000000003
 20
126.60162200000001
 30
0.0
 40
1.142722999999999
 50
2.1197119999999989
 51
87.889251999999985
  0
ARC
  5
161
  8
0
 62
     7
 10
70.372371000000001
 20
126.601857
 30
0.0
 40
1.1424799999999991
 50
92.099376000000007
 51
177.8916199999999
  0
ARC
  5
162
  8
0
 62
     7
 10
72.972285999999997
 20
155.4526929999999
 30
0.0
 40
1.1430610000000001
 50
182.11812900000001
 51
267.872928
  0
ARC
  5
163
  8
0
 62
     7
 10
72.887981999999994
 20
155.452144
 30
0.0
 40
1.1424920000000001
 50
272.10061300000001
 51
357.90836899999999
  0
ARC
  5
164
  8
0
 62
     7
 10
72.887771999999998
 20
155.36817899999991
 30
0.0
 40
1.142722999999999
 50
2.1197119999999989
 51
87.889251999999985
  0
ARC
  5
165
  8
0
 62
     7
 10
72.971711999999997
 20
155.368414
 30
0.0
 40
1.1424799999999991
 50
92.099376000000007
 51
177.8916199999999
  0
ARC
  5
166
  8
0
 62
     7
 10
72.972285999999997
 20
152.42460700000001
 30
0.0
 40
1.1430610000000001
 50
182.11812900000001
 51
267.872928
  0
ARC
  5
167
  8
0
 62
     7
 10
72.887981999999994
 20
152.424058
 30
0.0
 40
1.1424920000000001
 50
272.10061300000001
 51
357.90836899999999
  0
ARC
  5
168
  8
0
 62
     7
 10
72.887771999999998
 20
152.340093
 30
0.0
 40
1.142722999999999
 50
2.1197119999999989
 51
87.889251999999985
  0
ARC
  5
169
  8
0
 62
     7
 10
72.971711999999997
 20
152.340328
 30
0.0
 40
1.1424799999999991
 50
92.099376000000007
 51
177.8916199999999
  0
ARC
  5
16A
  8
0
 62
     7
 10
72.972285999999997
 20
149.39652099999989
 30
0.0
 40
1.1430610000000001
 50
182.11812900000001
 51
267.872928
  0
ARC
  5
16B
  8
0
 62
     7
 10
72.887981999999994
 20
149.395972
 30
0.0
 40
1.1424920000000001
 50
272.10061300000001
 51
357.90836899999999
  0
ARC
  5
16C
  8
0
 62
     7
 10
72.887771999999998
 20
149.31200699999991
 30
0.0
 40
1.142722999999999
 50
2.1197119999999989
 51
87.889251999999985
  0
ARC
  5
16D
  8
0
 62
     7
 10
72.971711999999997
 20
149.31224299999991
 30
0.0
 40
1.1424799999999991
 50
92.099376000000007
 51
177.8916199999999
  0
ARC
  5
16E
  8
0
 62
     7
 10
72.930118000000007
 20
146.32627400000001
 30
0.0
 40
1.1001119999999991
 50
179.986513
 51
269.98656299999999
  0
ARC
  5
16F
  8
0
 62
     7
 10
72.929601000000005
 20
146.32627400000001
 30
0.0
 40
1.1001119999999991
 50
270.01347700000002
 51
0.013447
  0
ARC
  5
170
  8
0
 62
     7
 10
72.887771999999998
 20
146.28426599999989
 30
0.0
 40
1.142722999999999
 50
2.1197119999999989
 51
87.889251999999985
  0
ARC
  5
171
  8
0
 62
     7
 10
72.971711999999997
 20
146.28450100000001
 30
0.0
 40
1.1424799999999991
 50
92.099376000000007
 51
177.8916199999999
  0
ARC
  5
172
  8
0
 62
     7
 10
72.971936999999997
 20
143.34053099999991
 30
0.0
 40
1.142712
 50
182.119227
 51
267.88977699999992
  0
ARC
  5
173
  8
0
 62
     7
 10
72.888007000000002
 20
143.340306
 30
0.0
 40
1.1424799999999991
 50
272.09941299999991
 51
357.89162199999998
  0
ARC
  5
174
  8
0
 62
     7
 10
72.887771999999998
 20
143.25600800000001
 30
0.0
 40
1.142722999999999
 50
2.1197119999999989
 51
87.889251999999985
  0
ARC
  5
175
  8
0
 62
     7
 10
72.971711999999997
 20
143.2562429999999
 30
0.0
 40
1.1424799999999991
 50
92.099376000000007
 51
177.8916199999999
  0
ARC
  5
176
  8
0
 62
     7
 10
72.971936999999997
 20
140.31227299999989
 30
0.0
 40
1.142712
 50
182.119227
 51
267.88977699999992
  0
ARC
  5
177
  8
0
 62
     7
 10
72.888007000000002
 20
140.312048
 30
0.0
 40
1.1424799999999991
 50
272.09941299999991
 51
357.89162199999998
  0
ARC
  5
178
  8
0
 62
     7
 10
72.887771999999998
 20
140.2277499999999
 30
0.0
 40
1.142722999999999
 50
2.1197119999999989
 51
87.889251999999985
  0
ARC
  5
179
  8
0
 62
     7
 10
72.971711999999997
 20
140.22798499999999
 30
0.0
 40
1.1424799999999991
 50
92.099376000000007
 51
177.8916199999999
  0
ARC
  5
17A
  8
0
 62
     7
 10
72.930118000000007
 20
137.242189
 30
0.0
 40
1.1001119999999991
 50
179.986513
 51
269.98656299999999
  0
ARC
  5
17B
  8
0
 62
     7
 10
72.929601000000005
 20
137.242189
 30
0.0
 40
1.1001119999999991
 50
270.01347700000002
 51
0.013447
  0
ARC
  5
17C
  8
0
 62
     7
 10
72.887771999999998
 20
137.20018099999999
 30
0.0
 40
1.142722999999999
 50
2.1197119999999989
 51
87.889251999999985
  0
ARC
  5
17D
  8
0
 62
     7
 10
72.971711999999997
 20
137.2004159999999
 30
0.0
 40
1.1424799999999991
 50
92.099376000000007
 51
177.8916199999999
  0
ARC
  5
17E
  8
0
 62
     7
 10
72.971936999999997
 20
134.2564449999999
 30
0.0
 40
1.142712
 50
182.119227
 51
267.88977699999992
  0
ARC
  5
17F
  8
0
 62
     7
 10
72.888007000000002
 20
134.2562209999999
 30
0.0
 40
1.1424799999999991
 50
272.09941299999991
 51
357.89162199999998
  0
ARC
  5
180
  8
0
 62
     7
 10
72.887771999999998
 20
134.17192299999999
 30
0.0
 40
1.142722999999999
 50
2.1197119999999989
 51
87.889251999999985
  0
ARC
  5
181
  8
0
 62
     7
 10
72.971711999999997
 20
134.17215799999991
 30
0.0
 40
1.1424799999999991
 50
92.099376000000007
 51
177.8916199999999
  0
ARC
  5
182
  8
0
 62
     7
 10
72.930118000000007
 20
131.186362
 30
0.0
 40
1.1001119999999991
 50
179.986513
 51
269.98656299999999
  0
ARC
  5
183
  8
0
 62
     7
 10
72.929601000000005
 20
131.186362
 30
0.0
 40
1.1001119999999991
 50
270.01347700000002
 51
0.013447
  0
ARC
  5
184
  8
0
 62
     7
 10
72.887771999999998
 20
131.14435399999991
 30
0.0
 40
1.142722999999999
 50
2.1197119999999989
 51
87.889251999999985
  0
ARC
  5
185
  8
0
 62
     7
 10
72.971711999999997
 20
131.14458899999991
 30
0.0
 40
1.1424799999999991
 50
92.099376000000007
 51
177.8916199999999
  0
ARC
  5
186
  8
0
 62
     7
 10
72.930118000000007
 20
128.15810400000001
 30
0.0
 40
1.1001119999999991
 50
179.986513
 51
269.98656299999999
  0
ARC
  5
187
  8
0
 62
     7
 10
72.929601000000005
 20
128.15810400000001
 30
0.0
 40
1.1001119999999991
 50
270.01347700000002
 51
0.013447
  0
ARC
  5
188
  8
0
 62
     7
 10
72.887771999999998
 20
128.116096
 30
0.0
 40
1.142722999999999
 50
2.1197119999999989
 51
87.889251999999985
  0
ARC
  5
189
  8
0
 62
     7
 10
72.971711999999997
 20
128.11633099999989
 30
0.0
 40
1.1424799999999991
 50
92.099376000000007
 51
177.8916199999999
  0
ARC
  5
18A
  8
0
 62
     7
 10
72.971936999999997
 20
125.17236
 30
0.0
 40
1.142712
 50
182.119227
 51
267.88977699999992
  0
ARC
  5
18B
  8
0
 62
     7
 10
72.888007000000002
 20
125.17213599999999
 30
0.0
 40
1.1424799999999991
 50
272.09941299999991
 51
357.89162199999998
  0
ARC
  5
18C
  8
0
 62
     7
 10
72.887771999999998
 20
125.08783799999991
 30
0.0
 40
1.142722999999999
 50
2.1197119999999989
 51
87.889251999999985
  0
ARC
  5
18D
  8
0
 62
     7
 10
72.971711999999997
 20
125.08807299999989
 30
0.0
 40
1.1424799999999991
 50
92.099376000000007
 51
177.8916199999999
  0
ARC
  5
18E
  8
0
 62
     7
 10
70.330518000000012
 20
159.9519709999999
 30
0.0
 40
1.0998529999999991
 50
179.99996999999991
 51
270.00002000000001
  0
ARC
  5
18F
  8
0
 62
     7
 10
70.330518000000012
 20
159.9519719999999
 30
0.0
 40
1.0998540000000001
 50
270.00002000000001
 51
359.99998999999991
  0
ARC
  5
190
  8
0
 62
     7
 10
70.330518000000012
 20
159.9519709999999
 30
0.0
 40
1.0998540000000001
 50
0.00001
 51
89.999980000000008
  0
ARC
  5
191
  8
0
 62
     7
 10
70.330518999999995
 20
159.9519709999999
 30
0.0
 40
1.0998540000000001
 50
90.0
 51
179.99996999999991
  0
ARC
  5
192
  8
0
 62
     7
 10
72.929858999999993
 20
158.438187
 30
0.0
 40
1.0998529999999991
 50
179.99996999999991
 51
270.00002000000001
  0
ARC
  5
193
  8
0
 62
     7
 10
72.929858999999993
 20
158.438187
 30
0.0
 40
1.0998540000000001
 50
270.00002000000001
 51
359.99998999999991
  0
ARC
  5
194
  8
0
 62
     7
 10
72.929858999999993
 20
158.438187
 30
0.0
 40
1.0998540000000001
 50
0.00001
 51
89.999980000000008
  0
ARC
  5
195
  8
0
 62
     7
 10
72.929859999999991
 20
158.438187
 30
0.0
 40
1.0998540000000001
 50
90.0
 51
179.99996999999991
  0
ARC
  5
196
  8
0
 62
     7
 10
75.571627000000007
 20
156.96647699999991
 30
0.0
 40
1.1430610000000001
 50
182.11812900000001
 51
267.872928
  0
ARC
  5
197
  8
0
 62
     7
 10
75.487323000000004
 20
156.96592799999991
 30
0.0
 40
1.1424920000000001
 50
272.10061300000001
 51
357.90836899999999
  0
ARC
  5
198
  8
0
 62
     7
 10
75.487112999999994
 20
156.8819639999999
 30
0.0
 40
1.142722999999999
 50
2.1197119999999989
 51
87.889251999999985
  0
ARC
  5
199
  8
0
 62
     7
 10
75.571053000000006
 20
156.8821989999999
 30
0.0
 40
1.1424799999999991
 50
92.099376000000007
 51
177.8916199999999
  0
ARC
  5
19A
  8
0
 62
     7
 10
75.571627000000007
 20
153.93839099999991
 30
0.0
 40
1.1430610000000001
 50
182.11812900000001
 51
267.872928
  0
ARC
  5
19B
  8
0
 62
     7
 10
75.487323000000004
 20
153.93784299999999
 30
0.0
 40
1.1424920000000001
 50
272.10061300000001
 51
357.90836899999999
  0
ARC
  5
19C
  8
0
 62
     7
 10
75.487112999999994
 20
153.85387800000001
 30
0.0
 40
1.142722999999999
 50
2.1197119999999989
 51
87.889251999999985
  0
ARC
  5
19D
  8
0
 62
     7
 10
75.571053000000006
 20
153.8541129999999
 30
0.0
 40
1.1424799999999991
 50
92.099376000000007
 51
177.8916199999999
  0
ARC
  5
19E
  8
0
 62
     7
 10
75.571627000000007
 20
150.91030499999999
 30
0.0
 40
1.1430610000000001
 50
182.11812900000001
 51
267.872928
  0
ARC
  5
19F
  8
0
 62
     7
 10
75.487323000000004
 20
150.90975700000001
 30
0.0
 40
1.1424920000000001
 50
272.10061300000001
 51
357.90836899999999
  0
ARC
  5
1A0
  8
0
 62
     7
 10
75.487112999999994
 20
150.82579199999989
 30
0.0
 40
1.142722999999999
 50
2.1197119999999989
 51
87.889251999999985
  0
ARC
  5
1A1
  8
0
 62
     7
 10
75.571053000000006
 20
150.82602700000001
 30
0.0
 40
1.1424799999999991
 50
92.099376000000007
 51
177.8916199999999
  0
ARC
  5
1A2
  8
0
 62
     7
 10
75.529459000000003
 20
147.84005899999991
 30
0.0
 40
1.1001119999999991
 50
179.986513
 51
269.98656299999999
  0
ARC
  5
1A3
  8
0
 62
     7
 10
75.528942000000001
 20
147.84005899999991
 30
0.0
 40
1.1001119999999991
 50
270.01347700000002
 51
0.013447
  0
ARC
  5
1A4
  8
0
 62
     7
 10
75.487277000000006
 20
147.79803599999991
 30
0.0
 40
1.14256
 50
2.1207500000000001
 51
87.897190000000009
  0
ARC
  5
1A5
  8
0
 62
     7
 10
75.571040999999994
 20
147.7981189999999
 30
0.0
 40
1.1424739999999991
 50
92.098776000000015
 51
177.88324399999991
  0
ARC
  5
1A6
  8
0
 62
     7
 10
75.571278000000007
 20
144.8543149999999
 30
0.0
 40
1.142712
 50
182.119227
 51
267.88977699999992
  0
ARC
  5
1A7
  8
0
 62
     7
 10
75.487347999999997
 20
144.85409100000001
 30
0.0
 40
1.1424799999999991
 50
272.09941299999991
 51
357.89162199999998
  0
ARC
  5
1A8
  8
0
 62
     7
 10
75.487112999999994
 20
144.76979299999991
 30
0.0
 40
1.142722999999999
 50
2.1197119999999989
 51
87.889251999999985
  0
ARC
  5
1A9
  8
0
 62
     7
 10
75.571053000000006
 20
144.770028
 30
0.0
 40
1.1424799999999991
 50
92.099376000000007
 51
177.8916199999999
  0
ARC
  5
1AA
  8
0
 62
     7
 10
75.571278000000007
 20
141.82605699999999
 30
0.0
 40
1.142712
 50
182.119227
 51
267.88977699999992
  0
ARC
  5
1AB
  8
0
 62
     7
 10
75.487347999999997
 20
141.82583299999999
 30
0.0
 40
1.1424799999999991
 50
272.09941299999991
 51
357.89162199999998
  0
ARC
  5
1AC
  8
0
 62
     7
 10
75.487112999999994
 20
141.74153499999991
 30
0.0
 40
1.142722999999999
 50
2.1197119999999989
 51
87.889251999999985
  0
ARC
  5
1AD
  8
0
 62
     7
 10
75.571053000000006
 20
141.74177
 30
0.0
 40
1.1424799999999991
 50
92.099376000000007
 51
177.8916199999999
  0
ARC
  5
1AE
  8
0
 62
     7
 10
75.529459000000003
 20
138.75597300000001
 30
0.0
 40
1.1001119999999991
 50
179.986513
 51
269.98656299999999
  0
ARC
  5
1AF
  8
0
 62
     7
 10
75.528942000000001
 20
138.75597400000001
 30
0.0
 40
1.1001119999999991
 50
270.01347700000002
 51
0.013447
  0
ARC
  5
1B0
  8
0
 62
     7
 10
75.487112999999994
 20
138.71396499999989
 30
0.0
 40
1.142722999999999
 50
2.1197119999999989
 51
87.889251999999985
  0
ARC
  5
1B1
  8
0
 62
     7
 10
75.571053000000006
 20
138.714201
 30
0.0
 40
1.1424799999999991
 50
92.099376000000007
 51
177.8916199999999
  0
ARC
  5
1B2
  8
0
 62
     7
 10
75.571278000000007
 20
135.77022999999991
 30
0.0
 40
1.142712
 50
182.119227
 51
267.88977699999992
  0
ARC
  5
1B3
  8
0
 62
     7
 10
75.487347999999997
 20
135.77000599999991
 30
0.0
 40
1.1424799999999991
 50
272.09941299999991
 51
357.89162199999998
  0
ARC
  5
1B4
  8
0
 62
     7
 10
75.487112999999994
 20
135.68570699999989
 30
0.0
 40
1.142722999999999
 50
2.1197119999999989
 51
87.889251999999985
  0
ARC
  5
1B5
  8
0
 62
     7
 10
75.571053000000006
 20
135.6859429999999
 30
0.0
 40
1.1424799999999991
 50
92.099376000000007
 51
177.8916199999999
  0
ARC
  5
1B6
  8
0
 62
     7
 10
75.529459000000003
 20
132.7001459999999
 30
0.0
 40
1.1001119999999991
 50
179.986513
 51
269.98656299999999
  0
ARC
  5
1B7
  8
0
 62
     7
 10
75.528942000000001
 20
132.7001469999999
 30
0.0
 40
1.1001119999999991
 50
270.01347700000002
 51
0.013447
  0
ARC
  5
1B8
  8
0
 62
     7
 10
75.487112999999994
 20
132.65813799999989
 30
0.0
 40
1.142722999999999
 50
2.1197119999999989
 51
87.889251999999985
  0
ARC
  5
1B9
  8
0
 62
     7
 10
75.571053000000006
 20
132.65837400000001
 30
0.0
 40
1.1424799999999991
 50
92.099376000000007
 51
177.8916199999999
  0
ARC
  5
1BA
  8
0
 62
     7
 10
75.529459000000003
 20
129.671888
 30
0.0
 40
1.1001119999999991
 50
179.986513
 51
269.98656299999999
  0
ARC
  5
1BB
  8
0
 62
     7
 10
75.528942000000001
 20
129.67188899999991
 30
0.0
 40
1.1001119999999991
 50
270.01347700000002
 51
0.013447
  0
ARC
  5
1BC
  8
0
 62
     7
 10
75.487112999999994
 20
129.62988000000001
 30
0.0
 40
1.142722999999999
 50
2.1197119999999989
 51
87.889251999999985
  0
ARC
  5
1BD
  8
0
 62
     7
 10
75.571053000000006
 20
129.6301149999999
 30
0.0
 40
1.1424799999999991
 50
92.099376000000007
 51
177.8916199999999
  0
ARC
  5
1BE
  8
0
 62
     7
 10
75.529459000000003
 20
123.616061
 30
0.0
 40
1.1001119999999991
 50
179.986513
 51
269.98656299999999
  0
ARC
  5
1BF
  8
0
 62
     7
 10
75.528942000000001
 20
123.616061
 30
0.0
 40
1.1001119999999991
 50
270.01347700000002
 51
0.013447
  0
ARC
  5
1C0
  8
0
 62
     7
 10
75.487112999999994
 20
123.57405300000001
 30
0.0
 40
1.142722999999999
 50
2.1197119999999989
 51
87.889251999999985
  0
ARC
  5
1C1
  8
0
 62
     7
 10
75.571053000000006
 20
123.5742879999999
 30
0.0
 40
1.1424799999999991
 50
92.099376000000007
 51
177.8916199999999
  0
ARC
  5
1C2
  8
0
 62
     7
 10
75.571278000000007
 20
126.6861449999999
 30
0.0
 40
1.142712
 50
182.119227
 51
267.88977699999992
  0
ARC
  5
1C3
  8
0
 62
     7
 10
75.487347999999997
 20
126.68592
 30
0.0
 40
1.1424799999999991
 50
272.09941299999991
 51
357.89162199999998
  0
ARC
  5
1C4
  8
0
 62
     7
 10
75.487112999999994
 20
126.60162200000001
 30
0.0
 40
1.142722999999999
 50
2.1197119999999989
 51
87.889251999999985
  0
ARC
  5
1C5
  8
0
 62
     7
 10
75.571053000000006
 20
126.601857
 30
0.0
 40
1.1424799999999991
 50
92.099376000000007
 51
177.8916199999999
  0
ARC
  5
1C6
  8
0
 62
     7
 10
78.170967000000005
 20
155.4526929999999
 30
0.0
 40
1.1430610000000001
 50
182.11812900000001
 51
267.872928
  0
ARC
  5
1C7
  8
0
 62
     7
 10
78.086663999999985
 20
155.452144
 30
0.0
 40
1.1424920000000001
 50
272.10061300000001
 51
357.90836899999999
  0
ARC
  5
1C8
  8
0
 62
     7
 10
78.086454000000003
 20
155.36817899999991
 30
0.0
 40
1.142722999999999
 50
2.1197119999999989
 51
87.889251999999985
  0
ARC
  5
1C9
  8
0
 62
     7
 10
78.170393999999973
 20
155.368414
 30
0.0
 40
1.1424799999999991
 50
92.099376000000007
 51
177.8916199999999
  0
ARC
  5
1CA
  8
0
 62
     7
 10
78.170967000000005
 20
152.42460700000001
 30
0.0
 40
1.1430610000000001
 50
182.11812900000001
 51
267.872928
  0
ARC
  5
1CB
  8
0
 62
     7
 10
78.086663999999985
 20
152.424058
 30
0.0
 40
1.1424920000000001
 50
272.10061300000001
 51
357.90836899999999
  0
ARC
  5
1CC
  8
0
 62
     7
 10
78.086454000000003
 20
152.340093
 30
0.0
 40
1.142722999999999
 50
2.1197119999999989
 51
87.889251999999985
  0
ARC
  5
1CD
  8
0
 62
     7
 10
78.170393999999973
 20
152.340328
 30
0.0
 40
1.1424799999999991
 50
92.099376000000007
 51
177.8916199999999
  0
ARC
  5
1CE
  8
0
 62
     7
 10
78.170967000000005
 20
149.39652099999989
 30
0.0
 40
1.1430610000000001
 50
182.11812900000001
 51
267.872928
  0
ARC
  5
1CF
  8
0
 62
     7
 10
78.086663999999985
 20
149.395972
 30
0.0
 40
1.1424920000000001
 50
272.10061300000001
 51
357.90836899999999
  0
ARC
  5
1D0
  8
0
 62
     7
 10
78.086454000000003
 20
149.31200699999991
 30
0.0
 40
1.142722999999999
 50
2.1197119999999989
 51
87.889251999999985
  0
ARC
  5
1D1
  8
0
 62
     7
 10
78.170393999999973
 20
149.31224299999991
 30
0.0
 40
1.1424799999999991
 50
92.099376000000007
 51
177.8916199999999
  0
ARC
  5
1D2
  8
0
 62
     7
 10
78.128799999999984
 20
146.32627400000001
 30
0.0
 40
1.1001119999999991
 50
179.986513
 51
269.98656299999999
  0
ARC
  5
1D3
  8
0
 62
     7
 10
78.128282999999996
 20
146.32627400000001
 30
0.0
 40
1.1001119999999991
 50
270.01347700000002
 51
0.013447
  0
ARC
  5
1D4
  8
0
 62
     7
 10
78.086454000000003
 20
146.28426599999989
 30
0.0
 40
1.142722999999999
 50
2.1197119999999989
 51
87.889251999999985
  0
ARC
  5
1D5
  8
0
 62
     7
 10
78.170393999999973
 20
146.28450100000001
 30
0.0
 40
1.1424799999999991
 50
92.099376000000007
 51
177.8916199999999
  0
ARC
  5
1D6
  8
0
 62
     7
 10
78.170618999999974
 20
143.34053099999991
 30
0.0
 40
1.142712
 50
182.119227
 51
267.88977699999992
  0
ARC
  5
1D7
  8
0
 62
     7
 10
78.086689000000007
 20
143.340306
 30
0.0
 40
1.1424799999999991
 50
272.09941299999991
 51
357.89162199999998
  0
ARC
  5
1D8
  8
0
 62
     7
 10
78.086454000000003
 20
143.25600800000001
 30
0.0
 40
1.142722999999999
 50
2.1197119999999989
 51
87.889251999999985
  0
ARC
  5
1D9
  8
0
 62
     7
 10
78.170393999999973
 20
143.2562429999999
 30
0.0
 40
1.1424799999999991
 50
92.099376000000007
 51
177.8916199999999
  0
ARC
  5
1DA
  8
0
 62
     7
 10
78.170618999999974
 20
140.31227299999989
 30
0.0
 40
1.142712
 50
182.119227
 51
267.88977699999992
  0
ARC
  5
1DB
  8
0
 62
     7
 10
78.086689000000007
 20
140.312048
 30
0.0
 40
1.1424799999999991
 50
272.09941299999991
 51
357.89162199999998
  0
ARC
  5
1DC
  8
0
 62
     7
 10
78.086454000000003
 20
140.2277499999999
 30
0.0
 40
1.142722999999999
 50
2.1197119999999989
 51
87.889251999999985
  0
ARC
  5
1DD
  8
0
 62
     7
 10
78.170393999999973
 20
140.22798499999999
 30
0.0
 40
1.1424799999999991
 50
92.099376000000007
 51
177.8916199999999
  0
ARC
  5
1DE
  8
0
 62
     7
 10
78.128799999999984
 20
137.242189
 30
0.0
 40
1.1001119999999991
 50
179.986513
 51
269.98656299999999
  0
ARC
  5
1DF
  8
0
 62
     7
 10
78.128282999999996
 20
137.242189
 30
0.0
 40
1.1001119999999991
 50
270.01347700000002
 51
0.013447
  0
ARC
  5
1E0
  8
0
 62
     7
 10
78.086454000000003
 20
137.20018099999999
 30
0.0
 40
1.142722999999999
 50
2.1197119999999989
 51
87.889251999999985
  0
ARC
  5
1E1
  8
0
 62
     7
 10
78.170393999999973
 20
137.2004159999999
 30
0.0
 40
1.1424799999999991
 50
92.099376000000007
 51
177.8916199999999
  0
ARC
  5
1E2
  8
0
 62
     7
 10
78.170618999999974
 20
134.2564449999999
 30
0.0
 40
1.142712
 50
182.119227
 51
267.88977699999992
  0
ARC
  5
1E3
  8
0
 62
     7
 10
78.086689000000007
 20
134.2562209999999
 30
0.0
 40
1.1424799999999991
 50
272.09941299999991
 51
357.89162199999998
  0
ARC
  5
1E4
  8
0
 62
     7
 10
78.086454000000003
 20
134.17192299999999
 30
0.0
 40
1.142722999999999
 50
2.1197119999999989
 51
87.889251999999985
  0
ARC
  5
1E5
  8
0
 62
     7
 10
78.170393999999973
 20
134.17215799999991
 30
0.0
 40
1.1424799999999991
 50
92.099376000000007
 51
177.8916199999999
  0
ARC
  5
1E6
  8
0
 62
     7
 10
78.128799999999984
 20
131.186362
 30
0.0
 40
1.1001119999999991
 50
179.986513
 51
269.98656299999999
  0
ARC
  5
1E7
  8
0
 62
     7
 10
78.128282999999996
 20
131.186362
 30
0.0
 40
1.1001119999999991
 50
270.01347700000002
 51
0.013447
  0
ARC
  5
1E8
  8
0
 62
     7
 10
78.086454000000003
 20
131.14435399999991
 30
0.0
 40
1.142722999999999
 50
2.1197119999999989
 51
87.889251999999985
  0
ARC
  5
1E9
  8
0
 62
     7
 10
78.170393999999973
 20
131.14458899999991
 30
0.0
 40
1.1424799999999991
 50
92.099376000000007
 51
177.8916199999999
  0
ARC
  5
1EA
  8
0
 62
     7
 10
78.128799999999984
 20
128.15810400000001
 30
0.0
 40
1.1001119999999991
 50
179.986513
 51
269.98656299999999
  0
ARC
  5
1EB
  8
0
 62
     7
 10
78.128282999999996
 20
128.15810400000001
 30
0.0
 40
1.1001119999999991
 50
270.01347700000002
 51
0.013447
  0
ARC
  5
1EC
  8
0
 62
     7
 10
78.086454000000003
 20
128.116096
 30
0.0
 40
1.142722999999999
 50
2.1197119999999989
 51
87.889251999999985
  0
ARC
  5
1ED
  8
0
 62
     7
 10
78.170393999999973
 20
128.11633099999989
 30
0.0
 40
1.1424799999999991
 50
92.099376000000007
 51
177.8916199999999
  0
ARC
  5
1EE
  8
0
 62
     7
 10
78.170618999999974
 20
125.17236
 30
0.0
 40
1.142712
 50
182.119227
 51
267.88977699999992
  0
ARC
  5
1EF
  8
0
 62
     7
 10
78.086689000000007
 20
125.17213599999999
 30
0.0
 40
1.1424799999999991
 50
272.09941299999991
 51
357.89162199999998
  0
ARC
  5
1F0
  8
0
 62
     7
 10
78.086454000000003
 20
125.08783799999991
 30
0.0
 40
1.142722999999999
 50
2.1197119999999989
 51
87.889251999999985
  0
ARC
  5
1F1
  8
0
 62
     7
 10
78.170393999999973
 20
125.08807299999989
 30
0.0
 40
1.1424799999999991
 50
92.099376000000007
 51
177.8916199999999
  0
ARC
  5
1F2
  8
0
 62
     7
 10
75.529200000000003
 20
159.9519709999999
 30
0.0
 40
1.0998529999999991
 50
179.99996999999991
 51
270.00002000000001
  0
ARC
  5
1F3
  8
0
 62
     7
 10
75.529200000000003
 20
159.9519719999999
 30
0.0
 40
1.0998540000000001
 50
270.00002000000001
 51
359.99998999999991
  0
ARC
  5
1F4
  8
0
 62
     7
 10
75.529200000000003
 20
159.9519709999999
 30
0.0
 40
1.0998540000000001
 50
0.00001
 51
89.999980000000008
  0
ARC
  5
1F5
  8
0
 62
     7
 10
75.529201
 20
159.9519709999999
 30
0.0
 40
1.0998540000000001
 50
90.0
 51
179.99996999999991
  0
ARC
  5
1F6
  8
0
 62
     7
 10
78.128540999999998
 20
158.438187
 30
0.0
 40
1.0998529999999991
 50
179.99996999999991
 51
270.00002000000001
  0
ARC
  5
1F7
  8
0
 62
     7
 10
78.128540999999998
 20
158.438187
 30
0.0
 40
1.0998540000000001
 50
270.00002000000001
 51
359.99998999999991
  0
ARC
  5
1F8
  8
0
 62
     7
 10
78.128540999999998
 20
158.438187
 30
0.0
 40
1.0998540000000001
 50
0.00001
 51
89.999980000000008
  0
ARC
  5
1F9
  8
0
 62
     7
 10
78.12854200000001
 20
158.438187
 30
0.0
 40
1.0998540000000001
 50
90.0
 51
179.99996999999991
  0
LINE
  5
1FA
  8
0
 62
     7
 10
44.3996
 20
179.36799999999991
 30
0.0
 11
44.794600000000003
 21
177.893
 31
0.0
  0
LINE
  5
1FB
  8
0
 62
     7
 10
44.794600000000003
 20
177.893
 30
0.0
 11
45.189799999999991
 21
179.36799999999991
 31
0.0
  0
LINE
  5
1FC
  8
0
 62
     7
 10
45.189799999999991
 20
179.36799999999991
 30
0.0
 11
44.3996
 21
179.36799999999991
 31
0.0
  0
LINE
  5
1FD
  8
0
 62
     7
 10
45.189799999999991
 20
176.41900000000001
 30
0.0
 11
44.794600000000003
 21
177.893
 31
0.0
  0
LINE
  5
1FE
  8
0
 62
     7
 10
44.794600000000003
 20
177.893
 30
0.0
 11
44.3996
 21
176.41900000000001
 31
0.0
  0
LINE
  5
1FF
  8
0
 62
     7
 10
44.3996
 20
176.41900000000001
 30
0.0
 11
45.189799999999991
 21
176.41900000000001
 31
0.0
  0
LINE
  5
200
  8
0
 62
     7
 10
45.189799999999991
 20
183.0859999999999
 30
0.0
 11
44.794600000000003
 21
184.56
 31
0.0
  0
LINE
  5
201
  8
0
 62
     7
 10
44.794600000000003
 20
184.56
 30
0.0
 11
44.3996
 21
183.0859999999999
 31
0.0
  0
LINE
  5
202
  8
0
 62
     7
 10
44.3996
 20
183.0859999999999
 30
0.0
 11
45.189799999999991
 21
183.0859999999999
 31
0.0
  0
LINE
  5
203
  8
0
 62
     7
 10
50.9848
 20
177.893
 30
0.0
 11
44.328000000000003
 21
177.893
 31
0.0
  0
LINE
  5
204
  8
0
 62
     7
 10
44.3996
 20
79.367199999999997
 30
0.0
 11
44.794600000000003
 21
77.892700000000005
 31
0.0
  0
LINE
  5
205
  8
0
 62
     7
 10
44.794600000000003
 20
77.892700000000005
 30
0.0
 11
45.189799999999991
 21
79.367199999999997
 31
0.0
  0
LINE
  5
206
  8
0
 62
     7
 10
45.189799999999991
 20
79.367199999999997
 30
0.0
 11
44.3996
 21
79.367199999999997
 31
0.0
  0
LINE
  5
207
  8
0
 62
     7
 10
44.3996
 20
72.700199999999995
 30
0.0
 11
44.794600000000003
 21
71.225700000000003
 31
0.0
  0
LINE
  5
208
  8
0
 62
     7
 10
44.794600000000003
 20
71.225700000000003
 30
0.0
 11
45.189799999999991
 21
72.700199999999995
 31
0.0
  0
LINE
  5
209
  8
0
 62
     7
 10
45.189799999999991
 20
72.700199999999995
 30
0.0
 11
44.3996
 21
72.700199999999995
 31
0.0
  0
LINE
  5
20A
  8
0
 62
     7
 10
45.189799999999991
 20
76.418199999999999
 30
0.0
 11
44.794600000000003
 21
77.892700000000005
 31
0.0
  0
LINE
  5
20B
  8
0
 62
     7
 10
44.794600000000003
 20
77.892700000000005
 30
0.0
 11
44.3996
 21
76.418199999999999
 31
0.0
  0
LINE
  5
20C
  8
0
 62
     7
 10
44.3996
 20
76.418199999999999
 30
0.0
 11
45.189799999999991
 21
76.418199999999999
 31
0.0
  0
LINE
  5
20D
  8
0
 62
     7
 10
119.721
 20
245.8959999999999
 30
0.0
 11
113.73399999999999
 21
245.8959999999999
 31
0.0
  0
LINE
  5
20E
  8
0
 62
     7
 10
123.839
 20
241.21899999999999
 30
0.0
 11
125.161
 21
240.45599999999999
 31
0.0
  0
LINE
  5
20F
  8
0
 62
     7
 10
125.161
 20
240.45599999999999
 30
0.0
 11
124.398
 21
241.77799999999999
 31
0.0
  0
LINE
  5
210
  8
0
 62
     7
 10
124.398
 20
241.77799999999999
 30
0.0
 11
123.839
 21
241.21899999999999
 31
0.0
  0
LINE
  5
211
  8
0
 62
     7
 10
128.98199999999991
 20
237.19399999999999
 30
0.0
 11
127.6599999999999
 21
237.95699999999999
 31
0.0
  0
LINE
  5
212
  8
0
 62
     7
 10
127.6599999999999
 20
237.95699999999999
 30
0.0
 11
128.42299999999989
 21
236.63499999999999
 31
0.0
  0
LINE
  5
213
  8
0
 62
     7
 10
128.42299999999989
 20
236.63499999999999
 30
0.0
 11
128.98199999999991
 21
237.19399999999999
 31
0.0
  0
LINE
  5
214
  8
0
 62
     7
 10
130.376
 20
235.2409999999999
 30
0.0
 11
119.721
 21
245.8959999999999
 31
0.0
  0
LINE
  5
215
  8
0
 62
     7
 10
150.17500000000001
 20
167.50599999999989
 30
0.0
 11
151.649
 21
167.9009999999999
 31
0.0
  0
LINE
  5
216
  8
0
 62
     7
 10
151.649
 20
167.9009999999999
 30
0.0
 11
150.17500000000001
 21
168.29599999999999
 31
0.0
  0
LINE
  5
217
  8
0
 62
     7
 10
150.17500000000001
 20
168.29599999999999
 30
0.0
 11
150.17500000000001
 21
167.50599999999989
 31
0.0
  0
LINE
  5
218
  8
0
 62
     7
 10
123.2179999999999
 20
168.28599999999989
 30
0.0
 11
121.744
 21
167.89099999999991
 31
0.0
  0
LINE
  5
219
  8
0
 62
     7
 10
121.744
 20
167.89099999999991
 30
0.0
 11
123.2179999999999
 21
167.4959999999999
 31
0.0
  0
LINE
  5
21A
  8
0
 62
     7
 10
123.2179999999999
 20
167.4959999999999
 30
0.0
 11
123.2179999999999
 21
168.28599999999989
 31
0.0
  0
LINE
  5
21B
  8
0
 62
     7
 10
151.649
 20
167.89099999999991
 30
0.0
 11
121.744
 21
167.89099999999991
 31
0.0
  0
LINE
  5
21C
  8
0
 62
     7
 10
124.93600000000001
 20
231.62299999999999
 30
0.0
 11
126.41
 21
232.018
 31
0.0
  0
LINE
  5
21D
  8
0
 62
     7
 10
126.41
 20
232.018
 30
0.0
 11
124.93600000000001
 21
232.4129999999999
 31
0.0
  0
LINE
  5
21E
  8
0
 62
     7
 10
124.93600000000001
 20
232.4129999999999
 30
0.0
 11
124.93600000000001
 21
231.62299999999999
 31
0.0
  0
LINE
  5
21F
  8
0
 62
     7
 10
123.2179999999999
 20
232.40299999999999
 30
0.0
 11
121.744
 21
232.0079999999999
 31
0.0
  0
LINE
  5
220
  8
0
 62
     7
 10
121.744
 20
232.0079999999999
 30
0.0
 11
123.2179999999999
 21
231.614
 31
0.0
  0
LINE
  5
221
  8
0
 62
     7
 10
123.2179999999999
 20
231.614
 30
0.0
 11
123.2179999999999
 21
232.40299999999999
 31
0.0
  0
LINE
  5
222
  8
0
 62
     7
 10
126.41
 20
232.0079999999999
 30
0.0
 11
121.744
 21
232.0079999999999
 31
0.0
  0
LINE
  5
223
  8
0
 62
     7
 10
121.744
 20
232.0079999999999
 30
0.0
 11
117.602
 21
232.0079999999999
 31
0.0
  0
LINE
  5
224
  8
0
 62
     7
 10
170.79699999999991
 20
214.01400000000001
 30
0.0
 11
171.19200000000001
 21
212.53999999999991
 31
0.0
  0
LINE
  5
225
  8
0
 62
     7
 10
171.19200000000001
 20
212.53999999999991
 30
0.0
 11
171.58699999999999
 21
214.01400000000001
 31
0.0
  0
LINE
  5
226
  8
0
 62
     7
 10
171.58699999999999
 20
214.01400000000001
 30
0.0
 11
170.79699999999991
 21
214.01400000000001
 31
0.0
  0
LINE
  5
227
  8
0
 62
     7
 10
171.578
 20
229.06599999999989
 30
0.0
 11
171.18199999999999
 21
230.53999999999999
 31
0.0
  0
LINE
  5
228
  8
0
 62
     7
 10
171.18199999999999
 20
230.53999999999999
 30
0.0
 11
170.7879999999999
 21
229.06599999999989
 31
0.0
  0
LINE
  5
229
  8
0
 62
     7
 10
170.7879999999999
 20
229.06599999999989
 30
0.0
 11
171.578
 21
229.06599999999989
 31
0.0
  0
LINE
  5
22A
  8
0
 62
     7
 10
171.19200000000001
 20
212.53999999999991
 30
0.0
 11
171.19200000000001
 21
230.53999999999999
 31
0.0
  0
LINE
  5
22B
  8
0
 62
     7
 10
170.79699999999991
 20
232.01400000000001
 30
0.0
 11
171.19200000000001
 21
230.53999999999999
 31
0.0
  0
LINE
  5
22C
  8
0
 62
     7
 10
171.19200000000001
 20
230.53999999999999
 30
0.0
 11
171.58699999999999
 21
232.01400000000001
 31
0.0
  0
LINE
  5
22D
  8
0
 62
     7
 10
171.58699999999999
 20
232.01400000000001
 30
0.0
 11
170.79699999999991
 21
232.01400000000001
 31
0.0
  0
LINE
  5
22E
  8
0
 62
     7
 10
171.578
 20
246.39899999999989
 30
0.0
 11
171.18199999999999
 21
247.874
 31
0.0
  0
LINE
  5
22F
  8
0
 62
     7
 10
171.18199999999999
 20
247.874
 30
0.0
 11
170.7879999999999
 21
246.39899999999989
 31
0.0
  0
LINE
  5
230
  8
0
 62
     7
 10
170.7879999999999
 20
246.39899999999989
 30
0.0
 11
171.578
 21
246.39899999999989
 31
0.0
  0
LINE
  5
231
  8
0
 62
     7
 10
171.19200000000001
 20
230.53999999999999
 30
0.0
 11
171.19200000000001
 21
247.874
 31
0.0
  0
LINE
  5
232
  8
0
 62
     7
 10
170.79699999999991
 20
249.3479999999999
 30
0.0
 11
171.19200000000001
 21
247.87299999999999
 31
0.0
  0
LINE
  5
233
  8
0
 62
     7
 10
171.19200000000001
 20
247.87299999999999
 30
0.0
 11
171.58699999999999
 21
249.3479999999999
 31
0.0
  0
LINE
  5
234
  8
0
 62
     7
 10
171.58699999999999
 20
249.3479999999999
 30
0.0
 11
170.79699999999991
 21
249.3479999999999
 31
0.0
  0
LINE
  5
235
  8
0
 62
     7
 10
171.578
 20
264.399
 30
0.0
 11
171.18199999999999
 21
265.87400000000002
 31
0.0
  0
LINE
  5
236
  8
0
 62
     7
 10
171.18199999999999
 20
265.87400000000002
 30
0.0
 11
170.7879999999999
 21
264.399
 31
0.0
  0
LINE
  5
237
  8
0
 62
     7
 10
170.7879999999999
 20
264.399
 30
0.0
 11
171.578
 21
264.399
 31
0.0
  0
LINE
  5
238
  8
0
 62
     7
 10
171.19200000000001
 20
247.874
 30
0.0
 11
171.19200000000001
 21
265.87299999999988
 31
0.0
  0
LINE
  5
239
  8
0
 62
     7
 10
120.26900000000001
 20
188.88399999999999
 30
0.0
 11
121.744
 21
189.279
 31
0.0
  0
LINE
  5
23A
  8
0
 62
     7
 10
121.744
 20
189.279
 30
0.0
 11
120.26900000000001
 21
189.67400000000001
 31
0.0
  0
LINE
  5
23B
  8
0
 62
     7
 10
120.26900000000001
 20
189.67400000000001
 30
0.0
 11
120.26900000000001
 21
188.88399999999999
 31
0.0
  0
LINE
  5
23C
  8
0
 62
     7
 10
125.2179999999999
 20
189.67400000000001
 30
0.0
 11
123.744
 21
189.279
 31
0.0
  0
LINE
  5
23D
  8
0
 62
     7
 10
123.744
 20
189.279
 30
0.0
 11
125.2179999999999
 21
188.88399999999999
 31
0.0
  0
LINE
  5
23E
  8
0
 62
     7
 10
125.2179999999999
 20
188.88399999999999
 30
0.0
 11
125.2179999999999
 21
189.67400000000001
 31
0.0
  0
LINE
  5
23F
  8
0
 62
     7
 10
126.6669999999999
 20
189.279
 30
0.0
 11
116.8029999999999
 21
189.279
 31
0.0
  0
LINE
  5
240
  8
0
 62
     7
 10
121.744
 20
185.00399999999999
 30
0.0
 11
121.744
 21
196.053
 31
0.0
  0
LINE
  5
241
  8
0
 62
     7
 10
83.420400000000001
 20
162.60099999999991
 30
0.0
 11
89.028899999999993
 21
162.60099999999991
 31
0.0
  0
LINE
  5
242
  8
0
 62
     7
 10
105.64999999999991
 20
184.56
 30
0.0
 11
111.98099999999999
 21
184.56
 31
0.0
  0
LINE
  5
243
  8
0
 62
     7
 10
82.598600000000005
 20
167.893
 30
0.0
 11
111.98099999999999
 21
167.893
 31
0.0
  0
LINE
  5
244
  8
0
 62
     7
 10
80.746999999999986
 20
165.834
 30
0.0
 11
79.424899999999994
 21
166.59700000000001
 31
0.0
  0
LINE
  5
245
  8
0
 62
     7
 10
79.424899999999994
 20
166.59700000000001
 30
0.0
 11
80.188199999999995
 21
165.27500000000001
 31
0.0
  0
LINE
  5
246
  8
0
 62
     7
 10
80.188199999999995
 20
165.27500000000001
 30
0.0
 11
80.746999999999986
 21
165.834
 31
0.0
  0
LINE
  5
247
  8
0
 62
     7
 10
75.510300000000001
 20
169.953
 30
0.0
 11
76.831999999999994
 21
169.18999999999991
 31
0.0
  0
LINE
  5
248
  8
0
 62
     7
 10
76.831999999999994
 20
169.18999999999991
 30
0.0
 11
76.069100000000006
 21
170.51199999999989
 31
0.0
  0
LINE
  5
249
  8
0
 62
     7
 10
76.069100000000006
 20
170.51199999999989
 30
0.0
 11
75.510300000000001
 21
169.953
 31
0.0
  0
LINE
  5
24A
  8
0
 62
     7
 10
74.935299999999984
 20
171.0859999999999
 30
0.0
 11
83.420400000000001
 21
162.60099999999991
 31
0.0
  0
LINE
  5
24B
  8
0
 62
     7
 10
124.2769999999999
 20
265.87299999999988
 30
0.0
 11
171.65899999999999
 21
265.87299999999988
 31
0.0
  0
LINE
  5
24C
  8
0
 62
     7
 10
162.6399999999999
 20
247.87299999999999
 30
0.0
 11
171.65899999999999
 21
247.87299999999999
 31
0.0
  0
LINE
  5
24D
  8
0
 62
     7
 10
124.2769999999999
 20
212.53999999999991
 30
0.0
 11
171.65899999999999
 21
212.53999999999991
 31
0.0
  0
LINE
  5
24E
  8
0
 62
     7
 10
171.65899999999999
 20
230.53999999999999
 30
0.0
 11
162.9739999999999
 21
230.53999999999999
 31
0.0
  0
LINE
  5
24F
  8
0
 62
     7
 10
123.744
 20
185.09399999999999
 30
0.0
 11
123.744
 21
189.745
 31
0.0
  0
LINE
  5
250
  8
0
 62
     7
 10
111.119
 20
169.36699999999999
 30
0.0
 11
111.514
 21
167.893
 31
0.0
  0
LINE
  5
251
  8
0
 62
     7
 10
111.514
 20
167.893
 30
0.0
 11
111.90899999999991
 21
169.36699999999999
 31
0.0
  0
LINE
  5
252
  8
0
 62
     7
 10
111.90899999999991
 20
169.36699999999999
 30
0.0
 11
111.119
 21
169.36699999999999
 31
0.0
  0
LINE
  5
253
  8
0
 62
     7
 10
111.8989999999999
 20
183.0859999999999
 30
0.0
 11
111.5049999999999
 21
184.56
 31
0.0
  0
LINE
  5
254
  8
0
 62
     7
 10
111.5049999999999
 20
184.56
 30
0.0
 11
111.1089999999999
 21
183.0859999999999
 31
0.0
  0
LINE
  5
255
  8
0
 62
     7
 10
111.1089999999999
 20
183.0859999999999
 30
0.0
 11
111.8989999999999
 21
183.0859999999999
 31
0.0
  0
LINE
  5
256
  8
0
 62
     7
 10
111.514
 20
167.893
 30
0.0
 11
111.514
 21
184.56
 31
0.0
  0
LINE
  5
257
  8
0
 62
     7
 10
159.60299999999989
 20
195.20099999999991
 30
0.0
 11
161.077
 21
195.59599999999989
 31
0.0
  0
LINE
  5
258
  8
0
 62
     7
 10
161.077
 20
195.59599999999989
 30
0.0
 11
159.60299999999989
 21
195.9909999999999
 31
0.0
  0
LINE
  5
259
  8
0
 62
     7
 10
159.60299999999989
 20
195.9909999999999
 30
0.0
 11
159.60299999999989
 21
195.20099999999991
 31
0.0
  0
LINE
  5
25A
  8
0
 62
     7
 10
123.2179999999999
 20
195.982
 30
0.0
 11
121.744
 21
195.5859999999999
 31
0.0
  0
LINE
  5
25B
  8
0
 62
     7
 10
121.744
 20
195.5859999999999
 30
0.0
 11
123.2179999999999
 21
195.19200000000001
 31
0.0
  0
LINE
  5
25C
  8
0
 62
     7
 10
123.2179999999999
 20
195.19200000000001
 30
0.0
 11
123.2179999999999
 21
195.982
 31
0.0
  0
LINE
  5
25D
  8
0
 62
     7
 10
161.077
 20
195.5859999999999
 30
0.0
 11
121.744
 21
195.5859999999999
 31
0.0
  0
LINE
  5
25E
  8
0
 62
     7
 10
161.077
 20
156.65899999999991
 30
0.0
 11
161.077
 21
196.053
 31
0.0
  0
LINE
  5
25F
  8
0
 62
     7
 10
126.41
 20
231.542
 30
0.0
 11
126.41
 21
235.30699999999999
 31
0.0
  0
LINE
  5
260
  8
0
 62
     7
 10
37.5762
 20
72.700199999999995
 30
0.0
 11
37.971400000000003
 21
71.225700000000003
 31
0.0
  0
LINE
  5
261
  8
0
 62
     7
 10
37.971400000000003
 20
71.225700000000003
 30
0.0
 11
38.366399999999999
 21
72.700199999999995
 31
0.0
  0
LINE
  5
262
  8
0
 62
     7
 10
38.366399999999999
 20
72.700199999999995
 30
0.0
 11
37.5762
 21
72.700199999999995
 31
0.0
  0
LINE
  5
263
  8
0
 62
     7
 10
38.356699999999996
 20
183.0859999999999
 30
0.0
 11
37.9617
 21
184.56
 31
0.0
  0
LINE
  5
264
  8
0
 62
     7
 10
37.9617
 20
184.56
 30
0.0
 11
37.566800000000001
 21
183.0859999999999
 31
0.0
  0
LINE
  5
265
  8
0
 62
     7
 10
37.566800000000001
 20
183.0859999999999
 30
0.0
 11
38.356699999999996
 21
183.0859999999999
 31
0.0
  0
LINE
  5
266
  8
0
 62
     7
 10
44.794600000000003
 20
71.225700000000003
 30
0.0
 11
44.794600000000003
 21
184.56
 31
0.0
  0
LINE
  5
267
  8
0
 62
     7
 10
37.971400000000003
 20
71.225700000000003
 30
0.0
 11
37.971400000000003
 21
184.56
 31
0.0
  0
LINE
  5
268
  8
0
 62
     7
 10
50.9848
 20
184.56
 30
0.0
 11
37.504600000000003
 21
184.56
 31
0.0
  0
LINE
  5
269
  8
0
 62
     7
 10
50.9848
 20
77.892700000000005
 30
0.0
 11
44.328000000000003
 21
77.892700000000005
 31
0.0
  0
LINE
  5
26A
  8
0
 62
     7
 10
50.9848
 20
71.225700000000003
 30
0.0
 11
37.504600000000003
 21
71.225700000000003
 31
0.0
  0
LINE
  5
26B
  8
0
 62
     7
 10
59.602600000000002
 20
195.477
 30
0.0
 11
58.128100000000003
 21
195.08199999999999
 31
0.0
  0
LINE
  5
26C
  8
0
 62
     7
 10
58.128100000000003
 20
195.08199999999999
 30
0.0
 11
59.602600000000002
 21
194.68700000000001
 31
0.0
  0
LINE
  5
26D
  8
0
 62
     7
 10
59.602600000000002
 20
194.68700000000001
 30
0.0
 11
59.602600000000002
 21
195.477
 31
0.0
  0
LINE
  5
26E
  8
0
 62
     7
 10
99.603300000000004
 20
195.48599999999999
 30
0.0
 11
98.128799999999984
 21
195.09100000000001
 31
0.0
  0
LINE
  5
26F
  8
0
 62
     7
 10
98.128799999999984
 20
195.09100000000001
 30
0.0
 11
99.603300000000004
 21
194.69599999999991
 31
0.0
  0
LINE
  5
270
  8
0
 62
     7
 10
99.603300000000004
 20
194.69599999999991
 30
0.0
 11
99.603300000000004
 21
195.48599999999999
 31
0.0
  0
LINE
  5
271
  8
0
 62
     7
 10
52.935899999999997
 20
195.477
 30
0.0
 11
51.461300000000001
 21
195.08199999999999
 31
0.0
  0
LINE
  5
272
  8
0
 62
     7
 10
51.461300000000001
 20
195.08199999999999
 30
0.0
 11
52.935899999999997
 21
194.68700000000001
 31
0.0
  0
LINE
  5
273
  8
0
 62
     7
 10
52.935899999999997
 20
194.68700000000001
 30
0.0
 11
52.935899999999997
 21
195.477
 31
0.0
  0
LINE
  5
274
  8
0
 62
     7
 10
56.65359999999999
 20
194.68700000000001
 30
0.0
 11
58.128100000000003
 21
195.08199999999999
 31
0.0
  0
LINE
  5
275
  8
0
 62
     7
 10
58.128100000000003
 20
195.08199999999999
 30
0.0
 11
56.65359999999999
 21
195.477
 31
0.0
  0
LINE
  5
276
  8
0
 62
     7
 10
56.65359999999999
 20
195.477
 30
0.0
 11
56.65359999999999
 21
194.68700000000001
 31
0.0
  0
LINE
  5
277
  8
0
 62
     7
 10
96.654300000000006
 20
194.69599999999991
 30
0.0
 11
98.128799999999984
 21
195.09100000000001
 31
0.0
  0
LINE
  5
278
  8
0
 62
     7
 10
98.128799999999984
 20
195.09100000000001
 30
0.0
 11
96.654300000000006
 21
195.48599999999999
 31
0.0
  0
LINE
  5
279
  8
0
 62
     7
 10
96.654300000000006
 20
195.48599999999999
 30
0.0
 11
96.654300000000006
 21
194.69599999999991
 31
0.0
  0
LINE
  5
27A
  8
0
 62
     7
 10
103.3209999999999
 20
194.69599999999991
 30
0.0
 11
104.7949999999999
 21
195.09100000000001
 31
0.0
  0
LINE
  5
27B
  8
0
 62
     7
 10
104.7949999999999
 20
195.09100000000001
 30
0.0
 11
103.3209999999999
 21
195.48599999999999
 31
0.0
  0
LINE
  5
27C
  8
0
 62
     7
 10
103.3209999999999
 20
195.48599999999999
 30
0.0
 11
103.3209999999999
 21
194.69599999999991
 31
0.0
  0
LINE
  5
27D
  8
0
 62
     7
 10
51.461599999999997
 20
195.08199999999999
 30
0.0
 11
104.7949999999999
 21
195.08199999999999
 31
0.0
  0
LINE
  5
27E
  8
0
 62
     7
 10
52.935899999999997
 20
201.46599999999989
 30
0.0
 11
51.461300000000001
 21
201.07099999999991
 31
0.0
  0
LINE
  5
27F
  8
0
 62
     7
 10
51.461300000000001
 20
201.07099999999991
 30
0.0
 11
52.935899999999997
 21
200.6759999999999
 31
0.0
  0
LINE
  5
280
  8
0
 62
     7
 10
52.935899999999997
 20
200.6759999999999
 30
0.0
 11
52.935899999999997
 21
201.46599999999989
 31
0.0
  0
LINE
  5
281
  8
0
 62
     7
 10
103.3209999999999
 20
200.68599999999989
 30
0.0
 11
104.7949999999999
 21
201.0809999999999
 31
0.0
  0
LINE
  5
282
  8
0
 62
     7
 10
104.7949999999999
 20
201.0809999999999
 30
0.0
 11
103.3209999999999
 21
201.47599999999991
 31
0.0
  0
LINE
  5
283
  8
0
 62
     7
 10
103.3209999999999
 20
201.47599999999991
 30
0.0
 11
103.3209999999999
 21
200.68599999999989
 31
0.0
  0
LINE
  5
284
  8
0
 62
     7
 10
51.461599999999997
 20
201.07099999999991
 30
0.0
 11
104.7949999999999
 21
201.07099999999991
 31
0.0
  0
LINE
  5
285
  8
0
 62
     7
 10
98.128699999999995
 20
185.0929999999999
 30
0.0
 11
98.128699999999995
 21
195.55799999999991
 31
0.0
  0
LINE
  5
286
  8
0
 62
     7
 10
104.7949999999999
 20
185.0929999999999
 30
0.0
 11
104.7949999999999
 21
201.5379999999999
 31
0.0
  0
LINE
  5
287
  8
0
 62
     7
 10
58.128399999999999
 20
185.02699999999999
 30
0.0
 11
58.128399999999999
 21
195.55799999999991
 31
0.0
  0
LINE
  5
288
  8
0
 62
     7
 10
51.461599999999997
 20
185.02699999999999
 30
0.0
 11
51.461599999999997
 21
201.5379999999999
 31
0.0
  0
ARC
  5
289
  8
0
 62
     7
 10
156.60766100000001
 20
248.38944699999999
 30
0.0
 40
0.329598
 50
155.07550299999991
 51
213.84360299999989
  0
LINE
  5
28A
  8
0
 62
     7
 10
156.27699999999999
 20
248.4729999999999
 30
0.0
 11
156.27699999999999
 21
247.20699999999991
 31
0.0
  0
ARC
  5
28B
  8
0
 62
     7
 10
156.60551799999999
 20
247.2907469999999
 30
0.0
 40
0.327727
 50
145.9719979999999
 51
205.1088959999999
  0
ARC
  5
28C
  8
0
 62
     7
 10
157.49263099999999
 20
247.840013
 30
0.0
 40
1.2151119999999991
 50
162.476237
 51
197.523763
  0
LINE
  5
28D
  8
0
 62
     7
 10
156.334
 20
247.10900000000001
 30
0.0
 11
156.27699999999999
 21
247.20699999999991
 31
0.0
  0
LINE
  5
28E
  8
0
 62
     7
 10
156.334
 20
248.571
 30
0.0
 11
156.27699999999999
 21
248.4729999999999
 31
0.0
  0
ARC
  5
28F
  8
0
 62
     7
 10
156.61278200000001
 20
248.38917900000001
 30
0.0
 40
0.329999
 50
326.25903099999999
 51
24.943559
  0
LINE
  5
290
  8
0
 62
     7
 10
156.9439999999999
 20
248.4729999999999
 30
0.0
 11
156.9439999999999
 21
247.20699999999991
 31
0.0
  0
ARC
  5
291
  8
0
 62
     7
 10
155.722273
 20
247.840013
 30
0.0
 40
1.2210270000000001
 50
342.563872
 51
17.436128
  0
ARC
  5
292
  8
0
 62
     7
 10
156.61324999999991
 20
247.29088399999989
 30
0.0
 40
0.32959
 50
335.01645200000002
 51
33.780957000000001
  0
LINE
  5
293
  8
0
 62
     7
 10
156.88699999999989
 20
247.10900000000001
 30
0.0
 11
156.9439999999999
 21
247.20699999999991
 31
0.0
  0
LINE
  5
294
  8
0
 62
     7
 10
156.88699999999989
 20
248.571
 30
0.0
 11
156.9439999999999
 21
248.4729999999999
 31
0.0
  0
LINE
  5
295
  8
0
 62
     7
 10
156.88699999999989
 20
248.20599999999999
 30
0.0
 11
156.334
 21
248.20599999999999
 31
0.0
  0
LINE
  5
296
  8
0
 62
     7
 10
156.88699999999989
 20
247.10900000000001
 30
0.0
 11
156.334
 21
247.10900000000001
 31
0.0
  0
LINE
  5
297
  8
0
 62
     7
 10
156.88699999999989
 20
247.47399999999999
 30
0.0
 11
156.334
 21
247.47399999999999
 31
0.0
  0
LINE
  5
298
  8
0
 62
     7
 10
156.88699999999989
 20
248.571
 30
0.0
 11
156.334
 21
248.571
 31
0.0
  0
LINE
  5
299
  8
0
 62
     7
 10
161.01099999999991
 20
249.53999999999999
 30
0.0
 11
161.01099999999991
 21
246.20699999999999
 31
0.0
  0
LINE
  5
29A
  8
0
 62
     7
 10
159.67699999999999
 20
248.70699999999999
 30
0.0
 11
159.67699999999999
 21
247.03999999999999
 31
0.0
  0
LINE
  5
29B
  8
0
 62
     7
 10
160.477
 20
249.53999999999999
 30
0.0
 11
160.477
 21
246.20699999999999
 31
0.0
  0
LINE
  5
29C
  8
0
 62
     7
 10
161.01099999999991
 20
249.53999999999999
 30
0.0
 11
160.477
 21
249.53999999999999
 31
0.0
  0
LINE
  5
29D
  8
0
 62
     7
 10
161.01099999999991
 20
246.20699999999999
 30
0.0
 11
160.477
 21
246.20699999999999
 31
0.0
  0
LINE
  5
29E
  8
0
 62
     7
 10
159.67699999999999
 20
247.03999999999999
 30
0.0
 11
160.477
 21
246.20699999999999
 31
0.0
  0
LINE
  5
29F
  8
0
 62
     7
 10
159.67699999999999
 20
248.70699999999999
 30
0.0
 11
160.477
 21
249.53999999999999
 31
0.0
  0
ARC
  5
2A0
  8
0
 62
     7
 10
159.90381899999991
 20
247.900747
 30
0.0
 40
0.4664450000000001
 50
119.040199
 51
133.339495
  0
ARC
  5
2A1
  8
0
 62
     7
 10
159.89758399999999
 20
247.837593
 30
0.0
 40
0.455969
 50
226.49535800000001
 51
241.1249479999999
  0
LINE
  5
2A2
  8
0
 62
     7
 10
159.584
 20
247.50700000000001
 30
0.0
 11
159.25
 21
247.50700000000001
 31
0.0
  0
LINE
  5
2A3
  8
0
 62
     7
 10
159.584
 20
248.24000000000001
 30
0.0
 11
159.25
 21
248.24000000000001
 31
0.0
  0
LINE
  5
2A4
  8
0
 62
     7
 10
159.584
 20
247.50700000000001
 30
0.0
 11
159.584
 21
248.24000000000001
 31
0.0
  0
LINE
  5
2A5
  8
0
 62
     7
 10
159.18299999999991
 20
247.55799999999991
 30
0.0
 11
158.7829999999999
 21
247.55799999999991
 31
0.0
  0
LINE
  5
2A6
  8
0
 62
     7
 10
159.18299999999991
 20
248.18899999999999
 30
0.0
 11
158.7829999999999
 21
248.18899999999999
 31
0.0
  0
LINE
  5
2A7
  8
0
 62
     7
 10
159.18299999999991
 20
247.2399999999999
 30
0.0
 11
158.7829999999999
 21
247.2399999999999
 31
0.0
  0
LINE
  5
2A8
  8
0
 62
     7
 10
159.18299999999991
 20
248.50699999999989
 30
0.0
 11
158.7829999999999
 21
248.50699999999989
 31
0.0
  0
LINE
  5
2A9
  8
0
 62
     7
 10
159.25
 20
247.399
 30
0.0
 11
159.25
 21
248.34700000000001
 31
0.0
  0
LINE
  5
2AA
  8
0
 62
     7
 10
158.71700000000001
 20
247.399
 30
0.0
 11
158.71700000000001
 21
248.34700000000001
 31
0.0
  0
ARC
  5
2AB
  8
0
 62
     7
 10
159.49856
 20
247.87343100000001
 30
0.0
 40
0.781562
 50
156.21340799999999
 51
203.7865919999999
  0
ARC
  5
2AC
  8
0
 62
     7
 10
158.46224099999989
 20
247.87343100000001
 30
0.0
 40
0.787013
 50
336.3882089999999
 51
23.611791
  0
ARC
  5
2AD
  8
0
 62
     7
 10
159.014714
 20
247.399316
 30
0.0
 40
0.232089
 50
316.60786400000001
 51
42.392453000000003
  0
LINE
  5
2AE
  8
0
 62
     7
 10
159.18600000000001
 20
247.5559999999999
 30
0.0
 11
159.18299999999991
 21
247.55799999999991
 31
0.0
  0
ARC
  5
2AF
  8
0
 62
     7
 10
159.01596699999999
 20
248.34774899999999
 30
0.0
 40
0.230937
 50
316.45781399999993
 51
42.540317999999992
  0
LINE
  5
2B0
  8
0
 62
     7
 10
159.18600000000001
 20
248.50399999999999
 30
0.0
 11
159.18299999999991
 21
248.50699999999989
 31
0.0
  0
LINE
  5
2B1
  8
0
 62
     7
 10
158.71700000000001
 20
248.18899999999999
 30
0.0
 11
158.71700000000001
 21
248.34700000000001
 31
0.0
  0
ARC
  5
2B2
  8
0
 62
     7
 10
158.9515649999999
 20
248.3473919999999
 30
0.0
 40
0.231613
 50
136.561509
 51
222.56376299999999
  0
LINE
  5
2B3
  8
0
 62
     7
 10
158.78100000000001
 20
248.19099999999989
 30
0.0
 11
158.7829999999999
 21
248.18899999999999
 31
0.0
  0
ARC
  5
2B4
  8
0
 62
     7
 10
158.95136999999991
 20
247.399124
 30
0.0
 40
0.231353
 50
136.55929399999991
 51
222.56502399999999
  0
LINE
  5
2B5
  8
0
 62
     7
 10
158.78100000000001
 20
247.24299999999999
 30
0.0
 11
158.7829999999999
 21
247.2399999999999
 31
0.0
  0
LINE
  5
2B6
  8
0
 62
     7
 10
158.624
 20
247.44
 30
0.0
 11
158.624
 21
248.24000000000001
 31
0.0
  0
LINE
  5
2B7
  8
0
 62
     7
 10
161.01099999999991
 20
246.4729999999999
 30
0.0
 11
161.077
 21
246.4729999999999
 31
0.0
  0
LINE
  5
2B8
  8
0
 62
     7
 10
161.01099999999991
 20
249.27299999999991
 30
0.0
 11
161.077
 21
249.27299999999991
 31
0.0
  0
LINE
  5
2B9
  8
0
 62
     7
 10
161.077
 20
246.4729999999999
 30
0.0
 11
161.077
 21
249.27299999999991
 31
0.0
  0
LINE
  5
2BA
  8
0
 62
     7
 10
158.71700000000001
 20
248.24000000000001
 30
0.0
 11
156.9439999999999
 21
248.24000000000001
 31
0.0
  0
LINE
  5
2BB
  8
0
 62
     7
 10
158.71700000000001
 20
248.173
 30
0.0
 11
156.9439999999999
 21
248.173
 31
0.0
  0
LINE
  5
2BC
  8
0
 62
     7
 10
158.71700000000001
 20
247.50700000000001
 30
0.0
 11
156.9439999999999
 21
247.50700000000001
 31
0.0
  0
LINE
  5
2BD
  8
0
 62
     7
 10
158.71700000000001
 20
247.44
 30
0.0
 11
156.9439999999999
 21
247.44
 31
0.0
  0
ARC
  5
2BE
  8
0
 62
     7
 10
154.34644299999999
 20
248.58004600000001
 30
0.0
 40
0.069311
 50
182.01197400000001
 51
267.98805599999997
  0
LINE
  5
2BF
  8
0
 62
     7
 10
154.27699999999999
 20
248.41800000000001
 30
0.0
 11
154.33099999999999
 21
248.511
 31
0.0
  0
ARC
  5
2C0
  8
0
 62
     7
 10
154.429565
 20
248.39730599999999
 30
0.0
 40
0.156837
 50
193.675432
 51
272.97926299999989
  0
LINE
  5
2C1
  8
0
 62
     7
 10
154.27699999999999
 20
248.41800000000001
 30
0.0
 11
154.27699999999999
 21
247.84099999999989
 31
0.0
  0
ARC
  5
2C2
  8
0
 62
     7
 10
154.86297699999989
 20
247.83778199999989
 30
0.0
 40
0.5858100000000001
 50
136.5467229999999
 51
179.714349
  0
ARC
  5
2C3
  8
0
 62
     7
 10
154.86198099999999
 20
247.84322299999999
 30
0.0
 40
0.584812
 50
180.246939
 51
223.49198899999999
  0
LINE
  5
2C4
  8
0
 62
     7
 10
154.27699999999999
 20
247.26300000000001
 30
0.0
 11
154.27699999999999
 21
247.84099999999989
 31
0.0
  0
ARC
  5
2C5
  8
0
 62
     7
 10
154.42979700000001
 20
247.28403800000001
 30
0.0
 40
0.157077
 50
91.383961999999983
 51
166.32275899999999
  0
LINE
  5
2C6
  8
0
 62
     7
 10
154.34399999999991
 20
247.17099999999991
 30
0.0
 11
156.2239999999999
 21
247.17099999999991
 31
0.0
  0
LINE
  5
2C7
  8
0
 62
     7
 10
154.27699999999999
 20
247.26300000000001
 30
0.0
 11
154.33099999999999
 21
247.17099999999991
 31
0.0
  0
ARC
  5
2C8
  8
0
 62
     7
 10
154.34642600000001
 20
247.1013759999999
 30
0.0
 40
0.069293
 50
91.998103000000015
 51
178.001867
  0
LINE
  5
2C9
  8
0
 62
     7
 10
154.34399999999991
 20
248.511
 30
0.0
 11
156.2239999999999
 21
248.511
 31
0.0
  0
LINE
  5
2CA
  8
0
 62
     7
 10
156.27699999999999
 20
247.26300000000001
 30
0.0
 11
156.2239999999999
 21
247.17099999999991
 31
0.0
  0
ARC
  5
2CB
  8
0
 62
     7
 10
156.12532200000001
 20
247.28513899999999
 30
0.0
 40
0.155964
 50
13.360443999999999
 51
88.803026000000003
  0
ARC
  5
2CC
  8
0
 62
     7
 10
155.68939499999991
 20
247.84400400000001
 30
0.0
 40
0.587679
 50
316.6680429999999
 51
359.67809999999997
  0
LINE
  5
2CD
  8
0
 62
     7
 10
156.27699999999999
 20
247.26300000000001
 30
0.0
 11
156.27699999999999
 21
247.84099999999989
 31
0.0
  0
LINE
  5
2CE
  8
0
 62
     7
 10
156.27699999999999
 20
248.41800000000001
 30
0.0
 11
156.27699999999999
 21
247.84099999999989
 31
0.0
  0
ARC
  5
2CF
  8
0
 62
     7
 10
155.691339
 20
247.83817999999999
 30
0.0
 40
0.585731
 50
0.246787
 51
43.407069999999997
  0
ARC
  5
2D0
  8
0
 62
     7
 10
156.12459499999991
 20
248.39743399999989
 30
0.0
 40
0.156944
 50
267.17744699999997
 51
346.28585499999991
  0
LINE
  5
2D1
  8
0
 62
     7
 10
156.27699999999999
 20
248.41800000000001
 30
0.0
 11
156.2239999999999
 21
248.511
 31
0.0
  0
LINE
  5
2D2
  8
0
 62
     7
 10
154.23699999999999
 20
249.84099999999989
 30
0.0
 11
154.23699999999999
 21
247.84099999999989
 31
0.0
  0
LINE
  5
2D3
  8
0
 62
     7
 10
154.23699999999999
 20
249.84099999999989
 30
0.0
 11
154.11699999999999
 21
249.84099999999989
 31
0.0
  0
LINE
  5
2D4
  8
0
 62
     7
 10
154.27699999999999
 20
249.8009999999999
 30
0.0
 11
154.23699999999999
 21
249.84099999999989
 31
0.0
  0
LINE
  5
2D5
  8
0
 62
     7
 10
154.11699999999999
 20
249.84099999999989
 30
0.0
 11
154.077
 21
249.8009999999999
 31
0.0
  0
LINE
  5
2D6
  8
0
 62
     7
 10
154.11699999999999
 20
247.84099999999989
 30
0.0
 11
154.11699999999999
 21
249.84099999999989
 31
0.0
  0
LINE
  5
2D7
  8
0
 62
     7
 10
154.27699999999999
 20
249.8009999999999
 30
0.0
 11
154.27699999999999
 21
247.84099999999989
 31
0.0
  0
LINE
  5
2D8
  8
0
 62
     7
 10
154.27699999999999
 20
245.88099999999989
 30
0.0
 11
154.27699999999999
 21
247.84099999999989
 31
0.0
  0
LINE
  5
2D9
  8
0
 62
     7
 10
154.11699999999999
 20
247.84099999999989
 30
0.0
 11
154.11699999999999
 21
245.84099999999989
 31
0.0
  0
LINE
  5
2DA
  8
0
 62
     7
 10
154.11699999999999
 20
245.84099999999989
 30
0.0
 11
154.077
 21
245.88099999999989
 31
0.0
  0
LINE
  5
2DB
  8
0
 62
     7
 10
154.27699999999999
 20
245.88099999999989
 30
0.0
 11
154.23699999999999
 21
245.84099999999989
 31
0.0
  0
LINE
  5
2DC
  8
0
 62
     7
 10
154.23699999999999
 20
245.84099999999989
 30
0.0
 11
154.11699999999999
 21
245.84099999999989
 31
0.0
  0
LINE
  5
2DD
  8
0
 62
     7
 10
154.23699999999999
 20
245.84099999999989
 30
0.0
 11
154.23699999999999
 21
247.84099999999989
 31
0.0
  0
LINE
  5
2DE
  8
0
 62
     7
 10
154.4379999999999
 20
248.2409999999999
 30
0.0
 11
156.11699999999999
 21
248.2409999999999
 31
0.0
  0
LINE
  5
2DF
  8
0
 62
     7
 10
154.4379999999999
 20
247.44099999999989
 30
0.0
 11
156.11699999999999
 21
247.44099999999989
 31
0.0
  0
LINE
  5
2E0
  8
0
 62
     7
 10
154.077
 20
245.88099999999989
 30
0.0
 11
154.077
 21
249.8009999999999
 31
0.0
  0
LINE
  5
2E1
  8
0
  6
AIGENLINE001
 62
     7
 10
162.173
 20
247.87299999999999
 30
0.0
 11
150.7579999999999
 21
247.87299999999999
 31
0.0
  0
ARC
  5
2E2
  8
0
 62
     7
 10
156.60766100000001
 20
231.056029
 30
0.0
 40
0.329598
 50
155.07550299999991
 51
213.84360299999989
  0
LINE
  5
2E3
  8
0
 62
     7
 10
156.27699999999999
 20
231.1399999999999
 30
0.0
 11
156.27699999999999
 21
229.87299999999991
 31
0.0
  0
ARC
  5
2E4
  8
0
 62
     7
 10
156.606425
 20
229.95760199999989
 30
0.0
 40
0.328519
 50
146.05033499999999
 51
205.03055900000001
  0
ARC
  5
2E5
  8
0
 62
     7
 10
157.4946239999999
 20
230.50642300000001
 30
0.0
 40
1.2170650000000001
 50
162.4967649999999
 51
197.50323499999999
  0
LINE
  5
2E6
  8
0
 62
     7
 10
156.334
 20
229.77500000000001
 30
0.0
 11
156.27699999999999
 21
229.87299999999991
 31
0.0
  0
LINE
  5
2E7
  8
0
 62
     7
 10
156.334
 20
231.238
 30
0.0
 11
156.27699999999999
 21
231.1399999999999
 31
0.0
  0
ARC
  5
2E8
  8
0
 62
     7
 10
156.61369899999991
 20
231.05568999999991
 30
0.0
 40
0.329198
 50
326.18064399999992
 51
25.021946
  0
LINE
  5
2E9
  8
0
 62
     7
 10
156.9439999999999
 20
231.1399999999999
 30
0.0
 11
156.9439999999999
 21
229.87299999999991
 31
0.0
  0
ARC
  5
2EA
  8
0
 62
     7
 10
155.71882999999991
 20
230.50642300000001
 30
0.0
 40
1.224362999999999
 50
342.60446000000002
 51
17.39554
  0
ARC
  5
2EB
  8
0
 62
     7
 10
156.61257499999991
 20
229.95775800000001
 30
0.0
 40
0.33018
 50
335.07410399999992
 51
33.723306000000001
  0
LINE
  5
2EC
  8
0
 62
     7
 10
156.88699999999989
 20
229.77500000000001
 30
0.0
 11
156.9439999999999
 21
229.87299999999991
 31
0.0
  0
LINE
  5
2ED
  8
0
 62
     7
 10
156.88699999999989
 20
231.238
 30
0.0
 11
156.9439999999999
 21
231.1399999999999
 31
0.0
  0
LINE
  5
2EE
  8
0
 62
     7
 10
156.88699999999989
 20
230.87200000000001
 30
0.0
 11
156.334
 21
230.87200000000001
 31
0.0
  0
LINE
  5
2EF
  8
0
 62
     7
 10
156.88699999999989
 20
229.77500000000001
 30
0.0
 11
156.334
 21
229.77500000000001
 31
0.0
  0
LINE
  5
2F0
  8
0
 62
     7
 10
156.88699999999989
 20
230.13999999999999
 30
0.0
 11
156.334
 21
230.13999999999999
 31
0.0
  0
LINE
  5
2F1
  8
0
 62
     7
 10
156.88699999999989
 20
231.238
 30
0.0
 11
156.334
 21
231.238
 31
0.0
  0
LINE
  5
2F2
  8
0
 62
     7
 10
161.01099999999991
 20
232.20699999999999
 30
0.0
 11
161.01099999999991
 21
228.87299999999999
 31
0.0
  0
LINE
  5
2F3
  8
0
 62
     7
 10
159.67699999999999
 20
231.37299999999999
 30
0.0
 11
159.67699999999999
 21
229.70699999999999
 31
0.0
  0
LINE
  5
2F4
  8
0
 62
     7
 10
160.477
 20
232.20699999999999
 30
0.0
 11
160.477
 21
228.87299999999999
 31
0.0
  0
LINE
  5
2F5
  8
0
 62
     7
 10
161.01099999999991
 20
232.20699999999999
 30
0.0
 11
160.477
 21
232.20699999999999
 31
0.0
  0
LINE
  5
2F6
  8
0
 62
     7
 10
161.01099999999991
 20
228.87299999999999
 30
0.0
 11
160.477
 21
228.87299999999999
 31
0.0
  0
LINE
  5
2F7
  8
0
 62
     7
 10
159.67699999999999
 20
229.70699999999999
 30
0.0
 11
160.477
 21
228.87299999999999
 31
0.0
  0
LINE
  5
2F8
  8
0
 62
     7
 10
159.67699999999999
 20
231.37299999999999
 30
0.0
 11
160.477
 21
232.20699999999999
 31
0.0
  0
ARC
  5
2F9
  8
0
 62
     7
 10
159.92130299999999
 20
230.54342999999989
 30
0.0
 40
0.49584
 50
119.46607399999991
 51
132.91362000000001
  0
ARC
  5
2FA
  8
0
 62
     7
 10
159.9290169999999
 20
230.54902699999991
 30
0.0
 40
0.510458
 50
227.428695
 51
240.4665029999999
  0
LINE
  5
2FB
  8
0
 62
     7
 10
159.584
 20
230.173
 30
0.0
 11
159.25
 21
230.173
 31
0.0
  0
LINE
  5
2FC
  8
0
 62
     7
 10
159.584
 20
230.90700000000001
 30
0.0
 11
159.25
 21
230.90700000000001
 31
0.0
  0
LINE
  5
2FD
  8
0
 62
     7
 10
159.584
 20
230.173
 30
0.0
 11
159.584
 21
230.90700000000001
 31
0.0
  0
LINE
  5
2FE
  8
0
 62
     7
 10
159.18299999999991
 20
230.22499999999991
 30
0.0
 11
158.7829999999999
 21
230.22499999999991
 31
0.0
  0
LINE
  5
2FF
  8
0
 62
     7
 10
159.18299999999991
 20
230.8549999999999
 30
0.0
 11
158.7829999999999
 21
230.8549999999999
 31
0.0
  0
LINE
  5
300
  8
0
 62
     7
 10
159.18299999999991
 20
229.9069999999999
 30
0.0
 11
158.7829999999999
 21
229.9069999999999
 31
0.0
  0
LINE
  5
301
  8
0
 62
     7
 10
159.18299999999991
 20
231.173
 30
0.0
 11
158.7829999999999
 21
231.173
 31
0.0
  0
LINE
  5
302
  8
0
 62
     7
 10
159.25
 20
230.06599999999989
 30
0.0
 11
159.25
 21
231.01400000000001
 31
0.0
  0
LINE
  5
303
  8
0
 62
     7
 10
158.71700000000001
 20
230.06599999999989
 30
0.0
 11
158.71700000000001
 21
231.01400000000001
 31
0.0
  0
ARC
  5
304
  8
0
 62
     7
 10
159.496724
 20
230.5400129999999
 30
0.0
 40
0.779744
 50
156.18217999999999
 51
203.8178199999999
  0
ARC
  5
305
  8
0
 62
     7
 10
158.46513100000001
 20
230.5400129999999
 30
0.0
 40
0.784227
 50
336.32670400000001
 51
23.673296000000001
  0
ARC
  5
306
  8
0
 62
     7
 10
159.01534099999989
 20
230.06606600000001
 30
0.0
 40
0.231512
 50
316.53293600000001
 51
42.466289000000003
  0
LINE
  5
307
  8
0
 62
     7
 10
159.18600000000001
 20
230.22200000000001
 30
0.0
 11
159.18299999999991
 21
230.22499999999991
 31
0.0
  0
ARC
  5
308
  8
0
 62
     7
 10
159.01514399999991
 20
231.01433499999999
 30
0.0
 40
0.231774
 50
316.53553999999991
 51
42.464778000000003
  0
LINE
  5
309
  8
0
 62
     7
 10
159.18600000000001
 20
231.17099999999999
 30
0.0
 11
159.18299999999991
 21
231.173
 31
0.0
  0
LINE
  5
30A
  8
0
 62
     7
 10
158.71700000000001
 20
230.8549999999999
 30
0.0
 11
158.71700000000001
 21
231.01400000000001
 31
0.0
  0
ARC
  5
30B
  8
0
 62
     7
 10
158.9522659999999
 20
231.0137969999999
 30
0.0
 40
0.232244
 50
136.648899
 51
222.47732599999989
  0
LINE
  5
30C
  8
0
 62
     7
 10
158.78100000000001
 20
230.857
 30
0.0
 11
158.7829999999999
 21
230.8549999999999
 31
0.0
  0
ARC
  5
30D
  8
0
 62
     7
 10
158.95277300000001
 20
230.065697
 30
0.0
 40
0.232615
 50
136.7338159999999
 51
222.39240899999999
  0
LINE
  5
30E
  8
0
 62
     7
 10
158.78100000000001
 20
229.90899999999999
 30
0.0
 11
158.7829999999999
 21
229.9069999999999
 31
0.0
  0
LINE
  5
30F
  8
0
 62
     7
 10
158.624
 20
230.107
 30
0.0
 11
158.624
 21
230.90700000000001
 31
0.0
  0
LINE
  5
310
  8
0
 62
     7
 10
161.01099999999991
 20
229.1399999999999
 30
0.0
 11
161.077
 21
229.1399999999999
 31
0.0
  0
LINE
  5
311
  8
0
 62
     7
 10
161.01099999999991
 20
231.93999999999991
 30
0.0
 11
161.077
 21
231.93999999999991
 31
0.0
  0
LINE
  5
312
  8
0
 62
     7
 10
161.077
 20
229.1399999999999
 30
0.0
 11
161.077
 21
231.93999999999991
 31
0.0
  0
LINE
  5
313
  8
0
 62
     7
 10
158.71700000000001
 20
230.90700000000001
 30
0.0
 11
156.9439999999999
 21
230.90700000000001
 31
0.0
  0
LINE
  5
314
  8
0
 62
     7
 10
158.71700000000001
 20
230.84
 30
0.0
 11
156.9439999999999
 21
230.84
 31
0.0
  0
LINE
  5
315
  8
0
 62
     7
 10
158.71700000000001
 20
230.173
 30
0.0
 11
156.9439999999999
 21
230.173
 31
0.0
  0
LINE
  5
316
  8
0
 62
     7
 10
158.71700000000001
 20
230.107
 30
0.0
 11
156.9439999999999
 21
230.107
 31
0.0
  0
ARC
  5
317
  8
0
 62
     7
 10
154.34644299999999
 20
231.2466279999999
 30
0.0
 40
0.069311
 50
182.01197400000001
 51
267.98805599999997
  0
LINE
  5
318
  8
0
 62
     7
 10
154.27699999999999
 20
231.08500000000001
 30
0.0
 11
154.33099999999999
 21
231.17699999999999
 31
0.0
  0
ARC
  5
319
  8
0
 62
     7
 10
154.42951099999999
 20
231.06381400000001
 30
0.0
 40
0.156767
 50
193.65416500000001
 51
273.00052999999991
  0
LINE
  5
31A
  8
0
 62
     7
 10
154.27699999999999
 20
231.08500000000001
 30
0.0
 11
154.27699999999999
 21
230.50700000000001
 31
0.0
  0
ARC
  5
31B
  8
0
 62
     7
 10
154.86175499999999
 20
230.50485399999999
 30
0.0
 40
0.5845860000000001
 50
136.49923000000001
 51
179.761842
  0
ARC
  5
31C
  8
0
 62
     7
 10
154.86287200000001
 20
230.509815
 30
0.0
 40
0.585703
 50
180.24762200000001
 51
223.457212
  0
LINE
  5
31D
  8
0
 62
     7
 10
154.27699999999999
 20
229.93000000000001
 30
0.0
 11
154.27699999999999
 21
230.50700000000001
 31
0.0
  0
ARC
  5
31E
  8
0
 62
     7
 10
154.42978199999999
 20
229.95018599999989
 30
0.0
 40
0.157165
 50
91.377527000000015
 51
166.1681439999999
  0
LINE
  5
31F
  8
0
 62
     7
 10
154.34399999999991
 20
229.83699999999999
 30
0.0
 11
156.2239999999999
 21
229.83699999999999
 31
0.0
  0
LINE
  5
320
  8
0
 62
     7
 10
154.27699999999999
 20
229.93000000000001
 30
0.0
 11
154.33099999999999
 21
229.83699999999999
 31
0.0
  0
ARC
  5
321
  8
0
 62
     7
 10
154.34633700000001
 20
229.768046
 30
0.0
 40
0.069202
 50
91.927567000000025
 51
178.07240400000001
  0
LINE
  5
322
  8
0
 62
     7
 10
154.34399999999991
 20
231.17699999999999
 30
0.0
 11
156.2239999999999
 21
231.17699999999999
 31
0.0
  0
LINE
  5
323
  8
0
 62
     7
 10
156.27699999999999
 20
229.93000000000001
 30
0.0
 11
156.2239999999999
 21
229.83699999999999
 31
0.0
  0
ARC
  5
324
  8
0
 62
     7
 10
156.125708
 20
229.95174999999989
 30
0.0
 40
0.155582
 50
13.382619
 51
88.941981000000027
  0
ARC
  5
325
  8
0
 62
     7
 10
155.68732600000001
 20
230.511066
 30
0.0
 40
0.5897510000000001
 50
316.74763899999999
 51
359.63254499999999
  0
LINE
  5
326
  8
0
 62
     7
 10
156.27699999999999
 20
229.93000000000001
 30
0.0
 11
156.27699999999999
 21
230.50700000000001
 31
0.0
  0
LINE
  5
327
  8
0
 62
     7
 10
156.27699999999999
 20
231.08500000000001
 30
0.0
 11
156.27699999999999
 21
230.50700000000001
 31
0.0
  0
ARC
  5
328
  8
0
 62
     7
 10
155.69144900000001
 20
230.50480499999989
 30
0.0
 40
0.585622
 50
0.24255
 51
43.411306999999987
  0
ARC
  5
329
  8
0
 62
     7
 10
156.1249149999999
 20
231.0635879999999
 30
0.0
 40
0.156533
 50
267.05301700000001
 51
346.41028599999999
  0
LINE
  5
32A
  8
0
 62
     7
 10
156.27699999999999
 20
231.08500000000001
 30
0.0
 11
156.2239999999999
 21
231.17699999999999
 31
0.0
  0
LINE
  5
32B
  8
0
 62
     7
 10
154.23699999999999
 20
232.50700000000001
 30
0.0
 11
154.23699999999999
 21
230.50700000000001
 31
0.0
  0
LINE
  5
32C
  8
0
 62
     7
 10
154.23699999999999
 20
232.50700000000001
 30
0.0
 11
154.11699999999999
 21
232.50700000000001
 31
0.0
  0
LINE
  5
32D
  8
0
 62
     7
 10
154.27699999999999
 20
232.46700000000001
 30
0.0
 11
154.23699999999999
 21
232.50700000000001
 31
0.0
  0
LINE
  5
32E
  8
0
 62
     7
 10
154.11699999999999
 20
232.50700000000001
 30
0.0
 11
154.077
 21
232.46700000000001
 31
0.0
  0
LINE
  5
32F
  8
0
 62
     7
 10
154.11699999999999
 20
230.50700000000001
 30
0.0
 11
154.11699999999999
 21
232.50700000000001
 31
0.0
  0
LINE
  5
330
  8
0
 62
     7
 10
154.27699999999999
 20
232.46700000000001
 30
0.0
 11
154.27699999999999
 21
230.50700000000001
 31
0.0
  0
LINE
  5
331
  8
0
 62
     7
 10
154.27699999999999
 20
228.547
 30
0.0
 11
154.27699999999999
 21
230.50700000000001
 31
0.0
  0
LINE
  5
332
  8
0
 62
     7
 10
154.11699999999999
 20
230.50700000000001
 30
0.0
 11
154.11699999999999
 21
228.50700000000001
 31
0.0
  0
LINE
  5
333
  8
0
 62
     7
 10
154.11699999999999
 20
228.50700000000001
 30
0.0
 11
154.077
 21
228.547
 31
0.0
  0
LINE
  5
334
  8
0
 62
     7
 10
154.27699999999999
 20
228.547
 30
0.0
 11
154.23699999999999
 21
228.50700000000001
 31
0.0
  0
LINE
  5
335
  8
0
 62
     7
 10
154.23699999999999
 20
228.50700000000001
 30
0.0
 11
154.11699999999999
 21
228.50700000000001
 31
0.0
  0
LINE
  5
336
  8
0
 62
     7
 10
154.23699999999999
 20
228.50700000000001
 30
0.0
 11
154.23699999999999
 21
230.50700000000001
 31
0.0
  0
LINE
  5
337
  8
0
 62
     7
 10
154.4379999999999
 20
230.90700000000001
 30
0.0
 11
156.11699999999999
 21
230.90700000000001
 31
0.0
  0
LINE
  5
338
  8
0
 62
     7
 10
154.4379999999999
 20
230.107
 30
0.0
 11
156.11699999999999
 21
230.107
 31
0.0
  0
LINE
  5
339
  8
0
 62
     7
 10
154.077
 20
228.547
 30
0.0
 11
154.077
 21
232.46700000000001
 31
0.0
  0
LINE
  5
33A
  8
0
  6
AIGENLINE001
 62
     7
 10
162.50700000000001
 20
230.53999999999999
 30
0.0
 11
150.672
 21
230.53999999999999
 31
0.0
  0
ARC
  5
33B
  8
0
 62
     7
 10
156.60679999999999
 20
155.1087939999999
 30
0.0
 40
0.328805
 50
155.01718199999999
 51
213.90667300000001
  0
LINE
  5
33C
  8
0
 62
     7
 10
156.27699999999999
 20
155.1929999999999
 30
0.0
 11
156.27699999999999
 21
153.92599999999999
 31
0.0
  0
ARC
  5
33D
  8
0
 62
     7
 10
156.60665199999991
 20
154.010491
 30
0.0
 40
0.328717
 50
146.06987000000001
 51
205.01102399999991
  0
ARC
  5
33E
  8
0
 62
     7
 10
157.4927879999999
 20
154.559674
 30
0.0
 40
1.2152099999999999
 50
162.48621299999999
 51
197.51378700000001
  0
LINE
  5
33F
  8
0
 62
     7
 10
156.334
 20
153.828
 30
0.0
 11
156.27699999999999
 21
153.92599999999999
 31
0.0
  0
LINE
  5
340
  8
0
 62
     7
 10
156.334
 20
155.29099999999991
 30
0.0
 11
156.27699999999999
 21
155.1929999999999
 31
0.0
  0
ARC
  5
341
  8
0
 62
     7
 10
156.61223000000001
 20
155.10863499999999
 30
0.0
 40
0.33044
 50
326.31681700000001
 51
24.881088999999999
  0
LINE
  5
342
  8
0
 62
     7
 10
156.9439999999999
 20
155.1929999999999
 30
0.0
 11
156.9439999999999
 21
153.92599999999999
 31
0.0
  0
ARC
  5
343
  8
0
 62
     7
 10
155.72427400000001
 20
154.559674
 30
0.0
 40
1.2190659999999991
 50
342.54340999999988
 51
17.456589999999991
  0
ARC
  5
344
  8
0
 62
     7
 10
156.61324999999991
 20
154.01071599999989
 30
0.0
 40
0.32959
 50
335.01645200000002
 51
33.780957000000001
  0
LINE
  5
345
  8
0
 62
     7
 10
156.88699999999989
 20
153.828
 30
0.0
 11
156.9439999999999
 21
153.92599999999999
 31
0.0
  0
LINE
  5
346
  8
0
 62
     7
 10
156.88699999999989
 20
155.29099999999991
 30
0.0
 11
156.9439999999999
 21
155.1929999999999
 31
0.0
  0
LINE
  5
347
  8
0
 62
     7
 10
156.88699999999989
 20
154.92500000000001
 30
0.0
 11
156.334
 21
154.92500000000001
 31
0.0
  0
LINE
  5
348
  8
0
 62
     7
 10
156.88699999999989
 20
153.828
 30
0.0
 11
156.334
 21
153.828
 31
0.0
  0
LINE
  5
349
  8
0
 62
     7
 10
156.88699999999989
 20
154.1939999999999
 30
0.0
 11
156.334
 21
154.1939999999999
 31
0.0
  0
LINE
  5
34A
  8
0
 62
     7
 10
156.88699999999989
 20
155.29099999999991
 30
0.0
 11
156.334
 21
155.29099999999991
 31
0.0
  0
LINE
  5
34B
  8
0
 62
     7
 10
161.01099999999991
 20
156.2589999999999
 30
0.0
 11
161.01099999999991
 21
152.92599999999999
 31
0.0
  0
LINE
  5
34C
  8
0
 62
     7
 10
159.67699999999999
 20
155.42599999999999
 30
0.0
 11
159.67699999999999
 21
153.75999999999991
 31
0.0
  0
LINE
  5
34D
  8
0
 62
     7
 10
160.477
 20
156.2589999999999
 30
0.0
 11
160.477
 21
152.92599999999999
 31
0.0
  0
LINE
  5
34E
  8
0
 62
     7
 10
161.01099999999991
 20
156.2589999999999
 30
0.0
 11
160.477
 21
156.2589999999999
 31
0.0
  0
LINE
  5
34F
  8
0
 62
     7
 10
161.01099999999991
 20
152.92599999999999
 30
0.0
 11
160.477
 21
152.92599999999999
 31
0.0
  0
LINE
  5
350
  8
0
 62
     7
 10
159.67699999999999
 20
153.75999999999991
 30
0.0
 11
160.477
 21
152.92599999999999
 31
0.0
  0
LINE
  5
351
  8
0
 62
     7
 10
159.67699999999999
 20
155.42599999999999
 30
0.0
 11
160.477
 21
156.2589999999999
 31
0.0
  0
ARC
  5
352
  8
0
 62
     7
 10
159.912307
 20
154.608633
 30
0.0
 40
0.480711
 50
119.2534439999999
 51
133.12625
  0
ARC
  5
353
  8
0
 62
     7
 10
159.92119199999991
 20
154.58809699999989
 30
0.0
 40
0.494861
 50
226.99854799999989
 51
240.48467299999999
  0
LINE
  5
354
  8
0
 62
     7
 10
159.584
 20
154.22599999999991
 30
0.0
 11
159.25
 21
154.22599999999991
 31
0.0
  0
LINE
  5
355
  8
0
 62
     7
 10
159.584
 20
154.959
 30
0.0
 11
159.25
 21
154.959
 31
0.0
  0
LINE
  5
356
  8
0
 62
     7
 10
159.584
 20
154.22599999999991
 30
0.0
 11
159.584
 21
154.959
 31
0.0
  0
LINE
  5
357
  8
0
 62
     7
 10
159.18299999999991
 20
154.27799999999999
 30
0.0
 11
158.7829999999999
 21
154.27799999999999
 31
0.0
  0
LINE
  5
358
  8
0
 62
     7
 10
159.18299999999991
 20
154.90799999999999
 30
0.0
 11
158.7829999999999
 21
154.90799999999999
 31
0.0
  0
LINE
  5
359
  8
0
 62
     7
 10
159.18299999999991
 20
153.96000000000001
 30
0.0
 11
158.7829999999999
 21
153.96000000000001
 31
0.0
  0
LINE
  5
35A
  8
0
 62
     7
 10
159.18299999999991
 20
155.22599999999991
 30
0.0
 11
158.7829999999999
 21
155.22599999999991
 31
0.0
  0
LINE
  5
35B
  8
0
 62
     7
 10
159.25
 20
154.119
 30
0.0
 11
159.25
 21
155.06700000000001
 31
0.0
  0
LINE
  5
35C
  8
0
 62
     7
 10
158.71700000000001
 20
154.119
 30
0.0
 11
158.71700000000001
 21
155.06700000000001
 31
0.0
  0
ARC
  5
35D
  8
0
 62
     7
 10
159.49815799999999
 20
154.59291899999999
 30
0.0
 40
0.781126
 50
156.21310099999991
 51
203.78689900000001
  0
ARC
  5
35E
  8
0
 62
     7
 10
158.463167
 20
154.59291899999999
 30
0.0
 40
0.7860960000000001
 50
336.37270799999988
 51
23.627292000000001
  0
ARC
  5
35F
  8
0
 62
     7
 10
159.015243
 20
154.11905899999999
 30
0.0
 40
0.231643
 50
316.53423900000001
 51
42.465533000000001
  0
LINE
  5
360
  8
0
 62
     7
 10
159.18600000000001
 20
154.27500000000001
 30
0.0
 11
159.18299999999991
 21
154.27799999999999
 31
0.0
  0
ARC
  5
361
  8
0
 62
     7
 10
159.015243
 20
155.06732700000001
 30
0.0
 40
0.231643
 50
316.53423900000001
 51
42.465533000000001
  0
LINE
  5
362
  8
0
 62
     7
 10
159.18600000000001
 20
155.2239999999999
 30
0.0
 11
159.18299999999991
 21
155.22599999999991
 31
0.0
  0
LINE
  5
363
  8
0
 62
     7
 10
158.71700000000001
 20
154.90799999999999
 30
0.0
 11
158.71700000000001
 21
155.06700000000001
 31
0.0
  0
ARC
  5
364
  8
0
 62
     7
 10
158.952226
 20
155.06713300000001
 30
0.0
 40
0.232038
 50
136.6880689999999
 51
222.43672599999991
  0
LINE
  5
365
  8
0
 62
     7
 10
158.78100000000001
 20
154.91099999999989
 30
0.0
 11
158.7829999999999
 21
154.90799999999999
 31
0.0
  0
ARC
  5
366
  8
0
 62
     7
 10
158.951875
 20
154.11877999999999
 30
0.0
 40
0.231723
 50
136.6444689999999
 51
222.479848
  0
LINE
  5
367
  8
0
 62
     7
 10
158.78100000000001
 20
153.96199999999999
 30
0.0
 11
158.7829999999999
 21
153.96000000000001
 31
0.0
  0
LINE
  5
368
  8
0
 62
     7
 10
158.624
 20
154.16
 30
0.0
 11
158.624
 21
154.959
 31
0.0
  0
LINE
  5
369
  8
0
 62
     7
 10
161.01099999999991
 20
153.1929999999999
 30
0.0
 11
161.077
 21
153.1929999999999
 31
0.0
  0
LINE
  5
36A
  8
0
 62
     7
 10
161.01099999999991
 20
155.99299999999999
 30
0.0
 11
161.077
 21
155.99299999999999
 31
0.0
  0
LINE
  5
36B
  8
0
 62
     7
 10
161.077
 20
153.1929999999999
 30
0.0
 11
161.077
 21
155.99299999999999
 31
0.0
  0
LINE
  5
36C
  8
0
 62
     7
 10
158.71700000000001
 20
154.959
 30
0.0
 11
156.9439999999999
 21
154.959
 31
0.0
  0
LINE
  5
36D
  8
0
 62
     7
 10
158.71700000000001
 20
154.893
 30
0.0
 11
156.9439999999999
 21
154.893
 31
0.0
  0
LINE
  5
36E
  8
0
 62
     7
 10
158.71700000000001
 20
154.22599999999991
 30
0.0
 11
156.9439999999999
 21
154.22599999999991
 31
0.0
  0
LINE
  5
36F
  8
0
 62
     7
 10
158.71700000000001
 20
154.16
 30
0.0
 11
156.9439999999999
 21
154.16
 31
0.0
  0
ARC
  5
370
  8
0
 62
     7
 10
154.34633700000001
 20
155.29942899999989
 30
0.0
 40
0.069202
 50
181.92759599999991
 51
268.07243299999988
  0
LINE
  5
371
  8
0
 62
     7
 10
154.27699999999999
 20
155.13799999999989
 30
0.0
 11
154.33099999999999
 21
155.2299999999999
 31
0.0
  0
ARC
  5
372
  8
0
 62
     7
 10
154.42936099999989
 20
155.11674600000001
 30
0.0
 40
0.156628
 50
193.67587999999989
 51
273.05795000000001
  0
LINE
  5
373
  8
0
 62
     7
 10
154.27699999999999
 20
155.13799999999989
 30
0.0
 11
154.27699999999999
 21
154.56
 31
0.0
  0
ARC
  5
374
  8
0
 62
     7
 10
154.86236599999989
 20
154.5576879999999
 30
0.0
 40
0.5851980000000001
 50
136.52299500000001
 51
179.738077
  0
ARC
  5
375
  8
0
 62
     7
 10
154.86228999999989
 20
154.56283400000001
 30
0.0
 40
0.585121
 50
180.241984
 51
223.47989000000001
  0
LINE
  5
376
  8
0
 62
     7
 10
154.27699999999999
 20
153.983
 30
0.0
 11
154.27699999999999
 21
154.56
 31
0.0
  0
ARC
  5
377
  8
0
 62
     7
 10
154.429813
 20
154.00395700000001
 30
0.0
 40
0.156991
 50
91.390438000000003
 51
166.476968
  0
LINE
  5
378
  8
0
 62
     7
 10
154.34399999999991
 20
153.8899999999999
 30
0.0
 11
156.2239999999999
 21
153.8899999999999
 31
0.0
  0
LINE
  5
379
  8
0
 62
     7
 10
154.27699999999999
 20
153.983
 30
0.0
 11
154.33099999999999
 21
153.8899999999999
 31
0.0
  0
ARC
  5
37A
  8
0
 62
     7
 10
154.3463129999999
 20
153.820964
 30
0.0
 40
0.06919
 50
91.907640999999998
 51
177.79622800000001
  0
LINE
  5
37B
  8
0
 62
     7
 10
154.34399999999991
 20
155.2299999999999
 30
0.0
 11
156.2239999999999
 21
155.2299999999999
 31
0.0
  0
LINE
  5
37C
  8
0
 62
     7
 10
156.27699999999999
 20
153.983
 30
0.0
 11
156.2239999999999
 21
153.8899999999999
 31
0.0
  0
ARC
  5
37D
  8
0
 62
     7
 10
156.12487300000001
 20
154.0045199999999
 30
0.0
 40
0.156425
 50
13.360701999999989
 51
88.642003999999986
  0
ARC
  5
37E
  8
0
 62
     7
 10
155.69041000000001
 20
154.56291100000001
 30
0.0
 40
0.5866600000000001
 50
316.629051
 51
359.75113299999992
  0
LINE
  5
37F
  8
0
 62
     7
 10
156.27699999999999
 20
153.983
 30
0.0
 11
156.27699999999999
 21
154.56
 31
0.0
  0
LINE
  5
380
  8
0
 62
     7
 10
156.27699999999999
 20
155.13799999999989
 30
0.0
 11
156.27699999999999
 21
154.56
 31
0.0
  0
ARC
  5
381
  8
0
 62
     7
 10
155.6913669999999
 20
154.557851
 30
0.0
 40
0.585704
 50
0.245727
 51
43.408129999999993
  0
ARC
  5
382
  8
0
 62
     7
 10
156.124708
 20
155.116997
 30
0.0
 40
0.156852
 50
267.134477
 51
346.24964099999988
  0
LINE
  5
383
  8
0
 62
     7
 10
156.27699999999999
 20
155.13799999999989
 30
0.0
 11
156.2239999999999
 21
155.2299999999999
 31
0.0
  0
LINE
  5
384
  8
0
 62
     7
 10
154.23699999999999
 20
156.56
 30
0.0
 11
154.23699999999999
 21
154.56
 31
0.0
  0
LINE
  5
385
  8
0
 62
     7
 10
154.23699999999999
 20
156.56
 30
0.0
 11
154.11699999999999
 21
156.56
 31
0.0
  0
LINE
  5
386
  8
0
 62
     7
 10
154.27699999999999
 20
156.52000000000001
 30
0.0
 11
154.23699999999999
 21
156.56
 31
0.0
  0
LINE
  5
387
  8
0
 62
     7
 10
154.11699999999999
 20
156.56
 30
0.0
 11
154.077
 21
156.52000000000001
 31
0.0
  0
LINE
  5
388
  8
0
 62
     7
 10
154.11699999999999
 20
154.56
 30
0.0
 11
154.11699999999999
 21
156.56
 31
0.0
  0
LINE
  5
389
  8
0
 62
     7
 10
154.27699999999999
 20
156.52000000000001
 30
0.0
 11
154.27699999999999
 21
154.56
 31
0.0
  0
LINE
  5
38A
  8
0
 62
     7
 10
154.27699999999999
 20
152.59999999999991
 30
0.0
 11
154.27699999999999
 21
154.56
 31
0.0
  0
LINE
  5
38B
  8
0
 62
     7
 10
154.11699999999999
 20
154.56
 30
0.0
 11
154.11699999999999
 21
152.56
 31
0.0
  0
LINE
  5
38C
  8
0
 62
     7
 10
154.11699999999999
 20
152.56
 30
0.0
 11
154.077
 21
152.59999999999991
 31
0.0
  0
LINE
  5
38D
  8
0
 62
     7
 10
154.27699999999999
 20
152.59999999999991
 30
0.0
 11
154.23699999999999
 21
152.56
 31
0.0
  0
LINE
  5
38E
  8
0
 62
     7
 10
154.23699999999999
 20
152.56
 30
0.0
 11
154.11699999999999
 21
152.56
 31
0.0
  0
LINE
  5
38F
  8
0
 62
     7
 10
154.23699999999999
 20
152.56
 30
0.0
 11
154.23699999999999
 21
154.56
 31
0.0
  0
LINE
  5
390
  8
0
 62
     7
 10
154.4379999999999
 20
154.96000000000001
 30
0.0
 11
156.11699999999999
 21
154.96000000000001
 31
0.0
  0
LINE
  5
391
  8
0
 62
     7
 10
154.4379999999999
 20
154.16
 30
0.0
 11
156.11699999999999
 21
154.16
 31
0.0
  0
LINE
  5
392
  8
0
 62
     7
 10
154.077
 20
152.59999999999991
 30
0.0
 11
154.077
 21
156.52000000000001
 31
0.0
  0
LINE
  5
393
  8
0
  6
AIGENLINE001
 62
     7
 10
162.1879999999999
 20
154.56
 30
0.0
 11
149.15700000000001
 21
154.56
 31
0.0
  0
LINE
  5
394
  8
0
 62
     7
 10
170.79699999999991
 20
156.03399999999999
 30
0.0
 11
171.19200000000001
 21
154.55899999999991
 31
0.0
  0
LINE
  5
395
  8
0
 62
     7
 10
171.19200000000001
 20
154.55899999999991
 30
0.0
 11
171.58699999999999
 21
156.03399999999999
 31
0.0
  0
LINE
  5
396
  8
0
 62
     7
 10
171.58699999999999
 20
156.03399999999999
 30
0.0
 11
170.79699999999991
 21
156.03399999999999
 31
0.0
  0
LINE
  5
397
  8
0
 62
     7
 10
171.578
 20
183.0859999999999
 30
0.0
 11
171.18199999999999
 21
184.56
 31
0.0
  0
LINE
  5
398
  8
0
 62
     7
 10
171.18199999999999
 20
184.56
 30
0.0
 11
170.7879999999999
 21
183.0859999999999
 31
0.0
  0
LINE
  5
399
  8
0
 62
     7
 10
170.7879999999999
 20
183.0859999999999
 30
0.0
 11
171.578
 21
183.0859999999999
 31
0.0
  0
LINE
  5
39A
  8
0
 62
     7
 10
171.19200000000001
 20
154.56
 30
0.0
 11
171.19200000000001
 21
184.56
 31
0.0
  0
LINE
  5
39B
  8
0
 62
     7
 10
124.2769999999999
 20
184.56
 30
0.0
 11
171.65899999999999
 21
184.56
 31
0.0
  0
LINE
  5
39C
  8
0
 62
     7
 10
162.654
 20
154.56
 30
0.0
 11
171.65899999999999
 21
154.56
 31
0.0
  0
LINE
  5
39D
  8
0
  6
AIGENLINE001
 62
     7
 10
162.1879999999999
 20
101.2259999999999
 30
0.0
 11
149.15700000000001
 21
101.2259999999999
 31
0.0
  0
LINE
  5
39E
  8
0
 62
     7
 10
171.578
 20
153.08500000000001
 30
0.0
 11
171.18199999999999
 21
154.56
 31
0.0
  0
LINE
  5
39F
  8
0
 62
     7
 10
171.18199999999999
 20
154.56
 30
0.0
 11
170.7879999999999
 21
153.08500000000001
 31
0.0
  0
LINE
  5
3A0
  8
0
 62
     7
 10
170.7879999999999
 20
153.08500000000001
 30
0.0
 11
171.578
 21
153.08500000000001
 31
0.0
  0
LINE
  5
3A1
  8
0
 62
     7
 10
170.79699999999991
 20
102.7
 30
0.0
 11
171.19200000000001
 21
101.2259999999999
 31
0.0
  0
LINE
  5
3A2
  8
0
 62
     7
 10
171.19200000000001
 20
101.2259999999999
 30
0.0
 11
171.58699999999999
 21
102.7
 31
0.0
  0
LINE
  5
3A3
  8
0
 62
     7
 10
171.58699999999999
 20
102.7
 30
0.0
 11
170.79699999999991
 21
102.7
 31
0.0
  0
LINE
  5
3A4
  8
0
 62
     7
 10
171.19200000000001
 20
154.56
 30
0.0
 11
171.19200000000001
 21
101.2259999999999
 31
0.0
  0
LINE
  5
3A5
  8
0
 62
     7
 10
171.578
 20
99.751300000000001
 30
0.0
 11
171.18199999999999
 21
101.2259999999999
 31
0.0
  0
LINE
  5
3A6
  8
0
 62
     7
 10
171.18199999999999
 20
101.2259999999999
 30
0.0
 11
170.7879999999999
 21
99.751300000000001
 31
0.0
  0
LINE
  5
3A7
  8
0
 62
     7
 10
170.7879999999999
 20
99.751300000000001
 30
0.0
 11
171.578
 21
99.751300000000001
 31
0.0
  0
LINE
  5
3A8
  8
0
 62
     7
 10
170.79699999999991
 20
72.700900000000004
 30
0.0
 11
171.19200000000001
 21
71.226399999999998
 31
0.0
  0
LINE
  5
3A9
  8
0
 62
     7
 10
171.19200000000001
 20
71.226399999999998
 30
0.0
 11
171.58699999999999
 21
72.700900000000004
 31
0.0
  0
LINE
  5
3AA
  8
0
 62
     7
 10
171.58699999999999
 20
72.700900000000004
 30
0.0
 11
170.79699999999991
 21
72.700900000000004
 31
0.0
  0
LINE
  5
3AB
  8
0
 62
     7
 10
171.19200000000001
 20
101.2259999999999
 30
0.0
 11
171.19200000000001
 21
71.226399999999998
 31
0.0
  0
LINE
  5
3AC
  8
0
 62
     7
 10
124.2729999999999
 20
71.226399999999998
 30
0.0
 11
171.65899999999999
 21
71.226399999999998
 31
0.0
  0
LINE
  5
3AD
  8
0
 62
     7
 10
162.654
 20
101.2259999999999
 30
0.0
 11
171.65899999999999
 21
101.2259999999999
 31
0.0
  0
ARC
  5
3AE
  8
0
 62
     7
 10
156.60849999999991
 20
101.775313
 30
0.0
 40
0.330332
 50
155.14716100000001
 51
213.77194499999999
  0
LINE
  5
3AF
  8
0
 62
     7
 10
156.27699999999999
 20
101.8589999999999
 30
0.0
 11
156.27699999999999
 21
100.5929999999999
 31
0.0
  0
ARC
  5
3B0
  8
0
 62
     7
 10
156.6057449999999
 20
100.676529
 30
0.0
 40
0.327925
 50
145.991612
 51
205.089281
  0
ARC
  5
3B1
  8
0
 62
     7
 10
157.49478099999999
 20
101.2258139999999
 30
0.0
 40
1.2171629999999991
 50
162.5067169999999
 51
197.49328299999999
  0
LINE
  5
3B2
  8
0
 62
     7
 10
156.334
 20
100.4939999999999
 30
0.0
 11
156.27699999999999
 21
100.5929999999999
 31
0.0
  0
LINE
  5
3B3
  8
0
 62
     7
 10
156.334
 20
101.9579999999999
 30
0.0
 11
156.27699999999999
 21
101.8589999999999
 31
0.0
  0
ARC
  5
3B4
  8
0
 62
     7
 10
156.61278200000001
 20
101.774979
 30
0.0
 40
0.329999
 50
326.25903099999999
 51
24.943559
  0
LINE
  5
3B5
  8
0
 62
     7
 10
156.9439999999999
 20
101.8589999999999
 30
0.0
 11
156.9439999999999
 21
100.5929999999999
 31
0.0
  0
ARC
  5
3B6
  8
0
 62
     7
 10
155.721553
 20
101.2258139999999
 30
0.0
 40
1.2217129999999989
 50
342.57398699999999
 51
17.426013000000001
  0
ARC
  5
3B7
  8
0
 62
     7
 10
156.61324999999991
 20
100.67668399999999
 30
0.0
 40
0.32959
 50
335.01645200000002
 51
33.780957000000001
  0
LINE
  5
3B8
  8
0
 62
     7
 10
156.88699999999989
 20
100.4939999999999
 30
0.0
 11
156.9439999999999
 21
100.5929999999999
 31
0.0
  0
LINE
  5
3B9
  8
0
 62
     7
 10
156.88699999999989
 20
101.9579999999999
 30
0.0
 11
156.9439999999999
 21
101.8589999999999
 31
0.0
  0
LINE
  5
3BA
  8
0
 62
     7
 10
156.88699999999989
 20
101.592
 30
0.0
 11
156.334
 21
101.592
 31
0.0
  0
LINE
  5
3BB
  8
0
 62
     7
 10
156.88699999999989
 20
100.4939999999999
 30
0.0
 11
156.334
 21
100.4939999999999
 31
0.0
  0
LINE
  5
3BC
  8
0
 62
     7
 10
156.88699999999989
 20
100.8599999999999
 30
0.0
 11
156.334
 21
100.8599999999999
 31
0.0
  0
LINE
  5
3BD
  8
0
 62
     7
 10
156.88699999999989
 20
101.9579999999999
 30
0.0
 11
156.334
 21
101.9579999999999
 31
0.0
  0
LINE
  5
3BE
  8
0
 62
     7
 10
154.077
 20
244.53999999999991
 30
0.0
 11
154.077
 21
251.20699999999999
 31
0.0
  0
LINE
  5
3BF
  8
0
 62
     7
 10
154.077
 20
233.85099999999991
 30
0.0
 11
154.077
 21
227.20699999999991
 31
0.0
  0
LINE
  5
3C0
  8
0
 62
     7
 10
154.077
 20
97.858599999999996
 30
0.0
 11
154.077
 21
104.526
 31
0.0
  0
LINE
  5
3C1
  8
0
 62
     7
 10
154.077
 20
157.89299999999989
 30
0.0
 11
154.077
 21
151.22599999999991
 31
0.0
  0
LINE
  5
3C2
  8
0
 62
     7
 10
154.077
 20
251.20699999999999
 30
0.0
 11
152.40999999999991
 21
251.20699999999999
 31
0.0
  0
LINE
  5
3C3
  8
0
 62
     7
 10
154.077
 20
244.53999999999991
 30
0.0
 11
152.40999999999991
 21
244.53999999999991
 31
0.0
  0
LINE
  5
3C4
  8
0
 62
     7
 10
154.077
 20
227.20699999999991
 30
0.0
 11
152.40999999999991
 21
227.20699999999991
 31
0.0
  0
LINE
  5
3C5
  8
0
 62
     7
 10
154.077
 20
233.874
 30
0.0
 11
152.40999999999991
 21
233.874
 31
0.0
  0
LINE
  5
3C6
  8
0
 62
     7
 10
154.077
 20
151.22599999999991
 30
0.0
 11
152.07699999999991
 21
151.22599999999991
 31
0.0
  0
LINE
  5
3C7
  8
0
 62
     7
 10
154.077
 20
157.89299999999989
 30
0.0
 11
152.17299999999989
 21
157.89299999999989
 31
0.0
  0
LINE
  5
3C8
  8
0
 62
     7
 10
154.077
 20
97.858599999999996
 30
0.0
 11
151.31800000000001
 21
97.858599999999996
 31
0.0
  0
LINE
  5
3C9
  8
0
 62
     7
 10
154.077
 20
104.526
 30
0.0
 11
151.43399999999991
 21
104.526
 31
0.0
  0
LINE
  5
3CA
  8
0
 62
     7
 10
161.01099999999991
 20
102.926
 30
0.0
 11
161.01099999999991
 21
99.592100000000002
 31
0.0
  0
LINE
  5
3CB
  8
0
 62
     7
 10
159.67699999999999
 20
102.0929999999999
 30
0.0
 11
159.67699999999999
 21
100.4259999999999
 31
0.0
  0
LINE
  5
3CC
  8
0
 62
     7
 10
160.477
 20
102.926
 30
0.0
 11
160.477
 21
99.592100000000002
 31
0.0
  0
LINE
  5
3CD
  8
0
 62
     7
 10
161.01099999999991
 20
102.926
 30
0.0
 11
160.477
 21
102.926
 31
0.0
  0
LINE
  5
3CE
  8
0
 62
     7
 10
161.01099999999991
 20
99.592100000000002
 30
0.0
 11
160.477
 21
99.592100000000002
 31
0.0
  0
LINE
  5
3CF
  8
0
 62
     7
 10
159.67699999999999
 20
100.4259999999999
 30
0.0
 11
160.477
 21
99.592100000000002
 31
0.0
  0
LINE
  5
3D0
  8
0
 62
     7
 10
159.67699999999999
 20
102.0929999999999
 30
0.0
 11
160.477
 21
102.926
 31
0.0
  0
ARC
  5
3D1
  8
0
 62
     7
 10
159.92530600000001
 20
101.255315
 30
0.0
 40
0.504194
 50
119.4521509999999
 51
132.65265099999991
  0
ARC
  5
3D2
  8
0
 62
     7
 10
159.9129749999999
 20
101.2462079999999
 30
0.0
 40
0.483386
 50
227.06189499999999
 51
240.833303
  0
LINE
  5
3D3
  8
0
 62
     7
 10
159.584
 20
100.892
 30
0.0
 11
159.25
 21
100.892
 31
0.0
  0
LINE
  5
3D4
  8
0
 62
     7
 10
159.584
 20
101.626
 30
0.0
 11
159.25
 21
101.626
 31
0.0
  0
LINE
  5
3D5
  8
0
 62
     7
 10
159.584
 20
100.892
 30
0.0
 11
159.584
 21
101.626
 31
0.0
  0
LINE
  5
3D6
  8
0
 62
     7
 10
159.18299999999991
 20
100.944
 30
0.0
 11
158.7829999999999
 21
100.944
 31
0.0
  0
LINE
  5
3D7
  8
0
 62
     7
 10
159.18299999999991
 20
101.574
 30
0.0
 11
158.7829999999999
 21
101.574
 31
0.0
  0
LINE
  5
3D8
  8
0
 62
     7
 10
159.18299999999991
 20
100.626
 30
0.0
 11
158.7829999999999
 21
100.626
 31
0.0
  0
LINE
  5
3D9
  8
0
 62
     7
 10
159.18299999999991
 20
101.8929999999999
 30
0.0
 11
158.7829999999999
 21
101.8929999999999
 31
0.0
  0
LINE
  5
3DA
  8
0
 62
     7
 10
159.25
 20
100.7849999999999
 30
0.0
 11
159.25
 21
101.7339999999999
 31
0.0
  0
LINE
  5
3DB
  8
0
 62
     7
 10
158.71700000000001
 20
100.7849999999999
 30
0.0
 11
158.71700000000001
 21
101.7339999999999
 31
0.0
  0
ARC
  5
3DC
  8
0
 62
     7
 10
159.49856
 20
101.259231
 30
0.0
 40
0.781562
 50
156.21340799999999
 51
203.7865919999999
  0
ARC
  5
3DD
  8
0
 62
     7
 10
158.46328299999999
 20
101.259231
 30
0.0
 40
0.7860580000000002
 50
336.357799
 51
23.642201
  0
ARC
  5
3DE
  8
0
 62
     7
 10
159.014409
 20
100.78528900000001
 30
0.0
 40
0.232429
 50
316.62851499999999
 51
42.372890999999989
  0
LINE
  5
3DF
  8
0
 62
     7
 10
159.18600000000001
 20
100.94199999999989
 30
0.0
 11
159.18299999999991
 21
100.944
 31
0.0
  0
ARC
  5
3E0
  8
0
 62
     7
 10
159.01587799999999
 20
101.7337209999999
 30
0.0
 40
0.23112
 50
316.44226299999991
 51
42.556963000000003
  0
LINE
  5
3E1
  8
0
 62
     7
 10
159.18600000000001
 20
101.8899999999999
 30
0.0
 11
159.18299999999991
 21
101.8929999999999
 31
0.0
  0
LINE
  5
3E2
  8
0
 62
     7
 10
158.71700000000001
 20
101.574
 30
0.0
 11
158.71700000000001
 21
101.7339999999999
 31
0.0
  0
ARC
  5
3E3
  8
0
 62
     7
 10
158.95277300000001
 20
101.7333569999999
 30
0.0
 40
0.232615
 50
136.7338159999999
 51
222.39240899999999
  0
LINE
  5
3E4
  8
0
 62
     7
 10
158.78100000000001
 20
101.577
 30
0.0
 11
158.7829999999999
 21
101.574
 31
0.0
  0
ARC
  5
3E5
  8
0
 62
     7
 10
158.95136999999991
 20
100.784924
 30
0.0
 40
0.231353
 50
136.55929399999991
 51
222.56502399999999
  0
LINE
  5
3E6
  8
0
 62
     7
 10
158.78100000000001
 20
100.6279999999999
 30
0.0
 11
158.7829999999999
 21
100.626
 31
0.0
  0
LINE
  5
3E7
  8
0
 62
     7
 10
158.624
 20
100.825
 30
0.0
 11
158.624
 21
101.626
 31
0.0
  0
LINE
  5
3E8
  8
0
 62
     7
 10
161.01099999999991
 20
99.858800000000016
 30
0.0
 11
161.077
 21
99.858800000000016
 31
0.0
  0
LINE
  5
3E9
  8
0
 62
     7
 10
161.01099999999991
 20
102.65899999999991
 30
0.0
 11
161.077
 21
102.65899999999991
 31
0.0
  0
LINE
  5
3EA
  8
0
 62
     7
 10
161.077
 20
99.858800000000016
 30
0.0
 11
161.077
 21
102.65899999999991
 31
0.0
  0
LINE
  5
3EB
  8
0
 62
     7
 10
158.71700000000001
 20
101.626
 30
0.0
 11
156.9439999999999
 21
101.626
 31
0.0
  0
LINE
  5
3EC
  8
0
 62
     7
 10
158.71700000000001
 20
101.5589999999999
 30
0.0
 11
156.9439999999999
 21
101.5589999999999
 31
0.0
  0
LINE
  5
3ED
  8
0
 62
     7
 10
158.71700000000001
 20
100.892
 30
0.0
 11
156.9439999999999
 21
100.892
 31
0.0
  0
LINE
  5
3EE
  8
0
 62
     7
 10
158.71700000000001
 20
100.825
 30
0.0
 11
156.9439999999999
 21
100.825
 31
0.0
  0
LINE
  5
3EF
  8
0
 62
     7
 10
150.46100000000001
 20
84.7333
 30
0.0
 11
151.602
 21
164.62899999999999
 31
0.0
  0
ARC
  5
3F0
  8
0
 62
     7
 10
146.326347
 20
84.912111999999993
 30
0.0
 40
4.1381600000000001
 50
278.33173199999999
 51
357.53366299999988
  0
ARC
  5
3F1
  8
0
 62
     7
 10
122.581267
 20
77.286065000000008
 30
0.0
 40
0.343439
 50
98.107767000000024
 51
175.3438889999999
  0
ARC
  5
3F2
  8
0
 62
     7
 10
122.590997
 20
77.276139999999984
 30
0.0
 40
0.687553
 50
98.118474000000006
 51
175.23650299999991
  0
LINE
  5
3F3
  8
0
 62
     7
 10
122.4939999999999
 20
77.956800000000001
 30
0.0
 11
146.92599999999999
 21
80.817599999999999
 31
0.0
  0
LINE
  5
3F4
  8
0
 62
     7
 10
123.7419999999999
 20
71.278099999999995
 30
0.0
 11
123.7419999999999
 21
71.612300000000005
 31
0.0
  0
LINE
  5
3F5
  8
0
 62
     7
 10
123.7419999999999
 20
71.278099999999995
 30
0.0
 11
123.7419999999999
 21
77.810699999999997
 31
0.0
  0
LINE
  5
3F6
  8
0
 62
     7
 10
123.7419999999999
 20
71.278099999999995
 30
0.0
 11
122.3649999999999
 21
71.369699999999995
 31
0.0
  0
LINE
  5
3F7
  8
0
 62
     7
 10
123.7419999999999
 20
71.612300000000005
 30
0.0
 11
122.387
 21
71.702500000000001
 31
0.0
  0
ARC
  5
3F8
  8
0
 62
     7
 10
122.4337899999999
 20
72.05759599999999
 30
0.0
 40
0.691283
 50
181.8453769999999
 51
264.29347899999988
  0
ARC
  5
3F9
  8
0
 62
     7
 10
222.04449199999991
 20
71.600945999999993
 30
0.0
 40
100.30256799999999
 50
176.72413700000001
 51
179.75184400000001
  0
ARC
  5
3FA
  8
0
 62
     7
 10
220.697441
 20
71.632011000000006
 30
0.0
 40
98.622252000000003
 50
176.69756599999991
 51
179.7664639999999
  0
ARC
  5
3FB
  8
0
 62
     7
 10
122.42156
 20
72.046549999999996
 30
0.0
 40
0.345735
 50
181.85888299999999
 51
264.27997199999999
  0
ARC
  5
3FC
  8
0
 62
     7
 10
94.795242999999985
 20
81.226305000000011
 30
0.0
 40
3.3335819999999989
 50
269.99853999999999
 51
359.99851000000001
  0
ARC
  5
3FD
  8
0
 62
     7
 10
94.795242999999985
 20
174.5598709999999
 30
0.0
 40
3.3335819999999989
 50
0.00149
 51
90.001459999999994
  0
ARC
  5
3FE
  8
0
 62
     7
 10
61.461840000000002
 20
174.56004300000001
 30
0.0
 40
3.3334099999999989
 50
90.001480000000015
 51
180.0014899999999
  0
ARC
  5
3FF
  8
0
 62
     7
 10
61.461838999999998
 20
81.226131999999993
 30
0.0
 40
3.3334089999999992
 50
179.99849
 51
269.99853899999999
  0
LINE
  5
400
  8
0
 62
     7
 10
51.461599999999997
 20
183.89299999999989
 30
0.0
 11
51.461599999999997
 21
71.892700000000005
 31
0.0
  0
LINE
  5
401
  8
0
 62
     7
 10
52.1282
 20
71.225700000000003
 30
0.0
 11
104.1279999999999
 21
71.225700000000003
 31
0.0
  0
LINE
  5
402
  8
0
 62
     7
 10
104.7949999999999
 20
71.892700000000005
 30
0.0
 11
104.7949999999999
 21
183.89299999999989
 31
0.0
  0
LINE
  5
403
  8
0
 62
     7
 10
104.1279999999999
 20
184.56
 30
0.0
 11
52.1282
 21
184.56
 31
0.0
  0
LINE
  5
404
  8
0
 62
     7
 10
58.128399999999999
 20
174.56
 30
0.0
 11
58.128399999999999
 21
81.226200000000006
 31
0.0
  0
LINE
  5
405
  8
0
 62
     7
 10
98.128799999999984
 20
81.226200000000006
 30
0.0
 11
98.128799999999984
 21
174.56
 31
0.0
  0
LINE
  5
406
  8
0
 62
     7
 10
61.461799999999997
 20
77.892700000000005
 30
0.0
 11
94.795199999999994
 21
77.892700000000005
 31
0.0
  0
LINE
  5
407
  8
0
 62
     7
 10
94.795199999999994
 20
177.893
 30
0.0
 11
61.461799999999997
 21
177.893
 31
0.0
  0
ARC
  5
408
  8
0
 62
     7
 10
52.153658
 20
183.86823799999991
 30
0.0
 40
0.6925
 50
92.103363999999999
 51
177.926209
  0
ARC
  5
409
  8
0
 62
     7
 10
104.10275799999989
 20
183.86790999999999
 30
0.0
 40
0.6928340000000001
 50
2.099956999999999
 51
87.885233999999997
  0
ARC
  5
40A
  8
0
 62
     7
 10
104.103537
 20
71.917316
 30
0.0
 40
0.692028
 50
272.05274100000003
 51
357.96206799999999
  0
ARC
  5
40B
  8
0
 62
     7
 10
52.153953999999999
 20
71.918062000000006
 30
0.0
 40
0.692807
 50
182.0973709999999
 51
267.87305600000002
  0
LINE
  5
40C
  8
0
 62
     7
 10
65.461699999999993
 20
81.226200000000006
 30
0.0
 11
90.795199999999994
 21
81.226200000000006
 31
0.0
  0
LINE
  5
40D
  8
0
 62
     7
 10
65.461699999999993
 20
174.56
 30
0.0
 11
90.795199999999994
 21
174.56
 31
0.0
  0
LINE
  5
40E
  8
0
 62
     7
 10
123.744
 20
184.56
 30
0.0
 11
123.744
 21
184.22599999999991
 31
0.0
  0
LINE
  5
40F
  8
0
 62
     7
 10
123.744
 20
77.768000000000001
 30
0.0
 11
123.744
 21
71.225700000000003
 31
0.0
  0
LINE
  5
410
  8
0
 62
     7
 10
121.744
 20
213.29699999999991
 30
0.0
 11
121.744
 21
265.11700000000002
 31
0.0
  0
LINE
  5
411
  8
0
 62
     7
 10
61.461799999999997
 20
170.56
 30
0.0
 11
61.461799999999997
 21
85.225999999999999
 31
0.0
  0
LINE
  5
412
  8
0
 62
     7
 10
94.795199999999994
 20
85.225999999999999
 30
0.0
 11
94.795199999999994
 21
170.56
 31
0.0
  0
ARC
  5
413
  8
0
 62
     7
 10
65.46170699999999
 20
170.56000399999999
 30
0.0
 40
3.9999539999999998
 50
90.0
 51
179.99996999999991
  0
ARC
  5
414
  8
0
 62
     7
 10
90.795203999999984
 20
170.56000399999999
 30
0.0
 40
3.9999539999999998
 50
0.00001
 51
89.999980000000008
  0
ARC
  5
415
  8
0
 62
     7
 10
90.795289999999994
 20
85.226086999999993
 30
0.0
 40
3.9998680000000002
 50
269.99878599999988
 51
359.99875600000001
  0
ARC
  5
416
  8
0
 62
     7
 10
65.461619999999996
 20
85.226084999999998
 30
0.0
 40
3.9998669999999992
 50
180.0012439999999
 51
270.00125400000002
  0
LINE
  5
417
  8
0
 62
     7
 10
123.744
 20
212.53999999999991
 30
0.0
 11
123.744
 21
265.87299999999988
 31
0.0
  0
LINE
  5
418
  8
0
 62
     7
 10
121.744
 20
183.803
 30
0.0
 11
121.744
 21
71.983000000000004
 31
0.0
  0
LINE
  5
419
  8
0
 62
     7
 10
152.45599999999999
 20
169.518
 30
0.0
 11
152.39899999999989
 21
166.26400000000001
 31
0.0
  0
LINE
  5
41A
  8
0
 62
     7
 10
151.804
 20
170.70699999999991
 30
0.0
 11
152.3429999999999
 21
169.90000000000001
 31
0.0
  0
LINE
  5
41B
  8
0
 62
     7
 10
151.72499999999991
 20
165.10599999999999
 30
0.0
 11
152.27799999999999
 21
165.89199999999991
 31
0.0
  0
ARC
  5
41C
  8
0
 62
     7
 10
151.79970800000001
 20
169.5341379999999
 30
0.0
 40
0.6552120000000001
 50
17.053205999999999
 51
33.917642999999998
  0
ARC
  5
41D
  8
0
 62
     7
 10
151.73223300000001
 20
166.27603300000001
 30
0.0
 40
0.667115
 50
341.2920049999999
 51
358.97638299999988
  0
LINE
  5
41E
  8
0
 62
     7
 10
152.1339999999999
 20
170.8129999999999
 30
0.0
 11
152.62100000000001
 21
170.08500000000001
 31
0.0
  0
ARC
  5
41F
  8
0
 62
     7
 10
151.78472500000001
 20
169.52683400000001
 30
0.0
 40
1.005196999999999
 50
11.444630999999999
 51
33.724730000000001
  0
LINE
  5
420
  8
0
 62
     7
 10
152.78899999999999
 20
169.512
 30
0.0
 11
152.732
 21
166.2579999999999
 31
0.0
  0
LINE
  5
421
  8
0
 62
     7
 10
152.05600000000001
 20
164.99799999999999
 30
0.0
 11
152.55000000000001
 21
165.70099999999991
 31
0.0
  0
ARC
  5
422
  8
0
 62
     7
 10
151.71255099999991
 20
166.27745400000001
 30
0.0
 40
1.0200129999999989
 50
347.73985499999992
 51
358.92170199999993
  0
LINE
  5
423
  8
0
 62
     7
 10
152.36299999999989
 20
166.06
 30
0.0
 11
152.709
 21
166.06
 31
0.0
  0
LINE
  5
424
  8
0
 62
     7
 10
152.42599999999999
 20
169.72599999999991
 30
0.0
 11
152.77000000000001
 21
169.72599999999991
 31
0.0
  0
ARC
  5
425
  8
0
 62
     7
 10
76.714517999999984
 20
177.39751799999991
 30
0.0
 40
0.052938
 50
185.02838399999999
 51
242.68688499999999
  0
ARC
  5
426
  8
0
 62
     7
 10
76.956234999999992
 20
177.77212
 30
0.0
 40
0.4985380000000001
 50
237.7525379999999
 51
256.67983099999992
  0
ARC
  5
427
  8
0
 62
     7
 10
77.670675000000003
 20
180.354162
 30
0.0
 40
3.177303999999999
 50
254.87017299999999
 51
262.66679299999998
  0
ARC
  5
428
  8
0
 62
     7
 10
78.611632999999998
 20
187.083653
 30
0.0
 40
9.9721320000000002
 50
262.23982599999999
 51
268.37221199999999
  0
ARC
  5
429
  8
0
 62
     7
 10
78.687508999999991
 20
187.42341999999999
 30
0.0
 40
10.314128999999999
 50
268.00449500000002
 51
275.485274
  0
ARC
  5
42A
  8
0
 62
     7
 10
79.596525
 20
178.1026719999999
 30
0.0
 40
0.9492719999999998
 50
274.64717899999999
 51
293.21282100000002
  0
ARC
  5
42B
  8
0
 62
     7
 10
79.954967000000011
 20
177.28433999999999
 30
0.0
 40
0.056329
 50
286.19569000000001
 51
351.04437000000001
  0
ARC
  5
42C
  8
0
 62
     7
 10
79.957681999999991
 20
177.27080299999989
 30
0.0
 40
0.053142
 50
5.1475679999999988
 51
62.664158
  0
ARC
  5
42D
  8
0
 62
     7
 10
79.715993000000012
 20
176.89640199999999
 30
0.0
 40
0.4985560000000001
 50
57.742614000000003
 51
76.671818000000002
  0
ARC
  5
42E
  8
0
 62
     7
 10
79.002685999999997
 20
174.319365
 30
0.0
 40
3.172197999999999
 50
74.865065000000001
 51
82.672456999999994
  0
ARC
  5
42F
  8
0
 62
     7
 10
78.061343999999991
 20
167.5851909999999
 30
0.0
 40
9.9717149999999997
 50
82.242842999999993
 51
88.376479000000003
  0
ARC
  5
430
  8
0
 62
     7
 10
77.981853000000001
 20
167.31106
 30
0.0
 40
10.248239
 50
87.975654000000006
 51
95.503552000000013
  0
ARC
  5
431
  8
0
 62
     7
 10
77.075969000000001
 20
176.5664679999999
 30
0.0
 40
0.9487190000000001
 50
94.655371999999986
 51
113.230959
  0
ARC
  5
432
  8
0
 62
     7
 10
76.717568999999997
 20
177.3840439999999
 30
0.0
 40
0.056481
 50
106.257502
 51
171.0021999999999
  0
ARC
  5
433
  8
0
 62
     7
 10
151.797977
 20
169.53073599999999
 30
0.0
 40
0.991435
 50
358.89721400000002
 51
11.375541999999999
  0
ARC
  5
434
  8
0
 62
     7
 10
151.78466900000001
 20
169.5276749999999
 30
0.0
 40
0.671488
 50
359.162147
 51
17.20411
  0
ARC
  5
435
  8
0
 62
     7
 10
151.7437129999999
 20
166.27028100000001
 30
0.0
 40
0.654398
 50
324.72738799999991
 51
341.44662399999999
  0
ARC
  5
436
  8
0
 62
     7
 10
151.734881
 20
166.27540400000001
 30
0.0
 40
0.997761
 50
324.82843700000001
 51
347.58262000000002
  0
LINE
  5
437
  8
0
 62
     7
 10
123.744
 20
219.0929999999999
 30
0.0
 11
148.22200000000001
 21
221.8129999999999
 31
0.0
  0
ARC
  5
438
  8
0
 62
     7
 10
147.5937769999999
 20
226.254277
 30
0.0
 40
4.4853579999999988
 50
278.05628200000001
 51
358.28356200000002
  0
LINE
  5
439
  8
0
 62
     7
 10
152.07699999999991
 20
226.12
 30
0.0
 11
152.07699999999991
 21
227.5809999999999
 31
0.0
  0
ARC
  5
43A
  8
0
 62
     7
 10
147.59345999999999
 20
252.15889300000001
 30
0.0
 40
4.4856730000000002
 50
1.715411999999999
 51
81.940189000000004
  0
LINE
  5
43B
  8
0
 62
     7
 10
123.744
 20
259.31999999999988
 30
0.0
 11
148.22200000000001
 21
256.60000000000002
 31
0.0
  0
LINE
  5
43C
  8
0
 62
     7
 10
150.7939999999999
 20
84.729200000000006
 30
0.0
 11
151.12700000000001
 21
84.729200000000006
 31
0.0
  0
LINE
  5
43D
  8
0
 62
     7
 10
151.93100000000001
 20
164.33500000000001
 30
0.0
 11
152.2649999999999
 21
164.33500000000001
 31
0.0
  0
LINE
  5
43E
  8
0
 62
     7
 10
152.07699999999991
 20
227.5809999999999
 30
0.0
 11
152.07699999999991
 21
250.91499999999991
 31
0.0
  0
LINE
  5
43F
  8
0
 62
     7
 10
152.07699999999991
 20
250.91499999999991
 30
0.0
 11
152.07699999999991
 21
252.29300000000001
 31
0.0
  0
LINE
  5
440
  8
0
 62
     7
 10
152.8249999999999
 20
237.3609999999999
 30
0.0
 11
152.8249999999999
 21
241.13399999999999
 31
0.0
  0
ARC
  5
441
  8
0
 62
     7
 10
151.81062800000001
 20
237.36729800000001
 30
0.0
 40
1.0141029999999991
 50
314.72835099999992
 51
359.66363999999987
  0
LINE
  5
442
  8
0
 62
     7
 10
152.524
 20
241.84899999999999
 30
0.0
 11
152.17699999999999
 21
242.18899999999999
 31
0.0
  0
ARC
  5
443
  8
0
 62
     7
 10
151.8124
 20
241.12923099999989
 30
0.0
 40
1.012324999999999
 50
0.275146
 51
45.313130000000001
  0
LINE
  5
444
  8
0
 62
     7
 10
152.524
 20
236.64699999999999
 30
0.0
 11
152.17699999999999
 21
236.30699999999999
 31
0.0
  0
ARC
  5
445
  8
0
 62
     7
 10
152.41677200000001
 20
236.06653199999991
 30
0.0
 40
0.33966
 50
134.81457299999991
 51
179.56991599999989
  0
ARC
  5
446
  8
0
 62
     7
 10
152.4130449999999
 20
242.4283759999999
 30
0.0
 40
0.3359269999999999
 50
180.28570500000001
 51
225.448443
  0
LINE
  5
447
  8
0
 62
     7
 10
152.40999999999991
 20
226.12
 30
0.0
 11
152.40999999999991
 21
236.53599999999989
 31
0.0
  0
LINE
  5
448
  8
0
 62
     7
 10
152.07699999999991
 20
226.12
 30
0.0
 11
152.40999999999991
 21
226.12
 31
0.0
  0
LINE
  5
449
  8
0
 62
     7
 10
152.07699999999991
 20
252.29300000000001
 30
0.0
 11
152.40999999999991
 21
252.29300000000001
 31
0.0
  0
LINE
  5
44A
  8
0
 62
     7
 10
152.40999999999991
 20
241.96100000000001
 30
0.0
 11
152.40999999999991
 21
252.29300000000001
 31
0.0
  0
LINE
  5
44B
  8
0
 62
     7
 10
123.744
 20
184.56
 30
0.0
 11
123.744
 21
178.02699999999999
 31
0.0
  0
ARC
  5
44C
  8
0
 62
     7
 10
78.198830000000001
 20
167.82284399999989
 30
0.0
 40
1.904911
 50
92.11459499999998
 51
177.87999099999999
  0
ARC
  5
44D
  8
0
 62
     7
 10
78.198847000000001
 20
167.963617
 30
0.0
 40
1.904922
 50
182.11512999999999
 51
267.88489900000002
  0
ARC
  5
44E
  8
0
 62
     7
 10
78.058235999999994
 20
167.963617
 30
0.0
 40
1.904922999999999
 50
272.115138
 51
357.88487199999997
  0
ARC
  5
44F
  8
0
 62
     7
 10
78.128627000000009
 20
167.893225
 30
0.0
 40
1.8332329999999999
 50
0.002702
 51
90.00267199999999
  0
LINE
  5
450
  8
0
 62
     7
 10
123.744
 20
184.56
 30
0.0
 11
122.3659999999999
 21
184.4679999999999
 31
0.0
  0
LINE
  5
451
  8
0
 62
     7
 10
122.501
 20
177.8309999999999
 30
0.0
 11
124.386
 21
177.62
 31
0.0
  0
LINE
  5
452
  8
0
 62
     7
 10
123.744
 20
184.22599999999991
 30
0.0
 11
122.38799999999991
 21
184.13599999999991
 31
0.0
  0
LINE
  5
453
  8
0
 62
     7
 10
122.5379999999999
 20
178.16200000000001
 30
0.0
 11
124.4229999999999
 21
177.95199999999991
 31
0.0
  0
ARC
  5
454
  8
0
 62
     7
 10
147.55004099999991
 20
170.86221
 30
0.0
 40
4.1428310000000002
 50
0.9496309999999999
 51
81.850883999999994
  0
ARC
  5
455
  8
0
 62
     7
 10
152.35742500000001
 20
171.0769149999999
 30
0.0
 40
0.6655750000000001
 50
181.03558199999989
 51
213.73535100000001
  0
ARC
  5
456
  8
0
 62
     7
 10
147.55228199999999
 20
170.857753
 30
0.0
 40
4.4804149999999989
 50
3.8301889999999998
 51
82.021769999999975
  0
ARC
  5
457
  8
0
 62
     7
 10
152.6878759999999
 20
171.18278000000001
 30
0.0
 40
0.6656840000000001
 50
182.215743
 51
213.73940999999999
  0
LINE
  5
458
  8
0
 62
     7
 10
150.7939999999999
 20
84.729200000000006
 30
0.0
 11
151.935
 21
164.624
 31
0.0
  0
LINE
  5
459
  8
0
 62
     7
 10
151.12700000000001
 20
84.729200000000006
 30
0.0
 11
152.2649999999999
 21
164.33500000000001
 31
0.0
  0
LINE
  5
45A
  8
0
 62
     7
 10
122.5329999999999
 20
77.626099999999994
 30
0.0
 11
146.965
 21
80.486900000000006
 31
0.0
  0
LINE
  5
45B
  8
0
 62
     7
 10
151.078
 20
127.919
 30
0.0
 11
151.69200000000001
 21
170.9309999999999
 31
0.0
  0
ARC
  5
45C
  8
0
 62
     7
 10
122.4345409999999
 20
183.78031899999991
 30
0.0
 40
0.6913660000000002
 50
95.68232900000001
 51
178.102767
  0
LINE
  5
45D
  8
0
 62
     7
 10
124.4229999999999
 20
177.95199999999991
 30
0.0
 11
124.386
 21
177.62
 31
0.0
  0
LINE
  5
45E
  8
0
 62
     7
 10
128.39799999999991
 20
177.50700000000001
 30
0.0
 11
128.3609999999999
 21
177.17500000000001
 31
0.0
  0
LINE
  5
45F
  8
0
 62
     7
 10
151.078
 20
127.919
 30
0.0
 11
151.744
 21
127.9099999999999
 31
0.0
  0
ARC
  5
460
  8
0
 62
     7
 10
221.32251099999991
 20
184.21832599999991
 30
0.0
 40
99.579821999999993
 50
180.23886999999991
 51
183.31794599999989
  0
ARC
  5
461
  8
0
 62
     7
 10
221.46735299999989
 20
184.22035500000001
 30
0.0
 40
99.391182000000015
 50
180.23979700000001
 51
183.31428099999999
  0
ARC
  5
462
  8
0
 62
     7
 10
122.4227909999999
 20
183.79163
 30
0.0
 40
0.345944
 50
95.749422999999993
 51
178.08212499999991
  0
ARC
  5
463
  8
0
 62
     7
 10
122.43374900000001
 20
72.00529499999999
 30
0.0
 40
0.6905560000000001
 50
181.85271099999991
 51
264.377002
  0
LINE
  5
464
  8
0
 62
     7
 10
123.744
 20
71.225700000000003
 30
0.0
 11
122.3659999999999
 21
71.318100000000001
 31
0.0
  0
LINE
  5
465
  8
0
 62
     7
 10
123.744
 20
212.53999999999991
 30
0.0
 11
122.3659999999999
 21
212.63200000000001
 31
0.0
  0
ARC
  5
466
  8
0
 62
     7
 10
122.434112
 20
213.319166
 30
0.0
 40
0.690919
 50
181.850414
 51
264.34968500000002
  0
ARC
  5
467
  8
0
 62
     7
 10
122.43364199999991
 20
265.09436199999999
 30
0.0
 40
0.6904460000000001
 50
95.614946000000003
 51
178.15534099999991
  0
LINE
  5
468
  8
0
 62
     7
 10
123.744
 20
265.87299999999988
 30
0.0
 11
122.3659999999999
 21
265.78100000000001
 31
0.0
  0
ARC
  5
469
  8
0
 62
     7
 10
152.6048199999999
 20
164.6135669999999
 30
0.0
 40
0.669719
 50
144.965215
 51
179.10163299999999
  0
ARC
  5
46A
  8
0
 62
     7
 10
152.2750879999999
 20
164.72067999999999
 30
0.0
 40
0.671415
 50
145.0096659999999
 51
179.05718200000001
  0
LINE
  5
46B
  8
0
 62
     7
 10
124.4229999999999
 20
177.95199999999991
 30
0.0
 11
148.1629999999999
 21
175.29599999999991
 31
0.0
  0
LINE
  5
46C
  8
0
 62
     7
 10
124.386
 20
177.62
 30
0.0
 11
148.12599999999989
 21
174.965
 31
0.0
  0
ARC
  5
46D
  8
0
 62
     7
 10
122.5954449999999
 20
178.51287799999989
 30
0.0
 40
0.6882740000000001
 50
184.823216
 51
262.12435899999991
  0
ARC
  5
46E
  8
0
 62
     7
 10
122.58530399999999
 20
178.50300100000001
 30
0.0
 40
0.344096
 50
184.78461299999989
 51
262.09804899999989
  0
ARC
  5
46F
  8
0
 62
     7
 10
146.316025
 20
84.921544999999995
 30
0.0
 40
4.4819199999999988
 50
278.32894599999992
 51
357.54053399999992
  0
ARC
  5
470
  8
0
 62
     7
 10
154.3465699999999
 20
101.96562900000001
 30
0.0
 40
0.069443
 50
182.11300499999999
 51
267.887024
  0
LINE
  5
471
  8
0
 62
     7
 10
154.27699999999999
 20
101.804
 30
0.0
 11
154.33099999999999
 21
101.896
 31
0.0
  0
ARC
  5
472
  8
0
 62
     7
 10
154.429947
 20
101.78316599999999
 30
0.0
 40
0.157222
 50
193.66392799999991
 51
272.83273800000001
  0
LINE
  5
473
  8
0
 62
     7
 10
154.27699999999999
 20
101.804
 30
0.0
 11
154.27699999999999
 21
101.227
 31
0.0
  0
ARC
  5
474
  8
0
 62
     7
 10
154.86113299999991
 20
101.22397599999999
 30
0.0
 40
0.583965
 50
136.474861
 51
179.7520659999999
  0
ARC
  5
475
  8
0
 62
     7
 10
154.862899
 20
101.229045
 30
0.0
 40
0.58573
 50
180.248682
 51
223.45615099999989
  0
LINE
  5
476
  8
0
 62
     7
 10
154.27699999999999
 20
100.649
 30
0.0
 11
154.27699999999999
 21
101.227
 31
0.0
  0
ARC
  5
477
  8
0
 62
     7
 10
154.42979700000001
 20
100.669838
 30
0.0
 40
0.157077
 50
91.383961999999983
 51
166.32275899999999
  0
LINE
  5
478
  8
0
 62
     7
 10
154.34399999999991
 20
100.557
 30
0.0
 11
156.2239999999999
 21
100.557
 31
0.0
  0
LINE
  5
479
  8
0
 62
     7
 10
154.27699999999999
 20
100.649
 30
0.0
 11
154.33099999999999
 21
100.557
 31
0.0
  0
ARC
  5
47A
  8
0
 62
     7
 10
154.3465139999999
 20
100.487432
 30
0.0
 40
0.069385
 50
92.068656999999988
 51
177.93131299999999
  0
LINE
  5
47B
  8
0
 62
     7
 10
154.34399999999991
 20
101.896
 30
0.0
 11
156.2239999999999
 21
101.896
 31
0.0
  0
LINE
  5
47C
  8
0
 62
     7
 10
156.27699999999999
 20
100.649
 30
0.0
 11
156.2239999999999
 21
100.557
 31
0.0
  0
ARC
  5
47D
  8
0
 62
     7
 10
156.125102
 20
100.67066699999999
 30
0.0
 40
0.156241
 50
13.43902299999999
 51
88.724446999999998
  0
ARC
  5
47E
  8
0
 62
     7
 10
155.68732600000001
 20
101.2302849999999
 30
0.0
 40
0.5897510000000001
 50
316.74763899999999
 51
359.63254499999999
  0
LINE
  5
47F
  8
0
 62
     7
 10
156.27699999999999
 20
100.649
 30
0.0
 11
156.27699999999999
 21
101.227
 31
0.0
  0
LINE
  5
480
  8
0
 62
     7
 10
156.27699999999999
 20
101.804
 30
0.0
 11
156.27699999999999
 21
101.227
 31
0.0
  0
ARC
  5
481
  8
0
 62
     7
 10
155.692204
 20
101.22398
 30
0.0
 40
0.584866
 50
0.247163
 51
43.440785999999989
  0
ARC
  5
482
  8
0
 62
     7
 10
156.12402399999999
 20
101.783546
 30
0.0
 40
0.157573
 50
267.39663999999988
 51
346.22478699999999
  0
LINE
  5
483
  8
0
 62
     7
 10
156.27699999999999
 20
101.804
 30
0.0
 11
156.2239999999999
 21
101.896
 31
0.0
  0
LINE
  5
484
  8
0
 62
     7
 10
154.23699999999999
 20
103.227
 30
0.0
 11
154.23699999999999
 21
101.227
 31
0.0
  0
LINE
  5
485
  8
0
 62
     7
 10
154.23699999999999
 20
103.227
 30
0.0
 11
154.11699999999999
 21
103.227
 31
0.0
  0
LINE
  5
486
  8
0
 62
     7
 10
154.27699999999999
 20
103.187
 30
0.0
 11
154.23699999999999
 21
103.227
 31
0.0
  0
LINE
  5
487
  8
0
 62
     7
 10
154.11699999999999
 20
103.227
 30
0.0
 11
154.077
 21
103.187
 31
0.0
  0
LINE
  5
488
  8
0
 62
     7
 10
154.11699999999999
 20
101.227
 30
0.0
 11
154.11699999999999
 21
103.227
 31
0.0
  0
LINE
  5
489
  8
0
 62
     7
 10
154.27699999999999
 20
103.187
 30
0.0
 11
154.27699999999999
 21
101.227
 31
0.0
  0
LINE
  5
48A
  8
0
 62
     7
 10
154.27699999999999
 20
99.266199999999984
 30
0.0
 11
154.27699999999999
 21
101.227
 31
0.0
  0
LINE
  5
48B
  8
0
 62
     7
 10
154.11699999999999
 20
101.227
 30
0.0
 11
154.11699999999999
 21
99.226299999999995
 31
0.0
  0
LINE
  5
48C
  8
0
 62
     7
 10
154.11699999999999
 20
99.226299999999995
 30
0.0
 11
154.077
 21
99.266199999999984
 31
0.0
  0
LINE
  5
48D
  8
0
 62
     7
 10
154.27699999999999
 20
99.266199999999984
 30
0.0
 11
154.23699999999999
 21
99.226299999999995
 31
0.0
  0
LINE
  5
48E
  8
0
 62
     7
 10
154.23699999999999
 20
99.226299999999995
 30
0.0
 11
154.11699999999999
 21
99.226299999999995
 31
0.0
  0
LINE
  5
48F
  8
0
 62
     7
 10
154.23699999999999
 20
99.226299999999995
 30
0.0
 11
154.23699999999999
 21
101.227
 31
0.0
  0
LINE
  5
490
  8
0
 62
     7
 10
154.4379999999999
 20
101.626
 30
0.0
 11
156.11699999999999
 21
101.626
 31
0.0
  0
LINE
  5
491
  8
0
 62
     7
 10
154.4379999999999
 20
100.82599999999999
 30
0.0
 11
156.11699999999999
 21
100.82599999999999
 31
0.0
  0
LINE
  5
492
  8
0
 62
     7
 10
154.077
 20
99.266199999999984
 30
0.0
 11
154.077
 21
103.187
 31
0.0
  0
ARC
  5
493
  8
0
 62
     7
 10
126.41031
 20
239.20689400000001
 30
0.0
 40
1.766656
 50
90.0
 51
179.99996999999991
  0
ARC
  5
494
  8
0
 62
     7
 10
126.410309
 20
239.20689400000001
 30
0.0
 40
1.766656
 50
179.99996999999991
 51
270.00002000000001
  0
ARC
  5
495
  8
0
 62
     7
 10
126.410309
 20
239.20689400000001
 30
0.0
 40
1.766656
 50
270.00002000000001
 51
359.99998999999991
  0
ARC
  5
496
  8
0
 62
     7
 10
126.410309
 20
239.20689400000001
 30
0.0
 40
1.766656
 50
0.00001
 51
89.999980000000008
  0
LINE
  5
497
  8
0
  6
AIGENLINE001
 62
     7
 10
149.5739999999999
 20
167.89099999999991
 30
0.0
 11
156.857
 21
167.89099999999991
 31
0.0
  0
LINE
  5
498
  8
0
  6
AIGENLINE001
 62
     7
 10
74.360600000000005
 20
167.893
 30
0.0
 11
82.131799999999984
 21
167.893
 31
0.0
  0
LINE
  5
499
  8
0
  6
AIGENLINE001
 62
     7
 10
119.459
 20
239.20699999999991
 30
0.0
 11
154.86199999999991
 21
239.20699999999991
 31
0.0
  0
LINE
  5
49A
  8
0
  6
AIGENLINE001
 62
     7
 10
126.41
 20
235.773
 30
0.0
 11
126.41
 21
242.63999999999999
 31
0.0
  0
LINE
  5
49B
  8
0
  6
AIGENLINE001
 62
     7
 10
78.128500000000003
 20
65.031400000000005
 30
0.0
 11
78.128500000000003
 21
189.72399999999999
 31
0.0
  0
LINE
  5
49C
  8
0
 62
     7
 10
150.41
 20
81.226200000000006
 30
0.0
 11
150.43700000000001
 21
83.067299999999989
 31
0.0
  0
LINE
  5
49D
  8
0
 62
     7
 10
148.58199999999991
 20
81.011899999999997
 30
0.0
 11
150.41
 21
81.226200000000006
 31
0.0
  0
LINE
  5
49E
  8
0
  6
AIGENLINE001
 62
     7
 10
126.6159999999999
 20
179.57099999999991
 30
0.0
 11
126.18899999999989
 21
175.75399999999999
 31
0.0
  0
LINE
  5
49F
  8
0
 62
     7
 10
79.602699999999999
 20
68.548900000000003
 30
0.0
 11
78.128500000000003
 21
68.154099999999985
 31
0.0
  0
LINE
  5
4A0
  8
0
 62
     7
 10
78.128500000000003
 20
68.154099999999985
 30
0.0
 11
79.602699999999999
 21
67.758600000000001
 31
0.0
  0
LINE
  5
4A1
  8
0
 62
     7
 10
79.602699999999999
 20
67.758600000000001
 30
0.0
 11
79.602699999999999
 21
68.548900000000003
 31
0.0
  0
LINE
  5
4A2
  8
0
 62
     7
 10
78.128500000000003
 20
68.154099999999985
 30
0.0
 11
82.738799999999998
 21
68.154099999999985
 31
0.0
  0
LINE
  5
4A3
  8
0
 62
     7
 10
79.602699999999999
 20
188.25999999999999
 30
0.0
 11
78.128500000000003
 21
187.86500000000001
 31
0.0
  0
LINE
  5
4A4
  8
0
 62
     7
 10
78.128500000000003
 20
187.86500000000001
 30
0.0
 11
79.602699999999999
 21
187.46999999999991
 31
0.0
  0
LINE
  5
4A5
  8
0
 62
     7
 10
79.602699999999999
 20
187.46999999999991
 30
0.0
 11
79.602699999999999
 21
188.25999999999999
 31
0.0
  0
LINE
  5
4A6
  8
0
 62
     7
 10
78.128500000000003
 20
187.86500000000001
 30
0.0
 11
82.738799999999998
 21
187.86500000000001
 31
0.0
  0
LINE
  5
4A7
  8
_________2
 62
     7
 10
210.00099999999989
 20
148.482
 30
0.0
 11
188.25099999999989
 21
148.482
 31
0.0
  0
LINE
  5
4A8
  8
_________2
 62
     7
 10
105.0
 20
16.979900000000001
 30
0.0
 11
105.0
 21
-0.000344512
 31
0.0
  0
LINE
  5
4A9
  8
_________2
 62
     7
 10
105.0
 20
297.00200000000001
 30
0.0
 11
105.0
 21
279.98200000000003
 31
0.0
  0
LINE
  5
4AA
  8
_________2
 62
     7
 10
21.749700000000001
 20
148.482
 30
0.0
 11
-0.000689023
 21
148.482
 31
0.0
  0
LINE
  5
4AB
  8
_________2
 62
     7
 10
81.441199999999995
 20
50.875799999999991
 30
0.0
 11
79.254900000000006
 21
50.875799999999991
 31
0.0
  0
LINE
  5
4AC
  8
_________2
 62
     7
 10
81.933800000000005
 20
50.875799999999991
 30
0.0
 11
81.681700000000006
 21
50.875799999999991
 31
0.0
  0
LINE
  5
4AD
  8
_________2
 62
     7
 10
82.426500000000004
 20
50.875799999999991
 30
0.0
 11
85.351399999999998
 21
50.875799999999991
 31
0.0
  0
LINE
  5
4AE
  8
_________2
 62
     7
 10
81.933800000000005
 20
50.875799999999991
 30
0.0
 11
82.186000000000007
 21
50.875799999999991
 31
0.0
  0
LINE
  5
4AF
  8
_________2
 62
     7
 10
75.537599999999998
 20
50.875799999999991
 30
0.0
 11
73.350700000000003
 21
50.875799999999991
 31
0.0
  0
LINE
  5
4B0
  8
_________2
 62
     7
 10
76.029600000000002
 20
50.875799999999991
 30
0.0
 11
75.778099999999995
 21
50.875799999999991
 31
0.0
  0
LINE
  5
4B1
  8
_________2
 62
     7
 10
76.029600000000002
 20
51.368400000000001
 30
0.0
 11
76.029600000000002
 21
53.555399999999999
 31
0.0
  0
LINE
  5
4B2
  8
_________2
 62
     7
 10
76.029600000000002
 20
50.875799999999991
 30
0.0
 11
76.029600000000002
 21
51.128
 31
0.0
  0
LINE
  5
4B3
  8
_________2
 62
     7
 10
76.522300000000001
 20
50.875799999999991
 30
0.0
 11
78.709199999999996
 21
50.875799999999991
 31
0.0
  0
LINE
  5
4B4
  8
_________2
 62
     7
 10
76.029600000000002
 20
50.875799999999991
 30
0.0
 11
76.281800000000004
 21
50.875799999999991
 31
0.0
  0
LINE
  5
4B5
  8
_________2
 62
     7
 10
76.029600000000002
 20
50.383800000000001
 30
0.0
 11
76.029600000000002
 21
48.196800000000003
 31
0.0
  0
LINE
  5
4B6
  8
_________2
 62
     7
 10
76.029600000000002
 20
50.875799999999991
 30
0.0
 11
76.029600000000002
 21
50.624299999999991
 31
0.0
  0
LINE
  5
4B7
  8
_________2
 62
     7
 10
79.740700000000004
 20
49.656199999999998
 30
0.0
 11
84.918700000000001
 21
48.791499999999999
 31
0.0
  0
LINE
  5
4B8
  8
_________2
 62
     7
 10
79.740700000000004
 20
52.095300000000002
 30
0.0
 11
84.918700000000001
 21
52.960799999999992
 31
0.0
  0
LINE
  5
4B9
  8
_________2
 62
     7
 10
84.918700000000001
 20
48.791499999999999
 30
0.0
 11
84.918700000000001
 21
52.960799999999992
 31
0.0
  0
LINE
  5
4BA
  8
_________2
 62
     7
 10
79.740700000000004
 20
49.656199999999998
 30
0.0
 11
79.740700000000004
 21
52.095300000000002
 31
0.0
  0
ARC
  5
4BB
  8
_________2
 62
     7
 10
75.983362999999997
 20
50.828812999999997
 30
0.0
 40
1.2673709999999989
 50
2.1232950000000002
 51
87.909056000000007
  0
ARC
  5
4BC
  8
_________2
 62
     7
 10
76.076526999999999
 20
50.828847000000003
 30
0.0
 40
1.267363
 50
92.121785999999986
 51
177.878185
  0
ARC
  5
4BD
  8
_________2
 62
     7
 10
76.076526999999999
 20
50.922691999999998
 30
0.0
 40
1.267363
 50
182.12181499999991
 51
267.87821400000001
  0
ARC
  5
4BE
  8
_________2
 62
     7
 10
75.982714000000001
 20
50.923374000000003
 30
0.0
 40
1.2680439999999991
 50
272.11916400000001
 51
357.84848499999993
  0
ARC
  5
4BF
  8
_________2
 62
     7
 10
76.029604000000006
 20
50.875768999999998
 30
0.0
 40
2.0849849999999992
 50
0.00001
 51
89.999980000000008
  0
ARC
  5
4C0
  8
_________2
 62
     7
 10
76.109640999999996
 20
50.796447000000001
 30
0.0
 40
2.1657860000000002
 50
92.117855000000034
 51
177.90105299999991
  0
ARC
  5
4C1
  8
_________2
 62
     7
 10
76.109607999999994
 20
50.955773000000001
 30
0.0
 40
2.1657779999999991
 50
182.11700400000001
 51
267.88302499999992
  0
ARC
  5
4C2
  8
_________2
 62
     7
 10
75.949632999999992
 20
50.956456000000003
 30
0.0
 40
2.1664590000000001
 50
272.11546800000002
 51
357.86560400000002
  0
TEXT
  5
4C3
  8
_________2
 62
     7
 10
109.30500000000001
 20
22.750499999999992
 30
0.0
 40
3.0923400000000001
  1
図番
 41
0.5
  0
LINE
  5
4C4
  8
_________2
 62
     7
 10
108.25
 20
26.979700000000001
 30
0.0
 11
188.25099999999989
 21
26.979700000000001
 31
0.0
  0
TEXT
  5
4C5
  8
_________2
 62
     7
 10
109.30500000000001
 20
32.750300000000003
 30
0.0
 40
3.0923400000000001
  1
品番
 41
0.5
  0
TEXT
  5
4C6
  8
_________2
 62
     7
 10
109.30500000000001
 20
52.889099999999999
 30
0.0
 40
3.0923400000000001
  1
名称
 41
0.5
  0
TEXT
  5
4C7
  8
_________2
 62
     7
 10
96.545258333333337
 20
47.892999999999986
 30
0.0
 40
3.6545800000000002
  1
mm
 41
0.5
 72
     1
 11
98.067999999999998
 21
47.892999999999986
 31
0.0
  0
TEXT
  5
4C8
  8
_________2
 62
     7
 10
90.343400000000003
 20
52.889099999999999
 30
0.0
 40
3.0923400000000001
  1
単位
 41
0.5
  0
TEXT
  5
4C9
  8
_________2
 62
     7
 10
90.343400000000003
 20
40.481900000000003
 30
0.0
 40
3.0923400000000001
  1
尺度
 41
0.5
  0
TEXT
  5
4CA
  8
_________2
 62
     7
 10
94.639861999999994
 20
34.288899999999991
 30
0.0
 40
3.6545800000000002
  1
1 ： 15
 41
0.5
 72
     1
 11
98.659899999999993
 21
34.288899999999991
 31
0.0
  0
TEXT
  5
4CB
  8
_________2
 62
     7
 10
140.37860000000001
 20
30.178899999999992
 30
0.0
 40
3.9357000000000002
  1
CEY21700R
 41
0.5
 72
     1
 11
148.24999999999989
 21
30.178899999999992
 31
0.0
  0
TEXT
  5
4CC
  8
_________2
 62
     7
 10
140.37860000000001
 20
20.1784
 30
0.0
 40
3.9357000000000002
  1
CEY21700R
 41
0.5
 72
     1
 11
148.24999999999989
 21
20.1784
 31
0.0
  0
TEXT
  5
4CD
  8
_________2
 62
     7
 10
29.286899999999989
 20
21.778300000000002
 30
0.0
 40
3.9357000000000002
  1
満水容量：264L　重量：29.5kg
 41
0.5
  0
TEXT
  5
4CE
  8
_________2
 62
     7
 10
113.87899999999991
 20
45.296700000000001
 30
0.0
 40
3.9357000000000002
  1
アクリル製 バスタブ（1700サイズ）
 41
0.5
  0
TEXT
  5
4CF
  8
_________2
 62
     7
 10
44.003681
 20
34.674100000000003
 30
0.0
 40
3.6545800000000002
  1
田尻
 41
0.5
 72
     1
 11
46.0137
 21
34.674100000000003
 31
0.0
  0
TEXT
  5
4D0
  8
_________2
 62
     7
 10
25.490590666666659
 20
34.674100000000003
 30
0.0
 40
3.6545800000000002
  1
石原
 41
0.5
 72
     1
 11
27.439699999999998
 21
34.674100000000003
 31
0.0
  0
TEXT
  5
4D1
  8
_________2
 62
     7
 10
72.486000000000004
 20
34.288899999999991
 30
0.0
 40
3.6545800000000002
  1
11.12.28
 41
0.5
  0
TEXT
  5
4D2
  8
_________2
 62
     7
 10
71.293300000000002
 20
40.481900000000003
 30
0.0
 40
3.0923400000000001
  1
日付
 41
0.5
  0
TEXT
  5
4D3
  8
_________2
 62
     7
 10
34.33959999999999
 20
40.481900000000003
 30
0.0
 40
3.0923400000000001
  1
検図
 41
0.5
  0
TEXT
  5
4D4
  8
_________2
 62
     7
 10
22.7212
 20
26.282499999999992
 30
0.0
 40
3.0923400000000001
  1
備考
 41
0.5
  0
TEXT
  5
4D5
  8
_________2
 62
     7
 10
22.7212
 20
40.481900000000003
 30
0.0
 40
3.0923400000000001
  1
製図
 41
0.5
  0
TEXT
  5
4D6
  8
_________2
 62
     7
 10
28.488665333333341
 20
49.00780000000001
 30
0.0
 40
4.4979399999999989
  1
セラトレーディング株式会社
 41
0.5
 72
     1
 11
45.880699999999997
 21
49.00780000000001
 31
0.0
  0
LINE
  5
4D7
  8
_________2
 62
     7
 10
188.25099999999989
 20
16.979900000000001
 30
0.0
 11
21.749700000000001
 21
16.979900000000001
 31
0.0
  0
LINE
  5
4D8
  8
_________2
 62
     7
 10
21.749700000000001
 20
16.979900000000001
 30
0.0
 11
21.749700000000001
 21
279.98200000000003
 31
0.0
  0
LINE
  5
4D9
  8
_________2
 62
     7
 10
21.749700000000001
 20
279.98200000000003
 30
0.0
 11
188.25099999999989
 21
279.98200000000003
 31
0.0
  0
LINE
  5
4DA
  8
_________2
 62
     7
 10
188.25099999999989
 20
279.98200000000003
 30
0.0
 11
188.25099999999989
 21
16.979900000000001
 31
0.0
  0
LINE
  5
4DB
  8
_________2
 62
     7
 10
70.250100000000003
 20
30.48
 30
0.0
 11
70.250100000000003
 21
56.979799999999997
 31
0.0
  0
LINE
  5
4DC
  8
_________2
 62
     7
 10
89.249899999999997
 20
30.48
 30
0.0
 11
89.249899999999997
 21
56.979799999999997
 31
0.0
  0
LINE
  5
4DD
  8
_________2
 62
     7
 10
108.25
 20
16.979900000000001
 30
0.0
 11
108.25
 21
56.979799999999997
 31
0.0
  0
LINE
  5
4DE
  8
_________2
 62
     7
 10
33.249499999999991
 20
30.48
 30
0.0
 11
33.249499999999991
 21
44.4803
 31
0.0
  0
LINE
  5
4DF
  8
_________2
 62
     7
 10
21.749700000000001
 20
30.48
 30
0.0
 11
108.25
 21
30.48
 31
0.0
  0
LINE
  5
4E0
  8
_________2
 62
     7
 10
21.749700000000001
 20
44.4803
 30
0.0
 11
108.25
 21
44.4803
 31
0.0
  0
LINE
  5
4E1
  8
_________2
 62
     7
 10
108.25
 20
36.979500000000002
 30
0.0
 11
188.25099999999989
 21
36.979500000000002
 31
0.0
  0
LINE
  5
4E2
  8
_________2
 62
     7
 10
21.749700000000001
 20
56.979799999999997
 30
0.0
 11
188.25099999999989
 21
56.979799999999997
 31
0.0
  0
ENDSEC
  0
EOF
