  0
SECTION
  2
HEADER
  9
$ACADVER
  1
AC1009
  9
$INSBASE
 10
0.0
 20
0.0
 30
0.0
  9
$EXTMIN
 10
-0.000689023
 20
-0.000344512
 30
0.0
  9
$EXTMAX
 10
210.00099999999989
 20
297.00200000000001
 30
0.0
  9
$LIMMIN
 10
0.0
 20
0.0
  9
$LIMMAX
 10
12.0
 20
9.0
  9
$ORTHOMODE
 70
     0
  9
$REGENMODE
 70
     1
  9
$FILLMODE
 70
     1
  9
$QTEXTMODE
 70
     0
  9
$MIRRTEXT
 70
     1
  9
$DRAGMODE
 70
     2
  9
$LTSCALE
 40
1.0
  9
$OSMODE
 70
    37
  9
$ATTMODE
 70
     1
  9
$TEXTSIZE
 40
0.0
  9
$TRACEWID
 40
0.05
  9
$TEXTSTYLE
  7
STANDARD
  9
$CLAYER
  8
0
  9
$CELTYPE
  6
CONTINUOUS
  9
$CECOLOR
 62
   256
  9
$DIMSCALE
 40
1.0
  9
$DIMASZ
 40
0.18
  9
$DIMEXO
 40
0.0625
  9
$DIMDLI
 40
0.38
  9
$DIMRND
 40
0.0
  9
$DIMDLE
 40
0.0
  9
$DIMEXE
 40
0.18
  9
$DIMTP
 40
0.0
  9
$DIMTM
 40
0.0
  9
$DIMTXT
 40
0.18
  9
$DIMCEN
 40
0.09
  9
$DIMTSZ
 40
0.0
  9
$DIMTOL
 70
     0
  9
$DIMLIM
 70
     0
  9
$DIMTIH
 70
     1
  9
$DIMTOH
 70
     1
  9
$DIMSE1
 70
     0
  9
$DIMSE2
 70
     0
  9
$DIMTAD
 70
     0
  9
$DIMZIN
 70
     0
  9
$DIMBLK
  1

  9
$DIMASO
 70
     1
  9
$DIMSHO
 70
     1
  9
$DIMPOST
  1

  9
$DIMAPOST
  1

  9
$DIMALT
 70
     0
  9
$DIMALTD
 70
     2
  9
$DIMALTF
 40
25.399999999999999
  9
$DIMLFAC
 40
1.0
  9
$DIMTOFL
 70
     0
  9
$DIMTVP
 40
0.0
  9
$DIMTIX
 70
     0
  9
$DIMSOXD
 70
     0
  9
$DIMSAH
 70
     0
  9
$DIMBLK1
  1

  9
$DIMBLK2
  1

  9
$DIMSTYLE
  2
STANDARD
  9
$DIMCLRD
 70
     0
  9
$DIMCLRE
 70
     0
  9
$DIMCLRT
 70
     0
  9
$DIMTFAC
 40
1.0
  9
$DIMGAP
 40
0.09
  9
$LUNITS
 70
     2
  9
$LUPREC
 70
     4
  9
$SKETCHINC
 40
0.1
  9
$FILLETRAD
 40
0.0
  9
$AUNITS
 70
     0
  9
$AUPREC
 70
     0
  9
$MENU
  1
.
  9
$ELEVATION
 40
0.0
  9
$PELEVATION
 40
0.0
  9
$THICKNESS
 40
0.0
  9
$LIMCHECK
 70
     0
  9
$BLIPMODE
 70
     0
  9
$CHAMFERA
 40
0.0
  9
$CHAMFERB
 40
0.0
  9
$SKPOLY
 70
     0
  9
$TDCREATE
 40
2444972.375
  9
$TDUPDATE
 40
2456738.2466150229
  9
$TDINDWG
 40
0.0000096412
  9
$TDUSRTIMER
 40
0.0000096412
  9
$USRTIMER
 70
     1
  9
$ANGBASE
 50
0.0
  9
$ANGDIR
 70
     0
  9
$PDMODE
 70
     0
  9
$PDSIZE
 40
0.0
  9
$PLINEWID
 40
0.0
  9
$COORDS
 70
     1
  9
$SPLFRAME
 70
     0
  9
$SPLINETYPE
 70
     6
  9
$SPLINESEGS
 70
     8
  9
$ATTDIA
 70
     0
  9
$ATTREQ
 70
     1
  9
$HANDLING
 70
     1
  9
$HANDSEED
  5
6AA
  9
$SURFTAB1
 70
     6
  9
$SURFTAB2
 70
     6
  9
$SURFTYPE
 70
     6
  9
$SURFU
 70
     6
  9
$SURFV
 70
     6
  9
$UCSNAME
  2

  9
$UCSORG
 10
0.0
 20
0.0
 30
0.0
  9
$UCSXDIR
 10
1.0
 20
0.0
 30
0.0
  9
$UCSYDIR
 10
0.0
 20
1.0
 30
0.0
  9
$PUCSNAME
  2

  9
$PUCSORG
 10
0.0
 20
0.0
 30
0.0
  9
$PUCSXDIR
 10
1.0
 20
0.0
 30
0.0
  9
$PUCSYDIR
 10
0.0
 20
1.0
 30
0.0
  9
$USERI1
 70
     0
  9
$USERI2
 70
     0
  9
$USERI3
 70
     0
  9
$USERI4
 70
     0
  9
$USERI5
 70
     0
  9
$USERR1
 40
0.0
  9
$USERR2
 40
0.0
  9
$USERR3
 40
0.0
  9
$USERR4
 40
0.0
  9
$USERR5
 40
0.0
  9
$WORLDVIEW
 70
     1
  9
$SHADEDGE
 70
     3
  9
$SHADEDIF
 70
    70
  9
$TILEMODE
 70
     1
  9
$MAXACTVP
 70
    48
  9
$PLIMCHECK
 70
     0
  9
$PEXTMIN
 10
1.0000000000000000E+020
 20
1.0000000000000000E+020
 30
1.0000000000000000E+020
  9
$PEXTMAX
 10
-1.0000000000000000E+020
 20
-1.0000000000000000E+020
 30
-1.0000000000000000E+020
  9
$PLIMMIN
 10
0.0
 20
0.0
  9
$PLIMMAX
 10
12.0
 20
9.0
  9
$UNITMODE
 70
     0
  9
$VISRETAIN
 70
     1
  9
$PLINEGEN
 70
     0
  9
$PSLTSCALE
 70
     1
  0
ENDSEC
  0
SECTION
  2
TABLES
  0
TABLE
  2
VPORT
 70
     2
  0
VPORT
  2
*ACTIVE
 70
     0
 10
0.0
 20
0.0
 11
1.0
 21
1.0
 12
206.70668023396189
 22
148.50082774399999
 13
0.0
 23
0.0
 14
1.0
 24
1.0
 15
0.0
 25
0.0
 16
0.0
 26
0.0
 36
1.0
 17
0.0
 27
0.0
 37
0.0
 40
299.4535330499258
 41
2.2894736842105261
 42
50.0
 43
0.0
 44
0.0
 50
0.0
 51
0.0
 71
     0
 72
   100
 73
     1
 74
     1
 75
     0
 76
     0
 77
     0
 78
     0
  0
ENDTAB
  0
TABLE
  2
LTYPE
 70
     2
  0
LTYPE
  2
CONTINUOUS
 70
     0
  3
Solid line
 72
    65
 73
     0
 40
0.0
  0
LTYPE
  2
AIGENLINE001
 70
     0
  3
generate AI->DXF Converter
 72
    65
 73
     4
 40
5.8561449999999988
 49
3.5278
 49
-0.776115
 49
0.776115
 49
-0.776115
  0
ENDTAB
  0
TABLE
  2
LAYER
 70
     2
  0
LAYER
  2
0
 70
     0
 62
     7
  6
CONTINUOUS
  0
LAYER
  2
_________2
 70
     0
 62
     7
  6
CONTINUOUS
  0
ENDTAB
  0
TABLE
  2
STYLE
 70
     1
  0
STYLE
  2
STANDARD
 70
     0
 40
0.0
 41
0.0
 50
0.0
 71
     0
 42
0.0
  3
TXT
  4
EXTFONT.SHX
  0
ENDTAB
  0
TABLE
  2
VIEW
 70
     0
  0
ENDTAB
  0
TABLE
  2
UCS
 70
     0
  0
ENDTAB
  0
TABLE
  2
APPID
 70
     1
  0
APPID
  2
ACAD
 70
     0
  0
ENDTAB
  0
TABLE
  2
DIMSTYLE
 70
     1
  0
DIMSTYLE
  2
STANDARD
 70
     0
  3

  4

  5

  6

  7

 40
1.0
 41
0.18
 42
0.0625
 43
0.38
 44
0.18
 45
0.0
 46
0.0
 47
0.0
 48
0.0
140
0.18
141
0.09
142
0.0
143
25.399999999999999
144
1.0
145
0.0
146
1.0
147
0.09
 71
     0
 72
     0
 73
     1
 74
     1
 75
     0
 76
     0
 77
     0
 78
     0
170
     0
171
     2
172
     0
173
     0
174
     0
175
     0
176
     0
177
     0
178
     0
  0
ENDTAB
  0
ENDSEC
  0
SECTION
  2
BLOCKS
  0
BLOCK
  8
0
  2
$MODEL_SPACE
 70
     0
 10
0.0
 20
0.0
 30
0.0
  3
$MODEL_SPACE
  1

  0
ENDBLK
  5
1A
  8
0
  0
BLOCK
 67
     1
  8
0
  2
$PAPER_SPACE
 70
     0
 10
0.0
 20
0.0
 30
0.0
  3
$PAPER_SPACE
  1

  0
ENDBLK
  5
17
 67
     1
  8
0
  0
ENDSEC
  0
SECTION
  2
ENTITIES
  0
TEXT
  5
22
  8
0
 62
     7
 10
78.196780000000004
 20
171.84499999999991
 30
0.0
 40
3.0923400000000001
  1
%%c55
 41
0.5
 72
     2
 11
82.319900000000004
 21
171.84499999999991
 31
0.0
  0
TEXT
  5
23
  8
0
 62
     7
 10
39.063299999999998
 20
180.047135
 30
0.0
 40
3.0923400000000001
  1
200
 50
90.0
 41
0.5
 72
     1
 11
39.063299999999998
 21
181.851
 31
0.0
  0
TEXT
  5
24
  8
0
 62
     7
 10
70.347740000000002
 20
200.75700000000001
 30
0.0
 40
3.0923400000000001
  1
697
 41
0.5
 72
     1
 11
72.409300000000002
 21
200.75700000000001
 31
0.0
  0
TEXT
  5
25
  8
0
 62
     7
 10
70.402834999999996
 20
208.75699999999989
 30
0.0
 40
3.0923400000000001
  1
800
 41
0.5
 72
     1
 11
72.206699999999998
 21
208.75699999999989
 31
0.0
  0
TEXT
  5
26
  8
0
 62
     7
 10
31.956700000000001
 20
129.13574499999999
 30
0.0
 40
3.0923400000000001
  1
1700
 50
90.0
 41
0.5
 72
     1
 11
31.956700000000001
 21
131.45500000000001
 31
0.0
  0
TEXT
  5
27
  8
0
 62
     7
 10
79.953599999999994
 20
190.74600000000001
 30
0.0
 40
3.0923400000000001
  1
%%c44
 41
0.5
  0
TEXT
  5
28
  8
0
 62
     7
 10
141.36444
 20
68.487200000000001
 30
0.0
 40
3.0923400000000001
  1
625
 41
0.5
 72
     1
 11
143.42599999999999
 21
68.487200000000001
 31
0.0
  0
TEXT
  5
29
  8
0
 62
     7
 10
104.98999999999999
 20
184.50837250000001
 30
0.0
 40
3.0923400000000001
  1
80
 50
90.0
 41
0.5
 72
     1
 11
104.98999999999999
 21
185.66800000000001
 31
0.0
  0
TEXT
  5
2A
  8
0
 62
     7
 10
88.772700000000015
 20
192.75700000000001
 30
0.0
 40
3.0923400000000001
  1
65
 41
0.5
  0
TEXT
  5
2B
  8
0
 62
     7
 10
120.76899999999991
 20
192.75700000000001
 30
0.0
 40
3.0923400000000001
  1
30
 41
0.5
  0
TEXT
  5
2C
  8
0
 62
     7
 10
143.6592875
 20
197.02799999999991
 30
0.0
 40
3.0923400000000001
  1
560
 41
0.5
 72
     1
 11
145.59200000000001
 21
197.02799999999991
 31
0.0
  0
TEXT
  5
2D
  8
0
 62
     7
 10
139.56928749999989
 20
176.83999999999989
 30
0.0
 40
3.0923400000000001
  1
430
 41
0.5
 72
     1
 11
141.50200000000001
 21
176.83999999999989
 31
0.0
  0
TEXT
  5
2E
  8
0
 62
     7
 10
80.210800000000006
 20
67.271810000000002
 30
0.0
 40
3.0923400000000001
  1
A
 50
90.0
 41
0.5
 72
     1
 11
80.210800000000006
 21
67.787199999999984
 31
0.0
  0
TEXT
  5
2F
  8
0
 62
     7
 10
80.210800000000006
 20
196.32660999999999
 30
0.0
 40
3.0923400000000001
  1
A
 50
90.0
 41
0.5
 72
     1
 11
80.210800000000006
 21
196.84200000000001
 31
0.0
  0
TEXT
  5
30
  8
0
 62
     7
 10
178.76300000000001
 20
131.1874399999999
 30
0.0
 40
3.0923400000000001
  1
A-A
 50
90.0
 41
0.5
 72
     1
 11
178.76300000000001
 21
133.24899999999991
 31
0.0
  0
TEXT
  5
31
  8
0
 62
     7
 10
172.21599999999989
 20
238.96343999999991
 30
0.0
 40
3.0923400000000001
  1
265
 50
90.0
 41
0.5
 72
     1
 11
172.21599999999989
 21
241.02500000000001
 31
0.0
  0
TEXT
  5
32
  8
0
 62
     7
 10
172.21599999999989
 20
220.55865999999989
 30
0.0
 40
3.0923400000000001
  1
267.5
 50
90.0
 41
0.5
 72
     1
 11
172.21599999999989
 21
223.6509999999999
 31
0.0
  0
TEXT
  5
33
  8
0
 62
     7
 10
172.21599999999989
 20
255.58166
 30
0.0
 40
3.0923400000000001
  1
267.5
 50
90.0
 41
0.5
 72
     1
 11
172.21599999999989
 21
258.67399999999998
 31
0.0
  0
TEXT
  5
34
  8
0
 62
     7
 10
172.21599999999989
 20
174.24828749999989
 30
0.0
 40
3.0923400000000001
  1
360
 50
90.0
 41
0.5
 72
     1
 11
172.21599999999989
 21
176.1809999999999
 31
0.0
  0
TEXT
  5
35
  8
0
 62
     7
 10
172.21599999999989
 20
95.061487500000013
 30
0.0
 40
3.0923400000000001
  1
660
 50
90.0
 41
0.5
 72
     1
 11
172.21599999999989
 21
96.994200000000006
 31
0.0
  0
TEXT
  5
36
  8
0
 62
     7
 10
109.664
 20
132.8418974999999
 30
0.0
 40
3.0923400000000001
  1
1450
 50
90.0
 41
0.5
 72
     1
 11
109.664
 21
135.28999999999991
 31
0.0
  0
TEXT
  5
37
  8
0
 62
     7
 10
172.21599999999989
 20
139.72828749999991
 30
0.0
 40
3.0923400000000001
  1
680
 50
90.0
 41
0.5
 72
     1
 11
172.21599999999989
 21
141.661
 31
0.0
  0
LINE
  5
38
  8
0
 62
     7
 10
163.559
 20
249.16200000000001
 30
0.0
 11
163.559
 21
250.82900000000001
 31
0.0
  0
LINE
  5
39
  8
0
 62
     7
 10
163.66
 20
249.16200000000001
 30
0.0
 11
163.559
 21
249.16200000000001
 31
0.0
  0
LINE
  5
3A
  8
0
 62
     7
 10
163.66
 20
250.82900000000001
 30
0.0
 11
163.559
 21
250.82900000000001
 31
0.0
  0
LINE
  5
3B
  8
0
 62
     7
 10
163.99299999999991
 20
251.512
 30
0.0
 11
163.99299999999991
 21
248.346
 31
0.0
  0
LINE
  5
3C
  8
0
 62
     7
 10
163.99299999999991
 20
249.9959999999999
 30
0.0
 11
163.99299999999991
 21
251.6459999999999
 31
0.0
  0
LINE
  5
3D
  8
0
 62
     7
 10
163.66
 20
248.54599999999991
 30
0.0
 11
163.66
 21
251.446
 31
0.0
  0
LINE
  5
3E
  8
0
 62
     7
 10
164.25999999999991
 20
251.512
 30
0.0
 11
164.25999999999991
 21
248.47900000000001
 31
0.0
  0
ARC
  5
3F
  8
0
 62
     7
 10
163.405148
 20
250.398527
 30
0.0
 40
0.176664
 50
129.53112399999989
 51
215.32297999999989
  0
ARC
  5
40
  8
0
 62
     7
 10
163.418397
 20
250.42207699999989
 30
0.0
 40
0.201422
 50
218.611615
 51
231.3884149999999
  0
ARC
  5
41
  8
0
 62
     7
 10
163.40630799999991
 20
249.59004799999991
 30
0.0
 40
0.177071
 50
129.91018199999999
 51
214.85689599999989
  0
ARC
  5
42
  8
0
 62
     7
 10
163.4243459999999
 20
249.617009
 30
0.0
 40
0.207618
 50
218.11897400000001
 51
230.64893599999999
  0
LINE
  5
43
  8
0
 62
     7
 10
163.226
 20
249.6809999999999
 30
0.0
 11
163.226
 21
249.59099999999989
 31
0.0
  0
ARC
  5
44
  8
0
 62
     7
 10
163.6532939999999
 20
250.04879700000001
 30
0.0
 40
0.4202800000000001
 50
149.09070500000001
 51
167.01603600000001
  0
ARC
  5
45
  8
0
 62
     7
 10
163.82908499999999
 20
250.00031799999999
 30
0.0
 40
0.602518
 50
166.27964299999999
 51
207.097151
  0
LINE
  5
46
  8
0
 62
     7
 10
163.226
 20
250.40000000000001
 30
0.0
 11
163.226
 21
249.59099999999989
 31
0.0
  0
LINE
  5
47
  8
0
 62
     7
 10
163.559
 20
249.4559999999999
 30
0.0
 11
163.29299999999989
 21
249.4559999999999
 31
0.0
  0
LINE
  5
48
  8
0
 62
     7
 10
163.559
 20
250.53499999999991
 30
0.0
 11
163.29299999999989
 21
250.53499999999991
 31
0.0
  0
LINE
  5
49
  8
0
 62
     7
 10
163.559
 20
249.726
 30
0.0
 11
163.29299999999989
 21
249.726
 31
0.0
  0
LINE
  5
4A
  8
0
 62
     7
 10
163.559
 20
250.26499999999999
 30
0.0
 11
163.29299999999989
 21
250.26499999999999
 31
0.0
  0
LINE
  5
4B
  8
0
 62
     7
 10
163.1329999999999
 20
250.3959999999999
 30
0.0
 11
163.1329999999999
 21
249.59599999999989
 31
0.0
  0
LINE
  5
4C
  8
0
 62
     7
 10
163.1329999999999
 20
249.66200000000001
 30
0.0
 11
160.92500000000001
 21
249.66200000000001
 31
0.0
  0
LINE
  5
4D
  8
0
 62
     7
 10
163.1329999999999
 20
250.32900000000001
 30
0.0
 11
160.92500000000001
 21
250.32900000000001
 31
0.0
  0
LINE
  5
4E
  8
0
 62
     7
 10
163.1329999999999
 20
250.3959999999999
 30
0.0
 11
160.92500000000001
 21
250.3959999999999
 31
0.0
  0
LINE
  5
4F
  8
0
 62
     7
 10
163.1329999999999
 20
249.59599999999989
 30
0.0
 11
160.92500000000001
 21
249.59599999999989
 31
0.0
  0
LINE
  5
50
  8
0
 62
     7
 10
163.226
 20
249.62899999999999
 30
0.0
 11
163.1329999999999
 21
249.62899999999999
 31
0.0
  0
LINE
  5
51
  8
0
 62
     7
 10
163.226
 20
250.363
 30
0.0
 11
163.1329999999999
 21
250.363
 31
0.0
  0
ARC
  5
52
  8
0
 62
     7
 10
163.867851
 20
251.43830600000001
 30
0.0
 40
0.20803
 50
92.226678000000007
 51
177.97052400000001
  0
LINE
  5
53
  8
0
 62
     7
 10
164.25999999999991
 20
251.512
 30
0.0
 11
163.99299999999991
 21
251.512
 31
0.0
  0
LINE
  5
54
  8
0
 62
     7
 10
163.99299999999991
 20
251.6459999999999
 30
0.0
 11
163.86000000000001
 21
251.6459999999999
 31
0.0
  0
LINE
  5
55
  8
0
 62
     7
 10
164.25999999999991
 20
248.47900000000001
 30
0.0
 11
163.99299999999991
 21
248.47900000000001
 31
0.0
  0
LINE
  5
56
  8
0
 62
     7
 10
163.99299999999991
 20
248.346
 30
0.0
 11
163.86000000000001
 21
248.346
 31
0.0
  0
ARC
  5
57
  8
0
 62
     7
 10
163.86780200000001
 20
248.553608
 30
0.0
 40
0.208006
 50
182.21357900000001
 51
267.786451
  0
LINE
  5
58
  8
0
 62
     7
 10
160.86799999999991
 20
250.7709999999999
 30
0.0
 11
160.315
 21
250.7709999999999
 31
0.0
  0
LINE
  5
59
  8
0
 62
     7
 10
160.86799999999991
 20
249.67399999999989
 30
0.0
 11
160.315
 21
249.67399999999989
 31
0.0
  0
LINE
  5
5A
  8
0
 62
     7
 10
160.86799999999991
 20
249.309
 30
0.0
 11
160.315
 21
249.309
 31
0.0
  0
LINE
  5
5B
  8
0
 62
     7
 10
160.86799999999991
 20
250.40599999999989
 30
0.0
 11
160.315
 21
250.40599999999989
 31
0.0
  0
LINE
  5
5C
  8
0
 62
     7
 10
160.86799999999991
 20
250.7709999999999
 30
0.0
 11
160.92500000000001
 21
250.673
 31
0.0
  0
LINE
  5
5D
  8
0
 62
     7
 10
160.86799999999991
 20
249.309
 30
0.0
 11
160.92500000000001
 21
249.40700000000001
 31
0.0
  0
ARC
  5
5E
  8
0
 62
     7
 10
160.6712179999999
 20
249.47245599999991
 30
0.0
 40
0.252364
 50
331.42057999999992
 51
354.46841699999999
  0
ARC
  5
5F
  8
0
 62
     7
 10
160.5891639999999
 20
249.48754199999999
 30
0.0
 40
0.335566
 50
353.25508100000002
 51
33.795611999999991
  0
ARC
  5
60
  8
0
 62
     7
 10
160.28955899999991
 20
249.89644999999999
 30
0.0
 40
0.6196970000000001
 50
338.98250300000001
 51
345.22813300000001
  0
ARC
  5
61
  8
0
 62
     7
 10
159.86199099999999
 20
250.00955999999999
 30
0.0
 40
1.0619730000000001
 50
345.20903799999991
 51
358.27665000000002
  0
ARC
  5
62
  8
0
 62
     7
 10
159.69393600000001
 20
250.0361749999999
 30
0.0
 40
1.2309410000000001
 50
357.27356900000001
 51
17.480993999999999
  0
ARC
  5
63
  8
0
 62
     7
 10
160.669104
 20
250.55864399999999
 30
0.0
 40
0.250779
 50
322.487752
 51
345.62199800000002
  0
ARC
  5
64
  8
0
 62
     7
 10
160.58873199999991
 20
250.586433
 30
0.0
 40
0.335607
 50
344.43357400000002
 51
25.02506099999999
  0
LINE
  5
65
  8
0
  6
AIGENLINE001
 62
     7
 10
165.673
 20
249.9959999999999
 30
0.0
 11
153.86099999999999
 21
249.9959999999999
 31
0.0
  0
LINE
  5
66
  8
0
 62
     7
 10
156.76699999999991
 20
248.03599999999989
 30
0.0
 11
156.76699999999991
 21
251.9559999999999
 31
0.0
  0
LINE
  5
67
  8
0
 62
     7
 10
157.12700000000001
 20
249.59599999999989
 30
0.0
 11
160.09999999999991
 21
249.59599999999989
 31
0.0
  0
LINE
  5
68
  8
0
 62
     7
 10
157.12700000000001
 20
250.3959999999999
 30
0.0
 11
160.09999999999991
 21
250.3959999999999
 31
0.0
  0
LINE
  5
69
  8
0
 62
     7
 10
156.92699999999999
 20
247.9959999999999
 30
0.0
 11
156.92699999999999
 21
249.9959999999999
 31
0.0
  0
LINE
  5
6A
  8
0
 62
     7
 10
156.92699999999999
 20
247.9959999999999
 30
0.0
 11
156.80699999999999
 21
247.9959999999999
 31
0.0
  0
LINE
  5
6B
  8
0
 62
     7
 10
156.96600000000001
 20
248.03599999999989
 30
0.0
 11
156.92699999999999
 21
247.9959999999999
 31
0.0
  0
LINE
  5
6C
  8
0
 62
     7
 10
156.80699999999999
 20
247.9959999999999
 30
0.0
 11
156.76699999999991
 21
248.03599999999989
 31
0.0
  0
LINE
  5
6D
  8
0
 62
     7
 10
156.80699999999999
 20
249.9959999999999
 30
0.0
 11
156.80699999999999
 21
247.9959999999999
 31
0.0
  0
LINE
  5
6E
  8
0
 62
     7
 10
156.96600000000001
 20
248.03599999999989
 30
0.0
 11
156.96600000000001
 21
249.9959999999999
 31
0.0
  0
LINE
  5
6F
  8
0
 62
     7
 10
156.96600000000001
 20
251.9559999999999
 30
0.0
 11
156.96600000000001
 21
249.9959999999999
 31
0.0
  0
LINE
  5
70
  8
0
 62
     7
 10
156.80699999999999
 20
249.9959999999999
 30
0.0
 11
156.80699999999999
 21
251.9959999999999
 31
0.0
  0
LINE
  5
71
  8
0
 62
     7
 10
156.80699999999999
 20
251.9959999999999
 30
0.0
 11
156.76699999999991
 21
251.9559999999999
 31
0.0
  0
LINE
  5
72
  8
0
 62
     7
 10
156.96600000000001
 20
251.9559999999999
 30
0.0
 11
156.92699999999999
 21
251.9959999999999
 31
0.0
  0
LINE
  5
73
  8
0
 62
     7
 10
156.92699999999999
 20
251.9959999999999
 30
0.0
 11
156.80699999999999
 21
251.9959999999999
 31
0.0
  0
LINE
  5
74
  8
0
 62
     7
 10
156.92699999999999
 20
251.9959999999999
 30
0.0
 11
156.92699999999999
 21
249.9959999999999
 31
0.0
  0
LINE
  5
75
  8
0
 62
     7
 10
160.25999999999991
 20
250.57299999999989
 30
0.0
 11
160.20699999999991
 21
250.666
 31
0.0
  0
ARC
  5
76
  8
0
 62
     7
 10
160.10924900000001
 20
250.55123199999991
 30
0.0
 40
0.155231
 50
266.498152
 51
346.68883999999991
  0
ARC
  5
77
  8
0
 62
     7
 10
159.857936
 20
250.0171959999999
 30
0.0
 40
0.402933
 50
356.98006800000002
 51
15.538855999999999
  0
ARC
  5
78
  8
0
 62
     7
 10
159.651702
 20
249.97932999999989
 30
0.0
 40
0.612061
 50
13.781806
 51
42.940637999999993
  0
LINE
  5
79
  8
0
 62
     7
 10
160.25999999999991
 20
250.57299999999989
 30
0.0
 11
160.25999999999991
 21
249.9959999999999
 31
0.0
  0
LINE
  5
7A
  8
0
 62
     7
 10
160.92500000000001
 20
249.40700000000001
 30
0.0
 11
160.92500000000001
 21
250.673
 31
0.0
  0
LINE
  5
7B
  8
0
 62
     7
 10
160.25999999999991
 20
249.41800000000001
 30
0.0
 11
160.25999999999991
 21
249.9959999999999
 31
0.0
  0
ARC
  5
7C
  8
0
 62
     7
 10
159.83170200000001
 20
249.88369499999999
 30
0.0
 40
0.393486
 50
312.94193899999988
 51
331.88138099999998
  0
ARC
  5
7D
  8
0
 62
     7
 10
159.64582999999999
 20
250.00427499999989
 30
0.0
 40
0.6145360000000001
 50
330.133196
 51
359.22547700000001
  0
ARC
  5
7E
  8
0
 62
     7
 10
160.10830799999991
 20
249.43964800000001
 30
0.0
 40
0.156231
 50
13.362655999999999
 51
93.133970000000005
  0
LINE
  5
7F
  8
0
 62
     7
 10
160.25999999999991
 20
249.41800000000001
 30
0.0
 11
160.20699999999991
 21
249.32599999999991
 31
0.0
  0
LINE
  5
80
  8
0
 62
     7
 10
157.03399999999991
 20
250.666
 30
0.0
 11
160.20699999999991
 21
250.666
 31
0.0
  0
ARC
  5
81
  8
0
 62
     7
 10
157.036464
 20
249.25545
 30
0.0
 40
0.070142
 50
92.048043999999976
 51
176.77061199999989
  0
LINE
  5
82
  8
0
 62
     7
 10
156.96600000000001
 20
249.41800000000001
 30
0.0
 11
157.0199999999999
 21
249.32599999999991
 31
0.0
  0
LINE
  5
83
  8
0
 62
     7
 10
157.03399999999991
 20
249.32599999999991
 30
0.0
 11
160.20699999999991
 21
249.32599999999991
 31
0.0
  0
ARC
  5
84
  8
0
 62
     7
 10
157.11669299999991
 20
249.441979
 30
0.0
 40
0.15401
 50
86.172042000000005
 51
167.33129199999991
  0
LINE
  5
85
  8
0
 62
     7
 10
156.96600000000001
 20
249.41800000000001
 30
0.0
 11
156.96600000000001
 21
249.9959999999999
 31
0.0
  0
ARC
  5
86
  8
0
 62
     7
 10
157.369598
 20
249.9747009999999
 30
0.0
 40
0.4037250000000001
 50
176.98040700000001
 51
195.5240409999999
  0
ARC
  5
87
  8
0
 62
     7
 10
157.57341099999999
 20
250.01180699999989
 30
0.0
 40
0.610324
 50
193.75916699999991
 51
222.98995500000001
  0
ARC
  5
88
  8
0
 62
     7
 10
157.40324199999989
 20
250.10248899999999
 30
0.0
 40
0.403289
 50
133.238168
 51
151.7475499999999
  0
ARC
  5
89
  8
0
 62
     7
 10
157.580352
 20
249.98750499999991
 30
0.0
 40
0.6139770000000001
 50
150.1188699999999
 51
179.21016900000001
  0
LINE
  5
8A
  8
0
 62
     7
 10
156.96600000000001
 20
250.57299999999989
 30
0.0
 11
156.96600000000001
 21
249.9959999999999
 31
0.0
  0
ARC
  5
8B
  8
0
 62
     7
 10
157.117662
 20
250.55145799999991
 30
0.0
 40
0.155447
 50
193.3780439999999
 51
273.43500299999988
  0
LINE
  5
8C
  8
0
 62
     7
 10
156.96600000000001
 20
250.57299999999989
 30
0.0
 11
157.0199999999999
 21
250.666
 31
0.0
  0
ARC
  5
8D
  8
0
 62
     7
 10
157.03585399999989
 20
250.73514299999999
 30
0.0
 40
0.06947
 50
182.152109
 51
268.435565
  0
LINE
  5
8E
  8
0
 62
     7
 10
160.315
 20
250.7709999999999
 30
0.0
 11
160.2579999999999
 21
250.673
 31
0.0
  0
LINE
  5
8F
  8
0
 62
     7
 10
160.315
 20
249.309
 30
0.0
 11
160.2579999999999
 21
249.40700000000001
 31
0.0
  0
ARC
  5
90
  8
0
 62
     7
 10
161.00828000000001
 20
250.143314
 30
0.0
 40
0.741596
 50
159.2597669999999
 51
172.82148199999989
  0
ARC
  5
91
  8
0
 62
     7
 10
161.5410259999999
 20
250.048892
 30
0.0
 40
1.2822519999999991
 50
171.61004199999999
 51
196.9908649999999
  0
ARC
  5
92
  8
0
 62
     7
 10
160.51179799999991
 20
249.5229129999999
 30
0.0
 40
0.248429
 50
142.486378
 51
165.884049
  0
ARC
  5
93
  8
0
 62
     7
 10
160.59707
 20
249.4936669999999
 30
0.0
 40
0.338344
 50
164.6025479999999
 51
204.80314200000001
  0
LINE
  5
94
  8
0
 62
     7
 10
160.2579999999999
 20
250.673
 30
0.0
 11
160.2579999999999
 21
249.40700000000001
 31
0.0
  0
ARC
  5
95
  8
0
 62
     7
 10
160.52294900000001
 20
250.6050149999999
 30
0.0
 40
0.263664
 50
152.09776500000001
 51
174.84460699999991
  0
ARC
  5
96
  8
0
 62
     7
 10
160.5928449999999
 20
250.59186099999999
 30
0.0
 40
0.3345280000000001
 50
173.67642699999999
 51
213.76451800000001
  0
LINE
  5
97
  8
0
 62
     7
 10
163.559
 20
231.4959999999999
 30
0.0
 11
163.559
 21
233.16200000000001
 31
0.0
  0
LINE
  5
98
  8
0
 62
     7
 10
163.66
 20
231.4959999999999
 30
0.0
 11
163.559
 21
231.4959999999999
 31
0.0
  0
LINE
  5
99
  8
0
 62
     7
 10
163.66
 20
233.16200000000001
 30
0.0
 11
163.559
 21
233.16200000000001
 31
0.0
  0
LINE
  5
9A
  8
0
 62
     7
 10
163.99299999999991
 20
233.84499999999991
 30
0.0
 11
163.99299999999991
 21
230.67899999999989
 31
0.0
  0
LINE
  5
9B
  8
0
 62
     7
 10
163.99299999999991
 20
232.32900000000001
 30
0.0
 11
163.99299999999991
 21
233.97900000000001
 31
0.0
  0
LINE
  5
9C
  8
0
 62
     7
 10
163.66
 20
230.87899999999999
 30
0.0
 11
163.66
 21
233.779
 31
0.0
  0
LINE
  5
9D
  8
0
 62
     7
 10
164.25999999999991
 20
233.84499999999991
 30
0.0
 11
164.25999999999991
 21
230.81200000000001
 31
0.0
  0
ARC
  5
9E
  8
0
 62
     7
 10
163.405148
 20
232.7317929999999
 30
0.0
 40
0.176664
 50
129.53112399999989
 51
215.32297999999989
  0
ARC
  5
9F
  8
0
 62
     7
 10
163.418397
 20
232.75534399999989
 30
0.0
 40
0.201422
 50
218.611615
 51
231.3884149999999
  0
ARC
  5
A0
  8
0
 62
     7
 10
163.40630799999991
 20
231.923314
 30
0.0
 40
0.177071
 50
129.91018199999999
 51
214.85689599999989
  0
ARC
  5
A1
  8
0
 62
     7
 10
163.4243459999999
 20
231.950275
 30
0.0
 40
0.207618
 50
218.11897400000001
 51
230.64893599999999
  0
LINE
  5
A2
  8
0
 62
     7
 10
163.226
 20
232.01400000000001
 30
0.0
 11
163.226
 21
231.92400000000001
 31
0.0
  0
ARC
  5
A3
  8
0
 62
     7
 10
163.6532939999999
 20
232.38206400000001
 30
0.0
 40
0.4202800000000001
 50
149.09070500000001
 51
167.01603600000001
  0
ARC
  5
A4
  8
0
 62
     7
 10
163.82908499999999
 20
232.33358399999989
 30
0.0
 40
0.602518
 50
166.27964299999999
 51
207.097151
  0
LINE
  5
A5
  8
0
 62
     7
 10
163.226
 20
232.7339999999999
 30
0.0
 11
163.226
 21
231.92400000000001
 31
0.0
  0
LINE
  5
A6
  8
0
 62
     7
 10
163.559
 20
231.78999999999991
 30
0.0
 11
163.29299999999989
 21
231.78999999999991
 31
0.0
  0
LINE
  5
A7
  8
0
 62
     7
 10
163.559
 20
232.86799999999991
 30
0.0
 11
163.29299999999989
 21
232.86799999999991
 31
0.0
  0
LINE
  5
A8
  8
0
 62
     7
 10
163.559
 20
232.059
 30
0.0
 11
163.29299999999989
 21
232.059
 31
0.0
  0
LINE
  5
A9
  8
0
 62
     7
 10
163.559
 20
232.5979999999999
 30
0.0
 11
163.29299999999989
 21
232.5979999999999
 31
0.0
  0
LINE
  5
AA
  8
0
 62
     7
 10
163.1329999999999
 20
232.72999999999999
 30
0.0
 11
163.1329999999999
 21
231.929
 31
0.0
  0
LINE
  5
AB
  8
0
 62
     7
 10
163.1329999999999
 20
231.99600000000001
 30
0.0
 11
160.92500000000001
 21
231.99600000000001
 31
0.0
  0
LINE
  5
AC
  8
0
 62
     7
 10
163.1329999999999
 20
232.66200000000001
 30
0.0
 11
160.92500000000001
 21
232.66200000000001
 31
0.0
  0
LINE
  5
AD
  8
0
 62
     7
 10
163.1329999999999
 20
232.72999999999999
 30
0.0
 11
160.92500000000001
 21
232.72999999999999
 31
0.0
  0
LINE
  5
AE
  8
0
 62
     7
 10
163.1329999999999
 20
231.929
 30
0.0
 11
160.92500000000001
 21
231.929
 31
0.0
  0
LINE
  5
AF
  8
0
 62
     7
 10
163.226
 20
231.96199999999999
 30
0.0
 11
163.1329999999999
 21
231.96199999999999
 31
0.0
  0
LINE
  5
B0
  8
0
 62
     7
 10
163.226
 20
232.696
 30
0.0
 11
163.1329999999999
 21
232.696
 31
0.0
  0
ARC
  5
B1
  8
0
 62
     7
 10
163.867851
 20
233.7715729999999
 30
0.0
 40
0.20803
 50
92.226678000000007
 51
177.97052400000001
  0
LINE
  5
B2
  8
0
 62
     7
 10
164.25999999999991
 20
233.84499999999991
 30
0.0
 11
163.99299999999991
 21
233.84499999999991
 31
0.0
  0
LINE
  5
B3
  8
0
 62
     7
 10
163.99299999999991
 20
233.97900000000001
 30
0.0
 11
163.86000000000001
 21
233.97900000000001
 31
0.0
  0
LINE
  5
B4
  8
0
 62
     7
 10
164.25999999999991
 20
230.81200000000001
 30
0.0
 11
163.99299999999991
 21
230.81200000000001
 31
0.0
  0
LINE
  5
B5
  8
0
 62
     7
 10
163.99299999999991
 20
230.67899999999989
 30
0.0
 11
163.86000000000001
 21
230.67899999999989
 31
0.0
  0
ARC
  5
B6
  8
0
 62
     7
 10
163.86780200000001
 20
230.88687400000001
 30
0.0
 40
0.208006
 50
182.21357900000001
 51
267.786451
  0
LINE
  5
B7
  8
0
 62
     7
 10
160.86799999999991
 20
233.10400000000001
 30
0.0
 11
160.315
 21
233.10400000000001
 31
0.0
  0
LINE
  5
B8
  8
0
 62
     7
 10
160.86799999999991
 20
232.00700000000001
 30
0.0
 11
160.315
 21
232.00700000000001
 31
0.0
  0
LINE
  5
B9
  8
0
 62
     7
 10
160.86799999999991
 20
231.64199999999991
 30
0.0
 11
160.315
 21
231.64199999999991
 31
0.0
  0
LINE
  5
BA
  8
0
 62
     7
 10
160.86799999999991
 20
232.739
 30
0.0
 11
160.315
 21
232.739
 31
0.0
  0
LINE
  5
BB
  8
0
 62
     7
 10
160.86799999999991
 20
233.10400000000001
 30
0.0
 11
160.92500000000001
 21
233.00700000000001
 31
0.0
  0
LINE
  5
BC
  8
0
 62
     7
 10
160.86799999999991
 20
231.64199999999991
 30
0.0
 11
160.92500000000001
 21
231.74000000000001
 31
0.0
  0
ARC
  5
BD
  8
0
 62
     7
 10
160.6712179999999
 20
231.80572299999989
 30
0.0
 40
0.252364
 50
331.42057999999992
 51
354.46841699999999
  0
ARC
  5
BE
  8
0
 62
     7
 10
160.5891639999999
 20
231.820808
 30
0.0
 40
0.335566
 50
353.25508100000002
 51
33.795611999999991
  0
ARC
  5
BF
  8
0
 62
     7
 10
160.28955899999991
 20
232.22971699999999
 30
0.0
 40
0.6196970000000001
 50
338.98250300000001
 51
345.22813300000001
  0
ARC
  5
C0
  8
0
 62
     7
 10
159.86199099999999
 20
232.34282599999989
 30
0.0
 40
1.0619730000000001
 50
345.20903799999991
 51
358.27665000000002
  0
ARC
  5
C1
  8
0
 62
     7
 10
159.69393600000001
 20
232.36944099999999
 30
0.0
 40
1.2309410000000001
 50
357.27356900000001
 51
17.480993999999999
  0
ARC
  5
C2
  8
0
 62
     7
 10
160.669104
 20
232.89191099999999
 30
0.0
 40
0.250779
 50
322.487752
 51
345.62199800000002
  0
ARC
  5
C3
  8
0
 62
     7
 10
160.58873199999991
 20
232.91969900000001
 30
0.0
 40
0.335607
 50
344.43357400000002
 51
25.02506099999999
  0
LINE
  5
C4
  8
0
  6
AIGENLINE001
 62
     7
 10
165.673
 20
232.32900000000001
 30
0.0
 11
153.86099999999999
 21
232.32900000000001
 31
0.0
  0
LINE
  5
C5
  8
0
 62
     7
 10
156.76699999999991
 20
230.37
 30
0.0
 11
156.76699999999991
 21
234.28899999999999
 31
0.0
  0
LINE
  5
C6
  8
0
 62
     7
 10
157.12700000000001
 20
231.929
 30
0.0
 11
160.09999999999991
 21
231.929
 31
0.0
  0
LINE
  5
C7
  8
0
 62
     7
 10
157.12700000000001
 20
232.72999999999999
 30
0.0
 11
160.09999999999991
 21
232.72999999999999
 31
0.0
  0
LINE
  5
C8
  8
0
 62
     7
 10
156.92699999999999
 20
230.32900000000001
 30
0.0
 11
156.92699999999999
 21
232.32900000000001
 31
0.0
  0
LINE
  5
C9
  8
0
 62
     7
 10
156.92699999999999
 20
230.32900000000001
 30
0.0
 11
156.80699999999999
 21
230.32900000000001
 31
0.0
  0
LINE
  5
CA
  8
0
 62
     7
 10
156.96600000000001
 20
230.37
 30
0.0
 11
156.92699999999999
 21
230.32900000000001
 31
0.0
  0
LINE
  5
CB
  8
0
 62
     7
 10
156.80699999999999
 20
230.32900000000001
 30
0.0
 11
156.76699999999991
 21
230.37
 31
0.0
  0
LINE
  5
CC
  8
0
 62
     7
 10
156.80699999999999
 20
232.32900000000001
 30
0.0
 11
156.80699999999999
 21
230.32900000000001
 31
0.0
  0
LINE
  5
CD
  8
0
 62
     7
 10
156.96600000000001
 20
230.37
 30
0.0
 11
156.96600000000001
 21
232.32900000000001
 31
0.0
  0
LINE
  5
CE
  8
0
 62
     7
 10
156.96600000000001
 20
234.28899999999999
 30
0.0
 11
156.96600000000001
 21
232.32900000000001
 31
0.0
  0
LINE
  5
CF
  8
0
 62
     7
 10
156.80699999999999
 20
232.32900000000001
 30
0.0
 11
156.80699999999999
 21
234.32900000000001
 31
0.0
  0
LINE
  5
D0
  8
0
 62
     7
 10
156.80699999999999
 20
234.32900000000001
 30
0.0
 11
156.76699999999991
 21
234.28899999999999
 31
0.0
  0
LINE
  5
D1
  8
0
 62
     7
 10
156.96600000000001
 20
234.28899999999999
 30
0.0
 11
156.92699999999999
 21
234.32900000000001
 31
0.0
  0
LINE
  5
D2
  8
0
 62
     7
 10
156.92699999999999
 20
234.32900000000001
 30
0.0
 11
156.80699999999999
 21
234.32900000000001
 31
0.0
  0
LINE
  5
D3
  8
0
 62
     7
 10
156.92699999999999
 20
234.32900000000001
 30
0.0
 11
156.92699999999999
 21
232.32900000000001
 31
0.0
  0
LINE
  5
D4
  8
0
 62
     7
 10
160.25999999999991
 20
232.90599999999989
 30
0.0
 11
160.20699999999991
 21
232.999
 31
0.0
  0
ARC
  5
D5
  8
0
 62
     7
 10
160.10924900000001
 20
232.88449799999989
 30
0.0
 40
0.155231
 50
266.498152
 51
346.68883999999991
  0
ARC
  5
D6
  8
0
 62
     7
 10
159.857936
 20
232.35046199999999
 30
0.0
 40
0.402933
 50
356.98006800000002
 51
15.538855999999999
  0
ARC
  5
D7
  8
0
 62
     7
 10
159.651702
 20
232.31259600000001
 30
0.0
 40
0.612061
 50
13.781806
 51
42.940637999999993
  0
LINE
  5
D8
  8
0
 62
     7
 10
160.25999999999991
 20
232.90599999999989
 30
0.0
 11
160.25999999999991
 21
232.32900000000001
 31
0.0
  0
LINE
  5
D9
  8
0
 62
     7
 10
160.92500000000001
 20
231.74000000000001
 30
0.0
 11
160.92500000000001
 21
233.00700000000001
 31
0.0
  0
LINE
  5
DA
  8
0
 62
     7
 10
160.25999999999991
 20
231.75099999999989
 30
0.0
 11
160.25999999999991
 21
232.32900000000001
 31
0.0
  0
ARC
  5
DB
  8
0
 62
     7
 10
159.83170200000001
 20
232.21696099999991
 30
0.0
 40
0.393486
 50
312.94193899999988
 51
331.88138099999998
  0
ARC
  5
DC
  8
0
 62
     7
 10
159.64582999999999
 20
232.33754099999999
 30
0.0
 40
0.6145360000000001
 50
330.133196
 51
359.22547700000001
  0
ARC
  5
DD
  8
0
 62
     7
 10
160.10830799999991
 20
231.77291399999999
 30
0.0
 40
0.156231
 50
13.362655999999999
 51
93.133970000000005
  0
LINE
  5
DE
  8
0
 62
     7
 10
160.25999999999991
 20
231.75099999999989
 30
0.0
 11
160.20699999999991
 21
231.65899999999999
 31
0.0
  0
LINE
  5
DF
  8
0
 62
     7
 10
157.03399999999991
 20
232.999
 30
0.0
 11
160.20699999999991
 21
232.999
 31
0.0
  0
ARC
  5
E0
  8
0
 62
     7
 10
157.036464
 20
231.58871699999989
 30
0.0
 40
0.070142
 50
92.048043999999976
 51
176.77061199999989
  0
LINE
  5
E1
  8
0
 62
     7
 10
156.96600000000001
 20
231.75099999999989
 30
0.0
 11
157.0199999999999
 21
231.65899999999999
 31
0.0
  0
LINE
  5
E2
  8
0
 62
     7
 10
157.03399999999991
 20
231.65899999999999
 30
0.0
 11
160.20699999999991
 21
231.65899999999999
 31
0.0
  0
ARC
  5
E3
  8
0
 62
     7
 10
157.11669299999991
 20
231.7752449999999
 30
0.0
 40
0.15401
 50
86.172042000000005
 51
167.33129199999991
  0
LINE
  5
E4
  8
0
 62
     7
 10
156.96600000000001
 20
231.75099999999989
 30
0.0
 11
156.96600000000001
 21
232.32900000000001
 31
0.0
  0
ARC
  5
E5
  8
0
 62
     7
 10
157.369598
 20
232.30796699999991
 30
0.0
 40
0.4037250000000001
 50
176.98040700000001
 51
195.5240409999999
  0
ARC
  5
E6
  8
0
 62
     7
 10
157.57341099999999
 20
232.3450729999999
 30
0.0
 40
0.610324
 50
193.75916699999991
 51
222.98995500000001
  0
ARC
  5
E7
  8
0
 62
     7
 10
157.40324199999989
 20
232.435756
 30
0.0
 40
0.403289
 50
133.238168
 51
151.7475499999999
  0
ARC
  5
E8
  8
0
 62
     7
 10
157.580352
 20
232.32077100000001
 30
0.0
 40
0.6139770000000001
 50
150.1188699999999
 51
179.21016900000001
  0
LINE
  5
E9
  8
0
 62
     7
 10
156.96600000000001
 20
232.90599999999989
 30
0.0
 11
156.96600000000001
 21
232.32900000000001
 31
0.0
  0
ARC
  5
EA
  8
0
 62
     7
 10
157.117662
 20
232.88472400000001
 30
0.0
 40
0.155447
 50
193.3780439999999
 51
273.43500299999988
  0
LINE
  5
EB
  8
0
 62
     7
 10
156.96600000000001
 20
232.90599999999989
 30
0.0
 11
157.0199999999999
 21
232.999
 31
0.0
  0
ARC
  5
EC
  8
0
 62
     7
 10
157.03585399999989
 20
233.06840899999989
 30
0.0
 40
0.06947
 50
182.152109
 51
268.435565
  0
LINE
  5
ED
  8
0
 62
     7
 10
160.315
 20
233.10400000000001
 30
0.0
 11
160.2579999999999
 21
233.00700000000001
 31
0.0
  0
LINE
  5
EE
  8
0
 62
     7
 10
160.315
 20
231.64199999999991
 30
0.0
 11
160.2579999999999
 21
231.74000000000001
 31
0.0
  0
ARC
  5
EF
  8
0
 62
     7
 10
161.00828000000001
 20
232.47658100000001
 30
0.0
 40
0.741596
 50
159.2597669999999
 51
172.82148199999989
  0
ARC
  5
F0
  8
0
 62
     7
 10
161.5410259999999
 20
232.38215899999989
 30
0.0
 40
1.2822519999999991
 50
171.61004199999999
 51
196.9908649999999
  0
ARC
  5
F1
  8
0
 62
     7
 10
160.51179799999991
 20
231.85617999999991
 30
0.0
 40
0.248429
 50
142.486378
 51
165.884049
  0
ARC
  5
F2
  8
0
 62
     7
 10
160.59707
 20
231.826933
 30
0.0
 40
0.338344
 50
164.6025479999999
 51
204.80314200000001
  0
LINE
  5
F3
  8
0
 62
     7
 10
160.2579999999999
 20
233.00700000000001
 30
0.0
 11
160.2579999999999
 21
231.74000000000001
 31
0.0
  0
ARC
  5
F4
  8
0
 62
     7
 10
160.52294900000001
 20
232.93828099999999
 30
0.0
 40
0.263664
 50
152.09776500000001
 51
174.84460699999991
  0
ARC
  5
F5
  8
0
 62
     7
 10
160.5928449999999
 20
232.92512699999989
 30
0.0
 40
0.3345280000000001
 50
173.67642699999999
 51
213.76451800000001
  0
LINE
  5
F6
  8
0
 62
     7
 10
163.559
 20
163.494
 30
0.0
 11
163.559
 21
165.16099999999989
 31
0.0
  0
LINE
  5
F7
  8
0
 62
     7
 10
163.66
 20
163.494
 30
0.0
 11
163.559
 21
163.494
 31
0.0
  0
LINE
  5
F8
  8
0
 62
     7
 10
163.66
 20
165.16099999999989
 30
0.0
 11
163.559
 21
165.16099999999989
 31
0.0
  0
LINE
  5
F9
  8
0
 62
     7
 10
163.99299999999991
 20
165.84399999999999
 30
0.0
 11
163.99299999999991
 21
162.678
 31
0.0
  0
LINE
  5
FA
  8
0
 62
     7
 10
163.99299999999991
 20
164.328
 30
0.0
 11
163.99299999999991
 21
165.97799999999989
 31
0.0
  0
LINE
  5
FB
  8
0
 62
     7
 10
163.66
 20
162.8779999999999
 30
0.0
 11
163.66
 21
165.77799999999991
 31
0.0
  0
LINE
  5
FC
  8
0
 62
     7
 10
164.25999999999991
 20
165.84399999999999
 30
0.0
 11
164.25999999999991
 21
162.81100000000001
 31
0.0
  0
ARC
  5
FD
  8
0
 62
     7
 10
163.405148
 20
164.73051799999999
 30
0.0
 40
0.176664
 50
129.53112399999989
 51
215.32297999999989
  0
ARC
  5
FE
  8
0
 62
     7
 10
163.418397
 20
164.7540689999999
 30
0.0
 40
0.201422
 50
218.611615
 51
231.3884149999999
  0
ARC
  5
FF
  8
0
 62
     7
 10
163.40543700000001
 20
163.922156
 30
0.0
 40
0.176424
 50
129.717412
 51
215.049666
  0
ARC
  5
100
  8
0
 62
     7
 10
163.4243459999999
 20
163.94900000000001
 30
0.0
 40
0.207618
 50
218.11897400000001
 51
230.64893599999999
  0
LINE
  5
101
  8
0
 62
     7
 10
163.226
 20
164.01300000000001
 30
0.0
 11
163.226
 21
163.92299999999989
 31
0.0
  0
ARC
  5
102
  8
0
 62
     7
 10
163.65325100000001
 20
164.3808149999999
 30
0.0
 40
0.4202290000000001
 50
149.09068199999999
 51
167.01957899999999
  0
ARC
  5
103
  8
0
 62
     7
 10
163.8289879999999
 20
164.33229399999999
 30
0.0
 40
0.6024250000000001
 50
166.27707000000001
 51
207.10006499999989
  0
LINE
  5
104
  8
0
 62
     7
 10
163.226
 20
164.732
 30
0.0
 11
163.226
 21
163.92299999999989
 31
0.0
  0
LINE
  5
105
  8
0
 62
     7
 10
163.559
 20
163.7879999999999
 30
0.0
 11
163.29299999999989
 21
163.7879999999999
 31
0.0
  0
LINE
  5
106
  8
0
 62
     7
 10
163.559
 20
164.86699999999999
 30
0.0
 11
163.29299999999989
 21
164.86699999999999
 31
0.0
  0
LINE
  5
107
  8
0
 62
     7
 10
163.559
 20
164.05799999999991
 30
0.0
 11
163.29299999999989
 21
164.05799999999991
 31
0.0
  0
LINE
  5
108
  8
0
 62
     7
 10
163.559
 20
164.59700000000001
 30
0.0
 11
163.29299999999989
 21
164.59700000000001
 31
0.0
  0
LINE
  5
109
  8
0
 62
     7
 10
163.1329999999999
 20
164.72799999999989
 30
0.0
 11
163.1329999999999
 21
163.928
 31
0.0
  0
LINE
  5
10A
  8
0
 62
     7
 10
163.1329999999999
 20
163.994
 30
0.0
 11
160.92500000000001
 21
163.994
 31
0.0
  0
LINE
  5
10B
  8
0
 62
     7
 10
163.1329999999999
 20
164.66099999999989
 30
0.0
 11
160.92500000000001
 21
164.66099999999989
 31
0.0
  0
LINE
  5
10C
  8
0
 62
     7
 10
163.1329999999999
 20
164.72799999999989
 30
0.0
 11
160.92500000000001
 21
164.72799999999989
 31
0.0
  0
LINE
  5
10D
  8
0
 62
     7
 10
163.1329999999999
 20
163.928
 30
0.0
 11
160.92500000000001
 21
163.928
 31
0.0
  0
LINE
  5
10E
  8
0
 62
     7
 10
163.226
 20
163.9609999999999
 30
0.0
 11
163.1329999999999
 21
163.9609999999999
 31
0.0
  0
LINE
  5
10F
  8
0
 62
     7
 10
163.226
 20
164.69499999999991
 30
0.0
 11
163.1329999999999
 21
164.69499999999991
 31
0.0
  0
ARC
  5
110
  8
0
 62
     7
 10
163.867851
 20
165.770298
 30
0.0
 40
0.20803
 50
92.226678000000007
 51
177.97052400000001
  0
LINE
  5
111
  8
0
 62
     7
 10
164.25999999999991
 20
165.84399999999999
 30
0.0
 11
163.99299999999991
 21
165.84399999999999
 31
0.0
  0
LINE
  5
112
  8
0
 62
     7
 10
163.99299999999991
 20
165.97799999999989
 30
0.0
 11
163.86000000000001
 21
165.97799999999989
 31
0.0
  0
LINE
  5
113
  8
0
 62
     7
 10
164.25999999999991
 20
162.81100000000001
 30
0.0
 11
163.99299999999991
 21
162.81100000000001
 31
0.0
  0
LINE
  5
114
  8
0
 62
     7
 10
163.99299999999991
 20
162.678
 30
0.0
 11
163.86000000000001
 21
162.678
 31
0.0
  0
ARC
  5
115
  8
0
 62
     7
 10
163.86780200000001
 20
162.8855989999999
 30
0.0
 40
0.208006
 50
182.21357900000001
 51
267.786451
  0
LINE
  5
116
  8
0
 62
     7
 10
160.86799999999991
 20
165.10299999999989
 30
0.0
 11
160.315
 21
165.10299999999989
 31
0.0
  0
LINE
  5
117
  8
0
 62
     7
 10
160.86799999999991
 20
164.00599999999989
 30
0.0
 11
160.315
 21
164.00599999999989
 31
0.0
  0
LINE
  5
118
  8
0
 62
     7
 10
160.86799999999991
 20
163.64099999999991
 30
0.0
 11
160.315
 21
163.64099999999991
 31
0.0
  0
LINE
  5
119
  8
0
 62
     7
 10
160.86799999999991
 20
164.738
 30
0.0
 11
160.315
 21
164.738
 31
0.0
  0
LINE
  5
11A
  8
0
 62
     7
 10
160.86799999999991
 20
165.10299999999989
 30
0.0
 11
160.92500000000001
 21
165.005
 31
0.0
  0
LINE
  5
11B
  8
0
 62
     7
 10
160.86799999999991
 20
163.64099999999991
 30
0.0
 11
160.92500000000001
 21
163.739
 31
0.0
  0
ARC
  5
11C
  8
0
 62
     7
 10
160.67367699999991
 20
163.80369599999989
 30
0.0
 40
0.249846
 50
331.30220600000001
 51
354.58320099999992
  0
ARC
  5
11D
  8
0
 62
     7
 10
160.58912799999999
 20
163.81952200000001
 30
0.0
 40
0.335602
 50
353.25578499999989
 51
33.79366799999999
  0
ARC
  5
11E
  8
0
 62
     7
 10
160.18179900000001
 20
164.26865299999989
 30
0.0
 40
0.7347100000000001
 50
339.06925000000001
 51
352.76605199999989
  0
ARC
  5
11F
  8
0
 62
     7
 10
159.65373299999999
 20
164.3632639999999
 30
0.0
 40
1.2707809999999991
 50
351.53220099999987
 51
17.147313
  0
ARC
  5
120
  8
0
 62
     7
 10
160.669104
 20
164.89063599999989
 30
0.0
 40
0.250779
 50
322.487752
 51
345.62199800000002
  0
ARC
  5
121
  8
0
 62
     7
 10
160.588795
 20
164.91842999999989
 30
0.0
 40
0.335548
 50
344.42983099999992
 51
25.028804000000001
  0
LINE
  5
122
  8
0
  6
AIGENLINE001
 62
     7
 10
165.673
 20
164.328
 30
0.0
 11
153.86099999999999
 21
164.328
 31
0.0
  0
LINE
  5
123
  8
0
 62
     7
 10
156.76699999999991
 20
162.36799999999999
 30
0.0
 11
156.76699999999991
 21
166.2879999999999
 31
0.0
  0
LINE
  5
124
  8
0
 62
     7
 10
157.12700000000001
 20
163.928
 30
0.0
 11
160.09999999999991
 21
163.928
 31
0.0
  0
LINE
  5
125
  8
0
 62
     7
 10
157.12700000000001
 20
164.72799999999989
 30
0.0
 11
160.09999999999991
 21
164.72799999999989
 31
0.0
  0
LINE
  5
126
  8
0
 62
     7
 10
156.92699999999999
 20
162.328
 30
0.0
 11
156.92699999999999
 21
164.328
 31
0.0
  0
LINE
  5
127
  8
0
 62
     7
 10
156.92699999999999
 20
162.328
 30
0.0
 11
156.80699999999999
 21
162.328
 31
0.0
  0
LINE
  5
128
  8
0
 62
     7
 10
156.96600000000001
 20
162.36799999999999
 30
0.0
 11
156.92699999999999
 21
162.328
 31
0.0
  0
LINE
  5
129
  8
0
 62
     7
 10
156.80699999999999
 20
162.328
 30
0.0
 11
156.76699999999991
 21
162.36799999999999
 31
0.0
  0
LINE
  5
12A
  8
0
 62
     7
 10
156.80699999999999
 20
164.328
 30
0.0
 11
156.80699999999999
 21
162.328
 31
0.0
  0
LINE
  5
12B
  8
0
 62
     7
 10
156.96600000000001
 20
162.36799999999999
 30
0.0
 11
156.96600000000001
 21
164.328
 31
0.0
  0
LINE
  5
12C
  8
0
 62
     7
 10
156.96600000000001
 20
166.2879999999999
 30
0.0
 11
156.96600000000001
 21
164.328
 31
0.0
  0
LINE
  5
12D
  8
0
 62
     7
 10
156.80699999999999
 20
164.328
 30
0.0
 11
156.80699999999999
 21
166.328
 31
0.0
  0
LINE
  5
12E
  8
0
 62
     7
 10
156.80699999999999
 20
166.328
 30
0.0
 11
156.76699999999991
 21
166.2879999999999
 31
0.0
  0
LINE
  5
12F
  8
0
 62
     7
 10
156.96600000000001
 20
166.2879999999999
 30
0.0
 11
156.92699999999999
 21
166.328
 31
0.0
  0
LINE
  5
130
  8
0
 62
     7
 10
156.92699999999999
 20
166.328
 30
0.0
 11
156.80699999999999
 21
166.328
 31
0.0
  0
LINE
  5
131
  8
0
 62
     7
 10
156.92699999999999
 20
166.328
 30
0.0
 11
156.92699999999999
 21
164.328
 31
0.0
  0
LINE
  5
132
  8
0
 62
     7
 10
160.25999999999991
 20
164.905
 30
0.0
 11
160.20699999999991
 21
164.99799999999999
 31
0.0
  0
ARC
  5
133
  8
0
 62
     7
 10
160.10924900000001
 20
164.88322299999999
 30
0.0
 40
0.155231
 50
266.498152
 51
346.68883999999991
  0
ARC
  5
134
  8
0
 62
     7
 10
159.85787899999991
 20
164.34918999999991
 30
0.0
 40
0.4029900000000001
 50
356.98009500000001
 51
15.537793999999989
  0
ARC
  5
135
  8
0
 62
     7
 10
159.65158099999991
 20
164.31124999999989
 30
0.0
 40
0.6121979999999999
 50
13.786557999999991
 51
42.937789000000002
  0
LINE
  5
136
  8
0
 62
     7
 10
160.25999999999991
 20
164.905
 30
0.0
 11
160.25999999999991
 21
164.328
 31
0.0
  0
LINE
  5
137
  8
0
 62
     7
 10
160.92500000000001
 20
163.739
 30
0.0
 11
160.92500000000001
 21
165.005
 31
0.0
  0
LINE
  5
138
  8
0
 62
     7
 10
160.25999999999991
 20
163.75
 30
0.0
 11
160.25999999999991
 21
164.328
 31
0.0
  0
ARC
  5
139
  8
0
 62
     7
 10
159.83170200000001
 20
164.21568600000001
 30
0.0
 40
0.393486
 50
312.94193899999988
 51
331.88138099999998
  0
ARC
  5
13A
  8
0
 62
     7
 10
159.64612199999991
 20
164.33618599999991
 30
0.0
 40
0.614243
 50
330.12610799999987
 51
359.23256499999991
  0
ARC
  5
13B
  8
0
 62
     7
 10
160.10830799999991
 20
163.77163999999991
 30
0.0
 40
0.156231
 50
13.362655999999999
 51
93.133970000000005
  0
LINE
  5
13C
  8
0
 62
     7
 10
160.25999999999991
 20
163.75
 30
0.0
 11
160.20699999999991
 21
163.6579999999999
 31
0.0
  0
LINE
  5
13D
  8
0
 62
     7
 10
157.03399999999991
 20
164.99799999999999
 30
0.0
 11
160.20699999999991
 21
164.99799999999999
 31
0.0
  0
ARC
  5
13E
  8
0
 62
     7
 10
157.036464
 20
163.5874419999999
 30
0.0
 40
0.070142
 50
92.048043999999976
 51
176.77061199999989
  0
LINE
  5
13F
  8
0
 62
     7
 10
156.96600000000001
 20
163.75
 30
0.0
 11
157.0199999999999
 21
163.6579999999999
 31
0.0
  0
LINE
  5
140
  8
0
 62
     7
 10
157.03399999999991
 20
163.6579999999999
 30
0.0
 11
160.20699999999991
 21
163.6579999999999
 31
0.0
  0
ARC
  5
141
  8
0
 62
     7
 10
157.116308
 20
163.77448699999999
 30
0.0
 40
0.153521
 50
86.015563
 51
167.48777100000001
  0
LINE
  5
142
  8
0
 62
     7
 10
156.96600000000001
 20
163.75
 30
0.0
 11
156.96600000000001
 21
164.328
 31
0.0
  0
ARC
  5
143
  8
0
 62
     7
 10
157.369541
 20
164.30669499999991
 30
0.0
 40
0.403669
 50
176.98038
 51
195.52510100000001
  0
ARC
  5
144
  8
0
 62
     7
 10
157.5732909999999
 20
164.343728
 30
0.0
 40
0.6101880000000001
 50
193.754424
 51
222.992795
  0
ARC
  5
145
  8
0
 62
     7
 10
157.39817500000001
 20
164.43836999999991
 30
0.0
 40
0.396986
 50
133.08990800000001
 51
151.89581000000001
  0
ARC
  5
146
  8
0
 62
     7
 10
157.5806429999999
 20
164.31941599999999
 30
0.0
 40
0.61427
 50
150.12596099999999
 51
179.20307700000001
  0
LINE
  5
147
  8
0
 62
     7
 10
156.96600000000001
 20
164.905
 30
0.0
 11
156.96600000000001
 21
164.328
 31
0.0
  0
ARC
  5
148
  8
0
 62
     7
 10
157.117662
 20
164.88345000000001
 30
0.0
 40
0.155447
 50
193.3780439999999
 51
273.43500299999988
  0
LINE
  5
149
  8
0
 62
     7
 10
156.96600000000001
 20
164.905
 30
0.0
 11
157.0199999999999
 21
164.99799999999999
 31
0.0
  0
ARC
  5
14A
  8
0
 62
     7
 10
157.03585399999989
 20
165.06713400000001
 30
0.0
 40
0.06947
 50
182.152109
 51
268.435565
  0
LINE
  5
14B
  8
0
 62
     7
 10
160.315
 20
165.10299999999989
 30
0.0
 11
160.2579999999999
 21
165.005
 31
0.0
  0
LINE
  5
14C
  8
0
 62
     7
 10
160.315
 20
163.64099999999991
 30
0.0
 11
160.2579999999999
 21
163.739
 31
0.0
  0
ARC
  5
14D
  8
0
 62
     7
 10
161.01301499999991
 20
164.47412899999989
 30
0.0
 40
0.7464420000000001
 50
159.30399099999991
 51
172.77725799999999
  0
ARC
  5
14E
  8
0
 62
     7
 10
161.5409249999999
 20
164.38087599999989
 30
0.0
 40
1.282154
 50
171.60905099999991
 51
196.9918559999999
  0
ARC
  5
14F
  8
0
 62
     7
 10
160.51177300000001
 20
163.85492400000001
 30
0.0
 40
0.248397
 50
142.486368
 51
165.8893909999999
  0
ARC
  5
150
  8
0
 62
     7
 10
160.59698599999999
 20
163.82564699999989
 30
0.0
 40
0.338262
 50
164.5986959999999
 51
204.80742799999999
  0
LINE
  5
151
  8
0
 62
     7
 10
160.2579999999999
 20
165.005
 30
0.0
 11
160.2579999999999
 21
163.739
 31
0.0
  0
ARC
  5
152
  8
0
 62
     7
 10
160.52296000000001
 20
164.93700000000001
 30
0.0
 40
0.263676
 50
152.09776099999999
 51
174.84123600000001
  0
ARC
  5
153
  8
0
 62
     7
 10
160.59287399999991
 20
164.92386099999999
 30
0.0
 40
0.334557
 50
173.676647
 51
213.76302199999989
  0
LINE
  5
154
  8
0
 62
     7
 10
163.559
 20
118.161
 30
0.0
 11
163.559
 21
119.827
 31
0.0
  0
LINE
  5
155
  8
0
 62
     7
 10
163.66
 20
118.161
 30
0.0
 11
163.559
 21
118.161
 31
0.0
  0
LINE
  5
156
  8
0
 62
     7
 10
163.66
 20
119.827
 30
0.0
 11
163.559
 21
119.827
 31
0.0
  0
LINE
  5
157
  8
0
 62
     7
 10
163.99299999999991
 20
120.51000000000001
 30
0.0
 11
163.99299999999991
 21
117.34399999999999
 31
0.0
  0
LINE
  5
158
  8
0
 62
     7
 10
163.99299999999991
 20
118.9939999999999
 30
0.0
 11
163.99299999999991
 21
120.645
 31
0.0
  0
LINE
  5
159
  8
0
 62
     7
 10
163.66
 20
117.544
 30
0.0
 11
163.66
 21
120.4439999999999
 31
0.0
  0
LINE
  5
15A
  8
0
 62
     7
 10
164.25999999999991
 20
120.51000000000001
 30
0.0
 11
164.25999999999991
 21
117.477
 31
0.0
  0
ARC
  5
15B
  8
0
 62
     7
 10
163.405148
 20
119.39690899999999
 30
0.0
 40
0.176664
 50
129.53112399999989
 51
215.32297999999989
  0
ARC
  5
15C
  8
0
 62
     7
 10
163.418397
 20
119.42046000000001
 30
0.0
 40
0.201422
 50
218.611615
 51
231.3884149999999
  0
ARC
  5
15D
  8
0
 62
     7
 10
163.40543700000001
 20
118.58854699999991
 30
0.0
 40
0.176424
 50
129.717412
 51
215.049666
  0
ARC
  5
15E
  8
0
 62
     7
 10
163.4243459999999
 20
118.6153909999999
 30
0.0
 40
0.207618
 50
218.11897400000001
 51
230.64893599999999
  0
LINE
  5
15F
  8
0
 62
     7
 10
163.226
 20
118.679
 30
0.0
 11
163.226
 21
118.589
 31
0.0
  0
ARC
  5
160
  8
0
 62
     7
 10
163.65325100000001
 20
119.047206
 30
0.0
 40
0.4202290000000001
 50
149.09068199999999
 51
167.01957899999999
  0
ARC
  5
161
  8
0
 62
     7
 10
163.8289879999999
 20
118.99868499999999
 30
0.0
 40
0.6024250000000001
 50
166.27707000000001
 51
207.10006499999989
  0
LINE
  5
162
  8
0
 62
     7
 10
163.226
 20
119.399
 30
0.0
 11
163.226
 21
118.589
 31
0.0
  0
LINE
  5
163
  8
0
 62
     7
 10
163.559
 20
118.4549999999999
 30
0.0
 11
163.29299999999989
 21
118.4549999999999
 31
0.0
  0
LINE
  5
164
  8
0
 62
     7
 10
163.559
 20
119.533
 30
0.0
 11
163.29299999999989
 21
119.533
 31
0.0
  0
LINE
  5
165
  8
0
 62
     7
 10
163.559
 20
118.7239999999999
 30
0.0
 11
163.29299999999989
 21
118.7239999999999
 31
0.0
  0
LINE
  5
166
  8
0
 62
     7
 10
163.559
 20
119.26299999999991
 30
0.0
 11
163.29299999999989
 21
119.26299999999991
 31
0.0
  0
LINE
  5
167
  8
0
 62
     7
 10
163.1329999999999
 20
119.395
 30
0.0
 11
163.1329999999999
 21
118.59399999999989
 31
0.0
  0
LINE
  5
168
  8
0
 62
     7
 10
163.1329999999999
 20
118.6609999999999
 30
0.0
 11
160.92500000000001
 21
118.6609999999999
 31
0.0
  0
LINE
  5
169
  8
0
 62
     7
 10
163.1329999999999
 20
119.327
 30
0.0
 11
160.92500000000001
 21
119.327
 31
0.0
  0
LINE
  5
16A
  8
0
 62
     7
 10
163.1329999999999
 20
119.395
 30
0.0
 11
160.92500000000001
 21
119.395
 31
0.0
  0
LINE
  5
16B
  8
0
 62
     7
 10
163.1329999999999
 20
118.59399999999989
 30
0.0
 11
160.92500000000001
 21
118.59399999999989
 31
0.0
  0
LINE
  5
16C
  8
0
 62
     7
 10
163.226
 20
118.627
 30
0.0
 11
163.1329999999999
 21
118.627
 31
0.0
  0
LINE
  5
16D
  8
0
 62
     7
 10
163.226
 20
119.361
 30
0.0
 11
163.1329999999999
 21
119.361
 31
0.0
  0
ARC
  5
16E
  8
0
 62
     7
 10
163.867851
 20
120.4366889999999
 30
0.0
 40
0.20803
 50
92.226678000000007
 51
177.97052400000001
  0
LINE
  5
16F
  8
0
 62
     7
 10
164.25999999999991
 20
120.51000000000001
 30
0.0
 11
163.99299999999991
 21
120.51000000000001
 31
0.0
  0
LINE
  5
170
  8
0
 62
     7
 10
163.99299999999991
 20
120.645
 30
0.0
 11
163.86000000000001
 21
120.645
 31
0.0
  0
LINE
  5
171
  8
0
 62
     7
 10
164.25999999999991
 20
117.477
 30
0.0
 11
163.99299999999991
 21
117.477
 31
0.0
  0
LINE
  5
172
  8
0
 62
     7
 10
163.99299999999991
 20
117.34399999999999
 30
0.0
 11
163.86000000000001
 21
117.34399999999999
 31
0.0
  0
ARC
  5
173
  8
0
 62
     7
 10
163.86780200000001
 20
117.5519899999999
 30
0.0
 40
0.208006
 50
182.21357900000001
 51
267.786451
  0
LINE
  5
174
  8
0
 62
     7
 10
160.86799999999991
 20
119.7699999999999
 30
0.0
 11
160.315
 21
119.7699999999999
 31
0.0
  0
LINE
  5
175
  8
0
 62
     7
 10
160.86799999999991
 20
118.6729999999999
 30
0.0
 11
160.315
 21
118.6729999999999
 31
0.0
  0
LINE
  5
176
  8
0
 62
     7
 10
160.86799999999991
 20
118.307
 30
0.0
 11
160.315
 21
118.307
 31
0.0
  0
LINE
  5
177
  8
0
 62
     7
 10
160.86799999999991
 20
119.4039999999999
 30
0.0
 11
160.315
 21
119.4039999999999
 31
0.0
  0
LINE
  5
178
  8
0
 62
     7
 10
160.86799999999991
 20
119.7699999999999
 30
0.0
 11
160.92500000000001
 21
119.672
 31
0.0
  0
LINE
  5
179
  8
0
 62
     7
 10
160.86799999999991
 20
118.307
 30
0.0
 11
160.92500000000001
 21
118.405
 31
0.0
  0
ARC
  5
17A
  8
0
 62
     7
 10
160.67367699999991
 20
118.47008700000001
 30
0.0
 40
0.249846
 50
331.30220600000001
 51
354.58320099999992
  0
ARC
  5
17B
  8
0
 62
     7
 10
160.58912799999999
 20
118.4859129999999
 30
0.0
 40
0.335602
 50
353.25578499999989
 51
33.79366799999999
  0
ARC
  5
17C
  8
0
 62
     7
 10
160.18179900000001
 20
118.93504399999991
 30
0.0
 40
0.7347100000000001
 50
339.06925000000001
 51
352.76605199999989
  0
ARC
  5
17D
  8
0
 62
     7
 10
159.65373299999999
 20
119.02965500000001
 30
0.0
 40
1.2707809999999991
 50
351.53220099999987
 51
17.147313
  0
ARC
  5
17E
  8
0
 62
     7
 10
160.669104
 20
119.55702700000001
 30
0.0
 40
0.250779
 50
322.487752
 51
345.62199800000002
  0
ARC
  5
17F
  8
0
 62
     7
 10
160.588795
 20
119.58482099999991
 30
0.0
 40
0.335548
 50
344.42983099999992
 51
25.028804000000001
  0
LINE
  5
180
  8
0
  6
AIGENLINE001
 62
     7
 10
165.673
 20
118.9939999999999
 30
0.0
 11
153.86099999999999
 21
118.9939999999999
 31
0.0
  0
LINE
  5
181
  8
0
 62
     7
 10
156.76699999999991
 20
117.035
 30
0.0
 11
156.76699999999991
 21
120.95399999999999
 31
0.0
  0
LINE
  5
182
  8
0
 62
     7
 10
157.12700000000001
 20
118.59399999999989
 30
0.0
 11
160.09999999999991
 21
118.59399999999989
 31
0.0
  0
LINE
  5
183
  8
0
 62
     7
 10
157.12700000000001
 20
119.395
 30
0.0
 11
160.09999999999991
 21
119.395
 31
0.0
  0
LINE
  5
184
  8
0
 62
     7
 10
156.92699999999999
 20
116.9939999999999
 30
0.0
 11
156.92699999999999
 21
118.9939999999999
 31
0.0
  0
LINE
  5
185
  8
0
 62
     7
 10
156.92699999999999
 20
116.9939999999999
 30
0.0
 11
156.80699999999999
 21
116.9939999999999
 31
0.0
  0
LINE
  5
186
  8
0
 62
     7
 10
156.96600000000001
 20
117.035
 30
0.0
 11
156.92699999999999
 21
116.9939999999999
 31
0.0
  0
LINE
  5
187
  8
0
 62
     7
 10
156.80699999999999
 20
116.9939999999999
 30
0.0
 11
156.76699999999991
 21
117.035
 31
0.0
  0
LINE
  5
188
  8
0
 62
     7
 10
156.80699999999999
 20
118.9939999999999
 30
0.0
 11
156.80699999999999
 21
116.9939999999999
 31
0.0
  0
LINE
  5
189
  8
0
 62
     7
 10
156.96600000000001
 20
117.035
 30
0.0
 11
156.96600000000001
 21
118.9939999999999
 31
0.0
  0
LINE
  5
18A
  8
0
 62
     7
 10
156.96600000000001
 20
120.95399999999999
 30
0.0
 11
156.96600000000001
 21
118.9939999999999
 31
0.0
  0
LINE
  5
18B
  8
0
 62
     7
 10
156.80699999999999
 20
118.9939999999999
 30
0.0
 11
156.80699999999999
 21
120.994
 31
0.0
  0
LINE
  5
18C
  8
0
 62
     7
 10
156.80699999999999
 20
120.994
 30
0.0
 11
156.76699999999991
 21
120.95399999999999
 31
0.0
  0
LINE
  5
18D
  8
0
 62
     7
 10
156.96600000000001
 20
120.95399999999999
 30
0.0
 11
156.92699999999999
 21
120.994
 31
0.0
  0
LINE
  5
18E
  8
0
 62
     7
 10
156.92699999999999
 20
120.994
 30
0.0
 11
156.80699999999999
 21
120.994
 31
0.0
  0
LINE
  5
18F
  8
0
 62
     7
 10
156.92699999999999
 20
120.994
 30
0.0
 11
156.92699999999999
 21
118.9939999999999
 31
0.0
  0
LINE
  5
190
  8
0
 62
     7
 10
160.25999999999991
 20
119.571
 30
0.0
 11
160.20699999999991
 21
119.664
 31
0.0
  0
ARC
  5
191
  8
0
 62
     7
 10
160.10924900000001
 20
119.54961399999991
 30
0.0
 40
0.155231
 50
266.498152
 51
346.68883999999991
  0
ARC
  5
192
  8
0
 62
     7
 10
159.85787899999991
 20
119.015581
 30
0.0
 40
0.4029900000000001
 50
356.98009500000001
 51
15.537793999999989
  0
ARC
  5
193
  8
0
 62
     7
 10
159.65158099999991
 20
118.97764099999991
 30
0.0
 40
0.6121979999999999
 50
13.786557999999991
 51
42.937789000000002
  0
LINE
  5
194
  8
0
 62
     7
 10
160.25999999999991
 20
119.571
 30
0.0
 11
160.25999999999991
 21
118.9939999999999
 31
0.0
  0
LINE
  5
195
  8
0
 62
     7
 10
160.92500000000001
 20
118.405
 30
0.0
 11
160.92500000000001
 21
119.672
 31
0.0
  0
LINE
  5
196
  8
0
 62
     7
 10
160.25999999999991
 20
118.416
 30
0.0
 11
160.25999999999991
 21
118.9939999999999
 31
0.0
  0
ARC
  5
197
  8
0
 62
     7
 10
159.83170200000001
 20
118.8820769999999
 30
0.0
 40
0.393486
 50
312.94193899999988
 51
331.88138099999998
  0
ARC
  5
198
  8
0
 62
     7
 10
159.64612199999991
 20
119.002577
 30
0.0
 40
0.614243
 50
330.12610799999987
 51
359.23256499999991
  0
ARC
  5
199
  8
0
 62
     7
 10
160.10830799999991
 20
118.4380299999999
 30
0.0
 40
0.156231
 50
13.362655999999999
 51
93.133970000000005
  0
LINE
  5
19A
  8
0
 62
     7
 10
160.25999999999991
 20
118.416
 30
0.0
 11
160.20699999999991
 21
118.324
 31
0.0
  0
LINE
  5
19B
  8
0
 62
     7
 10
157.03399999999991
 20
119.664
 30
0.0
 11
160.20699999999991
 21
119.664
 31
0.0
  0
ARC
  5
19C
  8
0
 62
     7
 10
157.036464
 20
118.253833
 30
0.0
 40
0.070142
 50
92.048043999999976
 51
176.77061199999989
  0
LINE
  5
19D
  8
0
 62
     7
 10
156.96600000000001
 20
118.416
 30
0.0
 11
157.0199999999999
 21
118.324
 31
0.0
  0
LINE
  5
19E
  8
0
 62
     7
 10
157.03399999999991
 20
118.324
 30
0.0
 11
160.20699999999991
 21
118.324
 31
0.0
  0
ARC
  5
19F
  8
0
 62
     7
 10
157.116308
 20
118.440878
 30
0.0
 40
0.153521
 50
86.015563
 51
167.48777100000001
  0
LINE
  5
1A0
  8
0
 62
     7
 10
156.96600000000001
 20
118.416
 30
0.0
 11
156.96600000000001
 21
118.9939999999999
 31
0.0
  0
ARC
  5
1A1
  8
0
 62
     7
 10
157.369541
 20
118.973086
 30
0.0
 40
0.403669
 50
176.98038
 51
195.52510100000001
  0
ARC
  5
1A2
  8
0
 62
     7
 10
157.5732909999999
 20
119.0101189999999
 30
0.0
 40
0.6101880000000001
 50
193.754424
 51
222.992795
  0
ARC
  5
1A3
  8
0
 62
     7
 10
157.39817500000001
 20
119.104761
 30
0.0
 40
0.396986
 50
133.08990800000001
 51
151.89581000000001
  0
ARC
  5
1A4
  8
0
 62
     7
 10
157.5806429999999
 20
118.98580699999999
 30
0.0
 40
0.61427
 50
150.12596099999999
 51
179.20307700000001
  0
LINE
  5
1A5
  8
0
 62
     7
 10
156.96600000000001
 20
119.571
 30
0.0
 11
156.96600000000001
 21
118.9939999999999
 31
0.0
  0
ARC
  5
1A6
  8
0
 62
     7
 10
157.117662
 20
119.5498399999999
 30
0.0
 40
0.155447
 50
193.3780439999999
 51
273.43500299999988
  0
LINE
  5
1A7
  8
0
 62
     7
 10
156.96600000000001
 20
119.571
 30
0.0
 11
157.0199999999999
 21
119.664
 31
0.0
  0
ARC
  5
1A8
  8
0
 62
     7
 10
157.03585399999989
 20
119.733525
 30
0.0
 40
0.06947
 50
182.152109
 51
268.435565
  0
LINE
  5
1A9
  8
0
 62
     7
 10
160.315
 20
119.7699999999999
 30
0.0
 11
160.2579999999999
 21
119.672
 31
0.0
  0
LINE
  5
1AA
  8
0
 62
     7
 10
160.315
 20
118.307
 30
0.0
 11
160.2579999999999
 21
118.405
 31
0.0
  0
ARC
  5
1AB
  8
0
 62
     7
 10
161.01301499999991
 20
119.1405199999999
 30
0.0
 40
0.7464420000000001
 50
159.30399099999991
 51
172.77725799999999
  0
ARC
  5
1AC
  8
0
 62
     7
 10
161.5409249999999
 20
119.04726699999991
 30
0.0
 40
1.282154
 50
171.60905099999991
 51
196.9918559999999
  0
ARC
  5
1AD
  8
0
 62
     7
 10
160.51177300000001
 20
118.5213149999999
 30
0.0
 40
0.248397
 50
142.486368
 51
165.8893909999999
  0
ARC
  5
1AE
  8
0
 62
     7
 10
160.59698599999999
 20
118.49203799999989
 30
0.0
 40
0.338262
 50
164.5986959999999
 51
204.80742799999999
  0
LINE
  5
1AF
  8
0
 62
     7
 10
160.2579999999999
 20
119.672
 30
0.0
 11
160.2579999999999
 21
118.405
 31
0.0
  0
ARC
  5
1B0
  8
0
 62
     7
 10
160.52296000000001
 20
119.6033909999999
 30
0.0
 40
0.263676
 50
152.09776099999999
 51
174.84123600000001
  0
ARC
  5
1B1
  8
0
 62
     7
 10
160.59287399999991
 20
119.59025200000001
 30
0.0
 40
0.334557
 50
173.676647
 51
213.76302199999989
  0
ARC
  5
1B2
  8
0
 62
     7
 10
55.114969000000002
 20
114.348556
 30
0.0
 40
36.886239000000003
 50
331.06148899999999
 51
338.13995199999988
  0
ARC
  5
1B3
  8
0
 62
     7
 10
64.581527000000008
 20
109.32042299999991
 30
0.0
 40
26.169335999999991
 50
322.12182799999988
 51
330.66679199999987
  0
ARC
  5
1B4
  8
0
 62
     7
 10
70.140694999999994
 20
105.17600400000001
 30
0.0
 40
19.237299
 50
309.50483800000001
 51
321.698959
  0
ARC
  5
1B5
  8
0
 62
     7
 10
72.864435999999998
 20
102.1493849999999
 30
0.0
 40
15.17038099999999
 50
275.51646699999992
 51
308.83936199999999
  0
ARC
  5
1B6
  8
0
 62
     7
 10
72.485379000000009
 20
105.2568629999999
 30
0.0
 40
18.300076000000001
 50
269.88154900000001
 51
275.76247799999987
  0
ARC
  5
1B7
  8
0
 62
     7
 10
72.442329000000001
 20
105.680339
 30
0.0
 40
18.723511999999989
 50
256.51665600000001
 51
270.01596499999988
  0
ARC
  5
1B8
  8
0
 62
     7
 10
71.902503999999993
 20
102.6853819999999
 30
0.0
 40
15.686195
 50
220.60593700000001
 51
255.88339999999999
  0
ARC
  5
1B9
  8
0
 62
     7
 10
74.227744000000001
 20
104.823324
 30
0.0
 40
18.843330999999999
 50
210.3673499999999
 51
220.93963500000001
  0
ARC
  5
1BA
  8
0
 62
     7
 10
77.943581000000009
 20
107.128946
 30
0.0
 40
23.215215000000001
 50
201.93160099999989
 51
210.64076900000001
  0
ARC
  5
1BB
  8
0
 62
     7
 10
82.517333999999991
 20
109.10429499999999
 30
0.0
 40
28.196031999999999
 50
197.52405200000001
 51
202.18378299999989
  0
LINE
  5
1BC
  8
0
 62
     7
 10
111.06399999999989
 20
86.956800000000015
 30
0.0
 11
77.554900000000004
 21
86.956800000000015
 31
0.0
  0
LINE
  5
1BD
  8
0
 62
     7
 10
111.06399999999989
 20
183.624
 30
0.0
 11
72.447500000000005
 21
183.624
 31
0.0
  0
LINE
  5
1BE
  8
0
 62
     7
 10
75.668700000000001
 20
171.14500000000001
 30
0.0
 11
82.319900000000004
 21
171.14500000000001
 31
0.0
  0
LINE
  5
1BF
  8
0
 62
     7
 10
73.661600000000007
 20
173.50899999999999
 30
0.0
 11
71.287199999999999
 21
176.304
 31
0.0
  0
LINE
  5
1C0
  8
0
 62
     7
 10
69.409999999999997
 20
177.6109999999999
 30
0.0
 11
71.293400000000005
 21
176.309
 31
0.0
  0
LINE
  5
1C1
  8
0
 62
     7
 10
71.293400000000005
 20
176.309
 30
0.0
 11
70.313299999999998
 21
178.3779999999999
 31
0.0
  0
LINE
  5
1C2
  8
0
 62
     7
 10
70.313299999999998
 20
178.3779999999999
 30
0.0
 11
69.409999999999997
 21
177.6109999999999
 31
0.0
  0
LINE
  5
1C3
  8
0
 62
     7
 10
71.287899999999993
 20
176.304
 30
0.0
 11
69.472999999999999
 21
178.44099999999989
 31
0.0
  0
LINE
  5
1C4
  8
0
 62
     7
 10
74.646900000000002
 20
171.44399999999999
 30
0.0
 11
73.666399999999996
 21
173.51300000000001
 31
0.0
  0
LINE
  5
1C5
  8
0
 62
     7
 10
73.666399999999996
 20
173.51300000000001
 30
0.0
 11
75.550200000000004
 21
172.2109999999999
 31
0.0
  0
LINE
  5
1C6
  8
0
 62
     7
 10
75.550200000000004
 20
172.2109999999999
 30
0.0
 11
74.646900000000002
 21
171.44399999999999
 31
0.0
  0
LINE
  5
1C7
  8
0
 62
     7
 10
73.660899999999984
 20
173.50899999999999
 30
0.0
 11
75.668700000000001
 21
171.14500000000001
 31
0.0
  0
LINE
  5
1C8
  8
0
 62
     7
 10
39.177999999999997
 20
177.11699999999999
 30
0.0
 11
39.770600000000002
 21
174.90599999999989
 31
0.0
  0
LINE
  5
1C9
  8
0
 62
     7
 10
39.770600000000002
 20
174.90599999999989
 30
0.0
 11
40.363199999999992
 21
177.11699999999999
 31
0.0
  0
LINE
  5
1CA
  8
0
 62
     7
 10
40.363199999999992
 20
177.11699999999999
 30
0.0
 11
39.177999999999997
 21
177.11699999999999
 31
0.0
  0
LINE
  5
1CB
  8
0
 62
     7
 10
40.348700000000001
 20
186.03
 30
0.0
 11
39.756100000000004
 21
188.24199999999999
 31
0.0
  0
LINE
  5
1CC
  8
0
 62
     7
 10
39.756100000000004
 20
188.24199999999999
 30
0.0
 11
39.163600000000002
 21
186.03
 31
0.0
  0
LINE
  5
1CD
  8
0
 62
     7
 10
39.163600000000002
 20
186.03
 30
0.0
 11
40.348700000000001
 21
186.03
 31
0.0
  0
LINE
  5
1CE
  8
0
 62
     7
 10
39.763399999999997
 20
174.90700000000001
 30
0.0
 11
39.763399999999997
 21
188.2409999999999
 31
0.0
  0
LINE
  5
1CF
  8
0
 62
     7
 10
67.452500000000001
 20
174.90700000000001
 30
0.0
 11
38.9634
 21
174.90700000000001
 31
0.0
  0
LINE
  5
1D0
  8
0
 62
     7
 10
95.615300000000005
 20
200.05699999999999
 30
0.0
 11
49.147500000000001
 21
200.05699999999999
 31
0.0
  0
LINE
  5
1D1
  8
0
 62
     7
 10
95.615300000000005
 20
153.9199999999999
 30
0.0
 11
95.615300000000005
 21
200.69099999999989
 31
0.0
  0
LINE
  5
1D2
  8
0
 62
     7
 10
49.147500000000001
 20
145.21799999999999
 30
0.0
 11
49.147500000000001
 21
200.69099999999989
 31
0.0
  0
LINE
  5
1D3
  8
0
 62
     7
 10
93.403499999999994
 20
199.464
 30
0.0
 11
95.615300000000005
 21
200.05699999999999
 31
0.0
  0
LINE
  5
1D4
  8
0
 62
     7
 10
95.615300000000005
 20
200.05699999999999
 30
0.0
 11
93.403499999999994
 21
200.64899999999989
 31
0.0
  0
LINE
  5
1D5
  8
0
 62
     7
 10
93.403499999999994
 20
200.64899999999989
 30
0.0
 11
93.403499999999994
 21
199.464
 31
0.0
  0
LINE
  5
1D6
  8
0
 62
     7
 10
96.968900000000005
 20
207.47200000000001
 30
0.0
 11
99.180599999999998
 21
208.06399999999999
 31
0.0
  0
LINE
  5
1D7
  8
0
 62
     7
 10
99.180599999999998
 20
208.06399999999999
 30
0.0
 11
96.968900000000005
 21
208.65700000000001
 31
0.0
  0
LINE
  5
1D8
  8
0
 62
     7
 10
96.968900000000005
 20
208.65700000000001
 30
0.0
 11
96.968900000000005
 21
207.47200000000001
 31
0.0
  0
LINE
  5
1D9
  8
0
 62
     7
 10
51.359299999999998
 20
200.64899999999989
 30
0.0
 11
49.147500000000001
 21
200.05699999999999
 31
0.0
  0
LINE
  5
1DA
  8
0
 62
     7
 10
49.147500000000001
 20
200.05699999999999
 30
0.0
 11
51.359299999999998
 21
199.464
 31
0.0
  0
LINE
  5
1DB
  8
0
 62
     7
 10
51.359299999999998
 20
199.464
 30
0.0
 11
51.359299999999998
 21
200.64899999999989
 31
0.0
  0
LINE
  5
1DC
  8
0
 62
     7
 10
48.058199999999999
 20
208.64199999999991
 30
0.0
 11
45.846400000000003
 21
208.05000000000001
 31
0.0
  0
LINE
  5
1DD
  8
0
 62
     7
 10
45.846400000000003
 20
208.05000000000001
 30
0.0
 11
48.058199999999999
 21
207.45699999999999
 31
0.0
  0
LINE
  5
1DE
  8
0
 62
     7
 10
48.058199999999999
 20
207.45699999999999
 30
0.0
 11
48.058199999999999
 21
208.64199999999991
 31
0.0
  0
LINE
  5
1DF
  8
0
 62
     7
 10
99.179199999999994
 20
208.05699999999999
 30
0.0
 11
45.847799999999999
 21
208.05699999999999
 31
0.0
  0
LINE
  5
1E0
  8
0
 62
     7
 10
45.846400000000003
 20
188.96999999999991
 30
0.0
 11
45.846400000000003
 21
208.75699999999989
 31
0.0
  0
LINE
  5
1E1
  8
0
 62
     7
 10
99.180599999999998
 20
188.96999999999991
 30
0.0
 11
99.180599999999998
 21
208.75699999999989
 31
0.0
  0
LINE
  5
1E2
  8
0
 62
     7
 10
32.071800000000003
 20
77.118899999999996
 30
0.0
 11
32.664400000000001
 21
74.907200000000003
 31
0.0
  0
LINE
  5
1E3
  8
0
 62
     7
 10
32.664400000000001
 20
74.907200000000003
 30
0.0
 11
33.256900000000002
 21
77.118899999999996
 31
0.0
  0
LINE
  5
1E4
  8
0
 62
     7
 10
33.256900000000002
 20
77.118899999999996
 30
0.0
 11
32.071800000000003
 21
77.118899999999996
 31
0.0
  0
LINE
  5
1E5
  8
0
 62
     7
 10
33.2425
 20
186.029
 30
0.0
 11
32.649900000000002
 21
188.2409999999999
 31
0.0
  0
LINE
  5
1E6
  8
0
 62
     7
 10
32.649900000000002
 20
188.2409999999999
 30
0.0
 11
32.057299999999991
 21
186.029
 31
0.0
  0
LINE
  5
1E7
  8
0
 62
     7
 10
32.057299999999991
 20
186.029
 30
0.0
 11
33.2425
 21
186.029
 31
0.0
  0
LINE
  5
1E8
  8
0
 62
     7
 10
32.65679999999999
 20
74.908600000000007
 30
0.0
 11
32.65679999999999
 21
188.24000000000001
 31
0.0
  0
LINE
  5
1E9
  8
0
 62
     7
 10
106.39100000000001
 20
188.24000000000001
 30
0.0
 11
99.861700000000013
 21
188.24000000000001
 31
0.0
  0
LINE
  5
1EA
  8
0
 62
     7
 10
44.98129999999999
 20
188.24000000000001
 30
0.0
 11
31.956700000000001
 21
188.24000000000001
 31
0.0
  0
LINE
  5
1EB
  8
0
 62
     7
 10
45.043700000000001
 20
74.908600000000007
 30
0.0
 11
31.956700000000001
 21
74.908600000000007
 31
0.0
  0
LINE
  5
1EC
  8
0
 62
     7
 10
86.359800000000007
 20
190.04599999999991
 30
0.0
 11
79.953599999999994
 21
190.04599999999991
 31
0.0
  0
LINE
  5
1ED
  8
0
 62
     7
 10
93.693899999999999
 20
183.976
 30
0.0
 11
95.954300000000003
 21
182.11000000000001
 31
0.0
  0
LINE
  5
1EE
  8
0
 62
     7
 10
97.287199999999999
 20
180.25
 30
0.0
 11
95.958699999999993
 21
182.1159999999999
 31
0.0
  0
LINE
  5
1EF
  8
0
 62
     7
 10
95.958699999999993
 20
182.1159999999999
 30
0.0
 11
98.042000000000016
 21
181.16399999999999
 31
0.0
  0
LINE
  5
1F0
  8
0
 62
     7
 10
98.042000000000016
 20
181.16399999999999
 30
0.0
 11
97.287199999999999
 21
180.25
 31
0.0
  0
LINE
  5
1F1
  8
0
 62
     7
 10
95.954300000000003
 20
182.11000000000001
 30
0.0
 11
98.115700000000004
 21
180.32499999999999
 31
0.0
  0
LINE
  5
1F2
  8
0
 62
     7
 10
91.615799999999979
 20
184.93299999999991
 30
0.0
 11
93.698400000000007
 21
183.98199999999991
 31
0.0
  0
LINE
  5
1F3
  8
0
 62
     7
 10
93.698400000000007
 20
183.98199999999991
 30
0.0
 11
92.3703
 21
185.84700000000001
 31
0.0
  0
LINE
  5
1F4
  8
0
 62
     7
 10
92.3703
 20
185.84700000000001
 30
0.0
 11
91.615799999999979
 21
184.93299999999991
 31
0.0
  0
LINE
  5
1F5
  8
0
 62
     7
 10
93.694299999999984
 20
183.976
 30
0.0
 11
86.359800000000007
 21
190.04599999999991
 31
0.0
  0
LINE
  5
1F6
  8
0
 62
     7
 10
105.691
 20
182.95699999999999
 30
0.0
 11
105.691
 21
188.28999999999999
 31
0.0
  0
LINE
  5
1F7
  8
0
 62
     7
 10
97.808800000000005
 20
182.95699999999999
 30
0.0
 11
106.56
 21
182.95699999999999
 31
0.0
  0
LINE
  5
1F8
  8
0
 62
     7
 10
106.2829999999999
 20
180.745
 30
0.0
 11
105.691
 21
182.95699999999999
 31
0.0
  0
LINE
  5
1F9
  8
0
 62
     7
 10
105.691
 20
182.95699999999999
 30
0.0
 11
105.098
 21
180.745
 31
0.0
  0
LINE
  5
1FA
  8
0
 62
     7
 10
105.098
 20
180.745
 30
0.0
 11
106.2829999999999
 21
180.745
 31
0.0
  0
LINE
  5
1FB
  8
0
 62
     7
 10
105.691
 20
182.95699999999999
 30
0.0
 11
105.691
 21
179.589
 31
0.0
  0
LINE
  5
1FC
  8
0
 62
     7
 10
106.2829999999999
 20
190.50200000000001
 30
0.0
 11
105.691
 21
188.28999999999999
 31
0.0
  0
LINE
  5
1FD
  8
0
 62
     7
 10
105.691
 20
188.28999999999999
 30
0.0
 11
105.098
 21
190.50200000000001
 31
0.0
  0
LINE
  5
1FE
  8
0
 62
     7
 10
105.098
 20
190.50200000000001
 30
0.0
 11
106.2829999999999
 21
190.50200000000001
 31
0.0
  0
LINE
  5
1FF
  8
0
 62
     7
 10
105.691
 20
188.28999999999999
 30
0.0
 11
105.691
 21
191.21199999999999
 31
0.0
  0
LINE
  5
200
  8
0
 62
     7
 10
99.180599999999998
 20
192.05699999999999
 30
0.0
 11
94.847399999999993
 21
192.05699999999999
 31
0.0
  0
LINE
  5
201
  8
0
 62
     7
 10
94.847399999999993
 20
186.399
 30
0.0
 11
94.847399999999993
 21
192.92599999999999
 31
0.0
  0
LINE
  5
202
  8
0
 62
     7
 10
124.8059999999999
 20
68.372500000000002
 30
0.0
 11
122.59399999999999
 21
67.779899999999984
 31
0.0
  0
LINE
  5
203
  8
0
 62
     7
 10
122.59399999999999
 20
67.779899999999984
 30
0.0
 11
124.8059999999999
 21
67.187399999999997
 31
0.0
  0
LINE
  5
204
  8
0
 62
     7
 10
124.8059999999999
 20
67.187399999999997
 30
0.0
 11
124.8059999999999
 21
68.372500000000002
 31
0.0
  0
LINE
  5
205
  8
0
 62
     7
 10
162.048
 20
67.201800000000006
 30
0.0
 11
164.25999999999991
 21
67.794399999999996
 31
0.0
  0
LINE
  5
206
  8
0
 62
     7
 10
164.25999999999991
 20
67.794399999999996
 30
0.0
 11
162.048
 21
68.387
 31
0.0
  0
LINE
  5
207
  8
0
 62
     7
 10
162.048
 20
68.387
 30
0.0
 11
162.048
 21
67.201800000000006
 31
0.0
  0
LINE
  5
208
  8
0
 62
     7
 10
122.5929999999999
 20
67.787199999999984
 30
0.0
 11
164.25899999999999
 21
67.787199999999984
 31
0.0
  0
LINE
  5
209
  8
0
 62
     7
 10
122.5929999999999
 20
79.688699999999983
 30
0.0
 11
122.5929999999999
 21
67.087100000000007
 31
0.0
  0
LINE
  5
20A
  8
0
 62
     7
 10
132.76400000000001
 20
192.05699999999999
 30
0.0
 11
120.76899999999991
 21
192.05699999999999
 31
0.0
  0
LINE
  5
20B
  8
0
 62
     7
 10
124.7139999999999
 20
191.464
 30
0.0
 11
126.926
 21
192.05699999999999
 31
0.0
  0
LINE
  5
20C
  8
0
 62
     7
 10
126.926
 20
192.05699999999999
 30
0.0
 11
124.7139999999999
 21
192.65000000000001
 31
0.0
  0
LINE
  5
20D
  8
0
 62
     7
 10
124.7139999999999
 20
192.65000000000001
 30
0.0
 11
124.7139999999999
 21
191.464
 31
0.0
  0
LINE
  5
20E
  8
0
 62
     7
 10
131.071
 20
192.649
 30
0.0
 11
128.85900000000001
 21
192.05699999999999
 31
0.0
  0
LINE
  5
20F
  8
0
 62
     7
 10
128.85900000000001
 20
192.05699999999999
 30
0.0
 11
131.071
 21
191.464
 31
0.0
  0
LINE
  5
210
  8
0
 62
     7
 10
131.071
 20
191.464
 30
0.0
 11
131.071
 21
192.649
 31
0.0
  0
LINE
  5
211
  8
0
 62
     7
 10
74.686199999999999
 20
68.3797
 30
0.0
 11
72.474400000000003
 21
67.787199999999984
 31
0.0
  0
LINE
  5
212
  8
0
 62
     7
 10
72.474400000000003
 20
67.787199999999984
 30
0.0
 11
74.686199999999999
 21
67.194599999999994
 31
0.0
  0
LINE
  5
213
  8
0
 62
     7
 10
74.686199999999999
 20
67.194599999999994
 30
0.0
 11
74.686199999999999
 21
68.3797
 31
0.0
  0
LINE
  5
214
  8
0
 62
     7
 10
72.474400000000003
 20
67.787199999999984
 30
0.0
 11
77.084699999999998
 21
67.787199999999984
 31
0.0
  0
LINE
  5
215
  8
0
 62
     7
 10
101.392
 20
192.649
 30
0.0
 11
99.180599999999998
 21
192.05699999999999
 31
0.0
  0
LINE
  5
216
  8
0
 62
     7
 10
99.180599999999998
 20
192.05699999999999
 30
0.0
 11
101.392
 21
191.464
 31
0.0
  0
LINE
  5
217
  8
0
 62
     7
 10
101.392
 20
191.464
 30
0.0
 11
101.392
 21
192.649
 31
0.0
  0
LINE
  5
218
  8
0
 62
     7
 10
99.180599999999998
 20
192.05699999999999
 30
0.0
 11
102.41
 21
192.05699999999999
 31
0.0
  0
LINE
  5
219
  8
0
 62
     7
 10
92.635599999999997
 20
192.649
 30
0.0
 11
94.847399999999993
 21
192.05699999999999
 31
0.0
  0
LINE
  5
21A
  8
0
 62
     7
 10
94.847399999999993
 20
192.05699999999999
 30
0.0
 11
92.635599999999997
 21
191.464
 31
0.0
  0
LINE
  5
21B
  8
0
 62
     7
 10
92.635599999999997
 20
191.464
 30
0.0
 11
92.635599999999997
 21
192.649
 31
0.0
  0
LINE
  5
21C
  8
0
 62
     7
 10
94.847399999999993
 20
192.05699999999999
 30
0.0
 11
88.772700000000015
 21
192.05699999999999
 31
0.0
  0
LINE
  5
21D
  8
0
 62
     7
 10
74.686199999999999
 20
197.435
 30
0.0
 11
72.474400000000003
 21
196.84200000000001
 31
0.0
  0
LINE
  5
21E
  8
0
 62
     7
 10
72.474400000000003
 20
196.84200000000001
 30
0.0
 11
74.686199999999999
 21
196.25
 31
0.0
  0
LINE
  5
21F
  8
0
 62
     7
 10
74.686199999999999
 20
196.25
 30
0.0
 11
74.686199999999999
 21
197.435
 31
0.0
  0
LINE
  5
220
  8
0
 62
     7
 10
72.474400000000003
 20
196.84200000000001
 30
0.0
 11
77.084699999999998
 21
196.84200000000001
 31
0.0
  0
LINE
  5
221
  8
0
 62
     7
 10
129.137
 20
196.92099999999991
 30
0.0
 11
126.926
 21
196.328
 31
0.0
  0
LINE
  5
222
  8
0
 62
     7
 10
126.926
 20
196.328
 30
0.0
 11
129.137
 21
195.7359999999999
 31
0.0
  0
LINE
  5
223
  8
0
 62
     7
 10
129.137
 20
195.7359999999999
 30
0.0
 11
129.137
 21
196.92099999999991
 31
0.0
  0
LINE
  5
224
  8
0
 62
     7
 10
162.047
 20
195.7359999999999
 30
0.0
 11
164.25899999999999
 21
196.328
 31
0.0
  0
LINE
  5
225
  8
0
 62
     7
 10
164.25899999999999
 20
196.328
 30
0.0
 11
162.047
 21
196.92099999999991
 31
0.0
  0
LINE
  5
226
  8
0
 62
     7
 10
162.047
 20
196.92099999999991
 30
0.0
 11
162.047
 21
195.7359999999999
 31
0.0
  0
LINE
  5
227
  8
0
 62
     7
 10
126.926
 20
196.328
 30
0.0
 11
164.25899999999999
 21
196.328
 31
0.0
  0
LINE
  5
228
  8
0
 62
     7
 10
128.85900000000001
 20
189.1279999999999
 30
0.0
 11
128.85900000000001
 21
192.857
 31
0.0
  0
LINE
  5
229
  8
0
 62
     7
 10
126.926
 20
189.1279999999999
 30
0.0
 11
126.926
 21
197.1279999999999
 31
0.0
  0
LINE
  5
22A
  8
0
 62
     7
 10
164.25999999999991
 20
66.994399999999999
 30
0.0
 11
164.25999999999991
 21
116.5589999999999
 31
0.0
  0
LINE
  5
22B
  8
0
 62
     7
 10
164.25899999999999
 20
166.69
 30
0.0
 11
164.25899999999999
 21
197.03099999999989
 31
0.0
  0
LINE
  5
22C
  8
0
 62
     7
 10
153.39699999999999
 20
175.55500000000001
 30
0.0
 11
155.60900000000001
 21
176.14699999999999
 31
0.0
  0
LINE
  5
22D
  8
0
 62
     7
 10
155.60900000000001
 20
176.14699999999999
 30
0.0
 11
153.39699999999999
 21
176.74000000000001
 31
0.0
  0
LINE
  5
22E
  8
0
 62
     7
 10
153.39699999999999
 20
176.74000000000001
 30
0.0
 11
153.39699999999999
 21
175.55500000000001
 31
0.0
  0
LINE
  5
22F
  8
0
 62
     7
 10
129.15100000000001
 20
176.72499999999991
 30
0.0
 11
126.93899999999999
 21
176.1329999999999
 31
0.0
  0
LINE
  5
230
  8
0
 62
     7
 10
126.93899999999999
 20
176.1329999999999
 30
0.0
 11
129.15100000000001
 21
175.53999999999991
 31
0.0
  0
LINE
  5
231
  8
0
 62
     7
 10
129.15100000000001
 20
175.53999999999991
 30
0.0
 11
129.15100000000001
 21
176.72499999999991
 31
0.0
  0
LINE
  5
232
  8
0
 62
     7
 10
153.80099999999999
 20
176.1399999999999
 30
0.0
 11
128.74700000000001
 21
176.1399999999999
 31
0.0
  0
LINE
  5
233
  8
0
 62
     7
 10
166.37299999999991
 20
118.9939999999999
 30
0.0
 11
173.465
 21
118.9939999999999
 31
0.0
  0
LINE
  5
234
  8
0
 62
     7
 10
173.3549999999999
 20
234.541
 30
0.0
 11
172.76299999999989
 21
232.32900000000001
 31
0.0
  0
LINE
  5
235
  8
0
 62
     7
 10
172.76299999999989
 20
232.32900000000001
 30
0.0
 11
172.16999999999999
 21
234.541
 31
0.0
  0
LINE
  5
236
  8
0
 62
     7
 10
172.16999999999999
 20
234.541
 30
0.0
 11
173.3549999999999
 21
234.541
 31
0.0
  0
LINE
  5
237
  8
0
 62
     7
 10
172.16999999999999
 20
247.78399999999999
 30
0.0
 11
172.76299999999989
 21
249.9959999999999
 31
0.0
  0
LINE
  5
238
  8
0
 62
     7
 10
172.76299999999989
 20
249.9959999999999
 30
0.0
 11
173.3549999999999
 21
247.78399999999999
 31
0.0
  0
LINE
  5
239
  8
0
 62
     7
 10
173.3549999999999
 20
247.78399999999999
 30
0.0
 11
172.16999999999999
 21
247.78399999999999
 31
0.0
  0
LINE
  5
23A
  8
0
 62
     7
 10
172.76299999999989
 20
232.32900000000001
 30
0.0
 11
172.76299999999989
 21
249.9959999999999
 31
0.0
  0
LINE
  5
23B
  8
0
 62
     7
 10
173.3549999999999
 20
216.70799999999991
 30
0.0
 11
172.76299999999989
 21
214.4959999999999
 31
0.0
  0
LINE
  5
23C
  8
0
 62
     7
 10
172.76299999999989
 20
214.4959999999999
 30
0.0
 11
172.16999999999999
 21
216.70799999999991
 31
0.0
  0
LINE
  5
23D
  8
0
 62
     7
 10
172.16999999999999
 20
216.70799999999991
 30
0.0
 11
173.3549999999999
 21
216.70799999999991
 31
0.0
  0
LINE
  5
23E
  8
0
 62
     7
 10
172.16999999999999
 20
230.11699999999999
 30
0.0
 11
172.76299999999989
 21
232.32900000000001
 31
0.0
  0
LINE
  5
23F
  8
0
 62
     7
 10
172.76299999999989
 20
232.32900000000001
 30
0.0
 11
173.3549999999999
 21
230.11699999999999
 31
0.0
  0
LINE
  5
240
  8
0
 62
     7
 10
173.3549999999999
 20
230.11699999999999
 30
0.0
 11
172.16999999999999
 21
230.11699999999999
 31
0.0
  0
LINE
  5
241
  8
0
 62
     7
 10
172.76299999999989
 20
214.4959999999999
 30
0.0
 11
172.76299999999989
 21
232.32900000000001
 31
0.0
  0
LINE
  5
242
  8
0
 62
     7
 10
129.7289999999999
 20
214.4959999999999
 30
0.0
 11
173.56299999999999
 21
214.4959999999999
 31
0.0
  0
LINE
  5
243
  8
0
 62
     7
 10
166.37299999999991
 20
232.32900000000001
 30
0.0
 11
173.465
 21
232.32900000000001
 31
0.0
  0
LINE
  5
244
  8
0
 62
     7
 10
173.3549999999999
 20
265.61700000000002
 30
0.0
 11
172.76299999999989
 21
267.82900000000001
 31
0.0
  0
LINE
  5
245
  8
0
 62
     7
 10
172.76299999999989
 20
267.82900000000001
 30
0.0
 11
172.16999999999999
 21
265.61700000000002
 31
0.0
  0
LINE
  5
246
  8
0
 62
     7
 10
172.16999999999999
 20
265.61700000000002
 30
0.0
 11
173.3549999999999
 21
265.61700000000002
 31
0.0
  0
LINE
  5
247
  8
0
 62
     7
 10
172.16999999999999
 20
252.20799999999991
 30
0.0
 11
172.76299999999989
 21
249.9959999999999
 31
0.0
  0
LINE
  5
248
  8
0
 62
     7
 10
172.76299999999989
 20
249.9959999999999
 30
0.0
 11
173.3549999999999
 21
252.20799999999991
 31
0.0
  0
LINE
  5
249
  8
0
 62
     7
 10
173.3549999999999
 20
252.20799999999991
 30
0.0
 11
172.16999999999999
 21
252.20799999999991
 31
0.0
  0
LINE
  5
24A
  8
0
 62
     7
 10
172.76299999999989
 20
267.82900000000001
 30
0.0
 11
172.76299999999989
 21
249.9959999999999
 31
0.0
  0
LINE
  5
24B
  8
0
 62
     7
 10
129.7289999999999
 20
267.82900000000001
 30
0.0
 11
173.56299999999999
 21
267.82900000000001
 31
0.0
  0
LINE
  5
24C
  8
0
 62
     7
 10
166.37299999999991
 20
249.9959999999999
 30
0.0
 11
173.465
 21
249.9959999999999
 31
0.0
  0
ARC
  5
24D
  8
0
 62
     7
 10
115.225719
 20
135.308189
 30
0.0
 40
17.809781000000001
 50
15.978491
 51
17.067377
  0
ARC
  5
24E
  8
0
 62
     7
 10
127.99550600000001
 20
139.03893999999991
 30
0.0
 40
4.5069299999999997
 50
5.7845610000000001
 51
15.070871
  0
ARC
  5
24F
  8
0
 62
     7
 10
123.65045599999991
 20
138.51745700000001
 30
0.0
 40
8.8827820000000006
 50
1.818984999999999
 51
6.3063729999999998
  0
ARC
  5
250
  8
0
 62
     7
 10
114.488803
 20
138.1427139999999
 30
0.0
 40
18.051908999999991
 50
358.97583900000001
 51
2.0847910000000001
  0
ARC
  5
251
  8
0
 62
     7
 10
98.839884999999995
 20
138.29781800000001
 30
0.0
 40
33.701329000000001
 50
357.74246799999997
 51
359.18772300000001
  0
ARC
  5
252
  8
0
 62
     7
 10
-5.781693999999999
 20
142.21540999999999
 30
0.0
 40
138.39618100000001
 50
356.386595
 51
357.8280069999999
  0
ARC
  5
253
  8
0
 62
     7
 10
131.2088259999999
 20
133.613395
 30
0.0
 40
1.1369089999999991
 50
319.16867000000002
 51
353.92756099999991
  0
ARC
  5
254
  8
0
 62
     7
 10
131.35075800000001
 20
133.53249700000001
 30
0.0
 40
0.9771350000000001
 50
270.15279399999991
 51
317.31605200000001
  0
ARC
  5
255
  8
0
 62
     7
 10
131.35364499999989
 20
133.29005499999991
 30
0.0
 40
0.7346890000000002
 50
256.41938900000002
 51
269.9781319999999
  0
ARC
  5
256
  8
0
 62
     7
 10
131.45523299999999
 20
133.83962099999991
 30
0.0
 40
1.2930989999999991
 50
241.730581
 51
257.76194399999991
  0
ARC
  5
257
  8
0
 62
     7
 10
130.60230699999991
 20
140.23693299999991
 30
0.0
 40
0.896311
 50
130.282096
 51
157.06048799999991
  0
ARC
  5
258
  8
0
 62
     7
 10
130.473331
 20
140.35270399999999
 30
0.0
 40
0.724986
 50
72.681657999999999
 51
128.421447
  0
ARC
  5
259
  8
0
 62
     7
 10
132.08245600000001
 20
134.23550499999999
 30
0.0
 40
1.972872999999999
 50
222.70633699999999
 51
231.07140000000001
  0
ARC
  5
25A
  8
0
 62
     7
 10
133.502892
 20
135.6177679999999
 30
0.0
 40
3.9545199999999991
 50
217.133396
 51
223.46474699999999
  0
ARC
  5
25B
  8
0
 62
     7
 10
135.1947879999999
 20
136.92649199999991
 30
0.0
 40
6.0934339999999994
 50
203.6428019999999
 51
217.34031400000001
  0
ARC
  5
25C
  8
0
 62
     7
 10
136.0777709999999
 20
137.384783
 30
0.0
 40
7.0863969999999989
 50
180.12857299999999
 51
204.17416399999999
  0
ARC
  5
25D
  8
0
 62
     7
 10
133.95680599999989
 20
137.36662200000001
 30
0.0
 40
4.9654150000000001
 50
171.81156200000001
 51
179.97388699999999
  0
ARC
  5
25E
  8
0
 62
     7
 10
135.93542099999999
 20
137.11284499999999
 30
0.0
 40
6.9600699999999991
 50
164.49482399999991
 51
172.063647
  0
ARC
  5
25F
  8
0
 62
     7
 10
139.914818
 20
136.07957400000001
 30
0.0
 40
11.071071999999999
 50
160.7767509999999
 51
164.84739699999989
  0
ARC
  5
260
  8
0
 62
     7
 10
153.8031629999999
 20
131.28972899999991
 30
0.0
 40
25.762146000000001
 50
158.846912
 51
160.88785100000001
  0
ARC
  5
261
  8
0
 62
     7
 10
92.243504999999985
 20
139.39599499999991
 30
0.0
 40
1.8724869999999989
 50
78.871172999999985
 51
97.320156000000026
  0
ARC
  5
262
  8
0
 62
     7
 10
92.224024
 20
139.78538999999989
 30
0.0
 40
1.4840930000000001
 50
98.489693000000003
 51
136.48918399999999
  0
ARC
  5
263
  8
0
 62
     7
 10
92.586501999999996
 20
139.41447799999989
 30
0.0
 40
2.0024410000000001
 50
135.932973
 51
151.732946
  0
ARC
  5
264
  8
0
 62
     7
 10
93.444120999999996
 20
138.91748200000001
 30
0.0
 40
2.9933239999999999
 50
151.12852000000001
 51
163.58378500000001
  0
ARC
  5
265
  8
0
 62
     7
 10
95.029316000000009
 20
138.3999729999999
 30
0.0
 40
4.6604039999999989
 50
162.98853399999999
 51
172.54594
  0
ARC
  5
266
  8
0
 62
     7
 10
97.369367000000011
 20
138.03445999999991
 30
0.0
 40
7.0283439999999997
 50
172.06621100000001
 51
178.266716
  0
ARC
  5
267
  8
0
 62
     7
 10
96.081664000000004
 20
138.26580699999991
 30
0.0
 40
5.737455999999999
 50
180.1873939999999
 51
218.00519700000001
  0
ARC
  5
268
  8
0
 62
     7
 10
96.440526000000006
 20
138.49537499999991
 30
0.0
 40
6.1617069999999989
 50
217.63256499999989
 51
259.49968399999989
  0
LINE
  5
269
  8
0
 62
     7
 10
95.317599999999999
 20
132.43700000000001
 30
0.0
 11
95.317599999999999
 21
140.75599999999989
 31
0.0
  0
LINE
  5
26A
  8
0
 62
     7
 10
92.604900000000001
 20
141.233
 30
0.0
 11
95.317599999999999
 21
140.75599999999989
 31
0.0
  0
ARC
  5
26B
  8
0
 62
     7
 10
52.749592999999997
 20
139.39375499999991
 30
0.0
 40
1.8747180000000001
 50
82.686381000000026
 51
101.120715
  0
ARC
  5
26C
  8
0
 62
     7
 10
52.769246000000003
 20
139.785504
 30
0.0
 40
1.4839649999999991
 50
43.509394999999991
 51
81.513456999999974
  0
ARC
  5
26D
  8
0
 62
     7
 10
52.406930000000003
 20
139.41494499999999
 30
0.0
 40
2.0019520000000002
 50
28.259398000000001
 51
44.061976000000001
  0
ARC
  5
26E
  8
0
 62
     7
 10
51.548600999999998
 20
138.91775200000001
 30
0.0
 40
2.9935489999999998
 50
16.409551999999991
 51
28.863199999999988
  0
ARC
  5
26F
  8
0
 62
     7
 10
49.959102000000001
 20
138.39946399999999
 30
0.0
 40
4.664968
 50
7.4530089999999989
 51
17.000830999999991
  0
ARC
  5
270
  8
0
 62
     7
 10
47.61731799999999
 20
138.03417999999991
 30
0.0
 40
7.0345929999999992
 50
1.734008999999999
 51
7.9289829999999997
  0
ARC
  5
271
  8
0
 62
     7
 10
48.910347999999992
 20
138.265805
 30
0.0
 40
5.738372
 50
322.00198699999999
 51
359.81267300000002
  0
ARC
  5
272
  8
0
 62
     7
 10
48.552783000000012
 20
138.49527800000001
 30
0.0
 40
6.1615409999999997
 50
280.49701399999998
 51
322.36741599999988
  0
ARC
  5
273
  8
0
 62
     7
 10
94.867246999999992
 20
183.0079879999999
 30
0.0
 40
1.466845
 50
89.996635999999995
 51
179.99660600000001
  0
ARC
  5
274
  8
0
 62
     7
 10
94.867159999999984
 20
183.0082459999999
 30
0.0
 40
1.466758
 50
180.00673900000001
 51
270.00674900000001
  0
ARC
  5
275
  8
0
 62
     7
 10
94.810457000000014
 20
183.064593
 30
0.0
 40
1.524165999999999
 50
272.13856900000002
 51
357.87490099999991
  0
ARC
  5
276
  8
0
 62
     7
 10
94.810732000000002
 20
182.95201
 30
0.0
 40
1.5238739999999991
 50
2.1084160000000001
 51
87.871385000000004
  0
ARC
  5
277
  8
0
 62
     7
 10
72.474414999999993
 20
174.90670800000001
 30
0.0
 40
3.000008999999999
 50
0.00001
 51
89.999980000000008
  0
ARC
  5
278
  8
0
 62
     7
 10
72.474414999999993
 20
174.90670900000001
 30
0.0
 40
3.000008999999999
 50
270.00002000000001
 51
359.99998999999991
  0
ARC
  5
279
  8
0
 62
     7
 10
72.474414999999993
 20
174.90670800000001
 30
0.0
 40
3.0000079999999998
 50
179.99996999999991
 51
270.00002000000001
  0
ARC
  5
27A
  8
0
 62
     7
 10
72.474416000000005
 20
174.90670800000001
 30
0.0
 40
3.000008999999999
 50
90.0
 51
179.99996999999991
  0
ARC
  5
27B
  8
0
 62
     7
 10
72.404131000000007
 20
174.8360669999999
 30
0.0
 40
1.9050860000000001
 50
2.1250599999999991
 51
87.885696999999993
  0
ARC
  5
27C
  8
0
 62
     7
 10
72.404275999999996
 20
174.97702699999991
 30
0.0
 40
1.9049290000000001
 50
272.11011400000001
 51
357.88451299999991
  0
ARC
  5
27D
  8
0
 62
     7
 10
72.544710999999992
 20
174.977183
 30
0.0
 40
1.9050910000000001
 50
182.12003899999991
 51
267.88537400000001
  0
ARC
  5
27E
  8
0
 62
     7
 10
72.544380000000004
 20
174.836387
 30
0.0
 40
1.9047540000000001
 50
92.105023000000017
 51
177.88418100000001
  0
LINE
  5
27F
  8
0
 62
     7
 10
130.68899999999991
 20
141.0449999999999
 30
0.0
 11
132.251
 21
140.535
 31
0.0
  0
LINE
  5
280
  8
0
 62
     7
 10
49.6753
 20
132.43700000000001
 30
0.0
 11
49.6753
 21
140.75599999999989
 31
0.0
  0
LINE
  5
281
  8
0
 62
     7
 10
52.388000000000012
 20
141.233
 30
0.0
 11
49.6753
 21
140.75599999999989
 31
0.0
  0
LINE
  5
282
  8
0
  6
AIGENLINE001
 62
     7
 10
97.008799999999994
 20
183.0079999999999
 30
0.0
 11
92.730699999999999
 21
183.0079999999999
 31
0.0
  0
LINE
  5
283
  8
0
  6
AIGENLINE001
 62
     7
 10
94.867299999999986
 20
180.64999999999989
 30
0.0
 11
94.867299999999986
 21
185.39899999999989
 31
0.0
  0
LINE
  5
284
  8
0
 62
     7
 10
127.366
 20
76.182900000000004
 30
0.0
 11
132.95500000000001
 21
90.888099999999994
 31
0.0
  0
LINE
  5
285
  8
0
 62
     7
 10
128.1989999999999
 20
187.89400000000001
 30
0.0
 11
132.864
 21
183.80000000000001
 31
0.0
  0
LINE
  5
286
  8
0
 62
     7
 10
83.653800000000004
 20
148.63399999999999
 30
0.0
 11
83.478099999999998
 21
148.58999999999989
 31
0.0
  0
LINE
  5
287
  8
0
 62
     7
 10
83.478099999999998
 20
148.58999999999989
 30
0.0
 11
83.609700000000004
 21
148.67799999999991
 31
0.0
  0
LINE
  5
288
  8
0
 62
     7
 10
83.609700000000004
 20
148.67799999999991
 30
0.0
 11
83.653800000000004
 21
148.63399999999999
 31
0.0
  0
LINE
  5
289
  8
0
 62
     7
 10
83.653800000000004
 20
148.63399999999999
 30
0.0
 11
83.478099999999998
 21
148.58999999999989
 31
0.0
  0
LINE
  5
28A
  8
0
 62
     7
 10
83.478099999999998
 20
148.58999999999989
 30
0.0
 11
83.609700000000004
 21
148.67799999999991
 31
0.0
  0
LINE
  5
28B
  8
0
 62
     7
 10
83.609700000000004
 20
148.67799999999991
 30
0.0
 11
83.653800000000004
 21
148.63399999999999
 31
0.0
  0
LINE
  5
28C
  8
0
 62
     7
 10
126.926
 20
186.68299999999999
 30
0.0
 11
126.926
 21
187.56399999999999
 31
0.0
  0
LINE
  5
28D
  8
0
 62
     7
 10
156.7229999999999
 20
253.4729999999999
 30
0.0
 11
156.19499999999991
 21
253.4729999999999
 31
0.0
  0
LINE
  5
28E
  8
0
 62
     7
 10
156.7229999999999
 20
246.69599999999991
 30
0.0
 11
156.459
 21
246.69599999999991
 31
0.0
  0
LINE
  5
28F
  8
0
 62
     7
 10
156.76699999999991
 20
253.42999999999989
 30
0.0
 11
156.7229999999999
 21
253.4729999999999
 31
0.0
  0
LINE
  5
290
  8
0
 62
     7
 10
156.76699999999991
 20
250.084
 30
0.0
 11
156.76699999999991
 21
246.74000000000001
 31
0.0
  0
LINE
  5
291
  8
0
 62
     7
 10
156.76699999999991
 20
250.173
 30
0.0
 11
156.76699999999991
 21
253.42999999999989
 31
0.0
  0
LINE
  5
292
  8
0
 62
     7
 10
156.76699999999991
 20
246.74000000000001
 30
0.0
 11
156.7229999999999
 21
246.69599999999991
 31
0.0
  0
LINE
  5
293
  8
0
 62
     7
 10
156.7229999999999
 20
228.95799999999991
 30
0.0
 11
156.19499999999991
 21
228.95799999999991
 31
0.0
  0
LINE
  5
294
  8
0
 62
     7
 10
156.7229999999999
 20
235.64799999999991
 30
0.0
 11
156.459
 21
235.64799999999991
 31
0.0
  0
LINE
  5
295
  8
0
 62
     7
 10
156.76699999999991
 20
235.60400000000001
 30
0.0
 11
156.76699999999991
 21
232.25899999999999
 31
0.0
  0
LINE
  5
296
  8
0
 62
     7
 10
156.76699999999991
 20
232.25899999999999
 30
0.0
 11
156.76699999999991
 21
229.00200000000001
 31
0.0
  0
LINE
  5
297
  8
0
 62
     7
 10
156.76699999999991
 20
229.00200000000001
 30
0.0
 11
156.7229999999999
 21
228.95799999999991
 31
0.0
  0
LINE
  5
298
  8
0
 62
     7
 10
156.76699999999991
 20
235.60400000000001
 30
0.0
 11
156.7229999999999
 21
235.64799999999991
 31
0.0
  0
LINE
  5
299
  8
0
 62
     7
 10
156.76699999999991
 20
160.958
 30
0.0
 11
156.32599999999991
 21
160.958
 31
0.0
  0
LINE
  5
29A
  8
0
 62
     7
 10
156.76699999999991
 20
167.60299999999989
 30
0.0
 11
156.459
 21
167.60299999999989
 31
0.0
  0
LINE
  5
29B
  8
0
 62
     7
 10
156.76699999999991
 20
167.56
 30
0.0
 11
156.76699999999991
 21
164.214
 31
0.0
  0
LINE
  5
29C
  8
0
 62
     7
 10
156.76699999999991
 20
164.214
 30
0.0
 11
156.76699999999991
 21
160.958
 31
0.0
  0
LINE
  5
29D
  8
0
 62
     7
 10
156.76699999999991
 20
160.958
 30
0.0
 11
156.7229999999999
 21
160.958
 31
0.0
  0
LINE
  5
29E
  8
0
 62
     7
 10
156.76699999999991
 20
167.56
 30
0.0
 11
156.7229999999999
 21
167.60299999999989
 31
0.0
  0
LINE
  5
29F
  8
0
 62
     7
 10
156.76699999999991
 20
115.6239999999999
 30
0.0
 11
155.358
 21
115.6239999999999
 31
0.0
  0
LINE
  5
2A0
  8
0
 62
     7
 10
156.76699999999991
 20
122.31399999999989
 30
0.0
 11
155.49000000000001
 21
122.31399999999989
 31
0.0
  0
LINE
  5
2A1
  8
0
 62
     7
 10
156.76699999999991
 20
122.2699999999999
 30
0.0
 11
156.76699999999991
 21
118.9249999999999
 31
0.0
  0
LINE
  5
2A2
  8
0
 62
     7
 10
156.76699999999991
 20
118.9249999999999
 30
0.0
 11
156.76699999999991
 21
115.66799999999991
 31
0.0
  0
LINE
  5
2A3
  8
0
 62
     7
 10
156.76699999999991
 20
115.66799999999991
 30
0.0
 11
156.7229999999999
 21
115.6239999999999
 31
0.0
  0
LINE
  5
2A4
  8
0
 62
     7
 10
156.76699999999991
 20
122.2699999999999
 30
0.0
 11
156.7229999999999
 21
122.31399999999989
 31
0.0
  0
LINE
  5
2A5
  8
0
 62
     7
 10
128.9499999999999
 20
266.85399999999998
 30
0.0
 11
132.95500000000001
 21
260.69200000000001
 31
0.0
  0
LINE
  5
2A6
  8
0
 62
     7
 10
132.95500000000001
 20
260.69200000000001
 30
0.0
 11
128.9499999999999
 21
260.69200000000001
 31
0.0
  0
LINE
  5
2A7
  8
0
 62
     7
 10
128.9499999999999
 20
215.49000000000001
 30
0.0
 11
132.95500000000001
 21
221.65199999999999
 31
0.0
  0
LINE
  5
2A8
  8
0
 62
     7
 10
132.95500000000001
 20
221.65199999999999
 30
0.0
 11
128.9499999999999
 21
221.65199999999999
 31
0.0
  0
LINE
  5
2A9
  8
0
  6
AIGENLINE001
 62
     7
 10
153.29699999999991
 20
174.95400000000001
 30
0.0
 11
158.17500000000001
 21
174.95400000000001
 31
0.0
  0
LINE
  5
2AA
  8
0
 62
     7
 10
128.85900000000001
 20
187.321
 30
0.0
 11
128.85900000000001
 21
187.89400000000001
 31
0.0
  0
LINE
  5
2AB
  8
0
 62
     7
 10
128.9499999999999
 20
75.434299999999993
 30
0.0
 11
128.9499999999999
 21
80.363900000000001
 31
0.0
  0
LINE
  5
2AC
  8
0
 62
     7
 10
156.06200000000001
 20
237.18899999999999
 30
0.0
 11
156.5029999999999
 21
237.14500000000001
 31
0.0
  0
LINE
  5
2AD
  8
0
 62
     7
 10
156.06200000000001
 20
245.155
 30
0.0
 11
156.5029999999999
 21
245.155
 31
0.0
  0
LINE
  5
2AE
  8
0
 62
     7
 10
155.9739999999999
 20
226.18599999999989
 30
0.0
 11
155.53399999999991
 21
226.18599999999989
 31
0.0
  0
LINE
  5
2AF
  8
0
 62
     7
 10
156.06200000000001
 20
244.58299999999991
 30
0.0
 11
155.88599999999991
 21
249.86500000000001
 31
0.0
  0
LINE
  5
2B0
  8
0
 62
     7
 10
155.88599999999991
 20
249.86500000000001
 30
0.0
 11
155.578
 21
255.18999999999991
 31
0.0
  0
LINE
  5
2B1
  8
0
 62
     7
 10
155.578
 20
255.18999999999991
 30
0.0
 11
155.53399999999991
 21
256.11399999999998
 31
0.0
  0
LINE
  5
2B2
  8
0
 62
     7
 10
155.53399999999991
 20
256.11399999999998
 30
0.0
 11
155.9739999999999
 21
256.15899999999988
 31
0.0
  0
LINE
  5
2B3
  8
0
 62
     7
 10
155.53399999999991
 20
226.18599999999989
 30
0.0
 11
155.62200000000001
 21
227.19799999999989
 31
0.0
  0
LINE
  5
2B4
  8
0
 62
     7
 10
155.62200000000001
 20
227.19799999999989
 30
0.0
 11
155.88599999999991
 21
232.39099999999999
 31
0.0
  0
LINE
  5
2B5
  8
0
 62
     7
 10
155.88599999999991
 20
232.39099999999999
 30
0.0
 11
156.06200000000001
 21
237.58500000000001
 31
0.0
  0
LINE
  5
2B6
  8
0
 62
     7
 10
156.54599999999991
 20
243.8779999999999
 30
0.0
 11
156.37
 21
250.041
 31
0.0
  0
LINE
  5
2B7
  8
0
 62
     7
 10
156.37
 20
250.041
 30
0.0
 11
155.9739999999999
 21
256.15899999999988
 31
0.0
  0
LINE
  5
2B8
  8
0
 62
     7
 10
155.9739999999999
 20
226.18599999999989
 30
0.0
 11
156.37
 21
232.215
 31
0.0
  0
LINE
  5
2B9
  8
0
 62
     7
 10
156.37
 20
232.215
 30
0.0
 11
156.54599999999991
 21
238.33299999999991
 31
0.0
  0
LINE
  5
2BA
  8
0
  6
AIGENLINE001
 62
     7
 10
72.474400000000003
 20
66.752200000000002
 30
0.0
 11
72.474400000000003
 21
198.07499999999999
 31
0.0
  0
LINE
  5
2BB
  8
0
  6
AIGENLINE001
 62
     7
 10
76.722200000000001
 20
174.90700000000001
 30
0.0
 11
68.347200000000001
 21
174.90700000000001
 31
0.0
  0
LINE
  5
2BC
  8
0
 62
     7
 10
126.926
 20
103.8149999999999
 30
0.0
 11
126.926
 21
186.68299999999999
 31
0.0
  0
LINE
  5
2BD
  8
0
 62
     7
 10
155.62200000000001
 20
174.95400000000001
 30
0.0
 11
155.62200000000001
 21
177.63900000000001
 31
0.0
  0
LINE
  5
2BE
  8
0
 62
     7
 10
128.85900000000001
 20
187.89400000000001
 30
0.0
 11
128.85900000000001
 21
188.28999999999999
 31
0.0
  0
LINE
  5
2BF
  8
0
 62
     7
 10
128.28999999999991
 20
188.28999999999999
 30
0.0
 11
127.557
 21
188.244
 31
0.0
  0
ARC
  5
2C0
  8
0
 62
     7
 10
127.633518
 20
187.53993600000001
 30
0.0
 40
0.70819
 50
96.215408999999994
 51
178.14469600000001
  0
LINE
  5
2C1
  8
0
 62
     7
 10
126.926
 20
75.722300000000004
 30
0.0
 11
126.926
 21
76.162199999999999
 31
0.0
  0
LINE
  5
2C2
  8
0
 62
     7
 10
128.9499999999999
 20
74.994299999999996
 30
0.0
 11
128.9499999999999
 21
75.434299999999993
 31
0.0
  0
LINE
  5
2C3
  8
0
 62
     7
 10
128.28999999999991
 20
74.994299999999996
 30
0.0
 11
127.557
 21
75.040499999999994
 31
0.0
  0
ARC
  5
2C4
  8
0
 62
     7
 10
127.6327939999999
 20
75.743889999999993
 30
0.0
 40
0.707468
 50
181.86048799999989
 51
263.83723199999991
  0
LINE
  5
2C5
  8
0
 62
     7
 10
155.62200000000001
 20
174.95400000000001
 30
0.0
 11
154.214
 21
107.52500000000001
 31
0.0
  0
LINE
  5
2C6
  8
0
 62
     7
 10
151.68999999999991
 20
103.09399999999989
 30
0.0
 11
130.18299999999999
 21
89.743899999999996
 31
0.0
  0
LINE
  5
2C7
  8
0
 62
     7
 10
151.96899999999991
 20
181.64400000000001
 30
0.0
 11
134.4079999999999
 21
183.184
 31
0.0
  0
LINE
  5
2C8
  8
0
 62
     7
 10
134.4079999999999
 20
183.184
 30
0.0
 11
130.18299999999999
 21
183.53599999999989
 31
0.0
  0
LINE
  5
2C9
  8
0
 62
     7
 10
130.18299999999999
 20
183.53599999999989
 30
0.0
 11
129.4789999999999
 21
183.58000000000001
 31
0.0
  0
LINE
  5
2CA
  8
0
 62
     7
 10
151.61699999999999
 20
181.64400000000001
 30
0.0
 11
148.6689999999999
 21
173.458
 31
0.0
  0
LINE
  5
2CB
  8
0
 62
     7
 10
148.6689999999999
 20
173.458
 30
0.0
 11
145.85099999999991
 21
165.227
 31
0.0
  0
LINE
  5
2CC
  8
0
 62
     7
 10
145.85099999999991
 20
165.227
 30
0.0
 11
143.21100000000001
 21
156.9079999999999
 31
0.0
  0
LINE
  5
2CD
  8
0
 62
     7
 10
143.21100000000001
 20
156.9079999999999
 30
0.0
 11
140.78999999999991
 21
148.50200000000001
 31
0.0
  0
LINE
  5
2CE
  8
0
 62
     7
 10
140.78999999999991
 20
148.50200000000001
 30
0.0
 11
138.5449999999999
 21
140.09499999999991
 31
0.0
  0
LINE
  5
2CF
  8
0
 62
     7
 10
138.5449999999999
 20
140.09499999999991
 30
0.0
 11
136.47599999999991
 21
131.64500000000001
 31
0.0
  0
LINE
  5
2D0
  8
0
 62
     7
 10
136.47599999999991
 20
131.64500000000001
 30
0.0
 11
134.584
 21
123.10599999999999
 31
0.0
  0
LINE
  5
2D1
  8
0
 62
     7
 10
134.584
 20
123.10599999999999
 30
0.0
 11
132.911
 21
114.56699999999999
 31
0.0
  0
LINE
  5
2D2
  8
0
 62
     7
 10
132.911
 20
114.56699999999999
 30
0.0
 11
131.37100000000001
 21
105.9849999999999
 31
0.0
  0
LINE
  5
2D3
  8
0
 62
     7
 10
131.37100000000001
 20
105.9849999999999
 30
0.0
 11
130.05000000000001
 21
97.358299999999986
 31
0.0
  0
LINE
  5
2D4
  8
0
 62
     7
 10
130.05000000000001
 20
97.358299999999986
 30
0.0
 11
128.90600000000001
 21
88.731800000000007
 31
0.0
  0
ARC
  5
2D5
  8
0
 62
     7
 10
119.4779679999999
 20
178.33067199999991
 30
0.0
 40
10.853066999999999
 50
31.792173999999989
 51
37.430089000000002
  0
ARC
  5
2D6
  8
0
 62
     7
 10
116.1855489999999
 20
175.8773709999999
 30
0.0
 40
14.958754999999989
 50
37.227265000000003
 51
42.667138999999999
  0
ARC
  5
2D7
  8
0
 62
     7
 10
129.553157
 20
184.58525700000001
 30
0.0
 40
1.0056849999999991
 50
212.25740200000001
 51
264.56262800000002
  0
ARC
  5
2D8
  8
0
 62
     7
 10
127.92870499999999
 20
186.68825100000001
 30
0.0
 40
1.0030179999999991
 50
180.28140999999999
 51
222.12404000000001
  0
ARC
  5
2D9
  8
0
 62
     7
 10
151.4537719999999
 20
177.48723299999989
 30
0.0
 40
4.1263129999999988
 50
1.7995410000000001
 51
83.203770000000006
  0
ARC
  5
2DA
  8
0
 62
     7
 10
148.76725999999999
 20
107.6911149999999
 30
0.0
 40
5.447705
 50
302.44492700000001
 51
358.24396400000001
  0
ARC
  5
2DB
  8
0
 62
     7
 10
123.99953499999999
 20
80.953423000000001
 30
0.0
 40
1.36646
 50
132.552997
 51
185.15195099999991
  0
ARC
  5
2DC
  8
0
 62
     7
 10
123.9976179999999
 20
80.978267999999986
 30
0.0
 40
1.367008999999999
 50
186.19633200000001
 51
238.7785889999999
  0
ARC
  5
2DD
  8
0
 62
     7
 10
101.06614999999989
 20
106.32763
 30
0.0
 40
32.834383000000003
 50
312.07010799999989
 51
325.75176699999992
  0
LINE
  5
2DE
  8
0
 62
     7
 10
125.62299999999991
 20
78.450100000000006
 30
0.0
 11
123.289
 21
79.809200000000004
 31
0.0
  0
ARC
  5
2DF
  8
0
 62
     7
 10
124.21041200000001
 20
76.13130799999999
 30
0.0
 40
2.715447999999999
 50
0.6236189999999999
 51
58.643034
  0
ARC
  5
2E0
  8
0
 62
     7
 10
133.71098399999991
 20
84.013164000000003
 30
0.0
 40
6.7101589999999991
 50
121.95132699999991
 51
145.47719499999999
  0
LINE
  5
2E1
  8
0
 62
     7
 10
126.926
 20
103.8149999999999
 30
0.0
 11
127.7179999999999
 21
124.3829999999999
 31
0.0
  0
LINE
  5
2E2
  8
0
 62
     7
 10
127.7179999999999
 20
124.3829999999999
 30
0.0
 11
128.28999999999991
 21
144.14400000000001
 31
0.0
  0
LINE
  5
2E3
  8
0
 62
     7
 10
128.28999999999991
 20
144.14400000000001
 30
0.0
 11
128.7299999999999
 21
163.863
 31
0.0
  0
LINE
  5
2E4
  8
0
 62
     7
 10
128.7299999999999
 20
163.863
 30
0.0
 11
128.9499999999999
 21
183.624
 31
0.0
  0
ARC
  5
2E5
  8
0
 62
     7
 10
52.791550000000001
 20
106.89128700000001
 30
0.0
 40
74.117878000000005
 50
341.26046400000001
 51
350.34088800000001
  0
ARC
  5
2E6
  8
0
 62
     7
 10
46.131518999999997
 20
108.28503600000001
 30
0.0
 40
80.917749999999998
 50
350.15924499999988
 51
356.83314300000001
  0
ARC
  5
2E7
  8
0
 62
     7
 10
129.295456
 20
80.920179000000005
 30
0.0
 40
6.663138
 50
161.2517729999999
 51
179.72646
  0
LINE
  5
2E8
  8
0
 62
     7
 10
156.459
 20
173.1049999999999
 30
0.0
 11
156.459
 21
176.84599999999989
 31
0.0
  0
LINE
  5
2E9
  8
0
 62
     7
 10
155.738
 20
177.78999999999991
 30
0.0
 11
156.238
 21
177.3309999999999
 31
0.0
  0
LINE
  5
2EA
  8
0
 62
     7
 10
155.75399999999991
 20
172.1809999999999
 30
0.0
 11
156.24100000000001
 21
172.58399999999989
 31
0.0
  0
ARC
  5
2EB
  8
0
 62
     7
 10
155.76914600000001
 20
176.8213409999999
 30
0.0
 40
0.6894840000000001
 50
0.256998
 51
45.236043000000002
  0
ARC
  5
2EC
  8
0
 62
     7
 10
155.76661399999989
 20
173.08760699999999
 30
0.0
 40
0.6920220000000001
 50
313.263081
 51
359.6358029999999
  0
ARC
  5
2ED
  8
0
 62
     7
 10
156.22379100000001
 20
178.28004999999999
 30
0.0
 40
0.6897820000000001
 50
188.07241999999999
 51
225.21843299999989
  0
ARC
  5
2EE
  8
0
 62
     7
 10
156.22755100000001
 20
171.66922700000001
 30
0.0
 40
0.6938740000000001
 50
133.29941099999999
 51
178.38378599999999
  0
LINE
  5
2EF
  8
0
 62
     7
 10
156.94200000000001
 20
173.1049999999999
 30
0.0
 11
156.94200000000001
 21
176.84599999999989
 31
0.0
  0
ARC
  5
2F0
  8
0
 62
     7
 10
155.76152300000001
 20
176.818668
 30
0.0
 40
1.1808080000000001
 50
0.279756
 51
45.145304999999993
  0
LINE
  5
2F1
  8
0
 62
     7
 10
156.10900000000001
 20
178.167
 30
0.0
 11
156.58199999999991
 21
177.66799999999989
 31
0.0
  0
ARC
  5
2F2
  8
0
 62
     7
 10
156.21976699999991
 20
178.2785639999999
 30
0.0
 40
0.157621
 50
188.33787000000001
 51
225.1470379999999
  0
ARC
  5
2F3
  8
0
 62
     7
 10
151.47216299999991
 20
177.487121
 30
0.0
 40
4.6523839999999987
 50
9.2681839999999998
 51
83.631232999999995
  0
ARC
  5
2F4
  8
0
 62
     7
 10
155.76040499999991
 20
173.08922100000001
 30
0.0
 40
1.1819269999999991
 50
313.296064
 51
359.70850000000002
  0
LINE
  5
2F5
  8
0
 62
     7
 10
156.10699999999991
 20
171.785
 30
0.0
 11
156.57099999999991
 21
172.22900000000001
 31
0.0
  0
ARC
  5
2F6
  8
0
 62
     7
 10
156.2199259999999
 20
171.6734899999999
 30
0.0
 40
0.15756
 50
133.5573169999999
 51
178.31721999999991
  0
LINE
  5
2F7
  8
0
 62
     7
 10
156.06200000000001
 20
171.697
 30
0.0
 11
154.69799999999989
 21
107.52500000000001
 31
0.0
  0
LINE
  5
2F8
  8
0
 62
     7
 10
155.93000000000001
 20
165.7109999999999
 30
0.0
 11
155.44599999999991
 21
166.19499999999999
 31
0.0
  0
LINE
  5
2F9
  8
0
 62
     7
 10
155.93000000000001
 20
165.13900000000001
 30
0.0
 11
155.44599999999991
 21
165.62299999999991
 31
0.0
  0
LINE
  5
2FA
  8
0
 62
     7
 10
155.88599999999991
 20
164.56700000000001
 30
0.0
 11
155.40199999999999
 21
165.0509999999999
 31
0.0
  0
LINE
  5
2FB
  8
0
 62
     7
 10
155.88599999999991
 20
163.9499999999999
 30
0.0
 11
155.40199999999999
 21
164.435
 31
0.0
  0
LINE
  5
2FC
  8
0
 62
     7
 10
155.88599999999991
 20
163.3779999999999
 30
0.0
 11
155.40199999999999
 21
163.863
 31
0.0
  0
LINE
  5
2FD
  8
0
 62
     7
 10
155.88599999999991
 20
162.80600000000001
 30
0.0
 11
155.358
 21
163.28999999999999
 31
0.0
  0
LINE
  5
2FE
  8
0
 62
     7
 10
155.84200000000001
 20
162.19
 30
0.0
 11
155.358
 21
162.67400000000001
 31
0.0
  0
LINE
  5
2FF
  8
0
 62
     7
 10
155.84200000000001
 20
161.61699999999999
 30
0.0
 11
155.358
 21
162.102
 31
0.0
  0
LINE
  5
300
  8
0
 62
     7
 10
155.84200000000001
 20
161.0449999999999
 30
0.0
 11
155.358
 21
161.52999999999989
 31
0.0
  0
LINE
  5
301
  8
0
 62
     7
 10
155.79900000000001
 20
160.42899999999989
 30
0.0
 11
155.31399999999991
 21
160.9129999999999
 31
0.0
  0
LINE
  5
302
  8
0
 62
     7
 10
155.79900000000001
 20
159.857
 30
0.0
 11
155.31399999999991
 21
160.34100000000001
 31
0.0
  0
LINE
  5
303
  8
0
 62
     7
 10
155.79900000000001
 20
159.285
 30
0.0
 11
155.31399999999991
 21
159.76900000000001
 31
0.0
  0
LINE
  5
304
  8
0
 62
     7
 10
155.79900000000001
 20
158.6689999999999
 30
0.0
 11
155.31399999999991
 21
159.15299999999991
 31
0.0
  0
LINE
  5
305
  8
0
 62
     7
 10
155.75399999999991
 20
158.096
 30
0.0
 11
155.27000000000001
 21
158.58099999999999
 31
0.0
  0
LINE
  5
306
  8
0
 62
     7
 10
155.75399999999991
 20
157.52500000000001
 30
0.0
 11
155.27000000000001
 21
158.00899999999999
 31
0.0
  0
LINE
  5
307
  8
0
 62
     7
 10
155.75399999999991
 20
156.9079999999999
 30
0.0
 11
155.27000000000001
 21
157.392
 31
0.0
  0
LINE
  5
308
  8
0
 62
     7
 10
155.75399999999991
 20
156.33600000000001
 30
0.0
 11
155.22599999999991
 21
156.81999999999999
 31
0.0
  0
LINE
  5
309
  8
0
 62
     7
 10
155.71000000000001
 20
155.76400000000001
 30
0.0
 11
155.22599999999991
 21
156.24799999999991
 31
0.0
  0
LINE
  5
30A
  8
0
 62
     7
 10
155.71000000000001
 20
155.14799999999991
 30
0.0
 11
155.22599999999991
 21
155.67599999999999
 31
0.0
  0
LINE
  5
30B
  8
0
 62
     7
 10
155.71000000000001
 20
154.57599999999999
 30
0.0
 11
155.22599999999991
 21
155.06
 31
0.0
  0
LINE
  5
30C
  8
0
 62
     7
 10
155.66599999999991
 20
154.0029999999999
 30
0.0
 11
155.18199999999999
 21
154.488
 31
0.0
  0
LINE
  5
30D
  8
0
 62
     7
 10
155.66599999999991
 20
153.387
 30
0.0
 11
155.18199999999999
 21
153.91499999999999
 31
0.0
  0
LINE
  5
30E
  8
0
 62
     7
 10
155.66599999999991
 20
152.815
 30
0.0
 11
155.18199999999999
 21
153.29900000000001
 31
0.0
  0
LINE
  5
30F
  8
0
 62
     7
 10
155.66599999999991
 20
152.24299999999991
 30
0.0
 11
155.13799999999989
 21
152.727
 31
0.0
  0
LINE
  5
310
  8
0
 62
     7
 10
155.62200000000001
 20
151.62700000000001
 30
0.0
 11
155.13799999999989
 21
152.15499999999989
 31
0.0
  0
LINE
  5
311
  8
0
 62
     7
 10
155.62200000000001
 20
151.05500000000001
 30
0.0
 11
155.13799999999989
 21
151.53899999999999
 31
0.0
  0
LINE
  5
312
  8
0
 62
     7
 10
155.62200000000001
 20
150.482
 30
0.0
 11
155.13799999999989
 21
150.96700000000001
 31
0.0
  0
LINE
  5
313
  8
0
 62
     7
 10
155.578
 20
149.86600000000001
 30
0.0
 11
155.09399999999991
 21
150.39400000000001
 31
0.0
  0
LINE
  5
314
  8
0
 62
     7
 10
155.578
 20
149.2939999999999
 30
0.0
 11
155.09399999999991
 21
149.77799999999991
 31
0.0
  0
LINE
  5
315
  8
0
 62
     7
 10
155.578
 20
148.72200000000001
 30
0.0
 11
155.09399999999991
 21
149.20599999999999
 31
0.0
  0
LINE
  5
316
  8
0
 62
     7
 10
155.578
 20
148.15000000000001
 30
0.0
 11
155.09399999999991
 21
148.63399999999999
 31
0.0
  0
LINE
  5
317
  8
0
 62
     7
 10
155.53399999999991
 20
147.53399999999991
 30
0.0
 11
155.05000000000001
 21
148.017
 31
0.0
  0
LINE
  5
318
  8
0
 62
     7
 10
155.53399999999991
 20
146.96100000000001
 30
0.0
 11
155.05000000000001
 21
147.446
 31
0.0
  0
LINE
  5
319
  8
0
 62
     7
 10
155.53399999999991
 20
146.38900000000001
 30
0.0
 11
155.05000000000001
 21
146.87299999999991
 31
0.0
  0
LINE
  5
31A
  8
0
 62
     7
 10
155.53399999999991
 20
145.77299999999991
 30
0.0
 11
155.006
 21
146.25700000000001
 31
0.0
  0
LINE
  5
31B
  8
0
 62
     7
 10
155.49000000000001
 20
145.20099999999999
 30
0.0
 11
155.006
 21
145.685
 31
0.0
  0
LINE
  5
31C
  8
0
 62
     7
 10
155.49000000000001
 20
144.62899999999991
 30
0.0
 11
155.006
 21
145.11199999999991
 31
0.0
  0
LINE
  5
31D
  8
0
 62
     7
 10
155.49000000000001
 20
144.012
 30
0.0
 11
155.006
 21
144.49600000000001
 31
0.0
  0
LINE
  5
31E
  8
0
 62
     7
 10
155.44599999999991
 20
143.43999999999991
 30
0.0
 11
154.96199999999999
 21
143.92500000000001
 31
0.0
  0
LINE
  5
31F
  8
0
 62
     7
 10
155.44599999999991
 20
142.86799999999991
 30
0.0
 11
154.96199999999999
 21
143.352
 31
0.0
  0
LINE
  5
320
  8
0
 62
     7
 10
155.44599999999991
 20
142.25200000000001
 30
0.0
 11
154.96199999999999
 21
142.73599999999999
 31
0.0
  0
LINE
  5
321
  8
0
 62
     7
 10
155.44599999999991
 20
141.68000000000001
 30
0.0
 11
154.91799999999989
 21
142.1639999999999
 31
0.0
  0
LINE
  5
322
  8
0
 62
     7
 10
155.40199999999999
 20
141.107
 30
0.0
 11
154.91799999999989
 21
141.59200000000001
 31
0.0
  0
LINE
  5
323
  8
0
 62
     7
 10
155.40199999999999
 20
140.49100000000001
 30
0.0
 11
154.91799999999989
 21
140.976
 31
0.0
  0
LINE
  5
324
  8
0
 62
     7
 10
155.40199999999999
 20
139.9189999999999
 30
0.0
 11
154.91799999999989
 21
140.40299999999991
 31
0.0
  0
LINE
  5
325
  8
0
 62
     7
 10
155.358
 20
139.34700000000001
 30
0.0
 11
154.874
 21
139.83099999999999
 31
0.0
  0
LINE
  5
326
  8
0
 62
     7
 10
155.358
 20
138.73099999999999
 30
0.0
 11
154.874
 21
139.21499999999989
 31
0.0
  0
LINE
  5
327
  8
0
 62
     7
 10
155.358
 20
138.15899999999991
 30
0.0
 11
154.874
 21
138.643
 31
0.0
  0
LINE
  5
328
  8
0
 62
     7
 10
155.358
 20
137.58600000000001
 30
0.0
 11
154.874
 21
138.071
 31
0.0
  0
LINE
  5
329
  8
0
 62
     7
 10
155.31399999999991
 20
136.96999999999991
 30
0.0
 11
154.83000000000001
 21
137.45500000000001
 31
0.0
  0
LINE
  5
32A
  8
0
 62
     7
 10
155.31399999999991
 20
136.39799999999991
 30
0.0
 11
154.83000000000001
 21
136.88200000000001
 31
0.0
  0
LINE
  5
32B
  8
0
 62
     7
 10
155.31399999999991
 20
135.82599999999999
 30
0.0
 11
154.83000000000001
 21
136.30999999999989
 31
0.0
  0
LINE
  5
32C
  8
0
 62
     7
 10
155.31399999999991
 20
135.209
 30
0.0
 11
154.786
 21
135.6939999999999
 31
0.0
  0
LINE
  5
32D
  8
0
 62
     7
 10
155.27000000000001
 20
134.63800000000001
 30
0.0
 11
154.786
 21
135.12200000000001
 31
0.0
  0
LINE
  5
32E
  8
0
 62
     7
 10
155.27000000000001
 20
134.06499999999991
 30
0.0
 11
154.786
 21
134.55000000000001
 31
0.0
  0
LINE
  5
32F
  8
0
 62
     7
 10
155.27000000000001
 20
133.4489999999999
 30
0.0
 11
154.786
 21
133.977
 31
0.0
  0
LINE
  5
330
  8
0
 62
     7
 10
155.22599999999991
 20
132.87700000000001
 30
0.0
 11
154.74199999999999
 21
133.3609999999999
 31
0.0
  0
LINE
  5
331
  8
0
 62
     7
 10
155.22599999999991
 20
132.30500000000001
 30
0.0
 11
154.74199999999999
 21
132.7889999999999
 31
0.0
  0
LINE
  5
332
  8
0
 62
     7
 10
155.22599999999991
 20
131.68899999999991
 30
0.0
 11
154.74199999999999
 21
132.21700000000001
 31
0.0
  0
LINE
  5
333
  8
0
 62
     7
 10
155.22599999999991
 20
131.11699999999999
 30
0.0
 11
154.69799999999989
 21
131.601
 31
0.0
  0
LINE
  5
334
  8
0
 62
     7
 10
155.18199999999999
 20
130.5439999999999
 30
0.0
 11
154.69799999999989
 21
131.02799999999991
 31
0.0
  0
LINE
  5
335
  8
0
 62
     7
 10
155.18199999999999
 20
129.92799999999991
 30
0.0
 11
154.69799999999989
 21
130.45599999999999
 31
0.0
  0
LINE
  5
336
  8
0
 62
     7
 10
155.18199999999999
 20
129.35599999999999
 30
0.0
 11
154.69799999999989
 21
129.83999999999989
 31
0.0
  0
LINE
  5
337
  8
0
 62
     7
 10
155.13799999999989
 20
128.78399999999991
 30
0.0
 11
154.654
 21
129.268
 31
0.0
  0
LINE
  5
338
  8
0
 62
     7
 10
155.13799999999989
 20
128.16800000000001
 30
0.0
 11
154.654
 21
128.696
 31
0.0
  0
LINE
  5
339
  8
0
 62
     7
 10
155.13799999999989
 20
127.5949999999999
 30
0.0
 11
154.654
 21
128.07900000000001
 31
0.0
  0
LINE
  5
33A
  8
0
 62
     7
 10
155.13799999999989
 20
127.0229999999999
 30
0.0
 11
154.654
 21
127.50700000000001
 31
0.0
  0
LINE
  5
33B
  8
0
 62
     7
 10
155.09399999999991
 20
126.45099999999999
 30
0.0
 11
154.61000000000001
 21
126.9349999999999
 31
0.0
  0
LINE
  5
33C
  8
0
 62
     7
 10
155.09399999999991
 20
125.83499999999989
 30
0.0
 11
154.61000000000001
 21
126.319
 31
0.0
  0
LINE
  5
33D
  8
0
 62
     7
 10
155.09399999999991
 20
125.26299999999991
 30
0.0
 11
154.61000000000001
 21
125.747
 31
0.0
  0
LINE
  5
33E
  8
0
 62
     7
 10
155.09399999999991
 20
124.6909999999999
 30
0.0
 11
154.56599999999989
 21
125.1749999999999
 31
0.0
  0
LINE
  5
33F
  8
0
 62
     7
 10
155.05000000000001
 20
124.075
 30
0.0
 11
154.56599999999989
 21
124.5589999999999
 31
0.0
  0
LINE
  5
340
  8
0
 62
     7
 10
155.05000000000001
 20
123.502
 30
0.0
 11
154.56599999999989
 21
123.9859999999999
 31
0.0
  0
LINE
  5
341
  8
0
 62
     7
 10
155.05000000000001
 20
122.93000000000001
 30
0.0
 11
154.56599999999989
 21
123.414
 31
0.0
  0
LINE
  5
342
  8
0
 62
     7
 10
155.006
 20
122.31399999999989
 30
0.0
 11
154.52199999999999
 21
122.7979999999999
 31
0.0
  0
LINE
  5
343
  8
0
 62
     7
 10
155.006
 20
121.742
 30
0.0
 11
154.52199999999999
 21
122.226
 31
0.0
  0
LINE
  5
344
  8
0
 62
     7
 10
155.006
 20
121.1699999999999
 30
0.0
 11
154.52199999999999
 21
121.6539999999999
 31
0.0
  0
LINE
  5
345
  8
0
 62
     7
 10
155.006
 20
120.554
 30
0.0
 11
154.47799999999989
 21
121.03700000000001
 31
0.0
  0
LINE
  5
346
  8
0
 62
     7
 10
154.96199999999999
 20
119.98099999999999
 30
0.0
 11
154.47799999999989
 21
120.4649999999999
 31
0.0
  0
LINE
  5
347
  8
0
 62
     7
 10
154.74199999999999
 20
119.62899999999991
 30
0.0
 11
154.47799999999989
 21
119.8929999999999
 31
0.0
  0
LINE
  5
348
  8
0
 62
     7
 10
152.01299999999989
 20
182.1279999999999
 30
0.0
 11
134.45199999999991
 21
183.66900000000001
 31
0.0
  0
LINE
  5
349
  8
0
 62
     7
 10
134.45199999999991
 20
183.66900000000001
 30
0.0
 11
130.227
 21
184.02000000000001
 31
0.0
  0
LINE
  5
34A
  8
0
 62
     7
 10
130.227
 20
184.02000000000001
 30
0.0
 11
129.4789999999999
 21
184.108
 31
0.0
  0
LINE
  5
34B
  8
0
 62
     7
 10
128.28999999999991
 20
187.89400000000001
 30
0.0
 11
127.6299999999999
 21
187.84999999999999
 31
0.0
  0
LINE
  5
34C
  8
0
 62
     7
 10
127.6299999999999
 20
187.84999999999999
 30
0.0
 11
127.5859999999999
 21
187.84999999999999
 31
0.0
  0
ARC
  5
34D
  8
0
 62
     7
 10
127.617825
 20
187.55457200000001
 30
0.0
 40
0.296074
 50
96.078675000000004
 51
178.26170999999999
  0
LINE
  5
34E
  8
0
 62
     7
 10
127.322
 20
186.68299999999999
 30
0.0
 11
127.322
 21
187.56399999999999
 31
0.0
  0
ARC
  5
34F
  8
0
 62
     7
 10
127.923841
 20
186.68591299999991
 30
0.0
 40
0.601959
 50
180.24631199999999
 51
222.05965599999999
  0
ARC
  5
350
  8
0
 62
     7
 10
121.64390400000001
 20
179.783119
 30
0.0
 40
8.6628720000000001
 50
32.364609999999999
 51
38.635218000000002
  0
ARC
  5
351
  8
0
 62
     7
 10
116.6862599999999
 20
175.92061799999991
 30
0.0
 40
14.947266000000001
 50
38.335413000000003
 51
41.895277
  0
ARC
  5
352
  8
0
 62
     7
 10
98.605435999999983
 20
159.93576399999989
 30
0.0
 40
39.080646000000002
 50
41.638321999999988
 51
42.376523999999989
  0
ARC
  5
353
  8
0
 62
     7
 10
129.54518999999991
 20
184.7994929999999
 30
0.0
 40
0.6942550000000001
 50
212.9263839999999
 51
264.49030299999998
  0
ARC
  5
354
  8
0
 62
     7
 10
148.76094900000001
 20
107.69564699999999
 30
0.0
 40
5.9386130000000001
 50
302.42859599999991
 51
358.24899299999998
  0
LINE
  5
355
  8
0
 62
     7
 10
151.946
 20
102.68299999999989
 30
0.0
 11
130.447
 21
89.304000000000002
 31
0.0
  0
ARC
  5
356
  8
0
 62
     7
 10
133.6969939999999
 20
84.028850000000006
 30
0.0
 40
6.2050700000000001
 50
121.918532
 51
145.51827199999991
  0
ARC
  5
357
  8
0
 62
     7
 10
101.096808
 20
106.3031269999999
 30
0.0
 40
33.279536
 50
312.26475599999998
 51
325.75485499999991
  0
LINE
  5
358
  8
0
 62
     7
 10
128.28999999999991
 20
75.434299999999993
 30
0.0
 11
127.6299999999999
 21
75.478700000000003
 31
0.0
  0
LINE
  5
359
  8
0
 62
     7
 10
127.6299999999999
 20
75.478700000000003
 30
0.0
 11
127.5859999999999
 21
75.478700000000003
 31
0.0
  0
ARC
  5
35A
  8
0
 62
     7
 10
127.61756200000001
 20
75.773539
 30
0.0
 40
0.296517
 50
181.8463459999999
 51
263.84775899999988
  0
LINE
  5
35B
  8
0
 62
     7
 10
127.3209999999999
 20
75.763999999999996
 30
0.0
 11
127.322
 21
76.162199999999999
 31
0.0
  0
ARC
  5
35C
  8
0
 62
     7
 10
124.201753
 20
76.12585
 30
0.0
 40
3.1203310000000002
 50
0.642916
 51
58.646162999999987
  0
LINE
  5
35D
  8
0
 62
     7
 10
125.825
 20
78.790499999999994
 30
0.0
 11
123.645
 21
80.067999999999998
 31
0.0
  0
ARC
  5
35E
  8
0
 62
     7
 10
124.13311899999989
 20
80.960666000000003
 30
0.0
 40
0.9682739999999999
 50
132.4806189999999
 51
171.76997399999999
  0
ARC
  5
35F
  8
0
 62
     7
 10
124.2282239999999
 20
80.922356999999991
 30
0.0
 40
1.0681599999999991
 50
170.466387
 51
185.51527899999991
  0
ARC
  5
360
  8
0
 62
     7
 10
124.164914
 20
80.928751999999989
 30
0.0
 40
1.0058339999999999
 50
186.22450199999989
 51
238.84695199999999
  0
LINE
  5
361
  8
0
 62
     7
 10
156.94200000000001
 20
173.14899999999989
 30
0.0
 11
156.459
 21
173.14899999999989
 31
0.0
  0
LINE
  5
362
  8
0
 62
     7
 10
156.94200000000001
 20
176.80199999999999
 30
0.0
 11
156.459
 21
176.80199999999999
 31
0.0
  0
LINE
  5
363
  8
0
 62
     7
 10
128.28999999999991
 20
74.994299999999996
 30
0.0
 11
128.9499999999999
 21
74.994299999999996
 31
0.0
  0
LINE
  5
364
  8
0
 62
     7
 10
128.28999999999991
 20
75.434299999999993
 30
0.0
 11
128.9499999999999
 21
75.434299999999993
 31
0.0
  0
LINE
  5
365
  8
0
 62
     7
 10
156.06200000000001
 20
171.565
 30
0.0
 11
155.578
 21
172.0929999999999
 31
0.0
  0
LINE
  5
366
  8
0
 62
     7
 10
156.018
 20
170.99299999999991
 30
0.0
 11
155.53399999999991
 21
171.477
 31
0.0
  0
LINE
  5
367
  8
0
 62
     7
 10
156.018
 20
170.4199999999999
 30
0.0
 11
155.53399999999991
 21
170.90499999999989
 31
0.0
  0
LINE
  5
368
  8
0
 62
     7
 10
156.018
 20
169.80399999999989
 30
0.0
 11
155.53399999999991
 21
170.33199999999991
 31
0.0
  0
LINE
  5
369
  8
0
 62
     7
 10
156.018
 20
169.232
 30
0.0
 11
155.53399999999991
 21
169.71599999999989
 31
0.0
  0
LINE
  5
36A
  8
0
 62
     7
 10
155.9739999999999
 20
168.66
 30
0.0
 11
155.49000000000001
 21
169.14400000000001
 31
0.0
  0
LINE
  5
36B
  8
0
 62
     7
 10
155.9739999999999
 20
168.08799999999991
 30
0.0
 11
155.49000000000001
 21
168.572
 31
0.0
  0
LINE
  5
36C
  8
0
 62
     7
 10
155.9739999999999
 20
167.47200000000001
 30
0.0
 11
155.49000000000001
 21
167.9559999999999
 31
0.0
  0
LINE
  5
36D
  8
0
 62
     7
 10
155.9739999999999
 20
166.89899999999989
 30
0.0
 11
155.44599999999991
 21
167.38399999999999
 31
0.0
  0
LINE
  5
36E
  8
0
 62
     7
 10
155.93000000000001
 20
166.32699999999991
 30
0.0
 11
155.44599999999991
 21
166.81099999999989
 31
0.0
  0
LINE
  5
36F
  8
0
 62
     7
 10
155.93000000000001
 20
165.7109999999999
 30
0.0
 11
155.44599999999991
 21
166.19499999999999
 31
0.0
  0
LINE
  5
370
  8
0
 62
     7
 10
155.93000000000001
 20
165.13900000000001
 30
0.0
 11
155.44599999999991
 21
165.62299999999991
 31
0.0
  0
LINE
  5
371
  8
0
 62
     7
 10
155.88599999999991
 20
164.56700000000001
 30
0.0
 11
155.40199999999999
 21
165.0509999999999
 31
0.0
  0
LINE
  5
372
  8
0
 62
     7
 10
155.88599999999991
 20
163.9499999999999
 30
0.0
 11
155.40199999999999
 21
164.435
 31
0.0
  0
LINE
  5
373
  8
0
 62
     7
 10
155.88599999999991
 20
163.3779999999999
 30
0.0
 11
155.40199999999999
 21
163.863
 31
0.0
  0
LINE
  5
374
  8
0
 62
     7
 10
155.88599999999991
 20
162.80600000000001
 30
0.0
 11
155.358
 21
163.28999999999999
 31
0.0
  0
LINE
  5
375
  8
0
 62
     7
 10
155.84200000000001
 20
162.19
 30
0.0
 11
155.358
 21
162.67400000000001
 31
0.0
  0
LINE
  5
376
  8
0
 62
     7
 10
155.84200000000001
 20
161.61699999999999
 30
0.0
 11
155.358
 21
162.102
 31
0.0
  0
LINE
  5
377
  8
0
 62
     7
 10
155.84200000000001
 20
161.0449999999999
 30
0.0
 11
155.358
 21
161.52999999999989
 31
0.0
  0
LINE
  5
378
  8
0
 62
     7
 10
155.79900000000001
 20
160.42899999999989
 30
0.0
 11
155.31399999999991
 21
160.9129999999999
 31
0.0
  0
LINE
  5
379
  8
0
 62
     7
 10
155.79900000000001
 20
159.857
 30
0.0
 11
155.31399999999991
 21
160.34100000000001
 31
0.0
  0
LINE
  5
37A
  8
0
 62
     7
 10
155.79900000000001
 20
159.285
 30
0.0
 11
155.31399999999991
 21
159.76900000000001
 31
0.0
  0
LINE
  5
37B
  8
0
 62
     7
 10
155.79900000000001
 20
158.6689999999999
 30
0.0
 11
155.31399999999991
 21
159.15299999999991
 31
0.0
  0
LINE
  5
37C
  8
0
 62
     7
 10
155.75399999999991
 20
158.096
 30
0.0
 11
155.27000000000001
 21
158.58099999999999
 31
0.0
  0
LINE
  5
37D
  8
0
 62
     7
 10
155.75399999999991
 20
157.52500000000001
 30
0.0
 11
155.27000000000001
 21
158.00899999999999
 31
0.0
  0
LINE
  5
37E
  8
0
 62
     7
 10
155.75399999999991
 20
156.9079999999999
 30
0.0
 11
155.27000000000001
 21
157.392
 31
0.0
  0
LINE
  5
37F
  8
0
 62
     7
 10
155.75399999999991
 20
156.33600000000001
 30
0.0
 11
155.22599999999991
 21
156.81999999999999
 31
0.0
  0
LINE
  5
380
  8
0
 62
     7
 10
155.71000000000001
 20
155.76400000000001
 30
0.0
 11
155.22599999999991
 21
156.24799999999991
 31
0.0
  0
LINE
  5
381
  8
0
 62
     7
 10
155.71000000000001
 20
155.14799999999991
 30
0.0
 11
155.22599999999991
 21
155.67599999999999
 31
0.0
  0
LINE
  5
382
  8
0
 62
     7
 10
155.71000000000001
 20
154.57599999999999
 30
0.0
 11
155.22599999999991
 21
155.06
 31
0.0
  0
LINE
  5
383
  8
0
 62
     7
 10
155.66599999999991
 20
154.0029999999999
 30
0.0
 11
155.18199999999999
 21
154.488
 31
0.0
  0
LINE
  5
384
  8
0
 62
     7
 10
155.66599999999991
 20
153.387
 30
0.0
 11
155.18199999999999
 21
153.91499999999999
 31
0.0
  0
LINE
  5
385
  8
0
 62
     7
 10
155.66599999999991
 20
152.815
 30
0.0
 11
155.18199999999999
 21
153.29900000000001
 31
0.0
  0
LINE
  5
386
  8
0
 62
     7
 10
155.66599999999991
 20
152.24299999999991
 30
0.0
 11
155.13799999999989
 21
152.727
 31
0.0
  0
LINE
  5
387
  8
0
 62
     7
 10
155.62200000000001
 20
151.62700000000001
 30
0.0
 11
155.13799999999989
 21
152.15499999999989
 31
0.0
  0
LINE
  5
388
  8
0
 62
     7
 10
155.62200000000001
 20
151.05500000000001
 30
0.0
 11
155.13799999999989
 21
151.53899999999999
 31
0.0
  0
LINE
  5
389
  8
0
 62
     7
 10
155.62200000000001
 20
150.482
 30
0.0
 11
155.13799999999989
 21
150.96700000000001
 31
0.0
  0
LINE
  5
38A
  8
0
 62
     7
 10
155.578
 20
149.86600000000001
 30
0.0
 11
155.09399999999991
 21
150.39400000000001
 31
0.0
  0
LINE
  5
38B
  8
0
 62
     7
 10
155.578
 20
149.2939999999999
 30
0.0
 11
155.09399999999991
 21
149.77799999999991
 31
0.0
  0
LINE
  5
38C
  8
0
 62
     7
 10
155.578
 20
148.72200000000001
 30
0.0
 11
155.09399999999991
 21
149.20599999999999
 31
0.0
  0
LINE
  5
38D
  8
0
 62
     7
 10
155.578
 20
148.15000000000001
 30
0.0
 11
155.09399999999991
 21
148.63399999999999
 31
0.0
  0
LINE
  5
38E
  8
0
 62
     7
 10
155.53399999999991
 20
147.53399999999991
 30
0.0
 11
155.05000000000001
 21
148.017
 31
0.0
  0
LINE
  5
38F
  8
0
 62
     7
 10
155.53399999999991
 20
146.96100000000001
 30
0.0
 11
155.05000000000001
 21
147.446
 31
0.0
  0
LINE
  5
390
  8
0
 62
     7
 10
155.53399999999991
 20
146.38900000000001
 30
0.0
 11
155.05000000000001
 21
146.87299999999991
 31
0.0
  0
LINE
  5
391
  8
0
 62
     7
 10
155.53399999999991
 20
145.77299999999991
 30
0.0
 11
155.006
 21
146.25700000000001
 31
0.0
  0
LINE
  5
392
  8
0
 62
     7
 10
155.49000000000001
 20
145.20099999999999
 30
0.0
 11
155.006
 21
145.685
 31
0.0
  0
LINE
  5
393
  8
0
 62
     7
 10
155.49000000000001
 20
144.62899999999991
 30
0.0
 11
155.006
 21
145.11199999999991
 31
0.0
  0
LINE
  5
394
  8
0
 62
     7
 10
155.49000000000001
 20
144.012
 30
0.0
 11
155.006
 21
144.49600000000001
 31
0.0
  0
LINE
  5
395
  8
0
 62
     7
 10
155.44599999999991
 20
143.43999999999991
 30
0.0
 11
154.96199999999999
 21
143.92500000000001
 31
0.0
  0
LINE
  5
396
  8
0
 62
     7
 10
155.44599999999991
 20
142.86799999999991
 30
0.0
 11
154.96199999999999
 21
143.352
 31
0.0
  0
LINE
  5
397
  8
0
 62
     7
 10
155.44599999999991
 20
142.25200000000001
 30
0.0
 11
154.96199999999999
 21
142.73599999999999
 31
0.0
  0
LINE
  5
398
  8
0
 62
     7
 10
155.44599999999991
 20
141.68000000000001
 30
0.0
 11
154.91799999999989
 21
142.1639999999999
 31
0.0
  0
LINE
  5
399
  8
0
 62
     7
 10
155.40199999999999
 20
141.107
 30
0.0
 11
154.91799999999989
 21
141.59200000000001
 31
0.0
  0
LINE
  5
39A
  8
0
 62
     7
 10
155.40199999999999
 20
140.49100000000001
 30
0.0
 11
154.91799999999989
 21
140.976
 31
0.0
  0
LINE
  5
39B
  8
0
 62
     7
 10
155.40199999999999
 20
139.9189999999999
 30
0.0
 11
154.91799999999989
 21
140.40299999999991
 31
0.0
  0
LINE
  5
39C
  8
0
 62
     7
 10
155.358
 20
139.34700000000001
 30
0.0
 11
154.874
 21
139.83099999999999
 31
0.0
  0
LINE
  5
39D
  8
0
 62
     7
 10
155.358
 20
138.73099999999999
 30
0.0
 11
154.874
 21
139.21499999999989
 31
0.0
  0
LINE
  5
39E
  8
0
 62
     7
 10
155.358
 20
138.15899999999991
 30
0.0
 11
154.874
 21
138.643
 31
0.0
  0
LINE
  5
39F
  8
0
 62
     7
 10
155.358
 20
137.58600000000001
 30
0.0
 11
154.874
 21
138.071
 31
0.0
  0
LINE
  5
3A0
  8
0
 62
     7
 10
155.31399999999991
 20
136.96999999999991
 30
0.0
 11
154.83000000000001
 21
137.45500000000001
 31
0.0
  0
LINE
  5
3A1
  8
0
 62
     7
 10
155.31399999999991
 20
136.39799999999991
 30
0.0
 11
154.83000000000001
 21
136.88200000000001
 31
0.0
  0
LINE
  5
3A2
  8
0
 62
     7
 10
155.31399999999991
 20
135.82599999999999
 30
0.0
 11
154.83000000000001
 21
136.30999999999989
 31
0.0
  0
LINE
  5
3A3
  8
0
 62
     7
 10
155.31399999999991
 20
135.209
 30
0.0
 11
154.786
 21
135.6939999999999
 31
0.0
  0
LINE
  5
3A4
  8
0
 62
     7
 10
155.27000000000001
 20
134.63800000000001
 30
0.0
 11
154.786
 21
135.12200000000001
 31
0.0
  0
LINE
  5
3A5
  8
0
 62
     7
 10
155.27000000000001
 20
134.06499999999991
 30
0.0
 11
154.786
 21
134.55000000000001
 31
0.0
  0
LINE
  5
3A6
  8
0
 62
     7
 10
155.27000000000001
 20
133.4489999999999
 30
0.0
 11
154.786
 21
133.977
 31
0.0
  0
LINE
  5
3A7
  8
0
 62
     7
 10
155.22599999999991
 20
132.87700000000001
 30
0.0
 11
154.74199999999999
 21
133.3609999999999
 31
0.0
  0
LINE
  5
3A8
  8
0
 62
     7
 10
155.22599999999991
 20
132.30500000000001
 30
0.0
 11
154.74199999999999
 21
132.7889999999999
 31
0.0
  0
LINE
  5
3A9
  8
0
 62
     7
 10
155.22599999999991
 20
131.68899999999991
 30
0.0
 11
154.74199999999999
 21
132.21700000000001
 31
0.0
  0
LINE
  5
3AA
  8
0
 62
     7
 10
155.22599999999991
 20
131.11699999999999
 30
0.0
 11
154.69799999999989
 21
131.601
 31
0.0
  0
LINE
  5
3AB
  8
0
 62
     7
 10
155.18199999999999
 20
130.5439999999999
 30
0.0
 11
154.69799999999989
 21
131.02799999999991
 31
0.0
  0
LINE
  5
3AC
  8
0
 62
     7
 10
155.18199999999999
 20
129.92799999999991
 30
0.0
 11
154.69799999999989
 21
130.45599999999999
 31
0.0
  0
LINE
  5
3AD
  8
0
 62
     7
 10
155.18199999999999
 20
129.35599999999999
 30
0.0
 11
154.69799999999989
 21
129.83999999999989
 31
0.0
  0
LINE
  5
3AE
  8
0
 62
     7
 10
155.13799999999989
 20
128.78399999999991
 30
0.0
 11
154.654
 21
129.268
 31
0.0
  0
LINE
  5
3AF
  8
0
 62
     7
 10
155.13799999999989
 20
128.16800000000001
 30
0.0
 11
154.654
 21
128.696
 31
0.0
  0
LINE
  5
3B0
  8
0
 62
     7
 10
155.13799999999989
 20
127.5949999999999
 30
0.0
 11
154.654
 21
128.07900000000001
 31
0.0
  0
LINE
  5
3B1
  8
0
 62
     7
 10
155.13799999999989
 20
127.0229999999999
 30
0.0
 11
154.654
 21
127.50700000000001
 31
0.0
  0
LINE
  5
3B2
  8
0
 62
     7
 10
155.09399999999991
 20
126.45099999999999
 30
0.0
 11
154.61000000000001
 21
126.9349999999999
 31
0.0
  0
LINE
  5
3B3
  8
0
 62
     7
 10
155.09399999999991
 20
125.83499999999989
 30
0.0
 11
154.61000000000001
 21
126.319
 31
0.0
  0
LINE
  5
3B4
  8
0
 62
     7
 10
155.09399999999991
 20
125.26299999999991
 30
0.0
 11
154.61000000000001
 21
125.747
 31
0.0
  0
LINE
  5
3B5
  8
0
 62
     7
 10
155.09399999999991
 20
124.6909999999999
 30
0.0
 11
154.56599999999989
 21
125.1749999999999
 31
0.0
  0
LINE
  5
3B6
  8
0
 62
     7
 10
155.05000000000001
 20
124.075
 30
0.0
 11
154.56599999999989
 21
124.5589999999999
 31
0.0
  0
LINE
  5
3B7
  8
0
 62
     7
 10
155.05000000000001
 20
123.502
 30
0.0
 11
154.56599999999989
 21
123.9859999999999
 31
0.0
  0
LINE
  5
3B8
  8
0
 62
     7
 10
155.05000000000001
 20
122.93000000000001
 30
0.0
 11
154.56599999999989
 21
123.414
 31
0.0
  0
LINE
  5
3B9
  8
0
 62
     7
 10
155.006
 20
122.31399999999989
 30
0.0
 11
154.52199999999999
 21
122.7979999999999
 31
0.0
  0
LINE
  5
3BA
  8
0
 62
     7
 10
155.006
 20
121.742
 30
0.0
 11
154.52199999999999
 21
122.226
 31
0.0
  0
LINE
  5
3BB
  8
0
 62
     7
 10
155.006
 20
121.1699999999999
 30
0.0
 11
154.52199999999999
 21
121.6539999999999
 31
0.0
  0
LINE
  5
3BC
  8
0
 62
     7
 10
155.006
 20
120.554
 30
0.0
 11
154.47799999999989
 21
121.03700000000001
 31
0.0
  0
LINE
  5
3BD
  8
0
 62
     7
 10
154.96199999999999
 20
119.98099999999999
 30
0.0
 11
154.47799999999989
 21
120.4649999999999
 31
0.0
  0
LINE
  5
3BE
  8
0
 62
     7
 10
154.96199999999999
 20
119.40899999999991
 30
0.0
 11
154.47799999999989
 21
119.8929999999999
 31
0.0
  0
LINE
  5
3BF
  8
0
 62
     7
 10
154.96199999999999
 20
118.792
 30
0.0
 11
154.47799999999989
 21
119.277
 31
0.0
  0
LINE
  5
3C0
  8
0
 62
     7
 10
154.91799999999989
 20
118.2209999999999
 30
0.0
 11
154.434
 21
118.7049999999999
 31
0.0
  0
LINE
  5
3C1
  8
0
 62
     7
 10
154.91799999999989
 20
117.649
 30
0.0
 11
154.434
 21
118.13200000000001
 31
0.0
  0
LINE
  5
3C2
  8
0
 62
     7
 10
154.91799999999989
 20
117.032
 30
0.0
 11
154.434
 21
117.51599999999991
 31
0.0
  0
LINE
  5
3C3
  8
0
 62
     7
 10
154.91799999999989
 20
116.45999999999989
 30
0.0
 11
154.434
 21
116.94499999999989
 31
0.0
  0
LINE
  5
3C4
  8
0
 62
     7
 10
154.874
 20
115.88799999999991
 30
0.0
 11
154.38900000000001
 21
116.372
 31
0.0
  0
LINE
  5
3C5
  8
0
 62
     7
 10
154.874
 20
115.27200000000001
 30
0.0
 11
154.38900000000001
 21
115.7559999999999
 31
0.0
  0
LINE
  5
3C6
  8
0
 62
     7
 10
154.874
 20
114.6989999999999
 30
0.0
 11
154.38900000000001
 21
115.1839999999999
 31
0.0
  0
LINE
  5
3C7
  8
0
 62
     7
 10
154.874
 20
114.127
 30
0.0
 11
154.346
 21
114.6109999999999
 31
0.0
  0
LINE
  5
3C8
  8
0
 62
     7
 10
154.83000000000001
 20
113.511
 30
0.0
 11
154.346
 21
113.995
 31
0.0
  0
LINE
  5
3C9
  8
0
 62
     7
 10
154.83000000000001
 20
112.93899999999989
 30
0.0
 11
154.346
 21
113.4229999999999
 31
0.0
  0
LINE
  5
3CA
  8
0
 62
     7
 10
154.83000000000001
 20
112.367
 30
0.0
 11
154.346
 21
112.851
 31
0.0
  0
LINE
  5
3CB
  8
0
 62
     7
 10
154.786
 20
111.751
 30
0.0
 11
154.30199999999999
 21
112.2789999999999
 31
0.0
  0
LINE
  5
3CC
  8
0
 62
     7
 10
154.786
 20
111.1779999999999
 30
0.0
 11
154.30199999999999
 21
111.66200000000001
 31
0.0
  0
LINE
  5
3CD
  8
0
 62
     7
 10
154.786
 20
110.60599999999999
 30
0.0
 11
154.30199999999999
 21
111.0899999999999
 31
0.0
  0
LINE
  5
3CE
  8
0
 62
     7
 10
154.786
 20
109.9899999999999
 30
0.0
 11
154.2579999999999
 21
110.5179999999999
 31
0.0
  0
LINE
  5
3CF
  8
0
 62
     7
 10
154.74199999999999
 20
109.41799999999991
 30
0.0
 11
154.2579999999999
 21
109.902
 31
0.0
  0
LINE
  5
3D0
  8
0
 62
     7
 10
154.74199999999999
 20
108.8459999999999
 30
0.0
 11
154.2579999999999
 21
109.3299999999999
 31
0.0
  0
LINE
  5
3D1
  8
0
 62
     7
 10
154.74199999999999
 20
108.23
 30
0.0
 11
154.2579999999999
 21
108.7579999999999
 31
0.0
  0
LINE
  5
3D2
  8
0
 62
     7
 10
154.69799999999989
 20
107.6579999999999
 30
0.0
 11
154.214
 21
108.142
 31
0.0
  0
LINE
  5
3D3
  8
0
 62
     7
 10
154.69799999999989
 20
107.08499999999989
 30
0.0
 11
154.214
 21
107.569
 31
0.0
  0
LINE
  5
3D4
  8
0
 62
     7
 10
154.61000000000001
 20
106.557
 30
0.0
 11
154.1699999999999
 21
106.997
 31
0.0
  0
LINE
  5
3D5
  8
0
 62
     7
 10
154.52199999999999
 20
106.07299999999989
 30
0.0
 11
154.08099999999999
 21
106.51299999999991
 31
0.0
  0
LINE
  5
3D6
  8
0
 62
     7
 10
154.346
 20
105.6329999999999
 30
0.0
 11
153.9499999999999
 21
106.0289999999999
 31
0.0
  0
LINE
  5
3D7
  8
0
 62
     7
 10
154.1699999999999
 20
105.193
 30
0.0
 11
153.8179999999999
 21
105.5889999999999
 31
0.0
  0
LINE
  5
3D8
  8
0
 62
     7
 10
153.994
 20
104.79600000000001
 30
0.0
 11
153.5979999999999
 21
105.193
 31
0.0
  0
LINE
  5
3D9
  8
0
 62
     7
 10
153.77299999999991
 20
104.44499999999989
 30
0.0
 11
153.37700000000001
 21
104.79600000000001
 31
0.0
  0
LINE
  5
3DA
  8
0
 62
     7
 10
153.50999999999991
 20
104.092
 30
0.0
 11
153.1579999999999
 21
104.44499999999989
 31
0.0
  0
LINE
  5
3DB
  8
0
 62
     7
 10
153.24600000000001
 20
103.7399999999999
 30
0.0
 11
152.89400000000001
 21
104.092
 31
0.0
  0
LINE
  5
3DC
  8
0
 62
     7
 10
152.9379999999999
 20
103.432
 30
0.0
 11
152.58600000000001
 21
103.78399999999991
 31
0.0
  0
LINE
  5
3DD
  8
0
 62
     7
 10
152.62899999999991
 20
103.16799999999991
 30
0.0
 11
152.27699999999999
 21
103.5199999999999
 31
0.0
  0
LINE
  5
3DE
  8
0
 62
     7
 10
152.27699999999999
 20
102.9039999999999
 30
0.0
 11
151.92500000000001
 21
103.2559999999999
 31
0.0
  0
LINE
  5
3DF
  8
0
 62
     7
 10
151.92500000000001
 20
102.6839999999999
 30
0.0
 11
151.57299999999989
 21
103.0359999999999
 31
0.0
  0
LINE
  5
3E0
  8
0
 62
     7
 10
151.57299999999989
 20
102.4199999999999
 30
0.0
 11
151.221
 21
102.8159999999999
 31
0.0
  0
LINE
  5
3E1
  8
0
 62
     7
 10
151.17699999999999
 20
102.1989999999999
 30
0.0
 11
150.8239999999999
 21
102.55199999999989
 31
0.0
  0
LINE
  5
3E2
  8
0
 62
     7
 10
150.8239999999999
 20
101.98
 30
0.0
 11
150.47200000000001
 21
102.33199999999999
 31
0.0
  0
LINE
  5
3E3
  8
0
 62
     7
 10
150.47200000000001
 20
101.76000000000001
 30
0.0
 11
150.07699999999991
 21
102.11199999999999
 31
0.0
  0
LINE
  5
3E4
  8
0
 62
     7
 10
150.07699999999991
 20
101.54000000000001
 30
0.0
 11
149.72499999999999
 21
101.89099999999991
 31
0.0
  0
LINE
  5
3E5
  8
0
 62
     7
 10
149.72499999999999
 20
101.27500000000001
 30
0.0
 11
149.37299999999999
 21
101.672
 31
0.0
  0
LINE
  5
3E6
  8
0
 62
     7
 10
149.32900000000001
 20
101.0559999999999
 30
0.0
 11
148.977
 21
101.4079999999999
 31
0.0
  0
LINE
  5
3E7
  8
0
 62
     7
 10
148.977
 20
100.83499999999989
 30
0.0
 11
148.624
 21
101.187
 31
0.0
  0
LINE
  5
3E8
  8
0
 62
     7
 10
148.624
 20
100.6149999999999
 30
0.0
 11
148.22799999999989
 21
100.967
 31
0.0
  0
LINE
  5
3E9
  8
0
 62
     7
 10
148.22799999999989
 20
100.3509999999999
 30
0.0
 11
147.876
 21
100.74799999999991
 31
0.0
  0
LINE
  5
3EA
  8
0
 62
     7
 10
147.876
 20
100.1309999999999
 30
0.0
 11
147.524
 21
100.527
 31
0.0
  0
LINE
  5
3EB
  8
0
 62
     7
 10
147.524
 20
99.911199999999994
 30
0.0
 11
147.1279999999999
 21
100.26299999999991
 31
0.0
  0
LINE
  5
3EC
  8
0
 62
     7
 10
147.1279999999999
 20
99.690700000000021
 30
0.0
 11
146.77600000000001
 21
100.04299999999991
 31
0.0
  0
LINE
  5
3ED
  8
0
 62
     7
 10
146.77600000000001
 20
99.470900000000015
 30
0.0
 11
146.37999999999991
 21
99.822999999999993
 31
0.0
  0
LINE
  5
3EE
  8
0
 62
     7
 10
146.37999999999991
 20
99.207000000000008
 30
0.0
 11
146.02699999999999
 21
99.602800000000002
 31
0.0
  0
LINE
  5
3EF
  8
0
 62
     7
 10
146.02699999999999
 20
98.986500000000007
 30
0.0
 11
145.67500000000001
 21
99.339299999999994
 31
0.0
  0
LINE
  5
3F0
  8
0
 62
     7
 10
145.67500000000001
 20
98.7667
 30
0.0
 11
145.279
 21
99.118799999999993
 31
0.0
  0
LINE
  5
3F1
  8
0
 62
     7
 10
145.279
 20
98.546899999999994
 30
0.0
 11
144.92699999999999
 21
98.898300000000006
 31
0.0
  0
LINE
  5
3F2
  8
0
 62
     7
 10
144.92699999999999
 20
98.326400000000007
 30
0.0
 11
144.5749999999999
 21
98.6785
 31
0.0
  0
LINE
  5
3F3
  8
0
 62
     7
 10
144.53100000000001
 20
98.0625
 30
0.0
 11
144.179
 21
98.458699999999993
 31
0.0
  0
LINE
  5
3F4
  8
0
 62
     7
 10
144.179
 20
97.842699999999994
 30
0.0
 11
143.82699999999991
 21
98.194100000000006
 31
0.0
  0
LINE
  5
3F5
  8
0
 62
     7
 10
143.82699999999991
 20
97.622200000000007
 30
0.0
 11
143.43100000000001
 21
97.974299999999999
 31
0.0
  0
LINE
  5
3F6
  8
0
 62
     7
 10
143.43100000000001
 20
97.402100000000004
 30
0.0
 11
143.078
 21
97.754499999999993
 31
0.0
  0
LINE
  5
3F7
  8
0
 62
     7
 10
143.078
 20
97.138499999999993
 30
0.0
 11
142.72599999999991
 21
97.534700000000001
 31
0.0
  0
LINE
  5
3F8
  8
0
 62
     7
 10
142.68199999999999
 20
96.918000000000006
 30
0.0
 11
142.33000000000001
 21
97.314199999999985
 31
0.0
  0
LINE
  5
3F9
  8
0
 62
     7
 10
142.33000000000001
 20
96.697900000000004
 30
0.0
 11
141.97799999999989
 21
97.050299999999993
 31
0.0
  0
LINE
  5
3FA
  8
0
 62
     7
 10
141.97799999999989
 20
96.477800000000002
 30
0.0
 11
141.58199999999991
 21
96.829800000000006
 31
0.0
  0
LINE
  5
3FB
  8
0
 62
     7
 10
141.58199999999991
 20
96.257999999999996
 30
0.0
 11
141.2299999999999
 21
96.610000000000014
 31
0.0
  0
LINE
  5
3FC
  8
0
 62
     7
 10
141.2299999999999
 20
95.993700000000004
 30
0.0
 11
140.8779999999999
 21
96.389899999999983
 31
0.0
  0
LINE
  5
3FD
  8
0
 62
     7
 10
140.8779999999999
 20
95.773600000000002
 30
0.0
 11
140.48199999999991
 21
96.125699999999995
 31
0.0
  0
LINE
  5
3FE
  8
0
 62
     7
 10
140.48199999999991
 20
95.553799999999995
 30
0.0
 11
140.12899999999991
 21
95.905900000000003
 31
0.0
  0
LINE
  5
3FF
  8
0
 62
     7
 10
140.12899999999991
 20
95.334000000000003
 30
0.0
 11
139.77699999999999
 21
95.685699999999997
 31
0.0
  0
LINE
  5
400
  8
0
 62
     7
 10
139.73299999999989
 20
95.113500000000002
 30
0.0
 11
139.381
 21
95.465599999999995
 31
0.0
  0
LINE
  5
401
  8
0
 62
     7
 10
139.381
 20
94.849599999999995
 30
0.0
 11
139.029
 21
95.245800000000003
 31
0.0
  0
LINE
  5
402
  8
0
 62
     7
 10
139.029
 20
94.629400000000004
 30
0.0
 11
138.6329999999999
 21
94.981499999999997
 31
0.0
  0
LINE
  5
403
  8
0
 62
     7
 10
138.6329999999999
 20
94.409299999999988
 30
0.0
 11
138.28100000000001
 21
94.761399999999995
 31
0.0
  0
LINE
  5
404
  8
0
 62
     7
 10
138.28100000000001
 20
94.189199999999985
 30
0.0
 11
137.929
 21
94.541599999999988
 31
0.0
  0
LINE
  5
405
  8
0
 62
     7
 10
137.88499999999991
 20
93.925299999999979
 30
0.0
 11
137.5329999999999
 21
94.321099999999987
 31
0.0
  0
LINE
  5
406
  8
0
 62
     7
 10
137.5329999999999
 20
93.705100000000016
 30
0.0
 11
137.18000000000001
 21
94.100999999999985
 31
0.0
  0
LINE
  5
407
  8
0
 62
     7
 10
137.18000000000001
 20
93.484999999999985
 30
0.0
 11
136.78399999999991
 21
93.837400000000017
 31
0.0
  0
LINE
  5
408
  8
0
 62
     7
 10
136.78399999999991
 20
93.264799999999994
 30
0.0
 11
136.43199999999999
 21
93.616900000000015
 31
0.0
  0
LINE
  5
409
  8
0
 62
     7
 10
136.43199999999999
 20
93.045000000000002
 30
0.0
 11
136.08000000000001
 21
93.396799999999985
 31
0.0
  0
LINE
  5
40A
  8
0
 62
     7
 10
136.08000000000001
 20
92.780799999999999
 30
0.0
 11
135.684
 21
93.177000000000007
 31
0.0
  0
LINE
  5
40B
  8
0
 62
     7
 10
135.684
 20
92.560699999999997
 30
0.0
 11
135.33199999999991
 21
92.912700000000001
 31
0.0
  0
LINE
  5
40C
  8
0
 62
     7
 10
135.33199999999991
 20
92.340900000000005
 30
0.0
 11
134.93600000000001
 21
92.692599999999999
 31
0.0
  0
LINE
  5
40D
  8
0
 62
     7
 10
134.93600000000001
 20
92.120699999999999
 30
0.0
 11
134.584
 21
92.472800000000007
 31
0.0
  0
LINE
  5
40E
  8
0
 62
     7
 10
134.584
 20
91.900599999999997
 30
0.0
 11
134.23099999999991
 21
92.252700000000004
 31
0.0
  0
LINE
  5
40F
  8
0
 62
     7
 10
134.23099999999991
 20
91.636700000000005
 30
0.0
 11
133.83500000000001
 21
92.032899999999998
 31
0.0
  0
LINE
  5
410
  8
0
 62
     7
 10
133.83500000000001
 20
91.416499999999999
 30
0.0
 11
133.48299999999989
 21
91.768600000000006
 31
0.0
  0
LINE
  5
411
  8
0
 62
     7
 10
133.48299999999989
 20
91.196399999999997
 30
0.0
 11
133.13099999999989
 21
91.548500000000004
 31
0.0
  0
LINE
  5
412
  8
0
 62
     7
 10
133.08799999999999
 20
90.976200000000006
 30
0.0
 11
132.7359999999999
 21
91.328299999999999
 31
0.0
  0
LINE
  5
413
  8
0
 62
     7
 10
132.7359999999999
 20
90.712299999999985
 30
0.0
 11
132.3829999999999
 21
91.108500000000006
 31
0.0
  0
LINE
  5
414
  8
0
 62
     7
 10
132.3829999999999
 20
90.492199999999997
 30
0.0
 11
131.98699999999991
 21
90.888099999999994
 31
0.0
  0
LINE
  5
415
  8
0
 62
     7
 10
131.98699999999991
 20
90.272099999999995
 30
0.0
 11
131.63499999999991
 21
90.624200000000016
 31
0.0
  0
LINE
  5
416
  8
0
 62
     7
 10
131.63499999999991
 20
90.052300000000002
 30
0.0
 11
131.2829999999999
 21
90.404399999999995
 31
0.0
  0
LINE
  5
417
  8
0
 62
     7
 10
131.239
 20
89.832099999999997
 30
0.0
 11
130.88699999999989
 21
90.183899999999994
 31
0.0
  0
LINE
  5
418
  8
0
 62
     7
 10
130.88699999999989
 20
89.567899999999995
 30
0.0
 11
130.535
 21
89.964100000000002
 31
0.0
  0
LINE
  5
419
  8
0
 62
     7
 10
130.535
 20
89.347700000000003
 30
0.0
 11
130.13900000000001
 21
89.699799999999996
 31
0.0
  0
LINE
  5
41A
  8
0
 62
     7
 10
130.18299999999999
 20
89.127600000000001
 30
0.0
 11
129.78700000000001
 21
89.479699999999994
 31
0.0
  0
LINE
  5
41B
  8
0
 62
     7
 10
129.83099999999999
 20
88.863699999999994
 30
0.0
 11
129.4789999999999
 21
89.215800000000002
 31
0.0
  0
LINE
  5
41C
  8
0
 62
     7
 10
129.52299999999991
 20
88.599500000000006
 30
0.0
 11
129.126
 21
88.951899999999995
 31
0.0
  0
LINE
  5
41D
  8
0
 62
     7
 10
129.214
 20
88.291499999999999
 30
0.0
 11
128.86199999999991
 21
88.643600000000006
 31
0.0
  0
LINE
  5
41E
  8
0
 62
     7
 10
128.90600000000001
 20
87.939400000000006
 30
0.0
 11
128.554
 21
88.335599999999999
 31
0.0
  0
LINE
  5
41F
  8
0
 62
     7
 10
128.68600000000001
 20
87.631399999999985
 30
0.0
 11
128.28999999999991
 21
87.983500000000006
 31
0.0
  0
LINE
  5
420
  8
0
 62
     7
 10
128.42199999999991
 20
87.279300000000006
 30
0.0
 11
128.06999999999991
 21
87.631399999999985
 31
0.0
  0
LINE
  5
421
  8
0
 62
     7
 10
128.1579999999999
 20
86.927199999999985
 30
0.0
 11
127.8059999999999
 21
87.279300000000006
 31
0.0
  0
LINE
  5
422
  8
0
 62
     7
 10
127.9379999999999
 20
86.575100000000006
 30
0.0
 11
127.5859999999999
 21
86.927199999999985
 31
0.0
  0
LINE
  5
423
  8
0
 62
     7
 10
127.67399999999989
 20
86.222999999999999
 30
0.0
 11
127.322
 21
86.575100000000006
 31
0.0
  0
LINE
  5
424
  8
0
 62
     7
 10
127.41
 20
85.870900000000006
 30
0.0
 11
127.0569999999999
 21
86.267099999999999
 31
0.0
  0
LINE
  5
425
  8
0
 62
     7
 10
127.1449999999999
 20
85.562899999999999
 30
0.0
 11
126.79300000000001
 21
85.915000000000006
 31
0.0
  0
LINE
  5
426
  8
0
 62
     7
 10
126.88200000000001
 20
85.210499999999996
 30
0.0
 11
126.53
 21
85.562899999999999
 31
0.0
  0
LINE
  5
427
  8
0
 62
     7
 10
126.61799999999999
 20
84.902500000000003
 30
0.0
 11
126.26600000000001
 21
85.254599999999996
 31
0.0
  0
LINE
  5
428
  8
0
 62
     7
 10
126.31
 20
84.594199999999987
 30
0.0
 11
125.95699999999999
 21
84.946600000000004
 31
0.0
  0
LINE
  5
429
  8
0
 62
     7
 10
126.045
 20
84.242400000000004
 30
0.0
 11
125.693
 21
84.594199999999987
 31
0.0
  0
LINE
  5
42A
  8
0
 62
     7
 10
125.78100000000001
 20
83.934399999999997
 30
0.0
 11
125.38500000000001
 21
84.286199999999994
 31
0.0
  0
LINE
  5
42B
  8
0
 62
     7
 10
125.473
 20
83.626099999999994
 30
0.0
 11
125.121
 21
83.978200000000015
 31
0.0
  0
LINE
  5
42C
  8
0
 62
     7
 10
125.185
 20
83.318100000000001
 30
0.0
 11
124.8329999999999
 21
83.670199999999994
 31
0.0
  0
LINE
  5
42D
  8
0
 62
     7
 10
124.92100000000001
 20
83.010099999999994
 30
0.0
 11
124.5689999999999
 21
83.362200000000001
 31
0.0
  0
LINE
  5
42E
  8
0
 62
     7
 10
124.6129999999999
 20
82.702100000000002
 30
0.0
 11
124.261
 21
83.054199999999994
 31
0.0
  0
LINE
  5
42F
  8
0
 62
     7
 10
124.30499999999989
 20
82.437899999999999
 30
0.0
 11
123.953
 21
82.789599999999993
 31
0.0
  0
LINE
  5
430
  8
0
 62
     7
 10
123.997
 20
82.129900000000006
 30
0.0
 11
123.645
 21
82.4816
 31
0.0
  0
LINE
  5
431
  8
0
 62
     7
 10
123.68899999999999
 20
81.8215
 30
0.0
 11
123.337
 21
82.173599999999993
 31
0.0
  0
LINE
  5
432
  8
0
 62
     7
 10
123.381
 20
81.557599999999994
 30
0.0
 11
123.0289999999999
 21
81.909700000000001
 31
0.0
  0
LINE
  5
433
  8
0
 62
     7
 10
127.19
 20
77.15100000000001
 30
0.0
 11
125.14100000000001
 21
79.263499999999993
 31
0.0
  0
LINE
  5
434
  8
0
 62
     7
 10
123.205
 20
81.117400000000004
 30
0.0
 11
122.764
 21
81.557599999999994
 31
0.0
  0
LINE
  5
435
  8
0
 62
     7
 10
128.9499999999999
 20
75.390500000000003
 30
0.0
 11
128.9499999999999
 21
75.434299999999993
 31
0.0
  0
LINE
  5
436
  8
0
 62
     7
 10
124.7889999999999
 20
78.916600000000003
 30
0.0
 11
123.645
 21
80.061099999999996
 31
0.0
  0
LINE
  5
437
  8
0
 62
     7
 10
127.366
 20
76.402699999999996
 30
0.0
 11
126.83799999999999
 21
76.887100000000004
 31
0.0
  0
LINE
  5
438
  8
0
 62
     7
 10
123.337
 20
80.413200000000003
 30
0.0
 11
122.63200000000001
 21
81.073300000000003
 31
0.0
  0
LINE
  5
439
  8
0
 62
     7
 10
128.7299999999999
 20
74.994299999999996
 30
0.0
 11
128.334
 21
75.434299999999993
 31
0.0
  0
LINE
  5
43A
  8
0
 62
     7
 10
127.366
 20
75.786699999999996
 30
0.0
 11
126.97
 21
76.182900000000004
 31
0.0
  0
LINE
  5
43B
  8
0
 62
     7
 10
123.337
 20
79.796499999999995
 30
0.0
 11
122.8089999999999
 21
80.325000000000003
 31
0.0
  0
LINE
  5
43C
  8
0
 62
     7
 10
128.114
 20
75.038399999999996
 30
0.0
 11
127.7179999999999
 21
75.478700000000003
 31
0.0
  0
LINE
  5
43D
  8
0
 62
     7
 10
127.4529999999999
 20
75.082499999999996
 30
0.0
 11
126.97
 21
75.566900000000004
 31
0.0
  0
LINE
  5
43E
  8
0
 62
     7
 10
122.98399999999999
 20
81.8215
 30
0.0
 11
123.117
 21
81.997200000000007
 31
0.0
  0
LINE
  5
43F
  8
0
 62
     7
 10
128.28999999999991
 20
188.28999999999999
 30
0.0
 11
128.85900000000001
 21
188.28999999999999
 31
0.0
  0
LINE
  5
440
  8
0
 62
     7
 10
128.28999999999991
 20
187.89400000000001
 30
0.0
 11
128.85900000000001
 21
187.89400000000001
 31
0.0
  0
LINE
  5
441
  8
0
 62
     7
 10
45.846400000000003
 20
75.659599999999998
 30
0.0
 11
45.846400000000003
 21
187.62899999999999
 31
0.0
  0
LINE
  5
442
  8
0
 62
     7
 10
99.146500000000003
 20
75.659599999999998
 30
0.0
 11
99.146500000000003
 21
187.62899999999999
 31
0.0
  0
LINE
  5
443
  8
0
 62
     7
 10
98.486400000000003
 20
188.28999999999999
 30
0.0
 11
46.506500000000003
 21
188.28999999999999
 31
0.0
  0
LINE
  5
444
  8
0
 62
     7
 10
98.486400000000003
 20
74.955399999999997
 30
0.0
 11
46.506500000000003
 21
74.955399999999997
 31
0.0
  0
ARC
  5
445
  8
0
 62
     7
 10
72.437198999999993
 20
128.559
 30
0.0
 40
52.732717999999998
 50
89.988751000000008
 51
92.888731000000007
  0
ARC
  5
446
  8
0
 62
     7
 10
75.055371999999991
 20
171.0695509999999
 30
0.0
 40
10.1784
 50
37.438800999999998
 51
89.537728999999999
  0
ARC
  5
447
  8
0
 62
     7
 10
72.448594
 20
127.58326599999999
 30
0.0
 40
53.708450999999997
 50
87.148694999999975
 51
89.995966000000024
  0
ARC
  5
448
  8
0
 62
     7
 10
72.437197999999995
 20
130.48206399999989
 30
0.0
 40
53.141998000000001
 50
89.988835999999992
 51
92.866462999999996
  0
ARC
  5
449
  8
0
 62
     7
 10
72.448594
 20
129.91561100000001
 30
0.0
 40
53.708450999999997
 50
87.148694999999975
 51
89.995966000000024
  0
ARC
  5
44A
  8
0
 62
     7
 10
77.658293
 20
107.8258409999999
 30
0.0
 40
27.135408999999999
 50
200.75153700000001
 51
256.02543100000003
  0
ARC
  5
44B
  8
0
 62
     7
 10
77.153806000000003
 20
107.9467439999999
 30
0.0
 40
27.135863000000001
 50
257.12081399999988
 51
312.39322799999991
  0
ARC
  5
44C
  8
0
 62
     7
 10
83.555728000000002
 20
109.706779
 30
0.0
 40
33.352345
 50
190.04232200000001
 51
200.2011949999999
  0
ARC
  5
44D
  8
0
 62
     7
 10
76.480040000000002
 20
102.902405
 30
0.0
 40
25.767128
 50
177.8587939999999
 51
249.57863900000001
  0
ARC
  5
44E
  8
0
 62
     7
 10
75.386645000000001
 20
103.186831
 30
0.0
 40
25.676779
 50
252.08738199999991
 51
324.01047199999999
  0
ARC
  5
44F
  8
0
 62
     7
 10
98.438201000000021
 20
187.58164999999991
 30
0.0
 40
0.708789
 50
2.1022090000000002
 51
87.883313999999999
  0
ARC
  5
450
  8
0
 62
     7
 10
46.509388999999992
 20
187.62744799999999
 30
0.0
 40
0.6629770000000002
 50
92.155724000000006
 51
179.83522400000001
  0
ARC
  5
451
  8
0
 62
     7
 10
46.510440000000003
 20
75.663539
 30
0.0
 40
0.7086000000000001
 50
182.10194699999991
 51
267.89808299999987
  0
ARC
  5
452
  8
0
 62
     7
 10
98.438384999999997
 20
75.663543999999973
 30
0.0
 40
0.7086050000000002
 50
272.10233799999997
 51
357.897672
  0
ARC
  5
453
  8
0
 62
     7
 10
161.626925
 20
142.2495449999999
 30
0.0
 40
106.8459459999999
 50
164.37983500000001
 51
179.98684399999999
  0
LINE
  5
454
  8
0
 62
     7
 10
90.1678
 20
142.29599999999991
 30
0.0
 11
90.079700000000003
 21
146.477
 31
0.0
  0
LINE
  5
455
  8
0
 62
     7
 10
90.079700000000003
 20
146.477
 30
0.0
 11
89.815799999999996
 21
150.614
 31
0.0
  0
LINE
  5
456
  8
0
 62
     7
 10
89.815799999999996
 20
150.614
 30
0.0
 11
89.419599999999988
 21
154.75200000000001
 31
0.0
  0
LINE
  5
457
  8
0
 62
     7
 10
89.419599999999988
 20
154.75200000000001
 30
0.0
 11
88.847700000000003
 21
158.88900000000001
 31
0.0
  0
LINE
  5
458
  8
0
 62
     7
 10
88.847700000000003
 20
158.88900000000001
 30
0.0
 11
88.143500000000003
 21
162.982
 31
0.0
  0
LINE
  5
459
  8
0
 62
     7
 10
88.143500000000003
 20
162.982
 30
0.0
 11
87.262900000000002
 21
167.03200000000001
 31
0.0
  0
LINE
  5
45A
  8
0
 62
     7
 10
87.262900000000002
 20
167.03200000000001
 30
0.0
 11
86.206699999999998
 21
171.0809999999999
 31
0.0
  0
ARC
  5
45B
  8
0
 62
     7
 10
68.175367000000008
 20
165.971631
 30
0.0
 40
18.740358999999991
 50
15.671732999999991
 51
36.941499
  0
ARC
  5
45C
  8
0
 62
     7
 10
72.750100000000003
 20
121.394519
 30
0.0
 40
16.424495
 50
200.82476800000001
 51
268.96132799999992
  0
ARC
  5
45D
  8
0
 62
     7
 10
72.154645000000002
 20
121.3955
 30
0.0
 40
16.425474999999999
 50
271.03858500000001
 51
339.17289099999988
  0
ARC
  5
45E
  8
0
 62
     7
 10
214.99173400000001
 20
142.28102100000001
 30
0.0
 40
160.16665399999999
 50
180.0025169999999
 51
188.19040200000001
  0
ARC
  5
45F
  8
0
 62
     7
 10
76.257711999999984
 20
122.338999
 30
0.0
 40
20.024217
 50
188.19731399999989
 51
199.77565999999999
  0
LINE
  5
460
  8
0
 62
     7
 10
88.539000000000016
 20
119.497
 30
0.0
 11
89.243199999999987
 21
125.1749999999999
 31
0.0
  0
LINE
  5
461
  8
0
 62
     7
 10
89.243199999999987
 20
125.1749999999999
 30
0.0
 11
89.771699999999996
 21
130.852
 31
0.0
  0
LINE
  5
462
  8
0
 62
     7
 10
89.771699999999996
 20
130.852
 30
0.0
 11
90.079700000000003
 21
136.5739999999999
 31
0.0
  0
LINE
  5
463
  8
0
 62
     7
 10
90.079700000000003
 20
136.5739999999999
 30
0.0
 11
90.1678
 21
142.29599999999991
 31
0.0
  0
ARC
  5
464
  8
0
 62
     7
 10
68.703926999999993
 20
122.335808
 30
0.0
 40
20.011084
 50
340.22054800000001
 51
351.80651799999998
  0
ARC
  5
465
  8
0
 62
     7
 10
209.35852600000001
 20
131.60366999999991
 30
0.0
 40
160.21100100000001
 50
166.425781
 51
179.9931489999999
  0
ARC
  5
466
  8
0
 62
     7
 10
72.448594
 20
129.91561100000001
 30
0.0
 40
53.708450999999997
 50
87.148694999999975
 51
89.995966000000024
  0
LINE
  5
467
  8
0
 62
     7
 10
49.147500000000001
 20
131.64500000000001
 30
0.0
 11
49.234999999999999
 21
125.04299999999991
 31
0.0
  0
LINE
  5
468
  8
0
 62
     7
 10
49.234999999999999
 20
125.04299999999991
 30
0.0
 11
49.499600000000001
 21
118.4839999999999
 31
0.0
  0
LINE
  5
469
  8
0
 62
     7
 10
49.499600000000001
 20
118.4839999999999
 30
0.0
 11
49.9392
 21
111.8829999999999
 31
0.0
  0
LINE
  5
46A
  8
0
 62
     7
 10
49.9392
 20
111.8829999999999
 30
0.0
 11
50.511800000000001
 21
105.325
 31
0.0
  0
ARC
  5
46B
  8
0
 62
     7
 10
70.816091999999983
 20
107.47828799999991
 30
0.0
 40
20.440749
 50
186.0095949999999
 51
190.00376
  0
LINE
  5
46C
  8
0
 62
     7
 10
47.826700000000002
 20
104.577
 30
0.0
 11
47.826700000000002
 21
175.262
 31
0.0
  0
LINE
  5
46D
  8
0
 62
     7
 10
97.166300000000021
 20
91.812700000000007
 30
0.0
 11
97.166300000000021
 21
183.624
 31
0.0
  0
ARC
  5
46E
  8
0
 62
     7
 10
91.750563999999997
 20
91.821093999999988
 30
0.0
 40
5.4157809999999991
 50
313.24363799999992
 51
359.678135
  0
ARC
  5
46F
  8
0
 62
     7
 10
91.786664000000002
 20
91.185385999999994
 30
0.0
 40
5.379607
 50
325.24343299999992
 51
359.88235099999991
  0
LINE
  5
470
  8
0
 62
     7
 10
93.821100000000001
 20
186.96999999999991
 30
0.0
 11
72.474400000000003
 21
186.96999999999991
 31
0.0
  0
ARC
  5
471
  8
0
 62
     7
 10
93.672209999999978
 20
183.47520700000001
 30
0.0
 40
3.452294999999999
 50
2.110711999999999
 51
87.895218000000014
  0
LINE
  5
472
  8
0
 62
     7
 10
92.500200000000007
 20
142.29599999999991
 30
0.0
 11
92.412000000000006
 21
146.917
 31
0.0
  0
LINE
  5
473
  8
0
 62
     7
 10
92.412000000000006
 20
146.917
 30
0.0
 11
92.148099999999985
 21
151.53899999999999
 31
0.0
  0
LINE
  5
474
  8
0
 62
     7
 10
92.148099999999985
 20
151.53899999999999
 30
0.0
 11
91.751900000000006
 21
156.16
 31
0.0
  0
LINE
  5
475
  8
0
 62
     7
 10
91.751900000000006
 20
156.16
 30
0.0
 11
91.135900000000007
 21
160.73699999999991
 31
0.0
  0
LINE
  5
476
  8
0
 62
     7
 10
91.135900000000007
 20
160.73699999999991
 30
0.0
 11
90.387600000000006
 21
165.315
 31
0.0
  0
LINE
  5
477
  8
0
 62
     7
 10
90.387600000000006
 20
165.315
 30
0.0
 11
89.463699999999989
 21
169.8479999999999
 31
0.0
  0
ARC
  5
478
  8
0
 62
     7
 10
75.093879000000001
 20
171.426322
 30
0.0
 40
12.110139999999999
 50
49.50974999999999
 51
89.793654000000004
  0
ARC
  5
479
  8
0
 62
     7
 10
70.471018999999998
 20
152.26592400000001
 30
0.0
 40
33.338910999999989
 50
83.835770999999994
 51
130.12167999999991
  0
ARC
  5
47A
  8
0
 62
     7
 10
51.20068599999999
 20
175.2159979999999
 30
0.0
 40
3.3741019999999988
 50
130.523179
 51
179.59491800000001
  0
ARC
  5
47B
  8
0
 62
     7
 10
69.802658999999991
 20
165.3848689999999
 30
0.0
 40
20.159618999999999
 50
12.698513999999999
 51
49.159481
  0
LINE
  5
47C
  8
0
 62
     7
 10
95.845399999999998
 20
138.28999999999999
 30
0.0
 11
95.757199999999997
 21
143.39599999999999
 31
0.0
  0
LINE
  5
47D
  8
0
 62
     7
 10
95.757199999999997
 20
143.39599999999999
 30
0.0
 11
95.493300000000005
 21
148.50200000000001
 31
0.0
  0
LINE
  5
47E
  8
0
 62
     7
 10
95.493300000000005
 20
148.50200000000001
 30
0.0
 11
95.052999999999997
 21
153.5629999999999
 31
0.0
  0
LINE
  5
47F
  8
0
 62
     7
 10
95.052999999999997
 20
153.5629999999999
 30
0.0
 11
94.392899999999983
 21
158.62499999999989
 31
0.0
  0
LINE
  5
480
  8
0
 62
     7
 10
94.392899999999983
 20
158.62499999999989
 30
0.0
 11
93.6006
 21
163.642
 31
0.0
  0
LINE
  5
481
  8
0
 62
     7
 10
93.6006
 20
163.642
 30
0.0
 11
92.676599999999993
 21
168.66
 31
0.0
  0
ARC
  5
482
  8
0
 62
     7
 10
71.262426000000005
 20
163.69901399999989
 30
0.0
 40
21.915009000000001
 50
13.053687999999999
 51
82.72434100000001
  0
LINE
  5
483
  8
0
 62
     7
 10
89.683499999999995
 20
101.452
 30
0.0
 11
91.091800000000006
 21
105.9409999999999
 31
0.0
  0
LINE
  5
484
  8
0
 62
     7
 10
91.091800000000006
 20
105.9409999999999
 30
0.0
 11
92.368600000000001
 21
110.4739999999999
 31
0.0
  0
LINE
  5
485
  8
0
 62
     7
 10
92.368600000000001
 20
110.4739999999999
 30
0.0
 11
93.424899999999994
 21
115.00700000000001
 31
0.0
  0
LINE
  5
486
  8
0
 62
     7
 10
93.424899999999994
 20
115.00700000000001
 30
0.0
 11
94.260599999999997
 21
119.62899999999991
 31
0.0
  0
LINE
  5
487
  8
0
 62
     7
 10
94.260599999999997
 20
119.62899999999991
 30
0.0
 11
94.965500000000006
 21
124.251
 31
0.0
  0
LINE
  5
488
  8
0
 62
     7
 10
94.965500000000006
 20
124.251
 30
0.0
 11
95.449200000000005
 21
128.916
 31
0.0
  0
LINE
  5
489
  8
0
 62
     7
 10
95.449200000000005
 20
128.916
 30
0.0
 11
95.713099999999997
 21
133.62499999999989
 31
0.0
  0
LINE
  5
48A
  8
0
 62
     7
 10
95.713099999999997
 20
133.62499999999989
 30
0.0
 11
95.845399999999998
 21
138.28999999999999
 31
0.0
  0
ARC
  5
48B
  8
0
 62
     7
 10
71.085695999999999
 20
107.8158509999999
 30
0.0
 40
19.631823000000001
 50
338.47974399999993
 51
341.05284899999998
  0
ARC
  5
48C
  8
0
 62
     7
 10
191.4440929999999
 20
134.9649409999999
 30
0.0
 40
138.95187899999991
 50
180.50250600000001
 51
181.371308
  0
ARC
  5
48D
  8
0
 62
     7
 10
192.5477129999999
 20
134.95516599999991
 30
0.0
 40
140.0558879999999
 50
166.027489
 51
177.4307949999999
  0
ARC
  5
48E
  8
0
 62
     7
 10
72.437198999999993
 20
128.91109099999991
 30
0.0
 40
52.732717999999998
 50
89.988751000000008
 51
92.888731000000007
  0
ARC
  5
48F
  8
0
 62
     7
 10
72.225717000000003
 20
118.350182
 30
0.0
 40
17.384229999999999
 50
270.74703199999999
 51
331.98529600000001
  0
LINE
  5
490
  8
0
 62
     7
 10
92.500200000000007
 20
141.239
 30
0.0
 11
92.500200000000007
 21
142.29599999999991
 31
0.0
  0
LINE
  5
491
  8
0
 62
     7
 10
89.287299999999988
 20
114.788
 30
0.0
 11
90.299499999999995
 21
119.541
 31
0.0
  0
LINE
  5
492
  8
0
 62
     7
 10
90.299499999999995
 20
119.541
 30
0.0
 11
91.135900000000007
 21
124.33799999999989
 31
0.0
  0
LINE
  5
493
  8
0
 62
     7
 10
91.135900000000007
 20
124.33799999999989
 30
0.0
 11
91.751900000000006
 21
129.136
 31
0.0
  0
LINE
  5
494
  8
0
 62
     7
 10
91.751900000000006
 20
129.136
 30
0.0
 11
92.192199999999985
 21
134.02099999999999
 31
0.0
  0
ARC
  5
495
  8
0
 62
     7
 10
69.775902000000002
 20
119.355501
 30
0.0
 40
20.041837999999998
 50
332.74705799999992
 51
346.728092
  0
ARC
  5
496
  8
0
 62
     7
 10
69.839815999999985
 20
169.467422
 30
0.0
 40
14.113089
 50
90.118394000000009
 51
122.709047
  0
ARC
  5
497
  8
0
 62
     7
 10
73.265711999999994
 20
164.36018300000001
 30
0.0
 40
20.228899999999989
 50
123.07561200000001
 51
166.15993399999999
  0
ARC
  5
498
  8
0
 62
     7
 10
69.893276999999998
 20
171.07099600000001
 30
0.0
 40
10.176958000000001
 50
90.465175999999985
 51
142.57009999999991
  0
ARC
  5
499
  8
0
 62
     7
 10
76.779256000000004
 20
165.9674709999999
 30
0.0
 40
18.747211
 50
143.06358999999989
 51
164.32693199999991
  0
ARC
  5
49A
  8
0
 62
     7
 10
69.856321999999992
 20
170.76543599999999
 30
0.0
 40
10.790273999999989
 50
90.242502000000016
 51
131.57571899999999
  0
ARC
  5
49B
  8
0
 62
     7
 10
76.150373000000002
 20
163.848164
 30
0.0
 40
20.152463999999998
 50
131.94303199999999
 51
165.89468400000001
  0
LINE
  5
49C
  8
0
 62
     7
 10
52.536099999999998
 20
131.64500000000001
 30
0.0
 11
52.712499999999999
 21
124.9549999999999
 31
0.0
  0
LINE
  5
49D
  8
0
 62
     7
 10
52.712499999999999
 20
124.9549999999999
 30
0.0
 11
53.152799999999999
 21
118.2649999999999
 31
0.0
  0
LINE
  5
49E
  8
0
 62
     7
 10
53.152799999999999
 20
118.2649999999999
 30
0.0
 11
53.724699999999991
 21
111.575
 31
0.0
  0
LINE
  5
49F
  8
0
 62
     7
 10
53.724699999999991
 20
111.575
 30
0.0
 11
54.561199999999999
 21
104.929
 31
0.0
  0
ARC
  5
4A0
  8
0
 62
     7
 10
74.365422999999993
 20
107.68349600000001
 30
0.0
 40
20.024854999999999
 50
187.84771599999991
 51
200.672211
  0
ARC
  5
4A1
  8
0
 62
     7
 10
72.452365999999998
 20
131.53457700000001
 30
0.0
 40
1.3422169999999991
 50
179.99996999999991
 51
270.00002000000001
  0
ARC
  5
4A2
  8
0
 62
     7
 10
72.452365999999998
 20
131.53457700000001
 30
0.0
 40
1.3422179999999999
 50
270.00002000000001
 51
359.99998999999991
  0
ARC
  5
4A3
  8
0
 62
     7
 10
72.452193999999992
 20
131.53474900000001
 30
0.0
 40
1.3423899999999991
 50
359.99265799999989
 51
89.992627999999996
  0
ARC
  5
4A4
  8
0
 62
     7
 10
72.452539000000002
 20
131.53474900000001
 30
0.0
 40
1.3423899999999991
 50
90.007351999999983
 51
180.00736199999989
  0
ARC
  5
4A5
  8
0
 62
     7
 10
68.674066999999994
 20
131.5858969999999
 30
0.0
 40
1.394455999999999
 50
182.1091209999999
 51
267.92031400000002
  0
ARC
  5
4A6
  8
0
 62
     7
 10
68.623463000000001
 20
131.53457700000001
 30
0.0
 40
1.3422179999999999
 50
270.00002000000001
 51
359.99998999999991
  0
ARC
  5
4A7
  8
0
 62
     7
 10
68.623291000000009
 20
131.53474900000001
 30
0.0
 40
1.3423899999999991
 50
359.99265799999989
 51
89.992627999999996
  0
ARC
  5
4A8
  8
0
 62
     7
 10
68.674745000000001
 20
131.48293699999999
 30
0.0
 40
1.3951450000000001
 50
92.106521999999998
 51
177.878748
  0
ARC
  5
4A9
  8
0
 62
     7
 10
64.80104399999999
 20
131.58584799999991
 30
0.0
 40
1.3944309999999991
 50
182.10715500000001
 51
267.892875
  0
ARC
  5
4AA
  8
0
 62
     7
 10
64.698515
 20
131.58655099999999
 30
0.0
 40
1.3951329999999991
 50
272.10555899999991
 51
357.86504599999989
  0
ARC
  5
4AB
  8
0
 62
     7
 10
64.698819999999998
 20
131.4832659999999
 30
0.0
 40
1.3948039999999999
 50
2.108217999999999
 51
87.906472999999991
  0
ARC
  5
4AC
  8
0
 62
     7
 10
64.801087999999993
 20
131.48362
 30
0.0
 40
1.394463999999999
 50
92.108893999999992
 51
177.90578099999999
  0
ARC
  5
4AD
  8
0
 62
     7
 10
76.325367
 20
131.53457700000001
 30
0.0
 40
1.3422169999999991
 50
179.99996999999991
 51
270.00002000000001
  0
ARC
  5
4AE
  8
0
 62
     7
 10
76.274124
 20
131.586536
 30
0.0
 40
1.3951180000000001
 50
272.10496999999998
 51
357.865635
  0
ARC
  5
4AF
  8
0
 62
     7
 10
76.274414000000007
 20
131.4832659999999
 30
0.0
 40
1.3948039999999999
 50
2.108217999999999
 51
87.906472999999991
  0
ARC
  5
4B0
  8
0
 62
     7
 10
76.325540000000004
 20
131.53474900000001
 30
0.0
 40
1.3423899999999991
 50
90.007351999999983
 51
180.00736199999989
  0
ARC
  5
4B1
  8
0
 62
     7
 10
80.198368000000002
 20
131.53457700000001
 30
0.0
 40
1.3422169999999991
 50
179.99996999999991
 51
270.00002000000001
  0
ARC
  5
4B2
  8
0
 62
     7
 10
80.147124999999988
 20
131.586536
 30
0.0
 40
1.3951180000000001
 50
272.10496999999998
 51
357.865635
  0
ARC
  5
4B3
  8
0
 62
     7
 10
80.147415000000009
 20
131.4832659999999
 30
0.0
 40
1.3948039999999999
 50
2.108217999999999
 51
87.906472999999991
  0
ARC
  5
4B4
  8
0
 62
     7
 10
80.198541000000006
 20
131.53474900000001
 30
0.0
 40
1.3423899999999991
 50
90.007351999999983
 51
180.00736199999989
  0
ARC
  5
4B5
  8
0
 62
     7
 10
82.135556999999977
 20
134.96763599999991
 30
0.0
 40
1.342562
 50
179.98526799999991
 51
269.98531700000001
  0
ARC
  5
4B6
  8
0
 62
     7
 10
82.083905999999985
 20
135.0192879999999
 30
0.0
 40
1.3951569999999991
 50
272.10752400000001
 51
357.89248599999991
  0
ARC
  5
4B7
  8
0
 62
     7
 10
82.084936999999996
 20
134.91663199999991
 30
0.0
 40
1.394129
 50
2.110805
 51
87.933299000000005
  0
ARC
  5
4B8
  8
0
 62
     7
 10
82.186464000000001
 20
134.91637199999991
 30
0.0
 40
1.394423999999999
 50
92.106337999999994
 51
177.87892400000001
  0
ARC
  5
4B9
  8
0
 62
     7
 10
78.262556000000004
 20
134.96763599999991
 30
0.0
 40
1.342562
 50
179.98526799999991
 51
269.98531700000001
  0
ARC
  5
4BA
  8
0
 62
     7
 10
78.261866999999995
 20
134.967637
 30
0.0
 40
1.342562
 50
270.01472200000001
 51
0.014693
  0
ARC
  5
4BB
  8
0
 62
     7
 10
78.211269999999999
 20
134.91668100000001
 30
0.0
 40
1.394104
 50
2.1088379999999991
 51
87.905860000000004
  0
ARC
  5
4BC
  8
0
 62
     7
 10
78.313462999999985
 20
134.91637199999991
 30
0.0
 40
1.394423999999999
 50
92.106337999999994
 51
177.87892400000001
  0
ARC
  5
4BD
  8
0
 62
     7
 10
74.440511999999998
 20
135.01928199999989
 30
0.0
 40
1.395151
 50
182.1073199999999
 51
267.89270899999991
  0
ARC
  5
4BE
  8
0
 62
     7
 10
74.388867000000005
 20
134.967637
 30
0.0
 40
1.342562
 50
270.01472200000001
 51
0.014693
  0
ARC
  5
4BF
  8
0
 62
     7
 10
74.338268999999997
 20
134.91668100000001
 30
0.0
 40
1.394104
 50
2.1088379999999991
 51
87.905860000000004
  0
ARC
  5
4C0
  8
0
 62
     7
 10
74.440444999999997
 20
134.91567399999991
 30
0.0
 40
1.3951209999999989
 50
92.104557
 51
177.85130000000001
  0
ARC
  5
4C1
  8
0
 62
     7
 10
70.611609000000001
 20
135.01928199999989
 30
0.0
 40
1.395151
 50
182.1073199999999
 51
267.89270899999991
  0
ARC
  5
4C2
  8
0
 62
     7
 10
70.508949999999999
 20
135.017909
 30
0.0
 40
1.393780999999999
 50
272.11171599999989
 51
357.94711899999999
  0
ARC
  5
4C3
  8
0
 62
     7
 10
70.508698999999993
 20
134.91672999999989
 30
0.0
 40
1.3940799999999991
 50
2.1068720000000001
 51
87.878407000000024
  0
ARC
  5
4C4
  8
0
 62
     7
 10
70.611542
 20
134.91567399999991
 30
0.0
 40
1.3951209999999989
 50
92.104557
 51
177.85130000000001
  0
ARC
  5
4C5
  8
0
 62
     7
 10
66.686961999999994
 20
134.96763599999991
 30
0.0
 40
1.342562
 50
179.98526799999991
 51
269.98531700000001
  0
ARC
  5
4C6
  8
0
 62
     7
 10
66.686273
 20
134.967637
 30
0.0
 40
1.342562
 50
270.01472200000001
 51
0.014693
  0
ARC
  5
4C7
  8
0
 62
     7
 10
66.635676000000004
 20
134.91668100000001
 30
0.0
 40
1.394104
 50
2.1088379999999991
 51
87.905860000000004
  0
ARC
  5
4C8
  8
0
 62
     7
 10
66.737868999999989
 20
134.91637199999991
 30
0.0
 40
1.394423999999999
 50
92.106337999999994
 51
177.87892400000001
  0
ARC
  5
4C9
  8
0
 62
     7
 10
62.813961999999989
 20
134.96763599999991
 30
0.0
 40
1.342562
 50
179.98526799999991
 51
269.98531700000001
  0
ARC
  5
4CA
  8
0
 62
     7
 10
62.813273000000002
 20
134.967637
 30
0.0
 40
1.342562
 50
270.01472200000001
 51
0.014693
  0
ARC
  5
4CB
  8
0
 62
     7
 10
62.762675000000002
 20
134.91668100000001
 30
0.0
 40
1.394104
 50
2.1088379999999991
 51
87.905860000000004
  0
ARC
  5
4CC
  8
0
 62
     7
 10
62.864868999999992
 20
134.91637199999991
 30
0.0
 40
1.394423999999999
 50
92.106337999999994
 51
177.87892400000001
  0
ARC
  5
4CD
  8
0
 62
     7
 10
64.801392000000007
 20
138.40786
 30
0.0
 40
1.3947789999999991
 50
182.106255
 51
267.87907100000001
  0
ARC
  5
4CE
  8
0
 62
     7
 10
64.698491000000004
 20
138.4082379999999
 30
0.0
 40
1.3951450000000001
 50
272.10654099999999
 51
357.87876799999998
  0
ARC
  5
4CF
  8
0
 62
     7
 10
64.699168999999998
 20
138.30527900000001
 30
0.0
 40
1.394455999999999
 50
2.109118
 51
87.920276999999999
  0
ARC
  5
4D0
  8
0
 62
     7
 10
64.801063999999997
 20
138.305308
 30
0.0
 40
1.394452
 50
92.107910999999987
 51
177.89205999999999
  0
ARC
  5
4D1
  8
0
 62
     7
 10
62.813788999999993
 20
141.74538799999991
 30
0.0
 40
1.3423899999999991
 50
179.99261799999991
 51
269.99266799999998
  0
ARC
  5
4D2
  8
0
 62
     7
 10
62.813444999999987
 20
141.74538799999991
 30
0.0
 40
1.3423899999999991
 50
270.00737199999998
 51
0.007342
  0
ARC
  5
4D3
  8
0
 62
     7
 10
62.761997999999998
 20
141.69429799999989
 30
0.0
 40
1.394779999999999
 50
2.106252
 51
87.87903399999999
  0
ARC
  5
4D4
  8
0
 62
     7
 10
62.864916999999998
 20
141.69461799999991
 30
0.0
 40
1.394447999999999
 50
92.108304000000018
 51
177.9063699999999
  0
ARC
  5
4D5
  8
0
 62
     7
 10
62.864897999999997
 20
148.61886200000001
 30
0.0
 40
1.3944419999999991
 50
182.10754700000001
 51
267.89248199999992
  0
ARC
  5
4D6
  8
0
 62
     7
 10
62.762340999999999
 20
148.61885699999999
 30
0.0
 40
1.3944369999999999
 50
272.10735799999998
 51
357.892652
  0
ARC
  5
4D7
  8
0
 62
     7
 10
62.813530999999998
 20
148.56766699999989
 30
0.0
 40
1.3423039999999999
 50
359.99633399999988
 51
89.996303999999995
  0
ARC
  5
4D8
  8
0
 62
     7
 10
62.813704000000001
 20
148.56766699999989
 30
0.0
 40
1.3423039999999999
 50
90.003675999999999
 51
180.00368599999999
  0
ARC
  5
4D9
  8
0
 62
     7
 10
64.80104399999999
 20
145.1857929999999
 30
0.0
 40
1.3944309999999991
 50
182.10715500000001
 51
267.892875
  0
ARC
  5
4DA
  8
0
 62
     7
 10
64.698515
 20
145.18649500000001
 30
0.0
 40
1.3951329999999991
 50
272.10555899999991
 51
357.86504599999989
  0
ARC
  5
4DB
  8
0
 62
     7
 10
64.698471999999995
 20
145.0832199999999
 30
0.0
 40
1.3951519999999991
 50
2.1073179999999998
 51
87.89267199999999
  0
ARC
  5
4DC
  8
0
 62
     7
 10
64.801112000000003
 20
145.083898
 30
0.0
 40
1.394476
 50
92.109876999999997
 51
177.919499
  0
ARC
  5
4DD
  8
0
 62
     7
 10
66.686790000000002
 20
141.74538799999991
 30
0.0
 40
1.3423899999999991
 50
179.99261799999991
 51
269.99266799999998
  0
ARC
  5
4DE
  8
0
 62
     7
 10
66.686445999999989
 20
141.74538799999991
 30
0.0
 40
1.3423899999999991
 50
270.00737199999998
 51
0.007342
  0
ARC
  5
4DF
  8
0
 62
     7
 10
66.634997999999996
 20
141.69429799999989
 30
0.0
 40
1.394779999999999
 50
2.106252
 51
87.87903399999999
  0
ARC
  5
4E0
  8
0
 62
     7
 10
66.737917999999993
 20
141.69461799999991
 30
0.0
 40
1.394447999999999
 50
92.108304000000018
 51
177.9063699999999
  0
ARC
  5
4E1
  8
0
 62
     7
 10
68.674416000000008
 20
138.40790899999999
 30
0.0
 40
1.394803
 50
182.10821999999999
 51
267.90651000000003
  0
ARC
  5
4E2
  8
0
 62
     7
 10
68.623291000000009
 20
138.35642599999991
 30
0.0
 40
1.3423899999999991
 50
270.00737199999998
 51
0.007342
  0
ARC
  5
4E3
  8
0
 62
     7
 10
68.623463000000001
 20
138.35659799999991
 30
0.0
 40
1.3422179999999999
 50
0.00001
 51
89.999980000000008
  0
ARC
  5
4E4
  8
0
 62
     7
 10
68.674720999999991
 20
138.3046249999999
 30
0.0
 40
1.3951329999999991
 50
92.105539000000022
 51
177.865026
  0
ARC
  5
4E5
  8
0
 62
     7
 10
72.452538000000004
 20
138.35642599999991
 30
0.0
 40
1.3423899999999991
 50
179.99261799999991
 51
269.99266799999998
  0
ARC
  5
4E6
  8
0
 62
     7
 10
72.452193999999992
 20
138.35642599999991
 30
0.0
 40
1.3423899999999991
 50
270.00737199999998
 51
0.007342
  0
ARC
  5
4E7
  8
0
 62
     7
 10
72.452365999999998
 20
138.35659799999991
 30
0.0
 40
1.3422179999999999
 50
0.00001
 51
89.999980000000008
  0
ARC
  5
4E8
  8
0
 62
     7
 10
72.45236700000001
 20
138.35659799999991
 30
0.0
 40
1.3422179999999999
 50
90.0
 51
179.99996999999991
  0
ARC
  5
4E9
  8
0
 62
     7
 10
70.611260999999999
 20
141.7968699999999
 30
0.0
 40
1.394803
 50
182.10821999999999
 51
267.90651000000003
  0
ARC
  5
4EA
  8
0
 62
     7
 10
70.508973999999995
 20
141.7958209999999
 30
0.0
 40
1.393769
 50
272.11073299999993
 51
357.933402
  0
ARC
  5
4EB
  8
0
 62
     7
 10
70.508020999999999
 20
141.69434699999991
 30
0.0
 40
1.394755999999999
 50
2.1042869999999989
 51
87.851578999999987
  0
ARC
  5
4EC
  8
0
 62
     7
 10
70.611590000000007
 20
141.69391999999991
 30
0.0
 40
1.3951450000000001
 50
92.106521999999998
 51
177.878748
  0
ARC
  5
4ED
  8
0
 62
     7
 10
68.674066999999994
 20
145.1858409999999
 30
0.0
 40
1.394455999999999
 50
182.1091209999999
 51
267.92031400000002
  0
ARC
  5
4EE
  8
0
 62
     7
 10
68.623463000000001
 20
145.134522
 30
0.0
 40
1.3422179999999999
 50
270.00002000000001
 51
359.99998999999991
  0
ARC
  5
4EF
  8
0
 62
     7
 10
68.623118000000005
 20
145.1348659999999
 30
0.0
 40
1.342562
 50
359.98530699999992
 51
89.985278000000008
  0
ARC
  5
4F0
  8
0
 62
     7
 10
68.674768999999984
 20
145.08321599999999
 30
0.0
 40
1.3951569999999991
 50
92.107486999999992
 51
177.892483
  0
ARC
  5
4F1
  8
0
 62
     7
 10
66.737898999999999
 20
148.61886200000001
 30
0.0
 40
1.3944419999999991
 50
182.10754700000001
 51
267.89248199999992
  0
ARC
  5
4F2
  8
0
 62
     7
 10
66.635341999999994
 20
148.61885699999999
 30
0.0
 40
1.3944369999999999
 50
272.10735799999998
 51
357.892652
  0
ARC
  5
4F3
  8
0
 62
     7
 10
66.686532
 20
148.56766699999989
 30
0.0
 40
1.3423039999999999
 50
359.99633399999988
 51
89.996303999999995
  0
ARC
  5
4F4
  8
0
 62
     7
 10
66.686704000000006
 20
148.56766699999989
 30
0.0
 40
1.3423039999999999
 50
90.003675999999999
 51
180.00368599999999
  0
ARC
  5
4F5
  8
0
 62
     7
 10
64.801218000000006
 20
152.00780900000001
 30
0.0
 40
1.394604999999999
 50
182.10670500000001
 51
267.88597299999998
  0
ARC
  5
4F6
  8
0
 62
     7
 10
64.698503000000002
 20
152.00835000000001
 30
0.0
 40
1.395138999999999
 50
272.10604999999993
 51
357.87190699999991
  0
ARC
  5
4F7
  8
0
 62
     7
 10
64.698819999999998
 20
151.90523300000001
 30
0.0
 40
1.3948039999999999
 50
2.108217999999999
 51
87.906472999999991
  0
ARC
  5
4F8
  8
0
 62
     7
 10
64.801087999999993
 20
151.90558599999989
 30
0.0
 40
1.394463999999999
 50
92.108893999999992
 51
177.90578099999999
  0
ARC
  5
4F9
  8
0
 62
     7
 10
62.813702999999997
 20
155.3455909999999
 30
0.0
 40
1.3423039999999999
 50
179.99629400000001
 51
269.99634400000002
  0
ARC
  5
4FA
  8
0
 62
     7
 10
62.813530999999998
 20
155.3455909999999
 30
0.0
 40
1.3423039999999999
 50
270.00369599999988
 51
0.003666
  0
ARC
  5
4FB
  8
0
 62
     7
 10
62.813530999999998
 20
155.34576299999989
 30
0.0
 40
1.3423039999999999
 50
359.99633399999988
 51
89.996303999999995
  0
ARC
  5
4FC
  8
0
 62
     7
 10
62.813704000000001
 20
155.34576299999989
 30
0.0
 40
1.3423039999999999
 50
90.003675999999999
 51
180.00368599999999
  0
ARC
  5
4FD
  8
0
 62
     7
 10
64.801392000000007
 20
158.7860729999999
 30
0.0
 40
1.3947789999999991
 50
182.106255
 51
267.87907100000001
  0
ARC
  5
4FE
  8
0
 62
     7
 10
64.698491000000004
 20
158.78645099999989
 30
0.0
 40
1.3951450000000001
 50
272.10654099999999
 51
357.87876799999998
  0
ARC
  5
4FF
  8
0
 62
     7
 10
64.698993999999999
 20
158.68349599999999
 30
0.0
 40
1.39463
 50
2.1086680000000002
 51
87.913375000000002
  0
ARC
  5
500
  8
0
 62
     7
 10
64.801075999999995
 20
158.6836879999999
 30
0.0
 40
1.3944579999999991
 50
92.108402000000012
 51
177.89892099999989
  0
ARC
  5
501
  8
0
 62
     7
 10
66.686704000000006
 20
155.3455909999999
 30
0.0
 40
1.3423039999999999
 50
179.99629400000001
 51
269.99634400000002
  0
ARC
  5
502
  8
0
 62
     7
 10
66.686532
 20
155.3455909999999
 30
0.0
 40
1.3423039999999999
 50
270.00369599999988
 51
0.003666
  0
ARC
  5
503
  8
0
 62
     7
 10
66.686532
 20
155.34576299999989
 30
0.0
 40
1.3423039999999999
 50
359.99633399999988
 51
89.996303999999995
  0
ARC
  5
504
  8
0
 62
     7
 10
66.686704000000006
 20
155.34576299999989
 30
0.0
 40
1.3423039999999999
 50
90.003675999999999
 51
180.00368599999999
  0
ARC
  5
505
  8
0
 62
     7
 10
68.674240999999995
 20
152.007858
 30
0.0
 40
1.3946289999999999
 50
182.10866999999999
 51
267.91341199999999
  0
ARC
  5
506
  8
0
 62
     7
 10
68.623377000000005
 20
151.956457
 30
0.0
 40
1.3423039999999999
 50
270.00369599999988
 51
0.003666
  0
ARC
  5
507
  8
0
 62
     7
 10
68.623291000000009
 20
151.956715
 30
0.0
 40
1.3423899999999991
 50
359.99265799999989
 51
89.992627999999996
  0
ARC
  5
508
  8
0
 62
     7
 10
68.674745000000001
 20
151.9049029999999
 30
0.0
 40
1.3951450000000001
 50
92.106521999999998
 51
177.878748
  0
ARC
  5
509
  8
0
 62
     7
 10
66.68661800000001
 20
162.167698
 30
0.0
 40
1.3422169999999991
 50
179.99996999999991
 51
270.00002000000001
  0
ARC
  5
50A
  8
0
 62
     7
 10
66.68661800000001
 20
162.167699
 30
0.0
 40
1.3422179999999999
 50
270.00002000000001
 51
359.99998999999991
  0
ARC
  5
50B
  8
0
 62
     7
 10
66.686532
 20
162.16778400000001
 30
0.0
 40
1.3423039999999999
 50
359.99633399999988
 51
89.996303999999995
  0
ARC
  5
50C
  8
0
 62
     7
 10
66.686704000000006
 20
162.16778400000001
 30
0.0
 40
1.3423039999999999
 50
90.003675999999999
 51
180.00368599999999
  0
ARC
  5
50D
  8
0
 62
     7
 10
68.674416000000008
 20
158.78612200000001
 30
0.0
 40
1.394803
 50
182.10821999999999
 51
267.90651000000003
  0
ARC
  5
50E
  8
0
 62
     7
 10
68.623291000000009
 20
158.7346389999999
 30
0.0
 40
1.3423899999999991
 50
270.00737199999998
 51
0.007342
  0
ARC
  5
50F
  8
0
 62
     7
 10
68.572018
 20
158.68354500000001
 30
0.0
 40
1.394606
 50
2.106701999999999
 51
87.885936000000001
  0
ARC
  5
510
  8
0
 62
     7
 10
68.674732999999989
 20
158.68300500000001
 30
0.0
 40
1.395138999999999
 50
92.106030000000004
 51
177.8718879999999
  0
ARC
  5
511
  8
0
 62
     7
 10
70.611086
 20
155.3969919999999
 30
0.0
 40
1.3946289999999999
 50
182.10866999999999
 51
267.91341199999999
  0
ARC
  5
512
  8
0
 62
     7
 10
70.508987000000005
 20
155.39610500000001
 30
0.0
 40
1.393762999999999
 50
272.11024099999997
 51
357.92654199999998
  0
ARC
  5
513
  8
0
 62
     7
 10
70.508195999999998
 20
155.29445999999999
 30
0.0
 40
1.3945819999999991
 50
2.1047359999999991
 51
87.858480999999998
  0
ARC
  5
514
  8
0
 62
     7
 10
70.611578000000009
 20
155.293871
 30
0.0
 40
1.395138999999999
 50
92.106030000000004
 51
177.8718879999999
  0
ARC
  5
515
  8
0
 62
     7
 10
70.610922000000002
 20
148.61891099999991
 30
0.0
 40
1.3944659999999991
 50
182.10951299999991
 51
267.91992099999987
  0
ARC
  5
516
  8
0
 62
     7
 10
70.508999000000003
 20
148.61817500000001
 30
0.0
 40
1.3937559999999991
 50
272.10974900000002
 51
357.91968100000003
  0
ARC
  5
517
  8
0
 62
     7
 10
70.508195999999998
 20
148.5163639999999
 30
0.0
 40
1.3945819999999991
 50
2.1047359999999991
 51
87.858480999999998
  0
ARC
  5
518
  8
0
 62
     7
 10
70.611578000000009
 20
148.51577499999991
 30
0.0
 40
1.395138999999999
 50
92.106030000000004
 51
177.8718879999999
  0
ARC
  5
519
  8
0
 62
     7
 10
72.452452000000008
 20
151.956457
 30
0.0
 40
1.3423039999999999
 50
179.99629400000001
 51
269.99634400000002
  0
ARC
  5
51A
  8
0
 62
     7
 10
72.452280000000002
 20
151.956457
 30
0.0
 40
1.3423039999999999
 50
270.00369599999988
 51
0.003666
  0
ARC
  5
51B
  8
0
 62
     7
 10
72.452193999999992
 20
151.956715
 30
0.0
 40
1.3423899999999991
 50
359.99265799999989
 51
89.992627999999996
  0
ARC
  5
51C
  8
0
 62
     7
 10
72.452539000000002
 20
151.956715
 30
0.0
 40
1.3423899999999991
 50
90.007351999999983
 51
180.00736199999989
  0
ARC
  5
51D
  8
0
 62
     7
 10
72.452365999999998
 20
145.134522
 30
0.0
 40
1.3422169999999991
 50
179.99996999999991
 51
270.00002000000001
  0
ARC
  5
51E
  8
0
 62
     7
 10
72.452365999999998
 20
145.134522
 30
0.0
 40
1.3422179999999999
 50
270.00002000000001
 51
359.99998999999991
  0
ARC
  5
51F
  8
0
 62
     7
 10
72.452021999999999
 20
145.1348659999999
 30
0.0
 40
1.342562
 50
359.98530699999992
 51
89.985278000000008
  0
ARC
  5
520
  8
0
 62
     7
 10
72.452710999999994
 20
145.1348659999999
 30
0.0
 40
1.342562
 50
90.014703000000011
 51
180.014712
  0
ARC
  5
521
  8
0
 62
     7
 10
74.440163999999996
 20
141.7968699999999
 30
0.0
 40
1.394803
 50
182.10821999999999
 51
267.90651000000003
  0
ARC
  5
522
  8
0
 62
     7
 10
74.389038999999997
 20
141.74538799999991
 30
0.0
 40
1.3423899999999991
 50
270.00737199999998
 51
0.007342
  0
ARC
  5
523
  8
0
 62
     7
 10
74.337592000000001
 20
141.69429799999989
 30
0.0
 40
1.394779999999999
 50
2.106252
 51
87.87903399999999
  0
ARC
  5
524
  8
0
 62
     7
 10
74.440494000000001
 20
141.69391999999991
 30
0.0
 40
1.3951450000000001
 50
92.106521999999998
 51
177.878748
  0
ARC
  5
525
  8
0
 62
     7
 10
76.325539000000006
 20
138.35642599999991
 30
0.0
 40
1.3423899999999991
 50
179.99261799999991
 51
269.99266799999998
  0
ARC
  5
526
  8
0
 62
     7
 10
76.274100000000004
 20
138.40822299999991
 30
0.0
 40
1.3951299999999991
 50
272.105953
 51
357.87935699999991
  0
ARC
  5
527
  8
0
 62
     7
 10
76.274763000000007
 20
138.30527900000001
 30
0.0
 40
1.394455999999999
 50
2.109118
 51
87.920276999999999
  0
ARC
  5
528
  8
0
 62
     7
 10
76.325367
 20
138.35659799999991
 30
0.0
 40
1.3422179999999999
 50
90.0
 51
179.99996999999991
  0
ARC
  5
529
  8
0
 62
     7
 10
80.198539999999994
 20
138.35642599999991
 30
0.0
 40
1.3423899999999991
 50
179.99261799999991
 51
269.99266799999998
  0
ARC
  5
52A
  8
0
 62
     7
 10
80.147101000000006
 20
138.40822299999991
 30
0.0
 40
1.3951299999999991
 50
272.105953
 51
357.87935699999991
  0
ARC
  5
52B
  8
0
 62
     7
 10
80.147762999999983
 20
138.30527900000001
 30
0.0
 40
1.394455999999999
 50
2.109118
 51
87.920276999999999
  0
ARC
  5
52C
  8
0
 62
     7
 10
80.198368000000002
 20
138.35659799999991
 30
0.0
 40
1.3422179999999999
 50
90.0
 51
179.99996999999991
  0
ARC
  5
52D
  8
0
 62
     7
 10
78.262383999999997
 20
141.74538799999991
 30
0.0
 40
1.3423899999999991
 50
179.99261799999991
 51
269.99266799999998
  0
ARC
  5
52E
  8
0
 62
     7
 10
78.262039999999999
 20
141.74538799999991
 30
0.0
 40
1.3423899999999991
 50
270.00737199999998
 51
0.007342
  0
ARC
  5
52F
  8
0
 62
     7
 10
78.210592000000005
 20
141.69429799999989
 30
0.0
 40
1.394779999999999
 50
2.106252
 51
87.87903399999999
  0
ARC
  5
530
  8
0
 62
     7
 10
78.313512000000003
 20
141.69461799999991
 30
0.0
 40
1.394447999999999
 50
92.108304000000018
 51
177.9063699999999
  0
ARC
  5
531
  8
0
 62
     7
 10
76.325367
 20
145.134522
 30
0.0
 40
1.3422169999999991
 50
179.99996999999991
 51
270.00002000000001
  0
ARC
  5
532
  8
0
 62
     7
 10
76.274124
 20
145.18648099999999
 30
0.0
 40
1.3951180000000001
 50
272.10496999999998
 51
357.865635
  0
ARC
  5
533
  8
0
 62
     7
 10
76.274066000000005
 20
145.0832199999999
 30
0.0
 40
1.3951519999999991
 50
2.1073179999999998
 51
87.89267199999999
  0
ARC
  5
534
  8
0
 62
     7
 10
76.325711999999996
 20
145.1348659999999
 30
0.0
 40
1.342562
 50
90.014703000000011
 51
180.014712
  0
ARC
  5
535
  8
0
 62
     7
 10
74.439824999999999
 20
148.61891099999991
 30
0.0
 40
1.3944659999999991
 50
182.10951299999991
 51
267.91992099999987
  0
ARC
  5
536
  8
0
 62
     7
 10
74.337935000000002
 20
148.61885699999999
 30
0.0
 40
1.3944369999999999
 50
272.10735799999998
 51
357.892652
  0
ARC
  5
537
  8
0
 62
     7
 10
74.389125000000007
 20
148.56766699999989
 30
0.0
 40
1.3423039999999999
 50
359.99633399999988
 51
89.996303999999995
  0
ARC
  5
538
  8
0
 62
     7
 10
74.440481000000005
 20
148.51577499999991
 30
0.0
 40
1.395138999999999
 50
92.106030000000004
 51
177.8718879999999
  0
ARC
  5
539
  8
0
 62
     7
 10
64.801392000000007
 20
165.60809399999999
 30
0.0
 40
1.3947789999999991
 50
182.106255
 51
267.87907100000001
  0
ARC
  5
53A
  8
0
 62
     7
 10
64.698491000000004
 20
165.608473
 30
0.0
 40
1.3951450000000001
 50
272.10654099999999
 51
357.87876799999998
  0
ARC
  5
53B
  8
0
 62
     7
 10
64.698993999999999
 20
165.50551699999991
 30
0.0
 40
1.39463
 50
2.1086680000000002
 51
87.913375000000002
  0
ARC
  5
53C
  8
0
 62
     7
 10
64.801075999999995
 20
165.50570899999991
 30
0.0
 40
1.3944579999999991
 50
92.108402000000012
 51
177.89892099999989
  0
ARC
  5
53D
  8
0
 62
     7
 10
66.686704000000006
 20
168.94570799999991
 30
0.0
 40
1.3423039999999999
 50
179.99629400000001
 51
269.99634400000002
  0
ARC
  5
53E
  8
0
 62
     7
 10
66.686532
 20
168.94570899999999
 30
0.0
 40
1.3423039999999999
 50
270.00369599999988
 51
0.003666
  0
ARC
  5
53F
  8
0
 62
     7
 10
66.686445999999989
 20
168.94596699999991
 30
0.0
 40
1.3423899999999991
 50
359.99265799999989
 51
89.992627999999996
  0
ARC
  5
540
  8
0
 62
     7
 10
66.686790999999999
 20
168.94596699999991
 30
0.0
 40
1.3423899999999991
 50
90.007351999999983
 51
180.00736199999989
  0
ARC
  5
541
  8
0
 62
     7
 10
68.674416000000008
 20
165.6081429999999
 30
0.0
 40
1.394803
 50
182.10821999999999
 51
267.90651000000003
  0
ARC
  5
542
  8
0
 62
     7
 10
68.623291000000009
 20
165.55666099999999
 30
0.0
 40
1.3423899999999991
 50
270.00737199999998
 51
0.007342
  0
ARC
  5
543
  8
0
 62
     7
 10
68.623377000000005
 20
165.55691899999999
 30
0.0
 40
1.3423039999999999
 50
359.99633399999988
 51
89.996303999999995
  0
ARC
  5
544
  8
0
 62
     7
 10
68.674732999999989
 20
165.50502599999999
 30
0.0
 40
1.395138999999999
 50
92.106030000000004
 51
177.8718879999999
  0
ARC
  5
545
  8
0
 62
     7
 10
70.610922000000002
 20
162.21902800000001
 30
0.0
 40
1.3944659999999991
 50
182.10951299999991
 51
267.91992099999987
  0
ARC
  5
546
  8
0
 62
     7
 10
70.508999000000003
 20
162.2182929999999
 30
0.0
 40
1.3937559999999991
 50
272.10974900000002
 51
357.91968100000003
  0
ARC
  5
547
  8
0
 62
     7
 10
70.508195999999998
 20
162.11648099999991
 30
0.0
 40
1.3945819999999991
 50
2.1047359999999991
 51
87.858480999999998
  0
ARC
  5
548
  8
0
 62
     7
 10
70.611578000000009
 20
162.115892
 30
0.0
 40
1.395138999999999
 50
92.106030000000004
 51
177.8718879999999
  0
ARC
  5
549
  8
0
 62
     7
 10
72.452538000000004
 20
158.7346389999999
 30
0.0
 40
1.3423899999999991
 50
179.99261799999991
 51
269.99266799999998
  0
ARC
  5
54A
  8
0
 62
     7
 10
72.452193999999992
 20
158.7346389999999
 30
0.0
 40
1.3423899999999991
 50
270.00737199999998
 51
0.007342
  0
ARC
  5
54B
  8
0
 62
     7
 10
72.400920999999997
 20
158.68354500000001
 30
0.0
 40
1.394606
 50
2.106701999999999
 51
87.885936000000001
  0
ARC
  5
54C
  8
0
 62
     7
 10
72.503653999999983
 20
158.68370300000001
 30
0.0
 40
1.3944419999999991
 50
92.107812999999993
 51
177.89950999999999
  0
ARC
  5
54D
  8
0
 62
     7
 10
74.439990000000009
 20
155.3969919999999
 30
0.0
 40
1.3946289999999999
 50
182.10866999999999
 51
267.91341199999999
  0
ARC
  5
54E
  8
0
 62
     7
 10
74.389125000000007
 20
155.3455909999999
 30
0.0
 40
1.3423039999999999
 50
270.00369599999988
 51
0.003666
  0
ARC
  5
54F
  8
0
 62
     7
 10
74.389125000000007
 20
155.34576299999989
 30
0.0
 40
1.3423039999999999
 50
359.99633399999988
 51
89.996303999999995
  0
ARC
  5
550
  8
0
 62
     7
 10
74.440481000000005
 20
155.293871
 30
0.0
 40
1.395138999999999
 50
92.106030000000004
 51
177.8718879999999
  0
ARC
  5
551
  8
0
 62
     7
 10
76.325452999999996
 20
151.956457
 30
0.0
 40
1.3423039999999999
 50
179.99629400000001
 51
269.99634400000002
  0
ARC
  5
552
  8
0
 62
     7
 10
76.274112000000002
 20
152.00833499999999
 30
0.0
 40
1.395124
 50
272.10546099999988
 51
357.87249600000001
  0
ARC
  5
553
  8
0
 62
     7
 10
76.274414000000007
 20
151.90523300000001
 30
0.0
 40
1.3948039999999999
 50
2.108217999999999
 51
87.906472999999991
  0
ARC
  5
554
  8
0
 62
     7
 10
76.325540000000004
 20
151.956715
 30
0.0
 40
1.3423899999999991
 50
90.007351999999983
 51
180.00736199999989
  0
ARC
  5
555
  8
0
 62
     7
 10
78.313493000000008
 20
148.61886200000001
 30
0.0
 40
1.3944419999999991
 50
182.10754700000001
 51
267.89248199999992
  0
ARC
  5
556
  8
0
 62
     7
 10
78.210936000000004
 20
148.61885699999999
 30
0.0
 40
1.3944369999999999
 50
272.10735799999998
 51
357.892652
  0
ARC
  5
557
  8
0
 62
     7
 10
78.262125999999995
 20
148.56766699999989
 30
0.0
 40
1.3423039999999999
 50
359.99633399999988
 51
89.996303999999995
  0
ARC
  5
558
  8
0
 62
     7
 10
78.262298000000001
 20
148.56766699999989
 30
0.0
 40
1.3423039999999999
 50
90.003675999999999
 51
180.00368599999999
  0
ARC
  5
559
  8
0
 62
     7
 10
80.198368000000002
 20
145.134522
 30
0.0
 40
1.3422169999999991
 50
179.99996999999991
 51
270.00002000000001
  0
ARC
  5
55A
  8
0
 62
     7
 10
80.147124999999988
 20
145.18648099999999
 30
0.0
 40
1.3951180000000001
 50
272.10496999999998
 51
357.865635
  0
ARC
  5
55B
  8
0
 62
     7
 10
80.147066000000024
 20
145.0832199999999
 30
0.0
 40
1.3951519999999991
 50
2.1073179999999998
 51
87.89267199999999
  0
ARC
  5
55C
  8
0
 62
     7
 10
80.198712999999998
 20
145.1348659999999
 30
0.0
 40
1.342562
 50
90.014703000000011
 51
180.014712
  0
ARC
  5
55D
  8
0
 62
     7
 10
82.135384999999999
 20
141.74538799999991
 30
0.0
 40
1.3423899999999991
 50
179.99261799999991
 51
269.99266799999998
  0
ARC
  5
55E
  8
0
 62
     7
 10
82.083931000000007
 20
141.79719999999989
 30
0.0
 40
1.3951450000000001
 50
272.10654099999999
 51
357.87876799999998
  0
ARC
  5
55F
  8
0
 62
     7
 10
82.084260000000015
 20
141.69425000000001
 30
0.0
 40
1.3948039999999999
 50
2.108217999999999
 51
87.906472999999991
  0
ARC
  5
560
  8
0
 62
     7
 10
82.186513000000005
 20
141.69461799999991
 30
0.0
 40
1.394447999999999
 50
92.108304000000018
 51
177.9063699999999
  0
ARC
  5
561
  8
0
 62
     7
 10
82.186493999999996
 20
148.61886200000001
 30
0.0
 40
1.3944419999999991
 50
182.10754700000001
 51
267.89248199999992
  0
ARC
  5
562
  8
0
 62
     7
 10
82.083954999999989
 20
148.61955499999991
 30
0.0
 40
1.3951329999999991
 50
272.10555899999991
 51
357.86504599999989
  0
ARC
  5
563
  8
0
 62
     7
 10
82.084434000000002
 20
148.516266
 30
0.0
 40
1.39463
 50
2.1086680000000002
 51
87.913375000000002
  0
ARC
  5
564
  8
0
 62
     7
 10
82.135299000000003
 20
148.56766699999989
 30
0.0
 40
1.3423039999999999
 50
90.003675999999999
 51
180.00368599999999
  0
ARC
  5
565
  8
0
 62
     7
 10
80.198453999999984
 20
151.956457
 30
0.0
 40
1.3423039999999999
 50
179.99629400000001
 51
269.99634400000002
  0
ARC
  5
566
  8
0
 62
     7
 10
80.147113000000004
 20
152.00833499999999
 30
0.0
 40
1.395124
 50
272.10546099999988
 51
357.87249600000001
  0
ARC
  5
567
  8
0
 62
     7
 10
80.147415000000009
 20
151.90523300000001
 30
0.0
 40
1.3948039999999999
 50
2.108217999999999
 51
87.906472999999991
  0
ARC
  5
568
  8
0
 62
     7
 10
80.198541000000006
 20
151.956715
 30
0.0
 40
1.3423899999999991
 50
90.007351999999983
 51
180.00736199999989
  0
ARC
  5
569
  8
0
 62
     7
 10
78.262298000000001
 20
155.3455909999999
 30
0.0
 40
1.3423039999999999
 50
179.99629400000001
 51
269.99634400000002
  0
ARC
  5
56A
  8
0
 62
     7
 10
78.262125999999995
 20
155.3455909999999
 30
0.0
 40
1.3423039999999999
 50
270.00369599999988
 51
0.003666
  0
ARC
  5
56B
  8
0
 62
     7
 10
78.262125999999995
 20
155.34576299999989
 30
0.0
 40
1.3423039999999999
 50
359.99633399999988
 51
89.996303999999995
  0
ARC
  5
56C
  8
0
 62
     7
 10
78.262298000000001
 20
155.34576299999989
 30
0.0
 40
1.3423039999999999
 50
90.003675999999999
 51
180.00368599999999
  0
ARC
  5
56D
  8
0
 62
     7
 10
76.325539000000006
 20
158.7346389999999
 30
0.0
 40
1.3423899999999991
 50
179.99261799999991
 51
269.99266799999998
  0
ARC
  5
56E
  8
0
 62
     7
 10
76.274100000000004
 20
158.78643700000001
 30
0.0
 40
1.3951299999999991
 50
272.105953
 51
357.87935699999991
  0
ARC
  5
56F
  8
0
 62
     7
 10
76.274587999999994
 20
158.68349599999999
 30
0.0
 40
1.39463
 50
2.1086680000000002
 51
87.913375000000002
  0
ARC
  5
570
  8
0
 62
     7
 10
76.376655
 20
158.68370300000001
 30
0.0
 40
1.3944419999999991
 50
92.107812999999993
 51
177.89950999999999
  0
ARC
  5
571
  8
0
 62
     7
 10
74.439824999999999
 20
162.21902800000001
 30
0.0
 40
1.3944659999999991
 50
182.10951299999991
 51
267.91992099999987
  0
ARC
  5
572
  8
0
 62
     7
 10
74.389211000000003
 20
162.167699
 30
0.0
 40
1.3422179999999999
 50
270.00002000000001
 51
359.99998999999991
  0
ARC
  5
573
  8
0
 62
     7
 10
74.389125000000007
 20
162.16778400000001
 30
0.0
 40
1.3423039999999999
 50
359.99633399999988
 51
89.996303999999995
  0
ARC
  5
574
  8
0
 62
     7
 10
74.440481000000005
 20
162.115892
 30
0.0
 40
1.395138999999999
 50
92.106030000000004
 51
177.8718879999999
  0
ARC
  5
575
  8
0
 62
     7
 10
72.452538000000004
 20
165.55665999999999
 30
0.0
 40
1.3423899999999991
 50
179.99261799999991
 51
269.99266799999998
  0
ARC
  5
576
  8
0
 62
     7
 10
72.452193999999992
 20
165.55666099999999
 30
0.0
 40
1.3423899999999991
 50
270.00737199999998
 51
0.007342
  0
ARC
  5
577
  8
0
 62
     7
 10
72.452280000000002
 20
165.55691899999999
 30
0.0
 40
1.3423039999999999
 50
359.99633399999988
 51
89.996303999999995
  0
ARC
  5
578
  8
0
 62
     7
 10
72.452453000000006
 20
165.55691899999999
 30
0.0
 40
1.3423039999999999
 50
90.003675999999999
 51
180.00368599999999
  0
ARC
  5
579
  8
0
 62
     7
 10
70.611086
 20
168.99710899999999
 30
0.0
 40
1.3946289999999999
 50
182.10866999999999
 51
267.91341199999999
  0
ARC
  5
57A
  8
0
 62
     7
 10
70.508987000000005
 20
168.9962219999999
 30
0.0
 40
1.393762999999999
 50
272.11024099999997
 51
357.92654199999998
  0
ARC
  5
57B
  8
0
 62
     7
 10
70.508020999999999
 20
168.89458099999999
 30
0.0
 40
1.394755999999999
 50
2.1042869999999989
 51
87.851578999999987
  0
ARC
  5
57C
  8
0
 62
     7
 10
70.611590000000007
 20
168.89415500000001
 30
0.0
 40
1.3951450000000001
 50
92.106521999999998
 51
177.878748
  0
ARC
  5
57D
  8
0
 62
     7
 10
74.439990000000009
 20
168.99710899999999
 30
0.0
 40
1.3946289999999999
 50
182.10866999999999
 51
267.91341199999999
  0
ARC
  5
57E
  8
0
 62
     7
 10
74.389125000000007
 20
168.94570899999999
 30
0.0
 40
1.3423039999999999
 50
270.00369599999988
 51
0.003666
  0
ARC
  5
57F
  8
0
 62
     7
 10
74.389038999999997
 20
168.94596699999991
 30
0.0
 40
1.3423899999999991
 50
359.99265799999989
 51
89.992627999999996
  0
ARC
  5
580
  8
0
 62
     7
 10
74.440494000000001
 20
168.89415500000001
 30
0.0
 40
1.3951450000000001
 50
92.106521999999998
 51
177.878748
  0
ARC
  5
581
  8
0
 62
     7
 10
76.325539000000006
 20
165.55665999999999
 30
0.0
 40
1.3423899999999991
 50
179.99261799999991
 51
269.99266799999998
  0
ARC
  5
582
  8
0
 62
     7
 10
76.274100000000004
 20
165.60845800000001
 30
0.0
 40
1.3951299999999991
 50
272.105953
 51
357.87935699999991
  0
ARC
  5
583
  8
0
 62
     7
 10
76.274587999999994
 20
165.50551699999991
 30
0.0
 40
1.39463
 50
2.1086680000000002
 51
87.913375000000002
  0
ARC
  5
584
  8
0
 62
     7
 10
76.325454000000008
 20
165.55691899999999
 30
0.0
 40
1.3423039999999999
 50
90.003675999999999
 51
180.00368599999999
  0
ARC
  5
585
  8
0
 62
     7
 10
78.262212000000005
 20
162.167698
 30
0.0
 40
1.3422169999999991
 50
179.99996999999991
 51
270.00002000000001
  0
ARC
  5
586
  8
0
 62
     7
 10
78.262212000000005
 20
162.167699
 30
0.0
 40
1.3422179999999999
 50
270.00002000000001
 51
359.99998999999991
  0
ARC
  5
587
  8
0
 62
     7
 10
78.262125999999995
 20
162.16778400000001
 30
0.0
 40
1.3423039999999999
 50
359.99633399999988
 51
89.996303999999995
  0
ARC
  5
588
  8
0
 62
     7
 10
78.262298000000001
 20
162.16778400000001
 30
0.0
 40
1.3423039999999999
 50
90.003675999999999
 51
180.00368599999999
  0
ARC
  5
589
  8
0
 62
     7
 10
80.198539999999994
 20
158.7346389999999
 30
0.0
 40
1.3423899999999991
 50
179.99261799999991
 51
269.99266799999998
  0
ARC
  5
58A
  8
0
 62
     7
 10
80.147101000000006
 20
158.78643700000001
 30
0.0
 40
1.3951299999999991
 50
272.105953
 51
357.87935699999991
  0
ARC
  5
58B
  8
0
 62
     7
 10
80.147588999999996
 20
158.68349599999999
 30
0.0
 40
1.39463
 50
2.1086680000000002
 51
87.913375000000002
  0
ARC
  5
58C
  8
0
 62
     7
 10
80.249655999999987
 20
158.68370300000001
 30
0.0
 40
1.3944419999999991
 50
92.107812999999993
 51
177.89950999999999
  0
ARC
  5
58D
  8
0
 62
     7
 10
82.135299000000003
 20
155.3455909999999
 30
0.0
 40
1.3423039999999999
 50
179.99629400000001
 51
269.99634400000002
  0
ARC
  5
58E
  8
0
 62
     7
 10
82.083943000000005
 20
155.39748399999999
 30
0.0
 40
1.395138999999999
 50
272.10604999999993
 51
357.87190699999991
  0
ARC
  5
58F
  8
0
 62
     7
 10
82.084434000000002
 20
155.29436200000001
 30
0.0
 40
1.39463
 50
2.1086680000000002
 51
87.913375000000002
  0
ARC
  5
590
  8
0
 62
     7
 10
82.135299000000003
 20
155.34576299999989
 30
0.0
 40
1.3423039999999999
 50
90.003675999999999
 51
180.00368599999999
  0
ARC
  5
591
  8
0
 62
     7
 10
80.198539999999994
 20
165.55665999999999
 30
0.0
 40
1.3423899999999991
 50
179.99261799999991
 51
269.99266799999998
  0
ARC
  5
592
  8
0
 62
     7
 10
80.147101000000006
 20
165.60845800000001
 30
0.0
 40
1.3951299999999991
 50
272.105953
 51
357.87935699999991
  0
ARC
  5
593
  8
0
 62
     7
 10
80.147588999999996
 20
165.50551699999991
 30
0.0
 40
1.39463
 50
2.1086680000000002
 51
87.913375000000002
  0
ARC
  5
594
  8
0
 62
     7
 10
80.198453999999984
 20
165.55691899999999
 30
0.0
 40
1.3423039999999999
 50
90.003675999999999
 51
180.00368599999999
  0
ARC
  5
595
  8
0
 62
     7
 10
78.262298000000001
 20
168.94570799999991
 30
0.0
 40
1.3423039999999999
 50
179.99629400000001
 51
269.99634400000002
  0
ARC
  5
596
  8
0
 62
     7
 10
78.262125999999995
 20
168.94570899999999
 30
0.0
 40
1.3423039999999999
 50
270.00369599999988
 51
0.003666
  0
ARC
  5
597
  8
0
 62
     7
 10
78.262039999999999
 20
168.94596699999991
 30
0.0
 40
1.3423899999999991
 50
359.99265799999989
 51
89.992627999999996
  0
ARC
  5
598
  8
0
 62
     7
 10
78.262384999999995
 20
168.94596699999991
 30
0.0
 40
1.3423899999999991
 50
90.007351999999983
 51
180.00736199999989
  0
ARC
  5
599
  8
0
 62
     7
 10
119.5745959999999
 20
262.82473499999998
 30
0.0
 40
7.3386289999999992
 50
343.30614100000003
 51
355.26611500000001
  0
ARC
  5
59A
  8
0
 62
     7
 10
117.9296649999999
 20
263.03976399999988
 30
0.0
 40
8.9960369999999994
 50
354.76586600000002
 51
0.044561
  0
LINE
  5
59B
  8
0
 62
     7
 10
128.28999999999991
 20
267.822
 30
0.0
 11
127.5859999999999
 21
267.77800000000002
 31
0.0
  0
ARC
  5
59C
  8
0
 62
     7
 10
127.6433879999999
 20
267.10828299999997
 30
0.0
 40
0.6719590000000001
 50
94.917722999999995
 51
150.14645400000001
  0
ARC
  5
59D
  8
0
 62
     7
 10
127.68917399999989
 20
267.06268099999988
 30
0.0
 40
0.7345600000000001
 50
148.83909800000001
 51
179.525531
  0
LINE
  5
59E
  8
0
 62
     7
 10
128.9499999999999
 20
214.47799999999989
 30
0.0
 11
128.9499999999999
 21
217.5149999999999
 31
0.0
  0
LINE
  5
59F
  8
0
 62
     7
 10
128.28999999999991
 20
214.47799999999989
 30
0.0
 11
127.5859999999999
 21
214.56599999999989
 31
0.0
  0
ARC
  5
5A0
  8
0
 62
     7
 10
191.35081899999989
 20
240.5350169999999
 30
0.0
 40
68.779750000000007
 50
180.012959
 51
198.035166
  0
ARC
  5
5A1
  8
0
 62
     7
 10
202.5366689999999
 20
243.88158100000001
 30
0.0
 40
80.452590999999998
 50
197.83504199999999
 51
199.767886
  0
ARC
  5
5A2
  8
0
 62
     7
 10
125.992536
 20
216.32531499999999
 30
0.0
 40
0.9113459999999998
 50
358.70936899999992
 51
3.5064820000000001
  0
ARC
  5
5A3
  8
0
 62
     7
 10
126.157149
 20
216.29547299999999
 30
0.0
 40
0.749926
 50
6.5528930000000001
 51
13.508621
  0
ARC
  5
5A4
  8
0
 62
     7
 10
125.2209979999999
 20
216.07333299999999
 30
0.0
 40
1.7120699999999991
 50
13.41884099999999
 51
20.45644699999999
  0
LINE
  5
5A5
  8
0
 62
     7
 10
151.73199999999991
 20
259.27800000000002
 30
0.0
 11
136.78399999999991
 21
261.52800000000002
 31
0.0
  0
ARC
  5
5A6
  8
0
 62
     7
 10
119.90360699999999
 20
232.10551399999991
 30
0.0
 40
33.824490999999988
 50
60.652670999999991
 51
71.528627
  0
ARC
  5
5A7
  8
0
 62
     7
 10
136.896083
 20
262.34514899999999
 30
0.0
 40
0.8174600000000001
 50
240.66092299999991
 51
261.45364699999999
  0
LINE
  5
5A8
  8
0
 62
     7
 10
151.684
 20
223.00899999999999
 30
0.0
 11
137.048
 21
221.16800000000001
 31
0.0
  0
ARC
  5
5A9
  8
0
 62
     7
 10
119.57328200000001
 20
250.291472
 30
0.0
 40
33.882057000000003
 50
289.29514
 51
300.32312000000002
  0
ARC
  5
5AA
  8
0
 62
     7
 10
137.111422
 20
220.317497
 30
0.0
 40
0.8058920000000001
 50
97.162789000000004
 51
120.455286
  0
LINE
  5
5AB
  8
0
 62
     7
 10
126.9549999999999
 20
215.24600000000001
 30
0.0
 11
126.9549999999999
 21
267.06900000000002
 31
0.0
  0
LINE
  5
5AC
  8
0
 62
     7
 10
156.94200000000001
 20
239.21299999999991
 30
0.0
 11
156.94200000000001
 21
242.95400000000001
 31
0.0
  0
ARC
  5
5AD
  8
0
 62
     7
 10
155.76040499999991
 20
239.19740400000001
 30
0.0
 40
1.1819269999999991
 50
313.296064
 51
359.70850000000002
  0
LINE
  5
5AE
  8
0
 62
     7
 10
156.28200000000001
 20
238.06899999999999
 30
0.0
 11
156.59
 21
238.37700000000001
 31
0.0
  0
LINE
  5
5AF
  8
0
 62
     7
 10
155.62200000000001
 20
227.19799999999989
 30
0.0
 11
155.93000000000001
 21
232.7879999999999
 31
0.0
  0
LINE
  5
5B0
  8
0
 62
     7
 10
155.93000000000001
 20
232.7879999999999
 30
0.0
 11
156.06200000000001
 21
238.37700000000001
 31
0.0
  0
LINE
  5
5B1
  8
0
 62
     7
 10
156.06200000000001
 20
238.37700000000001
 30
0.0
 11
156.06200000000001
 21
243.96700000000001
 31
0.0
  0
LINE
  5
5B2
  8
0
 62
     7
 10
156.06200000000001
 20
243.96700000000001
 30
0.0
 11
155.93000000000001
 21
249.59999999999991
 31
0.0
  0
LINE
  5
5B3
  8
0
 62
     7
 10
155.93000000000001
 20
249.59999999999991
 30
0.0
 11
155.578
 21
255.18999999999991
 31
0.0
  0
ARC
  5
5B4
  8
0
 62
     7
 10
150.93557300000001
 20
254.6948459999999
 30
0.0
 40
4.6519690000000002
 50
5.3829789999999988
 51
80.143246000000005
  0
ARC
  5
5B5
  8
0
 62
     7
 10
150.97658000000001
 20
227.61128799999989
 30
0.0
 40
4.6562400000000004
 50
278.74348399999991
 51
354.55531999999999
  0
LINE
  5
5B6
  8
0
 62
     7
 10
156.28200000000001
 20
244.09899999999999
 30
0.0
 11
156.59
 21
243.834
 31
0.0
  0
ARC
  5
5B7
  8
0
 62
     7
 10
155.7600939999999
 20
242.9261229999999
 30
0.0
 40
1.182239
 50
0.297982
 51
46.697454
  0
ARC
  5
5B8
  8
0
 62
     7
 10
156.71232499999991
 20
244.566123
 30
0.0
 40
0.694194
 50
181.39382599999999
 51
226.68116499999999
  0
ARC
  5
5B9
  8
0
 62
     7
 10
156.709363
 20
237.55866599999999
 30
0.0
 40
0.6912180000000001
 50
133.21405999999999
 51
178.65071
  0
LINE
  5
5BA
  8
0
 62
     7
 10
128.9499999999999
 20
217.5149999999999
 30
0.0
 11
128.9499999999999
 21
267.822
 31
0.0
  0
LINE
  5
5BB
  8
0
 62
     7
 10
128.28999999999991
 20
214.47799999999989
 30
0.0
 11
127.5859999999999
 21
214.56599999999989
 31
0.0
  0
ARC
  5
5BC
  8
0
 62
     7
 10
127.66136299999989
 20
215.26874000000001
 30
0.0
 40
0.7070980000000001
 50
181.86250299999989
 51
263.86415399999998
  0
LINE
  5
5BD
  8
0
 62
     7
 10
128.9499999999999
 20
214.47799999999989
 30
0.0
 11
128.9499999999999
 21
217.5149999999999
 31
0.0
  0
ARC
  5
5BE
  8
0
 62
     7
 10
169.688827
 20
242.40471099999999
 30
0.0
 40
46.814912999999997
 50
156.97352000000001
 51
164.6458649999999
  0
ARC
  5
5BF
  8
0
 62
     7
 10
176.5379429999999
 20
240.33770499999989
 30
0.0
 40
53.967178000000011
 50
164.45508699999999
 51
179.8069889999999
  0
LINE
  5
5C0
  8
0
 62
     7
 10
128.28999999999991
 20
267.822
 30
0.0
 11
127.5859999999999
 21
267.77800000000002
 31
0.0
  0
LINE
  5
5C1
  8
0
 62
     7
 10
128.9499999999999
 20
267.822
 30
0.0
 11
128.28999999999991
 21
267.822
 31
0.0
  0
LINE
  5
5C2
  8
0
 62
     7
 10
128.9499999999999
 20
214.47799999999989
 30
0.0
 11
128.28999999999991
 21
214.47799999999989
 31
0.0
  0
LINE
  5
5C3
  8
0
 62
     7
 10
156.06200000000001
 20
171.697
 30
0.0
 11
154.69799999999989
 21
107.52500000000001
 31
0.0
  0
LINE
  5
5C4
  8
0
 62
     7
 10
154.69799999999989
 20
107.52500000000001
 30
0.0
 11
154.69799999999989
 21
106.997
 31
0.0
  0
LINE
  5
5C5
  8
0
 62
     7
 10
154.69799999999989
 20
106.997
 30
0.0
 11
155.18199999999999
 21
106.9529999999999
 31
0.0
  0
LINE
  5
5C6
  8
0
 62
     7
 10
155.18199999999999
 20
106.9529999999999
 30
0.0
 11
156.5029999999999
 21
170.6399999999999
 31
0.0
  0
LINE
  5
5C7
  8
0
 62
     7
 10
156.5029999999999
 20
170.6399999999999
 30
0.0
 11
156.018
 21
170.6399999999999
 31
0.0
  0
LINE
  5
5C8
  8
0
 62
     7
 10
156.5029999999999
 20
170.55199999999999
 30
0.0
 11
156.41499999999991
 21
170.6399999999999
 31
0.0
  0
LINE
  5
5C9
  8
0
 62
     7
 10
156.5029999999999
 20
169.93599999999989
 30
0.0
 11
156.018
 21
170.4199999999999
 31
0.0
  0
LINE
  5
5CA
  8
0
 62
     7
 10
156.459
 20
169.364
 30
0.0
 11
156.018
 21
169.80399999999989
 31
0.0
  0
LINE
  5
5CB
  8
0
 62
     7
 10
156.459
 20
168.792
 30
0.0
 11
156.018
 21
169.232
 31
0.0
  0
LINE
  5
5CC
  8
0
 62
     7
 10
156.459
 20
168.1759999999999
 30
0.0
 11
155.9739999999999
 21
168.66
 31
0.0
  0
LINE
  5
5CD
  8
0
 62
     7
 10
156.41499999999991
 20
167.60299999999989
 30
0.0
 11
155.9739999999999
 21
168.08799999999991
 31
0.0
  0
LINE
  5
5CE
  8
0
 62
     7
 10
156.41499999999991
 20
167.03200000000001
 30
0.0
 11
155.9739999999999
 21
167.47200000000001
 31
0.0
  0
LINE
  5
5CF
  8
0
 62
     7
 10
156.41499999999991
 20
166.41499999999999
 30
0.0
 11
155.9739999999999
 21
166.89899999999989
 31
0.0
  0
LINE
  5
5D0
  8
0
 62
     7
 10
156.41499999999991
 20
165.8429999999999
 30
0.0
 11
155.93000000000001
 21
166.32699999999991
 31
0.0
  0
LINE
  5
5D1
  8
0
 62
     7
 10
156.37
 20
165.2709999999999
 30
0.0
 11
155.93000000000001
 21
165.7109999999999
 31
0.0
  0
LINE
  5
5D2
  8
0
 62
     7
 10
156.37
 20
164.69799999999989
 30
0.0
 11
155.93000000000001
 21
165.13900000000001
 31
0.0
  0
LINE
  5
5D3
  8
0
 62
     7
 10
156.37
 20
164.08199999999991
 30
0.0
 11
156.15000000000001
 21
164.30199999999999
 31
0.0
  0
LINE
  5
5D4
  8
0
 62
     7
 10
156.15000000000001
 20
164.30199999999999
 30
0.0
 11
155.88599999999991
 21
164.56700000000001
 31
0.0
  0
LINE
  5
5D5
  8
0
 62
     7
 10
156.37
 20
163.50999999999991
 30
0.0
 11
155.88599999999991
 21
163.9499999999999
 31
0.0
  0
LINE
  5
5D6
  8
0
 62
     7
 10
156.32599999999991
 20
162.9379999999999
 30
0.0
 11
155.88599999999991
 21
163.3779999999999
 31
0.0
  0
LINE
  5
5D7
  8
0
 62
     7
 10
156.32599999999991
 20
162.322
 30
0.0
 11
155.88599999999991
 21
162.80600000000001
 31
0.0
  0
LINE
  5
5D8
  8
0
 62
     7
 10
156.32599999999991
 20
161.74999999999989
 30
0.0
 11
155.84200000000001
 21
162.19
 31
0.0
  0
LINE
  5
5D9
  8
0
 62
     7
 10
156.28200000000001
 20
161.17799999999991
 30
0.0
 11
155.84200000000001
 21
161.61699999999999
 31
0.0
  0
LINE
  5
5DA
  8
0
 62
     7
 10
156.28200000000001
 20
160.56200000000001
 30
0.0
 11
155.84200000000001
 21
161.0449999999999
 31
0.0
  0
LINE
  5
5DB
  8
0
 62
     7
 10
156.28200000000001
 20
159.989
 30
0.0
 11
155.79900000000001
 21
160.42899999999989
 31
0.0
  0
LINE
  5
5DC
  8
0
 62
     7
 10
156.28200000000001
 20
159.417
 30
0.0
 11
155.79900000000001
 21
159.857
 31
0.0
  0
LINE
  5
5DD
  8
0
 62
     7
 10
156.238
 20
158.80099999999999
 30
0.0
 11
155.79900000000001
 21
159.285
 31
0.0
  0
LINE
  5
5DE
  8
0
 62
     7
 10
156.238
 20
158.2289999999999
 30
0.0
 11
155.79900000000001
 21
158.6689999999999
 31
0.0
  0
LINE
  5
5DF
  8
0
 62
     7
 10
156.238
 20
157.65700000000001
 30
0.0
 11
155.75399999999991
 21
158.096
 31
0.0
  0
LINE
  5
5E0
  8
0
 62
     7
 10
156.19499999999991
 20
157.03999999999999
 30
0.0
 11
155.75399999999991
 21
157.52500000000001
 31
0.0
  0
LINE
  5
5E1
  8
0
 62
     7
 10
156.19499999999991
 20
156.4679999999999
 30
0.0
 11
155.75399999999991
 21
156.9079999999999
 31
0.0
  0
LINE
  5
5E2
  8
0
 62
     7
 10
156.19499999999991
 20
155.89599999999999
 30
0.0
 11
155.75399999999991
 21
156.33600000000001
 31
0.0
  0
LINE
  5
5E3
  8
0
 62
     7
 10
156.19499999999991
 20
155.27999999999989
 30
0.0
 11
155.71000000000001
 21
155.76400000000001
 31
0.0
  0
LINE
  5
5E4
  8
0
 62
     7
 10
156.15000000000001
 20
154.70699999999991
 30
0.0
 11
155.71000000000001
 21
155.14799999999991
 31
0.0
  0
LINE
  5
5E5
  8
0
 62
     7
 10
156.15000000000001
 20
154.136
 30
0.0
 11
155.71000000000001
 21
154.57599999999999
 31
0.0
  0
LINE
  5
5E6
  8
0
 62
     7
 10
156.15000000000001
 20
153.51900000000001
 30
0.0
 11
155.66599999999991
 21
154.0029999999999
 31
0.0
  0
LINE
  5
5E7
  8
0
 62
     7
 10
156.15000000000001
 20
152.947
 30
0.0
 11
155.66599999999991
 21
153.387
 31
0.0
  0
LINE
  5
5E8
  8
0
 62
     7
 10
156.10699999999991
 20
152.37499999999989
 30
0.0
 11
155.66599999999991
 21
152.815
 31
0.0
  0
LINE
  5
5E9
  8
0
 62
     7
 10
156.10699999999991
 20
151.75899999999999
 30
0.0
 11
155.66599999999991
 21
152.24299999999991
 31
0.0
  0
LINE
  5
5EA
  8
0
 62
     7
 10
156.10699999999991
 20
151.18700000000001
 30
0.0
 11
155.62200000000001
 21
151.62700000000001
 31
0.0
  0
LINE
  5
5EB
  8
0
 62
     7
 10
156.06200000000001
 20
150.614
 30
0.0
 11
155.62200000000001
 21
151.05500000000001
 31
0.0
  0
LINE
  5
5EC
  8
0
 62
     7
 10
156.06200000000001
 20
149.99799999999991
 30
0.0
 11
155.62200000000001
 21
150.482
 31
0.0
  0
LINE
  5
5ED
  8
0
 62
     7
 10
156.06200000000001
 20
149.42599999999999
 30
0.0
 11
155.578
 21
149.86600000000001
 31
0.0
  0
LINE
  5
5EE
  8
0
 62
     7
 10
156.06200000000001
 20
148.8539999999999
 30
0.0
 11
155.578
 21
149.2939999999999
 31
0.0
  0
LINE
  5
5EF
  8
0
 62
     7
 10
156.018
 20
148.238
 30
0.0
 11
155.578
 21
148.72200000000001
 31
0.0
  0
LINE
  5
5F0
  8
0
 62
     7
 10
156.018
 20
147.666
 30
0.0
 11
155.578
 21
148.15000000000001
 31
0.0
  0
LINE
  5
5F1
  8
0
 62
     7
 10
156.018
 20
147.0929999999999
 30
0.0
 11
155.53399999999991
 21
147.53399999999991
 31
0.0
  0
LINE
  5
5F2
  8
0
 62
     7
 10
155.9739999999999
 20
146.477
 30
0.0
 11
155.53399999999991
 21
146.96100000000001
 31
0.0
  0
LINE
  5
5F3
  8
0
 62
     7
 10
155.9739999999999
 20
145.90499999999989
 30
0.0
 11
155.53399999999991
 21
146.38900000000001
 31
0.0
  0
LINE
  5
5F4
  8
0
 62
     7
 10
155.9739999999999
 20
145.333
 30
0.0
 11
155.53399999999991
 21
145.77299999999991
 31
0.0
  0
LINE
  5
5F5
  8
0
 62
     7
 10
155.9739999999999
 20
144.71600000000001
 30
0.0
 11
155.49000000000001
 21
145.20099999999999
 31
0.0
  0
LINE
  5
5F6
  8
0
 62
     7
 10
155.93000000000001
 20
144.14400000000001
 30
0.0
 11
155.49000000000001
 21
144.62899999999991
 31
0.0
  0
LINE
  5
5F7
  8
0
 62
     7
 10
155.93000000000001
 20
143.57299999999989
 30
0.0
 11
155.49000000000001
 21
144.012
 31
0.0
  0
LINE
  5
5F8
  8
0
 62
     7
 10
155.93000000000001
 20
143.0
 30
0.0
 11
155.44599999999991
 21
143.43999999999991
 31
0.0
  0
LINE
  5
5F9
  8
0
 62
     7
 10
155.93000000000001
 20
142.38399999999999
 30
0.0
 11
155.44599999999991
 21
142.86799999999991
 31
0.0
  0
LINE
  5
5FA
  8
0
 62
     7
 10
155.88599999999991
 20
141.81100000000001
 30
0.0
 11
155.44599999999991
 21
142.25200000000001
 31
0.0
  0
LINE
  5
5FB
  8
0
 62
     7
 10
155.88599999999991
 20
141.239
 30
0.0
 11
155.44599999999991
 21
141.68000000000001
 31
0.0
  0
LINE
  5
5FC
  8
0
 62
     7
 10
155.88599999999991
 20
140.62299999999991
 30
0.0
 11
155.40199999999999
 21
141.107
 31
0.0
  0
LINE
  5
5FD
  8
0
 62
     7
 10
155.84200000000001
 20
140.05199999999999
 30
0.0
 11
155.40199999999999
 21
140.49100000000001
 31
0.0
  0
LINE
  5
5FE
  8
0
 62
     7
 10
155.84200000000001
 20
139.4789999999999
 30
0.0
 11
155.40199999999999
 21
139.9189999999999
 31
0.0
  0
LINE
  5
5FF
  8
0
 62
     7
 10
155.84200000000001
 20
138.863
 30
0.0
 11
155.358
 21
139.34700000000001
 31
0.0
  0
LINE
  5
600
  8
0
 62
     7
 10
155.84200000000001
 20
138.28999999999999
 30
0.0
 11
155.358
 21
138.73099999999999
 31
0.0
  0
LINE
  5
601
  8
0
 62
     7
 10
155.79900000000001
 20
137.71899999999991
 30
0.0
 11
155.358
 21
138.15899999999991
 31
0.0
  0
LINE
  5
602
  8
0
 62
     7
 10
155.79900000000001
 20
137.102
 30
0.0
 11
155.358
 21
137.58600000000001
 31
0.0
  0
LINE
  5
603
  8
0
 62
     7
 10
155.79900000000001
 20
136.52999999999989
 30
0.0
 11
155.31399999999991
 21
136.96999999999991
 31
0.0
  0
LINE
  5
604
  8
0
 62
     7
 10
155.75399999999991
 20
135.958
 30
0.0
 11
155.31399999999991
 21
136.39799999999991
 31
0.0
  0
LINE
  5
605
  8
0
 62
     7
 10
155.75399999999991
 20
135.34200000000001
 30
0.0
 11
155.31399999999991
 21
135.82599999999999
 31
0.0
  0
LINE
  5
606
  8
0
 62
     7
 10
155.75399999999991
 20
134.77000000000001
 30
0.0
 11
155.31399999999991
 21
135.209
 31
0.0
  0
LINE
  5
607
  8
0
 62
     7
 10
155.75399999999991
 20
134.197
 30
0.0
 11
155.27000000000001
 21
134.63800000000001
 31
0.0
  0
LINE
  5
608
  8
0
 62
     7
 10
155.71000000000001
 20
133.58099999999999
 30
0.0
 11
155.27000000000001
 21
134.06499999999991
 31
0.0
  0
LINE
  5
609
  8
0
 62
     7
 10
155.71000000000001
 20
133.0089999999999
 30
0.0
 11
155.27000000000001
 21
133.4489999999999
 31
0.0
  0
LINE
  5
60A
  8
0
 62
     7
 10
155.71000000000001
 20
132.43700000000001
 30
0.0
 11
155.22599999999991
 21
132.87700000000001
 31
0.0
  0
LINE
  5
60B
  8
0
 62
     7
 10
155.71000000000001
 20
131.821
 30
0.0
 11
155.22599999999991
 21
132.30500000000001
 31
0.0
  0
LINE
  5
60C
  8
0
 62
     7
 10
155.66599999999991
 20
131.24899999999991
 30
0.0
 11
155.22599999999991
 21
131.68899999999991
 31
0.0
  0
LINE
  5
60D
  8
0
 62
     7
 10
155.66599999999991
 20
130.67599999999999
 30
0.0
 11
155.22599999999991
 21
131.11699999999999
 31
0.0
  0
LINE
  5
60E
  8
0
 62
     7
 10
155.66599999999991
 20
130.05999999999989
 30
0.0
 11
155.18199999999999
 21
130.5439999999999
 31
0.0
  0
LINE
  5
60F
  8
0
 62
     7
 10
155.62200000000001
 20
129.488
 30
0.0
 11
155.18199999999999
 21
129.92799999999991
 31
0.0
  0
LINE
  5
610
  8
0
 62
     7
 10
155.62200000000001
 20
128.916
 30
0.0
 11
155.18199999999999
 21
129.35599999999999
 31
0.0
  0
LINE
  5
611
  8
0
 62
     7
 10
155.62200000000001
 20
128.30000000000001
 30
0.0
 11
155.13799999999989
 21
128.78399999999991
 31
0.0
  0
LINE
  5
612
  8
0
 62
     7
 10
155.62200000000001
 20
127.727
 30
0.0
 11
155.13799999999989
 21
128.16800000000001
 31
0.0
  0
LINE
  5
613
  8
0
 62
     7
 10
155.578
 20
127.1549999999999
 30
0.0
 11
155.13799999999989
 21
127.5949999999999
 31
0.0
  0
LINE
  5
614
  8
0
 62
     7
 10
155.578
 20
126.539
 30
0.0
 11
155.13799999999989
 21
127.0229999999999
 31
0.0
  0
LINE
  5
615
  8
0
 62
     7
 10
155.578
 20
125.967
 30
0.0
 11
155.09399999999991
 21
126.45099999999999
 31
0.0
  0
LINE
  5
616
  8
0
 62
     7
 10
155.53399999999991
 20
125.3949999999999
 30
0.0
 11
155.09399999999991
 21
125.83499999999989
 31
0.0
  0
LINE
  5
617
  8
0
 62
     7
 10
155.53399999999991
 20
124.7789999999999
 30
0.0
 11
155.09399999999991
 21
125.26299999999991
 31
0.0
  0
LINE
  5
618
  8
0
 62
     7
 10
155.53399999999991
 20
124.206
 30
0.0
 11
155.09399999999991
 21
124.6909999999999
 31
0.0
  0
LINE
  5
619
  8
0
 62
     7
 10
155.53399999999991
 20
123.6339999999999
 30
0.0
 11
155.05000000000001
 21
124.075
 31
0.0
  0
LINE
  5
61A
  8
0
 62
     7
 10
155.49000000000001
 20
123.0179999999999
 30
0.0
 11
155.05000000000001
 21
123.502
 31
0.0
  0
LINE
  5
61B
  8
0
 62
     7
 10
155.49000000000001
 20
122.446
 30
0.0
 11
155.05000000000001
 21
122.93000000000001
 31
0.0
  0
LINE
  5
61C
  8
0
 62
     7
 10
155.49000000000001
 20
121.8739999999999
 30
0.0
 11
155.006
 21
122.31399999999989
 31
0.0
  0
LINE
  5
61D
  8
0
 62
     7
 10
155.49000000000001
 20
121.301
 30
0.0
 11
155.006
 21
121.742
 31
0.0
  0
LINE
  5
61E
  8
0
 62
     7
 10
155.44599999999991
 20
120.6849999999999
 30
0.0
 11
155.006
 21
121.1699999999999
 31
0.0
  0
LINE
  5
61F
  8
0
 62
     7
 10
155.44599999999991
 20
120.113
 30
0.0
 11
155.006
 21
120.554
 31
0.0
  0
LINE
  5
620
  8
0
 62
     7
 10
155.44599999999991
 20
119.541
 30
0.0
 11
154.96199999999999
 21
119.98099999999999
 31
0.0
  0
LINE
  5
621
  8
0
 62
     7
 10
155.40199999999999
 20
118.9249999999999
 30
0.0
 11
155.40199999999999
 21
118.96899999999989
 31
0.0
  0
LINE
  5
622
  8
0
 62
     7
 10
155.40199999999999
 20
118.96899999999989
 30
0.0
 11
154.96199999999999
 21
119.40899999999991
 31
0.0
  0
LINE
  5
623
  8
0
 62
     7
 10
155.40199999999999
 20
118.35299999999989
 30
0.0
 11
154.96199999999999
 21
118.792
 31
0.0
  0
LINE
  5
624
  8
0
 62
     7
 10
155.40199999999999
 20
117.7799999999999
 30
0.0
 11
154.91799999999989
 21
118.2209999999999
 31
0.0
  0
LINE
  5
625
  8
0
 62
     7
 10
155.40199999999999
 20
117.164
 30
0.0
 11
154.91799999999989
 21
117.649
 31
0.0
  0
LINE
  5
626
  8
0
 62
     7
 10
155.358
 20
116.592
 30
0.0
 11
154.91799999999989
 21
117.032
 31
0.0
  0
LINE
  5
627
  8
0
 62
     7
 10
155.358
 20
116.0199999999999
 30
0.0
 11
154.91799999999989
 21
116.45999999999989
 31
0.0
  0
LINE
  5
628
  8
0
 62
     7
 10
155.358
 20
115.4039999999999
 30
0.0
 11
154.874
 21
115.88799999999991
 31
0.0
  0
LINE
  5
629
  8
0
 62
     7
 10
155.31399999999991
 20
114.83199999999999
 30
0.0
 11
154.874
 21
115.27200000000001
 31
0.0
  0
LINE
  5
62A
  8
0
 62
     7
 10
155.31399999999991
 20
114.2589999999999
 30
0.0
 11
154.874
 21
114.6989999999999
 31
0.0
  0
LINE
  5
62B
  8
0
 62
     7
 10
155.31399999999991
 20
113.6429999999999
 30
0.0
 11
154.874
 21
114.127
 31
0.0
  0
LINE
  5
62C
  8
0
 62
     7
 10
155.31399999999991
 20
113.071
 30
0.0
 11
154.83000000000001
 21
113.511
 31
0.0
  0
LINE
  5
62D
  8
0
 62
     7
 10
155.27000000000001
 20
112.4989999999999
 30
0.0
 11
154.83000000000001
 21
112.93899999999989
 31
0.0
  0
LINE
  5
62E
  8
0
 62
     7
 10
155.27000000000001
 20
111.8829999999999
 30
0.0
 11
154.83000000000001
 21
112.367
 31
0.0
  0
LINE
  5
62F
  8
0
 62
     7
 10
155.27000000000001
 20
111.3099999999999
 30
0.0
 11
154.786
 21
111.751
 31
0.0
  0
LINE
  5
630
  8
0
 62
     7
 10
155.27000000000001
 20
110.738
 30
0.0
 11
154.786
 21
111.1779999999999
 31
0.0
  0
LINE
  5
631
  8
0
 62
     7
 10
155.22599999999991
 20
110.122
 30
0.0
 11
154.786
 21
110.60599999999999
 31
0.0
  0
LINE
  5
632
  8
0
 62
     7
 10
155.22599999999991
 20
109.5499999999999
 30
0.0
 11
154.786
 21
109.9899999999999
 31
0.0
  0
LINE
  5
633
  8
0
 62
     7
 10
155.22599999999991
 20
108.97799999999989
 30
0.0
 11
154.74199999999999
 21
109.41799999999991
 31
0.0
  0
LINE
  5
634
  8
0
 62
     7
 10
155.18199999999999
 20
108.36199999999999
 30
0.0
 11
154.74199999999999
 21
108.8459999999999
 31
0.0
  0
LINE
  5
635
  8
0
 62
     7
 10
155.18199999999999
 20
107.789
 30
0.0
 11
154.74199999999999
 21
108.23
 31
0.0
  0
LINE
  5
636
  8
0
 62
     7
 10
155.18199999999999
 20
107.217
 30
0.0
 11
154.69799999999989
 21
107.6579999999999
 31
0.0
  0
LINE
  5
637
  8
0
 62
     7
 10
154.786
 20
106.997
 30
0.0
 11
154.69799999999989
 21
107.08499999999989
 31
0.0
  0
LINE
  5
638
  8
0
 62
     7
 10
73.948899999999995
 20
68.182000000000002
 30
0.0
 11
72.474400000000003
 21
67.787199999999984
 31
0.0
  0
LINE
  5
639
  8
0
 62
     7
 10
72.474400000000003
 20
67.787199999999984
 30
0.0
 11
73.948899999999995
 21
67.3917
 31
0.0
  0
LINE
  5
63A
  8
0
 62
     7
 10
73.948899999999995
 20
67.3917
 30
0.0
 11
73.948899999999995
 21
68.182000000000002
 31
0.0
  0
LINE
  5
63B
  8
0
 62
     7
 10
110.956
 20
181.41200000000001
 30
0.0
 11
110.3639999999999
 21
183.624
 31
0.0
  0
LINE
  5
63C
  8
0
 62
     7
 10
110.3639999999999
 20
183.624
 30
0.0
 11
109.7709999999999
 21
181.41200000000001
 31
0.0
  0
LINE
  5
63D
  8
0
 62
     7
 10
109.7709999999999
 20
181.41200000000001
 30
0.0
 11
110.956
 21
181.41200000000001
 31
0.0
  0
LINE
  5
63E
  8
0
 62
     7
 10
173.3549999999999
 20
186.1159999999999
 30
0.0
 11
172.76299999999989
 21
188.328
 31
0.0
  0
LINE
  5
63F
  8
0
 62
     7
 10
172.76299999999989
 20
188.328
 30
0.0
 11
172.16999999999999
 21
186.1159999999999
 31
0.0
  0
LINE
  5
640
  8
0
 62
     7
 10
172.16999999999999
 20
186.1159999999999
 30
0.0
 11
173.3549999999999
 21
186.1159999999999
 31
0.0
  0
LINE
  5
641
  8
0
 62
     7
 10
109.7709999999999
 20
89.168599999999984
 30
0.0
 11
110.3639999999999
 21
86.956800000000015
 31
0.0
  0
LINE
  5
642
  8
0
 62
     7
 10
110.3639999999999
 20
86.956800000000015
 30
0.0
 11
110.956
 21
89.168599999999984
 31
0.0
  0
LINE
  5
643
  8
0
 62
     7
 10
110.956
 20
89.168599999999984
 30
0.0
 11
109.7709999999999
 21
89.168599999999984
 31
0.0
  0
LINE
  5
644
  8
0
 62
     7
 10
172.16999999999999
 20
166.53999999999991
 30
0.0
 11
172.76299999999989
 21
164.328
 31
0.0
  0
LINE
  5
645
  8
0
 62
     7
 10
172.76299999999989
 20
164.328
 30
0.0
 11
173.3549999999999
 21
166.53999999999991
 31
0.0
  0
LINE
  5
646
  8
0
 62
     7
 10
173.3549999999999
 20
166.53999999999991
 30
0.0
 11
172.16999999999999
 21
166.53999999999991
 31
0.0
  0
LINE
  5
647
  8
0
 62
     7
 10
172.76299999999989
 20
188.328
 30
0.0
 11
172.76299999999989
 21
164.328
 31
0.0
  0
LINE
  5
648
  8
0
 62
     7
 10
129.7289999999999
 20
188.328
 30
0.0
 11
173.56299999999999
 21
188.328
 31
0.0
  0
LINE
  5
649
  8
0
 62
     7
 10
173.3549999999999
 20
116.782
 30
0.0
 11
172.76299999999989
 21
118.9939999999999
 31
0.0
  0
LINE
  5
64A
  8
0
 62
     7
 10
172.76299999999989
 20
118.9939999999999
 30
0.0
 11
172.16999999999999
 21
116.782
 31
0.0
  0
LINE
  5
64B
  8
0
 62
     7
 10
172.16999999999999
 20
116.782
 30
0.0
 11
173.3549999999999
 21
116.782
 31
0.0
  0
LINE
  5
64C
  8
0
 62
     7
 10
172.16999999999999
 20
77.205799999999996
 30
0.0
 11
172.76299999999989
 21
74.994
 31
0.0
  0
LINE
  5
64D
  8
0
 62
     7
 10
172.76299999999989
 20
74.994
 30
0.0
 11
173.3549999999999
 21
77.205799999999996
 31
0.0
  0
LINE
  5
64E
  8
0
 62
     7
 10
173.3549999999999
 20
77.205799999999996
 30
0.0
 11
172.16999999999999
 21
77.205799999999996
 31
0.0
  0
LINE
  5
64F
  8
0
 62
     7
 10
172.76299999999989
 20
118.9939999999999
 30
0.0
 11
172.76299999999989
 21
74.994
 31
0.0
  0
LINE
  5
650
  8
0
 62
     7
 10
129.75
 20
74.994
 30
0.0
 11
173.465
 21
74.994
 31
0.0
  0
LINE
  5
651
  8
0
 62
     7
 10
173.3549999999999
 20
162.11600000000001
 30
0.0
 11
172.76299999999989
 21
164.328
 31
0.0
  0
LINE
  5
652
  8
0
 62
     7
 10
172.76299999999989
 20
164.328
 30
0.0
 11
172.16999999999999
 21
162.11600000000001
 31
0.0
  0
LINE
  5
653
  8
0
 62
     7
 10
172.16999999999999
 20
162.11600000000001
 30
0.0
 11
173.3549999999999
 21
162.11600000000001
 31
0.0
  0
LINE
  5
654
  8
0
 62
     7
 10
172.16999999999999
 20
121.206
 30
0.0
 11
172.76299999999989
 21
118.9939999999999
 31
0.0
  0
LINE
  5
655
  8
0
 62
     7
 10
172.76299999999989
 20
118.9939999999999
 30
0.0
 11
173.3549999999999
 21
121.206
 31
0.0
  0
LINE
  5
656
  8
0
 62
     7
 10
173.3549999999999
 20
121.206
 30
0.0
 11
172.16999999999999
 21
121.206
 31
0.0
  0
LINE
  5
657
  8
0
 62
     7
 10
110.3639999999999
 20
183.624
 30
0.0
 11
110.3639999999999
 21
86.956800000000015
 31
0.0
  0
LINE
  5
658
  8
0
 62
     7
 10
172.76299999999989
 20
164.328
 30
0.0
 11
172.76299999999989
 21
118.9939999999999
 31
0.0
  0
LINE
  5
659
  8
0
 62
     7
 10
166.43700000000001
 20
164.328
 30
0.0
 11
173.465
 21
164.328
 31
0.0
  0
LINE
  5
65A
  8
_________2
 62
     7
 10
210.00099999999989
 20
148.482
 30
0.0
 11
188.25099999999989
 21
148.482
 31
0.0
  0
LINE
  5
65B
  8
_________2
 62
     7
 10
105.0
 20
16.979900000000001
 30
0.0
 11
105.0
 21
-0.000344512
 31
0.0
  0
LINE
  5
65C
  8
_________2
 62
     7
 10
105.0
 20
297.00200000000001
 30
0.0
 11
105.0
 21
279.98200000000003
 31
0.0
  0
LINE
  5
65D
  8
_________2
 62
     7
 10
21.749700000000001
 20
148.482
 30
0.0
 11
-0.000689023
 21
148.482
 31
0.0
  0
LINE
  5
65E
  8
_________2
 62
     7
 10
81.441199999999995
 20
50.875799999999991
 30
0.0
 11
79.254900000000006
 21
50.875799999999991
 31
0.0
  0
LINE
  5
65F
  8
_________2
 62
     7
 10
81.933800000000005
 20
50.875799999999991
 30
0.0
 11
81.681700000000006
 21
50.875799999999991
 31
0.0
  0
LINE
  5
660
  8
_________2
 62
     7
 10
82.426500000000004
 20
50.875799999999991
 30
0.0
 11
85.351399999999998
 21
50.875799999999991
 31
0.0
  0
LINE
  5
661
  8
_________2
 62
     7
 10
81.933800000000005
 20
50.875799999999991
 30
0.0
 11
82.186000000000007
 21
50.875799999999991
 31
0.0
  0
LINE
  5
662
  8
_________2
 62
     7
 10
75.537599999999998
 20
50.875799999999991
 30
0.0
 11
73.350700000000003
 21
50.875799999999991
 31
0.0
  0
LINE
  5
663
  8
_________2
 62
     7
 10
76.029600000000002
 20
50.875799999999991
 30
0.0
 11
75.778099999999995
 21
50.875799999999991
 31
0.0
  0
LINE
  5
664
  8
_________2
 62
     7
 10
76.029600000000002
 20
51.368400000000001
 30
0.0
 11
76.029600000000002
 21
53.555399999999999
 31
0.0
  0
LINE
  5
665
  8
_________2
 62
     7
 10
76.029600000000002
 20
50.875799999999991
 30
0.0
 11
76.029600000000002
 21
51.128
 31
0.0
  0
LINE
  5
666
  8
_________2
 62
     7
 10
76.522300000000001
 20
50.875799999999991
 30
0.0
 11
78.709199999999996
 21
50.875799999999991
 31
0.0
  0
LINE
  5
667
  8
_________2
 62
     7
 10
76.029600000000002
 20
50.875799999999991
 30
0.0
 11
76.281800000000004
 21
50.875799999999991
 31
0.0
  0
LINE
  5
668
  8
_________2
 62
     7
 10
76.029600000000002
 20
50.383800000000001
 30
0.0
 11
76.029600000000002
 21
48.196800000000003
 31
0.0
  0
LINE
  5
669
  8
_________2
 62
     7
 10
76.029600000000002
 20
50.875799999999991
 30
0.0
 11
76.029600000000002
 21
50.624299999999991
 31
0.0
  0
LINE
  5
66A
  8
_________2
 62
     7
 10
79.740700000000004
 20
49.656199999999998
 30
0.0
 11
84.918700000000001
 21
48.791499999999999
 31
0.0
  0
LINE
  5
66B
  8
_________2
 62
     7
 10
79.740700000000004
 20
52.095300000000002
 30
0.0
 11
84.918700000000001
 21
52.960799999999992
 31
0.0
  0
LINE
  5
66C
  8
_________2
 62
     7
 10
84.918700000000001
 20
48.791499999999999
 30
0.0
 11
84.918700000000001
 21
52.960799999999992
 31
0.0
  0
LINE
  5
66D
  8
_________2
 62
     7
 10
79.740700000000004
 20
49.656199999999998
 30
0.0
 11
79.740700000000004
 21
52.095300000000002
 31
0.0
  0
ARC
  5
66E
  8
_________2
 62
     7
 10
75.983362999999997
 20
50.828812999999997
 30
0.0
 40
1.2673709999999989
 50
2.1232950000000002
 51
87.909056000000007
  0
ARC
  5
66F
  8
_________2
 62
     7
 10
76.076526999999999
 20
50.828847000000003
 30
0.0
 40
1.267363
 50
92.121785999999986
 51
177.878185
  0
ARC
  5
670
  8
_________2
 62
     7
 10
76.076526999999999
 20
50.922691999999998
 30
0.0
 40
1.267363
 50
182.12181499999991
 51
267.87821400000001
  0
ARC
  5
671
  8
_________2
 62
     7
 10
75.982714000000001
 20
50.923374000000003
 30
0.0
 40
1.2680439999999991
 50
272.11916400000001
 51
357.84848499999993
  0
ARC
  5
672
  8
_________2
 62
     7
 10
76.029604000000006
 20
50.875768999999998
 30
0.0
 40
2.0849849999999992
 50
0.00001
 51
89.999980000000008
  0
ARC
  5
673
  8
_________2
 62
     7
 10
76.109640999999996
 20
50.796447000000001
 30
0.0
 40
2.1657860000000002
 50
92.117855000000034
 51
177.90105299999991
  0
ARC
  5
674
  8
_________2
 62
     7
 10
76.109607999999994
 20
50.955773000000001
 30
0.0
 40
2.1657779999999991
 50
182.11700400000001
 51
267.88302499999992
  0
ARC
  5
675
  8
_________2
 62
     7
 10
75.949632999999992
 20
50.956456000000003
 30
0.0
 40
2.1664590000000001
 50
272.11546800000002
 51
357.86560400000002
  0
TEXT
  5
676
  8
_________2
 62
     7
 10
109.30500000000001
 20
22.750499999999992
 30
0.0
 40
3.0923400000000001
  1
図番
 41
0.5
  0
LINE
  5
677
  8
_________2
 62
     7
 10
108.25
 20
26.979700000000001
 30
0.0
 11
188.25099999999989
 21
26.979700000000001
 31
0.0
  0
TEXT
  5
678
  8
_________2
 62
     7
 10
109.30500000000001
 20
32.750300000000003
 30
0.0
 40
3.0923400000000001
  1
品番
 41
0.5
  0
TEXT
  5
679
  8
_________2
 62
     7
 10
109.30500000000001
 20
52.889099999999999
 30
0.0
 40
3.0923400000000001
  1
名称
 41
0.5
  0
TEXT
  5
67A
  8
_________2
 62
     7
 10
96.545258333333337
 20
47.892999999999986
 30
0.0
 40
3.6545800000000002
  1
mm
 41
0.5
 72
     1
 11
98.067999999999998
 21
47.892999999999986
 31
0.0
  0
TEXT
  5
67B
  8
_________2
 62
     7
 10
90.343400000000003
 20
52.889099999999999
 30
0.0
 40
3.0923400000000001
  1
単位
 41
0.5
  0
TEXT
  5
67C
  8
_________2
 62
     7
 10
90.343400000000003
 20
40.481900000000003
 30
0.0
 40
3.0923400000000001
  1
尺度
 41
0.5
  0
TEXT
  5
67D
  8
_________2
 62
     7
 10
94.639861999999994
 20
34.288899999999991
 30
0.0
 40
3.6545800000000002
  1
1 ： 15
 41
0.5
 72
     1
 11
98.659899999999993
 21
34.288899999999991
 31
0.0
  0
TEXT
  5
67E
  8
_________2
 62
     7
 10
138.2467624999999
 20
30.178899999999992
 30
0.0
 40
3.9357000000000002
  1
CEY31710RV7
 41
0.5
 72
     1
 11
148.24999999999989
 21
30.178899999999992
 31
0.0
  0
TEXT
  5
67F
  8
_________2
 62
     7
 10
138.2467624999999
 20
20.1784
 30
0.0
 40
3.9357000000000002
  1
CEY31710RV7
 41
0.5
 72
     1
 11
148.24999999999989
 21
20.1784
 31
0.0
  0
TEXT
  5
680
  8
_________2
 62
     7
 10
29.286899999999989
 20
21.778300000000002
 30
0.0
 40
3.9357000000000002
  1
満水容量：263.6L、重量：25.5kg
 41
0.5
  0
TEXT
  5
681
  8
_________2
 62
     7
 10
113.87899999999991
 20
45.296700000000001
 30
0.0
 40
3.9357000000000002
  1
アクリル製バスタブ（1700サイズ）
 41
0.5
  0
TEXT
  5
682
  8
_________2
 62
     7
 10
44.125500333333328
 20
34.674100000000003
 30
0.0
 40
3.6545800000000002
  1
早川
 41
0.5
 72
     1
 11
46.0137
 21
34.674100000000003
 31
0.0
  0
TEXT
  5
683
  8
_________2
 62
     7
 10
25.490590666666659
 20
34.674100000000003
 30
0.0
 40
3.6545800000000002
  1
菅原
 41
0.5
 72
     1
 11
27.439699999999998
 21
34.674100000000003
 31
0.0
  0
TEXT
  5
684
  8
_________2
 62
     7
 10
72.486000000000004
 20
34.288899999999991
 30
0.0
 40
3.6545800000000002
  1
14.01.07
 41
0.5
  0
TEXT
  5
685
  8
_________2
 62
     7
 10
71.293300000000002
 20
40.481900000000003
 30
0.0
 40
3.0923400000000001
  1
日付
 41
0.5
  0
TEXT
  5
686
  8
_________2
 62
     7
 10
34.33959999999999
 20
40.481900000000003
 30
0.0
 40
3.0923400000000001
  1
検図
 41
0.5
  0
TEXT
  5
687
  8
_________2
 62
     7
 10
22.7212
 20
26.282499999999992
 30
0.0
 40
3.0923400000000001
  1
備考
 41
0.5
  0
TEXT
  5
688
  8
_________2
 62
     7
 10
22.7212
 20
40.481900000000003
 30
0.0
 40
3.0923400000000001
  1
製図
 41
0.5
  0
TEXT
  5
689
  8
_________2
 62
     7
 10
28.488665333333341
 20
49.00780000000001
 30
0.0
 40
4.4979399999999989
  1
セラトレーディング株式会社
 41
0.5
 72
     1
 11
45.880699999999997
 21
49.00780000000001
 31
0.0
  0
LINE
  5
68A
  8
_________2
 62
     7
 10
188.25099999999989
 20
16.979900000000001
 30
0.0
 11
21.749700000000001
 21
16.979900000000001
 31
0.0
  0
LINE
  5
68B
  8
_________2
 62
     7
 10
21.749700000000001
 20
16.979900000000001
 30
0.0
 11
21.749700000000001
 21
279.98200000000003
 31
0.0
  0
LINE
  5
68C
  8
_________2
 62
     7
 10
21.749700000000001
 20
279.98200000000003
 30
0.0
 11
188.25099999999989
 21
279.98200000000003
 31
0.0
  0
LINE
  5
68D
  8
_________2
 62
     7
 10
188.25099999999989
 20
279.98200000000003
 30
0.0
 11
188.25099999999989
 21
16.979900000000001
 31
0.0
  0
LINE
  5
68E
  8
_________2
 62
     7
 10
70.250100000000003
 20
30.48
 30
0.0
 11
70.250100000000003
 21
56.979799999999997
 31
0.0
  0
LINE
  5
68F
  8
_________2
 62
     7
 10
89.249899999999997
 20
30.48
 30
0.0
 11
89.249899999999997
 21
56.979799999999997
 31
0.0
  0
LINE
  5
690
  8
_________2
 62
     7
 10
108.25
 20
16.979900000000001
 30
0.0
 11
108.25
 21
56.979799999999997
 31
0.0
  0
LINE
  5
691
  8
_________2
 62
     7
 10
33.249499999999991
 20
30.48
 30
0.0
 11
33.249499999999991
 21
44.4803
 31
0.0
  0
LINE
  5
692
  8
_________2
 62
     7
 10
21.749700000000001
 20
30.48
 30
0.0
 11
108.25
 21
30.48
 31
0.0
  0
LINE
  5
693
  8
_________2
 62
     7
 10
21.749700000000001
 20
44.4803
 30
0.0
 11
108.25
 21
44.4803
 31
0.0
  0
LINE
  5
694
  8
_________2
 62
     7
 10
108.25
 20
36.979500000000002
 30
0.0
 11
188.25099999999989
 21
36.979500000000002
 31
0.0
  0
LINE
  5
695
  8
_________2
 62
     7
 10
21.749700000000001
 20
56.979799999999997
 30
0.0
 11
188.25099999999989
 21
56.979799999999997
 31
0.0
  0
ENDSEC
  0
EOF
