  0
SECTION
  2
HEADER
  9
$ACADVER
  1
AC1009
  9
$INSBASE
 10
0.0
 20
0.0
 30
0.0
  9
$EXTMIN
 10
-4.7012099999999988
 20
-21.070999999999991
 30
0.0
  9
$EXTMAX
 10
205.30099999999999
 20
275.93099999999993
 30
0.0
  9
$LIMMIN
 10
0.0
 20
0.0
  9
$LIMMAX
 10
12.0
 20
9.0
  9
$ORTHOMODE
 70
     0
  9
$REGENMODE
 70
     1
  9
$FILLMODE
 70
     1
  9
$QTEXTMODE
 70
     0
  9
$MIRRTEXT
 70
     1
  9
$DRAGMODE
 70
     2
  9
$LTSCALE
 40
1.0
  9
$OSMODE
 70
    37
  9
$ATTMODE
 70
     1
  9
$TEXTSIZE
 40
0.0
  9
$TRACEWID
 40
0.05
  9
$TEXTSTYLE
  7
STANDARD
  9
$CLAYER
  8
0
  9
$CELTYPE
  6
CONTINUOUS
  9
$CECOLOR
 62
   256
  9
$DIMSCALE
 40
1.0
  9
$DIMASZ
 40
0.18
  9
$DIMEXO
 40
0.0625
  9
$DIMDLI
 40
0.38
  9
$DIMRND
 40
0.0
  9
$DIMDLE
 40
0.0
  9
$DIMEXE
 40
0.18
  9
$DIMTP
 40
0.0
  9
$DIMTM
 40
0.0
  9
$DIMTXT
 40
0.18
  9
$DIMCEN
 40
0.09
  9
$DIMTSZ
 40
0.0
  9
$DIMTOL
 70
     0
  9
$DIMLIM
 70
     0
  9
$DIMTIH
 70
     1
  9
$DIMTOH
 70
     1
  9
$DIMSE1
 70
     0
  9
$DIMSE2
 70
     0
  9
$DIMTAD
 70
     0
  9
$DIMZIN
 70
     0
  9
$DIMBLK
  1

  9
$DIMASO
 70
     1
  9
$DIMSHO
 70
     1
  9
$DIMPOST
  1

  9
$DIMAPOST
  1

  9
$DIMALT
 70
     0
  9
$DIMALTD
 70
     2
  9
$DIMALTF
 40
25.399999999999999
  9
$DIMLFAC
 40
1.0
  9
$DIMTOFL
 70
     0
  9
$DIMTVP
 40
0.0
  9
$DIMTIX
 70
     0
  9
$DIMSOXD
 70
     0
  9
$DIMSAH
 70
     0
  9
$DIMBLK1
  1

  9
$DIMBLK2
  1

  9
$DIMSTYLE
  2
STANDARD
  9
$DIMCLRD
 70
     0
  9
$DIMCLRE
 70
     0
  9
$DIMCLRT
 70
     0
  9
$DIMTFAC
 40
1.0
  9
$DIMGAP
 40
0.09
  9
$LUNITS
 70
     2
  9
$LUPREC
 70
     4
  9
$SKETCHINC
 40
0.1
  9
$FILLETRAD
 40
0.0
  9
$AUNITS
 70
     0
  9
$AUPREC
 70
     0
  9
$MENU
  1
.
  9
$ELEVATION
 40
0.0
  9
$PELEVATION
 40
0.0
  9
$THICKNESS
 40
0.0
  9
$LIMCHECK
 70
     0
  9
$BLIPMODE
 70
     0
  9
$CHAMFERA
 40
0.0
  9
$CHAMFERB
 40
0.0
  9
$SKPOLY
 70
     0
  9
$TDCREATE
 40
2444972.375
  9
$TDUPDATE
 40
2456644.2473352998
  9
$TDINDWG
 40
0.0000056713
  9
$TDUSRTIMER
 40
0.0000056713
  9
$USRTIMER
 70
     1
  9
$ANGBASE
 50
0.0
  9
$ANGDIR
 70
     0
  9
$PDMODE
 70
     0
  9
$PDSIZE
 40
0.0
  9
$PLINEWID
 40
0.0
  9
$COORDS
 70
     1
  9
$SPLFRAME
 70
     0
  9
$SPLINETYPE
 70
     6
  9
$SPLINESEGS
 70
     8
  9
$ATTDIA
 70
     0
  9
$ATTREQ
 70
     1
  9
$HANDLING
 70
     1
  9
$HANDSEED
  5
1A2
  9
$SURFTAB1
 70
     6
  9
$SURFTAB2
 70
     6
  9
$SURFTYPE
 70
     6
  9
$SURFU
 70
     6
  9
$SURFV
 70
     6
  9
$UCSNAME
  2

  9
$UCSORG
 10
0.0
 20
0.0
 30
0.0
  9
$UCSXDIR
 10
1.0
 20
0.0
 30
0.0
  9
$UCSYDIR
 10
0.0
 20
1.0
 30
0.0
  9
$PUCSNAME
  2

  9
$PUCSORG
 10
0.0
 20
0.0
 30
0.0
  9
$PUCSXDIR
 10
1.0
 20
0.0
 30
0.0
  9
$PUCSYDIR
 10
0.0
 20
1.0
 30
0.0
  9
$USERI1
 70
     0
  9
$USERI2
 70
     0
  9
$USERI3
 70
     0
  9
$USERI4
 70
     0
  9
$USERI5
 70
     0
  9
$USERR1
 40
0.0
  9
$USERR2
 40
0.0
  9
$USERR3
 40
0.0
  9
$USERR4
 40
0.0
  9
$USERR5
 40
0.0
  9
$WORLDVIEW
 70
     1
  9
$SHADEDGE
 70
     3
  9
$SHADEDIF
 70
    70
  9
$TILEMODE
 70
     1
  9
$MAXACTVP
 70
    48
  9
$PLIMCHECK
 70
     0
  9
$PEXTMIN
 10
1.0000000000000000E+020
 20
1.0000000000000000E+020
 30
1.0000000000000000E+020
  9
$PEXTMAX
 10
-1.0000000000000000E+020
 20
-1.0000000000000000E+020
 30
-1.0000000000000000E+020
  9
$PLIMMIN
 10
0.0
 20
0.0
  9
$PLIMMAX
 10
12.0
 20
9.0
  9
$UNITMODE
 70
     0
  9
$VISRETAIN
 70
     1
  9
$PLINEGEN
 70
     0
  9
$PSLTSCALE
 70
     1
  0
ENDSEC
  0
SECTION
  2
TABLES
  0
TABLE
  2
VPORT
 70
     2
  0
VPORT
  2
*ACTIVE
 70
     0
 10
0.0
 20
0.0
 11
1.0
 21
1.0
 12
202.006301769564
 22
127.42999999999989
 13
0.0
 23
0.0
 14
1.0
 24
1.0
 15
0.0
 25
0.0
 16
0.0
 26
0.0
 36
1.0
 17
0.0
 27
0.0
 37
0.0
 40
299.45318569463541
 41
2.2894736842105261
 42
50.0
 43
0.0
 44
0.0
 50
0.0
 51
0.0
 71
     0
 72
   100
 73
     1
 74
     1
 75
     0
 76
     0
 77
     0
 78
     0
  0
ENDTAB
  0
TABLE
  2
LTYPE
 70
     2
  0
LTYPE
  2
CONTINUOUS
 70
     0
  3
Solid line
 72
    65
 73
     0
 40
0.0
  0
LTYPE
  2
AIGENLINE001
 70
     0
  3
generate AI->DXF Converter
 72
    65
 73
     4
 40
5.8561449999999988
 49
3.5278
 49
-0.776115
 49
0.776115
 49
-0.776115
  0
ENDTAB
  0
TABLE
  2
LAYER
 70
     2
  0
LAYER
  2
0
 70
     0
 62
     7
  6
CONTINUOUS
  0
LAYER
  2
_________2
 70
     0
 62
     7
  6
CONTINUOUS
  0
ENDTAB
  0
TABLE
  2
STYLE
 70
     1
  0
STYLE
  2
STANDARD
 70
     0
 40
0.0
 41
0.0
 50
0.0
 71
     0
 42
0.0
  3
TXT
  4
EXTFONT.SHX
  0
ENDTAB
  0
TABLE
  2
VIEW
 70
     0
  0
ENDTAB
  0
TABLE
  2
UCS
 70
     0
  0
ENDTAB
  0
TABLE
  2
APPID
 70
     1
  0
APPID
  2
ACAD
 70
     0
  0
ENDTAB
  0
TABLE
  2
DIMSTYLE
 70
     1
  0
DIMSTYLE
  2
STANDARD
 70
     0
  3

  4

  5

  6

  7

 40
1.0
 41
0.18
 42
0.0625
 43
0.38
 44
0.18
 45
0.0
 46
0.0
 47
0.0
 48
0.0
140
0.18
141
0.09
142
0.0
143
25.399999999999999
144
1.0
145
0.0
146
1.0
147
0.09
 71
     0
 72
     0
 73
     1
 74
     1
 75
     0
 76
     0
 77
     0
 78
     0
170
     0
171
     2
172
     0
173
     0
174
     0
175
     0
176
     0
177
     0
178
     0
  0
ENDTAB
  0
ENDSEC
  0
SECTION
  2
BLOCKS
  0
BLOCK
  8
0
  2
$MODEL_SPACE
 70
     0
 10
0.0
 20
0.0
 30
0.0
  3
$MODEL_SPACE
  1

  0
ENDBLK
  5
1A
  8
0
  0
BLOCK
 67
     1
  8
0
  2
$PAPER_SPACE
 70
     0
 10
0.0
 20
0.0
 30
0.0
  3
$PAPER_SPACE
  1

  0
ENDBLK
  5
17
 67
     1
  8
0
  0
ENDSEC
  0
SECTION
  2
ENTITIES
  0
LINE
  5
22
  8
0
 62
     7
 10
55.14009999999999
 20
152.05000000000001
 30
0.0
 11
49.825499999999991
 21
152.05000000000001
 31
0.0
  0
LINE
  5
23
  8
0
  6
AIGENLINE001
 62
     7
 10
55.840200000000003
 20
152.05000000000001
 30
0.0
 11
137.9199999999999
 21
152.05000000000001
 31
0.0
  0
LINE
  5
24
  8
0
 62
     7
 10
96.629700000000014
 20
68.9161
 30
0.0
 11
96.629700000000014
 21
62.627400000000002
 31
0.0
  0
LINE
  5
25
  8
0
  6
AIGENLINE001
 62
     7
 10
96.629700000000014
 20
69.616200000000006
 30
0.0
 11
96.629700000000014
 21
233.3059999999999
 31
0.0
  0
TEXT
  5
26
  8
0
 62
     7
 10
137.02504999999999
 20
240.67799999999991
 30
0.0
 40
3.0923400000000001
  1
43
 41
0.5
 72
     2
 11
139.602
 21
240.67799999999991
 31
0.0
  0
LINE
  5
27
  8
0
 62
     7
 10
132.12999999999991
 20
190.97699999999989
 30
0.0
 11
132.12999999999991
 21
240.43700000000001
 31
0.0
  0
TEXT
  5
28
  8
0
 62
     7
 10
144.83000000000001
 20
199.61828749999989
 30
0.0
 40
3.0923400000000001
  1
350
 50
90.0
 41
0.5
 72
     1
 11
144.83000000000001
 21
201.5509999999999
 31
0.0
  0
LINE
  5
29
  8
0
 62
     7
 10
134.08000000000001
 20
184.05000000000001
 30
0.0
 11
146.2299999999999
 21
184.05000000000001
 31
0.0
  0
TEXT
  5
2A
  8
0
 62
     7
 10
144.83000000000001
 20
222.62598249999999
 30
0.0
 40
3.0923400000000001
  1
105
 50
90.0
 41
0.5
 72
     1
 11
144.83000000000001
 21
224.3009999999999
 31
0.0
  0
LINE
  5
2B
  8
0
 62
     7
 10
144.93700000000001
 20
221.262
 30
0.0
 11
145.53
 21
219.0509999999999
 31
0.0
  0
LINE
  5
2C
  8
0
 62
     7
 10
145.53
 20
219.0509999999999
 30
0.0
 11
146.12200000000001
 21
221.262
 31
0.0
  0
LINE
  5
2D
  8
0
 62
     7
 10
146.12200000000001
 20
221.262
 30
0.0
 11
144.93700000000001
 21
221.262
 31
0.0
  0
LINE
  5
2E
  8
0
 62
     7
 10
144.94499999999991
 20
186.261
 30
0.0
 11
145.53700000000001
 21
184.05000000000001
 31
0.0
  0
LINE
  5
2F
  8
0
 62
     7
 10
145.53700000000001
 20
184.05000000000001
 30
0.0
 11
146.13
 21
186.261
 31
0.0
  0
LINE
  5
30
  8
0
 62
     7
 10
146.13
 20
186.261
 30
0.0
 11
144.94499999999991
 21
186.261
 31
0.0
  0
LINE
  5
31
  8
0
 62
     7
 10
146.12200000000001
 20
216.839
 30
0.0
 11
145.53
 21
219.0509999999999
 31
0.0
  0
LINE
  5
32
  8
0
 62
     7
 10
145.53
 20
219.0509999999999
 30
0.0
 11
144.93700000000001
 21
216.839
 31
0.0
  0
LINE
  5
33
  8
0
 62
     7
 10
144.93700000000001
 20
216.839
 30
0.0
 11
146.12200000000001
 21
216.839
 31
0.0
  0
LINE
  5
34
  8
0
 62
     7
 10
146.11500000000001
 20
227.34
 30
0.0
 11
145.523
 21
229.55199999999999
 31
0.0
  0
LINE
  5
35
  8
0
 62
     7
 10
145.523
 20
229.55199999999999
 30
0.0
 11
144.93000000000001
 21
227.34
 31
0.0
  0
LINE
  5
36
  8
0
 62
     7
 10
144.93000000000001
 20
227.34
 30
0.0
 11
146.11500000000001
 21
227.34
 31
0.0
  0
LINE
  5
37
  8
0
 62
     7
 10
145.53
 20
184.05000000000001
 30
0.0
 11
145.53
 21
229.5509999999999
 31
0.0
  0
LINE
  5
38
  8
0
 62
     7
 10
129.08000000000001
 20
229.5509999999999
 30
0.0
 11
146.2299999999999
 21
229.5509999999999
 31
0.0
  0
LINE
  5
39
  8
0
 62
     7
 10
129.08000000000001
 20
219.0509999999999
 30
0.0
 11
146.2299999999999
 21
219.0509999999999
 31
0.0
  0
LINE
  5
3A
  8
0
 62
     7
 10
61.8767
 20
228.804
 30
0.0
 11
127.0829999999999
 21
228.804
 31
0.0
  0
ARC
  5
3B
  8
0
 62
     7
 10
138.50840500000001
 20
220.67438100000001
 30
0.0
 40
11.427232
 50
178.93661299999991
 51
180.39947599999991
  0
ARC
  5
3C
  8
0
 62
     7
 10
147.96790200000001
 20
220.72105799999991
 30
0.0
 40
20.886832999999999
 50
180.34660700000001
 51
181.73313599999989
  0
ARC
  5
3D
  8
0
 62
     7
 10
161.23220900000001
 20
221.11637799999991
 30
0.0
 40
34.157029000000001
 50
181.72302699999989
 51
186.15779800000001
  0
ARC
  5
3E
  8
0
 62
     7
 10
139.27083200000001
 20
218.8267569999999
 30
0.0
 40
12.077023000000001
 50
186.53408799999991
 51
188.04233300000001
  0
ARC
  5
3F
  8
0
 62
     7
 10
138.87422000000001
 20
220.676444
 30
0.0
 40
11.046174000000001
 50
178.910628
 51
180.38732300000001
  0
ARC
  5
40
  8
0
 62
     7
 10
148.02093300000001
 20
220.71932699999991
 30
0.0
 40
20.192976999999999
 50
180.333564
 51
181.73290299999999
  0
ARC
  5
41
  8
0
 62
     7
 10
161.09092399999989
 20
221.10985099999991
 30
0.0
 40
33.268799999999999
 50
181.72448199999991
 51
186.166966
  0
ARC
  5
42
  8
0
 62
     7
 10
139.89103700000001
 20
218.89767999999989
 30
0.0
 40
11.954204999999989
 50
186.54104100000001
 51
188.02772699999991
  0
ARC
  5
43
  8
0
 62
     7
 10
120.281386
 20
182.419003
 30
0.0
 40
11.103837
 50
358.94377300000002
 51
0.376312
  0
ARC
  5
44
  8
0
 62
     7
 10
111.526887
 20
182.370914
 30
0.0
 40
19.858464999999999
 50
0.34916
 51
1.736658
  0
ARC
  5
45
  8
0
 62
     7
 10
98.956368000000012
 20
181.994472
 30
0.0
 40
32.434618999999991
 50
1.728372999999999
 51
6.2155269999999989
  0
ARC
  5
46
  8
0
 62
     7
 10
120.014831
 20
184.207166
 30
0.0
 40
11.260666000000001
 50
6.6240420000000002
 51
8.0362020000000012
  0
ARC
  5
47
  8
0
 62
     7
 10
120.657027
 20
182.42087799999999
 30
0.0
 40
11.475070000000001
 50
358.96858199999991
 51
0.390038
  0
ARC
  5
48
  8
0
 62
     7
 10
111.6549669999999
 20
182.37097999999989
 30
0.0
 40
20.477264000000002
 50
0.358186
 51
1.738164
  0
ARC
  5
49
  8
0
 62
     7
 10
98.701104999999998
 20
181.982722
 30
0.0
 40
33.436942999999999
 50
1.729873999999999
 51
6.1500139999999996
  0
ARC
  5
4A
  8
0
 62
     7
 10
120.177356
 20
184.21754300000001
 30
0.0
 40
11.845133000000001
 50
6.5313480000000004
 51
8.031505000000001
  0
LINE
  5
4B
  8
0
 62
     7
 10
127.3129999999999
 20
217.137
 30
0.0
 11
131.16499999999991
 21
185.78099999999989
 31
0.0
  0
LINE
  5
4C
  8
0
 62
     7
 10
128.054
 20
217.22799999999989
 30
0.0
 11
131.90600000000001
 21
185.87299999999991
 31
0.0
  0
LINE
  5
4D
  8
0
 62
     7
 10
127.0829999999999
 20
228.804
 30
0.0
 11
127.0829999999999
 21
220.886
 31
0.0
  0
ARC
  5
4E
  8
0
 62
     7
 10
127.329898
 20
229.050602
 30
0.0
 40
0.500145
 50
0.009877
 51
90.009846999999993
  0
LINE
  5
4F
  8
0
 62
     7
 10
127.8299999999999
 20
229.0509999999999
 30
0.0
 11
127.8299999999999
 21
220.886
 31
0.0
  0
TEXT
  5
50
  8
0
 62
     7
 10
93.103039999999993
 20
240.43700000000001
 30
0.0
 40
3.0923400000000001
  1
667
 41
0.5
 72
     1
 11
95.164599999999993
 21
240.43700000000001
 31
0.0
  0
LINE
  5
51
  8
0
 62
     7
 10
134.34200000000001
 20
240.33000000000001
 30
0.0
 11
132.12999999999991
 21
239.73699999999999
 31
0.0
  0
LINE
  5
52
  8
0
 62
     7
 10
132.12999999999991
 20
239.73699999999999
 30
0.0
 11
134.34200000000001
 21
239.14500000000001
 31
0.0
  0
LINE
  5
53
  8
0
 62
     7
 10
134.34200000000001
 20
239.14500000000001
 30
0.0
 11
134.34200000000001
 21
240.33000000000001
 31
0.0
  0
LINE
  5
54
  8
0
 62
     7
 10
63.340200000000003
 20
240.322
 30
0.0
 11
61.128399999999999
 21
239.7299999999999
 31
0.0
  0
LINE
  5
55
  8
0
 62
     7
 10
61.128399999999999
 20
239.7299999999999
 30
0.0
 11
63.340200000000003
 21
239.137
 31
0.0
  0
LINE
  5
56
  8
0
 62
     7
 10
63.340200000000003
 20
239.137
 30
0.0
 11
63.340200000000003
 21
240.322
 31
0.0
  0
LINE
  5
57
  8
0
 62
     7
 10
125.61799999999999
 20
239.14500000000001
 30
0.0
 11
127.8299999999999
 21
239.73699999999999
 31
0.0
  0
LINE
  5
58
  8
0
 62
     7
 10
127.8299999999999
 20
239.73699999999999
 30
0.0
 11
125.61799999999999
 21
240.33000000000001
 31
0.0
  0
LINE
  5
59
  8
0
 62
     7
 10
125.61799999999999
 20
240.33000000000001
 30
0.0
 11
125.61799999999999
 21
239.14500000000001
 31
0.0
  0
LINE
  5
5A
  8
0
 62
     7
 10
61.129800000000003
 20
239.73699999999999
 30
0.0
 11
139.602
 21
239.73699999999999
 31
0.0
  0
LINE
  5
5B
  8
0
 62
     7
 10
132.12
 20
73.849500000000006
 30
0.0
 11
132.12
 21
53.451700000000002
 31
0.0
  0
LINE
  5
5C
  8
0
 62
     7
 10
61.129800000000003
 20
73.849500000000006
 30
0.0
 11
61.129800000000003
 21
53.451700000000002
 31
0.0
  0
LINE
  5
5D
  8
0
 62
     7
 10
64.630099999999999
 20
148.55000000000001
 30
0.0
 11
74.629900000000006
 21
148.55000000000001
 31
0.0
  0
LINE
  5
5E
  8
0
 62
     7
 10
71.629800000000003
 20
144.4499999999999
 30
0.0
 11
72.629599999999996
 21
145.4499999999999
 31
0.0
  0
LINE
  5
5F
  8
0
 62
     7
 10
70.630099999999999
 20
145.4499999999999
 30
0.0
 11
71.629800000000003
 21
144.4499999999999
 31
0.0
  0
LINE
  5
60
  8
0
 62
     7
 10
74.629900000000006
 20
143.55000000000001
 30
0.0
 11
64.630099999999999
 21
143.55000000000001
 31
0.0
  0
LINE
  5
61
  8
0
 62
     7
 10
72.629599999999996
 20
145.4499999999999
 30
0.0
 11
71.629800000000003
 21
146.4499999999999
 31
0.0
  0
LINE
  5
62
  8
0
 62
     7
 10
71.629800000000003
 20
146.4499999999999
 30
0.0
 11
70.630099999999999
 21
145.4499999999999
 31
0.0
  0
LINE
  5
63
  8
0
 62
     7
 10
74.629900000000006
 20
143.55000000000001
 30
0.0
 11
74.629900000000006
 21
148.55000000000001
 31
0.0
  0
LINE
  5
64
  8
0
 62
     7
 10
64.630099999999999
 20
143.55000000000001
 30
0.0
 11
64.630099999999999
 21
148.55000000000001
 31
0.0
  0
LINE
  5
65
  8
0
 62
     7
 10
49.940600000000011
 20
154.26099999999991
 30
0.0
 11
50.533200000000001
 21
152.04900000000001
 31
0.0
  0
LINE
  5
66
  8
0
 62
     7
 10
50.533200000000001
 20
152.04900000000001
 30
0.0
 11
51.125700000000002
 21
154.26099999999991
 31
0.0
  0
LINE
  5
67
  8
0
 62
     7
 10
51.125700000000002
 20
154.26099999999991
 30
0.0
 11
49.940600000000011
 21
154.26099999999991
 31
0.0
  0
LINE
  5
68
  8
0
 62
     7
 10
51.11119999999999
 20
227.34
 30
0.0
 11
50.518700000000003
 21
229.55199999999999
 31
0.0
  0
LINE
  5
69
  8
0
 62
     7
 10
50.518700000000003
 20
229.55199999999999
 30
0.0
 11
49.926099999999991
 21
227.34
 31
0.0
  0
LINE
  5
6A
  8
0
 62
     7
 10
49.926099999999991
 20
227.34
 30
0.0
 11
51.11119999999999
 21
227.34
 31
0.0
  0
LINE
  5
6B
  8
0
 62
     7
 10
50.52559999999999
 20
152.05000000000001
 30
0.0
 11
50.52559999999999
 21
229.5509999999999
 31
0.0
  0
TEXT
  5
6C
  8
0
 62
     7
 10
49.825499999999991
 20
188.73844
 30
0.0
 40
3.0923400000000001
  1
775
 50
90.0
 41
0.5
 72
     1
 11
49.825499999999991
 21
190.80000000000001
 31
0.0
  0
TEXT
  5
6D
  8
0
 62
     7
 10
94.949882500000001
 20
54.85179999999999
 30
0.0
 40
3.0923400000000001
  1
710
 41
0.5
 72
     1
 11
96.624899999999997
 21
54.85179999999999
 31
0.0
  0
LINE
  5
6E
  8
0
 62
     7
 10
63.340200000000003
 20
54.737400000000001
 30
0.0
 11
61.128399999999999
 21
54.144799999999996
 31
0.0
  0
LINE
  5
6F
  8
0
 62
     7
 10
61.128399999999999
 20
54.144799999999996
 30
0.0
 11
63.340200000000003
 21
53.552300000000002
 31
0.0
  0
LINE
  5
70
  8
0
 62
     7
 10
63.340200000000003
 20
53.552300000000002
 30
0.0
 11
63.340200000000003
 21
54.737400000000001
 31
0.0
  0
LINE
  5
71
  8
0
 62
     7
 10
129.9199999999999
 20
53.566800000000001
 30
0.0
 11
132.13099999999989
 21
54.159300000000002
 31
0.0
  0
LINE
  5
72
  8
0
 62
     7
 10
132.13099999999989
 20
54.159300000000002
 30
0.0
 11
129.9199999999999
 21
54.751899999999999
 31
0.0
  0
LINE
  5
73
  8
0
 62
     7
 10
129.9199999999999
 20
54.751899999999999
 30
0.0
 11
129.9199999999999
 21
53.566800000000001
 31
0.0
  0
LINE
  5
74
  8
0
 62
     7
 10
61.129800000000003
 20
54.151699999999991
 30
0.0
 11
132.12999999999991
 21
54.151699999999991
 31
0.0
  0
TEXT
  5
75
  8
0
 62
     7
 10
76.81814
 20
64.027500000000003
 30
0.0
 40
3.0923400000000001
  1
355
 41
0.5
 72
     1
 11
78.8797
 21
64.027500000000003
 31
0.0
  0
LINE
  5
76
  8
0
 62
     7
 10
61.129800000000003
 20
230.25099999999989
 30
0.0
 11
61.129800000000003
 21
240.43700000000001
 31
0.0
  0
LINE
  5
77
  8
0
 62
     7
 10
127.8299999999999
 20
230.25099999999989
 30
0.0
 11
127.8299999999999
 21
240.43700000000001
 31
0.0
  0
LINE
  5
78
  8
0
 62
     7
 10
63.340200000000003
 20
63.9131
 30
0.0
 11
61.128399999999999
 21
63.320599999999999
 31
0.0
  0
LINE
  5
79
  8
0
 62
     7
 10
61.128399999999999
 20
63.320599999999999
 30
0.0
 11
63.340200000000003
 21
62.728000000000002
 31
0.0
  0
LINE
  5
7A
  8
0
 62
     7
 10
63.340200000000003
 20
62.728000000000002
 30
0.0
 11
63.340200000000003
 21
63.9131
 31
0.0
  0
LINE
  5
7B
  8
0
 62
     7
 10
94.419300000000007
 20
62.7425
 30
0.0
 11
96.630399999999995
 21
63.335000000000001
 31
0.0
  0
LINE
  5
7C
  8
0
 62
     7
 10
96.630399999999995
 20
63.335000000000001
 30
0.0
 11
94.419300000000007
 21
63.927599999999991
 31
0.0
  0
LINE
  5
7D
  8
0
 62
     7
 10
94.419300000000007
 20
63.927599999999991
 30
0.0
 11
94.419300000000007
 21
62.7425
 31
0.0
  0
LINE
  5
7E
  8
0
 62
     7
 10
61.129800000000003
 20
63.327500000000001
 30
0.0
 11
96.629700000000014
 21
63.327500000000001
 31
0.0
  0
TEXT
  5
7F
  8
0
 62
     7
 10
106.002
 20
144.01261
 30
0.0
 40
3.0923400000000001
  1
A
 50
90.0
 41
0.5
 72
     1
 11
106.002
 21
144.52799999999991
 31
0.0
  0
LINE
  5
80
  8
0
 62
     7
 10
98.840100000000007
 20
145.114
 30
0.0
 11
96.629000000000005
 21
144.52099999999999
 31
0.0
  0
LINE
  5
81
  8
0
 62
     7
 10
96.629000000000005
 20
144.52099999999999
 30
0.0
 11
98.840100000000007
 21
143.92899999999989
 31
0.0
  0
LINE
  5
82
  8
0
 62
     7
 10
98.840100000000007
 20
143.92899999999989
 30
0.0
 11
98.840100000000007
 21
145.114
 31
0.0
  0
LINE
  5
83
  8
0
 62
     7
 10
102.21899999999989
 20
144.52799999999991
 30
0.0
 11
96.629700000000014
 21
144.52799999999991
 31
0.0
  0
TEXT
  5
84
  8
0
 62
     7
 10
105.96299999999989
 20
159.03761
 30
0.0
 40
3.0923400000000001
  1
A
 50
90.0
 41
0.5
 72
     1
 11
105.96299999999989
 21
159.553
 31
0.0
  0
LINE
  5
85
  8
0
 62
     7
 10
98.840100000000007
 20
160.13900000000001
 30
0.0
 11
96.629000000000005
 21
159.54599999999991
 31
0.0
  0
LINE
  5
86
  8
0
 62
     7
 10
96.629000000000005
 20
159.54599999999991
 30
0.0
 11
98.840100000000007
 21
158.953
 31
0.0
  0
LINE
  5
87
  8
0
 62
     7
 10
98.840100000000007
 20
158.953
 30
0.0
 11
98.840100000000007
 21
160.13900000000001
 31
0.0
  0
LINE
  5
88
  8
0
 62
     7
 10
102.18000000000001
 20
159.553
 30
0.0
 11
96.629700000000014
 21
159.553
 31
0.0
  0
TEXT
  5
89
  8
0
 62
     7
 10
40.191800000000001
 20
149.60189750000001
 30
0.0
 40
3.0923400000000001
  1
1550
 50
90.0
 41
0.5
 72
     1
 11
40.191800000000001
 21
152.05000000000001
 31
0.0
  0
LINE
  5
8A
  8
0
 62
     7
 10
60.4298
 20
74.549599999999984
 30
0.0
 11
40.191800000000001
 21
74.549599999999984
 31
0.0
  0
LINE
  5
8B
  8
0
 62
     7
 10
60.4298
 20
229.5509999999999
 30
0.0
 11
40.191800000000001
 21
229.5509999999999
 31
0.0
  0
LINE
  5
8C
  8
0
 62
     7
 10
40.306100000000001
 20
76.760000000000005
 30
0.0
 11
40.898699999999998
 21
74.548900000000003
 31
0.0
  0
LINE
  5
8D
  8
0
 62
     7
 10
40.898699999999998
 20
74.548900000000003
 30
0.0
 11
41.491300000000003
 21
76.760000000000005
 31
0.0
  0
LINE
  5
8E
  8
0
 62
     7
 10
41.491300000000003
 20
76.760000000000005
 30
0.0
 11
40.306100000000001
 21
76.760000000000005
 31
0.0
  0
LINE
  5
8F
  8
0
 62
     7
 10
41.476799999999997
 20
227.34
 30
0.0
 11
40.8842
 21
229.55199999999999
 31
0.0
  0
LINE
  5
90
  8
0
 62
     7
 10
40.8842
 20
229.55199999999999
 30
0.0
 11
40.291699999999992
 21
227.34
 31
0.0
  0
LINE
  5
91
  8
0
 62
     7
 10
40.291699999999992
 20
227.34
 30
0.0
 11
41.476799999999997
 21
227.34
 31
0.0
  0
LINE
  5
92
  8
0
 62
     7
 10
40.891800000000003
 20
74.549599999999984
 30
0.0
 11
40.891800000000003
 21
229.5509999999999
 31
0.0
  0
LINE
  5
93
  8
0
 62
     7
 10
96.629700000000014
 20
151.303
 30
0.0
 11
61.8767
 21
151.303
 31
0.0
  0
LINE
  5
94
  8
0
 62
     7
 10
96.629700000000014
 20
152.05000000000001
 30
0.0
 11
61.6342
 21
152.05000000000001
 31
0.0
  0
ARC
  5
95
  8
0
 62
     7
 10
61.653668999999987
 20
151.52623799999989
 30
0.0
 40
0.5242020000000001
 50
92.130521999999985
 51
177.90857199999991
  0
ARC
  5
96
  8
0
 62
     7
 10
131.60605899999999
 20
151.52588600000001
 30
0.0
 40
0.5245410000000002
 50
2.1286130000000001
 51
87.910472999999996
  0
LINE
  5
97
  8
0
 62
     7
 10
131.3829999999999
 20
151.303
 30
0.0
 11
96.593900000000005
 21
151.303
 31
0.0
  0
LINE
  5
98
  8
0
 62
     7
 10
131.62499999999989
 20
152.05000000000001
 30
0.0
 11
96.593900000000005
 21
152.05000000000001
 31
0.0
  0
ARC
  5
99
  8
0
 62
     7
 10
61.65364499999999
 20
75.073409999999996
 30
0.0
 40
0.52419
 50
182.12795499999999
 51
267.872075
  0
ARC
  5
9A
  8
0
 62
     7
 10
61.653681000000013
 20
229.02690200000001
 30
0.0
 40
0.524208
 50
92.13182900000001
 51
177.92681599999989
  0
ARC
  5
9B
  8
0
 62
     7
 10
131.60573799999989
 20
75.074108999999993
 30
0.0
 40
0.5248870000000001
 50
272.12316600000003
 51
357.79862500000002
  0
LINE
  5
9C
  8
0
 62
     7
 10
61.6342
 20
229.5509999999999
 30
0.0
 11
127.33
 21
229.5509999999999
 31
0.0
  0
LINE
  5
9D
  8
0
 62
     7
 10
61.8767
 20
75.296499999999995
 30
0.0
 11
131.3829999999999
 21
75.296499999999995
 31
0.0
  0
LINE
  5
9E
  8
0
 62
     7
 10
61.6342
 20
74.549599999999984
 30
0.0
 11
131.62499999999989
 21
74.549599999999984
 31
0.0
  0
LINE
  5
9F
  8
0
 62
     7
 10
131.3829999999999
 20
75.296499999999995
 30
0.0
 11
131.3829999999999
 21
151.303
 31
0.0
  0
LINE
  5
A0
  8
0
 62
     7
 10
132.12999999999991
 20
75.053899999999999
 30
0.0
 11
132.12999999999991
 21
151.5449999999999
 31
0.0
  0
LINE
  5
A1
  8
0
 62
     7
 10
61.8767
 20
151.303
 30
0.0
 11
61.8767
 21
75.296499999999995
 31
0.0
  0
LINE
  5
A2
  8
0
 62
     7
 10
61.129800000000003
 20
151.5449999999999
 30
0.0
 11
61.129800000000003
 21
75.053899999999999
 31
0.0
  0
LINE
  5
A3
  8
0
 62
     7
 10
96.629700000000014
 20
152.05000000000001
 30
0.0
 11
61.6342
 21
152.05000000000001
 31
0.0
  0
LINE
  5
A4
  8
0
 62
     7
 10
96.629700000000014
 20
152.797
 30
0.0
 11
61.8767
 21
152.797
 31
0.0
  0
ARC
  5
A5
  8
0
 62
     7
 10
61.653983999999987
 20
152.57423199999991
 30
0.0
 40
0.5245280000000001
 50
182.12448499999999
 51
267.83642099999997
  0
ARC
  5
A6
  8
0
 62
     7
 10
131.60571399999989
 20
152.57461599999991
 30
0.0
 40
0.524899
 50
272.12577499999992
 51
357.83513799999992
  0
LINE
  5
A7
  8
0
 62
     7
 10
131.62499999999989
 20
152.05000000000001
 30
0.0
 11
96.593900000000005
 21
152.05000000000001
 31
0.0
  0
LINE
  5
A8
  8
0
 62
     7
 10
131.3829999999999
 20
152.797
 30
0.0
 11
96.593900000000005
 21
152.797
 31
0.0
  0
LINE
  5
A9
  8
0
 62
     7
 10
61.129800000000003
 20
152.55500000000001
 30
0.0
 11
61.129800000000003
 21
229.04599999999991
 31
0.0
  0
LINE
  5
AA
  8
0
 62
     7
 10
132.12999999999991
 20
182.214
 30
0.0
 11
132.12999999999991
 21
152.55500000000001
 31
0.0
  0
LINE
  5
AB
  8
0
 62
     7
 10
61.8767
 20
152.797
 30
0.0
 11
61.8767
 21
228.804
 31
0.0
  0
LINE
  5
AC
  8
0
 62
     7
 10
131.3829999999999
 20
182.27299999999991
 30
0.0
 11
131.3829999999999
 21
152.797
 31
0.0
  0
TEXT
  5
AD
  8
0
 62
     7
 10
148.91677399999989
 20
128.715
 30
0.0
 40
3.0923400000000001
  1
A-A断面（2:1）
 41
0.5
 72
     1
 11
155.82299999999989
 21
128.715
 31
0.0
  0
TEXT
  5
AE
  8
0
 62
     7
 10
154.66337249999989
 20
168.2409999999999
 30
0.0
 40
3.0923400000000001
  1
20
 41
0.5
 72
     1
 11
155.82299999999989
 21
168.2409999999999
 31
0.0
  0
LINE
  5
AF
  8
0
 62
     7
 10
153.23299999999989
 20
168.12599999999989
 30
0.0
 11
151.02199999999999
 21
167.5329999999999
 31
0.0
  0
LINE
  5
B0
  8
0
 62
     7
 10
151.02199999999999
 20
167.5329999999999
 30
0.0
 11
153.23299999999989
 21
166.93999999999991
 31
0.0
  0
LINE
  5
B1
  8
0
 62
     7
 10
153.23299999999989
 20
166.93999999999991
 30
0.0
 11
153.23299999999989
 21
168.12599999999989
 31
0.0
  0
LINE
  5
B2
  8
0
 62
     7
 10
158.4129999999999
 20
166.95500000000001
 30
0.0
 11
160.62399999999991
 21
167.54699999999991
 31
0.0
  0
LINE
  5
B3
  8
0
 62
     7
 10
160.62399999999991
 20
167.54699999999991
 30
0.0
 11
158.4129999999999
 21
168.13999999999999
 31
0.0
  0
LINE
  5
B4
  8
0
 62
     7
 10
158.4129999999999
 20
168.13999999999999
 30
0.0
 11
158.4129999999999
 21
166.95500000000001
 31
0.0
  0
LINE
  5
B5
  8
0
 62
     7
 10
151.02299999999991
 20
167.541
 30
0.0
 11
160.62299999999999
 21
167.541
 31
0.0
  0
LINE
  5
B6
  8
0
 62
     7
 10
160.62299999999999
 20
161.614
 30
0.0
 11
160.62299999999999
 21
168.2409999999999
 31
0.0
  0
LINE
  5
B7
  8
0
 62
     7
 10
151.02299999999991
 20
161.614
 30
0.0
 11
151.02299999999991
 21
168.2409999999999
 31
0.0
  0
LINE
  5
B8
  8
0
 62
     7
 10
159.82299999999989
 20
138.98699999999991
 30
0.0
 11
159.82299999999989
 21
147.17999999999989
 31
0.0
  0
TEXT
  5
B9
  8
0
 62
     7
 10
154.7922199999999
 20
140.38699999999989
 30
0.0
 40
3.0923400000000001
  1
16
 41
0.5
 72
     1
 11
155.82299999999989
 21
140.38699999999989
 31
0.0
  0
LINE
  5
BA
  8
0
 62
     7
 10
151.82299999999989
 20
138.98699999999991
 30
0.0
 11
151.82299999999989
 21
147.17999999999989
 31
0.0
  0
LINE
  5
BB
  8
0
 62
     7
 10
154.0329999999999
 20
140.27199999999999
 30
0.0
 11
151.822
 21
139.67899999999989
 31
0.0
  0
LINE
  5
BC
  8
0
 62
     7
 10
151.822
 20
139.67899999999989
 30
0.0
 11
154.0329999999999
 21
139.08600000000001
 31
0.0
  0
LINE
  5
BD
  8
0
 62
     7
 10
154.0329999999999
 20
139.08600000000001
 30
0.0
 11
154.0329999999999
 21
140.27199999999999
 31
0.0
  0
LINE
  5
BE
  8
0
 62
     7
 10
157.613
 20
139.101
 30
0.0
 11
159.8239999999999
 21
139.6929999999999
 31
0.0
  0
LINE
  5
BF
  8
0
 62
     7
 10
159.8239999999999
 20
139.6929999999999
 30
0.0
 11
157.613
 21
140.28599999999989
 31
0.0
  0
LINE
  5
C0
  8
0
 62
     7
 10
157.613
 20
140.28599999999989
 30
0.0
 11
157.613
 21
139.101
 31
0.0
  0
LINE
  5
C1
  8
0
 62
     7
 10
151.82299999999989
 20
139.68700000000001
 30
0.0
 11
159.82299999999989
 21
139.68700000000001
 31
0.0
  0
LINE
  5
C2
  8
0
 62
     7
 10
159.5029999999999
 20
152.0379999999999
 30
0.0
 11
152.98899999999989
 21
158.55199999999999
 31
0.0
  0
LINE
  5
C3
  8
0
 62
     7
 10
159.5029999999999
 20
150.583
 30
0.0
 11
152.80799999999991
 21
157.27699999999999
 31
0.0
  0
LINE
  5
C4
  8
0
 62
     7
 10
159.5029999999999
 20
149.1279999999999
 30
0.0
 11
152.143
 21
156.488
 31
0.0
  0
LINE
  5
C5
  8
0
 62
     7
 10
159.15700000000001
 20
148.01900000000001
 30
0.0
 11
152.143
 21
155.03399999999999
 31
0.0
  0
LINE
  5
C6
  8
0
 62
     7
 10
158.095
 20
147.6279999999999
 30
0.0
 11
152.143
 21
153.57900000000001
 31
0.0
  0
LINE
  5
C7
  8
0
 62
     7
 10
160.62299999999999
 20
148.87700000000001
 30
0.0
 11
160.62299999999999
 21
159.054
 31
0.0
  0
LINE
  5
C8
  8
0
 62
     7
 10
159.82299999999989
 20
148.358
 30
0.0
 11
159.82299999999989
 21
159.52099999999999
 31
0.0
  0
LINE
  5
C9
  8
0
 62
     7
 10
151.82299999999989
 20
159.52099999999999
 30
0.0
 11
151.82299999999989
 21
148.38
 31
0.0
  0
LINE
  5
CA
  8
0
 62
     7
 10
151.02299999999991
 20
159.08000000000001
 30
0.0
 11
151.02299999999991
 21
148.90600000000001
 31
0.0
  0
LINE
  5
CB
  8
0
 62
     7
 10
152.143
 20
159.52099999999999
 30
0.0
 11
152.143
 21
148.20599999999999
 31
0.0
  0
LINE
  5
CC
  8
0
 62
     7
 10
159.5029999999999
 20
148.18600000000001
 30
0.0
 11
159.5029999999999
 21
159.52099999999999
 31
0.0
  0
LINE
  5
CD
  8
0
 62
     7
 10
156.89299999999989
 20
147.375
 30
0.0
 11
152.143
 21
152.125
 31
0.0
  0
LINE
  5
CE
  8
0
 62
     7
 10
155.49999999999989
 20
147.3129999999999
 30
0.0
 11
152.143
 21
150.6699999999999
 31
0.0
  0
LINE
  5
CF
  8
0
 62
     7
 10
153.78499999999991
 20
147.57299999999989
 30
0.0
 11
152.143
 21
149.215
 31
0.0
  0
ARC
  5
D0
  8
0
 62
     7
 10
155.36395099999999
 20
154.35528099999999
 30
0.0
 40
6.9666909999999991
 50
231.45620899999989
 51
251.84298599999991
  0
ARC
  5
D1
  8
0
 62
     7
 10
155.82773
 20
155.66294799999989
 30
0.0
 40
8.3538339999999991
 50
251.61536299999989
 51
295.93347399999999
  0
ARC
  5
D2
  8
0
 62
     7
 10
156.33345800000001
 20
154.35404700000001
 30
0.0
 40
6.956561999999999
 50
296.90222699999993
 51
308.07043299999992
  0
LINE
  5
D3
  8
0
 62
     7
 10
158.89699999999999
 20
157.00700000000001
 30
0.0
 11
156.97499999999991
 21
158.93000000000001
 31
0.0
  0
LINE
  5
D4
  8
0
 62
     7
 10
159.5029999999999
 20
154.947
 30
0.0
 11
156.76899999999989
 21
157.68000000000001
 31
0.0
  0
LINE
  5
D5
  8
0
 62
     7
 10
159.5029999999999
 20
153.49199999999999
 30
0.0
 11
155.315
 21
157.68000000000001
 31
0.0
  0
LINE
  5
D6
  8
0
 62
     7
 10
159.26900000000001
 20
157.50099999999989
 30
0.0
 11
159.369
 21
157.601
 31
0.0
  0
LINE
  5
D7
  8
0
 62
     7
 10
158.50200000000001
 20
159.64099999999991
 30
0.0
 11
158.864
 21
157.0929999999999
 31
0.0
  0
LINE
  5
D8
  8
0
 62
     7
 10
153.143
 20
159.64099999999991
 30
0.0
 11
152.78200000000001
 21
157.0929999999999
 31
0.0
  0
LINE
  5
D9
  8
0
 62
     7
 10
152.37700000000001
 20
157.50099999999989
 30
0.0
 11
152.27699999999999
 21
157.601
 31
0.0
  0
LINE
  5
DA
  8
0
  6
AIGENLINE001
 62
     7
 10
155.82299999999989
 20
156.32299999999989
 30
0.0
 11
155.82299999999989
 21
162.28200000000001
 31
0.0
  0
LINE
  5
DB
  8
0
 62
     7
 10
159.5029999999999
 20
156.40199999999999
 30
0.0
 11
158.94799999999989
 21
156.95599999999999
 31
0.0
  0
LINE
  5
DC
  8
0
 62
     7
 10
159.26900000000001
 20
157.30099999999999
 30
0.0
 11
159.4489999999999
 21
157.12
 31
0.0
  0
LINE
  5
DD
  8
0
 62
     7
 10
159.4489999999999
 20
157.12
 30
0.0
 11
159.4489999999999
 21
157.03999999999999
 31
0.0
  0
LINE
  5
DE
  8
0
 62
     7
 10
159.26900000000001
 20
157.50099999999989
 30
0.0
 11
159.369
 21
157.40100000000001
 31
0.0
  0
LINE
  5
DF
  8
0
 62
     7
 10
159.26900000000001
 20
157.30099999999999
 30
0.0
 11
159.369
 21
157.40100000000001
 31
0.0
  0
ARC
  5
E0
  8
0
 62
     7
 10
159.324116
 20
157.04533499999999
 30
0.0
 40
0.124969
 50
271.96690799999999
 51
357.70476000000002
  0
LINE
  5
E1
  8
0
 62
     7
 10
159.24899999999991
 20
156.9199999999999
 30
0.0
 11
159.06200000000001
 21
156.9199999999999
 31
0.0
  0
LINE
  5
E2
  8
0
 62
     7
 10
159.328
 20
156.9199999999999
 30
0.0
 11
159.07299999999989
 21
156.9199999999999
 31
0.0
  0
ARC
  5
E3
  8
0
 62
     7
 10
159.064639
 20
157.12339
 30
0.0
 40
0.20297
 50
188.6978159999999
 51
269.18526099999991
  0
ARC
  5
E4
  8
0
 62
     7
 10
152.58119600000001
 20
157.12357600000001
 30
0.0
 40
0.203158
 50
270.85967499999992
 51
351.25728700000002
  0
LINE
  5
E5
  8
0
 62
     7
 10
152.31700000000001
 20
156.9199999999999
 30
0.0
 11
152.57299999999989
 21
156.9199999999999
 31
0.0
  0
LINE
  5
E6
  8
0
 62
     7
 10
152.39599999999999
 20
156.9199999999999
 30
0.0
 11
152.584
 21
156.9199999999999
 31
0.0
  0
ARC
  5
E7
  8
0
 62
     7
 10
152.320965
 20
157.04510799999991
 30
0.0
 40
0.124733
 50
182.194952
 51
268.133419
  0
LINE
  5
E8
  8
0
 62
     7
 10
152.37700000000001
 20
157.30099999999999
 30
0.0
 11
152.27699999999999
 21
157.40100000000001
 31
0.0
  0
LINE
  5
E9
  8
0
 62
     7
 10
152.37700000000001
 20
157.50099999999989
 30
0.0
 11
152.27699999999999
 21
157.40100000000001
 31
0.0
  0
LINE
  5
EA
  8
0
 62
     7
 10
152.19599999999991
 20
157.12
 30
0.0
 11
152.19599999999991
 21
157.03999999999999
 31
0.0
  0
LINE
  5
EB
  8
0
 62
     7
 10
152.37700000000001
 20
157.30099999999999
 30
0.0
 11
152.19599999999991
 21
157.12
 31
0.0
  0
LINE
  5
EC
  8
0
 62
     7
 10
159.5029999999999
 20
159.31100000000001
 30
0.0
 11
159.17500000000001
 21
159.63900000000001
 31
0.0
  0
LINE
  5
ED
  8
0
 62
     7
 10
158.63200000000001
 20
158.727
 30
0.0
 11
157.49000000000001
 21
159.86899999999989
 31
0.0
  0
LINE
  5
EE
  8
0
 62
     7
 10
159.5029999999999
 20
157.85599999999991
 30
0.0
 11
159.364
 21
157.995
 31
0.0
  0
LINE
  5
EF
  8
0
 62
     7
 10
154.649
 20
159.80099999999999
 30
0.0
 11
154.57599999999999
 21
159.874
 31
0.0
  0
LINE
  5
F0
  8
0
 62
     7
 10
154.68600000000001
 20
158.30799999999991
 30
0.0
 11
153.262
 21
159.73400000000001
 31
0.0
  0
LINE
  5
F1
  8
0
 62
     7
 10
152.57599999999999
 20
158.96499999999989
 30
0.0
 11
152.143
 21
159.39699999999999
 31
0.0
  0
LINE
  5
F2
  8
0
 62
     7
 10
152.02000000000001
 20
159.52099999999999
 30
0.0
 11
151.90199999999999
 21
159.63900000000001
 31
0.0
  0
LINE
  5
F3
  8
0
 62
     7
 10
152.28099999999989
 20
157.80500000000001
 30
0.0
 11
152.143
 21
157.9429999999999
 31
0.0
  0
LINE
  5
F4
  8
0
 62
     7
 10
159.82299999999989
 20
159.52099999999999
 30
0.0
 11
159.5029999999999
 21
159.52099999999999
 31
0.0
  0
LINE
  5
F5
  8
0
 62
     7
 10
151.82299999999989
 20
159.52099999999999
 30
0.0
 11
152.143
 21
159.52099999999999
 31
0.0
  0
ARC
  5
F6
  8
0
 62
     7
 10
156.36417399999999
 20
84.622598999999994
 30
0.0
 40
75.25505600000001
 50
88.752374000000003
 51
89.516272000000015
  0
LINE
  5
F7
  8
0
 62
     7
 10
156.62299999999999
 20
160.881
 30
0.0
 11
157.0029999999999
 21
160.881
 31
0.0
  0
ARC
  5
F8
  8
0
 62
     7
 10
156.52494799999999
 20
160.94058200000001
 30
0.0
 40
0.118287
 50
210.27510499999991
 51
295.80855899999989
  0
ARC
  5
F9
  8
0
 62
     7
 10
156.53170199999991
 20
160.92434900000001
 30
0.0
 40
0.100737
 50
296.36969099999988
 51
334.47912899999989
  0
LINE
  5
FA
  8
0
 62
     7
 10
157.0029999999999
 20
160.02099999999999
 30
0.0
 11
157.0029999999999
 21
160.881
 31
0.0
  0
LINE
  5
FB
  8
0
 62
     7
 10
155.82299999999989
 20
160.6399999999999
 30
0.0
 11
156.64299999999989
 21
160.6399999999999
 31
0.0
  0
LINE
  5
FC
  8
0
 62
     7
 10
156.9429999999999
 20
157.68000000000001
 30
0.0
 11
157.0029999999999
 21
160.02099999999999
 31
0.0
  0
LINE
  5
FD
  8
0
 62
     7
 10
156.64299999999989
 20
160.6399999999999
 30
0.0
 11
156.703
 21
157.68000000000001
 31
0.0
  0
LINE
  5
FE
  8
0
 62
     7
 10
159.0029999999999
 20
159.441
 30
0.0
 11
159.0029999999999
 21
159.001
 31
0.0
  0
LINE
  5
FF
  8
0
 62
     7
 10
159.0029999999999
 20
159.001
 30
0.0
 11
159.369
 21
158.80099999999999
 31
0.0
  0
ARC
  5
100
  8
0
 62
     7
 10
159.211037
 20
159.43285399999999
 30
0.0
 40
0.208006
 50
92.213549000000015
 51
177.78642099999999
  0
LINE
  5
101
  8
0
 62
     7
 10
159.7229999999999
 20
159.64099999999991
 30
0.0
 11
159.203
 21
159.64099999999991
 31
0.0
  0
ARC
  5
102
  8
0
 62
     7
 10
158.11729899999989
 20
159.27923000000001
 30
0.0
 40
0.528076
 50
43.197359999999989
 51
59.489449
  0
ARC
  5
103
  8
0
 62
     7
 10
157.917495
 20
158.984318
 30
0.0
 40
0.883877
 50
58.036464999999993
 51
78.689642000000006
  0
ARC
  5
104
  8
0
 62
     7
 10
157.996624
 20
159.3522899999999
 30
0.0
 40
0.507561
 50
79.302040000000005
 51
89.311409999999995
  0
LINE
  5
105
  8
0
 62
     7
 10
159.26900000000001
 20
158.70099999999999
 30
0.0
 11
159.369
 21
158.80099999999999
 31
0.0
  0
LINE
  5
106
  8
0
 62
     7
 10
159.26900000000001
 20
158.70099999999999
 30
0.0
 11
159.369
 21
158.60099999999991
 31
0.0
  0
LINE
  5
107
  8
0
 62
     7
 10
159.26900000000001
 20
158.49999999999989
 30
0.0
 11
159.369
 21
158.60099999999991
 31
0.0
  0
LINE
  5
108
  8
0
 62
     7
 10
159.26900000000001
 20
158.49999999999989
 30
0.0
 11
159.369
 21
158.40000000000001
 31
0.0
  0
LINE
  5
109
  8
0
 62
     7
 10
159.26900000000001
 20
158.30099999999999
 30
0.0
 11
159.369
 21
158.40000000000001
 31
0.0
  0
LINE
  5
10A
  8
0
 62
     7
 10
159.26900000000001
 20
158.30099999999999
 30
0.0
 11
159.369
 21
158.20099999999991
 31
0.0
  0
LINE
  5
10B
  8
0
 62
     7
 10
159.26900000000001
 20
158.101
 30
0.0
 11
159.369
 21
158.20099999999991
 31
0.0
  0
LINE
  5
10C
  8
0
 62
     7
 10
159.26900000000001
 20
158.101
 30
0.0
 11
159.369
 21
158.001
 31
0.0
  0
LINE
  5
10D
  8
0
 62
     7
 10
159.26900000000001
 20
157.90000000000001
 30
0.0
 11
159.369
 21
158.001
 31
0.0
  0
LINE
  5
10E
  8
0
 62
     7
 10
159.26900000000001
 20
157.90000000000001
 30
0.0
 11
159.369
 21
157.80099999999999
 31
0.0
  0
LINE
  5
10F
  8
0
 62
     7
 10
159.26900000000001
 20
157.70099999999999
 30
0.0
 11
159.369
 21
157.80099999999999
 31
0.0
  0
LINE
  5
110
  8
0
 62
     7
 10
159.26900000000001
 20
157.70099999999999
 30
0.0
 11
159.369
 21
157.601
 31
0.0
  0
LINE
  5
111
  8
0
 62
     7
 10
160.62299999999999
 20
159.054
 30
0.0
 11
160.62299999999999
 21
160.4139999999999
 31
0.0
  0
ARC
  5
112
  8
0
 62
     7
 10
158.32794599999991
 20
120.531848
 30
0.0
 40
40.304001999999997
 50
87.087638999999996
 51
87.860708000000002
  0
ARC
  5
113
  8
0
 62
     7
 10
155.94845799999999
 20
57.892299999999992
 30
0.0
 40
102.988724
 50
87.838695999999999
 51
90.069979000000004
  0
ARC
  5
114
  8
0
 62
     7
 10
160.27759800000001
 20
160.42742799999999
 30
0.0
 40
0.345752
 50
357.73936900000001
 51
29.483495000000001
  0
ARC
  5
115
  8
0
 62
     7
 10
160.2162129999999
 20
160.40642199999991
 30
0.0
 40
0.409699
 50
27.815366999999998
 51
67.087215
  0
ARC
  5
116
  8
0
 62
     7
 10
159.71848700000001
 20
159.51608699999991
 30
0.0
 40
0.124708
 50
2.1729729999999989
 51
87.827016999999998
  0
LINE
  5
117
  8
0
 62
     7
 10
156.9429999999999
 20
157.68000000000001
 30
0.0
 11
155.82299999999989
 21
157.68000000000001
 31
0.0
  0
LINE
  5
118
  8
0
 62
     7
 10
154.703
 20
157.68000000000001
 30
0.0
 11
155.82299999999989
 21
157.68000000000001
 31
0.0
  0
ARC
  5
119
  8
0
 62
     7
 10
151.92751000000001
 20
159.51608699999991
 30
0.0
 40
0.124708
 50
92.172962999999996
 51
177.82700700000001
  0
ARC
  5
11A
  8
0
 62
     7
 10
151.3913389999999
 20
160.45648799999989
 30
0.0
 40
0.348979
 50
110.29816699999991
 51
141.74983899999989
  0
ARC
  5
11B
  8
0
 62
     7
 10
151.43155999999999
 20
160.41134199999999
 30
0.0
 40
0.4086510000000001
 50
140.27011399999989
 51
179.65686600000001
  0
ARC
  5
11C
  8
0
 62
     7
 10
155.49524700000001
 20
121.396159
 30
0.0
 40
39.486145999999998
 50
89.524906000000001
 51
90.314003000000014
  0
ARC
  5
11D
  8
0
 62
     7
 10
155.78638799999999
 20
58.002133999999998
 30
0.0
 40
102.88083
 50
90.282651000000016
 51
92.515884999999997
  0
LINE
  5
11E
  8
0
 62
     7
 10
151.02299999999991
 20
159.08000000000001
 30
0.0
 11
151.02299999999991
 21
160.4139999999999
 31
0.0
  0
LINE
  5
11F
  8
0
 62
     7
 10
151.51400000000001
 20
157.97499999999991
 30
0.0
 11
151.63499999999991
 21
157.91699999999989
 31
0.0
  0
ARC
  5
120
  8
0
 62
     7
 10
151.5816209999999
 20
158.12725599999999
 30
0.0
 40
0.167123
 50
221.42703800000001
 51
245.94569899999999
  0
LINE
  5
121
  8
0
 62
     7
 10
152.37700000000001
 20
157.70099999999999
 30
0.0
 11
152.27699999999999
 21
157.601
 31
0.0
  0
LINE
  5
122
  8
0
 62
     7
 10
152.37700000000001
 20
157.70099999999999
 30
0.0
 11
152.27699999999999
 21
157.80099999999999
 31
0.0
  0
LINE
  5
123
  8
0
 62
     7
 10
152.37700000000001
 20
157.90000000000001
 30
0.0
 11
152.27699999999999
 21
157.80099999999999
 31
0.0
  0
LINE
  5
124
  8
0
 62
     7
 10
152.37700000000001
 20
157.90000000000001
 30
0.0
 11
152.27699999999999
 21
158.001
 31
0.0
  0
LINE
  5
125
  8
0
 62
     7
 10
152.37700000000001
 20
158.101
 30
0.0
 11
152.27699999999999
 21
158.001
 31
0.0
  0
LINE
  5
126
  8
0
 62
     7
 10
152.37700000000001
 20
158.101
 30
0.0
 11
152.27699999999999
 21
158.20099999999991
 31
0.0
  0
LINE
  5
127
  8
0
 62
     7
 10
152.37700000000001
 20
158.30099999999999
 30
0.0
 11
152.27699999999999
 21
158.20099999999991
 31
0.0
  0
LINE
  5
128
  8
0
 62
     7
 10
152.37700000000001
 20
158.30099999999999
 30
0.0
 11
152.27699999999999
 21
158.40000000000001
 31
0.0
  0
LINE
  5
129
  8
0
 62
     7
 10
152.37700000000001
 20
158.49999999999989
 30
0.0
 11
152.27699999999999
 21
158.40000000000001
 31
0.0
  0
LINE
  5
12A
  8
0
 62
     7
 10
152.37700000000001
 20
158.49999999999989
 30
0.0
 11
152.27699999999999
 21
158.60099999999991
 31
0.0
  0
LINE
  5
12B
  8
0
 62
     7
 10
152.37700000000001
 20
158.70099999999999
 30
0.0
 11
152.27699999999999
 21
158.60099999999991
 31
0.0
  0
LINE
  5
12C
  8
0
 62
     7
 10
152.37700000000001
 20
158.70099999999999
 30
0.0
 11
152.27699999999999
 21
158.80099999999999
 31
0.0
  0
ARC
  5
12D
  8
0
 62
     7
 10
153.645208
 20
159.34475599999999
 30
0.0
 40
0.515065
 50
90.291924999999978
 51
106.980147
  0
ARC
  5
12E
  8
0
 62
     7
 10
153.730133
 20
158.9862489999999
 30
0.0
 40
0.8830569999999999
 50
105.45675300000001
 51
126.408765
  0
ARC
  5
12F
  8
0
 62
     7
 10
153.51262700000001
 20
159.29025599999991
 30
0.0
 40
0.509321
 50
127.015323
 51
136.52237799999989
  0
ARC
  5
130
  8
0
 62
     7
 10
151.68496799999991
 20
158.03117900000001
 30
0.0
 40
0.124938
 50
246.31001800000001
 51
332.02893799999993
  0
ARC
  5
131
  8
0
 62
     7
 10
151.69663700000001
 20
158.0188259999999
 30
0.0
 40
0.108974
 50
334.88862099999989
 51
347.17056699999989
  0
LINE
  5
132
  8
0
 62
     7
 10
151.923
 20
159.64099999999991
 30
0.0
 11
152.4429999999999
 21
159.64099999999991
 31
0.0
  0
ARC
  5
133
  8
0
 62
     7
 10
152.43495999999999
 20
159.43285399999999
 30
0.0
 40
0.208006
 50
2.2135590000000001
 51
87.786431000000007
  0
LINE
  5
134
  8
0
 62
     7
 10
152.64299999999989
 20
159.001
 30
0.0
 11
152.27699999999999
 21
158.80099999999999
 31
0.0
  0
LINE
  5
135
  8
0
 62
     7
 10
152.64299999999989
 20
159.441
 30
0.0
 11
152.64299999999989
 21
159.001
 31
0.0
  0
LINE
  5
136
  8
0
 62
     7
 10
155.0029999999999
 20
160.6399999999999
 30
0.0
 11
154.9429999999999
 21
157.68000000000001
 31
0.0
  0
LINE
  5
137
  8
0
 62
     7
 10
154.703
 20
157.68000000000001
 30
0.0
 11
154.64199999999991
 21
160.02099999999999
 31
0.0
  0
LINE
  5
138
  8
0
 62
     7
 10
155.82299999999989
 20
160.6399999999999
 30
0.0
 11
155.0029999999999
 21
160.6399999999999
 31
0.0
  0
LINE
  5
139
  8
0
 62
     7
 10
154.64199999999991
 20
160.02099999999999
 30
0.0
 11
154.64199999999991
 21
160.881
 31
0.0
  0
ARC
  5
13A
  8
0
 62
     7
 10
155.124852
 20
160.94058200000001
 30
0.0
 40
0.118287
 50
210.27510499999991
 51
295.80855899999989
  0
ARC
  5
13B
  8
0
 62
     7
 10
155.13862800000001
 20
160.91180199999991
 30
0.0
 40
0.08638
 50
295.893373
 51
314.78233499999988
  0
ARC
  5
13C
  8
0
 62
     7
 10
155.124922
 20
160.93304499999991
 30
0.0
 40
0.111236
 50
312.084746
 51
332.072812
  0
LINE
  5
13D
  8
0
 62
     7
 10
155.82299999999989
 20
160.881
 30
0.0
 11
155.2229999999999
 21
160.881
 31
0.0
  0
LINE
  5
13E
  8
0
 62
     7
 10
155.02299999999991
 20
160.881
 30
0.0
 11
154.64199999999991
 21
160.881
 31
0.0
  0
ARC
  5
13F
  8
0
 62
     7
 10
155.39870899999991
 20
76.807022000000003
 30
0.0
 40
83.071356999999992
 50
90.518815000000004
 51
91.211310999999995
  0
LINE
  5
140
  8
0
 62
     7
 10
151.80299999999991
 20
159.52099999999999
 30
0.0
 11
151.80299999999991
 21
157.995
 31
0.0
  0
LINE
  5
141
  8
0
 62
     7
 10
151.80299999999991
 20
157.995
 30
0.0
 11
151.80299999999991
 21
157.995
 31
0.0
  0
ARC
  5
142
  8
0
 62
     7
 10
154.58077199999991
 20
159.92091300000001
 30
0.0
 40
3.6614689999999999
 50
194.11229900000001
 51
196.66467299999991
  0
ARC
  5
143
  8
0
 62
     7
 10
159.0112389999999
 20
161.190369
 30
0.0
 40
8.2700750000000003
 50
196.28788899999989
 51
199.95908600000001
  0
ARC
  5
144
  8
0
 62
     7
 10
151.17840100000001
 20
159.074274
 30
0.0
 40
0.155584
 50
177.94963300000001
 51
197.23965200000001
  0
ARC
  5
145
  8
0
 62
     7
 10
151.7067659999999
 20
158.50905700000001
 30
0.0
 40
0.489809
 50
196.81191699999991
 51
203.95722799999999
  0
ARC
  5
146
  8
0
 62
     7
 10
152.18098599999999
 20
158.71645499999991
 30
0.0
 40
1.0073939999999999
 50
203.784965
 51
223.99875599999999
  0
LINE
  5
147
  8
0
 62
     7
 10
151.80299999999991
 20
157.995
 30
0.0
 11
151.80299999999991
 21
157.995
 31
0.0
  0
LINE
  5
148
  8
0
 62
     7
 10
159.84299999999999
 20
159.52099999999999
 30
0.0
 11
159.84299999999999
 21
157.995
 31
0.0
  0
ARC
  5
149
  8
0
 62
     7
 10
159.96242699999991
 20
158.0300629999999
 30
0.0
 40
0.124472
 50
196.53991300000001
 51
282.41098499999993
  0
ARC
  5
14A
  8
0
 62
     7
 10
159.94955999999999
 20
158.04768300000001
 30
0.0
 40
0.144712
 50
285.88919299999998
 51
295.22291300000001
  0
LINE
  5
14B
  8
0
 62
     7
 10
160.13200000000001
 20
157.97499999999991
 30
0.0
 11
160.01099999999991
 21
157.91699999999989
 31
0.0
  0
ARC
  5
14C
  8
0
 62
     7
 10
160.05906999999991
 20
158.13567399999991
 30
0.0
 40
0.176693
 50
294.308832
 51
317.66477099999992
  0
ARC
  5
14D
  8
0
 62
     7
 10
159.86260999999999
 20
158.3669679999999
 30
0.0
 40
0.479251
 50
313.03701899999987
 51
320.34704900000003
  0
ARC
  5
14E
  8
0
 62
     7
 10
159.4524899999999
 20
158.7141729999999
 30
0.0
 40
1.0165919999999991
 50
320.03089699999998
 51
340.05466699999999
  0
ARC
  5
14F
  8
0
 62
     7
 10
156.90486699999991
 20
159.69909199999989
 30
0.0
 40
3.747812999999999
 50
339.18646200000001
 51
341.68656299999992
  0
ARC
  5
150
  8
0
 62
     7
 10
152.635143
 20
161.16675699999999
 30
0.0
 40
8.2626080000000002
 50
341.32793099999998
 51
344.9994759999999
  0
ARC
  5
151
  8
0
 62
     7
 10
160.46203199999991
 20
159.07501499999989
 30
0.0
 40
0.16112
 50
343.09477500000003
 51
1.71594
  0
TEXT
  5
152
  8
_________2
 62
     7
 10
24.586400000000001
 20
0.707627
 30
0.0
 40
3.9357000000000002
  1
カラー：ホワイト
 41
0.5
  0
TEXT
  5
153
  8
_________2
 62
     7
 10
109.179
 20
23.755500000000001
 30
0.0
 40
3.9357000000000002
  1
ふろふた／CEY21600SV6,V7用
 41
0.5
  0
LINE
  5
154
  8
_________2
 62
     7
 10
205.30099999999999
 20
127.411
 30
0.0
 11
183.55099999999999
 21
127.411
 31
0.0
  0
LINE
  5
155
  8
_________2
 62
     7
 10
100.2999999999999
 20
-4.0910799999999998
 30
0.0
 11
100.2999999999999
 21
-21.070999999999991
 31
0.0
  0
LINE
  5
156
  8
_________2
 62
     7
 10
100.2999999999999
 20
275.93099999999993
 30
0.0
 11
100.2999999999999
 21
258.911
 31
0.0
  0
LINE
  5
157
  8
_________2
 62
     7
 10
17.049199999999988
 20
127.411
 30
0.0
 11
-4.7012099999999988
 21
127.411
 31
0.0
  0
LINE
  5
158
  8
_________2
 62
     7
 10
76.740700000000004
 20
29.8047
 30
0.0
 11
74.554400000000001
 21
29.8047
 31
0.0
  0
LINE
  5
159
  8
_________2
 62
     7
 10
77.2333
 20
29.8047
 30
0.0
 11
76.981099999999984
 21
29.8047
 31
0.0
  0
LINE
  5
15A
  8
_________2
 62
     7
 10
77.725999999999999
 20
29.8047
 30
0.0
 11
80.650899999999993
 21
29.8047
 31
0.0
  0
LINE
  5
15B
  8
_________2
 62
     7
 10
77.2333
 20
29.8047
 30
0.0
 11
77.485500000000002
 21
29.8047
 31
0.0
  0
LINE
  5
15C
  8
_________2
 62
     7
 10
70.837100000000007
 20
29.8047
 30
0.0
 11
68.650199999999998
 21
29.8047
 31
0.0
  0
LINE
  5
15D
  8
_________2
 62
     7
 10
71.329099999999997
 20
29.8047
 30
0.0
 11
71.077600000000004
 21
29.8047
 31
0.0
  0
LINE
  5
15E
  8
_________2
 62
     7
 10
71.329099999999997
 20
30.2974
 30
0.0
 11
71.329099999999997
 21
32.484400000000001
 31
0.0
  0
LINE
  5
15F
  8
_________2
 62
     7
 10
71.329099999999997
 20
29.8047
 30
0.0
 11
71.329099999999997
 21
30.057300000000001
 31
0.0
  0
LINE
  5
160
  8
_________2
 62
     7
 10
71.821700000000007
 20
29.8047
 30
0.0
 11
74.008700000000005
 21
29.8047
 31
0.0
  0
LINE
  5
161
  8
_________2
 62
     7
 10
71.329099999999997
 20
29.8047
 30
0.0
 11
71.581299999999985
 21
29.8047
 31
0.0
  0
LINE
  5
162
  8
_________2
 62
     7
 10
71.329099999999997
 20
29.312799999999999
 30
0.0
 11
71.329099999999997
 21
27.126200000000001
 31
0.0
  0
LINE
  5
163
  8
_________2
 62
     7
 10
71.329099999999997
 20
29.8047
 30
0.0
 11
71.329099999999997
 21
29.5532
 31
0.0
  0
LINE
  5
164
  8
_________2
 62
     7
 10
75.040199999999999
 20
28.5852
 30
0.0
 11
80.218199999999996
 21
27.720400000000001
 31
0.0
  0
LINE
  5
165
  8
_________2
 62
     7
 10
75.040199999999999
 20
31.024699999999999
 30
0.0
 11
80.218199999999996
 21
31.8901
 31
0.0
  0
LINE
  5
166
  8
_________2
 62
     7
 10
80.218199999999996
 20
27.720400000000001
 30
0.0
 11
80.218199999999996
 21
31.8901
 31
0.0
  0
LINE
  5
167
  8
_________2
 62
     7
 10
75.040199999999999
 20
28.5852
 30
0.0
 11
75.040199999999999
 21
31.024699999999999
 31
0.0
  0
ARC
  5
168
  8
_________2
 62
     7
 10
71.282501999999994
 20
29.757801000000001
 30
0.0
 40
1.267714
 50
2.1220840000000001
 51
87.894083999999992
  0
ARC
  5
169
  8
_________2
 62
     7
 10
71.375640000000004
 20
29.758545999999999
 30
0.0
 40
1.2669680000000001
 50
92.105782999999988
 51
177.91037
  0
ARC
  5
16A
  8
_________2
 62
     7
 10
71.376013999999998
 20
29.851671
 30
0.0
 40
1.2673680000000001
 50
182.12203600000001
 51
267.877993
  0
ARC
  5
16B
  8
_________2
 62
     7
 10
71.282195999999999
 20
29.852347999999999
 30
0.0
 40
1.2680439999999991
 50
272.11916400000001
 51
357.84848499999993
  0
ARC
  5
16C
  8
_________2
 62
     7
 10
71.248716999999985
 20
29.724731999999989
 30
0.0
 40
2.1668310000000002
 50
2.1161439999999989
 51
87.874379000000005
  0
ARC
  5
16D
  8
_________2
 62
     7
 10
71.408756000000011
 20
29.726146
 30
0.0
 40
2.165392999999999
 50
92.108508999999998
 51
177.91986499999999
  0
ARC
  5
16E
  8
_________2
 62
     7
 10
71.409094999999994
 20
29.884751999999999
 30
0.0
 40
2.1657829999999998
 50
182.117133
 51
267.88289700000001
  0
ARC
  5
16F
  8
_________2
 62
     7
 10
71.249115000000003
 20
29.885429999999989
 30
0.0
 40
2.1664590000000001
 50
272.11546800000002
 51
357.86560400000002
  0
TEXT
  5
170
  8
_________2
 62
     7
 10
104.605
 20
1.6794899999999999
 30
0.0
 40
3.0923400000000001
  1
図番
 41
0.5
  0
LINE
  5
171
  8
_________2
 62
     7
 10
103.55
 20
5.9087199999999989
 30
0.0
 11
183.55099999999999
 21
5.9087199999999989
 31
0.0
  0
TEXT
  5
172
  8
_________2
 62
     7
 10
104.605
 20
11.679299999999991
 30
0.0
 40
3.0923400000000001
  1
品番
 41
0.5
  0
TEXT
  5
173
  8
_________2
 62
     7
 10
104.605
 20
31.8184
 30
0.0
 40
3.0923400000000001
  1
名称
 41
0.5
  0
TEXT
  5
174
  8
_________2
 62
     7
 10
91.844758333333345
 20
26.822299999999998
 30
0.0
 40
3.6545800000000002
  1
mm
 41
0.5
 72
     1
 11
93.367500000000007
 21
26.822299999999998
 31
0.0
  0
TEXT
  5
175
  8
_________2
 62
     7
 10
85.642899999999983
 20
31.8184
 30
0.0
 40
3.0923400000000001
  1
単位
 41
0.5
  0
TEXT
  5
176
  8
_________2
 62
     7
 10
85.642899999999983
 20
19.410799999999991
 30
0.0
 40
3.0923400000000001
  1
尺度
 41
0.5
  0
TEXT
  5
177
  8
_________2
 62
     7
 10
90.091636166666675
 20
13.218199999999991
 30
0.0
 40
3.6545800000000002
  1
1 ： 10
 41
0.5
 72
     1
 11
93.959400000000016
 21
13.218199999999991
 31
0.0
  0
TEXT
  5
178
  8
_________2
 62
     7
 10
136.17056249999999
 20
9.1082000000000001
 30
0.0
 40
3.9357000000000002
  1
CEY90111R
 41
0.5
 72
     1
 11
143.55000000000001
 21
9.1082000000000001
 31
0.0
  0
TEXT
  5
179
  8
_________2
 62
     7
 10
136.17056249999999
 20
-0.8926299999999999
 30
0.0
 40
3.9357000000000002
  1
CEY90111R
 41
0.5
 72
     1
 11
143.55000000000001
 21
-0.8926299999999999
 31
0.0
  0
TEXT
  5
17A
  8
_________2
 62
     7
 10
39.42500033333333
 20
13.603400000000001
 30
0.0
 40
3.6545800000000002
  1
早川
 41
0.5
 72
     1
 11
41.313200000000002
 21
13.603400000000001
 31
0.0
  0
TEXT
  5
17B
  8
_________2
 62
     7
 10
20.790090666666661
 20
13.603400000000001
 30
0.0
 40
3.6545800000000002
  1
石原
 41
0.5
 72
     1
 11
22.73919999999999
 21
13.603400000000001
 31
0.0
  0
TEXT
  5
17C
  8
_________2
 62
     7
 10
67.785399999999996
 20
13.218199999999991
 30
0.0
 40
3.6545800000000002
  1
13.12.05
 41
0.5
  0
TEXT
  5
17D
  8
_________2
 62
     7
 10
66.592699999999994
 20
19.410799999999991
 30
0.0
 40
3.0923400000000001
  1
日付
 41
0.5
  0
TEXT
  5
17E
  8
_________2
 62
     7
 10
29.638999999999999
 20
19.410799999999991
 30
0.0
 40
3.0923400000000001
  1
検図
 41
0.5
  0
TEXT
  5
17F
  8
_________2
 62
     7
 10
18.020700000000001
 20
5.21143
 30
0.0
 40
3.0923400000000001
  1
備考
 41
0.5
  0
TEXT
  5
180
  8
_________2
 62
     7
 10
18.020700000000001
 20
19.410799999999991
 30
0.0
 40
3.0923400000000001
  1
製図
 41
0.5
  0
TEXT
  5
181
  8
_________2
 62
     7
 10
23.788165333333328
 20
27.936800000000002
 30
0.0
 40
4.4979399999999989
  1
セラトレーディング株式会社
 41
0.5
 72
     1
 11
41.180199999999999
 21
27.936800000000002
 31
0.0
  0
LINE
  5
182
  8
_________2
 62
     7
 10
183.55099999999999
 20
-4.0910799999999998
 30
0.0
 11
17.049199999999988
 21
-4.0910799999999998
 31
0.0
  0
LINE
  5
183
  8
_________2
 62
     7
 10
17.049199999999988
 20
-4.0910799999999998
 30
0.0
 11
17.049199999999988
 21
258.911
 31
0.0
  0
LINE
  5
184
  8
_________2
 62
     7
 10
17.049199999999988
 20
258.911
 30
0.0
 11
183.55099999999999
 21
258.911
 31
0.0
  0
LINE
  5
185
  8
_________2
 62
     7
 10
183.55099999999999
 20
258.911
 30
0.0
 11
183.55099999999999
 21
-4.0910799999999998
 31
0.0
  0
LINE
  5
186
  8
_________2
 62
     7
 10
65.549599999999998
 20
9.4092999999999982
 30
0.0
 11
65.549599999999998
 21
35.909100000000002
 31
0.0
  0
LINE
  5
187
  8
_________2
 62
     7
 10
84.549400000000006
 20
9.4092999999999982
 30
0.0
 11
84.549400000000006
 21
35.909100000000002
 31
0.0
  0
LINE
  5
188
  8
_________2
 62
     7
 10
103.55
 20
-4.0910799999999998
 30
0.0
 11
103.55
 21
35.909100000000002
 31
0.0
  0
LINE
  5
189
  8
_________2
 62
     7
 10
28.548999999999999
 20
9.4092999999999982
 30
0.0
 11
28.548999999999999
 21
23.409199999999998
 31
0.0
  0
LINE
  5
18A
  8
_________2
 62
     7
 10
17.049199999999988
 20
9.4092999999999982
 30
0.0
 11
103.55
 21
9.4092999999999982
 31
0.0
  0
LINE
  5
18B
  8
_________2
 62
     7
 10
17.049199999999988
 20
23.409199999999998
 30
0.0
 11
103.55
 21
23.409199999999998
 31
0.0
  0
LINE
  5
18C
  8
_________2
 62
     7
 10
103.55
 20
15.9085
 30
0.0
 11
183.55099999999999
 21
15.9085
 31
0.0
  0
LINE
  5
18D
  8
_________2
 62
     7
 10
17.049199999999988
 20
35.909100000000002
 30
0.0
 11
183.55099999999999
 21
35.909100000000002
 31
0.0
  0
ENDSEC
  0
EOF
