  0
SECTION
  2
HEADER
  9
$ACADVER
  1
AC1009
  9
$INSBASE
 10
0.0
 20
0.0
 30
0.0
  9
$EXTMIN
 10
-4.7010300000000003
 20
-21.070999999999991
 30
0.0
  9
$EXTMAX
 10
205.30099999999999
 20
275.93099999999993
 30
0.0
  9
$LIMMIN
 10
0.0
 20
0.0
  9
$LIMMAX
 10
12.0
 20
9.0
  9
$ORTHOMODE
 70
     0
  9
$REGENMODE
 70
     1
  9
$FILLMODE
 70
     1
  9
$QTEXTMODE
 70
     0
  9
$MIRRTEXT
 70
     1
  9
$DRAGMODE
 70
     2
  9
$LTSCALE
 40
1.0
  9
$OSMODE
 70
    37
  9
$ATTMODE
 70
     1
  9
$TEXTSIZE
 40
0.0
  9
$TRACEWID
 40
0.05
  9
$TEXTSTYLE
  7
STANDARD
  9
$CLAYER
  8
0
  9
$CELTYPE
  6
CONTINUOUS
  9
$CECOLOR
 62
   256
  9
$DIMSCALE
 40
1.0
  9
$DIMASZ
 40
0.18
  9
$DIMEXO
 40
0.0625
  9
$DIMDLI
 40
0.38
  9
$DIMRND
 40
0.0
  9
$DIMDLE
 40
0.0
  9
$DIMEXE
 40
0.18
  9
$DIMTP
 40
0.0
  9
$DIMTM
 40
0.0
  9
$DIMTXT
 40
0.18
  9
$DIMCEN
 40
0.09
  9
$DIMTSZ
 40
0.0
  9
$DIMTOL
 70
     0
  9
$DIMLIM
 70
     0
  9
$DIMTIH
 70
     1
  9
$DIMTOH
 70
     1
  9
$DIMSE1
 70
     0
  9
$DIMSE2
 70
     0
  9
$DIMTAD
 70
     0
  9
$DIMZIN
 70
     0
  9
$DIMBLK
  1

  9
$DIMASO
 70
     1
  9
$DIMSHO
 70
     1
  9
$DIMPOST
  1

  9
$DIMAPOST
  1

  9
$DIMALT
 70
     0
  9
$DIMALTD
 70
     2
  9
$DIMALTF
 40
25.399999999999999
  9
$DIMLFAC
 40
1.0
  9
$DIMTOFL
 70
     0
  9
$DIMTVP
 40
0.0
  9
$DIMTIX
 70
     0
  9
$DIMSOXD
 70
     0
  9
$DIMSAH
 70
     0
  9
$DIMBLK1
  1

  9
$DIMBLK2
  1

  9
$DIMSTYLE
  2
STANDARD
  9
$DIMCLRD
 70
     0
  9
$DIMCLRE
 70
     0
  9
$DIMCLRT
 70
     0
  9
$DIMTFAC
 40
1.0
  9
$DIMGAP
 40
0.09
  9
$LUNITS
 70
     2
  9
$LUPREC
 70
     4
  9
$SKETCHINC
 40
0.1
  9
$FILLETRAD
 40
0.0
  9
$AUNITS
 70
     0
  9
$AUPREC
 70
     0
  9
$MENU
  1
.
  9
$ELEVATION
 40
0.0
  9
$PELEVATION
 40
0.0
  9
$THICKNESS
 40
0.0
  9
$LIMCHECK
 70
     0
  9
$BLIPMODE
 70
     0
  9
$CHAMFERA
 40
0.0
  9
$CHAMFERB
 40
0.0
  9
$SKPOLY
 70
     0
  9
$TDCREATE
 40
2444972.375
  9
$TDUPDATE
 40
2456644.2467549881
  9
$TDINDWG
 40
0.0000051273
  9
$TDUSRTIMER
 40
0.0000051273
  9
$USRTIMER
 70
     1
  9
$ANGBASE
 50
0.0
  9
$ANGDIR
 70
     0
  9
$PDMODE
 70
     0
  9
$PDSIZE
 40
0.0
  9
$PLINEWID
 40
0.0
  9
$COORDS
 70
     1
  9
$SPLFRAME
 70
     0
  9
$SPLINETYPE
 70
     6
  9
$SPLINESEGS
 70
     8
  9
$ATTDIA
 70
     0
  9
$ATTREQ
 70
     1
  9
$HANDLING
 70
     1
  9
$HANDSEED
  5
158
  9
$SURFTAB1
 70
     6
  9
$SURFTAB2
 70
     6
  9
$SURFTYPE
 70
     6
  9
$SURFU
 70
     6
  9
$SURFV
 70
     6
  9
$UCSNAME
  2

  9
$UCSORG
 10
0.0
 20
0.0
 30
0.0
  9
$UCSXDIR
 10
1.0
 20
0.0
 30
0.0
  9
$UCSYDIR
 10
0.0
 20
1.0
 30
0.0
  9
$PUCSNAME
  2

  9
$PUCSORG
 10
0.0
 20
0.0
 30
0.0
  9
$PUCSXDIR
 10
1.0
 20
0.0
 30
0.0
  9
$PUCSYDIR
 10
0.0
 20
1.0
 30
0.0
  9
$USERI1
 70
     0
  9
$USERI2
 70
     0
  9
$USERI3
 70
     0
  9
$USERI4
 70
     0
  9
$USERI5
 70
     0
  9
$USERR1
 40
0.0
  9
$USERR2
 40
0.0
  9
$USERR3
 40
0.0
  9
$USERR4
 40
0.0
  9
$USERR5
 40
0.0
  9
$WORLDVIEW
 70
     1
  9
$SHADEDGE
 70
     3
  9
$SHADEDIF
 70
    70
  9
$TILEMODE
 70
     1
  9
$MAXACTVP
 70
    48
  9
$PLIMCHECK
 70
     0
  9
$PEXTMIN
 10
1.0000000000000000E+020
 20
1.0000000000000000E+020
 30
1.0000000000000000E+020
  9
$PEXTMAX
 10
-1.0000000000000000E+020
 20
-1.0000000000000000E+020
 30
-1.0000000000000000E+020
  9
$PLIMMIN
 10
0.0
 20
0.0
  9
$PLIMMAX
 10
12.0
 20
9.0
  9
$UNITMODE
 70
     0
  9
$VISRETAIN
 70
     1
  9
$PLINEGEN
 70
     0
  9
$PSLTSCALE
 70
     1
  0
ENDSEC
  0
SECTION
  2
TABLES
  0
TABLE
  2
VPORT
 70
     2
  0
VPORT
  2
*ACTIVE
 70
     0
 10
0.0
 20
0.0
 11
1.0
 21
1.0
 12
202.006391769564
 22
127.42999999999989
 13
0.0
 23
0.0
 14
1.0
 24
1.0
 15
0.0
 25
0.0
 16
0.0
 26
0.0
 36
1.0
 17
0.0
 27
0.0
 37
0.0
 40
299.45318569463541
 41
2.2894736842105261
 42
50.0
 43
0.0
 44
0.0
 50
0.0
 51
0.0
 71
     0
 72
   100
 73
     1
 74
     1
 75
     0
 76
     0
 77
     0
 78
     0
  0
ENDTAB
  0
TABLE
  2
LTYPE
 70
     2
  0
LTYPE
  2
CONTINUOUS
 70
     0
  3
Solid line
 72
    65
 73
     0
 40
0.0
  0
LTYPE
  2
AIGENLINE001
 70
     0
  3
generate AI->DXF Converter
 72
    65
 73
     4
 40
5.8561449999999988
 49
3.5278
 49
-0.776115
 49
0.776115
 49
-0.776115
  0
ENDTAB
  0
TABLE
  2
LAYER
 70
     2
  0
LAYER
  2
0
 70
     0
 62
     7
  6
CONTINUOUS
  0
LAYER
  2
_________2
 70
     0
 62
     7
  6
CONTINUOUS
  0
ENDTAB
  0
TABLE
  2
STYLE
 70
     1
  0
STYLE
  2
STANDARD
 70
     0
 40
0.0
 41
0.0
 50
0.0
 71
     0
 42
0.0
  3
TXT
  4
EXTFONT.SHX
  0
ENDTAB
  0
TABLE
  2
VIEW
 70
     0
  0
ENDTAB
  0
TABLE
  2
UCS
 70
     0
  0
ENDTAB
  0
TABLE
  2
APPID
 70
     1
  0
APPID
  2
ACAD
 70
     0
  0
ENDTAB
  0
TABLE
  2
DIMSTYLE
 70
     1
  0
DIMSTYLE
  2
STANDARD
 70
     0
  3

  4

  5

  6

  7

 40
1.0
 41
0.18
 42
0.0625
 43
0.38
 44
0.18
 45
0.0
 46
0.0
 47
0.0
 48
0.0
140
0.18
141
0.09
142
0.0
143
25.399999999999999
144
1.0
145
0.0
146
1.0
147
0.09
 71
     0
 72
     0
 73
     1
 74
     1
 75
     0
 76
     0
 77
     0
 78
     0
170
     0
171
     2
172
     0
173
     0
174
     0
175
     0
176
     0
177
     0
178
     0
  0
ENDTAB
  0
ENDSEC
  0
SECTION
  2
BLOCKS
  0
BLOCK
  8
0
  2
$MODEL_SPACE
 70
     0
 10
0.0
 20
0.0
 30
0.0
  3
$MODEL_SPACE
  1

  0
ENDBLK
  5
1A
  8
0
  0
BLOCK
 67
     1
  8
0
  2
$PAPER_SPACE
 70
     0
 10
0.0
 20
0.0
 30
0.0
  3
$PAPER_SPACE
  1

  0
ENDBLK
  5
17
 67
     1
  8
0
  0
ENDSEC
  0
SECTION
  2
ENTITIES
  0
TEXT
  5
22
  8
0
 62
     7
 10
53.289099999999998
 20
172.80544
 30
0.0
 40
3.0923400000000001
  1
735
 50
90.0
 41
0.5
 72
     1
 11
53.289099999999998
 21
174.86699999999999
 31
0.0
  0
TEXT
  5
23
  8
0
 62
     7
 10
155.28459249999989
 20
220.51899999999989
 30
0.0
 40
3.0923400000000001
  1
(20)
 41
0.5
 72
     1
 11
157.47499999999991
 21
220.51899999999989
 31
0.0
  0
TEXT
  5
24
  8
0
 62
     7
 10
156.44422
 20
190.09599999999989
 30
0.0
 40
3.0923400000000001
  1
16
 41
0.5
 72
     1
 11
157.47499999999991
 21
190.09599999999989
 31
0.0
  0
TEXT
  5
25
  8
0
 62
     7
 10
150.1049229999999
 20
179.726
 30
0.0
 40
3.0923400000000001
  1
A-A断面 （2:1）
 41
0.5
 72
     1
 11
157.47499999999991
 21
179.726
 31
0.0
  0
TEXT
  5
26
  8
0
 62
     7
 10
95.637987500000008
 20
231.77799999999991
 30
0.0
 40
3.0923400000000001
  1
660
 41
0.5
 72
     1
 11
97.570700000000002
 21
231.77799999999991
 31
0.0
  0
TEXT
  5
27
  8
0
 62
     7
 10
79.137787500000002
 20
223.14500000000001
 30
0.0
 40
3.0923400000000001
  1
330
 41
0.5
 72
     1
 11
81.070499999999996
 21
223.14500000000001
 31
0.0
  0
TEXT
  5
28
  8
0
 62
     7
 10
106.79000000000001
 20
203.58060999999989
 30
0.0
 40
3.0923400000000001
  1
A
 50
90.0
 41
0.5
 72
     1
 11
106.79000000000001
 21
204.09599999999989
 31
0.0
  0
TEXT
  5
29
  8
0
 62
     7
 10
106.789
 20
217.83661000000001
 30
0.0
 40
3.0923400000000001
  1
A
 50
90.0
 41
0.5
 72
     1
 11
106.789
 21
218.352
 31
0.0
  0
TEXT
  5
2A
  8
0
 62
     7
 10
43.738199999999999
 20
135.66889750000001
 30
0.0
 40
3.0923400000000001
  1
1470
 50
90.0
 41
0.5
 72
     1
 11
43.738199999999999
 21
138.11699999999999
 31
0.0
  0
LINE
  5
2B
  8
0
 62
     7
 10
117.571
 20
146.11699999999999
 30
0.0
 11
117.571
 21
141.61699999999999
 31
0.0
  0
LINE
  5
2C
  8
0
 62
     7
 10
117.571
 20
146.11699999999999
 30
0.0
 11
127.071
 21
146.11699999999999
 31
0.0
  0
LINE
  5
2D
  8
0
 62
     7
 10
127.071
 20
141.61699999999999
 30
0.0
 11
117.571
 21
141.61699999999999
 31
0.0
  0
LINE
  5
2E
  8
0
 62
     7
 10
127.071
 20
146.11699999999999
 30
0.0
 11
127.071
 21
141.61699999999999
 31
0.0
  0
LINE
  5
2F
  8
0
 62
     7
 10
97.534499999999994
 20
137.37
 30
0.0
 11
65.317700000000002
 21
137.37
 31
0.0
  0
LINE
  5
30
  8
0
 62
     7
 10
97.534499999999994
 20
138.11699999999999
 30
0.0
 11
65.075500000000005
 21
138.11699999999999
 31
0.0
  0
ARC
  5
31
  8
0
 62
     7
 10
65.094988000000001
 20
137.59297399999991
 30
0.0
 40
0.524895
 50
92.126749000000004
 51
177.873221
  0
ARC
  5
32
  8
0
 62
     7
 10
130.046784
 20
137.5929689999999
 30
0.0
 40
0.5249000000000001
 50
2.1272980000000001
 51
87.872692999999998
  0
LINE
  5
33
  8
0
 62
     7
 10
129.75200000000001
 20
137.37
 30
0.0
 11
97.534499999999994
 21
137.37
 31
0.0
  0
LINE
  5
34
  8
0
 62
     7
 10
129.994
 20
138.11699999999999
 30
0.0
 11
97.534499999999994
 21
138.11699999999999
 31
0.0
  0
ARC
  5
35
  8
0
 62
     7
 10
65.094993000000002
 20
65.14115799999999
 30
0.0
 40
0.5249000000000001
 50
182.12731699999989
 51
267.87271199999998
  0
ARC
  5
36
  8
0
 62
     7
 10
65.094964000000004
 20
211.09318399999989
 30
0.0
 40
0.524883
 50
92.124139999999997
 51
177.83673400000001
  0
ARC
  5
37
  8
0
 62
     7
 10
130.04679400000001
 20
65.141148000000001
 30
0.0
 40
0.52489
 50
272.1262319999999
 51
357.8737779999999
  0
ARC
  5
38
  8
0
 62
     7
 10
130.047133
 20
211.09350299999991
 30
0.0
 40
0.524552
 50
2.1296889999999991
 51
87.909396999999998
  0
LINE
  5
39
  8
0
 62
     7
 10
65.075500000000005
 20
211.61799999999991
 30
0.0
 11
130.066
 21
211.61799999999991
 31
0.0
  0
LINE
  5
3A
  8
0
 62
     7
 10
65.317700000000002
 20
210.8709999999999
 30
0.0
 11
129.8239999999999
 21
210.8709999999999
 31
0.0
  0
LINE
  5
3B
  8
0
 62
     7
 10
65.317700000000002
 20
65.363900000000001
 30
0.0
 11
129.8239999999999
 21
65.363900000000001
 31
0.0
  0
LINE
  5
3C
  8
0
 62
     7
 10
65.075500000000005
 20
64.616600000000005
 30
0.0
 11
130.066
 21
64.616600000000005
 31
0.0
  0
LINE
  5
3D
  8
0
 62
     7
 10
129.8239999999999
 20
65.363900000000001
 30
0.0
 11
129.8239999999999
 21
137.37
 31
0.0
  0
LINE
  5
3E
  8
0
 62
     7
 10
130.57099999999991
 20
65.121700000000004
 30
0.0
 11
130.57099999999991
 21
137.61199999999999
 31
0.0
  0
LINE
  5
3F
  8
0
 62
     7
 10
65.317700000000002
 20
137.37
 30
0.0
 11
65.317700000000002
 21
65.363900000000001
 31
0.0
  0
LINE
  5
40
  8
0
 62
     7
 10
64.570499999999996
 20
137.61199999999999
 30
0.0
 11
64.570499999999996
 21
65.121700000000004
 31
0.0
  0
LINE
  5
41
  8
0
 62
     7
 10
97.534499999999994
 20
138.11699999999999
 30
0.0
 11
65.075500000000005
 21
138.11699999999999
 31
0.0
  0
LINE
  5
42
  8
0
 62
     7
 10
97.534499999999994
 20
138.864
 30
0.0
 11
65.317700000000002
 21
138.864
 31
0.0
  0
ARC
  5
43
  8
0
 62
     7
 10
65.094993000000002
 20
138.64170100000001
 30
0.0
 40
0.5249000000000001
 50
182.12731699999989
 51
267.87271199999998
  0
ARC
  5
44
  8
0
 62
     7
 10
130.04679400000001
 20
138.64169099999989
 30
0.0
 40
0.52489
 50
272.1262319999999
 51
357.8737779999999
  0
LINE
  5
45
  8
0
 62
     7
 10
129.994
 20
138.11699999999999
 30
0.0
 11
97.534499999999994
 21
138.11699999999999
 31
0.0
  0
LINE
  5
46
  8
0
 62
     7
 10
129.75200000000001
 20
138.864
 30
0.0
 11
97.534499999999994
 21
138.864
 31
0.0
  0
LINE
  5
47
  8
0
 62
     7
 10
64.570499999999996
 20
138.62200000000001
 30
0.0
 11
64.570499999999996
 21
211.113
 31
0.0
  0
LINE
  5
48
  8
0
 62
     7
 10
130.57099999999991
 20
211.113
 30
0.0
 11
130.57099999999991
 21
138.62200000000001
 31
0.0
  0
LINE
  5
49
  8
0
 62
     7
 10
65.317700000000002
 20
138.864
 30
0.0
 11
65.317700000000002
 21
210.8709999999999
 31
0.0
  0
LINE
  5
4A
  8
0
 62
     7
 10
129.8239999999999
 20
210.8709999999999
 30
0.0
 11
129.8239999999999
 21
138.864
 31
0.0
  0
LINE
  5
4B
  8
0
  6
AIGENLINE001
 62
     7
 10
59.218499999999999
 20
138.11699999999999
 30
0.0
 11
136.7179999999999
 21
138.11699999999999
 31
0.0
  0
LINE
  5
4C
  8
0
  6
AIGENLINE001
 62
     7
 10
97.571100000000001
 20
57.707399999999993
 30
0.0
 11
97.571100000000001
 21
214.91399999999999
 31
0.0
  0
LINE
  5
4D
  8
0
 62
     7
 10
97.570700000000002
 20
224.09599999999989
 30
0.0
 11
97.570700000000002
 21
215.76400000000001
 31
0.0
  0
LINE
  5
4E
  8
0
 62
     7
 10
58.5184
 20
138.11699999999999
 30
0.0
 11
52.1053
 21
138.11699999999999
 31
0.0
  0
LINE
  5
4F
  8
0
 62
     7
 10
53.411000000000001
 20
140.328
 30
0.0
 11
54.003599999999999
 21
138.11699999999999
 31
0.0
  0
LINE
  5
50
  8
0
 62
     7
 10
54.003599999999999
 20
138.11699999999999
 30
0.0
 11
54.59620000000001
 21
140.328
 31
0.0
  0
LINE
  5
51
  8
0
 62
     7
 10
54.59620000000001
 20
140.328
 30
0.0
 11
53.411000000000001
 21
140.328
 31
0.0
  0
LINE
  5
52
  8
0
 62
     7
 10
54.581699999999991
 20
209.40599999999989
 30
0.0
 11
53.989100000000001
 21
211.61799999999991
 31
0.0
  0
LINE
  5
53
  8
0
 62
     7
 10
53.989100000000001
 20
211.61799999999991
 30
0.0
 11
53.396599999999999
 21
209.40599999999989
 31
0.0
  0
LINE
  5
54
  8
0
 62
     7
 10
53.396599999999999
 20
209.40599999999989
 30
0.0
 11
54.581699999999991
 21
209.40599999999989
 31
0.0
  0
LINE
  5
55
  8
0
 62
     7
 10
53.989100000000001
 20
138.11699999999999
 30
0.0
 11
53.989100000000001
 21
211.61799999999991
 31
0.0
  0
LINE
  5
56
  8
0
 62
     7
 10
154.88599999999991
 20
219.35499999999999
 30
0.0
 11
152.67500000000001
 21
218.76199999999989
 31
0.0
  0
LINE
  5
57
  8
0
 62
     7
 10
152.67500000000001
 20
218.76199999999989
 30
0.0
 11
154.88599999999991
 21
218.1699999999999
 31
0.0
  0
LINE
  5
58
  8
0
 62
     7
 10
154.88599999999991
 20
218.1699999999999
 30
0.0
 11
154.88599999999991
 21
219.35499999999999
 31
0.0
  0
LINE
  5
59
  8
0
 62
     7
 10
160.0629999999999
 20
218.184
 30
0.0
 11
162.27500000000001
 21
218.7769999999999
 31
0.0
  0
LINE
  5
5A
  8
0
 62
     7
 10
162.27500000000001
 20
218.7769999999999
 30
0.0
 11
160.0629999999999
 21
219.369
 31
0.0
  0
LINE
  5
5B
  8
0
 62
     7
 10
160.0629999999999
 20
219.369
 30
0.0
 11
160.0629999999999
 21
218.184
 31
0.0
  0
LINE
  5
5C
  8
0
 62
     7
 10
152.67500000000001
 20
218.76199999999989
 30
0.0
 11
162.27500000000001
 21
218.76199999999989
 31
0.0
  0
LINE
  5
5D
  8
0
 62
     7
 10
162.27500000000001
 20
211.6509999999999
 30
0.0
 11
162.27500000000001
 21
220.55000000000001
 31
0.0
  0
LINE
  5
5E
  8
0
 62
     7
 10
152.67500000000001
 20
211.6509999999999
 30
0.0
 11
152.67500000000001
 21
220.55000000000001
 31
0.0
  0
LINE
  5
5F
  8
0
 62
     7
 10
161.47499999999991
 20
187.4199999999999
 30
0.0
 11
161.47499999999991
 21
198.61799999999999
 31
0.0
  0
LINE
  5
60
  8
0
 62
     7
 10
153.47499999999999
 20
187.4199999999999
 30
0.0
 11
153.47499999999999
 21
198.61799999999999
 31
0.0
  0
LINE
  5
61
  8
0
 62
     7
 10
155.68600000000001
 20
189.5749999999999
 30
0.0
 11
153.47499999999999
 21
188.983
 31
0.0
  0
LINE
  5
62
  8
0
 62
     7
 10
153.47499999999999
 20
188.983
 30
0.0
 11
155.68600000000001
 21
188.3899999999999
 31
0.0
  0
LINE
  5
63
  8
0
 62
     7
 10
155.68600000000001
 20
188.3899999999999
 30
0.0
 11
155.68600000000001
 21
189.5749999999999
 31
0.0
  0
LINE
  5
64
  8
0
 62
     7
 10
159.26400000000001
 20
188.405
 30
0.0
 11
161.47499999999991
 21
188.99700000000001
 31
0.0
  0
LINE
  5
65
  8
0
 62
     7
 10
161.47499999999991
 20
188.99700000000001
 30
0.0
 11
159.26400000000001
 21
189.59
 31
0.0
  0
LINE
  5
66
  8
0
 62
     7
 10
159.26400000000001
 20
189.59
 30
0.0
 11
159.26400000000001
 21
188.405
 31
0.0
  0
LINE
  5
67
  8
0
 62
     7
 10
153.47499999999999
 20
188.983
 30
0.0
 11
161.47499999999991
 21
188.983
 31
0.0
  0
LINE
  5
68
  8
0
 62
     7
 10
161.155
 20
202.77500000000001
 30
0.0
 11
154.64099999999991
 21
209.28800000000001
 31
0.0
  0
LINE
  5
69
  8
0
 62
     7
 10
161.155
 20
201.31999999999991
 30
0.0
 11
154.46000000000001
 21
208.0149999999999
 31
0.0
  0
LINE
  5
6A
  8
0
 62
     7
 10
161.155
 20
199.8649999999999
 30
0.0
 11
153.7949999999999
 21
207.22499999999991
 31
0.0
  0
LINE
  5
6B
  8
0
 62
     7
 10
160.80899999999991
 20
198.75599999999989
 30
0.0
 11
153.7949999999999
 21
205.7709999999999
 31
0.0
  0
LINE
  5
6C
  8
0
 62
     7
 10
159.74700000000001
 20
198.36500000000001
 30
0.0
 11
153.7949999999999
 21
204.31599999999989
 31
0.0
  0
LINE
  5
6D
  8
0
 62
     7
 10
162.27500000000001
 20
199.61500000000001
 30
0.0
 11
162.27500000000001
 21
209.791
 31
0.0
  0
LINE
  5
6E
  8
0
 62
     7
 10
161.47499999999991
 20
199.09499999999991
 30
0.0
 11
161.47499999999991
 21
210.25700000000001
 31
0.0
  0
LINE
  5
6F
  8
0
 62
     7
 10
153.47499999999999
 20
210.25700000000001
 30
0.0
 11
153.47499999999999
 21
199.11699999999999
 31
0.0
  0
LINE
  5
70
  8
0
 62
     7
 10
152.67500000000001
 20
209.81700000000001
 30
0.0
 11
152.67500000000001
 21
199.643
 31
0.0
  0
LINE
  5
71
  8
0
 62
     7
 10
153.7949999999999
 20
210.25700000000001
 30
0.0
 11
153.7949999999999
 21
198.9429999999999
 31
0.0
  0
LINE
  5
72
  8
0
 62
     7
 10
161.155
 20
198.92199999999991
 30
0.0
 11
161.155
 21
210.25700000000001
 31
0.0
  0
LINE
  5
73
  8
0
 62
     7
 10
158.5449999999999
 20
198.1109999999999
 30
0.0
 11
153.7949999999999
 21
202.86199999999999
 31
0.0
  0
LINE
  5
74
  8
0
 62
     7
 10
157.15199999999999
 20
198.05000000000001
 30
0.0
 11
153.7949999999999
 21
201.40700000000001
 31
0.0
  0
LINE
  5
75
  8
0
 62
     7
 10
155.43700000000001
 20
198.31
 30
0.0
 11
153.7949999999999
 21
199.953
 31
0.0
  0
ARC
  5
76
  8
0
 62
     7
 10
157.49546699999991
 20
206.38412099999999
 30
0.0
 40
8.2865059999999993
 50
234.42971700000001
 51
305.22486400000003
  0
LINE
  5
77
  8
0
 62
     7
 10
160.54900000000001
 20
207.744
 30
0.0
 11
158.62700000000001
 21
209.66599999999991
 31
0.0
  0
LINE
  5
78
  8
0
 62
     7
 10
161.155
 20
205.684
 30
0.0
 11
158.42099999999991
 21
208.41699999999989
 31
0.0
  0
LINE
  5
79
  8
0
 62
     7
 10
161.155
 20
204.22900000000001
 30
0.0
 11
156.96600000000001
 21
208.41699999999989
 31
0.0
  0
LINE
  5
7A
  8
0
 62
     7
 10
160.92099999999999
 20
208.238
 30
0.0
 11
161.02099999999999
 21
208.33699999999999
 31
0.0
  0
LINE
  5
7B
  8
0
 62
     7
 10
160.155
 20
210.3769999999999
 30
0.0
 11
160.51599999999991
 21
207.82899999999989
 31
0.0
  0
LINE
  5
7C
  8
0
 62
     7
 10
154.7949999999999
 20
210.3769999999999
 30
0.0
 11
154.434
 21
207.82899999999989
 31
0.0
  0
LINE
  5
7D
  8
0
 62
     7
 10
154.02799999999991
 20
208.238
 30
0.0
 11
153.929
 21
208.33699999999999
 31
0.0
  0
LINE
  5
7E
  8
0
  6
AIGENLINE001
 62
     7
 10
157.47499999999991
 20
207.559
 30
0.0
 11
157.47499999999991
 21
212.535
 31
0.0
  0
LINE
  5
7F
  8
0
 62
     7
 10
161.155
 20
207.13799999999989
 30
0.0
 11
160.59999999999991
 21
207.6929999999999
 31
0.0
  0
LINE
  5
80
  8
0
 62
     7
 10
160.92099999999999
 20
208.0379999999999
 30
0.0
 11
161.101
 21
207.858
 31
0.0
  0
LINE
  5
81
  8
0
 62
     7
 10
161.101
 20
207.858
 30
0.0
 11
161.101
 21
207.77799999999991
 31
0.0
  0
LINE
  5
82
  8
0
 62
     7
 10
160.92099999999999
 20
208.238
 30
0.0
 11
161.02099999999999
 21
208.13800000000001
 31
0.0
  0
LINE
  5
83
  8
0
 62
     7
 10
160.92099999999999
 20
208.0379999999999
 30
0.0
 11
161.02099999999999
 21
208.13800000000001
 31
0.0
  0
ARC
  5
84
  8
0
 62
     7
 10
160.9762199999999
 20
207.78224199999991
 30
0.0
 40
0.124778
 50
272.05005199999988
 51
357.94995799999998
  0
LINE
  5
85
  8
0
 62
     7
 10
160.90100000000001
 20
207.6579999999999
 30
0.0
 11
160.714
 21
207.6579999999999
 31
0.0
  0
LINE
  5
86
  8
0
 62
     7
 10
160.98099999999991
 20
207.6579999999999
 30
0.0
 11
160.72499999999999
 21
207.6579999999999
 31
0.0
  0
ARC
  5
87
  8
0
 62
     7
 10
160.71944799999989
 20
207.86466699999991
 30
0.0
 40
0.207214
 50
189.78390799999991
 51
268.3115259999999
  0
ARC
  5
88
  8
0
 62
     7
 10
154.228971
 20
207.86547999999991
 30
0.0
 40
0.2080389999999999
 50
271.79518899999999
 51
350.124414
  0
LINE
  5
89
  8
0
 62
     7
 10
153.9679999999999
 20
207.6579999999999
 30
0.0
 11
154.2239999999999
 21
207.6579999999999
 31
0.0
  0
LINE
  5
8A
  8
0
 62
     7
 10
154.048
 20
207.6579999999999
 30
0.0
 11
154.23500000000001
 21
207.6579999999999
 31
0.0
  0
ARC
  5
8B
  8
0
 62
     7
 10
153.97322700000001
 20
207.78251399999991
 30
0.0
 40
0.12506
 50
182.17016499999991
 51
267.82986499999993
  0
LINE
  5
8C
  8
0
 62
     7
 10
154.02799999999991
 20
208.0379999999999
 30
0.0
 11
153.929
 21
208.13800000000001
 31
0.0
  0
LINE
  5
8D
  8
0
 62
     7
 10
154.02799999999991
 20
208.238
 30
0.0
 11
153.929
 21
208.13800000000001
 31
0.0
  0
LINE
  5
8E
  8
0
 62
     7
 10
153.8489999999999
 20
207.858
 30
0.0
 11
153.8489999999999
 21
207.77799999999991
 31
0.0
  0
LINE
  5
8F
  8
0
 62
     7
 10
154.02799999999991
 20
208.0379999999999
 30
0.0
 11
153.8489999999999
 21
207.858
 31
0.0
  0
LINE
  5
90
  8
0
 62
     7
 10
161.155
 20
210.048
 30
0.0
 11
160.827
 21
210.375
 31
0.0
  0
LINE
  5
91
  8
0
 62
     7
 10
160.28399999999999
 20
209.464
 30
0.0
 11
159.142
 21
210.60599999999991
 31
0.0
  0
LINE
  5
92
  8
0
 62
     7
 10
161.155
 20
208.5929999999999
 30
0.0
 11
161.0149999999999
 21
208.733
 31
0.0
  0
LINE
  5
93
  8
0
 62
     7
 10
156.30000000000001
 20
210.5379999999999
 30
0.0
 11
156.227
 21
210.61199999999991
 31
0.0
  0
LINE
  5
94
  8
0
 62
     7
 10
156.339
 20
209.0449999999999
 30
0.0
 11
154.9129999999999
 21
210.47099999999989
 31
0.0
  0
LINE
  5
95
  8
0
 62
     7
 10
154.22799999999989
 20
209.702
 30
0.0
 11
153.7949999999999
 21
210.13499999999999
 31
0.0
  0
LINE
  5
96
  8
0
 62
     7
 10
153.672
 20
210.25700000000001
 30
0.0
 11
153.553
 21
210.375
 31
0.0
  0
LINE
  5
97
  8
0
 62
     7
 10
153.93299999999991
 20
208.542
 30
0.0
 11
153.7949999999999
 21
208.68000000000001
 31
0.0
  0
LINE
  5
98
  8
0
 62
     7
 10
161.47499999999991
 20
210.25700000000001
 30
0.0
 11
161.155
 21
210.25700000000001
 31
0.0
  0
LINE
  5
99
  8
0
 62
     7
 10
153.47499999999999
 20
210.25700000000001
 30
0.0
 11
153.7949999999999
 21
210.25700000000001
 31
0.0
  0
LINE
  5
9A
  8
0
 62
     7
 10
159.655
 20
210.59700000000001
 30
0.0
 11
158.65100000000001
 21
210.61299999999989
 31
0.0
  0
LINE
  5
9B
  8
0
 62
     7
 10
158.27500000000001
 20
211.61799999999991
 30
0.0
 11
158.655
 21
211.61799999999991
 31
0.0
  0
ARC
  5
9C
  8
0
 62
     7
 10
158.17605499999999
 20
211.67619999999999
 30
0.0
 40
0.116702
 50
210.08135399999989
 51
296.63834100000003
  0
ARC
  5
9D
  8
0
 62
     7
 10
158.1743689999999
 20
211.67275000000001
 30
0.0
 40
0.114415
 50
298.16807299999988
 51
331.83193599999993
  0
LINE
  5
9E
  8
0
 62
     7
 10
158.655
 20
210.75699999999989
 30
0.0
 11
158.655
 21
211.61799999999991
 31
0.0
  0
LINE
  5
9F
  8
0
 62
     7
 10
157.47499999999991
 20
211.37700000000001
 30
0.0
 11
158.2949999999999
 21
211.37700000000001
 31
0.0
  0
LINE
  5
A0
  8
0
 62
     7
 10
158.59499999999991
 20
208.41699999999989
 30
0.0
 11
158.655
 21
210.75699999999989
 31
0.0
  0
LINE
  5
A1
  8
0
 62
     7
 10
158.2949999999999
 20
211.37700000000001
 30
0.0
 11
158.3549999999999
 21
208.41699999999989
 31
0.0
  0
LINE
  5
A2
  8
0
 62
     7
 10
160.655
 20
210.178
 30
0.0
 11
160.655
 21
209.738
 31
0.0
  0
LINE
  5
A3
  8
0
 62
     7
 10
160.655
 20
209.738
 30
0.0
 11
161.02099999999999
 21
209.53800000000001
 31
0.0
  0
ARC
  5
A4
  8
0
 62
     7
 10
160.862978
 20
210.169591
 30
0.0
 40
0.208717
 50
92.208111000000017
 51
177.69332800000001
  0
LINE
  5
A5
  8
0
 62
     7
 10
161.375
 20
210.3769999999999
 30
0.0
 11
160.8549999999999
 21
210.3769999999999
 31
0.0
  0
ARC
  5
A6
  8
0
 62
     7
 10
159.60000400000001
 20
209.790042
 30
0.0
 40
0.808061
 50
46.631526999999998
 51
86.097274999999996
  0
LINE
  5
A7
  8
0
 62
     7
 10
160.92099999999999
 20
209.43799999999999
 30
0.0
 11
161.02099999999999
 21
209.53800000000001
 31
0.0
  0
LINE
  5
A8
  8
0
 62
     7
 10
160.92099999999999
 20
209.43799999999999
 30
0.0
 11
161.02099999999999
 21
209.33699999999999
 31
0.0
  0
LINE
  5
A9
  8
0
 62
     7
 10
160.92099999999999
 20
209.23799999999989
 30
0.0
 11
161.02099999999999
 21
209.33699999999999
 31
0.0
  0
LINE
  5
AA
  8
0
 62
     7
 10
160.92099999999999
 20
209.23799999999989
 30
0.0
 11
161.02099999999999
 21
209.13800000000001
 31
0.0
  0
LINE
  5
AB
  8
0
 62
     7
 10
160.92099999999999
 20
209.03700000000001
 30
0.0
 11
161.02099999999999
 21
209.13800000000001
 31
0.0
  0
LINE
  5
AC
  8
0
 62
     7
 10
160.92099999999999
 20
209.03700000000001
 30
0.0
 11
161.02099999999999
 21
208.9379999999999
 31
0.0
  0
LINE
  5
AD
  8
0
 62
     7
 10
160.92099999999999
 20
208.83699999999999
 30
0.0
 11
161.02099999999999
 21
208.9379999999999
 31
0.0
  0
LINE
  5
AE
  8
0
 62
     7
 10
160.92099999999999
 20
208.83699999999999
 30
0.0
 11
161.02099999999999
 21
208.738
 31
0.0
  0
LINE
  5
AF
  8
0
 62
     7
 10
160.92099999999999
 20
208.63800000000001
 30
0.0
 11
161.02099999999999
 21
208.738
 31
0.0
  0
LINE
  5
B0
  8
0
 62
     7
 10
160.92099999999999
 20
208.63800000000001
 30
0.0
 11
161.02099999999999
 21
208.53700000000001
 31
0.0
  0
LINE
  5
B1
  8
0
 62
     7
 10
160.92099999999999
 20
208.4379999999999
 30
0.0
 11
161.02099999999999
 21
208.53700000000001
 31
0.0
  0
LINE
  5
B2
  8
0
 62
     7
 10
160.92099999999999
 20
208.4379999999999
 30
0.0
 11
161.02099999999999
 21
208.33699999999999
 31
0.0
  0
LINE
  5
B3
  8
0
 62
     7
 10
162.27500000000001
 20
209.791
 30
0.0
 11
162.27500000000001
 21
211.1509999999999
 31
0.0
  0
ARC
  5
B4
  8
0
 62
     7
 10
157.585036
 20
110.0549739999999
 30
0.0
 40
101.5631359999999
 50
87.492933999999991
 51
90.062103999999977
  0
ARC
  5
B5
  8
0
 62
     7
 10
161.86354499999999
 20
211.1438829999999
 30
0.0
 40
0.411184
 50
0.9767709999999999
 51
66.477192000000002
  0
ARC
  5
B6
  8
0
 62
     7
 10
161.37006899999989
 20
210.2524939999999
 30
0.0
 40
0.12506
 50
2.1701450000000002
 51
87.829844999999992
  0
LINE
  5
B7
  8
0
 62
     7
 10
158.59499999999991
 20
208.41699999999989
 30
0.0
 11
157.47499999999991
 21
208.41699999999989
 31
0.0
  0
LINE
  5
B8
  8
0
 62
     7
 10
156.35499999999999
 20
208.41699999999989
 30
0.0
 11
157.47499999999991
 21
208.41699999999989
 31
0.0
  0
ARC
  5
B9
  8
0
 62
     7
 10
153.57978399999999
 20
210.25250399999999
 30
0.0
 40
0.125049
 50
92.165468000000004
 51
177.83450199999999
  0
ARC
  5
BA
  8
0
 62
     7
 10
153.08483000000001
 20
211.14448899999999
 30
0.0
 40
0.410036
 50
113.365886
 51
179.05701199999999
  0
ARC
  5
BB
  8
0
 62
     7
 10
157.33595399999999
 20
111.392072
 30
0.0
 40
100.225731
 50
89.920541
 51
92.524197000000001
  0
LINE
  5
BC
  8
0
 62
     7
 10
152.67500000000001
 20
209.81700000000001
 30
0.0
 11
152.67500000000001
 21
211.1509999999999
 31
0.0
  0
LINE
  5
BD
  8
0
 62
     7
 10
153.166
 20
208.71199999999999
 30
0.0
 11
153.28700000000001
 21
208.654
 31
0.0
  0
ARC
  5
BE
  8
0
 62
     7
 10
153.25162900000001
 20
208.8893129999999
 30
0.0
 40
0.197538
 50
223.46047599999989
 51
244.240387
  0
LINE
  5
BF
  8
0
 62
     7
 10
154.02799999999991
 20
208.4379999999999
 30
0.0
 11
153.929
 21
208.33699999999999
 31
0.0
  0
LINE
  5
C0
  8
0
 62
     7
 10
154.02799999999991
 20
208.4379999999999
 30
0.0
 11
153.929
 21
208.53700000000001
 31
0.0
  0
LINE
  5
C1
  8
0
 62
     7
 10
154.02799999999991
 20
208.63800000000001
 30
0.0
 11
153.929
 21
208.53700000000001
 31
0.0
  0
LINE
  5
C2
  8
0
 62
     7
 10
154.02799999999991
 20
208.63800000000001
 30
0.0
 11
153.929
 21
208.738
 31
0.0
  0
LINE
  5
C3
  8
0
 62
     7
 10
154.02799999999991
 20
208.83699999999999
 30
0.0
 11
153.929
 21
208.738
 31
0.0
  0
LINE
  5
C4
  8
0
 62
     7
 10
154.02799999999991
 20
208.83699999999999
 30
0.0
 11
153.929
 21
208.9379999999999
 31
0.0
  0
LINE
  5
C5
  8
0
 62
     7
 10
154.02799999999991
 20
209.03700000000001
 30
0.0
 11
153.929
 21
208.9379999999999
 31
0.0
  0
LINE
  5
C6
  8
0
 62
     7
 10
154.02799999999991
 20
209.03700000000001
 30
0.0
 11
153.929
 21
209.13800000000001
 31
0.0
  0
LINE
  5
C7
  8
0
 62
     7
 10
154.02799999999991
 20
209.23799999999989
 30
0.0
 11
153.929
 21
209.13800000000001
 31
0.0
  0
LINE
  5
C8
  8
0
 62
     7
 10
154.02799999999991
 20
209.23799999999989
 30
0.0
 11
153.929
 21
209.33699999999999
 31
0.0
  0
LINE
  5
C9
  8
0
 62
     7
 10
154.02799999999991
 20
209.43799999999999
 30
0.0
 11
153.929
 21
209.33699999999999
 31
0.0
  0
LINE
  5
CA
  8
0
 62
     7
 10
154.02799999999991
 20
209.43799999999999
 30
0.0
 11
153.929
 21
209.53800000000001
 31
0.0
  0
ARC
  5
CB
  8
0
 62
     7
 10
155.35096399999989
 20
209.78630000000001
 30
0.0
 40
0.8115259999999999
 50
93.964104000000006
 51
133.278065
  0
ARC
  5
CC
  8
0
 62
     7
 10
153.33632299999991
 20
208.768542
 30
0.0
 40
0.124945
 50
246.60114999999999
 51
332.253152
  0
ARC
  5
CD
  8
0
 62
     7
 10
153.35636599999989
 20
208.75535599999989
 30
0.0
 40
0.101094
 50
333.57854200000003
 51
346.88712500000003
  0
LINE
  5
CE
  8
0
 62
     7
 10
153.5749999999999
 20
210.3769999999999
 30
0.0
 11
154.095
 21
210.3769999999999
 31
0.0
  0
ARC
  5
CF
  8
0
 62
     7
 10
154.08687800000001
 20
210.16994099999999
 30
0.0
 40
0.208367
 50
2.214113999999999
 51
87.785875999999988
  0
LINE
  5
D0
  8
0
 62
     7
 10
154.2949999999999
 20
209.738
 30
0.0
 11
153.929
 21
209.53800000000001
 31
0.0
  0
LINE
  5
D1
  8
0
 62
     7
 10
154.2949999999999
 20
210.178
 30
0.0
 11
154.2949999999999
 21
209.738
 31
0.0
  0
LINE
  5
D2
  8
0
 62
     7
 10
156.655
 20
211.37700000000001
 30
0.0
 11
156.59499999999991
 21
208.41699999999989
 31
0.0
  0
LINE
  5
D3
  8
0
 62
     7
 10
156.35499999999999
 20
208.41699999999989
 30
0.0
 11
156.2949999999999
 21
210.75699999999989
 31
0.0
  0
LINE
  5
D4
  8
0
 62
     7
 10
157.47499999999991
 20
211.37700000000001
 30
0.0
 11
156.655
 21
211.37700000000001
 31
0.0
  0
LINE
  5
D5
  8
0
 62
     7
 10
156.2949999999999
 20
210.75699999999989
 30
0.0
 11
156.2949999999999
 21
211.61799999999991
 31
0.0
  0
ARC
  5
D6
  8
0
 62
     7
 10
156.7756149999999
 20
211.67619999999999
 30
0.0
 40
0.116702
 50
210.08135399999989
 51
296.63834100000003
  0
ARC
  5
D7
  8
0
 62
     7
 10
156.77392900000001
 20
211.67275000000001
 30
0.0
 40
0.114415
 50
298.16807299999988
 51
331.83193599999993
  0
LINE
  5
D8
  8
0
 62
     7
 10
157.47499999999991
 20
211.61799999999991
 30
0.0
 11
156.875
 21
211.61799999999991
 31
0.0
  0
LINE
  5
D9
  8
0
 62
     7
 10
156.67500000000001
 20
211.61799999999991
 30
0.0
 11
156.2949999999999
 21
211.61799999999991
 31
0.0
  0
LINE
  5
DA
  8
0
 62
     7
 10
156.298
 20
210.61299999999989
 30
0.0
 11
155.2949999999999
 21
210.59700000000001
 31
0.0
  0
LINE
  5
DB
  8
0
 62
     7
 10
153.45500000000001
 20
210.25700000000001
 30
0.0
 11
153.45500000000001
 21
208.732
 31
0.0
  0
ARC
  5
DC
  8
0
 62
     7
 10
160.31075999999999
 20
211.804079
 30
0.0
 40
7.8972410000000002
 50
194.95621499999999
 51
199.98632599999991
  0
ARC
  5
DD
  8
0
 62
     7
 10
152.87211499999989
 20
209.81699499999999
 30
0.0
 40
0.19761
 50
180.1148949999999
 51
195.1751689999999
  0
ARC
  5
DE
  8
0
 62
     7
 10
153.83437499999991
 20
209.44887199999999
 30
0.0
 40
1.005930999999999
 50
200.0618419999999
 51
223.73601899999991
  0
LINE
  5
DF
  8
0
 62
     7
 10
161.495
 20
210.25700000000001
 30
0.0
 11
161.495
 21
208.732
 31
0.0
  0
ARC
  5
E0
  8
0
 62
     7
 10
161.613687
 20
208.76650699999999
 30
0.0
 40
0.123639
 50
196.3359419999999
 51
282.81570599999992
  0
ARC
  5
E1
  8
0
 62
     7
 10
161.61673400000001
 20
208.74641
 30
0.0
 40
0.103378
 50
283.639769
 51
296.47243500000002
  0
LINE
  5
E2
  8
0
 62
     7
 10
161.78399999999991
 20
208.71199999999999
 30
0.0
 11
161.6629999999999
 21
208.654
 31
0.0
  0
ARC
  5
E3
  8
0
 62
     7
 10
161.69702599999991
 20
208.8928249999999
 30
0.0
 40
0.201079
 50
295.54676899999993
 51
315.97898399999991
  0
ARC
  5
E4
  8
0
 62
     7
 10
161.13041599999991
 20
209.43973600000001
 30
0.0
 40
0.9883409999999999
 50
316.02081399999997
 51
340.15073599999999
  0
ARC
  5
E5
  8
0
 62
     7
 10
154.878997
 20
211.72472300000001
 30
0.0
 40
7.6446750000000003
 50
339.95810299999999
 51
345.15373499999993
  0
ARC
  5
E6
  8
0
 62
     7
 10
162.07690099999999
 20
209.81543999999991
 30
0.0
 40
0.198117
 50
345.22689500000001
 51
0.335065
  0
LINE
  5
E7
  8
0
 62
     7
 10
66.781899999999993
 20
231.6699999999999
 30
0.0
 11
64.570499999999996
 21
231.078
 31
0.0
  0
LINE
  5
E8
  8
0
 62
     7
 10
64.570499999999996
 20
231.078
 30
0.0
 11
66.781899999999993
 21
230.48500000000001
 31
0.0
  0
LINE
  5
E9
  8
0
 62
     7
 10
66.781899999999993
 20
230.48500000000001
 30
0.0
 11
66.781899999999993
 21
231.6699999999999
 31
0.0
  0
LINE
  5
EA
  8
0
 62
     7
 10
128.36000000000001
 20
230.5
 30
0.0
 11
130.57099999999991
 21
231.09200000000001
 31
0.0
  0
LINE
  5
EB
  8
0
 62
     7
 10
130.57099999999991
 20
231.09200000000001
 30
0.0
 11
128.36000000000001
 21
231.685
 31
0.0
  0
LINE
  5
EC
  8
0
 62
     7
 10
128.36000000000001
 20
231.685
 30
0.0
 11
128.36000000000001
 21
230.5
 31
0.0
  0
LINE
  5
ED
  8
0
 62
     7
 10
64.570499999999996
 20
231.078
 30
0.0
 11
130.57099999999991
 21
231.078
 31
0.0
  0
LINE
  5
EE
  8
0
 62
     7
 10
64.570499999999996
 20
212.66799999999989
 30
0.0
 11
64.570499999999996
 21
232.59299999999999
 31
0.0
  0
LINE
  5
EF
  8
0
 62
     7
 10
130.57099999999991
 20
212.66799999999989
 30
0.0
 11
130.57099999999991
 21
232.59299999999999
 31
0.0
  0
LINE
  5
F0
  8
0
 62
     7
 10
66.781899999999993
 20
223.03700000000001
 30
0.0
 11
64.570499999999996
 21
222.44499999999999
 31
0.0
  0
LINE
  5
F1
  8
0
 62
     7
 10
64.570499999999996
 20
222.44499999999999
 30
0.0
 11
66.781899999999993
 21
221.852
 31
0.0
  0
LINE
  5
F2
  8
0
 62
     7
 10
66.781899999999993
 20
221.852
 30
0.0
 11
66.781899999999993
 21
223.03700000000001
 31
0.0
  0
LINE
  5
F3
  8
0
 62
     7
 10
95.359300000000005
 20
221.86699999999999
 30
0.0
 11
97.570700000000002
 21
222.459
 31
0.0
  0
LINE
  5
F4
  8
0
 62
     7
 10
97.570700000000002
 20
222.459
 30
0.0
 11
95.359300000000005
 21
223.05199999999999
 31
0.0
  0
LINE
  5
F5
  8
0
 62
     7
 10
95.359300000000005
 20
223.05199999999999
 30
0.0
 11
95.359300000000005
 21
221.86699999999999
 31
0.0
  0
LINE
  5
F6
  8
0
 62
     7
 10
64.570499999999996
 20
222.44499999999999
 30
0.0
 11
97.570700000000002
 21
222.44499999999999
 31
0.0
  0
LINE
  5
F7
  8
0
 62
     7
 10
99.782499999999999
 20
204.68899999999999
 30
0.0
 11
97.571100000000001
 21
204.09599999999989
 31
0.0
  0
LINE
  5
F8
  8
0
 62
     7
 10
97.571100000000001
 20
204.09599999999989
 30
0.0
 11
99.782499999999999
 21
203.5029999999999
 31
0.0
  0
LINE
  5
F9
  8
0
 62
     7
 10
99.782499999999999
 20
203.5029999999999
 30
0.0
 11
99.782499999999999
 21
204.68899999999999
 31
0.0
  0
LINE
  5
FA
  8
0
 62
     7
 10
103.161
 20
204.09599999999989
 30
0.0
 11
97.571100000000001
 21
204.09599999999989
 31
0.0
  0
LINE
  5
FB
  8
0
 62
     7
 10
99.7821
 20
218.94399999999999
 30
0.0
 11
97.570700000000002
 21
218.352
 31
0.0
  0
LINE
  5
FC
  8
0
 62
     7
 10
97.570700000000002
 20
218.352
 30
0.0
 11
99.7821
 21
217.75899999999999
 31
0.0
  0
LINE
  5
FD
  8
0
 62
     7
 10
99.7821
 20
217.75899999999999
 30
0.0
 11
99.7821
 21
218.94399999999999
 31
0.0
  0
LINE
  5
FE
  8
0
 62
     7
 10
103.121
 20
218.352
 30
0.0
 11
97.570700000000002
 21
218.352
 31
0.0
  0
LINE
  5
FF
  8
0
 62
     7
 10
63.520400000000002
 20
64.616299999999995
 30
0.0
 11
42.923699999999997
 21
64.616299999999995
 31
0.0
  0
LINE
  5
100
  8
0
 62
     7
 10
63.520400000000002
 20
211.61799999999991
 30
0.0
 11
42.923699999999997
 21
211.61799999999991
 31
0.0
  0
LINE
  5
101
  8
0
 62
     7
 10
43.860100000000003
 20
66.827699999999993
 30
0.0
 11
44.452699999999993
 21
64.616299999999995
 31
0.0
  0
LINE
  5
102
  8
0
 62
     7
 10
44.452699999999993
 20
64.616299999999995
 30
0.0
 11
45.04529999999999
 21
66.827699999999993
 31
0.0
  0
LINE
  5
103
  8
0
 62
     7
 10
45.04529999999999
 20
66.827699999999993
 30
0.0
 11
43.860100000000003
 21
66.827699999999993
 31
0.0
  0
LINE
  5
104
  8
0
 62
     7
 10
45.030799999999992
 20
209.40599999999989
 30
0.0
 11
44.438200000000002
 21
211.61799999999991
 31
0.0
  0
LINE
  5
105
  8
0
 62
     7
 10
44.438200000000002
 20
211.61799999999991
 30
0.0
 11
43.845700000000001
 21
209.40599999999989
 31
0.0
  0
LINE
  5
106
  8
0
 62
     7
 10
43.845700000000001
 20
209.40599999999989
 30
0.0
 11
45.030799999999992
 21
209.40599999999989
 31
0.0
  0
LINE
  5
107
  8
0
 62
     7
 10
44.438200000000002
 20
64.616299999999995
 30
0.0
 11
44.438200000000002
 21
211.61799999999991
 31
0.0
  0
LINE
  5
108
  8
_________2
 62
     7
 10
205.30099999999999
 20
127.411
 30
0.0
 11
183.55099999999999
 21
127.411
 31
0.0
  0
LINE
  5
109
  8
_________2
 62
     7
 10
100.2999999999999
 20
-4.0910799999999998
 30
0.0
 11
100.2999999999999
 21
-21.070999999999991
 31
0.0
  0
LINE
  5
10A
  8
_________2
 62
     7
 10
100.2999999999999
 20
275.93099999999993
 30
0.0
 11
100.2999999999999
 21
258.911
 31
0.0
  0
LINE
  5
10B
  8
_________2
 62
     7
 10
17.049399999999991
 20
127.411
 30
0.0
 11
-4.7010300000000003
 21
127.411
 31
0.0
  0
LINE
  5
10C
  8
_________2
 62
     7
 10
76.740799999999993
 20
29.8047
 30
0.0
 11
74.554599999999994
 21
29.8047
 31
0.0
  0
LINE
  5
10D
  8
_________2
 62
     7
 10
77.233500000000006
 20
29.8047
 30
0.0
 11
76.981300000000005
 21
29.8047
 31
0.0
  0
LINE
  5
10E
  8
_________2
 62
     7
 10
77.726200000000006
 20
29.8047
 30
0.0
 11
80.6511
 21
29.8047
 31
0.0
  0
LINE
  5
10F
  8
_________2
 62
     7
 10
77.233500000000006
 20
29.8047
 30
0.0
 11
77.485699999999994
 21
29.8047
 31
0.0
  0
LINE
  5
110
  8
_________2
 62
     7
 10
70.837299999999999
 20
29.8047
 30
0.0
 11
68.650300000000001
 21
29.8047
 31
0.0
  0
LINE
  5
111
  8
_________2
 62
     7
 10
71.329300000000003
 20
29.8047
 30
0.0
 11
71.077799999999996
 21
29.8047
 31
0.0
  0
LINE
  5
112
  8
_________2
 62
     7
 10
71.329300000000003
 20
30.2974
 30
0.0
 11
71.329300000000003
 21
32.484400000000001
 31
0.0
  0
LINE
  5
113
  8
_________2
 62
     7
 10
71.329300000000003
 20
29.8047
 30
0.0
 11
71.329300000000003
 21
30.057300000000001
 31
0.0
  0
LINE
  5
114
  8
_________2
 62
     7
 10
71.821899999999999
 20
29.8047
 30
0.0
 11
74.008899999999997
 21
29.8047
 31
0.0
  0
LINE
  5
115
  8
_________2
 62
     7
 10
71.329300000000003
 20
29.8047
 30
0.0
 11
71.581400000000002
 21
29.8047
 31
0.0
  0
LINE
  5
116
  8
_________2
 62
     7
 10
71.329300000000003
 20
29.312799999999999
 30
0.0
 11
71.329300000000003
 21
27.126200000000001
 31
0.0
  0
LINE
  5
117
  8
_________2
 62
     7
 10
71.329300000000003
 20
29.8047
 30
0.0
 11
71.329300000000003
 21
29.5532
 31
0.0
  0
LINE
  5
118
  8
_________2
 62
     7
 10
75.040300000000002
 20
28.5852
 30
0.0
 11
80.218299999999985
 21
27.720400000000001
 31
0.0
  0
LINE
  5
119
  8
_________2
 62
     7
 10
75.040300000000002
 20
31.024699999999999
 30
0.0
 11
80.218299999999985
 21
31.8901
 31
0.0
  0
LINE
  5
11A
  8
_________2
 62
     7
 10
80.218299999999985
 20
27.720400000000001
 30
0.0
 11
80.218299999999985
 21
31.8901
 31
0.0
  0
LINE
  5
11B
  8
_________2
 62
     7
 10
75.040300000000002
 20
28.5852
 30
0.0
 11
75.040300000000002
 21
31.024699999999999
 31
0.0
  0
ARC
  5
11C
  8
_________2
 62
     7
 10
71.282674
 20
29.757801000000001
 30
0.0
 40
1.267714
 50
2.1220840000000001
 51
87.894083999999992
  0
ARC
  5
11D
  8
_________2
 62
     7
 10
71.375812999999994
 20
29.758545999999999
 30
0.0
 40
1.2669680000000001
 50
92.105782999999988
 51
177.91037
  0
ARC
  5
11E
  8
_________2
 62
     7
 10
71.376186000000004
 20
29.851671
 30
0.0
 40
1.2673680000000001
 50
182.12203600000001
 51
267.877993
  0
ARC
  5
11F
  8
_________2
 62
     7
 10
71.282368999999989
 20
29.852347999999999
 30
0.0
 40
1.2680439999999991
 50
272.11916400000001
 51
357.84848499999993
  0
ARC
  5
120
  8
_________2
 62
     7
 10
71.248890000000003
 20
29.724731999999989
 30
0.0
 40
2.1668310000000002
 50
2.1161439999999989
 51
87.874379000000005
  0
ARC
  5
121
  8
_________2
 62
     7
 10
71.408928000000003
 20
29.726146
 30
0.0
 40
2.165392999999999
 50
92.108508999999998
 51
177.91986499999999
  0
ARC
  5
122
  8
_________2
 62
     7
 10
71.409267
 20
29.884751999999999
 30
0.0
 40
2.1657829999999998
 50
182.117133
 51
267.88289700000001
  0
ARC
  5
123
  8
_________2
 62
     7
 10
71.249286999999995
 20
29.885429999999989
 30
0.0
 40
2.1664590000000001
 50
272.11546800000002
 51
357.86560400000002
  0
TEXT
  5
124
  8
_________2
 62
     7
 10
104.605
 20
1.6794899999999999
 30
0.0
 40
3.0923400000000001
  1
図番
 41
0.5
  0
LINE
  5
125
  8
_________2
 62
     7
 10
103.55
 20
5.9087199999999989
 30
0.0
 11
183.55099999999999
 21
5.9087199999999989
 31
0.0
  0
TEXT
  5
126
  8
_________2
 62
     7
 10
104.605
 20
11.679299999999991
 30
0.0
 40
3.0923400000000001
  1
品番
 41
0.5
  0
TEXT
  5
127
  8
_________2
 62
     7
 10
104.605
 20
31.8184
 30
0.0
 40
3.0923400000000001
  1
名称
 41
0.5
  0
TEXT
  5
128
  8
_________2
 62
     7
 10
91.844958333333338
 20
26.822299999999998
 30
0.0
 40
3.6545800000000002
  1
mm
 41
0.5
 72
     1
 11
93.367699999999985
 21
26.822299999999998
 31
0.0
  0
TEXT
  5
129
  8
_________2
 62
     7
 10
85.642999999999986
 20
31.8184
 30
0.0
 40
3.0923400000000001
  1
単位
 41
0.5
  0
TEXT
  5
12A
  8
_________2
 62
     7
 10
85.642999999999986
 20
19.410799999999991
 30
0.0
 40
3.0923400000000001
  1
尺度
 41
0.5
  0
TEXT
  5
12B
  8
_________2
 62
     7
 10
90.091736166666678
 20
13.218199999999991
 30
0.0
 40
3.6545800000000002
  1
1 ： 10
 41
0.5
 72
     1
 11
93.959500000000006
 21
13.218199999999991
 31
0.0
  0
TEXT
  5
12C
  8
_________2
 62
     7
 10
135.67859999999999
 20
9.1082000000000001
 30
0.0
 40
3.9357000000000002
  1
CEY90120R
 41
0.5
 72
     1
 11
143.55000000000001
 21
9.1082000000000001
 31
0.0
  0
TEXT
  5
12D
  8
_________2
 62
     7
 10
135.67859999999999
 20
-0.8926299999999999
 30
0.0
 40
3.9357000000000002
  1
CEY90120R
 41
0.5
 72
     1
 11
143.55000000000001
 21
-0.8926299999999999
 31
0.0
  0
TEXT
  5
12E
  8
_________2
 62
     7
 10
24.586600000000001
 20
0.707627
 30
0.0
 40
3.9357000000000002
  1
カラー：ホワイト
 41
0.5
  0
TEXT
  5
12F
  8
_________2
 62
     7
 10
109.179
 20
23.885999999999989
 30
0.0
 40
3.9357000000000002
  1
ふろふた
 41
0.5
  0
TEXT
  5
130
  8
_________2
 62
     7
 10
39.364190666666659
 20
13.603400000000001
 30
0.0
 40
3.6545800000000002
  1
石原
 41
0.5
 72
     1
 11
41.313299999999998
 21
13.603400000000001
 31
0.0
  0
TEXT
  5
131
  8
_________2
 62
     7
 10
20.790190666666671
 20
13.603400000000001
 30
0.0
 40
3.6545800000000002
  1
菅原
 41
0.5
 72
     1
 11
22.7393
 21
13.603400000000001
 31
0.0
  0
TEXT
  5
132
  8
_________2
 62
     7
 10
67.785600000000002
 20
13.218199999999991
 30
0.0
 40
3.6545800000000002
  1
13.12.05
 41
0.5
  0
TEXT
  5
133
  8
_________2
 62
     7
 10
66.5929
 20
19.410799999999991
 30
0.0
 40
3.0923400000000001
  1
日付
 41
0.5
  0
TEXT
  5
134
  8
_________2
 62
     7
 10
29.639199999999992
 20
19.410799999999991
 30
0.0
 40
3.0923400000000001
  1
検図
 41
0.5
  0
TEXT
  5
135
  8
_________2
 62
     7
 10
18.020900000000001
 20
5.21143
 30
0.0
 40
3.0923400000000001
  1
備考
 41
0.5
  0
TEXT
  5
136
  8
_________2
 62
     7
 10
18.020900000000001
 20
19.410799999999991
 30
0.0
 40
3.0923400000000001
  1
製図
 41
0.5
  0
TEXT
  5
137
  8
_________2
 62
     7
 10
23.788265333333339
 20
27.936800000000002
 30
0.0
 40
4.4979399999999989
  1
セラトレーディング株式会社
 41
0.5
 72
     1
 11
41.180300000000003
 21
27.936800000000002
 31
0.0
  0
LINE
  5
138
  8
_________2
 62
     7
 10
183.55099999999999
 20
-4.0910799999999998
 30
0.0
 11
17.049399999999991
 21
-4.0910799999999998
 31
0.0
  0
LINE
  5
139
  8
_________2
 62
     7
 10
17.049399999999991
 20
-4.0910799999999998
 30
0.0
 11
17.049399999999991
 21
258.911
 31
0.0
  0
LINE
  5
13A
  8
_________2
 62
     7
 10
17.049399999999991
 20
258.911
 30
0.0
 11
183.55099999999999
 21
258.911
 31
0.0
  0
LINE
  5
13B
  8
_________2
 62
     7
 10
183.55099999999999
 20
258.911
 30
0.0
 11
183.55099999999999
 21
-4.0910799999999998
 31
0.0
  0
LINE
  5
13C
  8
_________2
 62
     7
 10
65.549700000000001
 20
9.4092999999999982
 30
0.0
 11
65.549700000000001
 21
35.909100000000002
 31
0.0
  0
LINE
  5
13D
  8
_________2
 62
     7
 10
84.549599999999984
 20
9.4092999999999982
 30
0.0
 11
84.549599999999984
 21
35.909100000000002
 31
0.0
  0
LINE
  5
13E
  8
_________2
 62
     7
 10
103.55
 20
-4.0910799999999998
 30
0.0
 11
103.55
 21
35.909100000000002
 31
0.0
  0
LINE
  5
13F
  8
_________2
 62
     7
 10
28.549199999999988
 20
9.4092999999999982
 30
0.0
 11
28.549199999999988
 21
23.409199999999998
 31
0.0
  0
LINE
  5
140
  8
_________2
 62
     7
 10
17.049399999999991
 20
9.4092999999999982
 30
0.0
 11
103.55
 21
9.4092999999999982
 31
0.0
  0
LINE
  5
141
  8
_________2
 62
     7
 10
17.049399999999991
 20
23.409199999999998
 30
0.0
 11
103.55
 21
23.409199999999998
 31
0.0
  0
LINE
  5
142
  8
_________2
 62
     7
 10
103.55
 20
15.9085
 30
0.0
 11
183.55099999999999
 21
15.9085
 31
0.0
  0
LINE
  5
143
  8
_________2
 62
     7
 10
17.049399999999991
 20
35.909100000000002
 30
0.0
 11
183.55099999999999
 21
35.909100000000002
 31
0.0
  0
ENDSEC
  0
EOF
