  0
SECTION
  2
HEADER
  9
$ACADVER
  1
AC1009
  9
$LUNITS
 70
2
  9
$LUPREC
 70
4
  9
$LTSCALE
 40
1.0
  9
$EXTMIN
 10
-30.3177
 20
33.3285
 30
0
  9
$EXTMAX
 10
251.6749
 20
230.337
 30
0
  0
ENDSEC
  0
SECTION
  2
TABLES
  0
TABLE
  2
LTYPE
 70
256
  0
ENDTAB
  0
TABLE
  2
LAYER
 70
2
  0
LAYER
  2
LAYER_1
 70
64
 62
7
  6
CONTINUOUS
  0
LAYER
  2
LAYER_2
 70
64
 62
7
  6
CONTINUOUS
  0
ENDTAB
  0
TABLE
  2
STYLE
 70
6
  0
STYLE
  2
STANDARD
 70
0
 40
0
 50
0
 71
0
 41
0
 42
0
  3
TXT
  4
BIGFONT
  0
ENDTAB
  0
ENDSEC
  0
SECTION
  2
BLOCKS
  0
BLOCK
  8
LAYER_2
  2
AIGNBL02040009
 70
64
 10
0
 20
0
 30
0
  3
AIGNBL02040009
  0
POLYLINE
  8
LAYER_2
 40
0.05
 41
0.05
 66
1
 10
0
 20
0
 30
0
 70
1
  0
VERTEX
  8
LAYER_2
 10
103.5588
 20
39.1418
  0
VERTEX
  8
LAYER_2
 10
103.0699
 20
37.9567
  0
VERTEX
  8
LAYER_2
 10
102.4419
 20
37.9567
  0
VERTEX
  8
LAYER_2
 10
104.0414
 20
41.7225
  0
VERTEX
  8
LAYER_2
 10
104.7746
 20
41.7225
  0
VERTEX
  8
LAYER_2
 10
106.381
 20
37.9567
  0
VERTEX
  8
LAYER_2
 10
105.7309
 20
37.9567
  0
VERTEX
  8
LAYER_2
 10
105.2283
 20
39.1418
  0
SEQEND
  0
POLYLINE
  8
LAYER_2
 40
0.05
 41
0.05
 66
1
 10
0
 20
0
 30
0
 70
1
  0
VERTEX
  8
LAYER_2
 10
105.1025
 20
39.5207
  0
VERTEX
  8
LAYER_2
 10
104.6416
 20
40.6056
  0
VERTEX
  8
LAYER_2
 10
104.397
 20
41.2926
  0
VERTEX
  8
LAYER_2
 10
104.3832
 20
41.2926
  0
VERTEX
  8
LAYER_2
 10
104.1455
 20
40.6101
  0
VERTEX
  8
LAYER_2
 10
103.6849
 20
39.5207
  0
SEQEND
  0
ENDBLK
  0
BLOCK
  8
LAYER_2
  2
AIGNBL0204000A
 70
64
 10
0
 20
0
 30
0
  3
AIGNBL0204000A
  0
POLYLINE
  8
LAYER_2
 40
0.05
 41
0.05
 66
1
 10
0
 20
0
 30
0
 70
1
  0
VERTEX
  8
LAYER_2
 10
110.7463
 20
37.4034
 42
-0.0155848755
  0
VERTEX
  8
LAYER_2
 10
108.9441
 20
37.8395
  0
VERTEX
  8
LAYER_2
 10
108.6575
 20
37.895
 42
-0.08356944747
  0
VERTEX
  8
LAYER_2
 10
107.7935
 20
38.0612
 42
-0.0975043791
  0
VERTEX
  8
LAYER_2
 10
107.1323
 20
38.4671
 42
-0.2129077902
  0
VERTEX
  8
LAYER_2
 10
106.5836
 20
39.7998
 42
-0.09684941519
  0
VERTEX
  8
LAYER_2
 10
106.7282
 20
40.5732
 42
-0.2046438079
  0
VERTEX
  8
LAYER_2
 10
107.7757
 20
41.5974
 42
-0.09824750395
  0
VERTEX
  8
LAYER_2
 10
108.7767
 20
41.7838
 42
-0.08554009695
  0
VERTEX
  8
LAYER_2
 10
109.6453
 20
41.6425
 42
-0.1004336034
  0
VERTEX
  8
LAYER_2
 10
110.3104
 20
41.2483
 42
-0.2141019095
  0
VERTEX
  8
LAYER_2
 10
110.8858
 20
39.8784
 42
-0.09539620281
  0
VERTEX
  8
LAYER_2
 10
110.7469
 20
39.1106
 42
-0.2143310008
  0
VERTEX
  8
LAYER_2
 10
109.7241
 20
38.1321
 42
-0.02339132607
  0
VERTEX
  8
LAYER_2
 10
109.545
 20
38.0738
  0
VERTEX
  8
LAYER_2
 10
109.545
 20
38.0514
 42
0.01711831943
  0
VERTEX
  8
LAYER_2
 10
110.9213
 20
37.8113
  0
SEQEND
  0
POLYLINE
  8
LAYER_2
 40
0.05
 41
0.05
 66
1
 10
0
 20
0
 30
0
 70
1
  0
VERTEX
  8
LAYER_2
 10
110.2436
 20
39.857
 42
0.1071543648
  0
VERTEX
  8
LAYER_2
 10
110.0923
 20
40.5618
 42
0.2976507644
  0
VERTEX
  8
LAYER_2
 10
108.7553
 20
41.3873
 42
0.1072363269
  0
VERTEX
  8
LAYER_2
 10
108.0655
 20
41.2478
 42
0.2386054241
  0
VERTEX
  8
LAYER_2
 10
107.2786
 20
40.2422
 42
0.05752774583
  0
VERTEX
  8
LAYER_2
 10
107.233
 20
39.8122
 42
0.218096749
  0
VERTEX
  8
LAYER_2
 10
107.7636
 20
38.6168
 42
0.1772796408
  0
VERTEX
  8
LAYER_2
 10
108.7274
 20
38.2912
 42
0.1075185771
  0
VERTEX
  8
LAYER_2
 10
109.4088
 20
38.4302
 42
0.2370926009
  0
VERTEX
  8
LAYER_2
 10
110.1959
 20
39.4298
 42
0.05601310134
  0
SEQEND
  0
ENDBLK
  0
BLOCK
  8
LAYER_2
  2
AIGNBL0204000B
 70
64
 10
0
 20
0
 30
0
  3
AIGNBL0204000B
  0
POLYLINE
  8
LAYER_2
 40
0.05
 41
0.05
 66
1
 10
0
 20
0
 30
0
 70
1
  0
VERTEX
  8
LAYER_2
 10
112.2132
 20
41.7225
  0
VERTEX
  8
LAYER_2
 10
112.2132
 20
39.4932
 42
0.114533087
  0
VERTEX
  8
LAYER_2
 10
112.3471
 20
38.8274
 42
0.1464774934
  0
VERTEX
  8
LAYER_2
 10
112.6975
 20
38.4422
 42
0.1362552487
  0
VERTEX
  8
LAYER_2
 10
113.3098
 20
38.2912
 42
0.1219300979
  0
VERTEX
  8
LAYER_2
 10
113.9329
 20
38.4259
 42
0.1503016186
  0
VERTEX
  8
LAYER_2
 10
114.3047
 20
38.7949
 42
0.1256239276
  0
VERTEX
  8
LAYER_2
 10
114.4553
 20
39.4932
  0
VERTEX
  8
LAYER_2
 10
114.4553
 20
41.7225
  0
VERTEX
  8
LAYER_2
 10
115.0699
 20
41.7225
  0
VERTEX
  8
LAYER_2
 10
115.0699
 20
39.5266
 42
-0.09997665689
  0
VERTEX
  8
LAYER_2
 10
114.935
 20
38.7839
 42
-0.1215019174
  0
VERTEX
  8
LAYER_2
 10
114.5617
 20
38.2772
 42
-0.1106228669
  0
VERTEX
  8
LAYER_2
 10
113.9362
 20
37.9706
 42
-0.06128517916
  0
VERTEX
  8
LAYER_2
 10
113.2887
 20
37.895
 42
-0.09418763513
  0
VERTEX
  8
LAYER_2
 10
112.4696
 20
38.0331
 42
-0.2431628294
  0
VERTEX
  8
LAYER_2
 10
111.6661
 20
38.9438
 42
-0.06320488118
  0
VERTEX
  8
LAYER_2
 10
111.5986
 20
39.5045
  0
VERTEX
  8
LAYER_2
 10
111.5986
 20
41.7225
  0
SEQEND
  0
ENDBLK
  0
BLOCK
  8
LAYER_2
  2
AIGNBL0204000C
 70
64
 10
0
 20
0
 30
0
  3
AIGNBL0204000C
  0
POLYLINE
  8
LAYER_2
 40
0.05
 41
0.05
 66
1
 10
0
 20
0
 30
0
 70
1
  0
VERTEX
  8
LAYER_2
 10
116.8162
 20
39.1418
  0
VERTEX
  8
LAYER_2
 10
116.327
 20
37.9567
  0
VERTEX
  8
LAYER_2
 10
115.699
 20
37.9567
  0
VERTEX
  8
LAYER_2
 10
117.2982
 20
41.7225
  0
VERTEX
  8
LAYER_2
 10
118.0313
 20
41.7225
  0
VERTEX
  8
LAYER_2
 10
119.6377
 20
37.9567
  0
VERTEX
  8
LAYER_2
 10
118.9883
 20
37.9567
  0
VERTEX
  8
LAYER_2
 10
118.4857
 20
39.1418
  0
SEQEND
  0
POLYLINE
  8
LAYER_2
 40
0.05
 41
0.05
 66
1
 10
0
 20
0
 30
0
 70
1
  0
VERTEX
  8
LAYER_2
 10
118.3596
 20
39.5207
  0
VERTEX
  8
LAYER_2
 10
117.8983
 20
40.6056
  0
VERTEX
  8
LAYER_2
 10
117.6537
 20
41.2926
  0
VERTEX
  8
LAYER_2
 10
117.6399
 20
41.2926
  0
VERTEX
  8
LAYER_2
 10
117.4026
 20
40.6101
  0
VERTEX
  8
LAYER_2
 10
116.9416
 20
39.5207
  0
SEQEND
  0
ENDBLK
  0
BLOCK
  8
LAYER_2
  2
AIGNBL0204000D
 70
64
 10
0
 20
0
 30
0
  3
AIGNBL0204000D
  0
POLYLINE
  8
LAYER_2
 40
0.05
 41
0.05
 66
1
 10
0
 20
0
 30
0
 70
1
  0
VERTEX
  8
LAYER_2
 10
120.6785
 20
41.6777
 42
-0.03246092253
  0
VERTEX
  8
LAYER_2
 10
121.8453
 20
41.7508
 42
-0.08083972759
  0
VERTEX
  8
LAYER_2
 10
122.8018
 20
41.619
 42
-0.0781591286
  0
VERTEX
  8
LAYER_2
 10
123.1652
 20
41.4379
 42
-0.2484156816
  0
VERTEX
  8
LAYER_2
 10
123.5768
 20
40.6497
 42
-0.226147
  0
VERTEX
  8
LAYER_2
 10
123.2137
 20
39.8456
 42
-0.1097236176
  0
VERTEX
  8
LAYER_2
 10
122.5855
 20
39.5323
 42
-0.06566039781
  0
VERTEX
  8
LAYER_2
 10
121.7751
 20
39.4319
 42
-0.06233087798
  0
VERTEX
  8
LAYER_2
 10
121.2865
 20
39.4653
  0
VERTEX
  8
LAYER_2
 10
121.2865
 20
37.9567
  0
VERTEX
  8
LAYER_2
 10
120.6785
 20
37.9567
  0
SEQEND
  0
POLYLINE
  8
LAYER_2
 40
0.05
 41
0.05
 66
1
 10
0
 20
0
 30
0
 70
1
  0
VERTEX
  8
LAYER_2
 10
121.2865
 20
39.8622
 42
0.04202445636
  0
VERTEX
  8
LAYER_2
 10
121.7889
 20
39.8229
 42
0.1032184983
  0
VERTEX
  8
LAYER_2
 10
122.508
 20
39.9502
 42
0.1555899564
  0
VERTEX
  8
LAYER_2
 10
122.8728
 20
40.2546
 42
0.1352638191
  0
VERTEX
  8
LAYER_2
 10
122.9698
 20
40.6273
 42
0.1736824711
  0
VERTEX
  8
LAYER_2
 10
122.835
 20
41.0346
 42
0.151721714
  0
VERTEX
  8
LAYER_2
 10
122.4139
 20
41.2941
 42
0.06880216409
  0
VERTEX
  8
LAYER_2
 10
121.8595
 20
41.3649
 42
0.06337515897
  0
VERTEX
  8
LAYER_2
 10
121.2865
 20
41.3257
  0
SEQEND
  0
ENDBLK
  0
BLOCK
  8
LAYER_2
  2
AIGNBL0204000E
 70
64
 10
0
 20
0
 30
0
  3
AIGNBL0204000E
  0
POLYLINE
  8
LAYER_2
 40
0.05
 41
0.05
 66
1
 10
0
 20
0
 30
0
 70
1
  0
VERTEX
  8
LAYER_2
 10
125.1289
 20
41.4207
 42
-0.276556311
  0
VERTEX
  8
LAYER_2
 10
124.9893
 20
41.1806
 42
-0.1265551601
  0
VERTEX
  8
LAYER_2
 10
124.7372
 20
41.1189
 42
-0.22367962
  0
VERTEX
  8
LAYER_2
 10
124.4269
 20
41.2513
 42
-0.1709078449
  0
VERTEX
  8
LAYER_2
 10
124.3668
 20
41.4207
 42
-0.2643879937
  0
VERTEX
  8
LAYER_2
 10
124.5162
 20
41.6678
 42
-0.1290073663
  0
VERTEX
  8
LAYER_2
 10
124.7509
 20
41.7277
 42
-0.2252702025
  0
VERTEX
  8
LAYER_2
 10
125.0678
 20
41.597
 42
-0.1691869544
  0
SEQEND
  0
POLYLINE
  8
LAYER_2
 40
0.05
 41
0.05
 66
1
 10
0
 20
0
 30
0
 70
1
  0
VERTEX
  8
LAYER_2
 10
124.4433
 20
37.9567
  0
VERTEX
  8
LAYER_2
 10
124.4433
 20
40.6607
  0
VERTEX
  8
LAYER_2
 10
125.0579
 20
40.6607
  0
VERTEX
  8
LAYER_2
 10
125.0579
 20
37.9567
  0
SEQEND
  0
ENDBLK
  0
BLOCK
  8
LAYER_2
  2
AIGNBL0204000F
 70
64
 10
0
 20
0
 30
0
  3
AIGNBL0204000F
  0
POLYLINE
  8
LAYER_2
 40
0.05
 41
0.05
 66
1
 10
0
 20
0
 30
0
 70
1
  0
VERTEX
  8
LAYER_2
 10
126.9296
 20
39.1418
  0
VERTEX
  8
LAYER_2
 10
126.4414
 20
37.9567
  0
VERTEX
  8
LAYER_2
 10
125.8124
 20
37.9567
  0
VERTEX
  8
LAYER_2
 10
127.4119
 20
41.7225
  0
VERTEX
  8
LAYER_2
 10
128.1457
 20
41.7225
  0
VERTEX
  8
LAYER_2
 10
129.7522
 20
37.9567
  0
VERTEX
  8
LAYER_2
 10
129.1024
 20
37.9567
  0
VERTEX
  8
LAYER_2
 10
128.5998
 20
39.1418
  0
SEQEND
  0
POLYLINE
  8
LAYER_2
 40
0.05
 41
0.05
 66
1
 10
0
 20
0
 30
0
 70
1
  0
VERTEX
  8
LAYER_2
 10
128.4737
 20
39.5207
  0
VERTEX
  8
LAYER_2
 10
128.0127
 20
40.6056
  0
VERTEX
  8
LAYER_2
 10
127.7688
 20
41.2926
  0
VERTEX
  8
LAYER_2
 10
127.754
 20
41.2926
  0
VERTEX
  8
LAYER_2
 10
127.517
 20
40.6101
  0
VERTEX
  8
LAYER_2
 10
127.056
 20
39.5207
  0
SEQEND
  0
ENDBLK
  0
BLOCK
  8
LAYER_2
  2
AIGNBL02030008
 70
64
 10
0
 20
0
 30
0
  3
AIGNBL02030008
  0
INSERT
  8
LAYER_2
  2
AIGNBL02040009
 10
0
 20
0
 30
0
  0
INSERT
  8
LAYER_2
  2
AIGNBL0204000A
 10
0
 20
0
 30
0
  0
INSERT
  8
LAYER_2
  2
AIGNBL0204000B
 10
0
 20
0
 30
0
  0
INSERT
  8
LAYER_2
  2
AIGNBL0204000C
 10
0
 20
0
 30
0
  0
INSERT
  8
LAYER_2
  2
AIGNBL0204000D
 10
0
 20
0
 30
0
  0
INSERT
  8
LAYER_2
  2
AIGNBL0204000E
 10
0
 20
0
 30
0
  0
INSERT
  8
LAYER_2
  2
AIGNBL0204000F
 10
0
 20
0
 30
0
  0
ENDBLK
  0
BLOCK
  8
LAYER_2
  2
AIGNBL02030011
 70
64
 10
0
 20
0
 30
0
  3
AIGNBL02030011
  0
POLYLINE
  8
LAYER_2
 40
0.05
 41
0.05
 66
1
 10
0
 20
0
 30
0
 70
1
  0
VERTEX
  8
LAYER_2
 10
102.5518
 20
36.0574
  0
VERTEX
  8
LAYER_2
 10
103.105
 20
36.0574
  0
VERTEX
  8
LAYER_2
 10
103.105
 20
35.9637
  0
VERTEX
  8
LAYER_2
 10
102.4467
 20
35.9637
  0
VERTEX
  8
LAYER_2
 10
102.4467
 20
36.9969
  0
VERTEX
  8
LAYER_2
 10
103.0875
 20
36.9969
  0
VERTEX
  8
LAYER_2
 10
103.0875
 20
36.9035
  0
VERTEX
  8
LAYER_2
 10
102.5518
 20
36.9035
  0
VERTEX
  8
LAYER_2
 10
102.5518
 20
36.549
  0
VERTEX
  8
LAYER_2
 10
103.0523
 20
36.549
  0
VERTEX
  8
LAYER_2
 10
103.0523
 20
36.4557
  0
VERTEX
  8
LAYER_2
 10
102.5518
 20
36.4557
  0
SEQEND
  0
ENDBLK
  0
BLOCK
  8
LAYER_2
  2
AIGNBL02030012
 70
64
 10
0
 20
0
 30
0
  3
AIGNBL02030012
  0
POLYLINE
  8
LAYER_2
 40
0.05
 41
0.05
 66
1
 10
0
 20
0
 30
0
 70
1
  0
VERTEX
  8
LAYER_2
 10
104.2447
 20
36.117
  0
VERTEX
  8
LAYER_2
 10
104.2474
 20
36.117
  0
VERTEX
  8
LAYER_2
 10
104.2474
 20
36.9969
  0
VERTEX
  8
LAYER_2
 10
104.3525
 20
36.9969
  0
VERTEX
  8
LAYER_2
 10
104.3525
 20
35.9637
  0
VERTEX
  8
LAYER_2
 10
104.2216
 20
35.9637
  0
VERTEX
  8
LAYER_2
 10
103.6205
 20
36.8525
  0
VERTEX
  8
LAYER_2
 10
103.617
 20
36.8525
  0
VERTEX
  8
LAYER_2
 10
103.617
 20
35.9637
  0
VERTEX
  8
LAYER_2
 10
103.5123
 20
35.9637
  0
VERTEX
  8
LAYER_2
 10
103.5123
 20
36.9969
  0
VERTEX
  8
LAYER_2
 10
103.6435
 20
36.9969
  0
SEQEND
  0
ENDBLK
  0
BLOCK
  8
LAYER_2
  2
AIGNBL02030013
 70
64
 10
0
 20
0
 30
0
  3
AIGNBL02030013
  0
POLYLINE
  8
LAYER_2
 40
0.05
 41
0.05
 66
1
 10
0
 20
0
 30
0
 70
1
  0
VERTEX
  8
LAYER_2
 10
104.8255
 20
36.1756
  0
VERTEX
  8
LAYER_2
 10
104.88
 20
36.0725
 42
0.1804993832
  0
VERTEX
  8
LAYER_2
 10
104.9933
 20
36.0309
  0
VERTEX
  8
LAYER_2
 10
105.0825
 20
36.0505
  0
VERTEX
  8
LAYER_2
 10
105.1387
 20
36.1039
  0
VERTEX
  8
LAYER_2
 10
105.1676
 20
36.1804
  0
VERTEX
  8
LAYER_2
 10
105.1759
 20
36.27
  0
VERTEX
  8
LAYER_2
 10
105.1759
 20
36.9969
  0
VERTEX
  8
LAYER_2
 10
105.281
 20
36.9969
  0
VERTEX
  8
LAYER_2
 10
105.281
 20
36.2614
  0
VERTEX
  8
LAYER_2
 10
105.2696
 20
36.1535
  0
VERTEX
  8
LAYER_2
 10
105.2283
 20
36.0485
  0
VERTEX
  8
LAYER_2
 10
105.1435
 20
35.9689
  0
VERTEX
  8
LAYER_2
 10
105.0047
 20
35.9375
 42
-0.1842921564
  0
VERTEX
  8
LAYER_2
 10
104.82
 20
35.9974
 42
-0.176191571
  0
VERTEX
  8
LAYER_2
 10
104.7277
 20
36.149
  0
SEQEND
  0
ENDBLK
  0
BLOCK
  8
LAYER_2
  2
AIGNBL02030014
 70
64
 10
0
 20
0
 30
0
  3
AIGNBL02030014
  0
POLYLINE
  8
LAYER_2
 40
0.05
 41
0.05
 66
1
 10
0
 20
0
 30
0
 70
1
  0
VERTEX
  8
LAYER_2
 10
106.7693
 20
36.4805
 42
-0.10394313
  0
VERTEX
  8
LAYER_2
 10
106.7282
 20
36.2631
 42
-0.1002538824
  0
VERTEX
  8
LAYER_2
 10
106.6156
 20
36.0915
  0
VERTEX
  8
LAYER_2
 10
106.4447
 20
35.9785
 42
-0.09506675375
  0
VERTEX
  8
LAYER_2
 10
106.2308
 20
35.9375
 42
-0.1010765979
  0
VERTEX
  8
LAYER_2
 10
106.0172
 20
35.9785
 42
-0.1005668876
  0
VERTEX
  8
LAYER_2
 10
105.8463
 20
36.0915
 42
-0.09506076213
  0
VERTEX
  8
LAYER_2
 10
105.733
 20
36.2631
 42
-0.0931359716
  0
VERTEX
  8
LAYER_2
 10
105.6923
 20
36.4805
 42
-0.1022959507
  0
VERTEX
  8
LAYER_2
 10
105.733
 20
36.6978
 42
-0.1008913794
  0
VERTEX
  8
LAYER_2
 10
105.8463
 20
36.8694
 42
-0.09625543395
  0
VERTEX
  8
LAYER_2
 10
106.0172
 20
36.9824
 42
-0.0952064105
  0
VERTEX
  8
LAYER_2
 10
106.2308
 20
37.0234
 42
-0.101175466
  0
VERTEX
  8
LAYER_2
 10
106.4447
 20
36.9824
 42
-0.09853409661
  0
VERTEX
  8
LAYER_2
 10
106.6156
 20
36.8694
 42
-0.0955655387
  0
VERTEX
  8
LAYER_2
 10
106.7282
 20
36.6978
 42
-0.09420719768
  0
SEQEND
  0
POLYLINE
  8
LAYER_2
 40
0.05
 41
0.05
 66
1
 10
0
 20
0
 30
0
 70
1
  0
VERTEX
  8
LAYER_2
 10
106.6583
 20
36.4798
  0
VERTEX
  8
LAYER_2
 10
106.6294
 20
36.6517
  0
VERTEX
  8
LAYER_2
 10
106.5446
 20
36.795
  0
VERTEX
  8
LAYER_2
 10
106.4096
 20
36.8932
  0
VERTEX
  8
LAYER_2
 10
106.2308
 20
36.93
  0
VERTEX
  8
LAYER_2
 10
106.052
 20
36.8932
  0
VERTEX
  8
LAYER_2
 10
105.9173
 20
36.795
  0
VERTEX
  8
LAYER_2
 10
105.8325
 20
36.6517
  0
VERTEX
  8
LAYER_2
 10
105.8033
 20
36.4798
  0
VERTEX
  8
LAYER_2
 10
105.8325
 20
36.3079
  0
VERTEX
  8
LAYER_2
 10
105.9173
 20
36.1649
  0
VERTEX
  8
LAYER_2
 10
106.052
 20
36.0674
 42
0.1008280473
  0
VERTEX
  8
LAYER_2
 10
106.2308
 20
36.0309
  0
VERTEX
  8
LAYER_2
 10
106.4096
 20
36.0674
  0
VERTEX
  8
LAYER_2
 10
106.5446
 20
36.1649
  0
VERTEX
  8
LAYER_2
 10
106.6294
 20
36.3079
  0
SEQEND
  0
ENDBLK
  0
BLOCK
  8
LAYER_2
  2
AIGNBL02030015
 70
64
 10
0
 20
0
 30
0
  3
AIGNBL02030015
  0
POLYLINE
  8
LAYER_2
 40
0.05
 41
0.05
 66
1
 10
0
 20
0
 30
0
 70
1
  0
VERTEX
  8
LAYER_2
 10
107.544
 20
35.9637
  0
VERTEX
  8
LAYER_2
 10
107.4393
 20
35.9637
  0
VERTEX
  8
LAYER_2
 10
107.4393
 20
36.4091
  0
VERTEX
  8
LAYER_2
 10
107.0524
 20
36.9969
  0
VERTEX
  8
LAYER_2
 10
107.1837
 20
36.9969
  0
VERTEX
  8
LAYER_2
 10
107.4948
 20
36.4967
  0
VERTEX
  8
LAYER_2
 10
107.8083
 20
36.9969
  0
VERTEX
  8
LAYER_2
 10
107.9306
 20
36.9969
  0
VERTEX
  8
LAYER_2
 10
107.544
 20
36.4091
  0
SEQEND
  0
ENDBLK
  0
BLOCK
  8
LAYER_2
  2
AIGNBL02030016
 70
64
 10
0
 20
0
 30
0
  3
AIGNBL02030016
  0
POLYLINE
  8
LAYER_2
 40
0.05
 41
0.05
 66
1
 10
0
 20
0
 30
0
 70
1
  0
VERTEX
  8
LAYER_2
 10
108.8356
 20
36.9969
  0
VERTEX
  8
LAYER_2
 10
109.1433
 20
36.9969
  0
VERTEX
  8
LAYER_2
 10
109.2618
 20
36.9845
  0
VERTEX
  8
LAYER_2
 10
109.3686
 20
36.9421
  0
VERTEX
  8
LAYER_2
 10
109.4464
 20
36.8611
  0
VERTEX
  8
LAYER_2
 10
109.4761
 20
36.733
 42
-0.1787887146
  0
VERTEX
  8
LAYER_2
 10
109.4261
 20
36.5907
 42
-0.1642670326
  0
VERTEX
  8
LAYER_2
 10
109.2928
 20
36.5111
  0
VERTEX
  8
LAYER_2
 10
109.2928
 20
36.5084
 42
-0.1734673322
  0
VERTEX
  8
LAYER_2
 10
109.4595
 20
36.4302
 42
-0.1923000161
  0
VERTEX
  8
LAYER_2
 10
109.5257
 20
36.2496
  0
VERTEX
  8
LAYER_2
 10
109.4985
 20
36.1325
  0
VERTEX
  8
LAYER_2
 10
109.4223
 20
36.0419
  0
VERTEX
  8
LAYER_2
 10
109.3014
 20
35.9844
  0
VERTEX
  8
LAYER_2
 10
109.1416
 20
35.9637
  0
VERTEX
  8
LAYER_2
 10
108.8356
 20
35.9637
  0
SEQEND
  0
POLYLINE
  8
LAYER_2
 40
0.05
 41
0.05
 66
1
 10
0
 20
0
 30
0
 70
1
  0
VERTEX
  8
LAYER_2
 10
108.9407
 20
36.5445
  0
VERTEX
  8
LAYER_2
 10
109.1522
 20
36.5445
  0
VERTEX
  8
LAYER_2
 10
109.2291
 20
36.5535
  0
VERTEX
  8
LAYER_2
 10
109.2993
 20
36.5831
  0
VERTEX
  8
LAYER_2
 10
109.3514
 20
36.6396
  0
VERTEX
  8
LAYER_2
 10
109.371
 20
36.7258
  0
VERTEX
  8
LAYER_2
 10
109.3514
 20
36.8095
  0
VERTEX
  8
LAYER_2
 10
109.2983
 20
36.8656
  0
VERTEX
  8
LAYER_2
 10
109.2194
 20
36.897
  0
VERTEX
  8
LAYER_2
 10
109.1229
 20
36.9066
  0
VERTEX
  8
LAYER_2
 10
108.9407
 20
36.9066
  0
SEQEND
  0
POLYLINE
  8
LAYER_2
 40
0.05
 41
0.05
 66
1
 10
0
 20
0
 30
0
 70
1
  0
VERTEX
  8
LAYER_2
 10
108.9407
 20
36.0543
  0
VERTEX
  8
LAYER_2
 10
109.1364
 20
36.0543
  0
VERTEX
  8
LAYER_2
 10
109.2449
 20
36.0653
  0
VERTEX
  8
LAYER_2
 10
109.3355
 20
36.1001
  0
VERTEX
  8
LAYER_2
 10
109.3972
 20
36.1632
  0
VERTEX
  8
LAYER_2
 10
109.4206
 20
36.2559
 42
0.2554060681
  0
VERTEX
  8
LAYER_2
 10
109.3514
 20
36.4081
 42
0.1380642909
  0
VERTEX
  8
LAYER_2
 10
109.1553
 20
36.4584
  0
VERTEX
  8
LAYER_2
 10
108.9407
 20
36.4584
  0
SEQEND
  0
ENDBLK
  0
BLOCK
  8
LAYER_2
  2
AIGNBL02030017
 70
64
 10
0
 20
0
 30
0
  3
AIGNBL02030017
  0
POLYLINE
  8
LAYER_2
 40
0.05
 41
0.05
 66
1
 10
0
 20
0
 30
0
 70
1
  0
VERTEX
  8
LAYER_2
 10
109.9577
 20
35.9637
  0
VERTEX
  8
LAYER_2
 10
109.8423
 20
35.9637
  0
VERTEX
  8
LAYER_2
 10
110.2891
 20
36.9969
  0
VERTEX
  8
LAYER_2
 10
110.3914
 20
36.9969
  0
VERTEX
  8
LAYER_2
 10
110.8348
 20
35.9637
  0
VERTEX
  8
LAYER_2
 10
110.718
 20
35.9637
  0
VERTEX
  8
LAYER_2
 10
110.604
 20
36.2352
  0
VERTEX
  8
LAYER_2
 10
110.07
 20
36.2352
  0
SEQEND
  0
POLYLINE
  8
LAYER_2
 40
0.05
 41
0.05
 66
1
 10
0
 20
0
 30
0
 70
1
  0
VERTEX
  8
LAYER_2
 10
110.1093
 20
36.3316
  0
VERTEX
  8
LAYER_2
 10
110.5647
 20
36.3316
  0
VERTEX
  8
LAYER_2
 10
110.337
 20
36.8804
  0
SEQEND
  0
ENDBLK
  0
BLOCK
  8
LAYER_2
  2
AIGNBL02030018
 70
64
 10
0
 20
0
 30
0
  3
AIGNBL02030018
  0
POLYLINE
  8
LAYER_2
 40
0.05
 41
0.05
 66
1
 10
0
 20
0
 30
0
 70
1
  0
VERTEX
  8
LAYER_2
 10
111.5194
 20
35.9637
  0
VERTEX
  8
LAYER_2
 10
111.4143
 20
35.9637
  0
VERTEX
  8
LAYER_2
 10
111.4143
 20
36.9035
  0
VERTEX
  8
LAYER_2
 10
111.068
 20
36.9035
  0
VERTEX
  8
LAYER_2
 10
111.068
 20
36.9969
  0
VERTEX
  8
LAYER_2
 10
111.8649
 20
36.9969
  0
VERTEX
  8
LAYER_2
 10
111.8649
 20
36.9035
  0
VERTEX
  8
LAYER_2
 10
111.5194
 20
36.9035
  0
SEQEND
  0
ENDBLK
  0
BLOCK
  8
LAYER_2
  2
AIGNBL02030019
 70
64
 10
0
 20
0
 30
0
  3
AIGNBL02030019
  0
POLYLINE
  8
LAYER_2
 40
0.05
 41
0.05
 66
1
 10
0
 20
0
 30
0
 70
1
  0
VERTEX
  8
LAYER_2
 10
112.2211
 20
36.9969
  0
VERTEX
  8
LAYER_2
 10
112.3258
 20
36.9969
  0
VERTEX
  8
LAYER_2
 10
112.3258
 20
36.549
  0
VERTEX
  8
LAYER_2
 10
112.8895
 20
36.549
  0
VERTEX
  8
LAYER_2
 10
112.8895
 20
36.9969
  0
VERTEX
  8
LAYER_2
 10
112.9945
 20
36.9969
  0
VERTEX
  8
LAYER_2
 10
112.9945
 20
35.9637
  0
VERTEX
  8
LAYER_2
 10
112.8895
 20
35.9637
  0
VERTEX
  8
LAYER_2
 10
112.8895
 20
36.4529
  0
VERTEX
  8
LAYER_2
 10
112.3258
 20
36.4529
  0
VERTEX
  8
LAYER_2
 10
112.3258
 20
35.9637
  0
VERTEX
  8
LAYER_2
 10
112.2211
 20
35.9637
  0
SEQEND
  0
ENDBLK
  0
BLOCK
  8
LAYER_2
  2
AIGNBL0203001A
 70
64
 10
0
 20
0
 30
0
  3
AIGNBL0203001A
  0
POLYLINE
  8
LAYER_2
 40
0.05
 41
0.05
 66
1
 10
0
 20
0
 30
0
 70
1
  0
VERTEX
  8
LAYER_2
 10
113.575
 20
35.9637
  0
VERTEX
  8
LAYER_2
 10
113.47
 20
35.9637
  0
VERTEX
  8
LAYER_2
 10
113.47
 20
36.9969
  0
VERTEX
  8
LAYER_2
 10
113.7738
 20
36.9969
  0
VERTEX
  8
LAYER_2
 10
113.9144
 20
36.9824
  0
VERTEX
  8
LAYER_2
 10
114.027
 20
36.9349
  0
VERTEX
  8
LAYER_2
 10
114.1004
 20
36.8494
  0
VERTEX
  8
LAYER_2
 10
114.1266
 20
36.7213
  0
VERTEX
  8
LAYER_2
 10
114.1066
 20
36.6176
  0
VERTEX
  8
LAYER_2
 10
114.0512
 20
36.5366
  0
VERTEX
  8
LAYER_2
 10
113.9678
 20
36.4818
  0
VERTEX
  8
LAYER_2
 10
113.8627
 20
36.4557
  0
VERTEX
  8
LAYER_2
 10
114.1648
 20
35.9637
  0
VERTEX
  8
LAYER_2
 10
114.0364
 20
35.9637
  0
VERTEX
  8
LAYER_2
 10
113.7504
 20
36.4467
  0
VERTEX
  8
LAYER_2
 10
113.575
 20
36.4467
  0
SEQEND
  0
POLYLINE
  8
LAYER_2
 40
0.05
 41
0.05
 66
1
 10
0
 20
0
 30
0
 70
1
  0
VERTEX
  8
LAYER_2
 10
113.575
 20
36.5373
  0
VERTEX
  8
LAYER_2
 10
113.7576
 20
36.5373
 42
0.1657798624
  0
VERTEX
  8
LAYER_2
 10
113.9533
 20
36.5831
 42
0.2503949893
  0
VERTEX
  8
LAYER_2
 10
114.0219
 20
36.7213
  0
VERTEX
  8
LAYER_2
 10
114.0026
 20
36.8071
  0
VERTEX
  8
LAYER_2
 10
113.9502
 20
36.8643
  0
VERTEX
  8
LAYER_2
 10
113.8686
 20
36.8963
  0
VERTEX
  8
LAYER_2
 10
113.7621
 20
36.9066
  0
VERTEX
  8
LAYER_2
 10
113.575
 20
36.9066
  0
SEQEND
  0
ENDBLK
  0
BLOCK
  8
LAYER_2
  2
AIGNBL0203001B
 70
64
 10
0
 20
0
 30
0
  3
AIGNBL0203001B
  0
POLYLINE
  8
LAYER_2
 40
0.05
 41
0.05
 66
1
 10
0
 20
0
 30
0
 70
1
  0
VERTEX
  8
LAYER_2
 10
115.567
 20
36.4805
 42
-0.1005163161
  0
VERTEX
  8
LAYER_2
 10
115.5263
 20
36.2631
 42
-0.1003846159
  0
VERTEX
  8
LAYER_2
 10
115.413
 20
36.0915
 42
-0.09571058079
  0
VERTEX
  8
LAYER_2
 10
115.2425
 20
35.9785
 42
-0.09502028874
  0
VERTEX
  8
LAYER_2
 10
115.0285
 20
35.9375
 42
-0.101175466
  0
VERTEX
  8
LAYER_2
 10
114.8146
 20
35.9785
 42
-0.09967088569
  0
VERTEX
  8
LAYER_2
 10
114.644
 20
36.0915
 42
-0.09618038288
  0
VERTEX
  8
LAYER_2
 10
114.5311
 20
36.2631
 42
-0.0931359716
  0
VERTEX
  8
LAYER_2
 10
114.4904
 20
36.4805
 42
-0.1022959507
  0
VERTEX
  8
LAYER_2
 10
114.5311
 20
36.6978
 42
-0.101709851
  0
VERTEX
  8
LAYER_2
 10
114.644
 20
36.8694
 42
-0.09577113234
  0
VERTEX
  8
LAYER_2
 10
114.8146
 20
36.9824
 42
-0.09506675375
  0
VERTEX
  8
LAYER_2
 10
115.0285
 20
37.0234
 42
-0.1012083438
  0
VERTEX
  8
LAYER_2
 10
115.2425
 20
36.9824
 42
-0.1015678172
  0
VERTEX
  8
LAYER_2
 10
115.413
 20
36.8694
 42
-0.09506500802
  0
VERTEX
  8
LAYER_2
 10
115.5263
 20
36.6978
 42
-0.09299771213
  0
SEQEND
  0
POLYLINE
  8
LAYER_2
 40
0.05
 41
0.05
 66
1
 10
0
 20
0
 30
0
 70
1
  0
VERTEX
  8
LAYER_2
 10
115.4561
 20
36.4798
  0
VERTEX
  8
LAYER_2
 10
115.4268
 20
36.6517
  0
VERTEX
  8
LAYER_2
 10
115.342
 20
36.795
  0
VERTEX
  8
LAYER_2
 10
115.2073
 20
36.8932
  0
VERTEX
  8
LAYER_2
 10
115.0285
 20
36.93
  0
VERTEX
  8
LAYER_2
 10
114.8497
 20
36.8932
  0
VERTEX
  8
LAYER_2
 10
114.7147
 20
36.795
  0
VERTEX
  8
LAYER_2
 10
114.6299
 20
36.6517
  0
VERTEX
  8
LAYER_2
 10
114.601
 20
36.4798
  0
VERTEX
  8
LAYER_2
 10
114.6299
 20
36.3079
  0
VERTEX
  8
LAYER_2
 10
114.7147
 20
36.1649
  0
VERTEX
  8
LAYER_2
 10
114.8497
 20
36.0674
  0
VERTEX
  8
LAYER_2
 10
115.0285
 20
36.0309
 42
0.1157330551
  0
VERTEX
  8
LAYER_2
 10
115.2073
 20
36.0674
  0
VERTEX
  8
LAYER_2
 10
115.342
 20
36.1649
  0
VERTEX
  8
LAYER_2
 10
115.4268
 20
36.3079
  0
SEQEND
  0
ENDBLK
  0
BLOCK
  8
LAYER_2
  2
AIGNBL0203001C
 70
64
 10
0
 20
0
 30
0
  3
AIGNBL0203001C
  0
POLYLINE
  8
LAYER_2
 40
0.05
 41
0.05
 66
1
 10
0
 20
0
 30
0
 70
1
  0
VERTEX
  8
LAYER_2
 10
117.0088
 20
36.4805
 42
-0.1041417444
  0
VERTEX
  8
LAYER_2
 10
116.9678
 20
36.2631
 42
-0.1000549391
  0
VERTEX
  8
LAYER_2
 10
116.8551
 20
36.0915
 42
-0.09536265516
  0
VERTEX
  8
LAYER_2
 10
116.6842
 20
35.9785
 42
-0.09506675375
  0
VERTEX
  8
LAYER_2
 10
116.4703
 20
35.9375
 42
-0.101822328
  0
VERTEX
  8
LAYER_2
 10
116.2567
 20
35.9785
 42
-0.102112669
  0
VERTEX
  8
LAYER_2
 10
116.0858
 20
36.0915
 42
-0.09442769366
  0
VERTEX
  8
LAYER_2
 10
115.9725
 20
36.2631
 42
-0.0931359716
  0
VERTEX
  8
LAYER_2
 10
115.9318
 20
36.4805
 42
-0.1022959507
  0
VERTEX
  8
LAYER_2
 10
115.9725
 20
36.6978
 42
-0.1008832254
  0
VERTEX
  8
LAYER_2
 10
116.0858
 20
36.8694
 42
-0.09625543395
  0
VERTEX
  8
LAYER_2
 10
116.2567
 20
36.9824
 42
-0.09528409444
  0
VERTEX
  8
LAYER_2
 10
116.4703
 20
37.0234
 42
-0.101175466
  0
VERTEX
  8
LAYER_2
 10
116.6842
 20
36.9824
 42
-0.09853409661
  0
VERTEX
  8
LAYER_2
 10
116.8551
 20
36.8694
 42
-0.09576191851
  0
VERTEX
  8
LAYER_2
 10
116.9678
 20
36.6978
 42
-0.09400765476
  0
SEQEND
  0
POLYLINE
  8
LAYER_2
 40
0.05
 41
0.05
 66
1
 10
0
 20
0
 30
0
 70
1
  0
VERTEX
  8
LAYER_2
 10
116.8978
 20
36.4798
  0
VERTEX
  8
LAYER_2
 10
116.8689
 20
36.6517
  0
VERTEX
  8
LAYER_2
 10
116.7841
 20
36.795
  0
VERTEX
  8
LAYER_2
 10
116.6491
 20
36.8932
  0
VERTEX
  8
LAYER_2
 10
116.4703
 20
36.93
  0
VERTEX
  8
LAYER_2
 10
116.2915
 20
36.8932
  0
VERTEX
  8
LAYER_2
 10
116.1568
 20
36.795
  0
VERTEX
  8
LAYER_2
 10
116.0721
 20
36.6517
  0
VERTEX
  8
LAYER_2
 10
116.0428
 20
36.4798
  0
VERTEX
  8
LAYER_2
 10
116.0721
 20
36.3079
  0
VERTEX
  8
LAYER_2
 10
116.1568
 20
36.1649
  0
VERTEX
  8
LAYER_2
 10
116.2915
 20
36.0674
 42
0.1008257054
  0
VERTEX
  8
LAYER_2
 10
116.4703
 20
36.0309
  0
VERTEX
  8
LAYER_2
 10
116.6491
 20
36.0674
  0
VERTEX
  8
LAYER_2
 10
116.7841
 20
36.1649
  0
VERTEX
  8
LAYER_2
 10
116.8689
 20
36.3079
  0
SEQEND
  0
ENDBLK
  0
BLOCK
  8
LAYER_2
  2
AIGNBL0203001D
 70
64
 10
0
 20
0
 30
0
  3
AIGNBL0203001D
  0
POLYLINE
  8
LAYER_2
 40
0.05
 41
0.05
 66
1
 10
0
 20
0
 30
0
 70
1
  0
VERTEX
  8
LAYER_2
 10
117.9396
 20
36.1418
  0
VERTEX
  8
LAYER_2
 10
117.9414
 20
36.1418
  0
VERTEX
  8
LAYER_2
 10
118.2869
 20
36.9969
  0
VERTEX
  8
LAYER_2
 10
118.4478
 20
36.9969
  0
VERTEX
  8
LAYER_2
 10
118.4478
 20
35.9637
  0
VERTEX
  8
LAYER_2
 10
118.3424
 20
35.9637
  0
VERTEX
  8
LAYER_2
 10
118.3424
 20
36.8611
  0
VERTEX
  8
LAYER_2
 10
118.3396
 20
36.8611
  0
VERTEX
  8
LAYER_2
 10
117.9662
 20
35.9637
  0
VERTEX
  8
LAYER_2
 10
117.9107
 20
35.9637
  0
VERTEX
  8
LAYER_2
 10
117.5369
 20
36.8611
  0
VERTEX
  8
LAYER_2
 10
117.5341
 20
36.8611
  0
VERTEX
  8
LAYER_2
 10
117.5341
 20
35.9637
  0
VERTEX
  8
LAYER_2
 10
117.4291
 20
35.9637
  0
VERTEX
  8
LAYER_2
 10
117.4291
 20
36.9969
  0
VERTEX
  8
LAYER_2
 10
117.5896
 20
36.9969
  0
SEQEND
  0
ENDBLK
  0
BLOCK
  8
LAYER_2
  2
AIGNBL0203001E
 70
64
 10
0
 20
0
 30
0
  3
AIGNBL0203001E
  0
POLYLINE
  8
LAYER_2
 40
0.05
 41
0.05
 66
1
 10
0
 20
0
 30
0
 70
1
  0
VERTEX
  8
LAYER_2
 10
119.5943
 20
36.0574
  0
VERTEX
  8
LAYER_2
 10
120.1476
 20
36.0574
  0
VERTEX
  8
LAYER_2
 10
120.1476
 20
35.9637
  0
VERTEX
  8
LAYER_2
 10
119.4892
 20
35.9637
  0
VERTEX
  8
LAYER_2
 10
119.4892
 20
36.9969
  0
VERTEX
  8
LAYER_2
 10
120.13
 20
36.9969
  0
VERTEX
  8
LAYER_2
 10
120.13
 20
36.9035
  0
VERTEX
  8
LAYER_2
 10
119.5943
 20
36.9035
  0
VERTEX
  8
LAYER_2
 10
119.5943
 20
36.549
  0
VERTEX
  8
LAYER_2
 10
120.0949
 20
36.549
  0
VERTEX
  8
LAYER_2
 10
120.0949
 20
36.4557
  0
VERTEX
  8
LAYER_2
 10
119.5943
 20
36.4557
  0
SEQEND
  0
ENDBLK
  0
BLOCK
  8
LAYER_2
  2
AIGNBL0203001F
 70
64
 10
0
 20
0
 30
0
  3
AIGNBL0203001F
  0
POLYLINE
  8
LAYER_2
 40
0.05
 41
0.05
 66
1
 10
0
 20
0
 30
0
 70
1
  0
VERTEX
  8
LAYER_2
 10
120.8928
 20
36.5797
  0
VERTEX
  8
LAYER_2
 10
121.1749
 20
36.9969
  0
VERTEX
  8
LAYER_2
 10
121.3
 20
36.9969
  0
VERTEX
  8
LAYER_2
 10
120.9575
 20
36.5053
  0
VERTEX
  8
LAYER_2
 10
121.3368
 20
35.9637
  0
VERTEX
  8
LAYER_2
 10
121.2056
 20
35.9637
  0
VERTEX
  8
LAYER_2
 10
120.89
 20
36.4295
  0
VERTEX
  8
LAYER_2
 10
120.5765
 20
35.9637
  0
VERTEX
  8
LAYER_2
 10
120.4449
 20
35.9637
  0
VERTEX
  8
LAYER_2
 10
120.8246
 20
36.5066
  0
VERTEX
  8
LAYER_2
 10
120.4787
 20
36.9969
  0
VERTEX
  8
LAYER_2
 10
120.6103
 20
36.9969
  0
SEQEND
  0
ENDBLK
  0
BLOCK
  8
LAYER_2
  2
AIGNBL02030020
 70
64
 10
0
 20
0
 30
0
  3
AIGNBL02030020
  0
POLYLINE
  8
LAYER_2
 40
0.05
 41
0.05
 66
1
 10
0
 20
0
 30
0
 70
1
  0
VERTEX
  8
LAYER_2
 10
121.7031
 20
36.9969
  0
VERTEX
  8
LAYER_2
 10
121.9952
 20
36.9969
  0
VERTEX
  8
LAYER_2
 10
122.1382
 20
36.9804
  0
VERTEX
  8
LAYER_2
 10
122.2481
 20
36.929
  0
VERTEX
  8
LAYER_2
 10
122.319
 20
36.8429
  0
VERTEX
  8
LAYER_2
 10
122.3435
 20
36.7213
  0
VERTEX
  8
LAYER_2
 10
122.3183
 20
36.5993
  0
VERTEX
  8
LAYER_2
 10
122.2467
 20
36.5132
  0
VERTEX
  8
LAYER_2
 10
122.1358
 20
36.4615
  0
VERTEX
  8
LAYER_2
 10
121.9921
 20
36.444
  0
VERTEX
  8
LAYER_2
 10
121.8081
 20
36.444
  0
VERTEX
  8
LAYER_2
 10
121.8081
 20
35.9637
  0
VERTEX
  8
LAYER_2
 10
121.7031
 20
35.9637
  0
SEQEND
  0
POLYLINE
  8
LAYER_2
 40
0.05
 41
0.05
 66
1
 10
0
 20
0
 30
0
 70
1
  0
VERTEX
  8
LAYER_2
 10
121.8081
 20
36.5328
  0
VERTEX
  8
LAYER_2
 10
121.9859
 20
36.5328
 42
0.1829203509
  0
VERTEX
  8
LAYER_2
 10
122.1743
 20
36.581
 42
0.2347011275
  0
VERTEX
  8
LAYER_2
 10
122.2388
 20
36.7213
 42
0.26486771
  0
VERTEX
  8
LAYER_2
 10
122.1723
 20
36.8622
 42
0.1264027561
  0
VERTEX
  8
LAYER_2
 10
121.9859
 20
36.9066
  0
VERTEX
  8
LAYER_2
 10
121.8081
 20
36.9066
  0
SEQEND
  0
ENDBLK
  0
BLOCK
  8
LAYER_2
  2
AIGNBL02030021
 70
64
 10
0
 20
0
 30
0
  3
AIGNBL02030021
  0
POLYLINE
  8
LAYER_2
 40
0.05
 41
0.05
 66
1
 10
0
 20
0
 30
0
 70
1
  0
VERTEX
  8
LAYER_2
 10
122.8558
 20
36.0574
  0
VERTEX
  8
LAYER_2
 10
123.4091
 20
36.0574
  0
VERTEX
  8
LAYER_2
 10
123.4091
 20
35.9637
  0
VERTEX
  8
LAYER_2
 10
122.7507
 20
35.9637
  0
VERTEX
  8
LAYER_2
 10
122.7507
 20
36.9969
  0
VERTEX
  8
LAYER_2
 10
123.3915
 20
36.9969
  0
VERTEX
  8
LAYER_2
 10
123.3915
 20
36.9035
  0
VERTEX
  8
LAYER_2
 10
122.8558
 20
36.9035
  0
VERTEX
  8
LAYER_2
 10
122.8558
 20
36.549
  0
VERTEX
  8
LAYER_2
 10
123.3564
 20
36.549
  0
VERTEX
  8
LAYER_2
 10
123.3564
 20
36.4557
  0
VERTEX
  8
LAYER_2
 10
122.8558
 20
36.4557
  0
SEQEND
  0
ENDBLK
  0
BLOCK
  8
LAYER_2
  2
AIGNBL02030022
 70
64
 10
0
 20
0
 30
0
  3
AIGNBL02030022
  0
POLYLINE
  8
LAYER_2
 40
0.05
 41
0.05
 66
1
 10
0
 20
0
 30
0
 70
1
  0
VERTEX
  8
LAYER_2
 10
123.921
 20
35.9637
  0
VERTEX
  8
LAYER_2
 10
123.8159
 20
35.9637
  0
VERTEX
  8
LAYER_2
 10
123.8159
 20
36.9969
  0
VERTEX
  8
LAYER_2
 10
124.1198
 20
36.9969
  0
VERTEX
  8
LAYER_2
 10
124.2603
 20
36.9824
  0
VERTEX
  8
LAYER_2
 10
124.373
 20
36.9349
  0
VERTEX
  8
LAYER_2
 10
124.4467
 20
36.8494
  0
VERTEX
  8
LAYER_2
 10
124.4726
 20
36.7213
  0
VERTEX
  8
LAYER_2
 10
124.4526
 20
36.6176
  0
VERTEX
  8
LAYER_2
 10
124.3971
 20
36.5366
  0
VERTEX
  8
LAYER_2
 10
124.3138
 20
36.4818
  0
VERTEX
  8
LAYER_2
 10
124.2087
 20
36.4557
  0
VERTEX
  8
LAYER_2
 10
124.5108
 20
35.9637
  0
VERTEX
  8
LAYER_2
 10
124.3823
 20
35.9637
  0
VERTEX
  8
LAYER_2
 10
124.0964
 20
36.4467
  0
VERTEX
  8
LAYER_2
 10
123.921
 20
36.4467
  0
SEQEND
  0
POLYLINE
  8
LAYER_2
 40
0.05
 41
0.05
 66
1
 10
0
 20
0
 30
0
 70
1
  0
VERTEX
  8
LAYER_2
 10
123.921
 20
36.5373
  0
VERTEX
  8
LAYER_2
 10
124.1036
 20
36.5373
 42
0.1667119028
  0
VERTEX
  8
LAYER_2
 10
124.2993
 20
36.5831
 42
0.2503091692
  0
VERTEX
  8
LAYER_2
 10
124.3678
 20
36.7213
  0
VERTEX
  8
LAYER_2
 10
124.3489
 20
36.8071
  0
VERTEX
  8
LAYER_2
 10
124.2962
 20
36.8643
  0
VERTEX
  8
LAYER_2
 10
124.2145
 20
36.8963
  0
VERTEX
  8
LAYER_2
 10
124.1081
 20
36.9066
  0
VERTEX
  8
LAYER_2
 10
123.921
 20
36.9066
  0
SEQEND
  0
ENDBLK
  0
BLOCK
  8
LAYER_2
  2
AIGNBL02030023
 70
64
 10
0
 20
0
 30
0
  3
AIGNBL02030023
  0
POLYLINE
  8
LAYER_2
 40
0.05
 41
0.05
 66
1
 10
0
 20
0
 30
0
 70
1
  0
VERTEX
  8
LAYER_2
 10
124.9966
 20
35.9637
  0
VERTEX
  8
LAYER_2
 10
124.8919
 20
35.9637
  0
VERTEX
  8
LAYER_2
 10
124.8919
 20
36.9969
  0
VERTEX
  8
LAYER_2
 10
124.9966
 20
36.9969
  0
SEQEND
  0
ENDBLK
  0
BLOCK
  8
LAYER_2
  2
AIGNBL02030024
 70
64
 10
0
 20
0
 30
0
  3
AIGNBL02030024
  0
POLYLINE
  8
LAYER_2
 40
0.05
 41
0.05
 66
1
 10
0
 20
0
 30
0
 70
1
  0
VERTEX
  8
LAYER_2
 10
125.5774
 20
36.0574
  0
VERTEX
  8
LAYER_2
 10
126.1304
 20
36.0574
  0
VERTEX
  8
LAYER_2
 10
126.1304
 20
35.9637
  0
VERTEX
  8
LAYER_2
 10
125.4724
 20
35.9637
  0
VERTEX
  8
LAYER_2
 10
125.4724
 20
36.9969
  0
VERTEX
  8
LAYER_2
 10
126.1131
 20
36.9969
  0
VERTEX
  8
LAYER_2
 10
126.1131
 20
36.9035
  0
VERTEX
  8
LAYER_2
 10
125.5774
 20
36.9035
  0
VERTEX
  8
LAYER_2
 10
125.5774
 20
36.549
  0
VERTEX
  8
LAYER_2
 10
126.078
 20
36.549
  0
VERTEX
  8
LAYER_2
 10
126.078
 20
36.4557
  0
VERTEX
  8
LAYER_2
 10
125.5774
 20
36.4557
  0
SEQEND
  0
ENDBLK
  0
BLOCK
  8
LAYER_2
  2
AIGNBL02030025
 70
64
 10
0
 20
0
 30
0
  3
AIGNBL02030025
  0
POLYLINE
  8
LAYER_2
 40
0.05
 41
0.05
 66
1
 10
0
 20
0
 30
0
 70
1
  0
VERTEX
  8
LAYER_2
 10
127.2703
 20
36.117
  0
VERTEX
  8
LAYER_2
 10
127.2731
 20
36.117
  0
VERTEX
  8
LAYER_2
 10
127.2731
 20
36.9969
  0
VERTEX
  8
LAYER_2
 10
127.3782
 20
36.9969
  0
VERTEX
  8
LAYER_2
 10
127.3782
 20
35.9637
  0
VERTEX
  8
LAYER_2
 10
127.2469
 20
35.9637
  0
VERTEX
  8
LAYER_2
 10
126.6457
 20
36.8525
  0
VERTEX
  8
LAYER_2
 10
126.6426
 20
36.8525
  0
VERTEX
  8
LAYER_2
 10
126.6426
 20
35.9637
  0
VERTEX
  8
LAYER_2
 10
126.5376
 20
35.9637
  0
VERTEX
  8
LAYER_2
 10
126.5376
 20
36.9969
  0
VERTEX
  8
LAYER_2
 10
126.6692
 20
36.9969
  0
SEQEND
  0
ENDBLK
  0
BLOCK
  8
LAYER_2
  2
AIGNBL02030026
 70
64
 10
0
 20
0
 30
0
  3
AIGNBL02030026
  0
POLYLINE
  8
LAYER_2
 40
0.05
 41
0.05
 66
1
 10
0
 20
0
 30
0
 70
1
  0
VERTEX
  8
LAYER_2
 10
128.7238
 20
36.1315
  0
VERTEX
  8
LAYER_2
 10
128.6601
 20
36.0571
  0
VERTEX
  8
LAYER_2
 10
128.574
 20
35.9954
  0
VERTEX
  8
LAYER_2
 10
128.4658
 20
35.953
  0
VERTEX
  8
LAYER_2
 10
128.3369
 20
35.9375
 42
-0.1009408553
  0
VERTEX
  8
LAYER_2
 10
128.1209
 20
35.9785
 42
-0.1036559164
  0
VERTEX
  8
LAYER_2
 10
127.9504
 20
36.0915
 42
-0.09812017057
  0
VERTEX
  8
LAYER_2
 10
127.8388
 20
36.2631
 42
-0.09232404316
  0
VERTEX
  8
LAYER_2
 10
127.7985
 20
36.4805
 42
-0.1041003847
  0
VERTEX
  8
LAYER_2
 10
127.8395
 20
36.6978
 42
-0.1007605982
  0
VERTEX
  8
LAYER_2
 10
127.9521
 20
36.8694
 42
-0.09536265516
  0
VERTEX
  8
LAYER_2
 10
128.123
 20
36.9824
 42
-0.09506675375
  0
VERTEX
  8
LAYER_2
 10
128.3369
 20
37.0234
  0
VERTEX
  8
LAYER_2
 10
128.4486
 20
37.0114
  0
VERTEX
  8
LAYER_2
 10
128.5516
 20
36.9779
  0
VERTEX
  8
LAYER_2
 10
128.6391
 20
36.9263
  0
VERTEX
  8
LAYER_2
 10
128.7049
 20
36.8584
  0
VERTEX
  8
LAYER_2
 10
128.6174
 20
36.794
  0
VERTEX
  8
LAYER_2
 10
128.574
 20
36.8439
  0
VERTEX
  8
LAYER_2
 10
128.5106
 20
36.8877
  0
VERTEX
  8
LAYER_2
 10
128.431
 20
36.9183
  0
VERTEX
  8
LAYER_2
 10
128.3383
 20
36.93
  0
VERTEX
  8
LAYER_2
 10
128.1581
 20
36.8935
  0
VERTEX
  8
LAYER_2
 10
128.0231
 20
36.7954
  0
VERTEX
  8
LAYER_2
 10
127.9383
 20
36.652
  0
VERTEX
  8
LAYER_2
 10
127.9094
 20
36.4805
  0
VERTEX
  8
LAYER_2
 10
127.9394
 20
36.3089
  0
VERTEX
  8
LAYER_2
 10
128.0248
 20
36.1656
  0
VERTEX
  8
LAYER_2
 10
128.1598
 20
36.0674
 42
0.1009931224
  0
VERTEX
  8
LAYER_2
 10
128.3383
 20
36.0309
  0
VERTEX
  8
LAYER_2
 10
128.5075
 20
36.0674
 42
0.1325349639
  0
VERTEX
  8
LAYER_2
 10
128.6418
 20
36.1842
  0
SEQEND
  0
ENDBLK
  0
BLOCK
  8
LAYER_2
  2
AIGNBL02030027
 70
64
 10
0
 20
0
 30
0
  3
AIGNBL02030027
  0
POLYLINE
  8
LAYER_2
 40
0.05
 41
0.05
 66
1
 10
0
 20
0
 30
0
 70
1
  0
VERTEX
  8
LAYER_2
 10
129.2109
 20
36.0574
  0
VERTEX
  8
LAYER_2
 10
129.7642
 20
36.0574
  0
VERTEX
  8
LAYER_2
 10
129.7642
 20
35.9637
  0
VERTEX
  8
LAYER_2
 10
129.1059
 20
35.9637
  0
VERTEX
  8
LAYER_2
 10
129.1059
 20
36.9969
  0
VERTEX
  8
LAYER_2
 10
129.7467
 20
36.9969
  0
VERTEX
  8
LAYER_2
 10
129.7467
 20
36.9035
  0
VERTEX
  8
LAYER_2
 10
129.2109
 20
36.9035
  0
VERTEX
  8
LAYER_2
 10
129.2109
 20
36.549
  0
VERTEX
  8
LAYER_2
 10
129.7115
 20
36.549
  0
VERTEX
  8
LAYER_2
 10
129.7115
 20
36.4557
  0
VERTEX
  8
LAYER_2
 10
129.2109
 20
36.4557
  0
SEQEND
  0
ENDBLK
  0
BLOCK
  8
LAYER_2
  2
AIGNBL02020004
 70
64
 10
0
 20
0
 30
0
  3
AIGNBL02020004
  0
POLYLINE
  8
LAYER_2
 40
0.05
 41
0.05
 66
1
 10
0
 20
0
 30
0
  0
VERTEX
  8
LAYER_2
 10
-1.196
 20
217.6012
 42
-0.07434374488
  0
VERTEX
  8
LAYER_2
 10
-1.3046
 20
216.4751
 42
-0.1312981164
  0
VERTEX
  8
LAYER_2
 10
-1.5732
 20
216.0054
 42
-0.208619006
  0
VERTEX
  8
LAYER_2
 10
-2.3408
 20
215.7164
 42
-0.1980855618
  0
VERTEX
  8
LAYER_2
 10
-3.0956
 20
216.0054
 42
-0.1359059684
  0
VERTEX
  8
LAYER_2
 10
-3.3746
 20
216.5106
 42
-0.06699191066
  0
VERTEX
  8
LAYER_2
 10
-3.4732
 20
217.6012
 42
-0.07470238595
  0
VERTEX
  8
LAYER_2
 10
-3.3644
 20
218.7157
 42
-0.1310826725
  0
VERTEX
  8
LAYER_2
 10
-3.0956
 20
219.1845
 42
-0.2061520596
  0
VERTEX
  8
LAYER_2
 10
-2.3408
 20
219.4732
 42
-0.1977437771
  0
VERTEX
  8
LAYER_2
 10
-1.5732
 20
219.1845
 42
-0.1358673357
  0
VERTEX
  8
LAYER_2
 10
-1.2943
 20
218.6804
 42
-0.06720044206
  0
VERTEX
  8
LAYER_2
 10
-1.196
 20
217.6012
  0
SEQEND
  0
POLYLINE
  8
LAYER_2
 40
0.05
 41
0.05
 66
1
 10
0
 20
0
 30
0
  0
VERTEX
  8
LAYER_2
 10
0.4394
 20
217.6012
 42
0.0577585355
  0
VERTEX
  8
LAYER_2
 10
0.3194
 20
218.9609
 42
0.1358747382
  0
VERTEX
  8
LAYER_2
 10
-0.303
 20
220.1395
 42
0.1777268905
  0
VERTEX
  8
LAYER_2
 10
-1.8892
 20
220.9154
 42
0.03495822391
  0
VERTEX
  8
LAYER_2
 10
-2.3408
 20
220.9436
 42
0.07961804251
  0
VERTEX
  8
LAYER_2
 10
-3.315
 20
220.7962
 42
0.1217450219
  0
VERTEX
  8
LAYER_2
 10
-4.3662
 20
220.1395
 42
0.09150776818
  0
VERTEX
  8
LAYER_2
 10
-4.8465
 20
219.4067
 42
0.07735978812
  0
VERTEX
  8
LAYER_2
 10
-5.0776
 20
218.3847
 42
0.03281807239
  0
VERTEX
  8
LAYER_2
 10
-5.1082
 20
217.6012
 42
0.05725233541
  0
VERTEX
  8
LAYER_2
 10
-4.9885
 20
216.2362
 42
0.1359864428
  0
VERTEX
  8
LAYER_2
 10
-4.3662
 20
215.0504
 42
0.175204158
  0
VERTEX
  8
LAYER_2
 10
-2.7508
 20
214.2702
 42
0.03231924249
  0
VERTEX
  8
LAYER_2
 10
-2.3408
 20
214.2463
 42
0.07899302184
  0
VERTEX
  8
LAYER_2
 10
-1.3625
 20
214.3937
 42
0.1216861451
  0
VERTEX
  8
LAYER_2
 10
-0.303
 20
215.0504
 42
0.09340304456
  0
VERTEX
  8
LAYER_2
 10
0.1681
 20
215.7463
 42
0.0774645698
  0
VERTEX
  8
LAYER_2
 10
0.4017
 20
216.7223
 42
0.02212089617
  0
VERTEX
  8
LAYER_2
 10
0.4394
 20
217.6012
  0
SEQEND
  0
POLYLINE
  8
LAYER_2
 40
0.05
 41
0.05
 66
1
 10
0
 20
0
 30
0
  0
VERTEX
  8
LAYER_2
 10
-11.3166
 20
218.2044
  0
VERTEX
  8
LAYER_2
 10
-13.8074
 20
218.2044
 42
-0.1153546446
  0
VERTEX
  8
LAYER_2
 10
-13.6562
 20
218.9079
 42
-0.3007040875
  0
VERTEX
  8
LAYER_2
 10
-12.562
 20
219.5866
 42
-0.1235431447
  0
VERTEX
  8
LAYER_2
 10
-11.9621
 20
219.4464
 42
-0.1667603161
  0
VERTEX
  8
LAYER_2
 10
-11.4672
 20
218.9079
 42
-0.1143399212
  0
VERTEX
  8
LAYER_2
 10
-11.3166
 20
218.2044
  0
SEQEND
  0
POLYLINE
  8
LAYER_2
 40
0.05
 41
0.05
 66
1
 10
0
 20
0
 30
0
 70
1
  0
VERTEX
  8
LAYER_2
 10
-9.7064
 20
217.0861
  0
VERTEX
  8
LAYER_2
 10
-9.7064
 20
217.7772
 42
0.0677042249
  0
VERTEX
  8
LAYER_2
 10
-9.852
 20
218.9102
 42
0.07767771487
  0
VERTEX
  8
LAYER_2
 10
-10.2392
 20
219.7789
 42
0.1724975422
  0
VERTEX
  8
LAYER_2
 10
-11.5857
 20
220.7996
 42
0.07776532921
  0
VERTEX
  8
LAYER_2
 10
-12.562
 20
220.9436
 42
0.0796960513
  0
VERTEX
  8
LAYER_2
 10
-13.5247
 20
220.7966
 42
0.168887661
  0
VERTEX
  8
LAYER_2
 10
-14.846
 20
219.7874
 42
0.07658055294
  0
VERTEX
  8
LAYER_2
 10
-15.2466
 20
218.9066
 42
0.07097127065
  0
VERTEX
  8
LAYER_2
 10
-15.4177
 20
217.6012
 42
0.05685454964
  0
VERTEX
  8
LAYER_2
 10
-15.2934
 20
216.4004
 42
0.07540481703
  0
VERTEX
  8
LAYER_2
 10
-14.9492
 20
215.5069
 42
0.1774924504
  0
VERTEX
  8
LAYER_2
 10
-13.6777
 20
214.4527
 42
0.08958127581
  0
VERTEX
  8
LAYER_2
 10
-12.386
 20
214.2463
 42
0.07080596686
  0
VERTEX
  8
LAYER_2
 10
-11.2943
 20
214.3814
 42
0.08369033087
  0
VERTEX
  8
LAYER_2
 10
-10.4805
 20
214.7708
 42
0.04417423811
  0
VERTEX
  8
LAYER_2
 10
-9.8948
 20
215.2768
  0
VERTEX
  8
LAYER_2
 10
-10.8887
 20
216.2442
 42
-0.09875545259
  0
VERTEX
  8
LAYER_2
 10
-11.5612
 20
215.7667
 42
-0.1006814841
  0
VERTEX
  8
LAYER_2
 10
-12.3732
 20
215.6285
 42
-0.1070981108
  0
VERTEX
  8
LAYER_2
 10
-13.0555
 20
215.7638
 42
-0.2542521374
  0
VERTEX
  8
LAYER_2
 10
-13.7778
 20
216.7415
 42
-0.04997815034
  0
VERTEX
  8
LAYER_2
 10
-13.8074
 20
217.0861
  0
SEQEND
  0
POLYLINE
  8
LAYER_2
 40
0.05
 41
0.05
 66
1
 10
0
 20
0
 30
0
 70
1
  0
VERTEX
  8
LAYER_2
 10
-16.9018
 20
223.2773
  0
VERTEX
  8
LAYER_2
 10
-18.5517
 20
223.2773
  0
VERTEX
  8
LAYER_2
 10
-18.5517
 20
221.9454
  0
VERTEX
  8
LAYER_2
 10
-16.9018
 20
221.9454
  0
SEQEND
  0
POLYLINE
  8
LAYER_2
 40
0.05
 41
0.05
 66
1
 10
0
 20
0
 30
0
 70
1
  0
VERTEX
  8
LAYER_2
 10
-16.9146
 20
220.79
  0
VERTEX
  8
LAYER_2
 10
-18.5499
 20
220.79
  0
VERTEX
  8
LAYER_2
 10
-18.5499
 20
214.3218
  0
VERTEX
  8
LAYER_2
 10
-16.9146
 20
214.3218
  0
SEQEND
  0
POLYLINE
  8
LAYER_2
 40
0.05
 41
0.05
 66
1
 10
0
 20
0
 30
0
  0
VERTEX
  8
LAYER_2
 10
-19.8205
 20
215.1386
  0
VERTEX
  8
LAYER_2
 10
-20.9274
 20
216.2317
 42
-0.1123773458
  0
VERTEX
  8
LAYER_2
 10
-21.5025
 20
215.8017
 42
-0.09517045223
  0
VERTEX
  8
LAYER_2
 10
-21.984
 20
215.7164
 42
-0.2295666259
  0
VERTEX
  8
LAYER_2
 10
-22.9149
 20
216.1436
 42
-0.1146247369
  0
VERTEX
  8
LAYER_2
 10
-23.2025
 20
216.7765
 42
-0.05302023055
  0
VERTEX
  8
LAYER_2
 10
-23.2797
 20
217.6012
 42
-0.07909887362
  0
VERTEX
  8
LAYER_2
 10
-23.1547
 20
218.5928
 42
-0.092262399
  0
VERTEX
  8
LAYER_2
 10
-22.9149
 20
219.0461
 42
-0.2338488836
  0
VERTEX
  8
LAYER_2
 10
-21.984
 20
219.4732
 42
-0.128883052
  0
VERTEX
  8
LAYER_2
 10
-21.3835
 20
219.3322
 42
-0.07812769659
  0
VERTEX
  8
LAYER_2
 10
-20.9274
 20
218.9585
  0
VERTEX
  8
LAYER_2
 10
-19.8205
 20
220.0637
 42
0.170273791
  0
VERTEX
  8
LAYER_2
 10
-21.4399
 20
220.9062
 42
0.04126809408
  0
VERTEX
  8
LAYER_2
 10
-21.984
 20
220.9436
 42
0.07342899762
  0
VERTEX
  8
LAYER_2
 10
-22.9625
 20
220.804
 42
0.1715306153
  0
VERTEX
  8
LAYER_2
 10
-24.3547
 20
219.7917
 42
0.07792315428
  0
VERTEX
  8
LAYER_2
 10
-24.7438
 20
218.9398
 42
0.07121572719
  0
VERTEX
  8
LAYER_2
 10
-24.9151
 20
217.6012
 42
0.06071119945
  0
VERTEX
  8
LAYER_2
 10
-24.7811
 20
216.4004
 42
0.07599045696
  0
VERTEX
  8
LAYER_2
 10
-24.4186
 20
215.5069
 42
0.1707838222
  0
VERTEX
  8
LAYER_2
 10
-23.1195
 20
214.4409
 42
0.08917342928
  0
VERTEX
  8
LAYER_2
 10
-21.984
 20
214.2463
 42
0.07667723183
  0
VERTEX
  8
LAYER_2
 10
-21.0013
 20
214.3855
 42
0.1303789466
  0
VERTEX
  8
LAYER_2
 10
-19.8205
 20
215.1386
  0
SEQEND
  0
ENDBLK
  0
BLOCK
  8
LAYER_2
  2
AIGNBL02020005
 70
64
 10
0
 20
0
 30
0
  3
AIGNBL02020005
  0
POLYLINE
  8
LAYER_2
 40
0.05
 41
0.05
 66
1
 10
0
 20
0
 30
0
 70
1
  0
VERTEX
  8
LAYER_2
 10
0.3288
 20
212.6805
  0
VERTEX
  8
LAYER_2
 10
0.0009
 20
212.6805
  0
VERTEX
  8
LAYER_2
 10
-0.2479
 20
211.9109
  0
VERTEX
  8
LAYER_2
 10
-0.5066
 20
212.6805
  0
VERTEX
  8
LAYER_2
 10
-0.8342
 20
212.6805
  0
VERTEX
  8
LAYER_2
 10
-0.4084
 20
211.5234
  0
VERTEX
  8
LAYER_2
 10
-0.4611
 20
211.3704
 42
-0.396721792
  0
VERTEX
  8
LAYER_2
 10
-0.6165
 20
211.2581
  0
VERTEX
  8
LAYER_2
 10
-0.6882
 20
211.2581
  0
VERTEX
  8
LAYER_2
 10
-0.6882
 20
210.9783
  0
VERTEX
  8
LAYER_2
 10
-0.5662
 20
210.9783
 42
0.2105921841
  0
VERTEX
  8
LAYER_2
 10
-0.2985
 20
211.0741
  0
VERTEX
  8
LAYER_2
 10
-0.2048
 20
211.2343
  0
SEQEND
  0
POLYLINE
  8
LAYER_2
 40
0.05
 41
0.05
 66
1
 10
0
 20
0
 30
0
 70
1
  0
VERTEX
  8
LAYER_2
 10
-0.8704
 20
211.4352
  0
VERTEX
  8
LAYER_2
 10
-0.8704
 20
211.6977
  0
VERTEX
  8
LAYER_2
 10
-0.9899
 20
211.6977
 42
-0.4758158184
  0
VERTEX
  8
LAYER_2
 10
-1.0998
 20
211.8103
  0
VERTEX
  8
LAYER_2
 10
-1.0998
 20
213.137
  0
VERTEX
  8
LAYER_2
 10
-1.4109
 20
213.137
  0
VERTEX
  8
LAYER_2
 10
-1.4109
 20
211.7914
 42
0.4199153803
  0
VERTEX
  8
LAYER_2
 10
-1.0475
 20
211.4352
  0
SEQEND
  0
POLYLINE
  8
LAYER_2
 40
0.05
 41
0.05
 66
1
 10
0
 20
0
 30
0
 70
1
  0
VERTEX
  8
LAYER_2
 10
-1.9739
 20
211.894
 42
-0.2612643935
  0
VERTEX
  8
LAYER_2
 10
-2.0214
 20
211.7363
 42
-0.1972145384
  0
VERTEX
  8
LAYER_2
 10
-2.2057
 20
211.6763
 42
-0.4351815088
  0
VERTEX
  8
LAYER_2
 10
-2.3949
 20
211.8175
 42
-0.4650020324
  0
VERTEX
  8
LAYER_2
 10
-2.2105
 20
211.9609
  0
VERTEX
  8
LAYER_2
 10
-1.9739
 20
211.9609
  0
SEQEND
  0
POLYLINE
  8
LAYER_2
 40
0.05
 41
0.05
 66
1
 10
0
 20
0
 30
0
 70
1
  0
VERTEX
  8
LAYER_2
 10
-1.6624
 20
211.4352
  0
VERTEX
  8
LAYER_2
 10
-1.6624
 20
212.2551
 42
0.2205564812
  0
VERTEX
  8
LAYER_2
 10
-1.7881
 20
212.5772
 42
0.1806009816
  0
VERTEX
  8
LAYER_2
 10
-2.194
 20
212.6947
 42
0.2375604919
  0
VERTEX
  8
LAYER_2
 10
-2.6412
 20
212.5179
  0
VERTEX
  8
LAYER_2
 10
-2.4452
 20
212.3243
 42
-0.2464065653
  0
VERTEX
  8
LAYER_2
 10
-2.2057
 20
212.4322
 42
-0.4684872669
  0
VERTEX
  8
LAYER_2
 10
-1.9739
 20
212.2358
  0
VERTEX
  8
LAYER_2
 10
-1.9739
 20
212.1738
  0
VERTEX
  8
LAYER_2
 10
-2.2633
 20
212.1738
 42
0.2103132122
  0
VERTEX
  8
LAYER_2
 10
-2.6081
 20
212.0486
 42
0.18506809
  0
VERTEX
  8
LAYER_2
 10
-2.6942
 20
211.8127
 42
0.1945609364
  0
VERTEX
  8
LAYER_2
 10
-2.5912
 20
211.533
 42
0.1980708175
  0
VERTEX
  8
LAYER_2
 10
-2.2729
 20
211.4228
 42
0.2246292991
  0
VERTEX
  8
LAYER_2
 10
-1.9663
 20
211.5426
  0
VERTEX
  8
LAYER_2
 10
-1.9663
 20
211.4352
  0
SEQEND
  0
POLYLINE
  8
LAYER_2
 40
0.05
 41
0.05
 66
1
 10
0
 20
0
 30
0
 70
1
  0
VERTEX
  8
LAYER_2
 10
-2.8758
 20
211.4352
  0
VERTEX
  8
LAYER_2
 10
-2.8758
 20
211.6977
  0
VERTEX
  8
LAYER_2
 10
-2.9884
 20
211.6977
 42
-0.4605815503
  0
VERTEX
  8
LAYER_2
 10
-3.0963
 20
211.8103
  0
VERTEX
  8
LAYER_2
 10
-3.0963
 20
212.4081
  0
VERTEX
  8
LAYER_2
 10
-2.8758
 20
212.4081
  0
VERTEX
  8
LAYER_2
 10
-2.8758
 20
212.6444
  0
VERTEX
  8
LAYER_2
 10
-3.0963
 20
212.6444
  0
VERTEX
  8
LAYER_2
 10
-3.0963
 20
213.0126
  0
VERTEX
  8
LAYER_2
 10
-3.407
 20
213.0126
  0
VERTEX
  8
LAYER_2
 10
-3.407
 20
212.6444
  0
VERTEX
  8
LAYER_2
 10
-3.539
 20
212.6444
  0
VERTEX
  8
LAYER_2
 10
-3.539
 20
212.4081
  0
VERTEX
  8
LAYER_2
 10
-3.407
 20
212.4081
  0
VERTEX
  8
LAYER_2
 10
-3.407
 20
211.7914
 42
0.4187763975
  0
VERTEX
  8
LAYER_2
 10
-3.0456
 20
211.4352
  0
SEQEND
  0
POLYLINE
  8
LAYER_2
 40
0.05
 41
0.05
 66
1
 10
0
 20
0
 30
0
 70
1
  0
VERTEX
  8
LAYER_2
 10
-3.8091
 20
213.137
  0
VERTEX
  8
LAYER_2
 10
-4.1419
 20
213.137
  0
VERTEX
  8
LAYER_2
 10
-4.1419
 20
211.4352
  0
VERTEX
  8
LAYER_2
 10
-3.8091
 20
211.4352
  0
SEQEND
  0
POLYLINE
  8
LAYER_2
 40
0.05
 41
0.05
 66
1
 10
0
 20
0
 30
0
 70
1
  0
VERTEX
  8
LAYER_2
 10
-5.0562
 20
211.4352
  0
VERTEX
  8
LAYER_2
 10
-5.0562
 20
212.231
 42
0.2135728393
  0
VERTEX
  8
LAYER_2
 10
-5.183
 20
212.5844
 42
0.1976836271
  0
VERTEX
  8
LAYER_2
 10
-5.4775
 20
212.6947
 42
0.2038428178
  0
VERTEX
  8
LAYER_2
 10
-5.7886
 20
212.5658
  0
VERTEX
  8
LAYER_2
 10
-5.7886
 20
212.6805
  0
VERTEX
  8
LAYER_2
 10
-6.0925
 20
212.6805
  0
VERTEX
  8
LAYER_2
 10
-6.0925
 20
211.4352
  0
VERTEX
  8
LAYER_2
 10
-5.7814
 20
211.4352
  0
VERTEX
  8
LAYER_2
 10
-5.7814
 20
212.1882
 42
-0.4265123439
  0
VERTEX
  8
LAYER_2
 10
-5.573
 20
212.4149
 42
-0.4361688158
  0
VERTEX
  8
LAYER_2
 10
-5.3673
 20
212.1882
  0
VERTEX
  8
LAYER_2
 10
-5.3673
 20
211.4352
  0
SEQEND
  0
POLYLINE
  8
LAYER_2
 40
0.05
 41
0.05
 66
1
 10
0
 20
0
 30
0
 70
1
  0
VERTEX
  8
LAYER_2
 10
-6.437
 20
213.1467
  0
VERTEX
  8
LAYER_2
 10
-6.7553
 20
213.1467
  0
VERTEX
  8
LAYER_2
 10
-6.7553
 20
212.8931
  0
VERTEX
  8
LAYER_2
 10
-6.437
 20
212.8931
  0
SEQEND
  0
POLYLINE
  8
LAYER_2
 40
0.05
 41
0.05
 66
1
 10
0
 20
0
 30
0
 70
1
  0
VERTEX
  8
LAYER_2
 10
-6.4394
 20
212.6444
  0
VERTEX
  8
LAYER_2
 10
-6.7508
 20
212.6444
  0
VERTEX
  8
LAYER_2
 10
-6.7508
 20
211.4352
  0
VERTEX
  8
LAYER_2
 10
-6.4394
 20
211.4352
  0
SEQEND
  0
POLYLINE
  8
LAYER_2
 40
0.05
 41
0.05
 66
1
 10
0
 20
0
 30
0
  0
VERTEX
  8
LAYER_2
 10
-7.8994
 20
212.1738
  0
VERTEX
  8
LAYER_2
 10
-8.3735
 20
212.1738
  0
VERTEX
  8
LAYER_2
 10
-8.3445
 20
212.3074
 42
-0.3006254692
  0
VERTEX
  8
LAYER_2
 10
-8.1365
 20
212.4363
 42
-0.3004502708
  0
VERTEX
  8
LAYER_2
 10
-7.9284
 20
212.3074
  0
VERTEX
  8
LAYER_2
 10
-7.8994
 20
212.1738
  0
SEQEND
  0
POLYLINE
  8
LAYER_2
 40
0.05
 41
0.05
 66
1
 10
0
 20
0
 30
0
 70
1
  0
VERTEX
  8
LAYER_2
 10
-7.5932
 20
211.9609
  0
VERTEX
  8
LAYER_2
 10
-7.5932
 20
212.0925
 42
0.1727949422
  0
VERTEX
  8
LAYER_2
 10
-7.7261
 20
212.5161
 42
0.2293242446
  0
VERTEX
  8
LAYER_2
 10
-8.1365
 20
212.6947
 42
0.4082688927
  0
VERTEX
  8
LAYER_2
 10
-8.6757
 20
212.151
 42
0.02665393029
  0
VERTEX
  8
LAYER_2
 10
-8.6797
 20
212.0591
 42
0.1685110564
  0
VERTEX
  8
LAYER_2
 10
-8.5537
 20
211.6061
 42
0.2404561047
  0
VERTEX
  8
LAYER_2
 10
-8.103
 20
211.4207
 42
0.2250390665
  0
VERTEX
  8
LAYER_2
 10
-7.629
 20
211.6167
  0
VERTEX
  8
LAYER_2
 10
-7.8181
 20
211.801
 42
-0.2242451699
  0
VERTEX
  8
LAYER_2
 10
-8.1003
 20
211.6839
 42
-0.4312737558
  0
VERTEX
  8
LAYER_2
 10
-8.3735
 20
211.9609
  0
SEQEND
  0
POLYLINE
  8
LAYER_2
 40
0.05
 41
0.05
 66
1
 10
0
 20
0
 30
0
  0
VERTEX
  8
LAYER_2
 10
-9.2778
 20
212.0591
 42
-0.253040373
  0
VERTEX
  8
LAYER_2
 10
-9.3737
 20
211.7317
 42
-0.1751487426
  0
VERTEX
  8
LAYER_2
 10
-9.4911
 20
211.7004
 42
-0.3550784466
  0
VERTEX
  8
LAYER_2
 10
-9.6774
 20
211.8331
 42
-0.1590539016
  0
VERTEX
  8
LAYER_2
 10
-9.7016
 20
212.0591
 42
-0.2613372193
  0
VERTEX
  8
LAYER_2
 10
-9.6054
 20
212.3859
 42
-0.1728730088
  0
VERTEX
  8
LAYER_2
 10
-9.4911
 20
212.4149
 42
-0.3508351005
  0
VERTEX
  8
LAYER_2
 10
-9.3031
 20
212.2839
 42
-0.1617280931
  0
VERTEX
  8
LAYER_2
 10
-9.2778
 20
212.0591
  0
SEQEND
  0
POLYLINE
  8
LAYER_2
 40
0.05
 41
0.05
 66
1
 10
0
 20
0
 30
0
 70
1
  0
VERTEX
  8
LAYER_2
 10
-8.9667
 20
211.4352
  0
VERTEX
  8
LAYER_2
 10
-8.9667
 20
213.137
  0
VERTEX
  8
LAYER_2
 10
-9.2778
 20
213.137
  0
VERTEX
  8
LAYER_2
 10
-9.2778
 20
212.5707
 42
0.2263222596
  0
VERTEX
  8
LAYER_2
 10
-9.582
 20
212.6947
 42
0.2021447193
  0
VERTEX
  8
LAYER_2
 10
-9.8835
 20
212.5824
 42
0.1955994833
  0
VERTEX
  8
LAYER_2
 10
-10.0116
 20
212.1647
 42
0.01858076917
  0
VERTEX
  8
LAYER_2
 10
-10.013
 20
212.0591
 42
0.1992737425
  0
VERTEX
  8
LAYER_2
 10
-9.8835
 20
211.533
 42
0.1967798833
  0
VERTEX
  8
LAYER_2
 10
-9.5796
 20
211.4207
 42
0.2329721531
  0
VERTEX
  8
LAYER_2
 10
-9.2709
 20
211.5523
  0
VERTEX
  8
LAYER_2
 10
-9.2709
 20
211.4352
  0
SEQEND
  0
POLYLINE
  8
LAYER_2
 40
0.05
 41
0.05
 66
1
 10
0
 20
0
 30
0
 70
1
  0
VERTEX
  8
LAYER_2
 10
-10.6062
 20
211.894
 42
-0.2606176184
  0
VERTEX
  8
LAYER_2
 10
-10.6541
 20
211.7363
 42
-0.1975146001
  0
VERTEX
  8
LAYER_2
 10
-10.8384
 20
211.6763
 42
-0.4358674545
  0
VERTEX
  8
LAYER_2
 10
-11.0272
 20
211.8175
 42
-0.4654392595
  0
VERTEX
  8
LAYER_2
 10
-10.8433
 20
211.9609
  0
VERTEX
  8
LAYER_2
 10
-10.6062
 20
211.9609
  0
SEQEND
  0
POLYLINE
  8
LAYER_2
 40
0.05
 41
0.05
 66
1
 10
0
 20
0
 30
0
 70
1
  0
VERTEX
  8
LAYER_2
 10
-10.2951
 20
211.4352
  0
VERTEX
  8
LAYER_2
 10
-10.2951
 20
212.2551
 42
0.2204713638
  0
VERTEX
  8
LAYER_2
 10
-10.4207
 20
212.5772
 42
0.1806796456
  0
VERTEX
  8
LAYER_2
 10
-10.8267
 20
212.6947
 42
0.2375604919
  0
VERTEX
  8
LAYER_2
 10
-11.2739
 20
212.5179
  0
VERTEX
  8
LAYER_2
 10
-11.0779
 20
212.3243
 42
-0.2460763492
  0
VERTEX
  8
LAYER_2
 10
-10.8384
 20
212.4322
 42
-0.4683426501
  0
VERTEX
  8
LAYER_2
 10
-10.6062
 20
212.2358
  0
VERTEX
  8
LAYER_2
 10
-10.6062
 20
212.1738
  0
VERTEX
  8
LAYER_2
 10
-10.896
 20
212.1738
 42
0.2105830771
  0
VERTEX
  8
LAYER_2
 10
-11.2407
 20
212.0486
 42
0.1847749138
  0
VERTEX
  8
LAYER_2
 10
-11.3266
 20
211.8127
 42
0.1946881207
  0
VERTEX
  8
LAYER_2
 10
-11.2239
 20
211.533
 42
0.1984095291
  0
VERTEX
  8
LAYER_2
 10
-10.9053
 20
211.4228
 42
0.2251045156
  0
VERTEX
  8
LAYER_2
 10
-10.599
 20
211.5426
  0
VERTEX
  8
LAYER_2
 10
-10.599
 20
211.4352
  0
SEQEND
  0
POLYLINE
  8
LAYER_2
 40
0.05
 41
0.05
 66
1
 10
0
 20
0
 30
0
 70
1
  0
VERTEX
  8
LAYER_2
 10
-11.5733
 20
211.4352
  0
VERTEX
  8
LAYER_2
 10
-11.5733
 20
212.231
 42
0.2096424971
  0
VERTEX
  8
LAYER_2
 10
-11.7097
 20
212.5844
 42
0.1904514856
  0
VERTEX
  8
LAYER_2
 10
-12.016
 20
212.6947
 42
0.2201014615
  0
VERTEX
  8
LAYER_2
 10
-12.3894
 20
212.5369
 42
0.2475119635
  0
VERTEX
  8
LAYER_2
 10
-12.7198
 20
212.6947
 42
0.1971786765
  0
VERTEX
  8
LAYER_2
 10
-13.0309
 20
212.5658
  0
VERTEX
  8
LAYER_2
 10
-13.0309
 20
212.6805
  0
VERTEX
  8
LAYER_2
 10
-13.3348
 20
212.6805
  0
VERTEX
  8
LAYER_2
 10
-13.3348
 20
211.4352
  0
VERTEX
  8
LAYER_2
 10
-13.0233
 20
211.4352
  0
VERTEX
  8
LAYER_2
 10
-13.0233
 20
212.1882
 42
-0.4265481482
  0
VERTEX
  8
LAYER_2
 10
-12.8153
 20
212.4149
 42
-0.4361688158
  0
VERTEX
  8
LAYER_2
 10
-12.6096
 20
212.1882
  0
VERTEX
  8
LAYER_2
 10
-12.6096
 20
211.4352
  0
VERTEX
  8
LAYER_2
 10
-12.2985
 20
211.4352
  0
VERTEX
  8
LAYER_2
 10
-12.2985
 20
212.1951
 42
-0.4236814191
  0
VERTEX
  8
LAYER_2
 10
-12.0904
 20
212.4149
 42
-0.4367319455
  0
VERTEX
  8
LAYER_2
 10
-11.8844
 20
212.1882
  0
VERTEX
  8
LAYER_2
 10
-11.8844
 20
211.4352
  0
SEQEND
  0
POLYLINE
  8
LAYER_2
 40
0.05
 41
0.05
 66
1
 10
0
 20
0
 30
0
  0
VERTEX
  8
LAYER_2
 10
-13.8973
 20
212.0229
 42
-0.2061577285
  0
VERTEX
  8
LAYER_2
 10
-14.0003
 20
211.6401
 42
-0.1860547104
  0
VERTEX
  8
LAYER_2
 10
-14.1915
 20
211.5736
 42
-0.2912351062
  0
VERTEX
  8
LAYER_2
 10
-14.4327
 20
211.7044
 42
-0.1074256356
  0
VERTEX
  8
LAYER_2
 10
-14.4882
 20
212.0229
 42
-0.2074793493
  0
VERTEX
  8
LAYER_2
 10
-14.3843
 20
212.406
 42
-0.1847812498
  0
VERTEX
  8
LAYER_2
 10
-14.1915
 20
212.4725
 42
-0.2924886932
  0
VERTEX
  8
LAYER_2
 10
-13.9523
 20
212.3416
 42
-0.1065173685
  0
VERTEX
  8
LAYER_2
 10
-13.8973
 20
212.0229
  0
SEQEND
  0
POLYLINE
  8
LAYER_2
 40
0.05
 41
0.05
 66
1
 10
0
 20
0
 30
0
 70
1
  0
VERTEX
  8
LAYER_2
 10
-13.7247
 20
211.4352
  0
VERTEX
  8
LAYER_2
 10
-13.7247
 20
213.137
  0
VERTEX
  8
LAYER_2
 10
-13.8973
 20
213.137
  0
VERTEX
  8
LAYER_2
 10
-13.8973
 20
212.4749
 42
0.2526586678
  0
VERTEX
  8
LAYER_2
 10
-14.2298
 20
212.6258
 42
0.19617536
  0
VERTEX
  8
LAYER_2
 10
-14.5171
 20
212.5224
 42
0.2062736322
  0
VERTEX
  8
LAYER_2
 10
-14.6608
 20
212.0229
 42
0.1925049638
  0
VERTEX
  8
LAYER_2
 10
-14.5171
 20
211.5234
 42
0.1893263809
  0
VERTEX
  8
LAYER_2
 10
-14.2298
 20
211.4207
 42
0.2549957718
  0
VERTEX
  8
LAYER_2
 10
-13.8949
 20
211.5761
  0
VERTEX
  8
LAYER_2
 10
-13.8949
 20
211.4352
  0
SEQEND
  0
POLYLINE
  8
LAYER_2
 40
0.05
 41
0.05
 66
1
 10
0
 20
0
 30
0
 70
1
  0
VERTEX
  8
LAYER_2
 10
-15.0173
 20
211.4352
  0
VERTEX
  8
LAYER_2
 10
-15.0173
 20
212.1882
 42
0.2089360908
  0
VERTEX
  8
LAYER_2
 10
-15.1393
 20
212.5156
 42
0.1977212202
  0
VERTEX
  8
LAYER_2
 10
-15.4411
 20
212.6258
 42
0.2189458741
  0
VERTEX
  8
LAYER_2
 10
-15.7711
 20
212.4818
  0
VERTEX
  8
LAYER_2
 10
-15.7711
 20
212.6113
  0
VERTEX
  8
LAYER_2
 10
-15.9434
 20
212.6113
  0
VERTEX
  8
LAYER_2
 10
-15.9434
 20
211.4352
  0
VERTEX
  8
LAYER_2
 10
-15.7711
 20
211.4352
  0
VERTEX
  8
LAYER_2
 10
-15.7711
 20
212.1593
 42
-0.4284576329
  0
VERTEX
  8
LAYER_2
 10
-15.479
 20
212.4725
 42
-0.4466039224
  0
VERTEX
  8
LAYER_2
 10
-15.1896
 20
212.1593
  0
VERTEX
  8
LAYER_2
 10
-15.1896
 20
211.4352
  0
SEQEND
  0
POLYLINE
  8
LAYER_2
 40
0.05
 41
0.05
 66
1
 10
0
 20
0
 30
0
 70
1
  0
VERTEX
  8
LAYER_2
 10
-16.5346
 20
211.8506
 42
-0.2283736068
  0
VERTEX
  8
LAYER_2
 10
-16.5945
 20
211.6477
 42
-0.1936527339
  0
VERTEX
  8
LAYER_2
 10
-16.8553
 20
211.5688
 42
-0.4421173513
  0
VERTEX
  8
LAYER_2
 10
-17.1281
 20
211.77
 42
-0.3470924647
  0
VERTEX
  8
LAYER_2
 10
-16.9968
 20
211.9592
 42
-0.1261120874
  0
VERTEX
  8
LAYER_2
 10
-16.8625
 20
211.9774
  0
VERTEX
  8
LAYER_2
 10
-16.5346
 20
211.9774
  0
SEQEND
  0
POLYLINE
  8
LAYER_2
 40
0.05
 41
0.05
 66
1
 10
0
 20
0
 30
0
 70
1
  0
VERTEX
  8
LAYER_2
 10
-16.362
 20
211.4352
  0
VERTEX
  8
LAYER_2
 10
-16.362
 20
212.233
 42
0.2383829599
  0
VERTEX
  8
LAYER_2
 10
-16.4898
 20
212.5337
 42
0.1599209503
  0
VERTEX
  8
LAYER_2
 10
-16.8336
 20
212.6258
 42
0.2578644009
  0
VERTEX
  8
LAYER_2
 10
-17.2501
 20
212.4487
  0
VERTEX
  8
LAYER_2
 10
-17.133
 20
212.3409
 42
-0.2730960706
  0
VERTEX
  8
LAYER_2
 10
-16.8364
 20
212.4776
 42
-0.4521672334
  0
VERTEX
  8
LAYER_2
 10
-16.5346
 20
212.2193
  0
VERTEX
  8
LAYER_2
 10
-16.5346
 20
212.1066
  0
VERTEX
  8
LAYER_2
 10
-16.8863
 20
212.1066
 42
0.2189203862
  0
VERTEX
  8
LAYER_2
 10
-17.2226
 20
211.9822
 42
0.17494127
  0
VERTEX
  8
LAYER_2
 10
-17.2956
 20
211.7673
 42
0.2075768001
  0
VERTEX
  8
LAYER_2
 10
-17.2071
 20
211.5282
 42
0.2128603639
  0
VERTEX
  8
LAYER_2
 10
-16.8742
 20
211.4207
 42
0.2247839487
  0
VERTEX
  8
LAYER_2
 10
-16.5346
 20
211.5471
  0
VERTEX
  8
LAYER_2
 10
-16.5346
 20
211.4352
  0
SEQEND
  0
POLYLINE
  8
LAYER_2
 40
0.05
 41
0.05
 66
1
 10
0
 20
0
 30
0
 70
1
  0
VERTEX
  8
LAYER_2
 10
-17.6211
 20
211.4352
  0
VERTEX
  8
LAYER_2
 10
-17.6211
 20
212.1903
 42
0.2163078196
  0
VERTEX
  8
LAYER_2
 10
-17.7538
 20
212.5281
 42
0.1798246735
  0
VERTEX
  8
LAYER_2
 10
-18.0449
 20
212.6258
 42
0.2190712165
  0
VERTEX
  8
LAYER_2
 10
-18.3749
 20
212.4818
  0
VERTEX
  8
LAYER_2
 10
-18.3749
 20
213.137
  0
VERTEX
  8
LAYER_2
 10
-18.5475
 20
213.137
  0
VERTEX
  8
LAYER_2
 10
-18.5475
 20
211.4352
  0
VERTEX
  8
LAYER_2
 10
-18.3749
 20
211.4352
  0
VERTEX
  8
LAYER_2
 10
-18.3749
 20
212.1617
 42
-0.4350388577
  0
VERTEX
  8
LAYER_2
 10
-18.0807
 20
212.4725
 42
-0.4517618327
  0
VERTEX
  8
LAYER_2
 10
-17.7934
 20
212.1617
  0
VERTEX
  8
LAYER_2
 10
-17.7934
 20
211.4352
  0
SEQEND
  0
ENDBLK
  0
BLOCK
  8
LAYER_2
  2
AIGNBL02020007
 70
64
 10
0
 20
0
 30
0
  3
AIGNBL02020007
  0
INSERT
  8
LAYER_2
  2
AIGNBL02030008
 10
0
 20
0
 30
0
  0
ENDBLK
  0
BLOCK
  8
LAYER_2
  2
AIGNBL02020010
 70
64
 10
0
 20
0
 30
0
  3
AIGNBL02020010
  0
INSERT
  8
LAYER_2
  2
AIGNBL02030011
 10
0
 20
0
 30
0
  0
INSERT
  8
LAYER_2
  2
AIGNBL02030012
 10
0
 20
0
 30
0
  0
INSERT
  8
LAYER_2
  2
AIGNBL02030013
 10
0
 20
0
 30
0
  0
INSERT
  8
LAYER_2
  2
AIGNBL02030014
 10
0
 20
0
 30
0
  0
INSERT
  8
LAYER_2
  2
AIGNBL02030015
 10
0
 20
0
 30
0
  0
INSERT
  8
LAYER_2
  2
AIGNBL02030016
 10
0
 20
0
 30
0
  0
INSERT
  8
LAYER_2
  2
AIGNBL02030017
 10
0
 20
0
 30
0
  0
INSERT
  8
LAYER_2
  2
AIGNBL02030018
 10
0
 20
0
 30
0
  0
INSERT
  8
LAYER_2
  2
AIGNBL02030019
 10
0
 20
0
 30
0
  0
INSERT
  8
LAYER_2
  2
AIGNBL0203001A
 10
0
 20
0
 30
0
  0
INSERT
  8
LAYER_2
  2
AIGNBL0203001B
 10
0
 20
0
 30
0
  0
INSERT
  8
LAYER_2
  2
AIGNBL0203001C
 10
0
 20
0
 30
0
  0
INSERT
  8
LAYER_2
  2
AIGNBL0203001D
 10
0
 20
0
 30
0
  0
INSERT
  8
LAYER_2
  2
AIGNBL0203001E
 10
0
 20
0
 30
0
  0
INSERT
  8
LAYER_2
  2
AIGNBL0203001F
 10
0
 20
0
 30
0
  0
INSERT
  8
LAYER_2
  2
AIGNBL02030020
 10
0
 20
0
 30
0
  0
INSERT
  8
LAYER_2
  2
AIGNBL02030021
 10
0
 20
0
 30
0
  0
INSERT
  8
LAYER_2
  2
AIGNBL02030022
 10
0
 20
0
 30
0
  0
INSERT
  8
LAYER_2
  2
AIGNBL02030023
 10
0
 20
0
 30
0
  0
INSERT
  8
LAYER_2
  2
AIGNBL02030024
 10
0
 20
0
 30
0
  0
INSERT
  8
LAYER_2
  2
AIGNBL02030025
 10
0
 20
0
 30
0
  0
INSERT
  8
LAYER_2
  2
AIGNBL02030026
 10
0
 20
0
 30
0
  0
INSERT
  8
LAYER_2
  2
AIGNBL02030027
 10
0
 20
0
 30
0
  0
ENDBLK
  0
BLOCK
  8
LAYER_1
  2
AIGNBL01010002
 70
64
 10
0
 20
0
 30
0
  3
AIGNBL01010002
  0
POLYLINE
  8
LAYER_1
 40
0.1411
 41
0.1411
 66
1
 10
0
 20
0
 30
0
  0
VERTEX
  8
LAYER_1
 10
88.4197
 20
160.6224
 42
0.4142136338
  0
VERTEX
  8
LAYER_1
 10
69.4036
 20
179.6384
 42
0.4142124584
  0
VERTEX
  8
LAYER_1
 10
50.388
 20
160.6224
 42
0.4142134912
  0
VERTEX
  8
LAYER_1
 10
69.4036
 20
141.6063
 42
0.4142146663
  0
VERTEX
  8
LAYER_1
 10
88.4197
 20
160.6224
  0
SEQEND
  0
POLYLINE
  8
LAYER_1
 40
0.1411
 41
0.1411
 66
1
 10
0
 20
0
 30
0
  0
VERTEX
  8
LAYER_1
 10
86.9765
 20
160.6224
 42
0.4142128126
  0
VERTEX
  8
LAYER_1
 10
69.404
 20
178.1948
 42
0.4142131948
  0
VERTEX
  8
LAYER_1
 10
51.8311
 20
160.6224
 42
0.4142143124
  0
VERTEX
  8
LAYER_1
 10
69.404
 20
143.0499
 42
0.4142139299
  0
VERTEX
  8
LAYER_1
 10
86.9765
 20
160.6224
  0
SEQEND
  0
ENDBLK
  0
BLOCK
  8
LAYER_1
  2
AIGNBL01010003
 70
64
 10
0
 20
0
 30
0
  3
AIGNBL01010003
  0
POLYLINE
  8
LAYER_1
 40
0.1411
 41
0.1411
 66
1
 10
0
 20
0
 30
0
  0
VERTEX
  8
LAYER_1
 10
46.8968
 20
189.624
 42
0.4142127507
  0
VERTEX
  8
LAYER_1
 10
43.4058
 20
186.1329
  0
SEQEND
  0
ENDBLK
  0
BLOCK
  8
LAYER_1
  2
AIGNBL01010004
 70
64
 10
0
 20
0
 30
0
  3
AIGNBL01010004
  0
POLYLINE
  8
LAYER_1
 40
0.1411
 41
0.1411
 66
1
 10
0
 20
0
 30
0
  0
VERTEX
  8
LAYER_1
 10
43.4057
 20
139.1295
 42
0.4142116084
  0
VERTEX
  8
LAYER_1
 10
46.8968
 20
135.6385
  0
SEQEND
  0
ENDBLK
  0
BLOCK
  8
LAYER_1
  2
AIGNBL01010005
 70
64
 10
0
 20
0
 30
0
  3
AIGNBL01010005
  0
POLYLINE
  8
LAYER_1
 40
0.1411
 41
0.1411
 66
1
 10
0
 20
0
 30
0
  0
VERTEX
  8
LAYER_1
 10
153.4052
 20
186.1329
 42
0.4142084115
  0
VERTEX
  8
LAYER_1
 10
149.9142
 20
189.624
  0
SEQEND
  0
ENDBLK
  0
BLOCK
  8
LAYER_1
  2
AIGNBL01010006
 70
64
 10
0
 20
0
 30
0
  3
AIGNBL01010006
  0
POLYLINE
  8
LAYER_1
 40
0.1411
 41
0.1411
 66
1
 10
0
 20
0
 30
0
  0
VERTEX
  8
LAYER_1
 10
149.9141
 20
135.6384
 42
0.4142151692
  0
VERTEX
  8
LAYER_1
 10
153.4052
 20
139.1295
  0
SEQEND
  0
POLYLINE
  8
LAYER_1
 40
0.1411
 41
0.1411
 66
1
 10
0
 20
0
 30
0
  0
VERTEX
  8
LAYER_1
 10
71.6857
 20
160.6224
 42
0.4142149065
  0
VERTEX
  8
LAYER_1
 10
69.4036
 20
162.9045
 42
0.4142036136
  0
VERTEX
  8
LAYER_1
 10
67.1219
 20
160.6224
 42
0.4142122179
  0
VERTEX
  8
LAYER_1
 10
69.4036
 20
158.3407
 42
0.4142235117
  0
VERTEX
  8
LAYER_1
 10
71.6857
 20
160.6224
  0
SEQEND
  0
POLYLINE
  8
LAYER_1
 40
0.1411
 41
0.1411
 66
1
 10
0
 20
0
 30
0
  0
VERTEX
  8
LAYER_1
 10
72.9339
 20
160.6224
 42
0.4142138264
  0
VERTEX
  8
LAYER_1
 10
69.4038
 20
164.1525
 42
0.4142077362
  0
VERTEX
  8
LAYER_1
 10
65.8737
 20
160.6224
 42
0.4142132984
  0
VERTEX
  8
LAYER_1
 10
69.4038
 20
157.0923
 42
0.4142193887
  0
VERTEX
  8
LAYER_1
 10
72.9339
 20
160.6224
  0
SEQEND
  0
POLYLINE
  8
LAYER_1
 40
0.1411
 41
0.1411
 66
1
 10
0
 20
0
 30
0
  0
VERTEX
  8
LAYER_1
 10
71.1396
 20
183.6364
 42
0.4142261604
  0
VERTEX
  8
LAYER_1
 10
69.4036
 20
185.3724
 42
0.4142113168
  0
VERTEX
  8
LAYER_1
 10
67.6681
 20
183.6364
 42
0.4142009631
  0
VERTEX
  8
LAYER_1
 10
69.4036
 20
181.9005
 42
0.4142158096
  0
VERTEX
  8
LAYER_1
 10
71.1396
 20
183.6364
  0
SEQEND
  0
ENDBLK
  0
BLOCK
  8
LAYER_1
  2
AIGNBL01010007
 70
64
 10
0
 20
0
 30
0
  3
AIGNBL01010007
  0
POLYLINE
  8
LAYER_1
 40
0.05
 41
0.05
 66
1
 10
0
 20
0
 30
0
 70
1
  0
VERTEX
  8
LAYER_1
 10
95.6892
 20
125.4186
  0
VERTEX
  8
LAYER_1
 10
95.3821
 20
125.4186
  0
VERTEX
  8
LAYER_1
 10
95.3821
 20
127.3749
 42
-0.04924412437
  0
VERTEX
  8
LAYER_1
 10
95.0913
 20
127.1635
  0
VERTEX
  8
LAYER_1
 10
94.7681
 20
127.0048
  0
VERTEX
  8
LAYER_1
 10
94.7681
 20
127.3016
 42
0.07430404801
  0
VERTEX
  8
LAYER_1
 10
95.2184
 20
127.595
 42
0.1018425065
  0
VERTEX
  8
LAYER_1
 10
95.4913
 20
127.9293
  0
VERTEX
  8
LAYER_1
 10
95.6892
 20
127.9293
  0
SEQEND
  0
POLYLINE
  8
LAYER_1
 40
0.05
 41
0.05
 66
1
 10
0
 20
0
 30
0
 70
1
  0
VERTEX
  8
LAYER_1
 10
97.6313
 20
125.4186
  0
VERTEX
  8
LAYER_1
 10
97.3243
 20
125.4186
  0
VERTEX
  8
LAYER_1
 10
97.3243
 20
127.3749
 42
-0.04924412438
  0
VERTEX
  8
LAYER_1
 10
97.0335
 20
127.1635
  0
VERTEX
  8
LAYER_1
 10
96.7103
 20
127.0048
  0
VERTEX
  8
LAYER_1
 10
96.7103
 20
127.3016
 42
0.07430404801
  0
VERTEX
  8
LAYER_1
 10
97.1606
 20
127.595
 42
0.1018425065
  0
VERTEX
  8
LAYER_1
 10
97.4335
 20
127.9293
  0
VERTEX
  8
LAYER_1
 10
97.6313
 20
127.9293
  0
SEQEND
  0
POLYLINE
  8
LAYER_1
 40
0.05
 41
0.05
 66
1
 10
0
 20
0
 30
0
 70
1
  0
VERTEX
  8
LAYER_1
 10
98.6644
 20
125.6352
 42
-0.1304691712
  0
VERTEX
  8
LAYER_1
 10
98.4463
 20
126.2138
 42
-0.0502659887
  0
VERTEX
  8
LAYER_1
 10
98.4171
 20
126.6518
 42
-0.08314795143
  0
VERTEX
  8
LAYER_1
 10
98.5083
 20
127.3656
 42
-0.1432131554
  0
VERTEX
  8
LAYER_1
 10
98.7795
 20
127.7826
 42
-0.1759146869
  0
VERTEX
  8
LAYER_1
 10
99.2324
 20
127.9293
 42
-0.1268213227
  0
VERTEX
  8
LAYER_1
 10
99.5854
 20
127.8483
 42
-0.1266061314
  0
VERTEX
  8
LAYER_1
 10
99.8362
 20
127.6146
 42
-0.07563807577
  0
VERTEX
  8
LAYER_1
 10
99.9914
 20
127.2428
 42
-0.05384887403
  0
VERTEX
  8
LAYER_1
 10
100.0476
 20
126.6518
 42
-0.08256479786
  0
VERTEX
  8
LAYER_1
 10
99.9572
 20
125.9414
 42
-0.1434026738
  0
VERTEX
  8
LAYER_1
 10
99.6869
 20
125.5235
 42
-0.1766826643
  0
VERTEX
  8
LAYER_1
 10
99.2324
 20
125.376
 42
-0.2325062376
  0
SEQEND
  0
POLYLINE
  8
LAYER_1
 40
0.05
 41
0.05
 66
1
 10
0
 20
0
 30
0
 70
1
  0
VERTEX
  8
LAYER_1
 10
98.8912
 20
127.496
 42
0.131393137
  0
VERTEX
  8
LAYER_1
 10
98.7397
 20
126.8943
 42
0.02285950212
  0
VERTEX
  8
LAYER_1
 10
98.7326
 20
126.6518
 42
0.1313878899
  0
VERTEX
  8
LAYER_1
 10
98.8767
 20
125.8322
 42
0.2494333433
  0
VERTEX
  8
LAYER_1
 10
99.2324
 20
125.6284
 42
0.2554236079
  0
VERTEX
  8
LAYER_1
 10
99.588
 20
125.8331
 42
0.1332102607
  0
VERTEX
  8
LAYER_1
 10
99.727
 20
126.4359
 42
0.01894079829
  0
VERTEX
  8
LAYER_1
 10
99.7321
 20
126.6518
 42
0.131538313
  0
VERTEX
  8
LAYER_1
 10
99.588
 20
127.4722
 42
0.249374636
  0
VERTEX
  8
LAYER_1
 10
99.229
 20
127.6751
 42
0.2539196555
  0
SEQEND
  0
POLYLINE
  8
LAYER_1
 40
0.05
 41
0.05
 66
1
 10
0
 20
0
 30
0
 70
1
  0
VERTEX
  8
LAYER_1
 10
100.6065
 20
125.6352
 42
-0.1303681891
  0
VERTEX
  8
LAYER_1
 10
100.3884
 20
126.2138
 42
-0.05026695421
  0
VERTEX
  8
LAYER_1
 10
100.3592
 20
126.6518
 42
-0.083144981
  0
VERTEX
  8
LAYER_1
 10
100.4505
 20
127.3656
 42
-0.1432131554
  0
VERTEX
  8
LAYER_1
 10
100.7217
 20
127.7826
 42
-0.1759551525
  0
VERTEX
  8
LAYER_1
 10
101.1745
 20
127.9293
 42
-0.1268433587
  0
VERTEX
  8
LAYER_1
 10
101.5276
 20
127.8483
 42
-0.1265933857
  0
VERTEX
  8
LAYER_1
 10
101.7783
 20
127.6146
 42
-0.07589447368
  0
VERTEX
  8
LAYER_1
 10
101.9335
 20
127.2428
 42
-0.05390168986
  0
VERTEX
  8
LAYER_1
 10
101.9898
 20
126.6518
 42
-0.08256479786
  0
VERTEX
  8
LAYER_1
 10
101.8994
 20
125.9414
 42
-0.1431582138
  0
VERTEX
  8
LAYER_1
 10
101.6291
 20
125.5235
 42
-0.1766964866
  0
VERTEX
  8
LAYER_1
 10
101.1745
 20
125.376
 42
-0.2325062376
  0
SEQEND
  0
POLYLINE
  8
LAYER_1
 40
0.05
 41
0.05
 66
1
 10
0
 20
0
 30
0
 70
1
  0
VERTEX
  8
LAYER_1
 10
100.8334
 20
127.496
 42
0.131393137
  0
VERTEX
  8
LAYER_1
 10
100.6819
 20
126.8943
 42
0.02285950212
  0
VERTEX
  8
LAYER_1
 10
100.6748
 20
126.6518
 42
0.1313878899
  0
VERTEX
  8
LAYER_1
 10
100.8189
 20
125.8322
 42
0.249471779
  0
VERTEX
  8
LAYER_1
 10
101.1745
 20
125.6284
 42
0.2555058567
  0
VERTEX
  8
LAYER_1
 10
101.5301
 20
125.8331
 42
0.1331989451
  0
VERTEX
  8
LAYER_1
 10
101.6692
 20
126.4359
 42
0.01895914324
  0
VERTEX
  8
LAYER_1
 10
101.6743
 20
126.6518
 42
0.1315649748
  0
VERTEX
  8
LAYER_1
 10
101.5301
 20
127.4722
 42
0.2494533231
  0
VERTEX
  8
LAYER_1
 10
101.1711
 20
127.6751
 42
0.2540515408
  0
SEQEND
  0
ENDBLK
  0
BLOCK
  8
LAYER_1
  2
AIGNBL01010008
 70
64
 10
0
 20
0
 30
0
  3
AIGNBL01010008
  0
POLYLINE
  8
LAYER_1
 40
0.05
 41
0.05
 66
1
 10
0
 20
0
 30
0
 70
1
  0
VERTEX
  8
LAYER_1
 10
36.2458
 20
163.9823
 42
-0.1305109493
  0
VERTEX
  8
LAYER_1
 10
35.6672
 20
163.7642
 42
-0.05026252113
  0
VERTEX
  8
LAYER_1
 10
35.2293
 20
163.735
 42
-0.08330393303
  0
VERTEX
  8
LAYER_1
 10
34.5155
 20
163.8263
 42
-0.1432131554
  0
VERTEX
  8
LAYER_1
 10
34.0985
 20
164.0975
 42
-0.1759551527
  0
VERTEX
  8
LAYER_1
 10
33.9518
 20
164.5503
 42
-0.1269782438
  0
VERTEX
  8
LAYER_1
 10
34.0328
 20
164.9034
 42
-0.1267755192
  0
VERTEX
  8
LAYER_1
 10
34.2665
 20
165.1541
 42
-0.07589447368
  0
VERTEX
  8
LAYER_1
 10
34.6383
 20
165.3093
 42
-0.05391468072
  0
VERTEX
  8
LAYER_1
 10
35.2293
 20
165.3656
 42
-0.08243017286
  0
VERTEX
  8
LAYER_1
 10
35.9397
 20
165.2752
 42
-0.1431048089
  0
VERTEX
  8
LAYER_1
 10
36.3576
 20
165.0048
 42
-0.1766357762
  0
VERTEX
  8
LAYER_1
 10
36.5051
 20
164.5503
 42
-0.2325957227
  0
SEQEND
  0
POLYLINE
  8
LAYER_1
 40
0.05
 41
0.05
 66
1
 10
0
 20
0
 30
0
 70
1
  0
VERTEX
  8
LAYER_1
 10
36.4625
 20
162.777
  0
VERTEX
  8
LAYER_1
 10
35.8638
 20
162.777
  0
VERTEX
  8
LAYER_1
 10
35.8638
 20
161.6922
  0
VERTEX
  8
LAYER_1
 10
35.5824
 20
161.6922
  0
VERTEX
  8
LAYER_1
 10
33.962
 20
162.8333
  0
VERTEX
  8
LAYER_1
 10
33.962
 20
163.084
  0
VERTEX
  8
LAYER_1
 10
35.5824
 20
163.084
  0
VERTEX
  8
LAYER_1
 10
35.5824
 20
163.4217
  0
VERTEX
  8
LAYER_1
 10
35.8638
 20
163.4217
  0
VERTEX
  8
LAYER_1
 10
35.8638
 20
163.084
  0
VERTEX
  8
LAYER_1
 10
36.4625
 20
163.084
  0
SEQEND
  0
POLYLINE
  8
LAYER_1
 40
0.05
 41
0.05
 66
1
 10
0
 20
0
 30
0
 70
1
  0
VERTEX
  8
LAYER_1
 10
35.8075
 20
159.8507
  0
VERTEX
  8
LAYER_1
 10
35.7802
 20
160.173
 42
0.1757887787
  0
VERTEX
  8
LAYER_1
 10
36.1341
 20
160.3393
 42
0.1903219889
  0
VERTEX
  8
LAYER_1
 10
36.2527
 20
160.654
 42
0.21636032
  0
VERTEX
  8
LAYER_1
 10
36.0855
 20
161.0293
 42
0.1923825894
  0
VERTEX
  8
LAYER_1
 10
35.6421
 20
161.1828
 42
0.1980101573
  0
VERTEX
  8
LAYER_1
 10
35.2276
 20
161.0352
 42
0.2084921729
  0
VERTEX
  8
LAYER_1
 10
35.0758
 20
160.6489
 42
0.1324344163
  0
VERTEX
  8
LAYER_1
 10
35.1432
 20
160.3811
 42
0.126606411
  0
VERTEX
  8
LAYER_1
 10
35.318
 20
160.1935
  0
VERTEX
  8
LAYER_1
 10
35.2805
 20
159.9053
  0
VERTEX
  8
LAYER_1
 10
33.9961
 20
160.1475
  0
VERTEX
  8
LAYER_1
 10
33.9961
 20
161.3908
  0
VERTEX
  8
LAYER_1
 10
34.2895
 20
161.3908
  0
VERTEX
  8
LAYER_1
 10
34.2895
 20
160.3931
  0
VERTEX
  8
LAYER_1
 10
34.9615
 20
160.2583
 42
-0.1556916072
  0
VERTEX
  8
LAYER_1
 10
34.8046
 20
160.7308
 42
-0.2044201287
  0
VERTEX
  8
LAYER_1
 10
35.0314
 20
161.2834
 42
-0.2049154763
  0
VERTEX
  8
LAYER_1
 10
35.6148
 20
161.5085
 42
-0.1725884954
  0
VERTEX
  8
LAYER_1
 10
36.2015
 20
161.3107
 42
-0.2387652052
  0
VERTEX
  8
LAYER_1
 10
36.5051
 20
160.654
 42
-0.1839591685
  0
VERTEX
  8
LAYER_1
 10
36.3141
 20
160.0971
 42
-0.1950398878
  0
SEQEND
  0
POLYLINE
  8
LAYER_1
 40
0.05
 41
0.05
 66
1
 10
0
 20
0
 30
0
 70
1
  0
VERTEX
  8
LAYER_1
 10
34.385
 20
164.2092
 42
0.1314658202
  0
VERTEX
  8
LAYER_1
 10
34.9868
 20
164.0576
 42
0.02287296497
  0
VERTEX
  8
LAYER_1
 10
35.2293
 20
164.0505
 42
0.1314555146
  0
VERTEX
  8
LAYER_1
 10
36.0488
 20
164.1947
 42
0.2495184163
  0
VERTEX
  8
LAYER_1
 10
36.2527
 20
164.5503
 42
0.2553699612
  0
VERTEX
  8
LAYER_1
 10
36.048
 20
164.9059
 42
0.1331457263
  0
VERTEX
  8
LAYER_1
 10
35.4451
 20
165.0449
 42
0.01893942978
  0
VERTEX
  8
LAYER_1
 10
35.2293
 20
165.05
 42
0.1315574195
  0
VERTEX
  8
LAYER_1
 10
34.4089
 20
164.9059
 42
0.2494055103
  0
VERTEX
  8
LAYER_1
 10
34.2059
 20
164.5469
 42
0.254051541
  0
SEQEND
  0
POLYLINE
  8
LAYER_1
 40
0.05
 41
0.05
 66
1
 10
0
 20
0
 30
0
 70
1
  0
VERTEX
  8
LAYER_1
 10
35.5824
 20
162.777
  0
VERTEX
  8
LAYER_1
 10
34.4549
 20
162.777
  0
VERTEX
  8
LAYER_1
 10
35.5824
 20
161.9941
  0
SEQEND
  0
ENDBLK
  0
BLOCK
  8
LAYER_1
  2
AIGNBL01010009
 70
64
 10
0
 20
0
 30
0
  3
AIGNBL01010009
  0
POLYLINE
  8
LAYER_1
 40
0.1411
 41
0.1411
 66
1
 10
0
 20
0
 30
0
  0
VERTEX
  8
LAYER_1
 10
129.1429
 20
183.6364
 42
0.4142109613
  0
VERTEX
  8
LAYER_1
 10
127.407
 20
185.3724
 42
0.4142265159
  0
VERTEX
  8
LAYER_1
 10
125.6714
 20
183.6364
 42
0.4142161625
  0
VERTEX
  8
LAYER_1
 10
127.407
 20
181.9005
 42
0.4142006102
  0
VERTEX
  8
LAYER_1
 10
129.1429
 20
183.6364
  0
SEQEND
  0
ENDBLK
  0
BLOCK
  8
LAYER_1
  2
AIGNBL0101000A
 70
64
 10
0
 20
0
 30
0
  3
AIGNBL0101000A
  0
POLYLINE
  8
LAYER_1
 40
0.05
 41
0.05
 66
1
 10
0
 20
0
 30
0
 70
1
  0
VERTEX
  8
LAYER_1
 10
66.6445
 20
129.6283
  0
VERTEX
  8
LAYER_1
 10
66.9515
 20
129.6692
 42
0.1624710438
  0
VERTEX
  8
LAYER_1
 10
67.1314
 20
129.2932
 42
0.1896592041
  0
VERTEX
  8
LAYER_1
 10
67.441
 20
129.178
 42
0.2049840856
  0
VERTEX
  8
LAYER_1
 10
67.8069
 20
129.3281
 42
0.2033971147
  0
VERTEX
  8
LAYER_1
 10
67.9561
 20
129.6999
 42
0.2051168619
  0
VERTEX
  8
LAYER_1
 10
67.818
 20
130.0487
 42
0.203082229
  0
VERTEX
  8
LAYER_1
 10
67.4666
 20
130.186
  0
VERTEX
  8
LAYER_1
 10
67.25
 20
130.1519
  0
VERTEX
  8
LAYER_1
 10
67.2841
 20
130.4214
  0
VERTEX
  8
LAYER_1
 10
67.3336
 20
130.418
 42
0.1480731335
  0
VERTEX
  8
LAYER_1
 10
67.6866
 20
130.5203
 42
0.265168657
  0
VERTEX
  8
LAYER_1
 10
67.8435
 20
130.8359
 42
0.2089187261
  0
VERTEX
  8
LAYER_1
 10
67.7293
 20
131.1156
 42
0.197654912
  0
VERTEX
  8
LAYER_1
 10
67.4342
 20
131.2265
 42
0.1967300161
  0
VERTEX
  8
LAYER_1
 10
67.1357
 20
131.1139
 42
0.1650505216
  0
VERTEX
  8
LAYER_1
 10
66.9822
 20
130.7762
  0
VERTEX
  8
LAYER_1
 10
66.6752
 20
130.8308
 42
-0.1743458905
  0
VERTEX
  8
LAYER_1
 10
66.931
 20
131.3092
 42
-0.1824361827
  0
VERTEX
  8
LAYER_1
 10
67.4274
 20
131.4789
 42
-0.120226138
  0
VERTEX
  8
LAYER_1
 10
67.8043
 20
131.3911
 42
-0.1435454098
  0
VERTEX
  8
LAYER_1
 10
68.0678
 20
131.1514
 42
-0.1383320461
  0
VERTEX
  8
LAYER_1
 10
68.1591
 20
130.8291
 42
-0.1480614399
  0
VERTEX
  8
LAYER_1
 10
68.0721
 20
130.534
 42
-0.1387242196
  0
VERTEX
  8
LAYER_1
 10
67.8145
 20
130.3225
 42
-0.1787823447
  0
VERTEX
  8
LAYER_1
 10
68.1591
 20
130.1101
 42
-0.1655595852
  0
VERTEX
  8
LAYER_1
 10
68.2819
 20
129.7068
 42
-0.2107583369
  0
VERTEX
  8
LAYER_1
 10
68.0431
 20
129.1516
 42
-0.1991635272
  0
VERTEX
  8
LAYER_1
 10
67.4393
 20
128.9239
 42
-0.1875330845
  0
VERTEX
  8
LAYER_1
 10
66.8927
 20
129.12
 42
-0.1919644226
  0
SEQEND
  0
POLYLINE
  8
LAYER_1
 40
0.05
 41
0.05
 66
1
 10
0
 20
0
 30
0
 70
1
  0
VERTEX
  8
LAYER_1
 10
69.0574
 20
130.3242
 42
-0.1572443792
  0
VERTEX
  8
LAYER_1
 10
68.7743
 20
130.5238
 42
-0.1553029202
  0
VERTEX
  8
LAYER_1
 10
68.6822
 20
130.8342
 42
-0.2114882057
  0
VERTEX
  8
LAYER_1
 10
68.8783
 20
131.293
 42
-0.1984964714
  0
VERTEX
  8
LAYER_1
 10
69.4002
 20
131.4789
 42
-0.1939157373
  0
VERTEX
  8
LAYER_1
 10
69.9273
 20
131.2887
 42
-0.2106370783
  0
VERTEX
  8
LAYER_1
 10
70.1268
 20
130.8256
 42
-0.1594212816
  0
VERTEX
  8
LAYER_1
 10
70.0356
 20
130.5229
 42
-0.146333807
  0
VERTEX
  8
LAYER_1
 10
69.7584
 20
130.3242
 42
-0.1624301131
  0
VERTEX
  8
LAYER_1
 10
70.1089
 20
130.082
 42
-0.1585469297
  0
VERTEX
  8
LAYER_1
 10
70.2292
 20
129.6829
 42
-0.2088890263
  0
VERTEX
  8
LAYER_1
 10
70.0023
 20
129.1439
 42
-0.2013741354
  0
VERTEX
  8
LAYER_1
 10
69.4054
 20
128.9256
 42
-0.1950030444
  0
VERTEX
  8
LAYER_1
 10
68.8084
 20
129.1448
 42
-0.2096033538
  0
VERTEX
  8
LAYER_1
 10
68.5815
 20
129.6914
 42
-0.1656821846
  0
VERTEX
  8
LAYER_1
 10
68.7052
 20
130.0999
 42
-0.1715755035
  0
SEQEND
  0
POLYLINE
  8
LAYER_1
 40
0.05
 41
0.05
 66
1
 10
0
 20
0
 30
0
 70
1
  0
VERTEX
  8
LAYER_1
 10
68.8971
 20
129.6897
 42
0.1167993109
  0
VERTEX
  8
LAYER_1
 10
68.9593
 20
129.4356
 42
0.1524522268
  0
VERTEX
  8
LAYER_1
 10
69.1444
 20
129.2454
 42
0.1265858402
  0
VERTEX
  8
LAYER_1
 10
69.4088
 20
129.178
 42
0.2022810178
  0
VERTEX
  8
LAYER_1
 10
69.7721
 20
129.3196
 42
0.2057689601
  0
VERTEX
  8
LAYER_1
 10
69.9153
 20
129.6795
 42
0.2063397469
  0
VERTEX
  8
LAYER_1
 10
69.7678
 20
130.0462
 42
0.2015336471
  0
VERTEX
  8
LAYER_1
 10
69.3985
 20
130.1912
 42
0.2049866633
  0
VERTEX
  8
LAYER_1
 10
69.0395
 20
130.0479
 42
0.2033385293
  0
SEQEND
  0
POLYLINE
  8
LAYER_1
 40
0.05
 41
0.05
 66
1
 10
0
 20
0
 30
0
 70
1
  0
VERTEX
  8
LAYER_1
 10
68.996
 20
130.8444
 42
0.2073446614
  0
VERTEX
  8
LAYER_1
 10
69.1103
 20
130.5545
 42
0.2002055451
  0
VERTEX
  8
LAYER_1
 10
69.4071
 20
130.4419
 42
0.2030556367
  0
VERTEX
  8
LAYER_1
 10
69.6979
 20
130.5536
 42
0.2058816984
  0
VERTEX
  8
LAYER_1
 10
69.8113
 20
130.8274
 42
0.206371947
  0
VERTEX
  8
LAYER_1
 10
69.6945
 20
131.1113
 42
0.2012500363
  0
VERTEX
  8
LAYER_1
 10
69.4036
 20
131.2265
 42
0.2007947134
  0
VERTEX
  8
LAYER_1
 10
69.112
 20
131.1139
 42
0.2088560672
  0
SEQEND
  0
POLYLINE
  8
LAYER_1
 40
0.05
 41
0.05
 66
1
 10
0
 20
0
 30
0
 70
1
  0
VERTEX
  8
LAYER_1
 10
70.7744
 20
129.1848
 42
-0.1304591818
  0
VERTEX
  8
LAYER_1
 10
70.5563
 20
129.7635
 42
-0.05025572719
  0
VERTEX
  8
LAYER_1
 10
70.5271
 20
130.2014
 42
-0.08330393324
  0
VERTEX
  8
LAYER_1
 10
70.6184
 20
130.9152
 42
-0.1432131554
  0
VERTEX
  8
LAYER_1
 10
70.8896
 20
131.3322
 42
-0.1759551525
  0
VERTEX
  8
LAYER_1
 10
71.3424
 20
131.4789
 42
-0.1270216406
  0
VERTEX
  8
LAYER_1
 10
71.6955
 20
131.3979
 42
-0.1268810251
  0
VERTEX
  8
LAYER_1
 10
71.9462
 20
131.1642
 42
-0.07589447368
  0
VERTEX
  8
LAYER_1
 10
72.1014
 20
130.7924
 42
-0.05391468072
  0
VERTEX
  8
LAYER_1
 10
72.1577
 20
130.2014
 42
-0.08243017286
  0
VERTEX
  8
LAYER_1
 10
72.0673
 20
129.491
 42
-0.1431048089
  0
VERTEX
  8
LAYER_1
 10
71.7969
 20
129.0731
 42
-0.1766357762
  0
VERTEX
  8
LAYER_1
 10
71.3424
 20
128.9256
 42
-0.2325062376
  0
SEQEND
  0
POLYLINE
  8
LAYER_1
 40
0.05
 41
0.05
 66
1
 10
0
 20
0
 30
0
 70
1
  0
VERTEX
  8
LAYER_1
 10
71.0013
 20
131.0457
 42
0.1314826295
  0
VERTEX
  8
LAYER_1
 10
70.8497
 20
130.4439
 42
0.02285380755
  0
VERTEX
  8
LAYER_1
 10
70.8427
 20
130.2014
 42
0.1313878899
  0
VERTEX
  8
LAYER_1
 10
70.9868
 20
129.3818
 42
0.2494077943
  0
VERTEX
  8
LAYER_1
 10
71.3424
 20
129.178
 42
0.2555058567
  0
VERTEX
  8
LAYER_1
 10
71.698
 20
129.3827
 42
0.1332102607
  0
VERTEX
  8
LAYER_1
 10
71.837
 20
129.9855
 42
0.01894079829
  0
VERTEX
  8
LAYER_1
 10
71.8421
 20
130.2014
 42
0.1315574195
  0
VERTEX
  8
LAYER_1
 10
71.698
 20
131.0218
 42
0.2494055103
  0
VERTEX
  8
LAYER_1
 10
71.339
 20
131.2248
 42
0.2540515408
  0
SEQEND
  0
ENDBLK
  0
BLOCK
  8
LAYER_1
  2
AIGNBL0101000B
 70
64
 10
0
 20
0
 30
0
  3
AIGNBL0101000B
  0
POLYLINE
  8
LAYER_1
 40
0.05
 41
0.05
 66
1
 10
0
 20
0
 30
0
 70
1
  0
VERTEX
  8
LAYER_1
 10
75.8825
 20
181.6503
 42
-0.1305109493
  0
VERTEX
  8
LAYER_1
 10
75.3039
 20
181.4322
 42
-0.05026252113
  0
VERTEX
  8
LAYER_1
 10
74.866
 20
181.403
 42
-0.08330393303
  0
VERTEX
  8
LAYER_1
 10
74.1522
 20
181.4943
 42
-0.1432131554
  0
VERTEX
  8
LAYER_1
 10
73.7352
 20
181.7655
 42
-0.1759551527
  0
VERTEX
  8
LAYER_1
 10
73.5885
 20
182.2183
 42
-0.1269782438
  0
VERTEX
  8
LAYER_1
 10
73.6695
 20
182.5714
 42
-0.1267755192
  0
VERTEX
  8
LAYER_1
 10
73.9032
 20
182.8221
 42
-0.07589447368
  0
VERTEX
  8
LAYER_1
 10
74.275
 20
182.9773
 42
-0.05391468072
  0
VERTEX
  8
LAYER_1
 10
74.866
 20
183.0336
 42
-0.08243017286
  0
VERTEX
  8
LAYER_1
 10
75.5764
 20
182.9432
 42
-0.1431048089
  0
VERTEX
  8
LAYER_1
 10
75.9943
 20
182.6728
 42
-0.1766357762
  0
VERTEX
  8
LAYER_1
 10
76.1418
 20
182.2183
 42
-0.2325957227
  0
SEQEND
  0
POLYLINE
  8
LAYER_1
 40
0.05
 41
0.05
 66
1
 10
0
 20
0
 30
0
 70
1
  0
VERTEX
  8
LAYER_1
 10
76.0992
 20
180.445
  0
VERTEX
  8
LAYER_1
 10
75.5005
 20
180.445
  0
VERTEX
  8
LAYER_1
 10
75.5005
 20
179.3602
  0
VERTEX
  8
LAYER_1
 10
75.2191
 20
179.3602
  0
VERTEX
  8
LAYER_1
 10
73.5987
 20
180.5013
  0
VERTEX
  8
LAYER_1
 10
73.5987
 20
180.752
  0
VERTEX
  8
LAYER_1
 10
75.2191
 20
180.752
  0
VERTEX
  8
LAYER_1
 10
75.2191
 20
181.0897
  0
VERTEX
  8
LAYER_1
 10
75.5005
 20
181.0897
  0
VERTEX
  8
LAYER_1
 10
75.5005
 20
180.752
  0
VERTEX
  8
LAYER_1
 10
76.0992
 20
180.752
  0
SEQEND
  0
POLYLINE
  8
LAYER_1
 40
0.05
 41
0.05
 66
1
 10
0
 20
0
 30
0
 70
1
  0
VERTEX
  8
LAYER_1
 10
74.0217
 20
181.8772
 42
0.1314826293
  0
VERTEX
  8
LAYER_1
 10
74.6235
 20
181.7256
 42
0.02285380735
  0
VERTEX
  8
LAYER_1
 10
74.866
 20
181.7186
 42
0.1314289625
  0
VERTEX
  8
LAYER_1
 10
75.6855
 20
181.8627
 42
0.2495184163
  0
VERTEX
  8
LAYER_1
 10
75.8894
 20
182.2183
 42
0.2553699612
  0
VERTEX
  8
LAYER_1
 10
75.6847
 20
182.5739
 42
0.1331457263
  0
VERTEX
  8
LAYER_1
 10
75.0818
 20
182.7129
 42
0.01893942978
  0
VERTEX
  8
LAYER_1
 10
74.866
 20
182.718
 42
0.1315574195
  0
VERTEX
  8
LAYER_1
 10
74.0456
 20
182.5739
 42
0.2494055103
  0
VERTEX
  8
LAYER_1
 10
73.8426
 20
182.2149
 42
0.254051541
  0
SEQEND
  0
POLYLINE
  8
LAYER_1
 40
0.05
 41
0.05
 66
1
 10
0
 20
0
 30
0
 70
1
  0
VERTEX
  8
LAYER_1
 10
75.2191
 20
180.445
  0
VERTEX
  8
LAYER_1
 10
74.0916
 20
180.445
  0
VERTEX
  8
LAYER_1
 10
75.2191
 20
179.6621
  0
SEQEND
  0
ENDBLK
  0
BLOCK
  8
LAYER_1
  2
AIGNBL0101000C
 70
64
 10
0
 20
0
 30
0
  3
AIGNBL0101000C
  0
POLYLINE
  8
LAYER_1
 40
0.05
 41
0.05
 66
1
 10
0
 20
0
 30
0
 70
1
  0
VERTEX
  8
LAYER_1
 10
76.0431
 20
187.9017
 42
-0.1304591818
  0
VERTEX
  8
LAYER_1
 10
75.4644
 20
187.6836
 42
-0.05025572699
  0
VERTEX
  8
LAYER_1
 10
75.0265
 20
187.6544
 42
-0.08327904694
  0
VERTEX
  8
LAYER_1
 10
74.3127
 20
187.7457
 42
-0.1432131554
  0
VERTEX
  8
LAYER_1
 10
73.8957
 20
188.0169
 42
-0.1759551527
  0
VERTEX
  8
LAYER_1
 10
73.749
 20
188.4697
 42
-0.1269782438
  0
VERTEX
  8
LAYER_1
 10
73.83
 20
188.8228
 42
-0.1267755192
  0
VERTEX
  8
LAYER_1
 10
74.0637
 20
189.0735
 42
-0.07589447368
  0
VERTEX
  8
LAYER_1
 10
74.4355
 20
189.2287
 42
-0.05391468072
  0
VERTEX
  8
LAYER_1
 10
75.0265
 20
189.285
 42
-0.08243017286
  0
VERTEX
  8
LAYER_1
 10
75.7369
 20
189.1946
 42
-0.1431048089
  0
VERTEX
  8
LAYER_1
 10
76.1548
 20
188.9242
 42
-0.1766357762
  0
VERTEX
  8
LAYER_1
 10
76.3023
 20
188.4697
 42
-0.2325062376
  0
SEQEND
  0
POLYLINE
  8
LAYER_1
 40
0.05
 41
0.05
 66
1
 10
0
 20
0
 30
0
 70
1
  0
VERTEX
  8
LAYER_1
 10
74.3716
 20
187.3053
  0
VERTEX
  8
LAYER_1
 10
74.3954
 20
187
 42
0.1441835978
  0
VERTEX
  8
LAYER_1
 10
74.1328
 20
186.884
 42
0.2117515691
  0
VERTEX
  8
LAYER_1
 10
74.0014
 20
186.577
 42
0.1642774497
  0
VERTEX
  8
LAYER_1
 10
74.0833
 20
186.3194
 42
0.1361983314
  0
VERTEX
  8
LAYER_1
 10
74.392
 20
186.0909
 42
0.08726589918
  0
VERTEX
  8
LAYER_1
 10
74.9702
 20
186.0039
 42
-0.1333563308
  0
VERTEX
  8
LAYER_1
 10
74.7195
 20
186.2751
 42
-0.1200486888
  0
VERTEX
  8
LAYER_1
 10
74.6376
 20
186.6111
 42
-0.2107211964
  0
VERTEX
  8
LAYER_1
 10
74.8636
 20
187.1339
 42
-0.1997964742
  0
VERTEX
  8
LAYER_1
 10
75.4478
 20
187.3496
 42
-0.1182238434
  0
VERTEX
  8
LAYER_1
 10
75.8853
 20
187.2482
 42
-0.1434670078
  0
VERTEX
  8
LAYER_1
 10
76.1949
 20
186.9693
 42
-0.1375028986
  0
VERTEX
  8
LAYER_1
 10
76.3023
 20
186.5668
 42
-0.2239273394
  0
VERTEX
  8
LAYER_1
 10
76.02
 20
185.9408
 42
-0.1383516425
  0
VERTEX
  8
LAYER_1
 10
75.492
 20
185.7272
 42
-0.05366263297
  0
VERTEX
  8
LAYER_1
 10
75.0896
 20
185.6986
 42
-0.09546452035
  0
VERTEX
  8
LAYER_1
 10
74.28
 20
185.8252
 42
-0.07923695064
  0
VERTEX
  8
LAYER_1
 10
74.0356
 20
185.9664
 42
-0.2345469465
  0
VERTEX
  8
LAYER_1
 10
73.749
 20
186.5958
 42
-0.1841117058
  0
VERTEX
  8
LAYER_1
 10
73.9145
 20
187.0793
 42
-0.1874037309
  0
SEQEND
  0
POLYLINE
  8
LAYER_1
 40
0.05
 41
0.05
 66
1
 10
0
 20
0
 30
0
 70
1
  0
VERTEX
  8
LAYER_1
 10
74.1822
 20
188.1286
 42
0.1314826293
  0
VERTEX
  8
LAYER_1
 10
74.784
 20
187.977
 42
0.02285380735
  0
VERTEX
  8
LAYER_1
 10
75.0265
 20
187.97
 42
0.1313878897
  0
VERTEX
  8
LAYER_1
 10
75.8461
 20
188.1141
 42
0.2495677914
  0
VERTEX
  8
LAYER_1
 10
76.0499
 20
188.4697
 42
0.2555058567
  0
VERTEX
  8
LAYER_1
 10
75.8452
 20
188.8253
 42
0.1332102607
  0
VERTEX
  8
LAYER_1
 10
75.2424
 20
188.9643
 42
0.01894079829
  0
VERTEX
  8
LAYER_1
 10
75.0265
 20
188.9694
 42
0.1315574195
  0
VERTEX
  8
LAYER_1
 10
74.2061
 20
188.8253
 42
0.2494055103
  0
VERTEX
  8
LAYER_1
 10
74.0031
 20
188.4663
 42
0.254051541
  0
SEQEND
  0
POLYLINE
  8
LAYER_1
 40
0.05
 41
0.05
 66
1
 10
0
 20
0
 30
0
 70
1
  0
VERTEX
  8
LAYER_1
 10
75.4495
 20
186.0517
 42
0.1095729062
  0
VERTEX
  8
LAYER_1
 10
75.7531
 20
186.119
 42
0.1494703983
  0
VERTEX
  8
LAYER_1
 10
75.974
 20
186.3075
 42
0.1444433184
  0
VERTEX
  8
LAYER_1
 10
76.0499
 20
186.5616
 42
0.2202997794
  0
VERTEX
  8
LAYER_1
 10
75.893
 20
186.896
 42
0.187350662
  0
VERTEX
  8
LAYER_1
 10
75.4666
 20
187.0358
 42
0.1915697548
  0
VERTEX
  8
LAYER_1
 10
75.0581
 20
186.8977
 42
0.2151258256
  0
VERTEX
  8
LAYER_1
 10
74.9088
 20
186.5497
 42
0.2026976469
  0
VERTEX
  8
LAYER_1
 10
75.0581
 20
186.1967
 42
0.2000260618
  0
SEQEND
  0
ENDBLK
  0
BLOCK
  8
LAYER_1
  2
AIGNBL0101000D
 70
64
 10
0
 20
0
 30
0
  3
AIGNBL0101000D
  0
POLYLINE
  8
LAYER_1
 40
0.05
 41
0.05
 66
1
 10
0
 20
0
 30
0
 70
1
  0
VERTEX
  8
LAYER_1
 10
74.0046
 20
171.3546
 42
-0.1304691712
  0
VERTEX
  8
LAYER_1
 10
73.426
 20
171.1365
 42
-0.0502659885
  0
VERTEX
  8
LAYER_1
 10
72.988
 20
171.1073
 42
-0.08314795122
  0
VERTEX
  8
LAYER_1
 10
72.2742
 20
171.1985
 42
-0.1431006014
  0
VERTEX
  8
LAYER_1
 10
71.8572
 20
171.4697
 42
-0.1759146871
  0
VERTEX
  8
LAYER_1
 10
71.7105
 20
171.9226
 42
-0.1270885393
  0
VERTEX
  8
LAYER_1
 10
71.7915
 20
172.2756
 42
-0.1266061314
  0
VERTEX
  8
LAYER_1
 10
72.0252
 20
172.5264
 42
-0.07563807577
  0
VERTEX
  8
LAYER_1
 10
72.397
 20
172.6816
 42
-0.05391112847
  0
VERTEX
  8
LAYER_1
 10
72.988
 20
172.7379
 42
-0.08243017286
  0
VERTEX
  8
LAYER_1
 10
73.6984
 20
172.6475
 42
-0.1431972319
  0
VERTEX
  8
LAYER_1
 10
74.1163
 20
172.3771
 42
-0.1766826643
  0
VERTEX
  8
LAYER_1
 10
74.2638
 20
171.9226
 42
-0.2325062376
  0
SEQEND
  0
POLYLINE
  8
LAYER_1
 40
0.05
 41
0.05
 66
1
 10
0
 20
0
 30
0
 70
1
  0
VERTEX
  8
LAYER_1
 10
73.643
 20
169.2112
  0
VERTEX
  8
LAYER_1
 10
73.6157
 20
169.5062
 42
0.1749641739
  0
VERTEX
  8
LAYER_1
 10
73.9176
 20
169.6495
 42
0.1834141996
  0
VERTEX
  8
LAYER_1
 10
74.0114
 20
169.9207
 42
0.1426502515
  0
VERTEX
  8
LAYER_1
 10
73.9466
 20
170.1689
 42
0.1153414511
  0
VERTEX
  8
LAYER_1
 10
73.7735
 20
170.3437
 42
0.06634507011
  0
VERTEX
  8
LAYER_1
 10
73.4809
 20
170.458
 42
0.06110550305
  0
VERTEX
  8
LAYER_1
 10
73.1057
 20
170.504
  0
VERTEX
  8
LAYER_1
 10
73.0443
 20
170.5023
 42
-0.1230840078
  0
VERTEX
  8
LAYER_1
 10
73.2822
 20
170.2507
 42
-0.1306354086
  0
VERTEX
  8
LAYER_1
 10
73.3735
 20
169.9054
 42
-0.2049729159
  0
VERTEX
  8
LAYER_1
 10
73.1484
 20
169.38
 42
-0.200093001
  0
VERTEX
  8
LAYER_1
 10
72.5548
 20
169.1651
 42
-0.194833372
  0
VERTEX
  8
LAYER_1
 10
71.9425
 20
169.3894
 42
-0.2095262716
  0
VERTEX
  8
LAYER_1
 10
71.7105
 20
169.9514
 42
-0.1471006057
  0
VERTEX
  8
LAYER_1
 10
71.8418
 20
170.3974
 42
-0.1495459143
  0
VERTEX
  8
LAYER_1
 10
72.2162
 20
170.7044
 42
-0.09711204209
  0
VERTEX
  8
LAYER_1
 10
72.9198
 20
170.8093
 42
-0.08804752377
  0
VERTEX
  8
LAYER_1
 10
73.6831
 20
170.7053
 42
-0.1511681239
  0
VERTEX
  8
LAYER_1
 10
74.1154
 20
170.3957
 42
-0.1602462883
  0
VERTEX
  8
LAYER_1
 10
74.2638
 20
169.9139
 42
-0.1837309416
  0
VERTEX
  8
LAYER_1
 10
74.1009
 20
169.4346
 42
-0.1880803007
  0
SEQEND
  0
POLYLINE
  8
LAYER_1
 40
0.05
 41
0.05
 66
1
 10
0
 20
0
 30
0
 70
1
  0
VERTEX
  8
LAYER_1
 10
74.2212
 20
168.3794
  0
VERTEX
  8
LAYER_1
 10
74.2212
 20
168.0723
  0
VERTEX
  8
LAYER_1
 10
72.2648
 20
168.0723
 42
-0.04935848582
  0
VERTEX
  8
LAYER_1
 10
72.4763
 20
167.7815
  0
VERTEX
  8
LAYER_1
 10
72.635
 20
167.4583
  0
VERTEX
  8
LAYER_1
 10
72.3382
 20
167.4583
 42
0.07430404801
  0
VERTEX
  8
LAYER_1
 10
72.0448
 20
167.9086
 42
0.1018425065
  0
VERTEX
  8
LAYER_1
 10
71.7105
 20
168.1815
  0
VERTEX
  8
LAYER_1
 10
71.7105
 20
168.3794
  0
SEQEND
  0
POLYLINE
  8
LAYER_1
 40
0.05
 41
0.05
 66
1
 10
0
 20
0
 30
0
 70
1
  0
VERTEX
  8
LAYER_1
 10
72.1437
 20
171.5814
 42
0.1313348878
  0
VERTEX
  8
LAYER_1
 10
72.7455
 20
171.4299
 42
0.02285684236
  0
VERTEX
  8
LAYER_1
 10
72.988
 20
171.4228
 42
0.131414427
  0
VERTEX
  8
LAYER_1
 10
73.8076
 20
171.567
 42
0.2495677914
  0
VERTEX
  8
LAYER_1
 10
74.0114
 20
171.9226
 42
0.2555058567
  0
VERTEX
  8
LAYER_1
 10
73.8067
 20
172.2782
 42
0.1332102607
  0
VERTEX
  8
LAYER_1
 10
73.2039
 20
172.4172
 42
0.01894079829
  0
VERTEX
  8
LAYER_1
 10
72.988
 20
172.4223
 42
0.131538313
  0
VERTEX
  8
LAYER_1
 10
72.1676
 20
172.2782
 42
0.249374636
  0
VERTEX
  8
LAYER_1
 10
71.9647
 20
171.9192
 42
0.2537874064
  0
SEQEND
  0
POLYLINE
  8
LAYER_1
 40
0.05
 41
0.05
 66
1
 10
0
 20
0
 30
0
 70
1
  0
VERTEX
  8
LAYER_1
 10
72.5394
 20
170.4682
 42
0.1885287304
  0
VERTEX
  8
LAYER_1
 10
72.1199
 20
170.3275
 42
0.2179598615
  0
VERTEX
  8
LAYER_1
 10
71.9647
 20
169.9889
 42
0.2179474777
  0
VERTEX
  8
LAYER_1
 10
72.1318
 20
169.6325
 42
0.1909330284
  0
VERTEX
  8
LAYER_1
 10
72.565
 20
169.4807
 42
0.1985299722
  0
VERTEX
  8
LAYER_1
 10
72.9531
 20
169.6248
 42
0.2091647578
  0
VERTEX
  8
LAYER_1
 10
73.1023
 20
169.9804
 42
0.2157995269
  0
VERTEX
  8
LAYER_1
 10
72.9531
 20
170.3309
 42
0.1914837979
  0
SEQEND
  0
ENDBLK
  0
BLOCK
  8
LAYER_1
  2
AIGNBL0101000E
 70
64
 10
0
 20
0
 30
0
  3
AIGNBL0101000E
  0
POLYLINE
  8
LAYER_1
 40
0.05
 41
0.05
 66
1
 10
0
 20
0
 30
0
 70
1
  0
VERTEX
  8
LAYER_1
 10
97.2774
 20
129.2633
  0
VERTEX
  8
LAYER_1
 10
97.2774
 20
128.9682
  0
VERTEX
  8
LAYER_1
 10
95.6247
 20
128.9682
 42
-0.1003136325
  0
VERTEX
  8
LAYER_1
 10
95.6605
 20
129.1814
 42
-0.0828591824
  0
VERTEX
  8
LAYER_1
 10
95.8626
 20
129.514
 42
-0.03645150795
  0
VERTEX
  8
LAYER_1
 10
96.2643
 20
129.8927
 42
0.06758418034
  0
VERTEX
  8
LAYER_1
 10
96.8152
 20
130.4223
 42
0.1635114901
  0
VERTEX
  8
LAYER_1
 10
96.9585
 20
130.7915
 42
0.2098830558
  0
VERTEX
  8
LAYER_1
 10
96.828
 20
131.0994
 42
0.1972785773
  0
VERTEX
  8
LAYER_1
 10
96.4877
 20
131.2248
 42
0.2036786589
  0
VERTEX
  8
LAYER_1
 10
96.133
 20
131.0917
 42
0.2009421038
  0
VERTEX
  8
LAYER_1
 10
95.9982
 20
130.7233
  0
VERTEX
  8
LAYER_1
 10
95.6827
 20
130.7557
 42
-0.1915415251
  0
VERTEX
  8
LAYER_1
 10
95.9266
 20
131.2938
 42
-0.1878959257
  0
VERTEX
  8
LAYER_1
 10
96.4946
 20
131.4789
 42
-0.1917083616
  0
VERTEX
  8
LAYER_1
 10
97.0642
 20
131.2793
 42
-0.2114409613
  0
VERTEX
  8
LAYER_1
 10
97.274
 20
130.7847
 42
-0.0994619485
  0
VERTEX
  8
LAYER_1
 10
97.2126
 20
130.4896
 42
-0.07303932832
  0
VERTEX
  8
LAYER_1
 10
97.0088
 20
130.1843
 42
-0.0237841421
  0
VERTEX
  8
LAYER_1
 10
96.5355
 20
129.7443
  0
VERTEX
  8
LAYER_1
 10
96.1807
 20
129.4296
  0
VERTEX
  8
LAYER_1
 10
96.0511
 20
129.2633
  0
SEQEND
  0
POLYLINE
  8
LAYER_1
 40
0.05
 41
0.05
 66
1
 10
0
 20
0
 30
0
 70
1
  0
VERTEX
  8
LAYER_1
 10
97.8534
 20
129.1848
 42
-0.1304591818
  0
VERTEX
  8
LAYER_1
 10
97.6353
 20
129.7635
 42
-0.05025572719
  0
VERTEX
  8
LAYER_1
 10
97.6061
 20
130.2014
 42
-0.08317280935
  0
VERTEX
  8
LAYER_1
 10
97.6973
 20
130.9152
 42
-0.1431006014
  0
VERTEX
  8
LAYER_1
 10
97.9685
 20
131.3322
 42
-0.1759146869
  0
VERTEX
  8
LAYER_1
 10
98.4214
 20
131.4789
 42
-0.1270885391
  0
VERTEX
  8
LAYER_1
 10
98.7744
 20
131.3979
 42
-0.1268937751
  0
VERTEX
  8
LAYER_1
 10
99.0252
 20
131.1642
 42
-0.07563807577
  0
VERTEX
  8
LAYER_1
 10
99.1804
 20
130.7924
 42
-0.05391468072
  0
VERTEX
  8
LAYER_1
 10
99.2367
 20
130.2014
 42
-0.08243017286
  0
VERTEX
  8
LAYER_1
 10
99.1463
 20
129.491
 42
-0.1431048089
  0
VERTEX
  8
LAYER_1
 10
98.8759
 20
129.0731
 42
-0.1765319212
  0
VERTEX
  8
LAYER_1
 10
98.4214
 20
128.9256
 42
-0.2325062376
  0
SEQEND
  0
POLYLINE
  8
LAYER_1
 40
0.05
 41
0.05
 66
1
 10
0
 20
0
 30
0
 70
1
  0
VERTEX
  8
LAYER_1
 10
98.0802
 20
131.0457
 42
0.1313533569
  0
VERTEX
  8
LAYER_1
 10
97.9287
 20
130.4439
 42
0.0228616131
  0
VERTEX
  8
LAYER_1
 10
97.9216
 20
130.2014
 42
0.1314144272
  0
VERTEX
  8
LAYER_1
 10
98.0658
 20
129.3818
 42
0.2494077943
  0
VERTEX
  8
LAYER_1
 10
98.4214
 20
129.178
 42
0.2555058567
  0
VERTEX
  8
LAYER_1
 10
98.777
 20
129.3827
 42
0.1332102607
  0
VERTEX
  8
LAYER_1
 10
98.916
 20
129.9855
 42
0.01894079829
  0
VERTEX
  8
LAYER_1
 10
98.9211
 20
130.2014
 42
0.1315574195
  0
VERTEX
  8
LAYER_1
 10
98.777
 20
131.0218
 42
0.2493268063
  0
VERTEX
  8
LAYER_1
 10
98.418
 20
131.2248
 42
0.2539196555
  0
SEQEND
  0
POLYLINE
  8
LAYER_1
 40
0.05
 41
0.05
 66
1
 10
0
 20
0
 30
0
 70
1
  0
VERTEX
  8
LAYER_1
 10
99.7956
 20
129.1848
 42
-0.1304591818
  0
VERTEX
  8
LAYER_1
 10
99.5775
 20
129.7635
 42
-0.05025572719
  0
VERTEX
  8
LAYER_1
 10
99.5483
 20
130.2014
 42
-0.08317280935
  0
VERTEX
  8
LAYER_1
 10
99.6395
 20
130.9152
 42
-0.1432131554
  0
VERTEX
  8
LAYER_1
 10
99.9107
 20
131.3322
 42
-0.1759007326
  0
VERTEX
  8
LAYER_1
 10
100.3635
 20
131.4789
 42
-0.1271105382
  0
VERTEX
  8
LAYER_1
 10
100.7166
 20
131.3979
 42
-0.1270896199
  0
VERTEX
  8
LAYER_1
 10
100.9673
 20
131.1642
 42
-0.07596958722
  0
VERTEX
  8
LAYER_1
 10
101.1225
 20
130.7924
 42
-0.05418036655
  0
VERTEX
  8
LAYER_1
 10
101.1788
 20
130.2014
 42
-0.08256479786
  0
VERTEX
  8
LAYER_1
 10
101.0884
 20
129.491
 42
-0.1429867663
  0
VERTEX
  8
LAYER_1
 10
100.8181
 20
129.0731
 42
-0.1765457697
  0
VERTEX
  8
LAYER_1
 10
100.3635
 20
128.9256
 42
-0.2325295411
  0
SEQEND
  0
POLYLINE
  8
LAYER_1
 40
0.05
 41
0.05
 66
1
 10
0
 20
0
 30
0
 70
1
  0
VERTEX
  8
LAYER_1
 10
100.0224
 20
131.0457
 42
0.1313533569
  0
VERTEX
  8
LAYER_1
 10
99.8709
 20
130.4439
 42
0.0228616131
  0
VERTEX
  8
LAYER_1
 10
99.8638
 20
130.2014
 42
0.1313878899
  0
VERTEX
  8
LAYER_1
 10
100.0079
 20
129.3818
 42
0.2493117676
  0
VERTEX
  8
LAYER_1
 10
100.3635
 20
129.178
 42
0.2554500087
  0
VERTEX
  8
LAYER_1
 10
100.7192
 20
129.3827
 42
0.1330750851
  0
VERTEX
  8
LAYER_1
 10
100.8582
 20
129.9855
 42
0.01894910124
  0
VERTEX
  8
LAYER_1
 10
100.8633
 20
130.2014
 42
0.1314725289
  0
VERTEX
  8
LAYER_1
 10
100.7192
 20
131.0218
 42
0.2493664946
  0
VERTEX
  8
LAYER_1
 10
100.3601
 20
131.2248
 42
0.2539809921
  0
SEQEND
  0
ENDBLK
  0
BLOCK
  8
LAYER_1
  2
AIGNBL0101000F
 70
64
 10
0
 20
0
 30
0
  3
AIGNBL0101000F
  0
POLYLINE
  8
LAYER_1
 40
0.05
 41
0.05
 66
1
 10
0
 20
0
 30
0
 70
1
  0
VERTEX
  8
LAYER_1
 10
45.0924
 20
131.1022
  0
VERTEX
  8
LAYER_1
 10
45.0924
 20
131.3973
  0
VERTEX
  8
LAYER_1
 10
46.7111
 20
131.3973
  0
VERTEX
  8
LAYER_1
 10
46.7111
 20
131.1585
 42
0.05846905257
  0
VERTEX
  8
LAYER_1
 10
46.2378
 20
130.4831
 42
0.05746004092
  0
VERTEX
  8
LAYER_1
 10
45.8753
 20
129.6166
 42
0.05256559709
  0
VERTEX
  8
LAYER_1
 10
45.7576
 20
128.9292
  0
VERTEX
  8
LAYER_1
 10
45.4421
 20
128.9292
 42
-0.05560937229
  0
VERTEX
  8
LAYER_1
 10
45.5581
 20
129.6422
 42
-0.05789867013
  0
VERTEX
  8
LAYER_1
 10
45.8762
 20
130.4481
 42
-0.05939919887
  0
VERTEX
  8
LAYER_1
 10
46.3171
 20
131.1022
  0
SEQEND
  0
POLYLINE
  8
LAYER_1
 40
0.05
 41
0.05
 66
1
 10
0
 20
0
 30
0
 70
1
  0
VERTEX
  8
LAYER_1
 10
47.2614
 20
129.1459
 42
-0.1304099592
  0
VERTEX
  8
LAYER_1
 10
47.0433
 20
129.7245
 42
-0.05026348537
  0
VERTEX
  8
LAYER_1
 10
47.0141
 20
130.1624
 42
-0.08330393324
  0
VERTEX
  8
LAYER_1
 10
47.1054
 20
130.8762
 42
-0.1432131554
  0
VERTEX
  8
LAYER_1
 10
47.3766
 20
131.2932
 42
-0.1759551525
  0
VERTEX
  8
LAYER_1
 10
47.8294
 20
131.4399
 42
-0.1271105382
  0
VERTEX
  8
LAYER_1
 10
48.1825
 20
131.3589
 42
-0.1268810251
  0
VERTEX
  8
LAYER_1
 10
48.4332
 20
131.1252
 42
-0.07589447368
  0
VERTEX
  8
LAYER_1
 10
48.5884
 20
130.7534
 42
-0.05391468072
  0
VERTEX
  8
LAYER_1
 10
48.6447
 20
130.1624
 42
-0.08256479786
  0
VERTEX
  8
LAYER_1
 10
48.5543
 20
129.452
 42
-0.1429867663
  0
VERTEX
  8
LAYER_1
 10
48.284
 20
129.0341
 42
-0.1765457697
  0
VERTEX
  8
LAYER_1
 10
47.8294
 20
128.8866
 42
-0.2325957227
  0
SEQEND
  0
POLYLINE
  8
LAYER_1
 40
0.05
 41
0.05
 66
1
 10
0
 20
0
 30
0
 70
1
  0
VERTEX
  8
LAYER_1
 10
47.4883
 20
131.0067
 42
0.1314826295
  0
VERTEX
  8
LAYER_1
 10
47.3367
 20
130.4049
 42
0.02285380755
  0
VERTEX
  8
LAYER_1
 10
47.3297
 20
130.1624
 42
0.1313878899
  0
VERTEX
  8
LAYER_1
 10
47.4738
 20
129.3428
 42
0.2493117676
  0
VERTEX
  8
LAYER_1
 10
47.8294
 20
129.139
 42
0.2555058567
  0
VERTEX
  8
LAYER_1
 10
48.185
 20
129.3437
 42
0.1331989451
  0
VERTEX
  8
LAYER_1
 10
48.3241
 20
129.9465
 42
0.01895914324
  0
VERTEX
  8
LAYER_1
 10
48.3292
 20
130.1624
 42
0.131584091
  0
VERTEX
  8
LAYER_1
 10
48.185
 20
130.9828
 42
0.2494055103
  0
VERTEX
  8
LAYER_1
 10
47.826
 20
131.1858
 42
0.2540515408
  0
SEQEND
  0
ENDBLK
  0
BLOCK
  8
LAYER_1
  2
AIGNBL01010010
 70
64
 10
0
 20
0
 30
0
  3
AIGNBL01010010
  0
POLYLINE
  8
LAYER_1
 40
0.05
 41
0.05
 66
1
 10
0
 20
0
 30
0
 70
1
  0
VERTEX
  8
LAYER_1
 10
124.6478
 20
129.6673
  0
VERTEX
  8
LAYER_1
 10
124.9548
 20
129.7083
 42
0.1625119793
  0
VERTEX
  8
LAYER_1
 10
125.1347
 20
129.3322
 42
0.1896569087
  0
VERTEX
  8
LAYER_1
 10
125.4443
 20
129.2171
 42
0.2050321088
  0
VERTEX
  8
LAYER_1
 10
125.8101
 20
129.3672
 42
0.2035171899
  0
VERTEX
  8
LAYER_1
 10
125.9594
 20
129.739
 42
0.2050212531
  0
VERTEX
  8
LAYER_1
 10
125.8212
 20
130.0878
 42
0.2029562535
  0
VERTEX
  8
LAYER_1
 10
125.4699
 20
130.2251
  0
VERTEX
  8
LAYER_1
 10
125.2533
 20
130.191
  0
VERTEX
  8
LAYER_1
 10
125.2874
 20
130.4604
  0
VERTEX
  8
LAYER_1
 10
125.3368
 20
130.457
 42
0.1482899412
  0
VERTEX
  8
LAYER_1
 10
125.6899
 20
130.5594
 42
0.2652488362
  0
VERTEX
  8
LAYER_1
 10
125.8468
 20
130.8749
 42
0.2091189168
  0
VERTEX
  8
LAYER_1
 10
125.7325
 20
131.1546
 42
0.197721701
  0
VERTEX
  8
LAYER_1
 10
125.4375
 20
131.2655
 42
0.196966631
  0
VERTEX
  8
LAYER_1
 10
125.139
 20
131.1529
 42
0.1650505216
  0
VERTEX
  8
LAYER_1
 10
124.9855
 20
130.8152
  0
VERTEX
  8
LAYER_1
 10
124.6785
 20
130.8698
 42
-0.1744044886
  0
VERTEX
  8
LAYER_1
 10
124.9343
 20
131.3482
 42
-0.1826213549
  0
VERTEX
  8
LAYER_1
 10
125.4306
 20
131.5179
 42
-0.1202476981
  0
VERTEX
  8
LAYER_1
 10
125.8076
 20
131.4301
 42
-0.1435454098
  0
VERTEX
  8
LAYER_1
 10
126.0711
 20
131.1904
 42
-0.1383861738
  0
VERTEX
  8
LAYER_1
 10
126.1624
 20
130.8681
 42
-0.1480006533
  0
VERTEX
  8
LAYER_1
 10
126.0754
 20
130.573
 42
-0.1387242196
  0
VERTEX
  8
LAYER_1
 10
125.8178
 20
130.3615
 42
-0.1786462785
  0
VERTEX
  8
LAYER_1
 10
126.1624
 20
130.1492
 42
-0.1652210132
  0
VERTEX
  8
LAYER_1
 10
126.2852
 20
129.7458
 42
-0.2107131801
  0
VERTEX
  8
LAYER_1
 10
126.0464
 20
129.1906
 42
-0.1991635272
  0
VERTEX
  8
LAYER_1
 10
125.4426
 20
128.9629
 42
-0.1875741082
  0
VERTEX
  8
LAYER_1
 10
124.8959
 20
129.1591
 42
-0.1919984346
  0
SEQEND
  0
POLYLINE
  8
LAYER_1
 40
0.05
 41
0.05
 66
1
 10
0
 20
0
 30
0
 70
1
  0
VERTEX
  8
LAYER_1
 10
127.0607
 20
130.3632
 42
-0.1568356803
  0
VERTEX
  8
LAYER_1
 10
126.7775
 20
130.5628
 42
-0.1552005452
  0
VERTEX
  8
LAYER_1
 10
126.6854
 20
130.8732
 42
-0.2115291745
  0
VERTEX
  8
LAYER_1
 10
126.8816
 20
131.332
 42
-0.1985611534
  0
VERTEX
  8
LAYER_1
 10
127.4035
 20
131.5179
 42
-0.1938301262
  0
VERTEX
  8
LAYER_1
 10
127.9305
 20
131.3278
 42
-0.2106245531
  0
VERTEX
  8
LAYER_1
 10
128.1301
 20
130.8647
 42
-0.1595666357
  0
VERTEX
  8
LAYER_1
 10
128.0388
 20
130.5619
 42
-0.1463472337
  0
VERTEX
  8
LAYER_1
 10
127.7617
 20
130.3632
 42
-0.1625916129
  0
VERTEX
  8
LAYER_1
 10
128.1122
 20
130.121
 42
-0.1585854056
  0
VERTEX
  8
LAYER_1
 10
128.2324
 20
129.7219
 42
-0.2088530728
  0
VERTEX
  8
LAYER_1
 10
128.0056
 20
129.1829
 42
-0.2012018989
  0
VERTEX
  8
LAYER_1
 10
127.4086
 20
128.9646
 42
-0.1949120566
  0
VERTEX
  8
LAYER_1
 10
126.8117
 20
129.1838
 42
-0.2096033538
  0
VERTEX
  8
LAYER_1
 10
126.5848
 20
129.7304
 42
-0.1656821846
  0
VERTEX
  8
LAYER_1
 10
126.7085
 20
130.1389
 42
-0.1717176341
  0
SEQEND
  0
POLYLINE
  8
LAYER_1
 40
0.05
 41
0.05
 66
1
 10
0
 20
0
 30
0
 70
1
  0
VERTEX
  8
LAYER_1
 10
126.9004
 20
129.7287
 42
0.1165956004
  0
VERTEX
  8
LAYER_1
 10
126.9626
 20
129.4746
 42
0.1524522268
  0
VERTEX
  8
LAYER_1
 10
127.1477
 20
129.2844
 42
0.1265750948
  0
VERTEX
  8
LAYER_1
 10
127.412
 20
129.2171
 42
0.2024358318
  0
VERTEX
  8
LAYER_1
 10
127.7753
 20
129.3586
 42
0.2057527515
  0
VERTEX
  8
LAYER_1
 10
127.9186
 20
129.7185
 42
0.206408993
  0
VERTEX
  8
LAYER_1
 10
127.7711
 20
130.0852
 42
0.2015336471
  0
VERTEX
  8
LAYER_1
 10
127.4018
 20
130.2302
 42
0.2049866633
  0
VERTEX
  8
LAYER_1
 10
127.0428
 20
130.0869
 42
0.2033385293
  0
SEQEND
  0
POLYLINE
  8
LAYER_1
 40
0.05
 41
0.05
 66
1
 10
0
 20
0
 30
0
 70
1
  0
VERTEX
  8
LAYER_1
 10
126.9993
 20
130.8834
 42
0.2070585492
  0
VERTEX
  8
LAYER_1
 10
127.1135
 20
130.5935
 42
0.2001372382
  0
VERTEX
  8
LAYER_1
 10
127.4103
 20
130.4809
 42
0.2030107442
  0
VERTEX
  8
LAYER_1
 10
127.7011
 20
130.5926
 42
0.2058822876
  0
VERTEX
  8
LAYER_1
 10
127.8146
 20
130.8664
 42
0.2064898059
  0
VERTEX
  8
LAYER_1
 10
127.6977
 20
131.1504
 42
0.2011240982
  0
VERTEX
  8
LAYER_1
 10
127.4069
 20
131.2655
 42
0.2010347727
  0
VERTEX
  8
LAYER_1
 10
127.1153
 20
131.1529
 42
0.2088560672
  0
SEQEND
  0
POLYLINE
  8
LAYER_1
 40
0.05
 41
0.05
 66
1
 10
0
 20
0
 30
0
 70
1
  0
VERTEX
  8
LAYER_1
 10
128.7777
 20
129.2239
 42
-0.130463245
  0
VERTEX
  8
LAYER_1
 10
128.5596
 20
129.8025
 42
-0.05026566347
  0
VERTEX
  8
LAYER_1
 10
128.5304
 20
130.2404
 42
-0.08318823112
  0
VERTEX
  8
LAYER_1
 10
128.6216
 20
130.9542
 42
-0.1429689622
  0
VERTEX
  8
LAYER_1
 10
128.8928
 20
131.3712
 42
-0.1759146869
  0
VERTEX
  8
LAYER_1
 10
129.3457
 20
131.5179
 42
-0.1270885391
  0
VERTEX
  8
LAYER_1
 10
129.6987
 20
131.4369
 42
-0.1268937751
  0
VERTEX
  8
LAYER_1
 10
129.9495
 20
131.2032
 42
-0.07566286611
  0
VERTEX
  8
LAYER_1
 10
130.1047
 20
130.8314
 42
-0.05391468072
  0
VERTEX
  8
LAYER_1
 10
130.161
 20
130.2404
 42
-0.08241480032
  0
VERTEX
  8
LAYER_1
 10
130.0706
 20
129.53
 42
-0.1432222583
  0
VERTEX
  8
LAYER_1
 10
129.8002
 20
129.1122
 42
-0.1766747799
  0
VERTEX
  8
LAYER_1
 10
129.3457
 20
128.9646
 42
-0.2325957227
  0
SEQEND
  0
POLYLINE
  8
LAYER_1
 40
0.05
 41
0.05
 66
1
 10
0
 20
0
 30
0
 70
1
  0
VERTEX
  8
LAYER_1
 10
129.0045
 20
131.0847
 42
0.1313533569
  0
VERTEX
  8
LAYER_1
 10
128.853
 20
130.4829
 42
0.0228616131
  0
VERTEX
  8
LAYER_1
 10
128.8459
 20
130.2404
 42
0.1314555149
  0
VERTEX
  8
LAYER_1
 10
128.9901
 20
129.4209
 42
0.2495677914
  0
VERTEX
  8
LAYER_1
 10
129.3457
 20
129.2171
 42
0.2553910757
  0
VERTEX
  8
LAYER_1
 10
129.7013
 20
129.4217
 42
0.1331457263
  0
VERTEX
  8
LAYER_1
 10
129.8403
 20
130.0246
 42
0.01893942978
  0
VERTEX
  8
LAYER_1
 10
129.8454
 20
130.2404
 42
0.1315574195
  0
VERTEX
  8
LAYER_1
 10
129.7013
 20
131.0608
 42
0.2493268063
  0
VERTEX
  8
LAYER_1
 10
129.3423
 20
131.2638
 42
0.2539196555
  0
SEQEND
  0
ENDBLK
  0
BLOCK
  8
LAYER_1
  2
AIGNBL01010011
 70
64
 10
0
 20
0
 30
0
  3
AIGNBL01010011
  0
POLYLINE
  8
LAYER_1
 40
0.05
 41
0.05
 66
1
 10
0
 20
0
 30
0
 70
1
  0
VERTEX
  8
LAYER_1
 10
148.1097
 20
131.1802
  0
VERTEX
  8
LAYER_1
 10
148.1097
 20
131.4753
  0
VERTEX
  8
LAYER_1
 10
149.7283
 20
131.4753
  0
VERTEX
  8
LAYER_1
 10
149.7283
 20
131.2365
 42
0.05850759211
  0
VERTEX
  8
LAYER_1
 10
149.255
 20
130.5611
 42
0.05748499918
  0
VERTEX
  8
LAYER_1
 10
148.8926
 20
129.6946
 42
0.05272607893
  0
VERTEX
  8
LAYER_1
 10
148.7749
 20
129.0073
  0
VERTEX
  8
LAYER_1
 10
148.4593
 20
129.0073
 42
-0.05541774888
  0
VERTEX
  8
LAYER_1
 10
148.5753
 20
129.7202
 42
-0.05779975818
  0
VERTEX
  8
LAYER_1
 10
148.8934
 20
130.5261
 42
-0.05938589318
  0
VERTEX
  8
LAYER_1
 10
149.3343
 20
131.1802
  0
SEQEND
  0
POLYLINE
  8
LAYER_1
 40
0.05
 41
0.05
 66
1
 10
0
 20
0
 30
0
 70
1
  0
VERTEX
  8
LAYER_1
 10
150.2787
 20
129.2239
 42
-0.130463245
  0
VERTEX
  8
LAYER_1
 10
150.0606
 20
129.8025
 42
-0.05026566347
  0
VERTEX
  8
LAYER_1
 10
150.0314
 20
130.2404
 42
-0.08318823112
  0
VERTEX
  8
LAYER_1
 10
150.1226
 20
130.9542
 42
-0.1432131554
  0
VERTEX
  8
LAYER_1
 10
150.3938
 20
131.3712
 42
-0.1759146869
  0
VERTEX
  8
LAYER_1
 10
150.8467
 20
131.5179
 42
-0.1270885391
  0
VERTEX
  8
LAYER_1
 10
151.1997
 20
131.4369
 42
-0.1268937751
  0
VERTEX
  8
LAYER_1
 10
151.4505
 20
131.2032
 42
-0.07566286611
  0
VERTEX
  8
LAYER_1
 10
151.6057
 20
130.8314
 42
-0.05386183555
  0
VERTEX
  8
LAYER_1
 10
151.6619
 20
130.2404
 42
-0.08241798075
  0
VERTEX
  8
LAYER_1
 10
151.5716
 20
129.53
 42
-0.1432222583
  0
VERTEX
  8
LAYER_1
 10
151.3012
 20
129.1122
 42
-0.1766747799
  0
VERTEX
  8
LAYER_1
 10
150.8467
 20
128.9646
 42
-0.2325957227
  0
SEQEND
  0
POLYLINE
  8
LAYER_1
 40
0.05
 41
0.05
 66
1
 10
0
 20
0
 30
0
 70
1
  0
VERTEX
  8
LAYER_1
 10
150.5055
 20
131.0847
 42
0.1313533569
  0
VERTEX
  8
LAYER_1
 10
150.354
 20
130.4829
 42
0.0228616131
  0
VERTEX
  8
LAYER_1
 10
150.3469
 20
130.2404
 42
0.1314289627
  0
VERTEX
  8
LAYER_1
 10
150.491
 20
129.4209
 42
0.2494333433
  0
VERTEX
  8
LAYER_1
 10
150.8467
 20
129.2171
 42
0.2553910757
  0
VERTEX
  8
LAYER_1
 10
151.2023
 20
129.4217
 42
0.1331457263
  0
VERTEX
  8
LAYER_1
 10
151.3413
 20
130.0246
 42
0.01893942978
  0
VERTEX
  8
LAYER_1
 10
151.3464
 20
130.2404
 42
0.1315574195
  0
VERTEX
  8
LAYER_1
 10
151.2023
 20
131.0608
 42
0.2493268063
  0
VERTEX
  8
LAYER_1
 10
150.8433
 20
131.2638
 42
0.2539196555
  0
SEQEND
  0
ENDBLK
  0
BLOCK
  8
LAYER_1
  2
AIGNBL01010012
 70
64
 10
0
 20
0
 30
0
  3
AIGNBL01010012
  0
POLYLINE
  8
LAYER_1
 40
0.05
 41
0.05
 66
1
 10
0
 20
0
 30
0
 70
1
  0
VERTEX
  8
LAYER_1
 10
41.3948
 20
161.954
 42
-0.1304691712
  0
VERTEX
  8
LAYER_1
 10
40.8162
 20
161.7359
 42
-0.0502659885
  0
VERTEX
  8
LAYER_1
 10
40.3782
 20
161.7067
 42
-0.08314795122
  0
VERTEX
  8
LAYER_1
 10
39.6644
 20
161.7979
 42
-0.1432131554
  0
VERTEX
  8
LAYER_1
 10
39.2474
 20
162.0691
 42
-0.1759551527
  0
VERTEX
  8
LAYER_1
 10
39.1007
 20
162.5219
 42
-0.1271105384
  0
VERTEX
  8
LAYER_1
 10
39.1817
 20
162.875
 42
-0.1268020148
  0
VERTEX
  8
LAYER_1
 10
39.4154
 20
163.1257
 42
-0.07596958722
  0
VERTEX
  8
LAYER_1
 10
39.7872
 20
163.2809
 42
-0.0539642109
  0
VERTEX
  8
LAYER_1
 10
40.3782
 20
163.3372
 42
-0.08256479786
  0
VERTEX
  8
LAYER_1
 10
41.0886
 20
163.2468
 42
-0.1430791834
  0
VERTEX
  8
LAYER_1
 10
41.5065
 20
162.9765
 42
-0.1766964866
  0
VERTEX
  8
LAYER_1
 10
41.654
 20
162.5219
 42
-0.2325295411
  0
SEQEND
  0
POLYLINE
  8
LAYER_1
 40
0.05
 41
0.05
 66
1
 10
0
 20
0
 30
0
 70
1
  0
VERTEX
  8
LAYER_1
 10
40.2554
 20
160.2369
 42
-0.1569717233
  0
VERTEX
  8
LAYER_1
 10
40.0559
 20
159.9538
 42
-0.1552071322
  0
VERTEX
  8
LAYER_1
 10
39.7454
 20
159.8617
 42
-0.2113704156
  0
VERTEX
  8
LAYER_1
 10
39.2866
 20
160.0578
 42
-0.1984671003
  0
VERTEX
  8
LAYER_1
 10
39.1007
 20
160.5798
 42
-0.1939438039
  0
VERTEX
  8
LAYER_1
 10
39.2909
 20
161.1068
 42
-0.2105520315
  0
VERTEX
  8
LAYER_1
 10
39.754
 20
161.3064
 42
-0.159436484
  0
VERTEX
  8
LAYER_1
 10
40.0567
 20
161.2151
 42
-0.1468586882
  0
VERTEX
  8
LAYER_1
 10
40.2554
 20
160.9379
 42
-0.1623809248
  0
VERTEX
  8
LAYER_1
 10
40.4976
 20
161.2885
 42
-0.1583862572
  0
VERTEX
  8
LAYER_1
 10
40.8967
 20
161.4087
 42
-0.2088847405
  0
VERTEX
  8
LAYER_1
 10
41.4357
 20
161.1819
 42
-0.2012888977
  0
VERTEX
  8
LAYER_1
 10
41.654
 20
160.5849
 42
-0.1949050681
  0
VERTEX
  8
LAYER_1
 10
41.4349
 20
159.9879
 42
-0.2094788523
  0
VERTEX
  8
LAYER_1
 10
40.8882
 20
159.7611
 42
-0.1654562307
  0
VERTEX
  8
LAYER_1
 10
40.4797
 20
159.8847
 42
-0.1713876202
  0
SEQEND
  0
POLYLINE
  8
LAYER_1
 40
0.05
 41
0.05
 66
1
 10
0
 20
0
 30
0
 70
1
  0
VERTEX
  8
LAYER_1
 10
40.9513
 20
157.824
  0
VERTEX
  8
LAYER_1
 10
40.9104
 20
158.131
 42
0.1621799739
  0
VERTEX
  8
LAYER_1
 10
41.2865
 20
158.311
 42
0.1894558041
  0
VERTEX
  8
LAYER_1
 10
41.4016
 20
158.6205
 42
0.2049840856
  0
VERTEX
  8
LAYER_1
 10
41.2515
 20
158.9864
 42
0.2034670274
  0
VERTEX
  8
LAYER_1
 10
40.8797
 20
159.1356
 42
0.2051168619
  0
VERTEX
  8
LAYER_1
 10
40.5309
 20
158.9975
 42
0.2029765149
  0
VERTEX
  8
LAYER_1
 10
40.3936
 20
158.6461
  0
VERTEX
  8
LAYER_1
 10
40.4277
 20
158.4295
  0
VERTEX
  8
LAYER_1
 10
40.1582
 20
158.4636
  0
VERTEX
  8
LAYER_1
 10
40.1616
 20
158.5131
 42
0.1479610967
  0
VERTEX
  8
LAYER_1
 10
40.0593
 20
158.8662
 42
0.2652791185
  0
VERTEX
  8
LAYER_1
 10
39.7437
 20
159.0231
 42
0.2090289973
  0
VERTEX
  8
LAYER_1
 10
39.464
 20
158.9088
 42
0.197648561
  0
VERTEX
  8
LAYER_1
 10
39.3532
 20
158.6137
 42
0.1969232493
  0
VERTEX
  8
LAYER_1
 10
39.4657
 20
158.3153
 42
0.1649599818
  0
VERTEX
  8
LAYER_1
 10
39.8034
 20
158.1617
  0
VERTEX
  8
LAYER_1
 10
39.7489
 20
157.8547
 42
-0.1742946448
  0
VERTEX
  8
LAYER_1
 10
39.2704
 20
158.1106
 42
-0.1824777641
  0
VERTEX
  8
LAYER_1
 10
39.1007
 20
158.6069
 42
-0.120539495
  0
VERTEX
  8
LAYER_1
 10
39.1886
 20
158.9838
 42
-0.1436138012
  0
VERTEX
  8
LAYER_1
 10
39.4282
 20
159.2474
 42
-0.1383034947
  0
VERTEX
  8
LAYER_1
 10
39.7506
 20
159.3386
 42
-0.1480268831
  0
VERTEX
  8
LAYER_1
 10
40.0456
 20
159.2516
 42
-0.1387874871
  0
VERTEX
  8
LAYER_1
 10
40.2571
 20
158.9941
 42
-0.1788185538
  0
VERTEX
  8
LAYER_1
 10
40.4695
 20
159.3386
 42
-0.1657312152
  0
VERTEX
  8
LAYER_1
 10
40.8729
 20
159.4614
 42
-0.2107502561
  0
VERTEX
  8
LAYER_1
 10
41.428
 20
159.2226
 42
-0.1992024176
  0
VERTEX
  8
LAYER_1
 10
41.6557
 20
158.6188
 42
-0.1875601708
  0
VERTEX
  8
LAYER_1
 10
41.4596
 20
158.0722
 42
-0.1919644226
  0
SEQEND
  0
POLYLINE
  8
LAYER_1
 40
0.05
 41
0.05
 66
1
 10
0
 20
0
 30
0
 70
1
  0
VERTEX
  8
LAYER_1
 10
39.7352
 20
160.1755
 42
0.2071797873
  0
VERTEX
  8
LAYER_1
 10
40.0252
 20
160.2898
 42
0.1999410038
  0
VERTEX
  8
LAYER_1
 10
40.1377
 20
160.5866
 42
0.2031674907
  0
VERTEX
  8
LAYER_1
 10
40.026
 20
160.8774
 42
0.2059309129
  0
VERTEX
  8
LAYER_1
 10
39.7523
 20
160.9908
 42
0.2066462984
  0
VERTEX
  8
LAYER_1
 10
39.4683
 20
160.874
 42
0.2013166245
  0
VERTEX
  8
LAYER_1
 10
39.3532
 20
160.5832
 42
0.2008665388
  0
VERTEX
  8
LAYER_1
 10
39.4657
 20
160.2915
 42
0.208586566
  0
SEQEND
  0
POLYLINE
  8
LAYER_1
 40
0.05
 41
0.05
 66
1
 10
0
 20
0
 30
0
 70
1
  0
VERTEX
  8
LAYER_1
 10
39.534
 20
162.1808
 42
0.1313931368
  0
VERTEX
  8
LAYER_1
 10
40.1357
 20
162.0293
 42
0.02285950191
  0
VERTEX
  8
LAYER_1
 10
40.3782
 20
162.0222
 42
0.1313878897
  0
VERTEX
  8
LAYER_1
 10
41.1978
 20
162.1663
 42
0.249471779
  0
VERTEX
  8
LAYER_1
 10
41.4016
 20
162.5219
 42
0.2554500087
  0
VERTEX
  8
LAYER_1
 10
41.1969
 20
162.8776
 42
0.1330750851
  0
VERTEX
  8
LAYER_1
 10
40.5941
 20
163.0166
 42
0.01894910124
  0
VERTEX
  8
LAYER_1
 10
40.3782
 20
163.0217
 42
0.131453424
  0
VERTEX
  8
LAYER_1
 10
39.5578
 20
162.8776
 42
0.2494142799
  0
VERTEX
  8
LAYER_1
 10
39.3549
 20
162.5185
 42
0.2539809923
  0
SEQEND
  0
POLYLINE
  8
LAYER_1
 40
0.05
 41
0.05
 66
1
 10
0
 20
0
 30
0
 70
1
  0
VERTEX
  8
LAYER_1
 10
40.8899
 20
160.0766
 42
0.1170879195
  0
VERTEX
  8
LAYER_1
 10
41.144
 20
160.1389
 42
0.1523016067
  0
VERTEX
  8
LAYER_1
 10
41.3342
 20
160.3239
 42
0.1267191274
  0
VERTEX
  8
LAYER_1
 10
41.4016
 20
160.5883
 42
0.2024208419
  0
VERTEX
  8
LAYER_1
 10
41.26
 20
160.9516
 42
0.2058252948
  0
VERTEX
  8
LAYER_1
 10
40.9001
 20
161.0949
 42
0.2064931101
  0
VERTEX
  8
LAYER_1
 10
40.5334
 20
160.9473
 42
0.2016663219
  0
VERTEX
  8
LAYER_1
 10
40.3885
 20
160.5781
 42
0.2049524914
  0
VERTEX
  8
LAYER_1
 10
40.5317
 20
160.219
 42
0.2031655358
  0
SEQEND
  0
ENDBLK
  0
BLOCK
  8
LAYER_1
  2
AIGNBL01010013
 70
64
 10
0
 20
0
 30
0
  3
AIGNBL01010013
  0
POLYLINE
  8
LAYER_1
 40
0.05
 41
0.05
 66
1
 10
0
 20
0
 30
0
 70
1
  0
VERTEX
  8
LAYER_1
 10
41.3948
 20
138.9871
 42
-0.1304397109
  0
VERTEX
  8
LAYER_1
 10
40.8162
 20
138.7689
 42
-0.05028534595
  0
VERTEX
  8
LAYER_1
 10
40.3782
 20
138.7397
 42
-0.08314498079
  0
VERTEX
  8
LAYER_1
 10
39.6644
 20
138.831
 42
-0.1432131554
  0
VERTEX
  8
LAYER_1
 10
39.2474
 20
139.1022
 42
-0.1759551527
  0
VERTEX
  8
LAYER_1
 10
39.1007
 20
139.555
 42
-0.1271105384
  0
VERTEX
  8
LAYER_1
 10
39.1817
 20
139.9081
 42
-0.1268020148
  0
VERTEX
  8
LAYER_1
 10
39.4154
 20
140.1588
 42
-0.07589447368
  0
VERTEX
  8
LAYER_1
 10
39.7872
 20
140.314
 42
-0.05390168986
  0
VERTEX
  8
LAYER_1
 10
40.3782
 20
140.3703
 42
-0.08256479786
  0
VERTEX
  8
LAYER_1
 10
41.0886
 20
140.2799
 42
-0.1430791834
  0
VERTEX
  8
LAYER_1
 10
41.5065
 20
140.0096
 42
-0.1766964866
  0
VERTEX
  8
LAYER_1
 10
41.654
 20
139.555
 42
-0.232574547
  0
SEQEND
  0
POLYLINE
  8
LAYER_1
 40
0.05
 41
0.05
 66
1
 10
0
 20
0
 30
0
 70
1
  0
VERTEX
  8
LAYER_1
 10
39.7233
 20
138.3906
  0
VERTEX
  8
LAYER_1
 10
39.7472
 20
138.0853
 42
0.1446315441
  0
VERTEX
  8
LAYER_1
 10
39.4845
 20
137.9693
 42
0.2117653976
  0
VERTEX
  8
LAYER_1
 10
39.3532
 20
137.6623
 42
0.1645351624
  0
VERTEX
  8
LAYER_1
 10
39.435
 20
137.4048
 42
0.1363353414
  0
VERTEX
  8
LAYER_1
 10
39.7437
 20
137.1762
 42
0.08726589918
  0
VERTEX
  8
LAYER_1
 10
40.3219
 20
137.0892
 42
-0.1333563308
  0
VERTEX
  8
LAYER_1
 10
40.0712
 20
137.3604
 42
-0.1200486888
  0
VERTEX
  8
LAYER_1
 10
39.9893
 20
137.6964
 42
-0.2107542833
  0
VERTEX
  8
LAYER_1
 10
40.2153
 20
138.2192
 42
-0.1997729416
  0
VERTEX
  8
LAYER_1
 10
40.7995
 20
138.435
 42
-0.1182516414
  0
VERTEX
  8
LAYER_1
 10
41.237
 20
138.3335
 42
-0.143612398
  0
VERTEX
  8
LAYER_1
 10
41.5466
 20
138.0546
 42
-0.1375358114
  0
VERTEX
  8
LAYER_1
 10
41.654
 20
137.6521
 42
-0.2239360081
  0
VERTEX
  8
LAYER_1
 10
41.3717
 20
137.0261
 42
-0.1382439596
  0
VERTEX
  8
LAYER_1
 10
40.8437
 20
136.8125
 42
-0.05366357381
  0
VERTEX
  8
LAYER_1
 10
40.4413
 20
136.7839
 42
-0.09546452035
  0
VERTEX
  8
LAYER_1
 10
39.6317
 20
136.9105
 42
-0.07923695064
  0
VERTEX
  8
LAYER_1
 10
39.3873
 20
137.0517
 42
-0.2345077003
  0
VERTEX
  8
LAYER_1
 10
39.1007
 20
137.6811
 42
-0.1841538694
  0
VERTEX
  8
LAYER_1
 10
39.2662
 20
138.1646
 42
-0.187542295
  0
SEQEND
  0
POLYLINE
  8
LAYER_1
 40
0.05
 41
0.05
 66
1
 10
0
 20
0
 30
0
 70
1
  0
VERTEX
  8
LAYER_1
 10
39.534
 20
139.2139
 42
0.1313931368
  0
VERTEX
  8
LAYER_1
 10
40.1357
 20
139.0624
 42
0.02285950191
  0
VERTEX
  8
LAYER_1
 10
40.3782
 20
139.0553
 42
0.1313878897
  0
VERTEX
  8
LAYER_1
 10
41.1978
 20
139.1994
 42
0.249471779
  0
VERTEX
  8
LAYER_1
 10
41.4016
 20
139.555
 42
0.2555058567
  0
VERTEX
  8
LAYER_1
 10
41.1969
 20
139.9106
 42
0.1331989451
  0
VERTEX
  8
LAYER_1
 10
40.5941
 20
140.0497
 42
0.01895914324
  0
VERTEX
  8
LAYER_1
 10
40.3782
 20
140.0548
 42
0.1315649748
  0
VERTEX
  8
LAYER_1
 10
39.5578
 20
139.9106
 42
0.2494533231
  0
VERTEX
  8
LAYER_1
 10
39.3549
 20
139.5516
 42
0.254051541
  0
SEQEND
  0
POLYLINE
  8
LAYER_1
 40
0.05
 41
0.05
 66
1
 10
0
 20
0
 30
0
 70
1
  0
VERTEX
  8
LAYER_1
 10
40.8012
 20
137.137
 42
0.1098237966
  0
VERTEX
  8
LAYER_1
 10
41.1048
 20
137.2044
 42
0.1495442599
  0
VERTEX
  8
LAYER_1
 10
41.3257
 20
137.3928
 42
0.144417815
  0
VERTEX
  8
LAYER_1
 10
41.4016
 20
137.647
 42
0.2202702368
  0
VERTEX
  8
LAYER_1
 10
41.2447
 20
137.9813
 42
0.1874054431
  0
VERTEX
  8
LAYER_1
 10
40.8183
 20
138.1211
 42
0.1915697548
  0
VERTEX
  8
LAYER_1
 10
40.4098
 20
137.983
 42
0.2151258256
  0
VERTEX
  8
LAYER_1
 10
40.2605
 20
137.635
 42
0.202688714
  0
VERTEX
  8
LAYER_1
 10
40.4098
 20
137.282
 42
0.2000260618
  0
SEQEND
  0
ENDBLK
  0
BLOCK
  8
LAYER_1
  2
AIGNBL01010014
 70
64
 10
0
 20
0
 30
0
  3
AIGNBL01010014
  0
POLYLINE
  8
LAYER_1
 40
0.05
 41
0.05
 66
1
 10
0
 20
0
 30
0
 70
1
  0
VERTEX
  8
LAYER_1
 10
41.3948
 20
185.8652
 42
-0.1304691712
  0
VERTEX
  8
LAYER_1
 10
40.8162
 20
185.6471
 42
-0.0502659885
  0
VERTEX
  8
LAYER_1
 10
40.3782
 20
185.6179
 42
-0.08327904694
  0
VERTEX
  8
LAYER_1
 10
39.6644
 20
185.7092
 42
-0.1430951866
  0
VERTEX
  8
LAYER_1
 10
39.2474
 20
185.9803
 42
-0.1758651596
  0
VERTEX
  8
LAYER_1
 10
39.1007
 20
186.4332
 42
-0.1270885393
  0
VERTEX
  8
LAYER_1
 10
39.1817
 20
186.7862
 42
-0.1266061314
  0
VERTEX
  8
LAYER_1
 10
39.4154
 20
187.037
 42
-0.07589447368
  0
VERTEX
  8
LAYER_1
 10
39.7872
 20
187.1922
 42
-0.05390168986
  0
VERTEX
  8
LAYER_1
 10
40.3782
 20
187.2485
 42
-0.08243017286
  0
VERTEX
  8
LAYER_1
 10
41.0886
 20
187.1581
 42
-0.1431972319
  0
VERTEX
  8
LAYER_1
 10
41.5065
 20
186.8877
 42
-0.1767865153
  0
VERTEX
  8
LAYER_1
 10
41.654
 20
186.4332
 42
-0.2325062376
  0
SEQEND
  0
POLYLINE
  8
LAYER_1
 40
0.05
 41
0.05
 66
1
 10
0
 20
0
 30
0
 70
1
  0
VERTEX
  8
LAYER_1
 10
41.3948
 20
183.923
 42
-0.1303681891
  0
VERTEX
  8
LAYER_1
 10
40.8162
 20
183.7049
 42
-0.05026695401
  0
VERTEX
  8
LAYER_1
 10
40.3782
 20
183.6757
 42
-0.08327904694
  0
VERTEX
  8
LAYER_1
 10
39.6644
 20
183.767
 42
-0.1432131554
  0
VERTEX
  8
LAYER_1
 10
39.2474
 20
184.0382
 42
-0.1759551527
  0
VERTEX
  8
LAYER_1
 10
39.1007
 20
184.491
 42
-0.1271105384
  0
VERTEX
  8
LAYER_1
 10
39.1817
 20
184.8441
 42
-0.1265933857
  0
VERTEX
  8
LAYER_1
 10
39.4154
 20
185.0948
 42
-0.07589447368
  0
VERTEX
  8
LAYER_1
 10
39.7872
 20
185.25
 42
-0.05390168986
  0
VERTEX
  8
LAYER_1
 10
40.3782
 20
185.3063
 42
-0.08256479786
  0
VERTEX
  8
LAYER_1
 10
41.0886
 20
185.2159
 42
-0.1430791834
  0
VERTEX
  8
LAYER_1
 10
41.5065
 20
184.9456
 42
-0.1766964866
  0
VERTEX
  8
LAYER_1
 10
41.654
 20
184.491
 42
-0.2325062376
  0
SEQEND
  0
POLYLINE
  8
LAYER_1
 40
0.05
 41
0.05
 66
1
 10
0
 20
0
 30
0
 70
1
  0
VERTEX
  8
LAYER_1
 10
41.6114
 20
182.89
  0
VERTEX
  8
LAYER_1
 10
41.6114
 20
182.583
  0
VERTEX
  8
LAYER_1
 10
39.655
 20
182.583
 42
-0.04917470512
  0
VERTEX
  8
LAYER_1
 10
39.8665
 20
182.2922
  0
VERTEX
  8
LAYER_1
 10
40.0252
 20
181.9689
  0
VERTEX
  8
LAYER_1
 10
39.7284
 20
181.9689
 42
0.07430404801
  0
VERTEX
  8
LAYER_1
 10
39.435
 20
182.4192
 42
0.1020682305
  0
VERTEX
  8
LAYER_1
 10
39.1007
 20
182.6921
  0
VERTEX
  8
LAYER_1
 10
39.1007
 20
182.89
  0
SEQEND
  0
POLYLINE
  8
LAYER_1
 40
0.05
 41
0.05
 66
1
 10
0
 20
0
 30
0
 70
1
  0
VERTEX
  8
LAYER_1
 10
39.534
 20
186.0921
 42
0.1315056219
  0
VERTEX
  8
LAYER_1
 10
40.1357
 20
185.9405
 42
0.02287085319
  0
VERTEX
  8
LAYER_1
 10
40.3782
 20
185.9334
 42
0.131414427
  0
VERTEX
  8
LAYER_1
 10
41.1978
 20
186.0776
 42
0.2495677914
  0
VERTEX
  8
LAYER_1
 10
41.4016
 20
186.4332
 42
0.2555058567
  0
VERTEX
  8
LAYER_1
 10
41.1969
 20
186.7888
 42
0.1332102607
  0
VERTEX
  8
LAYER_1
 10
40.5941
 20
186.9278
 42
0.01894079829
  0
VERTEX
  8
LAYER_1
 10
40.3782
 20
186.9329
 42
0.131538313
  0
VERTEX
  8
LAYER_1
 10
39.5578
 20
186.7888
 42
0.2494533231
  0
VERTEX
  8
LAYER_1
 10
39.3549
 20
186.4298
 42
0.254051541
  0
SEQEND
  0
POLYLINE
  8
LAYER_1
 40
0.05
 41
0.05
 66
1
 10
0
 20
0
 30
0
 70
1
  0
VERTEX
  8
LAYER_1
 10
39.534
 20
184.1499
 42
0.131522424
  0
VERTEX
  8
LAYER_1
 10
40.1357
 20
183.9983
 42
0.02285169799
  0
VERTEX
  8
LAYER_1
 10
40.3782
 20
183.9913
 42
0.1313878897
  0
VERTEX
  8
LAYER_1
 10
41.1978
 20
184.1354
 42
0.249471779
  0
VERTEX
  8
LAYER_1
 10
41.4016
 20
184.491
 42
0.2555058567
  0
VERTEX
  8
LAYER_1
 10
41.1969
 20
184.8466
 42
0.1331989451
  0
VERTEX
  8
LAYER_1
 10
40.5941
 20
184.9857
 42
0.01895914324
  0
VERTEX
  8
LAYER_1
 10
40.3782
 20
184.9908
 42
0.1315649748
  0
VERTEX
  8
LAYER_1
 10
39.5578
 20
184.8466
 42
0.2494533231
  0
VERTEX
  8
LAYER_1
 10
39.3549
 20
184.4876
 42
0.254051541
  0
SEQEND
  0
ENDBLK
  0
BLOCK
  8
LAYER_1
  2
AIGNBL01010015
 70
64
 10
0
 20
0
 30
0
  3
AIGNBL01010015
  0
POLYLINE
  8
LAYER_1
 40
0.05
 41
0.05
 66
1
 10
0
 20
0
 30
0
 70
1
  0
VERTEX
  8
LAYER_1
 10
139.2879
 20
179.8163
  0
VERTEX
  8
LAYER_1
 10
139.2879
 20
179.5212
  0
VERTEX
  8
LAYER_1
 10
137.6352
 20
179.5212
 42
-0.1003136325
  0
VERTEX
  8
LAYER_1
 10
137.671
 20
179.7344
 42
-0.08269687257
  0
VERTEX
  8
LAYER_1
 10
137.8731
 20
180.067
 42
-0.03667530694
  0
VERTEX
  8
LAYER_1
 10
138.2748
 20
180.4456
 42
0.06749028428
  0
VERTEX
  8
LAYER_1
 10
138.8257
 20
180.9752
 42
0.1635363737
  0
VERTEX
  8
LAYER_1
 10
138.969
 20
181.3445
 42
0.2098830558
  0
VERTEX
  8
LAYER_1
 10
138.8385
 20
181.6524
 42
0.1971022458
  0
VERTEX
  8
LAYER_1
 10
138.4982
 20
181.7777
 42
0.2036394812
  0
VERTEX
  8
LAYER_1
 10
138.1434
 20
181.6447
 42
0.2007730771
  0
VERTEX
  8
LAYER_1
 10
138.0087
 20
181.2763
  0
VERTEX
  8
LAYER_1
 10
137.6932
 20
181.3087
 42
-0.1915415251
  0
VERTEX
  8
LAYER_1
 10
137.9371
 20
181.8468
 42
-0.1878822324
  0
VERTEX
  8
LAYER_1
 10
138.505
 20
182.0319
 42
-0.1915772597
  0
VERTEX
  8
LAYER_1
 10
139.0747
 20
181.8323
 42
-0.2114409613
  0
VERTEX
  8
LAYER_1
 10
139.2845
 20
181.3377
 42
-0.0992169468
  0
VERTEX
  8
LAYER_1
 10
139.2231
 20
181.0426
 42
-0.07303932832
  0
VERTEX
  8
LAYER_1
 10
139.0193
 20
180.7373
 42
-0.02391356607
  0
VERTEX
  8
LAYER_1
 10
138.546
 20
180.2973
  0
VERTEX
  8
LAYER_1
 10
138.1912
 20
179.9826
  0
VERTEX
  8
LAYER_1
 10
138.0616
 20
179.8163
  0
SEQEND
  0
POLYLINE
  8
LAYER_1
 40
0.05
 41
0.05
 66
1
 10
0
 20
0
 30
0
 70
1
  0
VERTEX
  8
LAYER_1
 10
141.2096
 20
181.4093
  0
VERTEX
  8
LAYER_1
 10
140.9043
 20
181.3854
 42
0.1442511074
  0
VERTEX
  8
LAYER_1
 10
140.7883
 20
181.6481
 42
0.2117653974
  0
VERTEX
  8
LAYER_1
 10
140.4813
 20
181.7794
 42
0.1642013214
  0
VERTEX
  8
LAYER_1
 10
140.2238
 20
181.6976
 42
0.1361989924
  0
VERTEX
  8
LAYER_1
 10
139.9952
 20
181.3888
 42
0.08730184652
  0
VERTEX
  8
LAYER_1
 10
139.9082
 20
180.8106
 42
-0.1334722926
  0
VERTEX
  8
LAYER_1
 10
140.1794
 20
181.0614
 42
-0.1198709629
  0
VERTEX
  8
LAYER_1
 10
140.5154
 20
181.1432
 42
-0.2108180459
  0
VERTEX
  8
LAYER_1
 10
141.0382
 20
180.9172
 42
-0.1998590549
  0
VERTEX
  8
LAYER_1
 10
141.254
 20
180.3331
 42
-0.1182516414
  0
VERTEX
  8
LAYER_1
 10
141.1525
 20
179.8956
 42
-0.1438631903
  0
VERTEX
  8
LAYER_1
 10
140.8736
 20
179.586
 42
-0.1375028986
  0
VERTEX
  8
LAYER_1
 10
140.4711
 20
179.4786
 42
-0.2238949278
  0
VERTEX
  8
LAYER_1
 10
139.8451
 20
179.7608
 42
-0.1382970555
  0
VERTEX
  8
LAYER_1
 10
139.6315
 20
180.2888
 42
-0.05366627044
  0
VERTEX
  8
LAYER_1
 10
139.6029
 20
180.6912
 42
-0.09546163662
  0
VERTEX
  8
LAYER_1
 10
139.7295
 20
181.5009
 42
-0.07923970007
  0
VERTEX
  8
LAYER_1
 10
139.8707
 20
181.7453
 42
-0.2343948912
  0
VERTEX
  8
LAYER_1
 10
140.5001
 20
182.0319
 42
-0.1841538692
  0
VERTEX
  8
LAYER_1
 10
140.9836
 20
181.8664
 42
-0.1874037309
  0
SEQEND
  0
POLYLINE
  8
LAYER_1
 40
0.05
 41
0.05
 66
1
 10
0
 20
0
 30
0
 70
1
  0
VERTEX
  8
LAYER_1
 10
139.956
 20
180.3314
 42
0.1098237968
  0
VERTEX
  8
LAYER_1
 10
140.0234
 20
180.0278
 42
0.1495442599
  0
VERTEX
  8
LAYER_1
 10
140.2118
 20
179.8069
 42
0.144417815
  0
VERTEX
  8
LAYER_1
 10
140.466
 20
179.731
 42
0.2202702368
  0
VERTEX
  8
LAYER_1
 10
140.8003
 20
179.8879
 42
0.1874054431
  0
VERTEX
  8
LAYER_1
 10
140.9401
 20
180.3143
 42
0.1915115683
  0
VERTEX
  8
LAYER_1
 10
140.802
 20
180.7228
 42
0.2151477105
  0
VERTEX
  8
LAYER_1
 10
140.454
 20
180.872
 42
0.2026854502
  0
VERTEX
  8
LAYER_1
 10
140.101
 20
180.7228
 42
0.200026062
  0
SEQEND
  0
POLYLINE
  8
LAYER_1
 40
0.05
 41
0.05
 66
1
 10
0
 20
0
 30
0
 70
1
  0
VERTEX
  8
LAYER_1
 10
141.806
 20
179.7378
 42
-0.1303681891
  0
VERTEX
  8
LAYER_1
 10
141.5879
 20
180.3164
 42
-0.05026695421
  0
VERTEX
  8
LAYER_1
 10
141.5587
 20
180.7544
 42
-0.08327904714
  0
VERTEX
  8
LAYER_1
 10
141.65
 20
181.4682
 42
-0.1432131554
  0
VERTEX
  8
LAYER_1
 10
141.9212
 20
181.8852
 42
-0.1759551525
  0
VERTEX
  8
LAYER_1
 10
142.374
 20
182.0319
 42
-0.1270650382
  0
VERTEX
  8
LAYER_1
 10
142.7271
 20
181.9508
 42
-0.126751315
  0
VERTEX
  8
LAYER_1
 10
142.9778
 20
181.7172
 42
-0.07585267036
  0
VERTEX
  8
LAYER_1
 10
143.133
 20
181.3453
 42
-0.05391732266
  0
VERTEX
  8
LAYER_1
 10
143.1893
 20
180.7544
 42
-0.08256479786
  0
VERTEX
  8
LAYER_1
 10
143.0989
 20
180.044
 42
-0.1431582138
  0
VERTEX
  8
LAYER_1
 10
142.8286
 20
179.6261
 42
-0.1766964866
  0
VERTEX
  8
LAYER_1
 10
142.374
 20
179.4786
 42
-0.2325062376
  0
SEQEND
  0
POLYLINE
  8
LAYER_1
 40
0.05
 41
0.05
 66
1
 10
0
 20
0
 30
0
 70
1
  0
VERTEX
  8
LAYER_1
 10
142.0329
 20
181.5986
 42
0.1314781929
  0
VERTEX
  8
LAYER_1
 10
141.8813
 20
180.9969
 42
0.02285448071
  0
VERTEX
  8
LAYER_1
 10
141.8743
 20
180.7544
 42
0.1313878899
  0
VERTEX
  8
LAYER_1
 10
142.0184
 20
179.9348
 42
0.249471779
  0
VERTEX
  8
LAYER_1
 10
142.374
 20
179.731
 42
0.2555058567
  0
VERTEX
  8
LAYER_1
 10
142.7296
 20
179.9357
 42
0.1331989451
  0
VERTEX
  8
LAYER_1
 10
142.8687
 20
180.5385
 42
0.01895914324
  0
VERTEX
  8
LAYER_1
 10
142.8738
 20
180.7544
 42
0.1315649748
  0
VERTEX
  8
LAYER_1
 10
142.7296
 20
181.5748
 42
0.2494533231
  0
VERTEX
  8
LAYER_1
 10
142.3706
 20
181.7777
 42
0.2540515408
  0
SEQEND
  0
ENDBLK
  0
BLOCK
  8
LAYER_1
  2
AIGNBL01010016
 70
64
 10
0
 20
0
 30
0
  3
AIGNBL01010016
  0
POLYLINE
  8
LAYER_1
 40
0.2646
 41
0.2646
 66
1
 10
0
 20
0
 30
0
  0
VERTEX
  8
LAYER_1
 10
43.4057
 20
111.6687
 42
0.4142393116
  0
VERTEX
  8
LAYER_1
 10
43.6204
 20
111.454
  0
SEQEND
  0
POLYLINE
  8
LAYER_1
 40
0.2646
 41
0.2646
 66
1
 10
0
 20
0
 30
0
  0
VERTEX
  8
LAYER_1
 10
43.6202
 20
112.5853
 42
0.4142208686
  0
VERTEX
  8
LAYER_1
 10
43.4055
 20
112.3706
  0
SEQEND
  0
ENDBLK
  0
BLOCK
  8
LAYER_1
  2
AIGNBL01010017
 70
64
 10
0
 20
0
 30
0
  3
AIGNBL01010017
  0
POLYLINE
  8
LAYER_1
 40
0.2646
 41
0.2646
 66
1
 10
0
 20
0
 30
0
  0
VERTEX
  8
LAYER_1
 10
153.2297
 20
111.4541
 42
0.4141492483
  0
VERTEX
  8
LAYER_1
 10
153.4444
 20
111.6688
  0
SEQEND
  0
POLYLINE
  8
LAYER_1
 40
0.2646
 41
0.2646
 66
1
 10
0
 20
0
 30
0
  0
VERTEX
  8
LAYER_1
 10
153.4442
 20
112.3708
 42
0.4142433166
  0
VERTEX
  8
LAYER_1
 10
153.2295
 20
112.5855
  0
SEQEND
  0
ENDBLK
  0
BLOCK
  8
LAYER_1
  2
AIGNBL01010018
 70
64
 10
0
 20
0
 30
0
  3
AIGNBL01010018
  0
POLYLINE
  8
LAYER_1
 40
0.2646
 41
0.2646
 66
1
 10
0
 20
0
 30
0
  0
VERTEX
  8
LAYER_1
 10
43.6202
 20
112.5853
 42
0.4142208686
  0
VERTEX
  8
LAYER_1
 10
43.4055
 20
112.3706
  0
SEQEND
  0
ENDBLK
  0
BLOCK
  8
LAYER_1
  2
AIGNBL01010019
 70
64
 10
0
 20
0
 30
0
  3
AIGNBL01010019
  0
POLYLINE
  8
LAYER_1
 40
0.2646
 41
0.2646
 66
1
 10
0
 20
0
 30
0
  0
VERTEX
  8
LAYER_1
 10
43.4057
 20
111.6687
 42
0.4142393116
  0
VERTEX
  8
LAYER_1
 10
43.6204
 20
111.454
  0
SEQEND
  0
ENDBLK
  0
BLOCK
  8
LAYER_1
  2
AIGNBL0101001A
 70
64
 10
0
 20
0
 30
0
  3
AIGNBL0101001A
  0
POLYLINE
  8
LAYER_1
 40
0.2646
 41
0.2646
 66
1
 10
0
 20
0
 30
0
  0
VERTEX
  8
LAYER_1
 10
51.0616
 20
94.9161
 42
0.3843072351
  0
VERTEX
  8
LAYER_1
 10
51.5503
 20
94.5671
  0
SEQEND
  0
ENDBLK
  0
BLOCK
  8
LAYER_1
  2
AIGNBL0101001B
 70
64
 10
0
 20
0
 30
0
  3
AIGNBL0101001B
  0
POLYLINE
  8
LAYER_1
 40
0.2646
 41
0.2646
 66
1
 10
0
 20
0
 30
0
  0
VERTEX
  8
LAYER_1
 10
153.4442
 20
112.3708
 42
0.4142433166
  0
VERTEX
  8
LAYER_1
 10
153.2295
 20
112.5855
  0
SEQEND
  0
ENDBLK
  0
BLOCK
  8
LAYER_1
  2
AIGNBL0101001C
 70
64
 10
0
 20
0
 30
0
  3
AIGNBL0101001C
  0
POLYLINE
  8
LAYER_1
 40
0.2646
 41
0.2646
 66
1
 10
0
 20
0
 30
0
  0
VERTEX
  8
LAYER_1
 10
153.2297
 20
111.4541
 42
0.4141492483
  0
VERTEX
  8
LAYER_1
 10
153.4444
 20
111.6688
  0
SEQEND
  0
ENDBLK
  0
BLOCK
  8
LAYER_1
  2
AIGNBL0101001D
 70
64
 10
0
 20
0
 30
0
  3
AIGNBL0101001D
  0
POLYLINE
  8
LAYER_1
 40
0.2646
 41
0.2646
 66
1
 10
0
 20
0
 30
0
  0
VERTEX
  8
LAYER_1
 10
145.2607
 20
94.567
 42
0.3667724775
  0
VERTEX
  8
LAYER_1
 10
145.7495
 20
94.916
  0
SEQEND
  0
ENDBLK
  0
BLOCK
  8
LAYER_1
  2
AIGNBL0101001E
 70
64
 10
0
 20
0
 30
0
  3
AIGNBL0101001E
  0
POLYLINE
  8
LAYER_1
 40
0.1411
 41
0.1411
 66
1
 10
0
 20
0
 30
0
  0
VERTEX
  8
LAYER_1
 10
146.423
 20
160.6224
 42
0.4142135166
  0
VERTEX
  8
LAYER_1
 10
127.4069
 20
179.6384
 42
0.4142125755
  0
VERTEX
  8
LAYER_1
 10
108.3913
 20
160.6224
 42
0.4142136084
  0
VERTEX
  8
LAYER_1
 10
127.4069
 20
141.6063
 42
0.4142145492
  0
VERTEX
  8
LAYER_1
 10
146.423
 20
160.6224
  0
SEQEND
  0
POLYLINE
  8
LAYER_1
 40
0.1411
 41
0.1411
 66
1
 10
0
 20
0
 30
0
  0
VERTEX
  8
LAYER_1
 10
144.9797
 20
160.6224
 42
0.4142122965
  0
VERTEX
  8
LAYER_1
 10
127.4073
 20
178.1948
 42
0.4142137109
  0
VERTEX
  8
LAYER_1
 10
109.8344
 20
160.6224
 42
0.4142148285
  0
VERTEX
  8
LAYER_1
 10
127.4073
 20
143.0499
 42
0.4142134139
  0
VERTEX
  8
LAYER_1
 10
144.9797
 20
160.6224
  0
SEQEND
  0
POLYLINE
  8
LAYER_1
 40
0.1411
 41
0.1411
 66
1
 10
0
 20
0
 30
0
  0
VERTEX
  8
LAYER_1
 10
129.689
 20
160.6224
 42
0.4142098101
  0
VERTEX
  8
LAYER_1
 10
127.4073
 20
162.9045
 42
0.41420871
  0
VERTEX
  8
LAYER_1
 10
125.1252
 20
160.6224
 42
0.414217314
  0
VERTEX
  8
LAYER_1
 10
127.4073
 20
158.3407
 42
0.4142184157
  0
VERTEX
  8
LAYER_1
 10
129.689
 20
160.6224
  0
SEQEND
  0
POLYLINE
  8
LAYER_1
 40
0.1411
 41
0.1411
 66
1
 10
0
 20
0
 30
0
  0
VERTEX
  8
LAYER_1
 10
130.9372
 20
160.6224
 42
0.4142122266
  0
VERTEX
  8
LAYER_1
 10
127.4071
 20
164.1525
 42
0.414209336
  0
VERTEX
  8
LAYER_1
 10
123.877
 20
160.6224
 42
0.4142148984
  0
VERTEX
  8
LAYER_1
 10
127.4071
 20
157.0923
 42
0.4142177888
  0
VERTEX
  8
LAYER_1
 10
130.9372
 20
160.6224
  0
SEQEND
  0
ENDBLK
  0
BLOCK
  8
LAYER_1
  2
AIGNBL0101001F
 70
64
 10
0
 20
0
 30
0
  3
AIGNBL0101001F
  0
POLYLINE
  8
LAYER_1
 40
0.05
 41
0.05
 66
1
 10
0
 20
0
 30
0
 70
1
  0
VERTEX
  8
LAYER_1
 10
124.6355
 20
173.5
 42
-0.1305109493
  0
VERTEX
  8
LAYER_1
 10
124.0569
 20
173.2819
 42
-0.05026252113
  0
VERTEX
  8
LAYER_1
 10
123.619
 20
173.2527
 42
-0.08317280914
  0
VERTEX
  8
LAYER_1
 10
122.9052
 20
173.3439
 42
-0.1432131554
  0
VERTEX
  8
LAYER_1
 10
122.4882
 20
173.6151
 42
-0.1759146871
  0
VERTEX
  8
LAYER_1
 10
122.3415
 20
174.068
 42
-0.1270885393
  0
VERTEX
  8
LAYER_1
 10
122.4225
 20
174.421
 42
-0.1268937751
  0
VERTEX
  8
LAYER_1
 10
122.6562
 20
174.6718
 42
-0.07563807577
  0
VERTEX
  8
LAYER_1
 10
123.028
 20
174.827
 42
-0.05386183555
  0
VERTEX
  8
LAYER_1
 10
123.619
 20
174.8832
 42
-0.08256479786
  0
VERTEX
  8
LAYER_1
 10
124.3294
 20
174.7928
 42
-0.1432312421
  0
VERTEX
  8
LAYER_1
 10
124.7473
 20
174.5225
 42
-0.1765319212
  0
VERTEX
  8
LAYER_1
 10
124.8948
 20
174.068
 42
-0.2325957227
  0
SEQEND
  0
POLYLINE
  8
LAYER_1
 40
0.05
 41
0.05
 66
1
 10
0
 20
0
 30
0
 70
1
  0
VERTEX
  8
LAYER_1
 10
124.1921
 20
171.3122
  0
VERTEX
  8
LAYER_1
 10
124.1511
 20
171.6192
 42
0.1625508305
  0
VERTEX
  8
LAYER_1
 10
124.5272
 20
171.7992
 42
0.1896423951
  0
VERTEX
  8
LAYER_1
 10
124.6424
 20
172.1087
 42
0.2048183172
  0
VERTEX
  8
LAYER_1
 10
124.4923
 20
172.4746
 42
0.2034187193
  0
VERTEX
  8
LAYER_1
 10
124.1204
 20
172.6238
 42
0.2049676605
  0
VERTEX
  8
LAYER_1
 10
123.7716
 20
172.4857
 42
0.2029052049
  0
VERTEX
  8
LAYER_1
 10
123.6343
 20
172.1343
  0
VERTEX
  8
LAYER_1
 10
123.6685
 20
171.9177
  0
VERTEX
  8
LAYER_1
 10
123.399
 20
171.9518
  0
VERTEX
  8
LAYER_1
 10
123.4024
 20
172.0013
 42
0.1482647426
  0
VERTEX
  8
LAYER_1
 10
123.3
 20
172.3543
 42
0.265302937
  0
VERTEX
  8
LAYER_1
 10
122.9845
 20
172.5113
 42
0.2091189168
  0
VERTEX
  8
LAYER_1
 10
122.7048
 20
172.397
 42
0.1976549122
  0
VERTEX
  8
LAYER_1
 10
122.5939
 20
172.1019
 42
0.1969666312
  0
VERTEX
  8
LAYER_1
 10
122.7065
 20
171.8034
 42
0.1648589231
  0
VERTEX
  8
LAYER_1
 10
123.0442
 20
171.6499
  0
VERTEX
  8
LAYER_1
 10
122.9896
 20
171.3429
 42
-0.1744547049
  0
VERTEX
  8
LAYER_1
 10
122.5112
 20
171.5988
 42
-0.182523946
  0
VERTEX
  8
LAYER_1
 10
122.3415
 20
172.0951
 42
-0.120302421
  0
VERTEX
  8
LAYER_1
 10
122.4293
 20
172.472
 42
-0.1434594641
  0
VERTEX
  8
LAYER_1
 10
122.669
 20
172.7356
 42
-0.1383515673
  0
VERTEX
  8
LAYER_1
 10
122.9913
 20
172.8268
 42
-0.1480614399
  0
VERTEX
  8
LAYER_1
 10
123.2864
 20
172.7398
 42
-0.1387874871
  0
VERTEX
  8
LAYER_1
 10
123.4979
 20
172.4823
 42
-0.1786824893
  0
VERTEX
  8
LAYER_1
 10
123.7102
 20
172.8268
 42
-0.1656285531
  0
VERTEX
  8
LAYER_1
 10
124.1136
 20
172.9496
 42
-0.2107131801
  0
VERTEX
  8
LAYER_1
 10
124.6688
 20
172.7108
 42
-0.1991635272
  0
VERTEX
  8
LAYER_1
 10
124.8965
 20
172.107
 42
-0.1874588632
  0
VERTEX
  8
LAYER_1
 10
124.7004
 20
171.5604
 42
-0.1919644226
  0
SEQEND
  0
POLYLINE
  8
LAYER_1
 40
0.05
 41
0.05
 66
1
 10
0
 20
0
 30
0
 70
1
  0
VERTEX
  8
LAYER_1
 10
124.5571
 20
170.9819
  0
VERTEX
  8
LAYER_1
 10
124.8522
 20
170.9819
  0
VERTEX
  8
LAYER_1
 10
124.8522
 20
169.3291
 42
-0.09951530003
  0
VERTEX
  8
LAYER_1
 10
124.6389
 20
169.3649
 42
-0.08255649591
  0
VERTEX
  8
LAYER_1
 10
124.3064
 20
169.567
 42
-0.03645150795
  0
VERTEX
  8
LAYER_1
 10
123.9277
 20
169.9687
 42
0.06758418034
  0
VERTEX
  8
LAYER_1
 10
123.3981
 20
170.5196
 42
0.1636636284
  0
VERTEX
  8
LAYER_1
 10
123.0289
 20
170.6629
 42
0.2098830558
  0
VERTEX
  8
LAYER_1
 10
122.721
 20
170.5324
 42
0.1972619284
  0
VERTEX
  8
LAYER_1
 10
122.5956
 20
170.1922
 42
0.2036975061
  0
VERTEX
  8
LAYER_1
 10
122.7287
 20
169.8374
 42
0.2007761965
  0
VERTEX
  8
LAYER_1
 10
123.0971
 20
169.7026
  0
VERTEX
  8
LAYER_1
 10
123.0647
 20
169.3871
 42
-0.1915038216
  0
VERTEX
  8
LAYER_1
 10
122.5265
 20
169.631
 42
-0.1877762839
  0
VERTEX
  8
LAYER_1
 10
122.3415
 20
170.199
 42
-0.1915358088
  0
VERTEX
  8
LAYER_1
 10
122.541
 20
170.7687
 42
-0.2112028953
  0
VERTEX
  8
LAYER_1
 10
123.0357
 20
170.9785
 42
-0.09918529743
  0
VERTEX
  8
LAYER_1
 10
123.3307
 20
170.9171
 42
-0.07321852215
  0
VERTEX
  8
LAYER_1
 10
123.6361
 20
170.7132
 42
-0.02378206018
  0
VERTEX
  8
LAYER_1
 10
124.0761
 20
170.2399
  0
VERTEX
  8
LAYER_1
 10
124.3908
 20
169.8851
  0
VERTEX
  8
LAYER_1
 10
124.5571
 20
169.7555
  0
SEQEND
  0
POLYLINE
  8
LAYER_1
 40
0.05
 41
0.05
 66
1
 10
0
 20
0
 30
0
 70
1
  0
VERTEX
  8
LAYER_1
 10
122.7747
 20
173.7268
 42
0.1313533567
  0
VERTEX
  8
LAYER_1
 10
123.3765
 20
173.5753
 42
0.0228616129
  0
VERTEX
  8
LAYER_1
 10
123.619
 20
173.5682
 42
0.1314289625
  0
VERTEX
  8
LAYER_1
 10
124.4385
 20
173.7123
 42
0.2493839759
  0
VERTEX
  8
LAYER_1
 10
124.6424
 20
174.068
 42
0.2552876937
  0
VERTEX
  8
LAYER_1
 10
124.4377
 20
174.4236
 42
0.1331457263
  0
VERTEX
  8
LAYER_1
 10
123.8348
 20
174.5626
 42
0.01893942978
  0
VERTEX
  8
LAYER_1
 10
123.619
 20
174.5677
 42
0.1315574195
  0
VERTEX
  8
LAYER_1
 10
122.7986
 20
174.4236
 42
0.2493268063
  0
VERTEX
  8
LAYER_1
 10
122.5956
 20
174.0646
 42
0.2539196557
  0
SEQEND
  0
ENDBLK
  0
BLOCK
  8
LAYER_1
  2
AIGNBL01010020
 70
64
 10
0
 20
0
 30
0
  3
AIGNBL01010020
  0
POLYLINE
  8
LAYER_1
 40
0.2646
 41
0.2646
 66
1
 10
0
 20
0
 30
0
  0
VERTEX
  8
LAYER_1
 10
218.1523
 20
111.4541
 42
0.4141765268
  0
VERTEX
  8
LAYER_1
 10
218.367
 20
111.6688
  0
SEQEND
  0
POLYLINE
  8
LAYER_1
 40
0.2646
 41
0.2646
 66
1
 10
0
 20
0
 30
0
  0
VERTEX
  8
LAYER_1
 10
164.3422
 20
111.6687
 42
0.4142025242
  0
VERTEX
  8
LAYER_1
 10
164.5569
 20
111.454
  0
SEQEND
  0
POLYLINE
  8
LAYER_1
 40
0.2646
 41
0.2646
 66
1
 10
0
 20
0
 30
0
  0
VERTEX
  8
LAYER_1
 10
164.5568
 20
112.5853
 42
0.4142806987
  0
VERTEX
  8
LAYER_1
 10
164.3421
 20
112.3706
  0
SEQEND
  0
POLYLINE
  8
LAYER_1
 40
0.2646
 41
0.2646
 66
1
 10
0
 20
0
 30
0
  0
VERTEX
  8
LAYER_1
 10
218.3668
 20
112.3708
 42
0.4142387282
  0
VERTEX
  8
LAYER_1
 10
218.1521
 20
112.5855
  0
SEQEND
  0
ENDBLK
  0
BLOCK
  8
LAYER_1
  2
AIGNBL01010021
 70
64
 10
0
 20
0
 30
0
  3
AIGNBL01010021
  0
POLYLINE
  8
LAYER_1
 40
0.2646
 41
0.2646
 66
1
 10
0
 20
0
 30
0
  0
VERTEX
  8
LAYER_1
 10
209.8048
 20
111.4541
 42
0.2356561941
  0
VERTEX
  8
LAYER_1
 10
209.4156
 20
111.2601
  0
SEQEND
  0
POLYLINE
  8
LAYER_1
 40
0.2646
 41
0.2646
 66
1
 10
0
 20
0
 30
0
  0
VERTEX
  8
LAYER_1
 10
207.1798
 20
94.567
 42
0.3668521217
  0
VERTEX
  8
LAYER_1
 10
207.6685
 20
94.916
  0
SEQEND
  0
ENDBLK
  0
BLOCK
  8
LAYER_1
  2
AIGNBL01010022
 70
64
 10
0
 20
0
 30
0
  3
AIGNBL01010022
  0
POLYLINE
  8
LAYER_1
 40
0.2646
 41
0.2646
 66
1
 10
0
 20
0
 30
0
  0
VERTEX
  8
LAYER_1
 10
169.3543
 20
111.2596
 42
0.235532545
  0
VERTEX
  8
LAYER_1
 10
168.9647
 20
111.454
  0
SEQEND
  0
POLYLINE
  8
LAYER_1
 40
0.2646
 41
0.2646
 66
1
 10
0
 20
0
 30
0
  0
VERTEX
  8
LAYER_1
 10
170.311
 20
95.065
 42
0.3987374787
  0
VERTEX
  8
LAYER_1
 10
170.7978
 20
94.6031
  0
SEQEND
  0
ENDBLK
  0
BLOCK
  8
LAYER_1
  2
AIGNBL01010023
 70
64
 10
0
 20
0
 30
0
  3
AIGNBL01010023
  0
POLYLINE
  8
LAYER_1
 40
0.2646
 41
0.2646
 66
1
 10
0
 20
0
 30
0
  0
VERTEX
  8
LAYER_1
 10
164.3422
 20
111.6687
 42
0.4142025242
  0
VERTEX
  8
LAYER_1
 10
164.5569
 20
111.454
  0
SEQEND
  0
POLYLINE
  8
LAYER_1
 40
0.2646
 41
0.2646
 66
1
 10
0
 20
0
 30
0
  0
VERTEX
  8
LAYER_1
 10
164.5568
 20
112.5853
 42
0.4142806987
  0
VERTEX
  8
LAYER_1
 10
164.3421
 20
112.3706
  0
SEQEND
  0
POLYLINE
  8
LAYER_1
 40
0.2646
 41
0.2646
 66
1
 10
0
 20
0
 30
0
  0
VERTEX
  8
LAYER_1
 10
218.1523
 20
111.4541
 42
0.4141765268
  0
VERTEX
  8
LAYER_1
 10
218.367
 20
111.6688
  0
SEQEND
  0
POLYLINE
  8
LAYER_1
 40
0.2646
 41
0.2646
 66
1
 10
0
 20
0
 30
0
  0
VERTEX
  8
LAYER_1
 10
218.3668
 20
112.3708
 42
0.4142387282
  0
VERTEX
  8
LAYER_1
 10
218.1521
 20
112.5855
  0
SEQEND
  0
ENDBLK
  0
BLOCK
  8
LAYER_1
  2
AIGNBL01010024
 70
64
 10
0
 20
0
 30
0
  3
AIGNBL01010024
  0
POLYLINE
  8
LAYER_1
 40
0.05
 41
0.05
 66
1
 10
0
 20
0
 30
0
 70
1
  0
VERTEX
  8
LAYER_1
 10
188.5935
 20
115.0346
  0
VERTEX
  8
LAYER_1
 10
188.9159
 20
115.0619
 42
0.1761220075
  0
VERTEX
  8
LAYER_1
 10
189.0822
 20
114.708
 42
0.1904413731
  0
VERTEX
  8
LAYER_1
 10
189.3968
 20
114.5894
 42
0.21636032
  0
VERTEX
  8
LAYER_1
 10
189.7721
 20
114.7566
 42
0.1923441543
  0
VERTEX
  8
LAYER_1
 10
189.9256
 20
115.2001
 42
0.1980566063
  0
VERTEX
  8
LAYER_1
 10
189.778
 20
115.6145
 42
0.2084921727
  0
VERTEX
  8
LAYER_1
 10
189.3917
 20
115.7663
 42
0.1325262413
  0
VERTEX
  8
LAYER_1
 10
189.1239
 20
115.699
 42
0.1267134706
  0
VERTEX
  8
LAYER_1
 10
188.9363
 20
115.5241
  0
VERTEX
  8
LAYER_1
 10
188.6481
 20
115.5617
  0
VERTEX
  8
LAYER_1
 10
188.8903
 20
116.846
  0
VERTEX
  8
LAYER_1
 10
190.1337
 20
116.846
  0
VERTEX
  8
LAYER_1
 10
190.1337
 20
116.5526
  0
VERTEX
  8
LAYER_1
 10
189.1359
 20
116.5526
  0
VERTEX
  8
LAYER_1
 10
189.0011
 20
115.8806
 42
-0.1556916072
  0
VERTEX
  8
LAYER_1
 10
189.4736
 20
116.0375
 42
-0.2044201285
  0
VERTEX
  8
LAYER_1
 10
190.0262
 20
115.8107
 42
-0.2048974879
  0
VERTEX
  8
LAYER_1
 10
190.2513
 20
115.2274
 42
-0.1725586635
  0
VERTEX
  8
LAYER_1
 10
190.0535
 20
114.6406
 42
-0.2388022933
  0
VERTEX
  8
LAYER_1
 10
189.3968
 20
114.337
 42
-0.1839591685
  0
VERTEX
  8
LAYER_1
 10
188.8399
 20
114.528
 42
-0.1950398878
  0
SEQEND
  0
POLYLINE
  8
LAYER_1
 40
0.05
 41
0.05
 66
1
 10
0
 20
0
 30
0
 70
1
  0
VERTEX
  8
LAYER_1
 10
191.5198
 20
114.3797
  0
VERTEX
  8
LAYER_1
 10
191.5198
 20
114.9783
  0
VERTEX
  8
LAYER_1
 10
190.435
 20
114.9783
  0
VERTEX
  8
LAYER_1
 10
190.435
 20
115.2598
  0
VERTEX
  8
LAYER_1
 10
191.5761
 20
116.8801
  0
VERTEX
  8
LAYER_1
 10
191.8268
 20
116.8801
  0
VERTEX
  8
LAYER_1
 10
191.8268
 20
115.2598
  0
VERTEX
  8
LAYER_1
 10
192.1645
 20
115.2598
  0
VERTEX
  8
LAYER_1
 10
192.1645
 20
114.9783
  0
VERTEX
  8
LAYER_1
 10
191.8268
 20
114.9783
  0
VERTEX
  8
LAYER_1
 10
191.8268
 20
114.3797
  0
SEQEND
  0
POLYLINE
  8
LAYER_1
 40
0.05
 41
0.05
 66
1
 10
0
 20
0
 30
0
 70
1
  0
VERTEX
  8
LAYER_1
 10
191.5198
 20
115.2598
  0
VERTEX
  8
LAYER_1
 10
191.5198
 20
116.3872
  0
VERTEX
  8
LAYER_1
 10
190.7369
 20
115.2598
  0
SEQEND
  0
POLYLINE
  8
LAYER_1
 40
0.05
 41
0.05
 66
1
 10
0
 20
0
 30
0
 70
1
  0
VERTEX
  8
LAYER_1
 10
192.7251
 20
114.5963
 42
-0.1303622606
  0
VERTEX
  8
LAYER_1
 10
192.507
 20
115.1749
 42
-0.05026662755
  0
VERTEX
  8
LAYER_1
 10
192.4778
 20
115.6128
 42
-0.08331937248
  0
VERTEX
  8
LAYER_1
 10
192.5691
 20
116.3266
 42
-0.1432131554
  0
VERTEX
  8
LAYER_1
 10
192.8403
 20
116.7436
 42
-0.1759551525
  0
VERTEX
  8
LAYER_1
 10
193.2931
 20
116.8903
 42
-0.1271105382
  0
VERTEX
  8
LAYER_1
 10
193.6462
 20
116.8093
 42
-0.1268810251
  0
VERTEX
  8
LAYER_1
 10
193.8969
 20
116.5756
 42
-0.07591924516
  0
VERTEX
  8
LAYER_1
 10
194.0521
 20
116.2038
 42
-0.05391468072
  0
VERTEX
  8
LAYER_1
 10
194.1084
 20
115.6128
 42
-0.08254941859
  0
VERTEX
  8
LAYER_1
 10
194.018
 20
114.9024
 42
-0.1431042094
  0
VERTEX
  8
LAYER_1
 10
193.7477
 20
114.4846
 42
-0.1766886321
  0
VERTEX
  8
LAYER_1
 10
193.2931
 20
114.337
 42
-0.2325957227
  0
SEQEND
  0
POLYLINE
  8
LAYER_1
 40
0.05
 41
0.05
 66
1
 10
0
 20
0
 30
0
 70
1
  0
VERTEX
  8
LAYER_1
 10
192.952
 20
116.4571
 42
0.1314826295
  0
VERTEX
  8
LAYER_1
 10
192.8004
 20
115.8553
 42
0.02285380755
  0
VERTEX
  8
LAYER_1
 10
192.7934
 20
115.6128
 42
0.1314289627
  0
VERTEX
  8
LAYER_1
 10
192.9375
 20
114.7933
 42
0.2494223833
  0
VERTEX
  8
LAYER_1
 10
193.2931
 20
114.5894
 42
0.2553699612
  0
VERTEX
  8
LAYER_1
 10
193.6487
 20
114.7941
 42
0.1331343914
  0
VERTEX
  8
LAYER_1
 10
193.7878
 20
115.397
 42
0.0189577728
  0
VERTEX
  8
LAYER_1
 10
193.7929
 20
115.6128
 42
0.131584091
  0
VERTEX
  8
LAYER_1
 10
193.6487
 20
116.4332
 42
0.2494055103
  0
VERTEX
  8
LAYER_1
 10
193.2897
 20
116.6362
 42
0.2540515408
  0
SEQEND
  0
ENDBLK
  0
BLOCK
  8
LAYER_1
  2
AIGNBL01010025
 70
64
 10
0
 20
0
 30
0
  3
AIGNBL01010025
  0
POLYLINE
  8
LAYER_1
 40
0.05
 41
0.05
 66
1
 10
0
 20
0
 30
0
 70
1
  0
VERTEX
  8
LAYER_1
 10
161.4732
 20
104.8088
 42
-0.1304691712
  0
VERTEX
  8
LAYER_1
 10
160.8946
 20
104.5907
 42
-0.0502659885
  0
VERTEX
  8
LAYER_1
 10
160.4566
 20
104.5615
 42
-0.08327904694
  0
VERTEX
  8
LAYER_1
 10
159.7428
 20
104.6528
 42
-0.1432131554
  0
VERTEX
  8
LAYER_1
 10
159.3258
 20
104.924
 42
-0.1759551527
  0
VERTEX
  8
LAYER_1
 10
159.1791
 20
105.3768
 42
-0.1269760854
  0
VERTEX
  8
LAYER_1
 10
159.2602
 20
105.7299
 42
-0.126751315
  0
VERTEX
  8
LAYER_1
 10
159.4938
 20
105.9806
 42
-0.07585267036
  0
VERTEX
  8
LAYER_1
 10
159.8657
 20
106.1358
 42
-0.05391732266
  0
VERTEX
  8
LAYER_1
 10
160.4566
 20
106.1921
 42
-0.08243017286
  0
VERTEX
  8
LAYER_1
 10
161.167
 20
106.1017
 42
-0.1432762674
  0
VERTEX
  8
LAYER_1
 10
161.5849
 20
105.8313
 42
-0.1767865153
  0
VERTEX
  8
LAYER_1
 10
161.7324
 20
105.3768
 42
-0.2325062376
  0
SEQEND
  0
POLYLINE
  8
LAYER_1
 40
0.05
 41
0.05
 66
1
 10
0
 20
0
 30
0
 70
1
  0
VERTEX
  8
LAYER_1
 10
160.3338
 20
103.0918
 42
-0.1569717233
  0
VERTEX
  8
LAYER_1
 10
160.1343
 20
102.8087
 42
-0.155200545
  0
VERTEX
  8
LAYER_1
 10
159.8239
 20
102.7166
 42
-0.2115012002
  0
VERTEX
  8
LAYER_1
 10
159.365
 20
102.9127
 42
-0.1984964716
  0
VERTEX
  8
LAYER_1
 10
159.1791
 20
103.4346
 42
-0.1939157375
  0
VERTEX
  8
LAYER_1
 10
159.3693
 20
103.9617
 42
-0.2105825608
  0
VERTEX
  8
LAYER_1
 10
159.8324
 20
104.1612
 42
-0.1594857156
  0
VERTEX
  8
LAYER_1
 10
160.1351
 20
104.07
 42
-0.146333807
  0
VERTEX
  8
LAYER_1
 10
160.3338
 20
103.7928
 42
-0.1624301131
  0
VERTEX
  8
LAYER_1
 10
160.576
 20
104.1433
 42
-0.1585581586
  0
VERTEX
  8
LAYER_1
 10
160.9752
 20
104.2636
 42
-0.2088807561
  0
VERTEX
  8
LAYER_1
 10
161.5141
 20
104.0367
 42
-0.2013741354
  0
VERTEX
  8
LAYER_1
 10
161.7324
 20
103.4398
 42
-0.1949050681
  0
VERTEX
  8
LAYER_1
 10
161.5133
 20
102.8428
 42
-0.2094499692
  0
VERTEX
  8
LAYER_1
 10
160.9666
 20
102.6159
 42
-0.1656211063
  0
VERTEX
  8
LAYER_1
 10
160.5581
 20
102.7396
 42
-0.1714241983
  0
SEQEND
  0
POLYLINE
  8
LAYER_1
 40
0.05
 41
0.05
 66
1
 10
0
 20
0
 30
0
 70
1
  0
VERTEX
  8
LAYER_1
 10
161.6898
 20
101.8336
  0
VERTEX
  8
LAYER_1
 10
161.6898
 20
101.5266
  0
VERTEX
  8
LAYER_1
 10
159.7335
 20
101.5266
 42
-0.04886671137
  0
VERTEX
  8
LAYER_1
 10
159.945
 20
101.2358
  0
VERTEX
  8
LAYER_1
 10
160.1036
 20
100.9126
  0
VERTEX
  8
LAYER_1
 10
159.8068
 20
100.9126
 42
0.07424501989
  0
VERTEX
  8
LAYER_1
 10
159.5134
 20
101.3628
 42
0.1020682305
  0
VERTEX
  8
LAYER_1
 10
159.1791
 20
101.6357
  0
VERTEX
  8
LAYER_1
 10
159.1791
 20
101.8336
  0
SEQEND
  0
POLYLINE
  8
LAYER_1
 40
0.05
 41
0.05
 66
1
 10
0
 20
0
 30
0
 70
1
  0
VERTEX
  8
LAYER_1
 10
159.8136
 20
103.0304
 42
0.2071797873
  0
VERTEX
  8
LAYER_1
 10
160.1036
 20
103.1447
 42
0.1999410038
  0
VERTEX
  8
LAYER_1
 10
160.2161
 20
103.4415
 42
0.2030556367
  0
VERTEX
  8
LAYER_1
 10
160.1044
 20
103.7323
 42
0.2059309129
  0
VERTEX
  8
LAYER_1
 10
159.8307
 20
103.8457
 42
0.2064082292
  0
VERTEX
  8
LAYER_1
 10
159.5467
 20
103.7289
 42
0.2012316202
  0
VERTEX
  8
LAYER_1
 10
159.4316
 20
103.4381
 42
0.2008665388
  0
VERTEX
  8
LAYER_1
 10
159.5441
 20
103.1464
 42
0.208586566
  0
SEQEND
  0
POLYLINE
  8
LAYER_1
 40
0.05
 41
0.05
 66
1
 10
0
 20
0
 30
0
 70
1
  0
VERTEX
  8
LAYER_1
 10
159.6124
 20
105.0357
 42
0.1314781927
  0
VERTEX
  8
LAYER_1
 10
160.2141
 20
104.8841
 42
0.0228544805
  0
VERTEX
  8
LAYER_1
 10
160.4566
 20
104.8771
 42
0.1313878897
  0
VERTEX
  8
LAYER_1
 10
161.2762
 20
105.0212
 42
0.249471779
  0
VERTEX
  8
LAYER_1
 10
161.48
 20
105.3768
 42
0.2555058567
  0
VERTEX
  8
LAYER_1
 10
161.2753
 20
105.7324
 42
0.1332102607
  0
VERTEX
  8
LAYER_1
 10
160.6725
 20
105.8714
 42
0.01894079829
  0
VERTEX
  8
LAYER_1
 10
160.4566
 20
105.8765
 42
0.131538313
  0
VERTEX
  8
LAYER_1
 10
159.6362
 20
105.7324
 42
0.2494533231
  0
VERTEX
  8
LAYER_1
 10
159.4333
 20
105.3734
 42
0.254051541
  0
SEQEND
  0
POLYLINE
  8
LAYER_1
 40
0.05
 41
0.05
 66
1
 10
0
 20
0
 30
0
 70
1
  0
VERTEX
  8
LAYER_1
 10
160.9683
 20
102.9315
 42
0.1166378589
  0
VERTEX
  8
LAYER_1
 10
161.2225
 20
102.9937
 42
0.1523015122
  0
VERTEX
  8
LAYER_1
 10
161.4126
 20
103.1788
 42
0.1267191274
  0
VERTEX
  8
LAYER_1
 10
161.48
 20
103.4432
 42
0.2023498315
  0
VERTEX
  8
LAYER_1
 10
161.3384
 20
103.8065
 42
0.2058203901
  0
VERTEX
  8
LAYER_1
 10
160.9786
 20
103.9497
 42
0.206408993
  0
VERTEX
  8
LAYER_1
 10
160.6119
 20
103.8022
 42
0.2017043963
  0
VERTEX
  8
LAYER_1
 10
160.4669
 20
103.4329
 42
0.2051612408
  0
VERTEX
  8
LAYER_1
 10
160.6102
 20
103.0739
 42
0.2031445081
  0
SEQEND
  0
ENDBLK
  0
BLOCK
  8
LAYER_1
  2
AIGNBL01010026
 70
64
 10
0
 20
0
 30
0
  3
AIGNBL01010026
  0
POLYLINE
  8
LAYER_1
 40
0.05
 41
0.05
 66
1
 10
0
 20
0
 30
0
 70
1
  0
VERTEX
  8
LAYER_1
 10
95.6891
 20
113.9896
  0
VERTEX
  8
LAYER_1
 10
95.3821
 20
113.9896
  0
VERTEX
  8
LAYER_1
 10
95.3821
 20
115.9459
 42
-0.04904773879
  0
VERTEX
  8
LAYER_1
 10
95.0913
 20
115.7344
  0
VERTEX
  8
LAYER_1
 10
94.7681
 20
115.5758
  0
VERTEX
  8
LAYER_1
 10
94.7681
 20
115.8726
 42
0.07417885587
  0
VERTEX
  8
LAYER_1
 10
95.2184
 20
116.1659
 42
0.1016362733
  0
VERTEX
  8
LAYER_1
 10
95.4913
 20
116.5002
  0
VERTEX
  8
LAYER_1
 10
95.6891
 20
116.5002
  0
SEQEND
  0
POLYLINE
  8
LAYER_1
 40
0.05
 41
0.05
 66
1
 10
0
 20
0
 30
0
 70
1
  0
VERTEX
  8
LAYER_1
 10
97.6313
 20
113.9896
  0
VERTEX
  8
LAYER_1
 10
97.3243
 20
113.9896
  0
VERTEX
  8
LAYER_1
 10
97.3243
 20
115.9459
 42
-0.04886671137
  0
VERTEX
  8
LAYER_1
 10
97.0335
 20
115.7344
  0
VERTEX
  8
LAYER_1
 10
96.7103
 20
115.5758
  0
VERTEX
  8
LAYER_1
 10
96.7103
 20
115.8726
 42
0.07417885587
  0
VERTEX
  8
LAYER_1
 10
97.1606
 20
116.1659
 42
0.1015479423
  0
VERTEX
  8
LAYER_1
 10
97.4335
 20
116.5002
  0
VERTEX
  8
LAYER_1
 10
97.6313
 20
116.5002
  0
SEQEND
  0
POLYLINE
  8
LAYER_1
 40
0.05
 41
0.05
 66
1
 10
0
 20
0
 30
0
 70
1
  0
VERTEX
  8
LAYER_1
 10
98.6644
 20
114.2062
 42
-0.130463245
  0
VERTEX
  8
LAYER_1
 10
98.4463
 20
114.7848
 42
-0.05026566347
  0
VERTEX
  8
LAYER_1
 10
98.4171
 20
115.2227
 42
-0.08318823112
  0
VERTEX
  8
LAYER_1
 10
98.5083
 20
115.9365
 42
-0.1431880655
  0
VERTEX
  8
LAYER_1
 10
98.7795
 20
116.3536
 42
-0.1757712855
  0
VERTEX
  8
LAYER_1
 10
99.2324
 20
116.5002
 42
-0.1270885391
  0
VERTEX
  8
LAYER_1
 10
99.5854
 20
116.4192
 42
-0.1267640429
  0
VERTEX
  8
LAYER_1
 10
99.8362
 20
116.1856
 42
-0.07559630742
  0
VERTEX
  8
LAYER_1
 10
99.9914
 20
115.8137
 42
-0.05391468072
  0
VERTEX
  8
LAYER_1
 10
100.0477
 20
115.2227
 42
-0.08239002175
  0
VERTEX
  8
LAYER_1
 10
99.9573
 20
114.5123
 42
-0.1432222583
  0
VERTEX
  8
LAYER_1
 10
99.6869
 20
114.0945
 42
-0.1766747799
  0
VERTEX
  8
LAYER_1
 10
99.2324
 20
113.9469
 42
-0.2325957227
  0
SEQEND
  0
POLYLINE
  8
LAYER_1
 40
0.05
 41
0.05
 66
1
 10
0
 20
0
 30
0
 70
1
  0
VERTEX
  8
LAYER_1
 10
98.8912
 20
116.067
 42
0.1313533569
  0
VERTEX
  8
LAYER_1
 10
98.7397
 20
115.4652
 42
0.0228616131
  0
VERTEX
  8
LAYER_1
 10
98.7326
 20
115.2227
 42
0.1314098581
  0
VERTEX
  8
LAYER_1
 10
98.8767
 20
114.4032
 42
0.2494333433
  0
VERTEX
  8
LAYER_1
 10
99.2324
 20
114.1994
 42
0.2553910757
  0
VERTEX
  8
LAYER_1
 10
99.588
 20
114.404
 42
0.1331457263
  0
VERTEX
  8
LAYER_1
 10
99.727
 20
115.0069
 42
0.01893942978
  0
VERTEX
  8
LAYER_1
 10
99.7321
 20
115.2227
 42
0.1315574195
  0
VERTEX
  8
LAYER_1
 10
99.588
 20
116.0431
 42
0.2493268063
  0
VERTEX
  8
LAYER_1
 10
99.229
 20
116.2461
 42
0.2539196555
  0
SEQEND
  0
POLYLINE
  8
LAYER_1
 40
0.05
 41
0.05
 66
1
 10
0
 20
0
 30
0
 70
1
  0
VERTEX
  8
LAYER_1
 10
100.6066
 20
114.2062
 42
-0.1304337806
  0
VERTEX
  8
LAYER_1
 10
100.3884
 20
114.7848
 42
-0.05028501956
  0
VERTEX
  8
LAYER_1
 10
100.3592
 20
115.2227
 42
-0.08318528884
  0
VERTEX
  8
LAYER_1
 10
100.4505
 20
115.9365
 42
-0.1431880655
  0
VERTEX
  8
LAYER_1
 10
100.7217
 20
116.3536
 42
-0.1758117325
  0
VERTEX
  8
LAYER_1
 10
101.1745
 20
116.5002
 42
-0.1271105382
  0
VERTEX
  8
LAYER_1
 10
101.5276
 20
116.4192
 42
-0.1269599355
  0
VERTEX
  8
LAYER_1
 10
101.7783
 20
116.1856
 42
-0.07592777366
  0
VERTEX
  8
LAYER_1
 10
101.9335
 20
115.8137
 42
-0.05418036655
  0
VERTEX
  8
LAYER_1
 10
101.9898
 20
115.2227
 42
-0.08252462916
  0
VERTEX
  8
LAYER_1
 10
101.8994
 20
114.5123
 42
-0.1431042094
  0
VERTEX
  8
LAYER_1
 10
101.6291
 20
114.0945
 42
-0.1766886321
  0
VERTEX
  8
LAYER_1
 10
101.1745
 20
113.9469
 42
-0.2326190297
  0
SEQEND
  0
POLYLINE
  8
LAYER_1
 40
0.05
 41
0.05
 66
1
 10
0
 20
0
 30
0
 70
1
  0
VERTEX
  8
LAYER_1
 10
100.8334
 20
116.067
 42
0.1313533569
  0
VERTEX
  8
LAYER_1
 10
100.6819
 20
115.4652
 42
0.0228616131
  0
VERTEX
  8
LAYER_1
 10
100.6748
 20
115.2227
 42
0.1314098581
  0
VERTEX
  8
LAYER_1
 10
100.8189
 20
114.4032
 42
0.249471779
  0
VERTEX
  8
LAYER_1
 10
101.1745
 20
114.1994
 42
0.2553352279
  0
VERTEX
  8
LAYER_1
 10
101.5302
 20
114.404
 42
0.1330105698
  0
VERTEX
  8
LAYER_1
 10
101.6692
 20
115.0069
 42
0.01894773131
  0
VERTEX
  8
LAYER_1
 10
101.6743
 20
115.2227
 42
0.1314725289
  0
VERTEX
  8
LAYER_1
 10
101.5302
 20
116.0431
 42
0.2493664946
  0
VERTEX
  8
LAYER_1
 10
101.1711
 20
116.2461
 42
0.2540515408
  0
SEQEND
  0
ENDBLK
  0
BLOCK
  8
LAYER_1
  2
AIGNBL01010027
 70
64
 10
0
 20
0
 30
0
  3
AIGNBL01010027
  0
POLYLINE
  8
LAYER_1
 40
0.2646
 41
0.2646
 66
1
 10
0
 20
0
 30
0
  0
VERTEX
  8
LAYER_1
 10
185.8471
 20
98.015
 42
0.1716272211
  0
VERTEX
  8
LAYER_1
 10
185.7143
 20
98.0743
  0
SEQEND
  0
ENDBLK
  0
BLOCK
  8
LAYER_1
  2
AIGNBL01010028
 70
64
 10
0
 20
0
 30
0
  3
AIGNBL01010028
  0
POLYLINE
  8
LAYER_1
 40
0.2646
 41
0.2646
 66
1
 10
0
 20
0
 30
0
  0
VERTEX
  8
LAYER_1
 10
187.0833
 20
96.807
 42
0.2021898896
  0
VERTEX
  8
LAYER_1
 10
187.0175
 20
96.9617
  0
SEQEND
  0
ENDBLK
  0
BLOCK
  8
LAYER_1
  2
AIGNBL01010029
 70
64
 10
0
 20
0
 30
0
  3
AIGNBL01010029
  0
POLYLINE
  8
LAYER_1
 40
0.2646
 41
0.2646
 66
1
 10
0
 20
0
 30
0
  0
VERTEX
  8
LAYER_1
 10
177.4485
 20
97.1755
 42
0.3324013784
  0
VERTEX
  8
LAYER_1
 10
176.6417
 20
96.66
  0
SEQEND
  0
ENDBLK
  0
BLOCK
  8
LAYER_1
  2
AIGNBL0101002A
 70
64
 10
0
 20
0
 30
0
  3
AIGNBL0101002A
  0
POLYLINE
  8
LAYER_1
 40
0.2646
 41
0.2646
 66
1
 10
0
 20
0
 30
0
  0
VERTEX
  8
LAYER_1
 10
175.7128
 20
94.5641
 42
0.3014240612
  0
VERTEX
  8
LAYER_1
 10
175.9137
 20
94.7031
  0
SEQEND
  0
ENDBLK
  0
BLOCK
  8
LAYER_1
  2
AIGNBL0101002B
 70
64
 10
0
 20
0
 30
0
  3
AIGNBL0101002B
  0
POLYLINE
  8
LAYER_1
 40
0.2646
 41
0.2646
 66
1
 10
0
 20
0
 30
0
  0
VERTEX
  8
LAYER_1
 10
170.3843
 20
112.1209
 42
0.3771343788
  0
VERTEX
  8
LAYER_1
 10
169.9006
 20
112.5465
  0
SEQEND
  0
ENDBLK
  0
BLOCK
  8
LAYER_1
  2
AIGNBL0101002C
 70
64
 10
0
 20
0
 30
0
  3
AIGNBL0101002C
  0
POLYLINE
  8
LAYER_1
 40
0.2646
 41
0.2646
 66
1
 10
0
 20
0
 30
0
  0
VERTEX
  8
LAYER_1
 10
174.8642
 20
94.5717
 42
0.2421267517
  0
VERTEX
  8
LAYER_1
 10
172.3487
 20
94.5717
  0
SEQEND
  0
POLYLINE
  8
LAYER_1
 40
0.2646
 41
0.2646
 66
1
 10
0
 20
0
 30
0
  0
VERTEX
  8
LAYER_1
 10
172.1842
 20
95.8448
 42
0.2200990178
  0
VERTEX
  8
LAYER_1
 10
172.2818
 20
95.6902
 42
0.2242357614
  0
VERTEX
  8
LAYER_1
 10
172.4632
 20
95.6668
  0
SEQEND
  0
ENDBLK
  0
BLOCK
  8
LAYER_1
  2
AIGNBL0101002D
 70
64
 10
0
 20
0
 30
0
  3
AIGNBL0101002D
  0
POLYLINE
  8
LAYER_1
 40
0.2646
 41
0.2646
 66
1
 10
0
 20
0
 30
0
  0
VERTEX
  8
LAYER_1
 10
172.2178
 20
97.5671
 42
0.2230631809
  0
VERTEX
  8
LAYER_1
 10
172.0468
 20
97.5013
 42
0.2216601943
  0
VERTEX
  8
LAYER_1
 10
171.9893
 20
97.3271
  0
SEQEND
  0
ENDBLK
  0
BLOCK
  8
LAYER_1
  2
AIGNBL0101002E
 70
64
 10
0
 20
0
 30
0
  3
AIGNBL0101002E
  0
POLYLINE
  8
LAYER_1
 40
0.2646
 41
0.2646
 66
1
 10
0
 20
0
 30
0
  0
VERTEX
  8
LAYER_1
 10
175.7185
 20
97.0434
 42
0.2360193853
  0
VERTEX
  8
LAYER_1
 10
175.6986
 20
97.2348
 42
0.2321876164
  0
VERTEX
  8
LAYER_1
 10
175.5332
 20
97.3331
  0
SEQEND
  0
ENDBLK
  0
BLOCK
  8
LAYER_1
  2
AIGNBL0101002F
 70
64
 10
0
 20
0
 30
0
  3
AIGNBL0101002F
  0
POLYLINE
  8
LAYER_1
 40
0.2646
 41
0.2646
 66
1
 10
0
 20
0
 30
0
  0
VERTEX
  8
LAYER_1
 10
174.9723
 20
95.5927
 42
0.1974022919
  0
VERTEX
  8
LAYER_1
 10
175.1372
 20
95.5969
 42
0.1974290644
  0
VERTEX
  8
LAYER_1
 10
175.2505
 20
95.7171
  0
SEQEND
  0
POLYLINE
  8
LAYER_1
 40
0.2646
 41
0.2646
 66
1
 10
0
 20
0
 30
0
  0
VERTEX
  8
LAYER_1
 10
174.9558
 20
95.5925
 42
0.1757216957
  0
VERTEX
  8
LAYER_1
 10
172.4697
 20
95.6699
  0
SEQEND
  0
ENDBLK
  0
BLOCK
  8
LAYER_1
  2
AIGNBL01010030
 70
64
 10
0
 20
0
 30
0
  3
AIGNBL01010030
  0
POLYLINE
  8
LAYER_1
 40
0.2646
 41
0.2646
 66
1
 10
0
 20
0
 30
0
  0
VERTEX
  8
LAYER_1
 10
172.1086
 20
98.9682
 42
0.3566926842
  0
VERTEX
  8
LAYER_1
 10
172.5567
 20
98.5442
  0
SEQEND
  0
POLYLINE
  8
LAYER_1
 40
0.2646
 41
0.2646
 66
1
 10
0
 20
0
 30
0
  0
VERTEX
  8
LAYER_1
 10
193.0161
 20
98.0742
 42
0.1744852216
  0
VERTEX
  8
LAYER_1
 10
192.8834
 20
98.0149
  0
SEQEND
  0
ENDBLK
  0
BLOCK
  8
LAYER_1
  2
AIGNBL01010031
 70
64
 10
0
 20
0
 30
0
  3
AIGNBL01010031
  0
POLYLINE
  8
LAYER_1
 40
0.2646
 41
0.2646
 66
1
 10
0
 20
0
 30
0
  0
VERTEX
  8
LAYER_1
 10
191.7521
 20
96.9618
 42
0.2012089061
  0
VERTEX
  8
LAYER_1
 10
191.6862
 20
96.8072
  0
SEQEND
  0
ENDBLK
  0
BLOCK
  8
LAYER_1
  2
AIGNBL01010032
 70
64
 10
0
 20
0
 30
0
  3
AIGNBL01010032
  0
POLYLINE
  8
LAYER_1
 40
0.2646
 41
0.2646
 66
1
 10
0
 20
0
 30
0
  0
VERTEX
  8
LAYER_1
 10
202.0886
 20
96.66
 42
0.332289763
  0
VERTEX
  8
LAYER_1
 10
201.2818
 20
97.1755
  0
SEQEND
  0
ENDBLK
  0
BLOCK
  8
LAYER_1
  2
AIGNBL01010033
 70
64
 10
0
 20
0
 30
0
  3
AIGNBL01010033
  0
POLYLINE
  8
LAYER_1
 40
0.2646
 41
0.2646
 66
1
 10
0
 20
0
 30
0
  0
VERTEX
  8
LAYER_1
 10
202.8169
 20
94.703
 42
0.3123413085
  0
VERTEX
  8
LAYER_1
 10
203.0178
 20
94.5641
  0
SEQEND
  0
ENDBLK
  0
BLOCK
  8
LAYER_1
  2
AIGNBL01010034
 70
64
 10
0
 20
0
 30
0
  3
AIGNBL01010034
  0
POLYLINE
  8
LAYER_1
 40
0.2646
 41
0.2646
 66
1
 10
0
 20
0
 30
0
  0
VERTEX
  8
LAYER_1
 10
208.8296
 20
112.5463
 42
0.3770898413
  0
VERTEX
  8
LAYER_1
 10
208.3459
 20
112.1208
  0
SEQEND
  0
ENDBLK
  0
BLOCK
  8
LAYER_1
  2
AIGNBL01010035
 70
64
 10
0
 20
0
 30
0
  3
AIGNBL01010035
  0
POLYLINE
  8
LAYER_1
 40
0.2646
 41
0.2646
 66
1
 10
0
 20
0
 30
0
  0
VERTEX
  8
LAYER_1
 10
206.3818
 20
94.5717
 42
0.2421267518
  0
VERTEX
  8
LAYER_1
 10
203.8663
 20
94.5717
  0
SEQEND
  0
POLYLINE
  8
LAYER_1
 40
0.2646
 41
0.2646
 66
1
 10
0
 20
0
 30
0
  0
VERTEX
  8
LAYER_1
 10
206.2673
 20
95.6667
 42
0.2196300692
  0
VERTEX
  8
LAYER_1
 10
206.4487
 20
95.69
 42
0.2193090903
  0
VERTEX
  8
LAYER_1
 10
206.5463
 20
95.8446
  0
SEQEND
  0
ENDBLK
  0
BLOCK
  8
LAYER_1
  2
AIGNBL01010036
 70
64
 10
0
 20
0
 30
0
  3
AIGNBL01010036
  0
POLYLINE
  8
LAYER_1
 40
0.2646
 41
0.2646
 66
1
 10
0
 20
0
 30
0
  0
VERTEX
  8
LAYER_1
 10
206.7412
 20
97.3271
 42
0.2235437193
  0
VERTEX
  8
LAYER_1
 10
206.6834
 20
97.5012
 42
0.2201531853
  0
VERTEX
  8
LAYER_1
 10
206.5127
 20
97.567
  0
SEQEND
  0
ENDBLK
  0
BLOCK
  8
LAYER_1
  2
AIGNBL01010037
 70
64
 10
0
 20
0
 30
0
  3
AIGNBL01010037
  0
POLYLINE
  8
LAYER_1
 40
0.2646
 41
0.2646
 66
1
 10
0
 20
0
 30
0
  0
VERTEX
  8
LAYER_1
 10
203.197
 20
97.3331
 42
0.2367068799
  0
VERTEX
  8
LAYER_1
 10
203.032
 20
97.2347
 42
0.2322545618
  0
VERTEX
  8
LAYER_1
 10
203.0117
 20
97.0434
  0
SEQEND
  0
ENDBLK
  0
BLOCK
  8
LAYER_1
  2
AIGNBL01010038
 70
64
 10
0
 20
0
 30
0
  3
AIGNBL01010038
  0
POLYLINE
  8
LAYER_1
 40
0.2646
 41
0.2646
 66
1
 10
0
 20
0
 30
0
  0
VERTEX
  8
LAYER_1
 10
203.519
 20
95.7172
 42
0.1979703873
  0
VERTEX
  8
LAYER_1
 10
203.6323
 20
95.597
 42
0.1973090786
  0
VERTEX
  8
LAYER_1
 10
203.7972
 20
95.5928
  0
SEQEND
  0
POLYLINE
  8
LAYER_1
 40
0.2646
 41
0.2646
 66
1
 10
0
 20
0
 30
0
  0
VERTEX
  8
LAYER_1
 10
206.2607
 20
95.6697
 42
0.175827734
  0
VERTEX
  8
LAYER_1
 10
203.7746
 20
95.5924
  0
SEQEND
  0
ENDBLK
  0
BLOCK
  8
LAYER_1
  2
AIGNBL01010039
 70
64
 10
0
 20
0
 30
0
  3
AIGNBL01010039
  0
POLYLINE
  8
LAYER_1
 40
0.2646
 41
0.2646
 66
1
 10
0
 20
0
 30
0
  0
VERTEX
  8
LAYER_1
 10
206.1738
 20
98.5442
 42
0.3424617826
  0
VERTEX
  8
LAYER_1
 10
206.622
 20
98.9682
  0
SEQEND
  0
ENDBLK
  0
BLOCK
  8
LAYER_1
  2
AIGNBL0101003A
 70
64
 10
0
 20
0
 30
0
  3
AIGNBL0101003A
  0
POLYLINE
  8
LAYER_1
 40
0.2646
 41
0.2646
 66
1
 10
0
 20
0
 30
0
  0
VERTEX
  8
LAYER_1
 10
87.2185
 20
94.567
 42
0.3667868362
  0
VERTEX
  8
LAYER_1
 10
87.7072
 20
94.916
  0
SEQEND
  0
ENDBLK
  0
BLOCK
  8
LAYER_1
  2
AIGNBL0101003B
 70
64
 10
0
 20
0
 30
0
  3
AIGNBL0101003B
  0
POLYLINE
  8
LAYER_1
 40
0.2646
 41
0.2646
 66
1
 10
0
 20
0
 30
0
  0
VERTEX
  8
LAYER_1
 10
65.8857
 20
98.015
 42
0.1717843744
  0
VERTEX
  8
LAYER_1
 10
65.7529
 20
98.0743
  0
SEQEND
  0
ENDBLK
  0
BLOCK
  8
LAYER_1
  2
AIGNBL0101003C
 70
64
 10
0
 20
0
 30
0
  3
AIGNBL0101003C
  0
POLYLINE
  8
LAYER_1
 40
0.2646
 41
0.2646
 66
1
 10
0
 20
0
 30
0
  0
VERTEX
  8
LAYER_1
 10
67.0829
 20
96.768
 42
0.2031116628
  0
VERTEX
  8
LAYER_1
 10
67.0171
 20
96.9226
  0
SEQEND
  0
ENDBLK
  0
BLOCK
  8
LAYER_1
  2
AIGNBL0101003D
 70
64
 10
0
 20
0
 30
0
  3
AIGNBL0101003D
  0
POLYLINE
  8
LAYER_1
 40
0.2646
 41
0.2646
 66
1
 10
0
 20
0
 30
0
  0
VERTEX
  8
LAYER_1
 10
57.4481
 20
97.1754
 42
0.3324060692
  0
VERTEX
  8
LAYER_1
 10
56.6414
 20
96.6599
  0
SEQEND
  0
ENDBLK
  0
BLOCK
  8
LAYER_1
  2
AIGNBL0101003E
 70
64
 10
0
 20
0
 30
0
  3
AIGNBL0101003E
  0
POLYLINE
  8
LAYER_1
 40
0.2646
 41
0.2646
 66
1
 10
0
 20
0
 30
0
  0
VERTEX
  8
LAYER_1
 10
55.7124
 20
94.5641
 42
0.3015831949
  0
VERTEX
  8
LAYER_1
 10
55.9133
 20
94.7031
  0
SEQEND
  0
ENDBLK
  0
BLOCK
  8
LAYER_1
  2
AIGNBL0101003F
 70
64
 10
0
 20
0
 30
0
  3
AIGNBL0101003F
  0
POLYLINE
  8
LAYER_1
 40
0.2646
 41
0.2646
 66
1
 10
0
 20
0
 30
0
  0
VERTEX
  8
LAYER_1
 10
50.384
 20
112.1209
 42
0.3771542207
  0
VERTEX
  8
LAYER_1
 10
49.9002
 20
112.5465
  0
SEQEND
  0
ENDBLK
  0
BLOCK
  8
LAYER_1
  2
AIGNBL01010040
 70
64
 10
0
 20
0
 30
0
  3
AIGNBL01010040
  0
POLYLINE
  8
LAYER_1
 40
0.2646
 41
0.2646
 66
1
 10
0
 20
0
 30
0
  0
VERTEX
  8
LAYER_1
 10
54.8638
 20
94.5717
 42
0.242127266
  0
VERTEX
  8
LAYER_1
 10
52.3483
 20
94.5717
  0
SEQEND
  0
POLYLINE
  8
LAYER_1
 40
0.2646
 41
0.2646
 66
1
 10
0
 20
0
 30
0
  0
VERTEX
  8
LAYER_1
 10
52.1838
 20
95.8448
 42
0.2200990178
  0
VERTEX
  8
LAYER_1
 10
52.2814
 20
95.6902
 42
0.2215174333
  0
VERTEX
  8
LAYER_1
 10
52.4628
 20
95.6668
  0
SEQEND
  0
ENDBLK
  0
BLOCK
  8
LAYER_1
  2
AIGNBL01010041
 70
64
 10
0
 20
0
 30
0
  3
AIGNBL01010041
  0
POLYLINE
  8
LAYER_1
 40
0.2646
 41
0.2646
 66
1
 10
0
 20
0
 30
0
  0
VERTEX
  8
LAYER_1
 10
52.2564
 20
97.5671
 42
0.2230362976
  0
VERTEX
  8
LAYER_1
 10
52.0854
 20
97.5013
 42
0.2221167402
  0
VERTEX
  8
LAYER_1
 10
52.028
 20
97.3271
  0
SEQEND
  0
ENDBLK
  0
BLOCK
  8
LAYER_1
  2
AIGNBL01010042
 70
64
 10
0
 20
0
 30
0
  3
AIGNBL01010042
  0
POLYLINE
  8
LAYER_1
 40
0.2646
 41
0.2646
 66
1
 10
0
 20
0
 30
0
  0
VERTEX
  8
LAYER_1
 10
55.7181
 20
97.0434
 42
0.2360693802
  0
VERTEX
  8
LAYER_1
 10
55.6982
 20
97.2348
 42
0.2322349718
  0
VERTEX
  8
LAYER_1
 10
55.5329
 20
97.3331
  0
SEQEND
  0
ENDBLK
  0
BLOCK
  8
LAYER_1
  2
AIGNBL01010043
 70
64
 10
0
 20
0
 30
0
  3
AIGNBL01010043
  0
POLYLINE
  8
LAYER_1
 40
0.2646
 41
0.2646
 66
1
 10
0
 20
0
 30
0
  0
VERTEX
  8
LAYER_1
 10
54.9719
 20
95.5927
 42
0.1971642723
  0
VERTEX
  8
LAYER_1
 10
55.1369
 20
95.5969
 42
0.1977674761
  0
VERTEX
  8
LAYER_1
 10
55.2501
 20
95.7171
  0
SEQEND
  0
POLYLINE
  8
LAYER_1
 40
0.2646
 41
0.2646
 66
1
 10
0
 20
0
 30
0
  0
VERTEX
  8
LAYER_1
 10
54.9554
 20
95.5925
 42
0.175722414
  0
VERTEX
  8
LAYER_1
 10
52.4693
 20
95.6699
  0
SEQEND
  0
ENDBLK
  0
BLOCK
  8
LAYER_1
  2
AIGNBL01010044
 70
64
 10
0
 20
0
 30
0
  3
AIGNBL01010044
  0
POLYLINE
  8
LAYER_1
 40
0.2646
 41
0.2646
 66
1
 10
0
 20
0
 30
0
  0
VERTEX
  8
LAYER_1
 10
52.1082
 20
98.9682
 42
0.3567286504
  0
VERTEX
  8
LAYER_1
 10
52.5564
 20
98.5442
  0
SEQEND
  0
POLYLINE
  8
LAYER_1
 40
0.2646
 41
0.2646
 66
1
 10
0
 20
0
 30
0
  0
VERTEX
  8
LAYER_1
 10
72.9768
 20
98.0742
 42
0.1746255094
  0
VERTEX
  8
LAYER_1
 10
72.844
 20
98.0149
  0
SEQEND
  0
ENDBLK
  0
BLOCK
  8
LAYER_1
  2
AIGNBL01010045
 70
64
 10
0
 20
0
 30
0
  3
AIGNBL01010045
  0
POLYLINE
  8
LAYER_1
 40
0.2646
 41
0.2646
 66
1
 10
0
 20
0
 30
0
  0
VERTEX
  8
LAYER_1
 10
82.0882
 20
96.66
 42
0.3320046559
  0
VERTEX
  8
LAYER_1
 10
81.2814
 20
97.1755
  0
SEQEND
  0
ENDBLK
  0
BLOCK
  8
LAYER_1
  2
AIGNBL01010046
 70
64
 10
0
 20
0
 30
0
  3
AIGNBL01010046
  0
POLYLINE
  8
LAYER_1
 40
0.2646
 41
0.2646
 66
1
 10
0
 20
0
 30
0
  0
VERTEX
  8
LAYER_1
 10
82.8165
 20
94.703
 42
0.3123484267
  0
VERTEX
  8
LAYER_1
 10
83.0174
 20
94.5641
  0
SEQEND
  0
ENDBLK
  0
BLOCK
  8
LAYER_1
  2
AIGNBL01010047
 70
64
 10
0
 20
0
 30
0
  3
AIGNBL01010047
  0
POLYLINE
  8
LAYER_1
 40
0.2646
 41
0.2646
 66
1
 10
0
 20
0
 30
0
  0
VERTEX
  8
LAYER_1
 10
88.8293
 20
112.5463
 42
0.3771312924
  0
VERTEX
  8
LAYER_1
 10
88.3455
 20
112.1208
  0
SEQEND
  0
ENDBLK
  0
BLOCK
  8
LAYER_1
  2
AIGNBL01010048
 70
64
 10
0
 20
0
 30
0
  3
AIGNBL01010048
  0
POLYLINE
  8
LAYER_1
 40
0.2646
 41
0.2646
 66
1
 10
0
 20
0
 30
0
  0
VERTEX
  8
LAYER_1
 10
86.3814
 20
94.5717
 42
0.2421272663
  0
VERTEX
  8
LAYER_1
 10
83.8659
 20
94.5717
  0
SEQEND
  0
POLYLINE
  8
LAYER_1
 40
0.2646
 41
0.2646
 66
1
 10
0
 20
0
 30
0
  0
VERTEX
  8
LAYER_1
 10
86.267
 20
95.6667
 42
0.2194005539
  0
VERTEX
  8
LAYER_1
 10
86.4484
 20
95.69
 42
0.2185871349
  0
VERTEX
  8
LAYER_1
 10
86.546
 20
95.8446
  0
SEQEND
  0
ENDBLK
  0
BLOCK
  8
LAYER_1
  2
AIGNBL01010049
 70
64
 10
0
 20
0
 30
0
  3
AIGNBL01010049
  0
POLYLINE
  8
LAYER_1
 40
0.2646
 41
0.2646
 66
1
 10
0
 20
0
 30
0
  0
VERTEX
  8
LAYER_1
 10
86.7408
 20
97.3271
 42
0.2236779606
  0
VERTEX
  8
LAYER_1
 10
86.683
 20
97.5012
 42
0.2202862021
  0
VERTEX
  8
LAYER_1
 10
86.5124
 20
97.567
  0
SEQEND
  0
ENDBLK
  0
BLOCK
  8
LAYER_1
  2
AIGNBL0101004A
 70
64
 10
0
 20
0
 30
0
  3
AIGNBL0101004A
  0
POLYLINE
  8
LAYER_1
 40
0.2646
 41
0.2646
 66
1
 10
0
 20
0
 30
0
  0
VERTEX
  8
LAYER_1
 10
83.1966
 20
97.333
 42
0.2366492418
  0
VERTEX
  8
LAYER_1
 10
83.0316
 20
97.2347
 42
0.2325289402
  0
VERTEX
  8
LAYER_1
 10
83.0114
 20
97.0433
  0
SEQEND
  0
ENDBLK
  0
BLOCK
  8
LAYER_1
  2
AIGNBL0101004B
 70
64
 10
0
 20
0
 30
0
  3
AIGNBL0101004B
  0
POLYLINE
  8
LAYER_1
 40
0.2646
 41
0.2646
 66
1
 10
0
 20
0
 30
0
  0
VERTEX
  8
LAYER_1
 10
83.5186
 20
95.7172
 42
0.1981467627
  0
VERTEX
  8
LAYER_1
 10
83.6319
 20
95.597
 42
0.197630031
  0
VERTEX
  8
LAYER_1
 10
83.7968
 20
95.5928
  0
SEQEND
  0
POLYLINE
  8
LAYER_1
 40
0.2646
 41
0.2646
 66
1
 10
0
 20
0
 30
0
  0
VERTEX
  8
LAYER_1
 10
86.2603
 20
95.6697
 42
0.1758245653
  0
VERTEX
  8
LAYER_1
 10
83.7743
 20
95.5924
  0
SEQEND
  0
ENDBLK
  0
BLOCK
  8
LAYER_1
  2
AIGNBL0101004C
 70
64
 10
0
 20
0
 30
0
  3
AIGNBL0101004C
  0
POLYLINE
  8
LAYER_1
 40
0.2646
 41
0.2646
 66
1
 10
0
 20
0
 30
0
  0
VERTEX
  8
LAYER_1
 10
86.1734
 20
98.5442
 42
0.3424617826
  0
VERTEX
  8
LAYER_1
 10
86.6216
 20
98.9682
  0
SEQEND
  0
POLYLINE
  8
LAYER_1
 40
0.2646
 41
0.2646
 66
1
 10
0
 20
0
 30
0
  0
VERTEX
  8
LAYER_1
 10
145.2607
 20
94.567
 42
0.3667724775
  0
VERTEX
  8
LAYER_1
 10
145.7495
 20
94.916
  0
SEQEND
  0
POLYLINE
  8
LAYER_1
 40
0.2646
 41
0.2646
 66
1
 10
0
 20
0
 30
0
  0
VERTEX
  8
LAYER_1
 10
115.5294
 20
97.1754
 42
0.3324024173
  0
VERTEX
  8
LAYER_1
 10
114.7227
 20
96.6599
  0
SEQEND
  0
ENDBLK
  0
BLOCK
  8
LAYER_1
  2
AIGNBL0101004D
 70
64
 10
0
 20
0
 30
0
  3
AIGNBL0101004D
  0
POLYLINE
  8
LAYER_1
 40
0.2646
 41
0.2646
 66
1
 10
0
 20
0
 30
0
  0
VERTEX
  8
LAYER_1
 10
113.7937
 20
94.5641
 42
0.3015831949
  0
VERTEX
  8
LAYER_1
 10
113.9946
 20
94.7031
  0
SEQEND
  0
ENDBLK
  0
BLOCK
  8
LAYER_1
  2
AIGNBL0101004E
 70
64
 10
0
 20
0
 30
0
  3
AIGNBL0101004E
  0
POLYLINE
  8
LAYER_1
 40
0.2646
 41
0.2646
 66
1
 10
0
 20
0
 30
0
  0
VERTEX
  8
LAYER_1
 10
108.4653
 20
112.1209
 42
0.3771595739
  0
VERTEX
  8
LAYER_1
 10
107.9815
 20
112.5465
  0
SEQEND
  0
ENDBLK
  0
BLOCK
  8
LAYER_1
  2
AIGNBL0101004F
 70
64
 10
0
 20
0
 30
0
  3
AIGNBL0101004F
  0
POLYLINE
  8
LAYER_1
 40
0.2646
 41
0.2646
 66
1
 10
0
 20
0
 30
0
  0
VERTEX
  8
LAYER_1
 10
112.9451
 20
94.5717
 42
0.2421272653
  0
VERTEX
  8
LAYER_1
 10
110.4296
 20
94.5717
  0
SEQEND
  0
POLYLINE
  8
LAYER_1
 40
0.2646
 41
0.2646
 66
1
 10
0
 20
0
 30
0
  0
VERTEX
  8
LAYER_1
 10
110.2652
 20
95.8448
 42
0.2204283494
  0
VERTEX
  8
LAYER_1
 10
110.3627
 20
95.6902
 42
0.2215174333
  0
VERTEX
  8
LAYER_1
 10
110.5441
 20
95.6668
  0
SEQEND
  0
ENDBLK
  0
BLOCK
  8
LAYER_1
  2
AIGNBL01010050
 70
64
 10
0
 20
0
 30
0
  3
AIGNBL01010050
  0
POLYLINE
  8
LAYER_1
 40
0.2646
 41
0.2646
 66
1
 10
0
 20
0
 30
0
  0
VERTEX
  8
LAYER_1
 10
110.2988
 20
97.5671
 42
0.2231767242
  0
VERTEX
  8
LAYER_1
 10
110.1277
 20
97.5013
 42
0.2221167402
  0
VERTEX
  8
LAYER_1
 10
110.0703
 20
97.3271
  0
SEQEND
  0
ENDBLK
  0
BLOCK
  8
LAYER_1
  2
AIGNBL01010051
 70
64
 10
0
 20
0
 30
0
  3
AIGNBL01010051
  0
POLYLINE
  8
LAYER_1
 40
0.2646
 41
0.2646
 66
1
 10
0
 20
0
 30
0
  0
VERTEX
  8
LAYER_1
 10
113.7994
 20
97.0434
 42
0.2360639841
  0
VERTEX
  8
LAYER_1
 10
113.7795
 20
97.2348
 42
0.2321377862
  0
VERTEX
  8
LAYER_1
 10
113.6142
 20
97.3331
  0
SEQEND
  0
ENDBLK
  0
BLOCK
  8
LAYER_1
  2
AIGNBL01010052
 70
64
 10
0
 20
0
 30
0
  3
AIGNBL01010052
  0
POLYLINE
  8
LAYER_1
 40
0.2646
 41
0.2646
 66
1
 10
0
 20
0
 30
0
  0
VERTEX
  8
LAYER_1
 10
113.0532
 20
95.5927
 42
0.1971642723
  0
VERTEX
  8
LAYER_1
 10
113.2182
 20
95.5969
 42
0.197259508
  0
VERTEX
  8
LAYER_1
 10
113.3315
 20
95.7171
  0
SEQEND
  0
POLYLINE
  8
LAYER_1
 40
0.2646
 41
0.2646
 66
1
 10
0
 20
0
 30
0
  0
VERTEX
  8
LAYER_1
 10
113.0367
 20
95.5925
 42
0.1757217869
  0
VERTEX
  8
LAYER_1
 10
110.5506
 20
95.6699
  0
SEQEND
  0
ENDBLK
  0
BLOCK
  8
LAYER_1
  2
AIGNBL01010053
 70
64
 10
0
 20
0
 30
0
  3
AIGNBL01010053
  0
POLYLINE
  8
LAYER_1
 40
0.2646
 41
0.2646
 66
1
 10
0
 20
0
 30
0
  0
VERTEX
  8
LAYER_1
 10
110.1895
 20
98.9682
 42
0.3567267393
  0
VERTEX
  8
LAYER_1
 10
110.6377
 20
98.5442
  0
SEQEND
  0
POLYLINE
  8
LAYER_1
 40
0.2646
 41
0.2646
 66
1
 10
0
 20
0
 30
0
  0
VERTEX
  8
LAYER_1
 10
140.1695
 20
96.66
 42
0.3319733848
  0
VERTEX
  8
LAYER_1
 10
139.3628
 20
97.1755
  0
SEQEND
  0
ENDBLK
  0
BLOCK
  8
LAYER_1
  2
AIGNBL01010054
 70
64
 10
0
 20
0
 30
0
  3
AIGNBL01010054
  0
POLYLINE
  8
LAYER_1
 40
0.2646
 41
0.2646
 66
1
 10
0
 20
0
 30
0
  0
VERTEX
  8
LAYER_1
 10
140.8978
 20
94.703
 42
0.3123397274
  0
VERTEX
  8
LAYER_1
 10
141.0987
 20
94.5641
  0
SEQEND
  0
ENDBLK
  0
BLOCK
  8
LAYER_1
  2
AIGNBL01010055
 70
64
 10
0
 20
0
 30
0
  3
AIGNBL01010055
  0
POLYLINE
  8
LAYER_1
 40
0.2646
 41
0.2646
 66
1
 10
0
 20
0
 30
0
  0
VERTEX
  8
LAYER_1
 10
146.9106
 20
112.5463
 42
0.3771289197
  0
VERTEX
  8
LAYER_1
 10
146.4268
 20
112.1208
  0
SEQEND
  0
ENDBLK
  0
BLOCK
  8
LAYER_1
  2
AIGNBL01010056
 70
64
 10
0
 20
0
 30
0
  3
AIGNBL01010056
  0
POLYLINE
  8
LAYER_1
 40
0.2646
 41
0.2646
 66
1
 10
0
 20
0
 30
0
  0
VERTEX
  8
LAYER_1
 10
144.4627
 20
94.5717
 42
0.2421272655
  0
VERTEX
  8
LAYER_1
 10
141.9472
 20
94.5717
  0
SEQEND
  0
POLYLINE
  8
LAYER_1
 40
0.2646
 41
0.2646
 66
1
 10
0
 20
0
 30
0
  0
VERTEX
  8
LAYER_1
 10
144.3483
 20
95.6667
 42
0.2194005539
  0
VERTEX
  8
LAYER_1
 10
144.5297
 20
95.69
 42
0.2185871349
  0
VERTEX
  8
LAYER_1
 10
144.6273
 20
95.8446
  0
SEQEND
  0
ENDBLK
  0
BLOCK
  8
LAYER_1
  2
AIGNBL01010057
 70
64
 10
0
 20
0
 30
0
  3
AIGNBL01010057
  0
POLYLINE
  8
LAYER_1
 40
0.2646
 41
0.2646
 66
1
 10
0
 20
0
 30
0
  0
VERTEX
  8
LAYER_1
 10
144.8221
 20
97.3271
 42
0.2236242091
  0
VERTEX
  8
LAYER_1
 10
144.7643
 20
97.5012
 42
0.2201531853
  0
VERTEX
  8
LAYER_1
 10
144.5936
 20
97.567
  0
SEQEND
  0
ENDBLK
  0
BLOCK
  8
LAYER_1
  2
AIGNBL01010058
 70
64
 10
0
 20
0
 30
0
  3
AIGNBL01010058
  0
POLYLINE
  8
LAYER_1
 40
0.2646
 41
0.2646
 66
1
 10
0
 20
0
 30
0
  0
VERTEX
  8
LAYER_1
 10
141.2779
 20
97.333
 42
0.2365770694
  0
VERTEX
  8
LAYER_1
 10
141.113
 20
97.2347
 42
0.2328596954
  0
VERTEX
  8
LAYER_1
 10
141.0927
 20
97.0433
  0
SEQEND
  0
ENDBLK
  0
BLOCK
  8
LAYER_1
  2
AIGNBL01010059
 70
64
 10
0
 20
0
 30
0
  3
AIGNBL01010059
  0
POLYLINE
  8
LAYER_1
 40
0.2646
 41
0.2646
 66
1
 10
0
 20
0
 30
0
  0
VERTEX
  8
LAYER_1
 10
141.5999
 20
95.7172
 42
0.1981467627
  0
VERTEX
  8
LAYER_1
 10
141.7132
 20
95.597
 42
0.197630031
  0
VERTEX
  8
LAYER_1
 10
141.8781
 20
95.5928
  0
SEQEND
  0
POLYLINE
  8
LAYER_1
 40
0.2646
 41
0.2646
 66
1
 10
0
 20
0
 30
0
  0
VERTEX
  8
LAYER_1
 10
144.3416
 20
95.6697
 42
0.1758233489
  0
VERTEX
  8
LAYER_1
 10
141.8556
 20
95.5924
  0
SEQEND
  0
POLYLINE
  8
LAYER_1
 40
0.2646
 41
0.2646
 66
1
 10
0
 20
0
 30
0
  0
VERTEX
  8
LAYER_1
 10
144.2547
 20
98.5442
 42
0.3424617826
  0
VERTEX
  8
LAYER_1
 10
144.7029
 20
98.9682
  0
SEQEND
  0
ENDBLK
  0
BLOCK
  8
LAYER_1
  2
AIGNBL0101005A
 70
64
 10
0
 20
0
 30
0
  3
AIGNBL0101005A
  0
POLYLINE
  8
LAYER_1
 40
0.2646
 41
0.2646
 66
1
 10
0
 20
0
 30
0
  0
VERTEX
  8
LAYER_1
 10
109.1429
 20
94.9161
 42
0.3842974683
  0
VERTEX
  8
LAYER_1
 10
109.6316
 20
94.5671
  0
SEQEND
  0
ENDBLK
  0
BLOCK
  8
LAYER_1
  2
AIGNBL0101005B
 70
64
 10
0
 20
0
 30
0
  3
AIGNBL0101005B
  0
POLYLINE
  8
LAYER_1
 40
0.05
 41
0.05
 66
1
 10
0
 20
0
 30
0
 70
1
  0
VERTEX
  8
LAYER_1
 10
128.1287
 20
103.5889
  0
VERTEX
  8
LAYER_1
 10
128.1287
 20
103.2819
  0
VERTEX
  8
LAYER_1
 10
126.1724
 20
103.2819
 42
-0.04886671137
  0
VERTEX
  8
LAYER_1
 10
126.3839
 20
102.9911
  0
VERTEX
  8
LAYER_1
 10
126.5425
 20
102.6679
  0
VERTEX
  8
LAYER_1
 10
126.2457
 20
102.6679
 42
0.07421918296
  0
VERTEX
  8
LAYER_1
 10
125.9524
 20
103.1182
 42
0.101605964
  0
VERTEX
  8
LAYER_1
 10
125.6181
 20
103.3911
  0
VERTEX
  8
LAYER_1
 10
125.6181
 20
103.5889
  0
SEQEND
  0
POLYLINE
  8
LAYER_1
 40
0.05
 41
0.05
 66
1
 10
0
 20
0
 30
0
 70
1
  0
VERTEX
  8
LAYER_1
 10
128.1287
 20
105.3588
  0
VERTEX
  8
LAYER_1
 10
127.5301
 20
105.3588
  0
VERTEX
  8
LAYER_1
 10
127.5301
 20
104.274
  0
VERTEX
  8
LAYER_1
 10
127.2487
 20
104.274
  0
VERTEX
  8
LAYER_1
 10
125.6283
 20
105.4151
  0
VERTEX
  8
LAYER_1
 10
125.6283
 20
105.6658
  0
VERTEX
  8
LAYER_1
 10
127.2487
 20
105.6658
  0
VERTEX
  8
LAYER_1
 10
127.2487
 20
106.0035
  0
VERTEX
  8
LAYER_1
 10
127.5301
 20
106.0035
  0
VERTEX
  8
LAYER_1
 10
127.5301
 20
105.6658
  0
VERTEX
  8
LAYER_1
 10
128.1287
 20
105.6658
  0
SEQEND
  0
POLYLINE
  8
LAYER_1
 40
0.05
 41
0.05
 66
1
 10
0
 20
0
 30
0
 70
1
  0
VERTEX
  8
LAYER_1
 10
127.4738
 20
106.3168
  0
VERTEX
  8
LAYER_1
 10
127.4465
 20
106.6392
 42
0.1759762294
  0
VERTEX
  8
LAYER_1
 10
127.8004
 20
106.8055
 42
0.1903219889
  0
VERTEX
  8
LAYER_1
 10
127.919
 20
107.1202
 42
0.216471788
  0
VERTEX
  8
LAYER_1
 10
127.7518
 20
107.4954
 42
0.1923978924
  0
VERTEX
  8
LAYER_1
 10
127.3083
 20
107.6489
 42
0.1978476292
  0
VERTEX
  8
LAYER_1
 10
126.8939
 20
107.5014
 42
0.2083728194
  0
VERTEX
  8
LAYER_1
 10
126.7421
 20
107.115
 42
0.1325977193
  0
VERTEX
  8
LAYER_1
 10
126.8095
 20
106.8473
 42
0.1272559917
  0
VERTEX
  8
LAYER_1
 10
126.9843
 20
106.6597
  0
VERTEX
  8
LAYER_1
 10
126.9468
 20
106.3714
  0
VERTEX
  8
LAYER_1
 10
125.6624
 20
106.6136
  0
VERTEX
  8
LAYER_1
 10
125.6624
 20
107.857
  0
VERTEX
  8
LAYER_1
 10
125.9558
 20
107.857
  0
VERTEX
  8
LAYER_1
 10
125.9558
 20
106.8592
  0
VERTEX
  8
LAYER_1
 10
126.6278
 20
106.7245
 42
-0.155720232
  0
VERTEX
  8
LAYER_1
 10
126.4709
 20
107.1969
 42
-0.2044201287
  0
VERTEX
  8
LAYER_1
 10
126.6977
 20
107.7495
 42
-0.2048903719
  0
VERTEX
  8
LAYER_1
 10
127.2811
 20
107.9747
 42
-0.1725553762
  0
VERTEX
  8
LAYER_1
 10
127.8678
 20
107.7768
 42
-0.2387810903
  0
VERTEX
  8
LAYER_1
 10
128.1714
 20
107.1202
 42
-0.1840317988
  0
VERTEX
  8
LAYER_1
 10
127.9804
 20
106.5633
 42
-0.1951449148
  0
SEQEND
  0
POLYLINE
  8
LAYER_1
 40
0.05
 41
0.05
 66
1
 10
0
 20
0
 30
0
 70
1
  0
VERTEX
  8
LAYER_1
 10
127.2487
 20
105.3588
  0
VERTEX
  8
LAYER_1
 10
126.1212
 20
105.3588
  0
VERTEX
  8
LAYER_1
 10
127.2487
 20
104.5759
  0
SEQEND
  0
ENDBLK
  0
BLOCK
  8
LAYER_1
  2
AIGNBL0101005C
 70
64
 10
0
 20
0
 30
0
  3
AIGNBL0101005C
  0
POLYLINE
  8
LAYER_1
 40
0.2646
 41
0.2646
 66
1
 10
0
 20
0
 30
0
  0
VERTEX
  8
LAYER_1
 10
67.0829
 20
96.768
 42
0.2031116628
  0
VERTEX
  8
LAYER_1
 10
67.0171
 20
96.9226
  0
SEQEND
  0
ENDBLK
  0
BLOCK
  8
LAYER_1
  2
AIGNBL0101005D
 70
64
 10
0
 20
0
 30
0
  3
AIGNBL0101005D
  0
POLYLINE
  8
LAYER_1
 40
0.2646
 41
0.2646
 66
1
 10
0
 20
0
 30
0
  0
VERTEX
  8
LAYER_1
 10
71.7127
 20
96.9228
 42
0.2009671592
  0
VERTEX
  8
LAYER_1
 10
71.6469
 20
96.7682
  0
SEQEND
  0
ENDBLK
  0
BLOCK
  8
LAYER_1
  2
AIGNBL0101005E
 70
64
 10
0
 20
0
 30
0
  3
AIGNBL0101005E
  0
POLYLINE
  8
LAYER_1
 40
0.2646
 41
0.2646
 66
1
 10
0
 20
0
 30
0
  0
VERTEX
  8
LAYER_1
 10
123.928
 20
98.015
 42
0.1717843744
  0
VERTEX
  8
LAYER_1
 10
123.7952
 20
98.0743
  0
SEQEND
  0
ENDBLK
  0
BLOCK
  8
LAYER_1
  2
AIGNBL0101005F
 70
64
 10
0
 20
0
 30
0
  3
AIGNBL0101005F
  0
POLYLINE
  8
LAYER_1
 40
0.2646
 41
0.2646
 66
1
 10
0
 20
0
 30
0
  0
VERTEX
  8
LAYER_1
 10
125.1642
 20
96.768
 42
0.2031116628
  0
VERTEX
  8
LAYER_1
 10
125.0984
 20
96.9226
  0
SEQEND
  0
ENDBLK
  0
BLOCK
  8
LAYER_1
  2
AIGNBL01010060
 70
64
 10
0
 20
0
 30
0
  3
AIGNBL01010060
  0
POLYLINE
  8
LAYER_1
 40
0.2646
 41
0.2646
 66
1
 10
0
 20
0
 30
0
  0
VERTEX
  8
LAYER_1
 10
131.0581
 20
98.0742
 42
0.1740661121
  0
VERTEX
  8
LAYER_1
 10
130.9253
 20
98.0149
  0
SEQEND
  0
ENDBLK
  0
BLOCK
  8
LAYER_1
  2
AIGNBL01010061
 70
64
 10
0
 20
0
 30
0
  3
AIGNBL01010061
  0
POLYLINE
  8
LAYER_1
 40
0.2646
 41
0.2646
 66
1
 10
0
 20
0
 30
0
  0
VERTEX
  8
LAYER_1
 10
125.1642
 20
96.768
 42
0.2031116628
  0
VERTEX
  8
LAYER_1
 10
125.0984
 20
96.9226
  0
SEQEND
  0
ENDBLK
  0
BLOCK
  8
LAYER_1
  2
AIGNBL01010062
 70
64
 10
0
 20
0
 30
0
  3
AIGNBL01010062
  0
POLYLINE
  8
LAYER_1
 40
0.2646
 41
0.2646
 66
1
 10
0
 20
0
 30
0
  0
VERTEX
  8
LAYER_1
 10
129.794
 20
96.9228
 42
0.2009671592
  0
VERTEX
  8
LAYER_1
 10
129.7282
 20
96.7682
  0
SEQEND
  0
ENDBLK
  0
BLOCK
  8
LAYER_1
  2
AIGNBL01010063
 70
64
 10
0
 20
0
 30
0
  3
AIGNBL01010063
  0
POLYLINE
  8
LAYER_1
 40
0.05
 41
0.05
 66
1
 10
0
 20
0
 30
0
 70
1
  0
VERTEX
  8
LAYER_1
 10
95.6249
 20
90.8503
  0
VERTEX
  8
LAYER_1
 10
95.9473
 20
90.8776
 42
0.1759762294
  0
VERTEX
  8
LAYER_1
 10
96.1136
 20
90.5237
 42
0.1903219889
  0
VERTEX
  8
LAYER_1
 10
96.4283
 20
90.4051
 42
0.216471788
  0
VERTEX
  8
LAYER_1
 10
96.8035
 20
90.5723
 42
0.1928052396
  0
VERTEX
  8
LAYER_1
 10
96.957
 20
91.0158
 42
0.1979063826
  0
VERTEX
  8
LAYER_1
 10
96.8095
 20
91.4302
 42
0.2083522788
  0
VERTEX
  8
LAYER_1
 10
96.4232
 20
91.582
 42
0.1325778499
  0
VERTEX
  8
LAYER_1
 10
96.1554
 20
91.5147
 42
0.1270753228
  0
VERTEX
  8
LAYER_1
 10
95.9678
 20
91.3398
  0
VERTEX
  8
LAYER_1
 10
95.6795
 20
91.3774
  0
VERTEX
  8
LAYER_1
 10
95.9217
 20
92.6617
  0
VERTEX
  8
LAYER_1
 10
97.1651
 20
92.6617
  0
VERTEX
  8
LAYER_1
 10
97.1651
 20
92.3683
  0
VERTEX
  8
LAYER_1
 10
96.1673
 20
92.3683
  0
VERTEX
  8
LAYER_1
 10
96.0326
 20
91.6963
 42
-0.155720232
  0
VERTEX
  8
LAYER_1
 10
96.505
 20
91.8532
 42
-0.204450553
  0
VERTEX
  8
LAYER_1
 10
97.0576
 20
91.6264
 42
-0.204872366
  0
VERTEX
  8
LAYER_1
 10
97.2828
 20
91.0431
 42
-0.1725631159
  0
VERTEX
  8
LAYER_1
 10
97.0849
 20
90.4563
 42
-0.2387810903
  0
VERTEX
  8
LAYER_1
 10
96.4283
 20
90.1527
 42
-0.1840317988
  0
VERTEX
  8
LAYER_1
 10
95.8714
 20
90.3437
 42
-0.1951449148
  0
SEQEND
  0
POLYLINE
  8
LAYER_1
 40
0.05
 41
0.05
 66
1
 10
0
 20
0
 30
0
 70
1
  0
VERTEX
  8
LAYER_1
 10
98.0395
 20
91.5513
 42
-0.1569298102
  0
VERTEX
  8
LAYER_1
 10
97.7564
 20
91.7509
 42
-0.1552005452
  0
VERTEX
  8
LAYER_1
 10
97.6643
 20
92.0613
 42
-0.2115291745
  0
VERTEX
  8
LAYER_1
 10
97.8605
 20
92.5201
 42
-0.1985611534
  0
VERTEX
  8
LAYER_1
 10
98.3824
 20
92.706
 42
-0.1939438037
  0
VERTEX
  8
LAYER_1
 10
98.9094
 20
92.5158
 42
-0.2105820879
  0
VERTEX
  8
LAYER_1
 10
99.109
 20
92.0528
 42
-0.1592918782
  0
VERTEX
  8
LAYER_1
 10
99.0177
 20
91.75
 42
-0.1464250175
  0
VERTEX
  8
LAYER_1
 10
98.7405
 20
91.5513
 42
-0.1626568244
  0
VERTEX
  8
LAYER_1
 10
99.0911
 20
91.3091
 42
-0.1584305198
  0
VERTEX
  8
LAYER_1
 10
99.2113
 20
90.91
 42
-0.2088530728
  0
VERTEX
  8
LAYER_1
 10
98.9845
 20
90.371
 42
-0.2011623133
  0
VERTEX
  8
LAYER_1
 10
98.3875
 20
90.1527
 42
-0.1949162742
  0
VERTEX
  8
LAYER_1
 10
97.7905
 20
90.3719
 42
-0.209502557
  0
VERTEX
  8
LAYER_1
 10
97.5637
 20
90.9185
 42
-0.165517277
  0
VERTEX
  8
LAYER_1
 10
97.6873
 20
91.327
 42
-0.1715297689
  0
SEQEND
  0
POLYLINE
  8
LAYER_1
 40
0.05
 41
0.05
 66
1
 10
0
 20
0
 30
0
 70
1
  0
VERTEX
  8
LAYER_1
 10
97.8792
 20
90.9168
 42
0.1164729097
  0
VERTEX
  8
LAYER_1
 10
97.9415
 20
90.6627
 42
0.1523016067
  0
VERTEX
  8
LAYER_1
 10
98.1265
 20
90.4725
 42
0.1265858402
  0
VERTEX
  8
LAYER_1
 10
98.3909
 20
90.4051
 42
0.2024208419
  0
VERTEX
  8
LAYER_1
 10
98.7542
 20
90.5467
 42
0.2057527515
  0
VERTEX
  8
LAYER_1
 10
98.8975
 20
90.9066
 42
0.2064931101
  0
VERTEX
  8
LAYER_1
 10
98.7499
 20
91.2733
 42
0.2016504086
  0
VERTEX
  8
LAYER_1
 10
98.3807
 20
91.4183
 42
0.2049356255
  0
VERTEX
  8
LAYER_1
 10
98.0216
 20
91.275
 42
0.203165536
  0
SEQEND
  0
POLYLINE
  8
LAYER_1
 40
0.05
 41
0.05
 66
1
 10
0
 20
0
 30
0
 70
1
  0
VERTEX
  8
LAYER_1
 10
97.9781
 20
92.0715
 42
0.2072585599
  0
VERTEX
  8
LAYER_1
 10
98.0924
 20
91.7816
 42
0.2001372382
  0
VERTEX
  8
LAYER_1
 10
98.3892
 20
91.669
 42
0.2031674907
  0
VERTEX
  8
LAYER_1
 10
98.68
 20
91.7807
 42
0.2058816984
  0
VERTEX
  8
LAYER_1
 10
98.7934
 20
92.0545
 42
0.2064451124
  0
VERTEX
  8
LAYER_1
 10
98.6766
 20
92.3385
 42
0.2011240982
  0
VERTEX
  8
LAYER_1
 10
98.3858
 20
92.4536
 42
0.2009839433
  0
VERTEX
  8
LAYER_1
 10
98.0941
 20
92.341
 42
0.2086579747
  0
SEQEND
  0
POLYLINE
  8
LAYER_1
 40
0.05
 41
0.05
 66
1
 10
0
 20
0
 30
0
 70
1
  0
VERTEX
  8
LAYER_1
 10
99.7566
 20
90.412
 42
-0.130463245
  0
VERTEX
  8
LAYER_1
 10
99.5385
 20
90.9906
 42
-0.05026566347
  0
VERTEX
  8
LAYER_1
 10
99.5093
 20
91.4285
 42
-0.08318823112
  0
VERTEX
  8
LAYER_1
 10
99.6005
 20
92.1423
 42
-0.1432131554
  0
VERTEX
  8
LAYER_1
 10
99.8717
 20
92.5593
 42
-0.1759007326
  0
VERTEX
  8
LAYER_1
 10
100.3245
 20
92.706
 42
-0.1271105382
  0
VERTEX
  8
LAYER_1
 10
100.6776
 20
92.625
 42
-0.1270896199
  0
VERTEX
  8
LAYER_1
 10
100.9283
 20
92.3913
 42
-0.07599435318
  0
VERTEX
  8
LAYER_1
 10
101.0835
 20
92.0195
 42
-0.05418036655
  0
VERTEX
  8
LAYER_1
 10
101.1398
 20
91.4285
 42
-0.08254941859
  0
VERTEX
  8
LAYER_1
 10
101.0494
 20
90.7181
 42
-0.1432169063
  0
VERTEX
  8
LAYER_1
 10
100.7791
 20
90.3003
 42
-0.1766886321
  0
VERTEX
  8
LAYER_1
 10
100.3245
 20
90.1527
 42
-0.2326190297
  0
SEQEND
  0
POLYLINE
  8
LAYER_1
 40
0.05
 41
0.05
 66
1
 10
0
 20
0
 30
0
 70
1
  0
VERTEX
  8
LAYER_1
 10
99.9834
 20
92.2728
 42
0.1313533569
  0
VERTEX
  8
LAYER_1
 10
99.8319
 20
91.671
 42
0.0228616131
  0
VERTEX
  8
LAYER_1
 10
99.8248
 20
91.4285
 42
0.1314289627
  0
VERTEX
  8
LAYER_1
 10
99.9689
 20
90.609
 42
0.2494223833
  0
VERTEX
  8
LAYER_1
 10
100.3245
 20
90.4051
 42
0.2553141337
  0
VERTEX
  8
LAYER_1
 10
100.6802
 20
90.6098
 42
0.1330105698
  0
VERTEX
  8
LAYER_1
 10
100.8192
 20
91.2127
 42
0.01894773131
  0
VERTEX
  8
LAYER_1
 10
100.8243
 20
91.4285
 42
0.1314725289
  0
VERTEX
  8
LAYER_1
 10
100.6802
 20
92.2489
 42
0.2493664946
  0
VERTEX
  8
LAYER_1
 10
100.3211
 20
92.4519
 42
0.2539809921
  0
SEQEND
  0
ENDBLK
  0
BLOCK
  8
LAYER_1
  2
AIGNBL01010064
 70
64
 10
0
 20
0
 30
0
  3
AIGNBL01010064
  0
POLYLINE
  8
LAYER_1
 40
0.05
 41
0.05
 66
1
 10
0
 20
0
 30
0
 70
1
  0
VERTEX
  8
LAYER_1
 10
95.6249
 20
160.0096
  0
VERTEX
  8
LAYER_1
 10
95.9473
 20
160.0369
 42
0.1759762294
  0
VERTEX
  8
LAYER_1
 10
96.1136
 20
159.683
 42
0.1903219889
  0
VERTEX
  8
LAYER_1
 10
96.4283
 20
159.5644
 42
0.216471788
  0
VERTEX
  8
LAYER_1
 10
96.8035
 20
159.7316
 42
0.1928430699
  0
VERTEX
  8
LAYER_1
 10
96.957
 20
160.175
 42
0.197859951
  0
VERTEX
  8
LAYER_1
 10
96.8095
 20
160.5895
 42
0.2083522788
  0
VERTEX
  8
LAYER_1
 10
96.4232
 20
160.7413
 42
0.1324860536
  0
VERTEX
  8
LAYER_1
 10
96.1554
 20
160.6739
 42
0.126968349
  0
VERTEX
  8
LAYER_1
 10
95.9678
 20
160.4991
  0
VERTEX
  8
LAYER_1
 10
95.6795
 20
160.5366
  0
VERTEX
  8
LAYER_1
 10
95.9217
 20
161.821
  0
VERTEX
  8
LAYER_1
 10
97.1651
 20
161.821
  0
VERTEX
  8
LAYER_1
 10
97.1651
 20
161.5276
  0
VERTEX
  8
LAYER_1
 10
96.1673
 20
161.5276
  0
VERTEX
  8
LAYER_1
 10
96.0326
 20
160.8556
 42
-0.155720232
  0
VERTEX
  8
LAYER_1
 10
96.505
 20
161.0125
 42
-0.204450553
  0
VERTEX
  8
LAYER_1
 10
97.0576
 20
160.7857
 42
-0.2048903719
  0
VERTEX
  8
LAYER_1
 10
97.2828
 20
160.2023
 42
-0.1725929462
  0
VERTEX
  8
LAYER_1
 10
97.0849
 20
159.6156
 42
-0.2387810903
  0
VERTEX
  8
LAYER_1
 10
96.4283
 20
159.312
 42
-0.1840317988
  0
VERTEX
  8
LAYER_1
 10
95.8714
 20
159.503
 42
-0.1951449148
  0
SEQEND
  0
POLYLINE
  8
LAYER_1
 40
0.05
 41
0.05
 66
1
 10
0
 20
0
 30
0
 70
1
  0
VERTEX
  8
LAYER_1
 10
98.0395
 20
160.7106
 42
-0.1571372207
  0
VERTEX
  8
LAYER_1
 10
97.7564
 20
160.9102
 42
-0.1552005452
  0
VERTEX
  8
LAYER_1
 10
97.6643
 20
161.2206
 42
-0.211485665
  0
VERTEX
  8
LAYER_1
 10
97.8605
 20
161.6794
 42
-0.1985611534
  0
VERTEX
  8
LAYER_1
 10
98.3824
 20
161.8653
 42
-0.1939438037
  0
VERTEX
  8
LAYER_1
 10
98.9094
 20
161.6751
 42
-0.2105820879
  0
VERTEX
  8
LAYER_1
 10
99.109
 20
161.2121
 42
-0.1594029187
  0
VERTEX
  8
LAYER_1
 10
99.0177
 20
160.9093
 42
-0.1468586882
  0
VERTEX
  8
LAYER_1
 10
98.7405
 20
160.7106
 42
-0.1625059471
  0
VERTEX
  8
LAYER_1
 10
99.0911
 20
160.4684
 42
-0.1584305198
  0
VERTEX
  8
LAYER_1
 10
99.2113
 20
160.0693
 42
-0.2088530728
  0
VERTEX
  8
LAYER_1
 10
98.9845
 20
159.5303
 42
-0.2011623133
  0
VERTEX
  8
LAYER_1
 10
98.3875
 20
159.312
 42
-0.1949162742
  0
VERTEX
  8
LAYER_1
 10
97.7905
 20
159.5312
 42
-0.209502557
  0
VERTEX
  8
LAYER_1
 10
97.5637
 20
160.0778
 42
-0.165517277
  0
VERTEX
  8
LAYER_1
 10
97.6873
 20
160.4863
 42
-0.1713876202
  0
SEQEND
  0
POLYLINE
  8
LAYER_1
 40
0.05
 41
0.05
 66
1
 10
0
 20
0
 30
0
 70
1
  0
VERTEX
  8
LAYER_1
 10
97.8792
 20
160.0761
 42
0.1165142866
  0
VERTEX
  8
LAYER_1
 10
97.9415
 20
159.822
 42
0.1523016067
  0
VERTEX
  8
LAYER_1
 10
98.1265
 20
159.6318
 42
0.1265858402
  0
VERTEX
  8
LAYER_1
 10
98.3909
 20
159.5644
 42
0.2024208419
  0
VERTEX
  8
LAYER_1
 10
98.7542
 20
159.706
 42
0.2057527515
  0
VERTEX
  8
LAYER_1
 10
98.8975
 20
160.0659
 42
0.2064931101
  0
VERTEX
  8
LAYER_1
 10
98.7499
 20
160.4326
 42
0.2016504086
  0
VERTEX
  8
LAYER_1
 10
98.3807
 20
160.5776
 42
0.2049356255
  0
VERTEX
  8
LAYER_1
 10
98.0216
 20
160.4343
 42
0.203165536
  0
SEQEND
  0
POLYLINE
  8
LAYER_1
 40
0.05
 41
0.05
 66
1
 10
0
 20
0
 30
0
 70
1
  0
VERTEX
  8
LAYER_1
 10
97.9781
 20
161.2308
 42
0.2073446614
  0
VERTEX
  8
LAYER_1
 10
98.0924
 20
160.9409
 42
0.2001372382
  0
VERTEX
  8
LAYER_1
 10
98.3892
 20
160.8283
 42
0.2031674907
  0
VERTEX
  8
LAYER_1
 10
98.68
 20
160.94
 42
0.2058816984
  0
VERTEX
  8
LAYER_1
 10
98.7934
 20
161.2138
 42
0.2066100746
  0
VERTEX
  8
LAYER_1
 10
98.6766
 20
161.4977
 42
0.2013163907
  0
VERTEX
  8
LAYER_1
 10
98.3858
 20
161.6129
 42
0.2009839433
  0
VERTEX
  8
LAYER_1
 10
98.0941
 20
161.5003
 42
0.2086579747
  0
SEQEND
  0
POLYLINE
  8
LAYER_1
 40
0.05
 41
0.05
 66
1
 10
0
 20
0
 30
0
 70
1
  0
VERTEX
  8
LAYER_1
 10
99.7566
 20
159.5713
 42
-0.1305109493
  0
VERTEX
  8
LAYER_1
 10
99.5385
 20
160.1499
 42
-0.05026252133
  0
VERTEX
  8
LAYER_1
 10
99.5093
 20
160.5878
 42
-0.08317280935
  0
VERTEX
  8
LAYER_1
 10
99.6005
 20
161.3016
 42
-0.1432131554
  0
VERTEX
  8
LAYER_1
 10
99.8717
 20
161.7186
 42
-0.1759007326
  0
VERTEX
  8
LAYER_1
 10
100.3245
 20
161.8653
 42
-0.1271105382
  0
VERTEX
  8
LAYER_1
 10
100.6776
 20
161.7843
 42
-0.1270896199
  0
VERTEX
  8
LAYER_1
 10
100.9283
 20
161.5506
 42
-0.07596958722
  0
VERTEX
  8
LAYER_1
 10
101.0835
 20
161.1788
 42
-0.05418036655
  0
VERTEX
  8
LAYER_1
 10
101.1398
 20
160.5878
 42
-0.08256479786
  0
VERTEX
  8
LAYER_1
 10
101.0494
 20
159.8774
 42
-0.1430994582
  0
VERTEX
  8
LAYER_1
 10
100.7791
 20
159.4595
 42
-0.1765457697
  0
VERTEX
  8
LAYER_1
 10
100.3245
 20
159.312
 42
-0.2326190297
  0
SEQEND
  0
POLYLINE
  8
LAYER_1
 40
0.05
 41
0.05
 66
1
 10
0
 20
0
 30
0
 70
1
  0
VERTEX
  8
LAYER_1
 10
99.9834
 20
161.4321
 42
0.1313533569
  0
VERTEX
  8
LAYER_1
 10
99.8319
 20
160.8303
 42
0.0228616131
  0
VERTEX
  8
LAYER_1
 10
99.8248
 20
160.5878
 42
0.1314289627
  0
VERTEX
  8
LAYER_1
 10
99.9689
 20
159.7683
 42
0.2494223833
  0
VERTEX
  8
LAYER_1
 10
100.3245
 20
159.5644
 42
0.2553141337
  0
VERTEX
  8
LAYER_1
 10
100.6802
 20
159.7691
 42
0.1330105698
  0
VERTEX
  8
LAYER_1
 10
100.8192
 20
160.372
 42
0.01894773131
  0
VERTEX
  8
LAYER_1
 10
100.8243
 20
160.5878
 42
0.1314725289
  0
VERTEX
  8
LAYER_1
 10
100.6802
 20
161.4082
 42
0.2493664946
  0
VERTEX
  8
LAYER_1
 10
100.3211
 20
161.6112
 42
0.2539809921
  0
SEQEND
  0
ENDBLK
  0
BLOCK
  8
LAYER_1
  2
AIGNBL01010065
 70
64
 10
0
 20
0
 30
0
  3
AIGNBL01010065
  0
POLYLINE
  8
LAYER_1
 40
0.05
 41
0.05
 66
1
 10
0
 20
0
 30
0
 70
1
  0
VERTEX
  8
LAYER_1
 10
42.604
 20
104.8088
 42
-0.1304691712
  0
VERTEX
  8
LAYER_1
 10
42.0254
 20
104.5907
 42
-0.0502659885
  0
VERTEX
  8
LAYER_1
 10
41.5874
 20
104.5615
 42
-0.08314795122
  0
VERTEX
  8
LAYER_1
 10
40.8736
 20
104.6527
 42
-0.1431006014
  0
VERTEX
  8
LAYER_1
 10
40.4566
 20
104.9239
 42
-0.1759146871
  0
VERTEX
  8
LAYER_1
 10
40.3099
 20
105.3768
 42
-0.1270885393
  0
VERTEX
  8
LAYER_1
 10
40.3909
 20
105.7298
 42
-0.1266061314
  0
VERTEX
  8
LAYER_1
 10
40.6246
 20
105.9806
 42
-0.07563807578
  0
VERTEX
  8
LAYER_1
 10
40.9964
 20
106.1358
 42
-0.05390168986
  0
VERTEX
  8
LAYER_1
 10
41.5874
 20
106.1921
 42
-0.08243017286
  0
VERTEX
  8
LAYER_1
 10
42.2978
 20
106.1017
 42
-0.1432762674
  0
VERTEX
  8
LAYER_1
 10
42.7157
 20
105.8313
 42
-0.1766826643
  0
VERTEX
  8
LAYER_1
 10
42.8632
 20
105.3768
 42
-0.2325062376
  0
SEQEND
  0
POLYLINE
  8
LAYER_1
 40
0.05
 41
0.05
 66
1
 10
0
 20
0
 30
0
 70
1
  0
VERTEX
  8
LAYER_1
 10
41.4646
 20
103.0918
 42
-0.1570560909
  0
VERTEX
  8
LAYER_1
 10
41.2651
 20
102.8086
 42
-0.1552071322
  0
VERTEX
  8
LAYER_1
 10
40.9546
 20
102.7165
 42
-0.2114856648
  0
VERTEX
  8
LAYER_1
 10
40.4958
 20
102.9127
 42
-0.1985611536
  0
VERTEX
  8
LAYER_1
 10
40.3099
 20
103.4346
 42
-0.1939438039
  0
VERTEX
  8
LAYER_1
 10
40.5001
 20
103.9616
 42
-0.2106969152
  0
VERTEX
  8
LAYER_1
 10
40.9632
 20
104.1612
 42
-0.1597113221
  0
VERTEX
  8
LAYER_1
 10
41.2659
 20
104.0699
 42
-0.1467804859
  0
VERTEX
  8
LAYER_1
 10
41.4646
 20
103.7928
 42
-0.1623156797
  0
VERTEX
  8
LAYER_1
 10
41.7068
 20
104.1433
 42
-0.1583862572
  0
VERTEX
  8
LAYER_1
 10
42.1059
 20
104.2635
 42
-0.2088847405
  0
VERTEX
  8
LAYER_1
 10
42.6449
 20
104.0367
 42
-0.2012888977
  0
VERTEX
  8
LAYER_1
 10
42.8632
 20
103.4397
 42
-0.1949008657
  0
VERTEX
  8
LAYER_1
 10
42.6441
 20
102.8428
 42
-0.2095796473
  0
VERTEX
  8
LAYER_1
 10
42.0974
 20
102.6159
 42
-0.1656211063
  0
VERTEX
  8
LAYER_1
 10
41.6889
 20
102.7396
 42
-0.1715755035
  0
SEQEND
  0
POLYLINE
  8
LAYER_1
 40
0.05
 41
0.05
 66
1
 10
0
 20
0
 30
0
 70
1
  0
VERTEX
  8
LAYER_1
 10
42.8206
 20
101.8336
  0
VERTEX
  8
LAYER_1
 10
42.8206
 20
101.5265
  0
VERTEX
  8
LAYER_1
 10
40.8643
 20
101.5265
 42
-0.04924412438
  0
VERTEX
  8
LAYER_1
 10
41.0757
 20
101.2357
  0
VERTEX
  8
LAYER_1
 10
41.2344
 20
100.9125
  0
VERTEX
  8
LAYER_1
 10
40.9376
 20
100.9125
 42
0.07430404801
  0
VERTEX
  8
LAYER_1
 10
40.6442
 20
101.3628
 42
0.1018425065
  0
VERTEX
  8
LAYER_1
 10
40.3099
 20
101.6357
  0
VERTEX
  8
LAYER_1
 10
40.3099
 20
101.8336
  0
SEQEND
  0
POLYLINE
  8
LAYER_1
 40
0.05
 41
0.05
 66
1
 10
0
 20
0
 30
0
 70
1
  0
VERTEX
  8
LAYER_1
 10
40.9444
 20
103.0304
 42
0.2069798018
  0
VERTEX
  8
LAYER_1
 10
41.2344
 20
103.1446
 42
0.1999410038
  0
VERTEX
  8
LAYER_1
 10
41.3469
 20
103.4414
 42
0.2032517885
  0
VERTEX
  8
LAYER_1
 10
41.2352
 20
103.7322
 42
0.2059314696
  0
VERTEX
  8
LAYER_1
 10
40.9615
 20
103.8457
 42
0.2066030359
  0
VERTEX
  8
LAYER_1
 10
40.6775
 20
103.7288
 42
0.2013166245
  0
VERTEX
  8
LAYER_1
 10
40.5624
 20
103.438
 42
0.2006722393
  0
VERTEX
  8
LAYER_1
 10
40.6749
 20
103.1463
 42
0.2085910646
  0
SEQEND
  0
POLYLINE
  8
LAYER_1
 40
0.05
 41
0.05
 66
1
 10
0
 20
0
 30
0
 70
1
  0
VERTEX
  8
LAYER_1
 10
40.7431
 20
105.0356
 42
0.1313348878
  0
VERTEX
  8
LAYER_1
 10
41.3449
 20
104.8841
 42
0.02285684236
  0
VERTEX
  8
LAYER_1
 10
41.5874
 20
104.877
 42
0.1313029515
  0
VERTEX
  8
LAYER_1
 10
42.407
 20
105.0211
 42
0.2494333433
  0
VERTEX
  8
LAYER_1
 10
42.6108
 20
105.3768
 42
0.2555058567
  0
VERTEX
  8
LAYER_1
 10
42.4061
 20
105.7324
 42
0.1332102607
  0
VERTEX
  8
LAYER_1
 10
41.8033
 20
105.8714
 42
0.01894079829
  0
VERTEX
  8
LAYER_1
 10
41.5874
 20
105.8765
 42
0.131538313
  0
VERTEX
  8
LAYER_1
 10
40.767
 20
105.7324
 42
0.249374636
  0
VERTEX
  8
LAYER_1
 10
40.5641
 20
105.3734
 42
0.2537874064
  0
SEQEND
  0
POLYLINE
  8
LAYER_1
 40
0.05
 41
0.05
 66
1
 10
0
 20
0
 30
0
 70
1
  0
VERTEX
  8
LAYER_1
 10
42.0991
 20
102.9314
 42
0.1165152624
  0
VERTEX
  8
LAYER_1
 10
42.3533
 20
102.9937
 42
0.1523015122
  0
VERTEX
  8
LAYER_1
 10
42.5434
 20
103.1788
 42
0.1267926635
  0
VERTEX
  8
LAYER_1
 10
42.6108
 20
103.4431
 42
0.2024208419
  0
VERTEX
  8
LAYER_1
 10
42.4692
 20
103.8064
 42
0.2058252948
  0
VERTEX
  8
LAYER_1
 10
42.1093
 20
103.9497
 42
0.2063397469
  0
VERTEX
  8
LAYER_1
 10
41.7426
 20
103.8022
 42
0.2015495751
  0
VERTEX
  8
LAYER_1
 10
41.5977
 20
103.4329
 42
0.2050035451
  0
VERTEX
  8
LAYER_1
 10
41.7409
 20
103.0739
 42
0.2032531692
  0
SEQEND
  0
ENDBLK
  0
BLOCK
  8
LAYER_1
  2
AIGNBL01010066
 70
64
 10
0
 20
0
 30
0
  3
AIGNBL01010066
  0
POLYLINE
  8
LAYER_1
 40
0.05
 41
0.05
 66
1
 10
0
 20
0
 30
0
 70
1
  0
VERTEX
  8
LAYER_1
 10
215.151
 20
109.7926
  0
VERTEX
  8
LAYER_1
 10
214.8457
 20
109.7687
 42
0.1441722311
  0
VERTEX
  8
LAYER_1
 10
214.7297
 20
110.0314
 42
0.2114940466
  0
VERTEX
  8
LAYER_1
 10
214.4227
 20
110.1627
 42
0.1640195436
  0
VERTEX
  8
LAYER_1
 10
214.1651
 20
110.0809
 42
0.1360619874
  0
VERTEX
  8
LAYER_1
 10
213.9366
 20
109.7721
 42
0.08730184652
  0
VERTEX
  8
LAYER_1
 10
213.8496
 20
109.1939
 42
-0.1334722926
  0
VERTEX
  8
LAYER_1
 10
214.1208
 20
109.4447
 42
-0.1198709629
  0
VERTEX
  8
LAYER_1
 10
214.4568
 20
109.5265
 42
-0.2108180459
  0
VERTEX
  8
LAYER_1
 10
214.9796
 20
109.3005
 42
-0.1998423072
  0
VERTEX
  8
LAYER_1
 10
215.1953
 20
108.7164
 42
-0.1183156767
  0
VERTEX
  8
LAYER_1
 10
215.0939
 20
108.2789
 42
-0.1437178206
  0
VERTEX
  8
LAYER_1
 10
214.815
 20
107.9693
 42
-0.1375185054
  0
VERTEX
  8
LAYER_1
 10
214.4125
 20
107.8618
 42
-0.2239273394
  0
VERTEX
  8
LAYER_1
 10
213.7865
 20
108.1441
 42
-0.1382970555
  0
VERTEX
  8
LAYER_1
 10
213.5729
 20
108.6721
 42
-0.05366627044
  0
VERTEX
  8
LAYER_1
 10
213.5443
 20
109.0745
 42
-0.09546693789
  0
VERTEX
  8
LAYER_1
 10
213.6709
 20
109.8842
 42
-0.07916847963
  0
VERTEX
  8
LAYER_1
 10
213.8121
 20
110.1286
 42
-0.2344341387
  0
VERTEX
  8
LAYER_1
 10
214.4415
 20
110.4152
 42
-0.1841117056
  0
VERTEX
  8
LAYER_1
 10
214.925
 20
110.2497
 42
-0.1873406759
  0
SEQEND
  0
POLYLINE
  8
LAYER_1
 40
0.05
 41
0.05
 66
1
 10
0
 20
0
 30
0
 70
1
  0
VERTEX
  8
LAYER_1
 10
213.8974
 20
108.7147
 42
0.1095729064
  0
VERTEX
  8
LAYER_1
 10
213.9647
 20
108.4111
 42
0.1494703983
  0
VERTEX
  8
LAYER_1
 10
214.1532
 20
108.1902
 42
0.1444433184
  0
VERTEX
  8
LAYER_1
 10
214.4073
 20
108.1143
 42
0.2204289188
  0
VERTEX
  8
LAYER_1
 10
214.7416
 20
108.2712
 42
0.1875611036
  0
VERTEX
  8
LAYER_1
 10
214.8815
 20
108.6976
 42
0.1915115683
  0
VERTEX
  8
LAYER_1
 10
214.7434
 20
109.1061
 42
0.2151477105
  0
VERTEX
  8
LAYER_1
 10
214.3954
 20
109.2553
 42
0.202722035
  0
VERTEX
  8
LAYER_1
 10
214.0423
 20
109.1061
 42
0.1998713053
  0
SEQEND
  0
POLYLINE
  8
LAYER_1
 40
0.05
 41
0.05
 66
1
 10
0
 20
0
 30
0
 70
1
  0
VERTEX
  8
LAYER_1
 10
215.7474
 20
108.1211
 42
-0.130463245
  0
VERTEX
  8
LAYER_1
 10
215.5293
 20
108.6997
 42
-0.05026566347
  0
VERTEX
  8
LAYER_1
 10
215.5001
 20
109.1376
 42
-0.08328331612
  0
VERTEX
  8
LAYER_1
 10
215.5914
 20
109.8515
 42
-0.1432131554
  0
VERTEX
  8
LAYER_1
 10
215.8626
 20
110.2685
 42
-0.1759551525
  0
VERTEX
  8
LAYER_1
 10
216.3154
 20
110.4152
 42
-0.1269326612
  0
VERTEX
  8
LAYER_1
 10
216.6685
 20
110.3341
 42
-0.1266457961
  0
VERTEX
  8
LAYER_1
 10
216.9192
 20
110.1005
 42
-0.07585267036
  0
VERTEX
  8
LAYER_1
 10
217.0744
 20
109.7286
 42
-0.05391468072
  0
VERTEX
  8
LAYER_1
 10
217.1307
 20
109.1376
 42
-0.08242586486
  0
VERTEX
  8
LAYER_1
 10
217.0403
 20
108.4273
 42
-0.1432762674
  0
VERTEX
  8
LAYER_1
 10
216.7699
 20
108.0094
 42
-0.1767786771
  0
VERTEX
  8
LAYER_1
 10
216.3154
 20
107.8618
 42
-0.2325161792
  0
SEQEND
  0
POLYLINE
  8
LAYER_1
 40
0.05
 41
0.05
 66
1
 10
0
 20
0
 30
0
 70
1
  0
VERTEX
  8
LAYER_1
 10
215.9743
 20
109.9819
 42
0.1314658204
  0
VERTEX
  8
LAYER_1
 10
215.8227
 20
109.3801
 42
0.02287296517
  0
VERTEX
  8
LAYER_1
 10
215.8156
 20
109.1376
 42
0.1314154093
  0
VERTEX
  8
LAYER_1
 10
215.9598
 20
108.3181
 42
0.2495677914
  0
VERTEX
  8
LAYER_1
 10
216.3154
 20
108.1143
 42
0.2555058567
  0
VERTEX
  8
LAYER_1
 10
216.671
 20
108.319
 42
0.1332065905
  0
VERTEX
  8
LAYER_1
 10
216.81
 20
108.9218
 42
0.01894154599
  0
VERTEX
  8
LAYER_1
 10
216.8151
 20
109.1376
 42
0.1315372945
  0
VERTEX
  8
LAYER_1
 10
216.671
 20
109.9581
 42
0.2494533231
  0
VERTEX
  8
LAYER_1
 10
216.312
 20
110.161
 42
0.2540515408
  0
SEQEND
  0
ENDBLK
  0
BLOCK
  8
LAYER_1
  2
AIGNBL01010067
 70
64
 10
0
 20
0
 30
0
  3
AIGNBL01010067
  0
POLYLINE
  8
LAYER_1
 40
0.05
 41
0.05
 66
1
 10
0
 20
0
 30
0
 70
1
  0
VERTEX
  8
LAYER_1
 10
202.7283
 20
90.7635
  0
VERTEX
  8
LAYER_1
 10
202.7283
 20
90.4684
  0
VERTEX
  8
LAYER_1
 10
201.0755
 20
90.4684
 42
-0.0996994872
  0
VERTEX
  8
LAYER_1
 10
201.1113
 20
90.6816
 42
-0.08263447091
  0
VERTEX
  8
LAYER_1
 10
201.3134
 20
91.0142
 42
-0.03645150795
  0
VERTEX
  8
LAYER_1
 10
201.7151
 20
91.3929
 42
0.06770122092
  0
VERTEX
  8
LAYER_1
 10
202.266
 20
91.9225
 42
0.1636197965
  0
VERTEX
  8
LAYER_1
 10
202.4093
 20
92.2917
 42
0.2098830558
  0
VERTEX
  8
LAYER_1
 10
202.2788
 20
92.5996
 42
0.1972659944
  0
VERTEX
  8
LAYER_1
 10
201.9386
 20
92.7249
 42
0.2037097602
  0
VERTEX
  8
LAYER_1
 10
201.5838
 20
92.5919
 42
0.2007761967
  0
VERTEX
  8
LAYER_1
 10
201.449
 20
92.2235
  0
VERTEX
  8
LAYER_1
 10
201.1335
 20
92.2559
 42
-0.1915415251
  0
VERTEX
  8
LAYER_1
 10
201.3774
 20
92.794
 42
-0.1878959257
  0
VERTEX
  8
LAYER_1
 10
201.9454
 20
92.9791
 42
-0.1917083616
  0
VERTEX
  8
LAYER_1
 10
202.515
 20
92.7795
 42
-0.2114409613
  0
VERTEX
  8
LAYER_1
 10
202.7248
 20
92.2849
 42
-0.0994619485
  0
VERTEX
  8
LAYER_1
 10
202.6634
 20
91.9898
 42
-0.07303932832
  0
VERTEX
  8
LAYER_1
 10
202.4596
 20
91.6845
 42
-0.02391533154
  0
VERTEX
  8
LAYER_1
 10
201.9863
 20
91.2445
  0
VERTEX
  8
LAYER_1
 10
201.6315
 20
90.9298
  0
VERTEX
  8
LAYER_1
 10
201.5019
 20
90.7635
  0
SEQEND
  0
POLYLINE
  8
LAYER_1
 40
0.05
 41
0.05
 66
1
 10
0
 20
0
 30
0
 70
1
  0
VERTEX
  8
LAYER_1
 10
203.1029
 20
91.0466
  0
VERTEX
  8
LAYER_1
 10
203.398
 20
91.0739
 42
0.1749641739
  0
VERTEX
  8
LAYER_1
 10
203.5413
 20
90.772
 42
0.1834141996
  0
VERTEX
  8
LAYER_1
 10
203.8125
 20
90.6782
 42
0.1426502515
  0
VERTEX
  8
LAYER_1
 10
204.0607
 20
90.743
 42
0.1153414511
  0
VERTEX
  8
LAYER_1
 10
204.2355
 20
90.9161
 42
0.06630492496
  0
VERTEX
  8
LAYER_1
 10
204.3498
 20
91.2087
 42
0.06110550305
  0
VERTEX
  8
LAYER_1
 10
204.3958
 20
91.5839
  0
VERTEX
  8
LAYER_1
 10
204.3941
 20
91.6453
 42
-0.1229065919
  0
VERTEX
  8
LAYER_1
 10
204.1425
 20
91.4074
 42
-0.1306715079
  0
VERTEX
  8
LAYER_1
 10
203.7971
 20
91.3161
 42
-0.2049402466
  0
VERTEX
  8
LAYER_1
 10
203.2718
 20
91.5412
 42
-0.2002208375
  0
VERTEX
  8
LAYER_1
 10
203.0569
 20
92.1348
 42
-0.1948712671
  0
VERTEX
  8
LAYER_1
 10
203.2812
 20
92.7471
 42
-0.2095694912
  0
VERTEX
  8
LAYER_1
 10
203.8432
 20
92.9791
 42
-0.1471006055
  0
VERTEX
  8
LAYER_1
 10
204.2892
 20
92.8478
 42
-0.1495459143
  0
VERTEX
  8
LAYER_1
 10
204.5962
 20
92.4734
 42
-0.09700715562
  0
VERTEX
  8
LAYER_1
 10
204.7011
 20
91.7698
 42
-0.08804752377
  0
VERTEX
  8
LAYER_1
 10
204.5971
 20
91.0065
 42
-0.1511681239
  0
VERTEX
  8
LAYER_1
 10
204.2875
 20
90.5742
 42
-0.1602462883
  0
VERTEX
  8
LAYER_1
 10
203.8057
 20
90.4258
 42
-0.1837309416
  0
VERTEX
  8
LAYER_1
 10
203.3264
 20
90.5887
 42
-0.1882014135
  0
SEQEND
  0
POLYLINE
  8
LAYER_1
 40
0.05
 41
0.05
 66
1
 10
0
 20
0
 30
0
 70
1
  0
VERTEX
  8
LAYER_1
 10
204.36
 20
92.1502
 42
0.1885287304
  0
VERTEX
  8
LAYER_1
 10
204.2193
 20
92.5697
 42
0.2179598613
  0
VERTEX
  8
LAYER_1
 10
203.8807
 20
92.7249
 42
0.2178301602
  0
VERTEX
  8
LAYER_1
 10
203.5242
 20
92.5578
 42
0.1907762775
  0
VERTEX
  8
LAYER_1
 10
203.3724
 20
92.1246
 42
0.1985218562
  0
VERTEX
  8
LAYER_1
 10
203.5166
 20
91.7365
 42
0.2092394082
  0
VERTEX
  8
LAYER_1
 10
203.8722
 20
91.5873
 42
0.2157271711
  0
VERTEX
  8
LAYER_1
 10
204.2227
 20
91.7365
 42
0.1914837979
  0
SEQEND
  0
POLYLINE
  8
LAYER_1
 40
0.05
 41
0.05
 66
1
 10
0
 20
0
 30
0
 70
1
  0
VERTEX
  8
LAYER_1
 10
205.2464
 20
90.685
 42
-0.1304691712
  0
VERTEX
  8
LAYER_1
 10
205.0283
 20
91.2636
 42
-0.0502659887
  0
VERTEX
  8
LAYER_1
 10
204.9991
 20
91.7016
 42
-0.08314795143
  0
VERTEX
  8
LAYER_1
 10
205.0903
 20
92.4154
 42
-0.1432131554
  0
VERTEX
  8
LAYER_1
 10
205.3615
 20
92.8324
 42
-0.1759146869
  0
VERTEX
  8
LAYER_1
 10
205.8144
 20
92.9791
 42
-0.1270885391
  0
VERTEX
  8
LAYER_1
 10
206.1674
 20
92.8981
 42
-0.1268020148
  0
VERTEX
  8
LAYER_1
 10
206.4181
 20
92.6644
 42
-0.07578006271
  0
VERTEX
  8
LAYER_1
 10
206.5734
 20
92.2926
 42
-0.05384887403
  0
VERTEX
  8
LAYER_1
 10
206.6296
 20
91.7016
 42
-0.08256479786
  0
VERTEX
  8
LAYER_1
 10
206.5392
 20
90.9912
 42
-0.1432312421
  0
VERTEX
  8
LAYER_1
 10
206.2689
 20
90.5733
 42
-0.1766826643
  0
VERTEX
  8
LAYER_1
 10
205.8144
 20
90.4258
 42
-0.2325062376
  0
SEQEND
  0
POLYLINE
  8
LAYER_1
 40
0.05
 41
0.05
 66
1
 10
0
 20
0
 30
0
 70
1
  0
VERTEX
  8
LAYER_1
 10
205.4732
 20
92.5459
 42
0.131334888
  0
VERTEX
  8
LAYER_1
 10
205.3217
 20
91.9441
 42
0.02285684257
  0
VERTEX
  8
LAYER_1
 10
205.3146
 20
91.7016
 42
0.1313878899
  0
VERTEX
  8
LAYER_1
 10
205.4587
 20
90.882
 42
0.2494333433
  0
VERTEX
  8
LAYER_1
 10
205.8144
 20
90.6782
 42
0.2554236079
  0
VERTEX
  8
LAYER_1
 10
206.17
 20
90.8829
 42
0.1330750851
  0
VERTEX
  8
LAYER_1
 10
206.309
 20
91.4857
 42
0.01894910124
  0
VERTEX
  8
LAYER_1
 10
206.3141
 20
91.7016
 42
0.131453424
  0
VERTEX
  8
LAYER_1
 10
206.17
 20
92.522
 42
0.2494142799
  0
VERTEX
  8
LAYER_1
 10
205.8109
 20
92.7249
 42
0.2539999681
  0
SEQEND
  0
ENDBLK
  0
BLOCK
  8
LAYER_2
  2
AIGNBL02010002
 70
64
 10
0
 20
0
 30
0
  3
AIGNBL02010002
  0
POLYLINE
  8
LAYER_2
 40
0.7056
 41
0.7056
 66
1
 10
0
 20
0
 30
0
 70
1
  0
VERTEX
  8
LAYER_2
 10
251.6749
 20
230.337
  0
VERTEX
  8
LAYER_2
 10
251.6749
 20
33.3285
  0
VERTEX
  8
LAYER_2
 10
-30.3177
 20
33.3285
  0
VERTEX
  8
LAYER_2
 10
-30.3177
 20
230.337
  0
SEQEND
  0
ENDBLK
  0
BLOCK
  8
LAYER_2
  2
AIGNBL02010003
 70
64
 10
0
 20
0
 30
0
  3
AIGNBL02010003
  0
INSERT
  8
LAYER_2
  2
AIGNBL02020004
 10
0
 20
0
 30
0
  0
POLYLINE
  8
LAYER_2
 40
0.05
 41
0.05
 66
1
 10
0
 20
0
 30
0
  0
VERTEX
  8
LAYER_2
 10
-6.457
 20
223.2684
  0
VERTEX
  8
LAYER_2
 10
-8.0924
 20
223.2684
  0
VERTEX
  8
LAYER_2
 10
-8.0924
 20
216.1939
 42
0.09304299953
  0
VERTEX
  8
LAYER_2
 10
-7.9518
 20
215.4241
 42
0.2872011141
  0
VERTEX
  8
LAYER_2
 10
-6.4597
 20
214.3359
  0
VERTEX
  8
LAYER_2
 10
-6.457
 20
223.2684
  0
SEQEND
  0
INSERT
  8
LAYER_2
  2
AIGNBL02020005
 10
0
 20
0
 30
0
  0
ENDBLK
  0
BLOCK
  8
LAYER_2
  2
AIGNBL02010006
 70
64
 10
0
 20
0
 30
0
  3
AIGNBL02010006
  0
INSERT
  8
LAYER_2
  2
AIGNBL02020007
 10
0
 20
0
 30
0
  0
INSERT
  8
LAYER_2
  2
AIGNBL02020010
 10
0
 20
0
 30
0
  0
ENDBLK
  0
ENDSEC
  0
SECTION
  2
ENTITIES
  0
INSERT
  8
LAYER_1
  2
AIGNBL01010002
 10
0
 20
0
 30
0
  0
POLYLINE
  8
LAYER_1
 40
0.1411
 41
0.1411
 66
1
 10
0
 20
0
 30
0
  0
VERTEX
  8
LAYER_1
 10
149.8946
 20
189.624
  0
VERTEX
  8
LAYER_1
 10
46.8774
 20
189.624
  0
SEQEND
  0
INSERT
  8
LAYER_1
  2
AIGNBL01010003
 10
0
 20
0
 30
0
  0
POLYLINE
  8
LAYER_1
 40
0.1411
 41
0.1411
 66
1
 10
0
 20
0
 30
0
  0
VERTEX
  8
LAYER_1
 10
43.4057
 20
186.1134
  0
VERTEX
  8
LAYER_1
 10
43.4057
 20
139.1102
  0
SEQEND
  0
INSERT
  8
LAYER_1
  2
AIGNBL01010004
 10
0
 20
0
 30
0
  0
POLYLINE
  8
LAYER_1
 40
0.1411
 41
0.1411
 66
1
 10
0
 20
0
 30
0
  0
VERTEX
  8
LAYER_1
 10
149.8946
 20
135.5994
  0
VERTEX
  8
LAYER_1
 10
46.8774
 20
135.5994
  0
SEQEND
  0
INSERT
  8
LAYER_1
  2
AIGNBL01010005
 10
0
 20
0
 30
0
  0
POLYLINE
  8
LAYER_1
 40
0.1411
 41
0.1411
 66
1
 10
0
 20
0
 30
0
  0
VERTEX
  8
LAYER_1
 10
153.4052
 20
186.1134
  0
VERTEX
  8
LAYER_1
 10
153.4052
 20
139.1102
  0
SEQEND
  0
INSERT
  8
LAYER_1
  2
AIGNBL01010006
 10
0
 20
0
 30
0
  0
POLYLINE
  8
LAYER_1
 40
0.0353
 41
0.0353
 66
1
 10
0
 20
0
 30
0
  0
VERTEX
  8
LAYER_1
 10
43.4057
 20
139.032
  0
VERTEX
  8
LAYER_1
 10
43.4057
 20
126.5109
  0
SEQEND
  0
POLYLINE
  8
LAYER_1
 40
0.0353
 41
0.0353
 66
1
 10
0
 20
0
 30
0
  0
VERTEX
  8
LAYER_1
 10
153.4052
 20
139.032
  0
VERTEX
  8
LAYER_1
 10
153.4052
 20
126.5109
  0
SEQEND
  0
POLYLINE
  8
LAYER_1
 40
0.0353
 41
0.0353
 66
1
 10
0
 20
0
 30
0
  0
VERTEX
  8
LAYER_1
 10
44.8879
 20
126.6668
  0
VERTEX
  8
LAYER_1
 10
94.7389
 20
126.6668
  0
SEQEND
  0
POLYLINE
  8
LAYER_1
 40
0.0353
 41
0.0353
 66
1
 10
0
 20
0
 30
0
  0
VERTEX
  8
LAYER_1
 10
151.884
 20
126.6668
  0
VERTEX
  8
LAYER_1
 10
102.0721
 20
126.6668
  0
SEQEND
  0
POLYLINE
  8
LAYER_1
 40
0.05
 41
0.05
 66
1
 10
0
 20
0
 30
0
 70
1
  0
VERTEX
  8
LAYER_1
 10
44.8879
 20
126.9009
  0
VERTEX
  8
LAYER_1
 10
44.8879
 20
126.3938
  0
VERTEX
  8
LAYER_1
 10
43.4057
 20
126.6667
  0
SEQEND
  0
POLYLINE
  8
LAYER_1
 66
1
 10
0
 20
0
 30
0
 70
1
  0
VERTEX
  8
LAYER_1
 10
44.8879
 20
126.9009
  0
VERTEX
  8
LAYER_1
 10
44.8879
 20
126.3938
  0
VERTEX
  8
LAYER_1
 10
43.4057
 20
126.6667
  0
SEQEND
  0
POLYLINE
  8
LAYER_1
 40
0.05
 41
0.05
 66
1
 10
0
 20
0
 30
0
 70
1
  0
VERTEX
  8
LAYER_1
 10
151.884
 20
126.9009
  0
VERTEX
  8
LAYER_1
 10
151.884
 20
126.3938
  0
VERTEX
  8
LAYER_1
 10
153.4052
 20
126.6667
  0
SEQEND
  0
POLYLINE
  8
LAYER_1
 66
1
 10
0
 20
0
 30
0
 70
1
  0
VERTEX
  8
LAYER_1
 10
151.884
 20
126.9009
  0
VERTEX
  8
LAYER_1
 10
151.884
 20
126.3938
  0
VERTEX
  8
LAYER_1
 10
153.4052
 20
126.6667
  0
SEQEND
  0
INSERT
  8
LAYER_1
  2
AIGNBL01010007
 10
0
 20
0
 30
0
  0
POLYLINE
  8
LAYER_1
 40
0.0353
 41
0.0353
 66
1
 10
0
 20
0
 30
0
  0
VERTEX
  8
LAYER_1
 10
46.8383
 20
189.624
  0
VERTEX
  8
LAYER_1
 10
35.0972
 20
189.624
  0
SEQEND
  0
POLYLINE
  8
LAYER_1
 40
0.0353
 41
0.0353
 66
1
 10
0
 20
0
 30
0
  0
VERTEX
  8
LAYER_1
 10
46.8383
 20
135.5994
  0
VERTEX
  8
LAYER_1
 10
35.0972
 20
135.5994
  0
SEQEND
  0
POLYLINE
  8
LAYER_1
 40
0.0353
 41
0.0353
 66
1
 10
0
 20
0
 30
0
  0
VERTEX
  8
LAYER_1
 10
35.2143
 20
188.1028
  0
VERTEX
  8
LAYER_1
 10
35.2143
 20
165.4399
  0
SEQEND
  0
POLYLINE
  8
LAYER_1
 40
0.0353
 41
0.0353
 66
1
 10
0
 20
0
 30
0
  0
VERTEX
  8
LAYER_1
 10
35.2143
 20
137.0817
  0
VERTEX
  8
LAYER_1
 10
35.2143
 20
159.7836
  0
SEQEND
  0
POLYLINE
  8
LAYER_1
 40
0.05
 41
0.05
 66
1
 10
0
 20
0
 30
0
 70
1
  0
VERTEX
  8
LAYER_1
 10
34.9802
 20
188.1028
  0
VERTEX
  8
LAYER_1
 10
35.4873
 20
188.1028
  0
VERTEX
  8
LAYER_1
 10
35.2144
 20
189.624
  0
SEQEND
  0
POLYLINE
  8
LAYER_1
 66
1
 10
0
 20
0
 30
0
 70
1
  0
VERTEX
  8
LAYER_1
 10
34.9802
 20
188.1028
  0
VERTEX
  8
LAYER_1
 10
35.4873
 20
188.1028
  0
VERTEX
  8
LAYER_1
 10
35.2144
 20
189.624
  0
SEQEND
  0
POLYLINE
  8
LAYER_1
 40
0.05
 41
0.05
 66
1
 10
0
 20
0
 30
0
 70
1
  0
VERTEX
  8
LAYER_1
 10
34.9802
 20
137.0817
  0
VERTEX
  8
LAYER_1
 10
35.4873
 20
137.0817
  0
VERTEX
  8
LAYER_1
 10
35.2144
 20
135.5994
  0
SEQEND
  0
POLYLINE
  8
LAYER_1
 66
1
 10
0
 20
0
 30
0
 70
1
  0
VERTEX
  8
LAYER_1
 10
34.9802
 20
137.0817
  0
VERTEX
  8
LAYER_1
 10
35.4873
 20
137.0817
  0
VERTEX
  8
LAYER_1
 10
35.2144
 20
135.5994
  0
SEQEND
  0
INSERT
  8
LAYER_1
  2
AIGNBL01010008
 10
0
 20
0
 30
0
  0
INSERT
  8
LAYER_1
  2
AIGNBL01010009
 10
0
 20
0
 30
0
  0
POLYLINE
  8
LAYER_1
 40
0.0353
 41
0.0353
 66
1
 10
0
 20
0
 30
0
  0
VERTEX
  8
LAYER_1
 10
50.3879
 20
160.7589
  0
VERTEX
  8
LAYER_1
 10
50.3879
 20
130.0603
  0
SEQEND
  0
POLYLINE
  8
LAYER_1
 40
0.0353
 41
0.0353
 66
1
 10
0
 20
0
 30
0
  0
VERTEX
  8
LAYER_1
 10
88.3807
 20
160.7589
  0
VERTEX
  8
LAYER_1
 10
88.3807
 20
130.0603
  0
SEQEND
  0
POLYLINE
  8
LAYER_1
 40
0.0353
 41
0.0353
 66
1
 10
0
 20
0
 30
0
  0
VERTEX
  8
LAYER_1
 10
51.8702
 20
130.1774
  0
VERTEX
  8
LAYER_1
 10
66.5758
 20
130.1774
  0
SEQEND
  0
POLYLINE
  8
LAYER_1
 40
0.0353
 41
0.0353
 66
1
 10
0
 20
0
 30
0
  0
VERTEX
  8
LAYER_1
 10
86.8984
 20
130.1774
  0
VERTEX
  8
LAYER_1
 10
72.1928
 20
130.1774
  0
SEQEND
  0
POLYLINE
  8
LAYER_1
 40
0.05
 41
0.05
 66
1
 10
0
 20
0
 30
0
 70
1
  0
VERTEX
  8
LAYER_1
 10
51.8702
 20
130.4505
  0
VERTEX
  8
LAYER_1
 10
51.8702
 20
129.9434
  0
VERTEX
  8
LAYER_1
 10
50.388
 20
130.1776
  0
SEQEND
  0
POLYLINE
  8
LAYER_1
 66
1
 10
0
 20
0
 30
0
 70
1
  0
VERTEX
  8
LAYER_1
 10
51.8702
 20
130.4505
  0
VERTEX
  8
LAYER_1
 10
51.8702
 20
129.9434
  0
VERTEX
  8
LAYER_1
 10
50.388
 20
130.1776
  0
SEQEND
  0
POLYLINE
  8
LAYER_1
 40
0.05
 41
0.05
 66
1
 10
0
 20
0
 30
0
 70
1
  0
VERTEX
  8
LAYER_1
 10
86.8984
 20
130.4505
  0
VERTEX
  8
LAYER_1
 10
86.8984
 20
129.9434
  0
VERTEX
  8
LAYER_1
 10
88.3807
 20
130.1776
  0
SEQEND
  0
POLYLINE
  8
LAYER_1
 66
1
 10
0
 20
0
 30
0
 70
1
  0
VERTEX
  8
LAYER_1
 10
86.8984
 20
130.4505
  0
VERTEX
  8
LAYER_1
 10
86.8984
 20
129.9434
  0
VERTEX
  8
LAYER_1
 10
88.3807
 20
130.1776
  0
SEQEND
  0
INSERT
  8
LAYER_1
  2
AIGNBL0101000A
 10
0
 20
0
 30
0
  0
POLYLINE
  8
LAYER_1
 40
0.0353
 41
0.0353
 66
1
 10
0
 20
0
 30
0
  0
VERTEX
  8
LAYER_1
 10
69.4623
 20
179.5992
  0
VERTEX
  8
LAYER_1
 10
73.09
 20
179.5992
  0
SEQEND
  0
POLYLINE
  8
LAYER_1
 40
0.0353
 41
0.0353
 66
1
 10
0
 20
0
 30
0
  0
VERTEX
  8
LAYER_1
 10
69.4623
 20
183.6169
  0
VERTEX
  8
LAYER_1
 10
73.09
 20
183.6169
  0
SEQEND
  0
POLYLINE
  8
LAYER_1
 40
0.0353
 41
0.0353
 66
1
 10
0
 20
0
 30
0
  0
VERTEX
  8
LAYER_1
 10
72.9729
 20
178.117
  0
VERTEX
  8
LAYER_1
 10
72.9729
 20
176.5957
  0
SEQEND
  0
POLYLINE
  8
LAYER_1
 40
0.0353
 41
0.0353
 66
1
 10
0
 20
0
 30
0
  0
VERTEX
  8
LAYER_1
 10
72.9729
 20
185.0992
  0
VERTEX
  8
LAYER_1
 10
72.9729
 20
186.6205
  0
SEQEND
  0
POLYLINE
  8
LAYER_1
 40
0.0353
 41
0.0353
 66
1
 10
0
 20
0
 30
0
  0
VERTEX
  8
LAYER_1
 10
72.9729
 20
179.5992
  0
VERTEX
  8
LAYER_1
 10
72.9729
 20
179.7944
  0
SEQEND
  0
POLYLINE
  8
LAYER_1
 40
0.0353
 41
0.0353
 66
1
 10
0
 20
0
 30
0
  0
VERTEX
  8
LAYER_1
 10
72.9729
 20
183.6169
  0
SEQEND
  0
POLYLINE
  8
LAYER_1
 40
0.05
 41
0.05
 66
1
 10
0
 20
0
 30
0
 70
1
  0
VERTEX
  8
LAYER_1
 10
72.7389
 20
178.117
  0
VERTEX
  8
LAYER_1
 10
73.246
 20
178.117
  0
VERTEX
  8
LAYER_1
 10
72.9731
 20
179.5992
  0
SEQEND
  0
POLYLINE
  8
LAYER_1
 66
1
 10
0
 20
0
 30
0
 70
1
  0
VERTEX
  8
LAYER_1
 10
72.7389
 20
178.117
  0
VERTEX
  8
LAYER_1
 10
73.246
 20
178.117
  0
VERTEX
  8
LAYER_1
 10
72.9731
 20
179.5992
  0
SEQEND
  0
POLYLINE
  8
LAYER_1
 40
0.05
 41
0.05
 66
1
 10
0
 20
0
 30
0
 70
1
  0
VERTEX
  8
LAYER_1
 10
72.7389
 20
185.0992
  0
VERTEX
  8
LAYER_1
 10
73.246
 20
185.0992
  0
VERTEX
  8
LAYER_1
 10
72.9731
 20
183.617
  0
SEQEND
  0
POLYLINE
  8
LAYER_1
 66
1
 10
0
 20
0
 30
0
 70
1
  0
VERTEX
  8
LAYER_1
 10
72.7389
 20
185.0992
  0
VERTEX
  8
LAYER_1
 10
73.246
 20
185.0992
  0
VERTEX
  8
LAYER_1
 10
72.9731
 20
183.617
  0
SEQEND
  0
INSERT
  8
LAYER_1
  2
AIGNBL0101000B
 10
0
 20
0
 30
0
  0
POLYLINE
  8
LAYER_1
 40
0.0353
 41
0.0353
 66
1
 10
0
 20
0
 30
0
  0
VERTEX
  8
LAYER_1
 10
69.4623
 20
183.6169
  0
VERTEX
  8
LAYER_1
 10
73.09
 20
183.6169
  0
SEQEND
  0
POLYLINE
  8
LAYER_1
 40
0.0353
 41
0.0353
 66
1
 10
0
 20
0
 30
0
  0
VERTEX
  8
LAYER_1
 10
69.4623
 20
189.624
  0
VERTEX
  8
LAYER_1
 10
73.09
 20
189.624
  0
SEQEND
  0
POLYLINE
  8
LAYER_1
 40
0.0353
 41
0.0353
 66
1
 10
0
 20
0
 30
0
  0
VERTEX
  8
LAYER_1
 10
72.9729
 20
182.0957
  0
VERTEX
  8
LAYER_1
 10
72.9729
 20
180.6135
  0
SEQEND
  0
POLYLINE
  8
LAYER_1
 40
0.0353
 41
0.0353
 66
1
 10
0
 20
0
 30
0
  0
VERTEX
  8
LAYER_1
 10
72.9729
 20
191.1063
  0
VERTEX
  8
LAYER_1
 10
72.9729
 20
192.5885
  0
SEQEND
  0
POLYLINE
  8
LAYER_1
 40
0.0353
 41
0.0353
 66
1
 10
0
 20
0
 30
0
  0
VERTEX
  8
LAYER_1
 10
72.9729
 20
183.6169
  0
VERTEX
  8
LAYER_1
 10
72.9729
 20
185.6063
  0
SEQEND
  0
POLYLINE
  8
LAYER_1
 40
0.0353
 41
0.0353
 66
1
 10
0
 20
0
 30
0
  0
VERTEX
  8
LAYER_1
 10
72.9729
 20
189.624
  0
VERTEX
  8
LAYER_1
 10
72.9729
 20
189.3511
  0
SEQEND
  0
POLYLINE
  8
LAYER_1
 40
0.05
 41
0.05
 66
1
 10
0
 20
0
 30
0
 70
1
  0
VERTEX
  8
LAYER_1
 10
72.7389
 20
182.0957
  0
VERTEX
  8
LAYER_1
 10
73.246
 20
182.0957
  0
VERTEX
  8
LAYER_1
 10
72.9731
 20
183.6169
  0
SEQEND
  0
POLYLINE
  8
LAYER_1
 66
1
 10
0
 20
0
 30
0
 70
1
  0
VERTEX
  8
LAYER_1
 10
72.7389
 20
182.0957
  0
VERTEX
  8
LAYER_1
 10
73.246
 20
182.0957
  0
VERTEX
  8
LAYER_1
 10
72.9731
 20
183.6169
  0
SEQEND
  0
POLYLINE
  8
LAYER_1
 40
0.05
 41
0.05
 66
1
 10
0
 20
0
 30
0
 70
1
  0
VERTEX
  8
LAYER_1
 10
72.7389
 20
191.1063
  0
VERTEX
  8
LAYER_1
 10
73.246
 20
191.1063
  0
VERTEX
  8
LAYER_1
 10
72.9731
 20
189.624
  0
SEQEND
  0
POLYLINE
  8
LAYER_1
 66
1
 10
0
 20
0
 30
0
 70
1
  0
VERTEX
  8
LAYER_1
 10
72.7389
 20
191.1063
  0
VERTEX
  8
LAYER_1
 10
73.246
 20
191.1063
  0
VERTEX
  8
LAYER_1
 10
72.9731
 20
189.624
  0
SEQEND
  0
INSERT
  8
LAYER_1
  2
AIGNBL0101000C
 10
0
 20
0
 30
0
  0
POLYLINE
  8
LAYER_1
 40
0.0353
 41
0.0353
 66
1
 10
0
 20
0
 30
0
  0
VERTEX
  8
LAYER_1
 10
69.4623
 20
160.6029
  0
VERTEX
  8
LAYER_1
 10
73.09
 20
160.6029
  0
SEQEND
  0
POLYLINE
  8
LAYER_1
 40
0.0353
 41
0.0353
 66
1
 10
0
 20
0
 30
0
  0
VERTEX
  8
LAYER_1
 10
69.4623
 20
179.5992
  0
VERTEX
  8
LAYER_1
 10
73.09
 20
179.5992
  0
SEQEND
  0
POLYLINE
  8
LAYER_1
 40
0.0353
 41
0.0353
 66
1
 10
0
 20
0
 30
0
  0
VERTEX
  8
LAYER_1
 10
72.9729
 20
162.0851
  0
VERTEX
  8
LAYER_1
 10
72.9729
 20
167.3902
  0
SEQEND
  0
POLYLINE
  8
LAYER_1
 40
0.0353
 41
0.0353
 66
1
 10
0
 20
0
 30
0
  0
VERTEX
  8
LAYER_1
 10
72.9729
 20
178.117
  0
VERTEX
  8
LAYER_1
 10
72.9729
 20
172.8118
  0
SEQEND
  0
POLYLINE
  8
LAYER_1
 40
0.05
 41
0.05
 66
1
 10
0
 20
0
 30
0
 70
1
  0
VERTEX
  8
LAYER_1
 10
72.7389
 20
162.0851
  0
VERTEX
  8
LAYER_1
 10
73.246
 20
162.0851
  0
VERTEX
  8
LAYER_1
 10
72.9731
 20
160.6029
  0
SEQEND
  0
POLYLINE
  8
LAYER_1
 66
1
 10
0
 20
0
 30
0
 70
1
  0
VERTEX
  8
LAYER_1
 10
72.7389
 20
162.0851
  0
VERTEX
  8
LAYER_1
 10
73.246
 20
162.0851
  0
VERTEX
  8
LAYER_1
 10
72.9731
 20
160.6029
  0
SEQEND
  0
POLYLINE
  8
LAYER_1
 40
0.05
 41
0.05
 66
1
 10
0
 20
0
 30
0
 70
1
  0
VERTEX
  8
LAYER_1
 10
72.7389
 20
178.117
  0
VERTEX
  8
LAYER_1
 10
73.246
 20
178.117
  0
VERTEX
  8
LAYER_1
 10
72.9731
 20
179.5992
  0
SEQEND
  0
POLYLINE
  8
LAYER_1
 66
1
 10
0
 20
0
 30
0
 70
1
  0
VERTEX
  8
LAYER_1
 10
72.7389
 20
178.117
  0
VERTEX
  8
LAYER_1
 10
73.246
 20
178.117
  0
VERTEX
  8
LAYER_1
 10
72.9731
 20
179.5992
  0
SEQEND
  0
INSERT
  8
LAYER_1
  2
AIGNBL0101000D
 10
0
 20
0
 30
0
  0
POLYLINE
  8
LAYER_1
 40
0.0353
 41
0.0353
 66
1
 10
0
 20
0
 30
0
  0
VERTEX
  8
LAYER_1
 10
88.3807
 20
160.7589
  0
VERTEX
  8
LAYER_1
 10
88.3807
 20
130.0993
  0
SEQEND
  0
POLYLINE
  8
LAYER_1
 40
0.0353
 41
0.0353
 66
1
 10
0
 20
0
 30
0
  0
VERTEX
  8
LAYER_1
 10
108.3912
 20
160.7589
  0
VERTEX
  8
LAYER_1
 10
108.3912
 20
130.0993
  0
SEQEND
  0
POLYLINE
  8
LAYER_1
 40
0.0353
 41
0.0353
 66
1
 10
0
 20
0
 30
0
  0
VERTEX
  8
LAYER_1
 10
89.902
 20
130.2165
  0
VERTEX
  8
LAYER_1
 10
95.558
 20
130.2165
  0
SEQEND
  0
POLYLINE
  8
LAYER_1
 40
0.0353
 41
0.0353
 66
1
 10
0
 20
0
 30
0
  0
VERTEX
  8
LAYER_1
 10
106.909
 20
130.2165
  0
VERTEX
  8
LAYER_1
 10
101.2529
 20
130.2165
  0
SEQEND
  0
POLYLINE
  8
LAYER_1
 40
0.05
 41
0.05
 66
1
 10
0
 20
0
 30
0
 70
1
  0
VERTEX
  8
LAYER_1
 10
89.902
 20
130.4505
  0
VERTEX
  8
LAYER_1
 10
89.902
 20
129.9434
  0
VERTEX
  8
LAYER_1
 10
88.3807
 20
130.2163
  0
SEQEND
  0
POLYLINE
  8
LAYER_1
 66
1
 10
0
 20
0
 30
0
 70
1
  0
VERTEX
  8
LAYER_1
 10
89.902
 20
130.4505
  0
VERTEX
  8
LAYER_1
 10
89.902
 20
129.9434
  0
VERTEX
  8
LAYER_1
 10
88.3807
 20
130.2163
  0
SEQEND
  0
POLYLINE
  8
LAYER_1
 40
0.05
 41
0.05
 66
1
 10
0
 20
0
 30
0
 70
1
  0
VERTEX
  8
LAYER_1
 10
106.909
 20
130.4505
  0
VERTEX
  8
LAYER_1
 10
106.909
 20
129.9434
  0
VERTEX
  8
LAYER_1
 10
108.3912
 20
130.2163
  0
SEQEND
  0
POLYLINE
  8
LAYER_1
 66
1
 10
0
 20
0
 30
0
 70
1
  0
VERTEX
  8
LAYER_1
 10
106.909
 20
130.4505
  0
VERTEX
  8
LAYER_1
 10
106.909
 20
129.9434
  0
VERTEX
  8
LAYER_1
 10
108.3912
 20
130.2163
  0
SEQEND
  0
INSERT
  8
LAYER_1
  2
AIGNBL0101000E
 10
0
 20
0
 30
0
  0
POLYLINE
  8
LAYER_1
 40
0.0353
 41
0.0353
 66
1
 10
0
 20
0
 30
0
  0
VERTEX
  8
LAYER_1
 10
50.3879
 20
160.7589
  0
VERTEX
  8
LAYER_1
 10
50.3879
 20
130.0216
  0
SEQEND
  0
POLYLINE
  8
LAYER_1
 40
0.0353
 41
0.0353
 66
1
 10
0
 20
0
 30
0
  0
VERTEX
  8
LAYER_1
 10
43.4057
 20
160.7589
  0
VERTEX
  8
LAYER_1
 10
43.4057
 20
130.0216
  0
SEQEND
  0
POLYLINE
  8
LAYER_1
 40
0.0353
 41
0.0353
 66
1
 10
0
 20
0
 30
0
  0
VERTEX
  8
LAYER_1
 10
48.9057
 20
130.1774
  0
VERTEX
  8
LAYER_1
 10
48.7105
 20
130.1774
  0
SEQEND
  0
POLYLINE
  8
LAYER_1
 40
0.0353
 41
0.0353
 66
1
 10
0
 20
0
 30
0
  0
VERTEX
  8
LAYER_1
 10
44.8879
 20
130.1774
  0
VERTEX
  8
LAYER_1
 10
45.0441
 20
130.1774
  0
SEQEND
  0
POLYLINE
  8
LAYER_1
 40
0.05
 41
0.05
 66
1
 10
0
 20
0
 30
0
 70
1
  0
VERTEX
  8
LAYER_1
 10
48.9057
 20
130.4115
  0
VERTEX
  8
LAYER_1
 10
48.9057
 20
129.9044
  0
VERTEX
  8
LAYER_1
 10
50.3879
 20
130.1773
  0
SEQEND
  0
POLYLINE
  8
LAYER_1
 66
1
 10
0
 20
0
 30
0
 70
1
  0
VERTEX
  8
LAYER_1
 10
48.9057
 20
130.4115
  0
VERTEX
  8
LAYER_1
 10
48.9057
 20
129.9044
  0
VERTEX
  8
LAYER_1
 10
50.3879
 20
130.1773
  0
SEQEND
  0
POLYLINE
  8
LAYER_1
 40
0.05
 41
0.05
 66
1
 10
0
 20
0
 30
0
 70
1
  0
VERTEX
  8
LAYER_1
 10
44.8879
 20
130.4115
  0
VERTEX
  8
LAYER_1
 10
44.8879
 20
129.9044
  0
VERTEX
  8
LAYER_1
 10
43.4057
 20
130.1773
  0
SEQEND
  0
POLYLINE
  8
LAYER_1
 66
1
 10
0
 20
0
 30
0
 70
1
  0
VERTEX
  8
LAYER_1
 10
44.8879
 20
130.4115
  0
VERTEX
  8
LAYER_1
 10
44.8879
 20
129.9044
  0
VERTEX
  8
LAYER_1
 10
43.4057
 20
130.1773
  0
SEQEND
  0
INSERT
  8
LAYER_1
  2
AIGNBL0101000F
 10
0
 20
0
 30
0
  0
POLYLINE
  8
LAYER_1
 40
0.0353
 41
0.0353
 66
1
 10
0
 20
0
 30
0
  0
VERTEX
  8
LAYER_1
 10
108.3912
 20
160.7589
  0
VERTEX
  8
LAYER_1
 10
108.3912
 20
130.0993
  0
SEQEND
  0
POLYLINE
  8
LAYER_1
 40
0.0353
 41
0.0353
 66
1
 10
0
 20
0
 30
0
  0
VERTEX
  8
LAYER_1
 10
146.384
 20
160.7199
  0
VERTEX
  8
LAYER_1
 10
146.384
 20
130.0993
  0
SEQEND
  0
POLYLINE
  8
LAYER_1
 40
0.0353
 41
0.0353
 66
1
 10
0
 20
0
 30
0
  0
VERTEX
  8
LAYER_1
 10
109.9125
 20
130.2165
  0
VERTEX
  8
LAYER_1
 10
124.5791
 20
130.2165
  0
SEQEND
  0
POLYLINE
  8
LAYER_1
 40
0.0353
 41
0.0353
 66
1
 10
0
 20
0
 30
0
  0
VERTEX
  8
LAYER_1
 10
144.9017
 20
130.2165
  0
VERTEX
  8
LAYER_1
 10
130.2351
 20
130.2165
  0
SEQEND
  0
POLYLINE
  8
LAYER_1
 40
0.05
 41
0.05
 66
1
 10
0
 20
0
 30
0
 70
1
  0
VERTEX
  8
LAYER_1
 10
109.9125
 20
130.4895
  0
VERTEX
  8
LAYER_1
 10
109.9125
 20
129.9824
  0
VERTEX
  8
LAYER_1
 10
108.3913
 20
130.2166
  0
SEQEND
  0
POLYLINE
  8
LAYER_1
 66
1
 10
0
 20
0
 30
0
 70
1
  0
VERTEX
  8
LAYER_1
 10
109.9125
 20
130.4895
  0
VERTEX
  8
LAYER_1
 10
109.9125
 20
129.9824
  0
VERTEX
  8
LAYER_1
 10
108.3913
 20
130.2166
  0
SEQEND
  0
POLYLINE
  8
LAYER_1
 40
0.05
 41
0.05
 66
1
 10
0
 20
0
 30
0
 70
1
  0
VERTEX
  8
LAYER_1
 10
144.9017
 20
130.4895
  0
VERTEX
  8
LAYER_1
 10
144.9017
 20
129.9824
  0
VERTEX
  8
LAYER_1
 10
146.3839
 20
130.2166
  0
SEQEND
  0
POLYLINE
  8
LAYER_1
 66
1
 10
0
 20
0
 30
0
 70
1
  0
VERTEX
  8
LAYER_1
 10
144.9017
 20
130.4895
  0
VERTEX
  8
LAYER_1
 10
144.9017
 20
129.9824
  0
VERTEX
  8
LAYER_1
 10
146.3839
 20
130.2166
  0
SEQEND
  0
INSERT
  8
LAYER_1
  2
AIGNBL01010010
 10
0
 20
0
 30
0
  0
POLYLINE
  8
LAYER_1
 40
0.0353
 41
0.0353
 66
1
 10
0
 20
0
 30
0
  0
VERTEX
  8
LAYER_1
 10
146.384
 20
160.7589
  0
VERTEX
  8
LAYER_1
 10
146.384
 20
130.0993
  0
SEQEND
  0
POLYLINE
  8
LAYER_1
 40
0.0353
 41
0.0353
 66
1
 10
0
 20
0
 30
0
  0
VERTEX
  8
LAYER_1
 10
153.4052
 20
160.7589
  0
VERTEX
  8
LAYER_1
 10
153.4052
 20
130.0993
  0
SEQEND
  0
POLYLINE
  8
LAYER_1
 40
0.0353
 41
0.0353
 66
1
 10
0
 20
0
 30
0
  0
VERTEX
  8
LAYER_1
 10
147.9052
 20
130.2555
  0
VERTEX
  8
LAYER_1
 10
148.0614
 20
130.2555
  0
SEQEND
  0
POLYLINE
  8
LAYER_1
 40
0.0353
 41
0.0353
 66
1
 10
0
 20
0
 30
0
  0
VERTEX
  8
LAYER_1
 10
151.884
 20
130.2555
  0
VERTEX
  8
LAYER_1
 10
151.7278
 20
130.2555
  0
SEQEND
  0
POLYLINE
  8
LAYER_1
 40
0.05
 41
0.05
 66
1
 10
0
 20
0
 30
0
 70
1
  0
VERTEX
  8
LAYER_1
 10
147.9052
 20
130.4895
  0
VERTEX
  8
LAYER_1
 10
147.9052
 20
129.9824
  0
VERTEX
  8
LAYER_1
 10
146.384
 20
130.2553
  0
SEQEND
  0
POLYLINE
  8
LAYER_1
 66
1
 10
0
 20
0
 30
0
 70
1
  0
VERTEX
  8
LAYER_1
 10
147.9052
 20
130.4895
  0
VERTEX
  8
LAYER_1
 10
147.9052
 20
129.9824
  0
VERTEX
  8
LAYER_1
 10
146.384
 20
130.2553
  0
SEQEND
  0
POLYLINE
  8
LAYER_1
 40
0.05
 41
0.05
 66
1
 10
0
 20
0
 30
0
 70
1
  0
VERTEX
  8
LAYER_1
 10
151.884
 20
130.4895
  0
VERTEX
  8
LAYER_1
 10
151.884
 20
129.9824
  0
VERTEX
  8
LAYER_1
 10
153.4052
 20
130.2553
  0
SEQEND
  0
POLYLINE
  8
LAYER_1
 66
1
 10
0
 20
0
 30
0
 70
1
  0
VERTEX
  8
LAYER_1
 10
151.884
 20
130.4895
  0
VERTEX
  8
LAYER_1
 10
151.884
 20
129.9824
  0
VERTEX
  8
LAYER_1
 10
153.4052
 20
130.2553
  0
SEQEND
  0
INSERT
  8
LAYER_1
  2
AIGNBL01010011
 10
0
 20
0
 30
0
  0
POLYLINE
  8
LAYER_1
 40
0.0353
 41
0.0353
 66
1
 10
0
 20
0
 30
0
  0
VERTEX
  8
LAYER_1
 10
127.3876
 20
183.6559
  0
VERTEX
  8
LAYER_1
 10
127.3876
 20
185.9185
  0
SEQEND
  0
POLYLINE
  8
LAYER_1
 40
0.0353
 41
0.0353
 66
1
 10
0
 20
0
 30
0
  0
VERTEX
  8
LAYER_1
 10
127.3876
 20
183.6559
  0
VERTEX
  8
LAYER_1
 10
127.3876
 20
185.9185
  0
SEQEND
  0
POLYLINE
  8
LAYER_1
 40
0.0353
 41
0.0353
 66
1
 10
0
 20
0
 30
0
  0
VERTEX
  8
LAYER_1
 10
69.3063
 20
179.5992
  0
VERTEX
  8
LAYER_1
 10
40.246
 20
179.5992
  0
SEQEND
  0
POLYLINE
  8
LAYER_1
 40
0.0353
 41
0.0353
 66
1
 10
0
 20
0
 30
0
  0
VERTEX
  8
LAYER_1
 10
69.3063
 20
141.6065
  0
VERTEX
  8
LAYER_1
 10
40.246
 20
141.6065
  0
SEQEND
  0
POLYLINE
  8
LAYER_1
 40
0.0353
 41
0.0353
 66
1
 10
0
 20
0
 30
0
  0
VERTEX
  8
LAYER_1
 10
40.3632
 20
178.117
  0
VERTEX
  8
LAYER_1
 10
40.3632
 20
163.4114
  0
SEQEND
  0
POLYLINE
  8
LAYER_1
 40
0.0353
 41
0.0353
 66
1
 10
0
 20
0
 30
0
  0
VERTEX
  8
LAYER_1
 10
40.3632
 20
143.0887
  0
VERTEX
  8
LAYER_1
 10
40.3632
 20
157.7943
  0
SEQEND
  0
POLYLINE
  8
LAYER_1
 40
0.05
 41
0.05
 66
1
 10
0
 20
0
 30
0
 70
1
  0
VERTEX
  8
LAYER_1
 10
40.1291
 20
178.117
  0
VERTEX
  8
LAYER_1
 10
40.6362
 20
178.117
  0
VERTEX
  8
LAYER_1
 10
40.3633
 20
179.5992
  0
SEQEND
  0
POLYLINE
  8
LAYER_1
 66
1
 10
0
 20
0
 30
0
 70
1
  0
VERTEX
  8
LAYER_1
 10
40.1291
 20
178.117
  0
VERTEX
  8
LAYER_1
 10
40.6362
 20
178.117
  0
VERTEX
  8
LAYER_1
 10
40.3633
 20
179.5992
  0
SEQEND
  0
POLYLINE
  8
LAYER_1
 40
0.05
 41
0.05
 66
1
 10
0
 20
0
 30
0
 70
1
  0
VERTEX
  8
LAYER_1
 10
40.1291
 20
143.0887
  0
VERTEX
  8
LAYER_1
 10
40.6362
 20
143.0887
  0
VERTEX
  8
LAYER_1
 10
40.3633
 20
141.6065
  0
SEQEND
  0
POLYLINE
  8
LAYER_1
 66
1
 10
0
 20
0
 30
0
 70
1
  0
VERTEX
  8
LAYER_1
 10
40.1291
 20
143.0887
  0
VERTEX
  8
LAYER_1
 10
40.6362
 20
143.0887
  0
VERTEX
  8
LAYER_1
 10
40.3633
 20
141.6065
  0
SEQEND
  0
INSERT
  8
LAYER_1
  2
AIGNBL01010012
 10
0
 20
0
 30
0
  0
POLYLINE
  8
LAYER_1
 40
0.0353
 41
0.0353
 66
1
 10
0
 20
0
 30
0
  0
VERTEX
  8
LAYER_1
 10
69.2673
 20
141.6065
  0
VERTEX
  8
LAYER_1
 10
40.2461
 20
141.6065
  0
SEQEND
  0
POLYLINE
  8
LAYER_1
 40
0.0353
 41
0.0353
 66
1
 10
0
 20
0
 30
0
  0
VERTEX
  8
LAYER_1
 10
69.2673
 20
135.5994
  0
VERTEX
  8
LAYER_1
 10
40.2461
 20
135.5994
  0
SEQEND
  0
POLYLINE
  8
LAYER_1
 40
0.0353
 41
0.0353
 66
1
 10
0
 20
0
 30
0
  0
VERTEX
  8
LAYER_1
 10
40.3632
 20
143.0887
  0
VERTEX
  8
LAYER_1
 10
40.3632
 20
144.61
  0
SEQEND
  0
POLYLINE
  8
LAYER_1
 40
0.0353
 41
0.0353
 66
1
 10
0
 20
0
 30
0
  0
VERTEX
  8
LAYER_1
 10
40.3632
 20
134.0782
  0
VERTEX
  8
LAYER_1
 10
40.3632
 20
132.5959
  0
SEQEND
  0
POLYLINE
  8
LAYER_1
 40
0.0353
 41
0.0353
 66
1
 10
0
 20
0
 30
0
  0
VERTEX
  8
LAYER_1
 10
40.3632
 20
141.6065
  0
VERTEX
  8
LAYER_1
 10
40.3632
 20
140.4361
  0
SEQEND
  0
POLYLINE
  8
LAYER_1
 40
0.0353
 41
0.0353
 66
1
 10
0
 20
0
 30
0
  0
VERTEX
  8
LAYER_1
 10
40.3632
 20
135.5994
  0
VERTEX
  8
LAYER_1
 10
40.3632
 20
136.7307
  0
SEQEND
  0
POLYLINE
  8
LAYER_1
 40
0.05
 41
0.05
 66
1
 10
0
 20
0
 30
0
 70
1
  0
VERTEX
  8
LAYER_1
 10
40.1291
 20
143.0887
  0
VERTEX
  8
LAYER_1
 10
40.6362
 20
143.0887
  0
VERTEX
  8
LAYER_1
 10
40.3633
 20
141.6065
  0
SEQEND
  0
POLYLINE
  8
LAYER_1
 66
1
 10
0
 20
0
 30
0
 70
1
  0
VERTEX
  8
LAYER_1
 10
40.1291
 20
143.0887
  0
VERTEX
  8
LAYER_1
 10
40.6362
 20
143.0887
  0
VERTEX
  8
LAYER_1
 10
40.3633
 20
141.6065
  0
SEQEND
  0
POLYLINE
  8
LAYER_1
 40
0.05
 41
0.05
 66
1
 10
0
 20
0
 30
0
 70
1
  0
VERTEX
  8
LAYER_1
 10
40.1291
 20
134.0782
  0
VERTEX
  8
LAYER_1
 10
40.6362
 20
134.0782
  0
VERTEX
  8
LAYER_1
 10
40.3633
 20
135.5994
  0
SEQEND
  0
POLYLINE
  8
LAYER_1
 66
1
 10
0
 20
0
 30
0
 70
1
  0
VERTEX
  8
LAYER_1
 10
40.1291
 20
134.0782
  0
VERTEX
  8
LAYER_1
 10
40.6362
 20
134.0782
  0
VERTEX
  8
LAYER_1
 10
40.3633
 20
135.5994
  0
SEQEND
  0
INSERT
  8
LAYER_1
  2
AIGNBL01010013
 10
0
 20
0
 30
0
  0
POLYLINE
  8
LAYER_1
 40
0.0353
 41
0.0353
 66
1
 10
0
 20
0
 30
0
  0
VERTEX
  8
LAYER_1
 10
69.1503
 20
179.5992
  0
VERTEX
  8
LAYER_1
 10
40.2462
 20
179.5992
  0
SEQEND
  0
POLYLINE
  8
LAYER_1
 40
0.0353
 41
0.0353
 66
1
 10
0
 20
0
 30
0
  0
VERTEX
  8
LAYER_1
 10
69.1503
 20
189.624
  0
VERTEX
  8
LAYER_1
 10
40.2462
 20
189.624
  0
SEQEND
  0
POLYLINE
  8
LAYER_1
 40
0.0353
 41
0.0353
 66
1
 10
0
 20
0
 30
0
  0
VERTEX
  8
LAYER_1
 10
40.3632
 20
181.1205
  0
VERTEX
  8
LAYER_1
 10
40.3632
 20
181.9005
  0
SEQEND
  0
POLYLINE
  8
LAYER_1
 40
0.0353
 41
0.0353
 66
1
 10
0
 20
0
 30
0
  0
VERTEX
  8
LAYER_1
 10
40.3632
 20
188.1028
  0
VERTEX
  8
LAYER_1
 10
40.3632
 20
187.3224
  0
SEQEND
  0
POLYLINE
  8
LAYER_1
 40
0.05
 41
0.05
 66
1
 10
0
 20
0
 30
0
 70
1
  0
VERTEX
  8
LAYER_1
 10
40.1291
 20
181.1205
  0
VERTEX
  8
LAYER_1
 10
40.6362
 20
181.1205
  0
VERTEX
  8
LAYER_1
 10
40.3633
 20
179.5992
  0
SEQEND
  0
POLYLINE
  8
LAYER_1
 66
1
 10
0
 20
0
 30
0
 70
1
  0
VERTEX
  8
LAYER_1
 10
40.1291
 20
181.1205
  0
VERTEX
  8
LAYER_1
 10
40.6362
 20
181.1205
  0
VERTEX
  8
LAYER_1
 10
40.3633
 20
179.5992
  0
SEQEND
  0
POLYLINE
  8
LAYER_1
 40
0.05
 41
0.05
 66
1
 10
0
 20
0
 30
0
 70
1
  0
VERTEX
  8
LAYER_1
 10
40.1291
 20
188.1028
  0
VERTEX
  8
LAYER_1
 10
40.6362
 20
188.1028
  0
VERTEX
  8
LAYER_1
 10
40.3633
 20
189.624
  0
SEQEND
  0
POLYLINE
  8
LAYER_1
 66
1
 10
0
 20
0
 30
0
 70
1
  0
VERTEX
  8
LAYER_1
 10
40.1291
 20
188.1028
  0
VERTEX
  8
LAYER_1
 10
40.6362
 20
188.1028
  0
VERTEX
  8
LAYER_1
 10
40.3633
 20
189.624
  0
SEQEND
  0
INSERT
  8
LAYER_1
  2
AIGNBL01010014
 10
0
 20
0
 30
0
  0
POLYLINE
  8
LAYER_1
 40
0.0353
 41
0.0353
 66
1
 10
0
 20
0
 30
0
  0
VERTEX
  8
LAYER_1
 10
127.3876
 20
183.5389
  0
VERTEX
  8
LAYER_1
 10
127.3876
 20
180.6525
  0
SEQEND
  0
POLYLINE
  8
LAYER_1
 40
0.0353
 41
0.0353
 66
1
 10
0
 20
0
 30
0
  0
VERTEX
  8
LAYER_1
 10
153.4052
 20
182.4857
  0
VERTEX
  8
LAYER_1
 10
153.4052
 20
180.6526
  0
SEQEND
  0
POLYLINE
  8
LAYER_1
 40
0.0353
 41
0.0353
 66
1
 10
0
 20
0
 30
0
  0
VERTEX
  8
LAYER_1
 10
128.9089
 20
180.7694
  0
VERTEX
  8
LAYER_1
 10
137.5685
 20
180.7694
  0
SEQEND
  0
POLYLINE
  8
LAYER_1
 40
0.0353
 41
0.0353
 66
1
 10
0
 20
0
 30
0
  0
VERTEX
  8
LAYER_1
 10
151.884
 20
180.7694
  0
VERTEX
  8
LAYER_1
 10
143.2244
 20
180.7694
  0
SEQEND
  0
POLYLINE
  8
LAYER_1
 40
0.05
 41
0.05
 66
1
 10
0
 20
0
 30
0
 70
1
  0
VERTEX
  8
LAYER_1
 10
128.9089
 20
181.0035
  0
VERTEX
  8
LAYER_1
 10
128.9089
 20
180.5354
  0
VERTEX
  8
LAYER_1
 10
127.3876
 20
180.7693
  0
SEQEND
  0
POLYLINE
  8
LAYER_1
 66
1
 10
0
 20
0
 30
0
 70
1
  0
VERTEX
  8
LAYER_1
 10
128.9089
 20
181.0035
  0
VERTEX
  8
LAYER_1
 10
128.9089
 20
180.5354
  0
VERTEX
  8
LAYER_1
 10
127.3876
 20
180.7693
  0
SEQEND
  0
POLYLINE
  8
LAYER_1
 40
0.05
 41
0.05
 66
1
 10
0
 20
0
 30
0
 70
1
  0
VERTEX
  8
LAYER_1
 10
151.884
 20
181.0035
  0
VERTEX
  8
LAYER_1
 10
151.884
 20
180.5354
  0
VERTEX
  8
LAYER_1
 10
153.4052
 20
180.7693
  0
SEQEND
  0
POLYLINE
  8
LAYER_1
 66
1
 10
0
 20
0
 30
0
 70
1
  0
VERTEX
  8
LAYER_1
 10
151.884
 20
181.0035
  0
VERTEX
  8
LAYER_1
 10
151.884
 20
180.5354
  0
VERTEX
  8
LAYER_1
 10
153.4052
 20
180.7693
  0
SEQEND
  0
INSERT
  8
LAYER_1
  2
AIGNBL01010015
 10
0
 20
0
 30
0
  0
POLYLINE
  8
LAYER_1
 40
0.2646
 41
0.2646
 66
1
 10
0
 20
0
 30
0
  0
VERTEX
  8
LAYER_1
 10
43.6007
 20
111.4541
  0
VERTEX
  8
LAYER_1
 10
46.8775
 20
111.4541
  0
SEQEND
  0
POLYLINE
  8
LAYER_1
 40
0.1411
 41
0.1411
 66
1
 10
0
 20
0
 30
0
  0
VERTEX
  8
LAYER_1
 10
89.8239
 20
111.4541
  0
VERTEX
  8
LAYER_1
 10
98.4054
 20
111.4541
  0
SEQEND
  0
POLYLINE
  8
LAYER_1
 40
0.1411
 41
0.1411
 66
1
 10
0
 20
0
 30
0
  0
VERTEX
  8
LAYER_1
 10
46.8773
 20
112.5463
  0
VERTEX
  8
LAYER_1
 10
98.4056
 20
112.5463
  0
SEQEND
  0
POLYLINE
  8
LAYER_1
 40
0.2646
 41
0.2646
 66
1
 10
0
 20
0
 30
0
  0
VERTEX
  8
LAYER_1
 10
43.4057
 20
112.3513
  0
VERTEX
  8
LAYER_1
 10
43.4057
 20
111.649
  0
SEQEND
  0
INSERT
  8
LAYER_1
  2
AIGNBL01010016
 10
0
 20
0
 30
0
  0
POLYLINE
  8
LAYER_1
 40
0.1411
 41
0.1411
 66
1
 10
0
 20
0
 30
0
  0
VERTEX
  8
LAYER_1
 10
153.2102
 20
111.4541
  0
VERTEX
  8
LAYER_1
 10
149.8948
 20
111.4541
  0
SEQEND
  0
POLYLINE
  8
LAYER_1
 40
0.1411
 41
0.1411
 66
1
 10
0
 20
0
 30
0
  0
VERTEX
  8
LAYER_1
 10
153.2102
 20
112.5463
  0
VERTEX
  8
LAYER_1
 10
149.8948
 20
112.5463
  0
SEQEND
  0
POLYLINE
  8
LAYER_1
 40
0.2646
 41
0.2646
 66
1
 10
0
 20
0
 30
0
  0
VERTEX
  8
LAYER_1
 10
153.4052
 20
112.3513
  0
VERTEX
  8
LAYER_1
 10
153.4052
 20
111.649
  0
SEQEND
  0
INSERT
  8
LAYER_1
  2
AIGNBL01010017
 10
0
 20
0
 30
0
  0
POLYLINE
  8
LAYER_1
 40
0.2646
 41
0.2646
 66
1
 10
0
 20
0
 30
0
  0
VERTEX
  8
LAYER_1
 10
51.0121
 20
94.9152
  0
VERTEX
  8
LAYER_1
 10
49.3737
 20
111.454
  0
SEQEND
  0
INSERT
  8
LAYER_1
  2
AIGNBL01010018
 10
0
 20
0
 30
0
  0
POLYLINE
  8
LAYER_1
 40
0.2646
 41
0.2646
 66
1
 10
0
 20
0
 30
0
  0
VERTEX
  8
LAYER_1
 10
43.4057
 20
112.3513
  0
VERTEX
  8
LAYER_1
 10
43.4057
 20
111.649
  0
SEQEND
  0
INSERT
  8
LAYER_1
  2
AIGNBL01010019
 10
0
 20
0
 30
0
  0
POLYLINE
  8
LAYER_1
 40
0.2646
 41
0.2646
 66
1
 10
0
 20
0
 30
0
  0
VERTEX
  8
LAYER_1
 10
43.6007
 20
111.4541
  0
VERTEX
  8
LAYER_1
 10
49.3739
 20
111.4541
  0
SEQEND
  0
POLYLINE
  8
LAYER_1
 40
0.2646
 41
0.2646
 66
1
 10
0
 20
0
 30
0
  0
VERTEX
  8
LAYER_1
 10
89.3168
 20
111.4541
  0
VERTEX
  8
LAYER_1
 10
107.455
 20
111.4541
  0
SEQEND
  0
INSERT
  8
LAYER_1
  2
AIGNBL0101001A
 10
0
 20
0
 30
0
  0
POLYLINE
  8
LAYER_1
 40
0.1411
 41
0.1411
 66
1
 10
0
 20
0
 30
0
  0
VERTEX
  8
LAYER_1
 10
49.8808
 20
112.5463
  0
VERTEX
  8
LAYER_1
 10
88.8096
 20
112.5463
  0
SEQEND
  0
POLYLINE
  8
LAYER_1
 40
0.2646
 41
0.2646
 66
1
 10
0
 20
0
 30
0
  0
VERTEX
  8
LAYER_1
 10
43.6007
 20
112.5463
  0
VERTEX
  8
LAYER_1
 10
49.881
 20
112.5463
  0
SEQEND
  0
POLYLINE
  8
LAYER_1
 40
0.1411
 41
0.1411
 66
1
 10
0
 20
0
 30
0
  0
VERTEX
  8
LAYER_1
 10
49.8808
 20
112.5463
  0
VERTEX
  8
LAYER_1
 10
88.8096
 20
112.5463
  0
SEQEND
  0
POLYLINE
  8
LAYER_1
 40
0.2646
 41
0.2646
 66
1
 10
0
 20
0
 30
0
  0
VERTEX
  8
LAYER_1
 10
88.8098
 20
112.5463
  0
VERTEX
  8
LAYER_1
 10
107.9621
 20
112.5463
  0
SEQEND
  0
POLYLINE
  8
LAYER_1
 40
0.1411
 41
0.1411
 66
1
 10
0
 20
0
 30
0
  0
VERTEX
  8
LAYER_1
 10
107.9622
 20
112.5463
  0
VERTEX
  8
LAYER_1
 10
146.8909
 20
112.5463
  0
SEQEND
  0
POLYLINE
  8
LAYER_1
 40
0.2646
 41
0.2646
 66
1
 10
0
 20
0
 30
0
  0
VERTEX
  8
LAYER_1
 10
146.8911
 20
112.5463
  0
VERTEX
  8
LAYER_1
 10
153.2104
 20
112.5463
  0
SEQEND
  0
INSERT
  8
LAYER_1
  2
AIGNBL0101001B
 10
0
 20
0
 30
0
  0
POLYLINE
  8
LAYER_1
 40
0.2646
 41
0.2646
 66
1
 10
0
 20
0
 30
0
  0
VERTEX
  8
LAYER_1
 10
153.4052
 20
112.3513
  0
VERTEX
  8
LAYER_1
 10
153.4052
 20
111.649
  0
SEQEND
  0
INSERT
  8
LAYER_1
  2
AIGNBL0101001C
 10
0
 20
0
 30
0
  0
POLYLINE
  8
LAYER_1
 40
0.2646
 41
0.2646
 66
1
 10
0
 20
0
 30
0
  0
VERTEX
  8
LAYER_1
 10
153.2102
 20
111.4541
  0
VERTEX
  8
LAYER_1
 10
147.398
 20
111.4541
  0
SEQEND
  0
INSERT
  8
LAYER_1
  2
AIGNBL0101001D
 10
0
 20
0
 30
0
  0
POLYLINE
  8
LAYER_1
 40
0.1411
 41
0.1411
 66
1
 10
0
 20
0
 30
0
  0
VERTEX
  8
LAYER_1
 10
145.2528
 20
94.5641
  0
VERTEX
  8
LAYER_1
 10
51.5193
 20
94.5641
  0
SEQEND
  0
INSERT
  8
LAYER_1
  2
AIGNBL0101001E
 10
0
 20
0
 30
0
  0
POLYLINE
  8
LAYER_1
 40
0.0353
 41
0.0353
 66
1
 10
0
 20
0
 30
0
  0
VERTEX
  8
LAYER_1
 10
127.3096
 20
160.6029
  0
VERTEX
  8
LAYER_1
 10
123.4871
 20
160.6029
  0
SEQEND
  0
POLYLINE
  8
LAYER_1
 40
0.0353
 41
0.0353
 66
1
 10
0
 20
0
 30
0
  0
VERTEX
  8
LAYER_1
 10
127.3486
 20
183.6169
  0
VERTEX
  8
LAYER_1
 10
123.4871
 20
183.6169
  0
SEQEND
  0
POLYLINE
  8
LAYER_1
 40
0.0353
 41
0.0353
 66
1
 10
0
 20
0
 30
0
  0
VERTEX
  8
LAYER_1
 10
123.6039
 20
162.0851
  0
VERTEX
  8
LAYER_1
 10
123.6039
 20
169.2624
  0
SEQEND
  0
POLYLINE
  8
LAYER_1
 40
0.0353
 41
0.0353
 66
1
 10
0
 20
0
 30
0
  0
VERTEX
  8
LAYER_1
 10
123.6039
 20
182.0957
  0
VERTEX
  8
LAYER_1
 10
123.6039
 20
174.9574
  0
SEQEND
  0
POLYLINE
  8
LAYER_1
 40
0.05
 41
0.05
 66
1
 10
0
 20
0
 30
0
 70
1
  0
VERTEX
  8
LAYER_1
 10
123.3699
 20
162.0851
  0
VERTEX
  8
LAYER_1
 10
123.8379
 20
162.0851
  0
VERTEX
  8
LAYER_1
 10
123.6041
 20
160.6029
  0
SEQEND
  0
POLYLINE
  8
LAYER_1
 66
1
 10
0
 20
0
 30
0
 70
1
  0
VERTEX
  8
LAYER_1
 10
123.3699
 20
162.0851
  0
VERTEX
  8
LAYER_1
 10
123.8379
 20
162.0851
  0
VERTEX
  8
LAYER_1
 10
123.6041
 20
160.6029
  0
SEQEND
  0
POLYLINE
  8
LAYER_1
 40
0.05
 41
0.05
 66
1
 10
0
 20
0
 30
0
 70
1
  0
VERTEX
  8
LAYER_1
 10
123.3699
 20
182.0957
  0
VERTEX
  8
LAYER_1
 10
123.8379
 20
182.0957
  0
VERTEX
  8
LAYER_1
 10
123.6041
 20
183.6169
  0
SEQEND
  0
POLYLINE
  8
LAYER_1
 66
1
 10
0
 20
0
 30
0
 70
1
  0
VERTEX
  8
LAYER_1
 10
123.3699
 20
182.0957
  0
VERTEX
  8
LAYER_1
 10
123.8379
 20
182.0957
  0
VERTEX
  8
LAYER_1
 10
123.6041
 20
183.6169
  0
SEQEND
  0
INSERT
  8
LAYER_1
  2
AIGNBL0101001F
 10
0
 20
0
 30
0
  0
POLYLINE
  8
LAYER_1
 40
0.2646
 41
0.2646
 66
1
 10
0
 20
0
 30
0
  0
VERTEX
  8
LAYER_1
 10
167.8139
 20
111.4541
  0
VERTEX
  8
LAYER_1
 10
164.5371
 20
111.4541
  0
SEQEND
  0
POLYLINE
  8
LAYER_1
 40
0.2646
 41
0.2646
 66
1
 10
0
 20
0
 30
0
  0
VERTEX
  8
LAYER_1
 10
218.1328
 20
112.5463
  0
VERTEX
  8
LAYER_1
 10
214.0761
 20
112.5463
  0
SEQEND
  0
POLYLINE
  8
LAYER_1
 40
0.1411
 41
0.1411
 66
1
 10
0
 20
0
 30
0
  0
VERTEX
  8
LAYER_1
 10
214.0761
 20
112.5463
  0
VERTEX
  8
LAYER_1
 10
210.6045
 20
112.5463
  0
SEQEND
  0
POLYLINE
  8
LAYER_1
 40
0.1411
 41
0.1411
 66
1
 10
0
 20
0
 30
0
  0
VERTEX
  8
LAYER_1
 10
208.8101
 20
112.5463
  0
VERTEX
  8
LAYER_1
 10
169.8813
 20
112.5463
  0
SEQEND
  0
POLYLINE
  8
LAYER_1
 40
0.2646
 41
0.2646
 66
1
 10
0
 20
0
 30
0
  0
VERTEX
  8
LAYER_1
 10
169.8812
 20
112.5463
  0
VERTEX
  8
LAYER_1
 10
164.5375
 20
112.5463
  0
SEQEND
  0
POLYLINE
  8
LAYER_1
 40
0.2646
 41
0.2646
 66
1
 10
0
 20
0
 30
0
  0
VERTEX
  8
LAYER_1
 10
164.3422
 20
112.3513
  0
VERTEX
  8
LAYER_1
 10
164.3422
 20
111.649
  0
SEQEND
  0
INSERT
  8
LAYER_1
  2
AIGNBL01010020
 10
0
 20
0
 30
0
  0
POLYLINE
  8
LAYER_1
 40
0.2646
 41
0.2646
 66
1
 10
0
 20
0
 30
0
  0
VERTEX
  8
LAYER_1
 10
218.1328
 20
111.4541
  0
VERTEX
  8
LAYER_1
 10
214.0761
 20
111.4541
  0
SEQEND
  0
POLYLINE
  8
LAYER_1
 40
0.1411
 41
0.1411
 66
1
 10
0
 20
0
 30
0
  0
VERTEX
  8
LAYER_1
 10
214.0761
 20
111.4541
  0
VERTEX
  8
LAYER_1
 10
210.6045
 20
111.4541
  0
SEQEND
  0
POLYLINE
  8
LAYER_1
 40
0.2646
 41
0.2646
 66
1
 10
0
 20
0
 30
0
  0
VERTEX
  8
LAYER_1
 10
210.6045
 20
111.4541
  0
VERTEX
  8
LAYER_1
 10
209.7855
 20
111.4541
  0
SEQEND
  0
POLYLINE
  8
LAYER_1
 40
0.2646
 41
0.2646
 66
1
 10
0
 20
0
 30
0
  0
VERTEX
  8
LAYER_1
 10
168.9451
 20
111.4541
  0
VERTEX
  8
LAYER_1
 10
164.5374
 20
111.4541
  0
SEQEND
  0
INSERT
  8
LAYER_1
  2
AIGNBL01010021
 10
0
 20
0
 30
0
  0
POLYLINE
  8
LAYER_1
 40
0.1411
 41
0.1411
 66
1
 10
0
 20
0
 30
0
  0
VERTEX
  8
LAYER_1
 10
207.1718
 20
94.5641
  0
VERTEX
  8
LAYER_1
 10
170.7785
 20
94.5641
  0
SEQEND
  0
POLYLINE
  8
LAYER_1
 40
0.2646
 41
0.2646
 66
1
 10
0
 20
0
 30
0
  0
VERTEX
  8
LAYER_1
 10
207.6789
 20
94.9152
  0
VERTEX
  8
LAYER_1
 10
209.3563
 20
111.2592
  0
SEQEND
  0
POLYLINE
  8
LAYER_1
 40
0.2646
 41
0.2646
 66
1
 10
0
 20
0
 30
0
  0
VERTEX
  8
LAYER_1
 10
164.5373
 20
111.4541
  0
VERTEX
  8
LAYER_1
 10
168.9449
 20
111.4541
  0
SEQEND
  0
INSERT
  8
LAYER_1
  2
AIGNBL01010022
 10
0
 20
0
 30
0
  0
POLYLINE
  8
LAYER_1
 40
0.2646
 41
0.2646
 66
1
 10
0
 20
0
 30
0
  0
VERTEX
  8
LAYER_1
 10
170.2713
 20
95.0322
  0
VERTEX
  8
LAYER_1
 10
169.3352
 20
111.2591
  0
SEQEND
  0
POLYLINE
  8
LAYER_1
 40
0.2646
 41
0.2646
 66
1
 10
0
 20
0
 30
0
  0
VERTEX
  8
LAYER_1
 10
164.3422
 20
112.3513
  0
VERTEX
  8
LAYER_1
 10
164.3422
 20
111.649
  0
SEQEND
  0
INSERT
  8
LAYER_1
  2
AIGNBL01010023
 10
0
 20
0
 30
0
  0
POLYLINE
  8
LAYER_1
 40
0.0353
 41
0.0353
 66
1
 10
0
 20
0
 30
0
  0
VERTEX
  8
LAYER_1
 10
164.3422
 20
112.0782
  0
VERTEX
  8
LAYER_1
 10
164.3422
 20
115.745
  0
SEQEND
  0
POLYLINE
  8
LAYER_1
 40
0.0353
 41
0.0353
 66
1
 10
0
 20
0
 30
0
  0
VERTEX
  8
LAYER_1
 10
218.3278
 20
113.5995
  0
VERTEX
  8
LAYER_1
 10
218.3278
 20
115.745
  0
SEQEND
  0
POLYLINE
  8
LAYER_1
 40
0.0353
 41
0.0353
 66
1
 10
0
 20
0
 30
0
  0
VERTEX
  8
LAYER_1
 10
165.8245
 20
115.6279
  0
VERTEX
  8
LAYER_1
 10
188.5264
 20
115.6279
  0
SEQEND
  0
POLYLINE
  8
LAYER_1
 40
0.0353
 41
0.0353
 66
1
 10
0
 20
0
 30
0
  0
VERTEX
  8
LAYER_1
 10
216.8456
 20
115.6279
  0
VERTEX
  8
LAYER_1
 10
194.1436
 20
115.6279
  0
SEQEND
  0
POLYLINE
  8
LAYER_1
 40
0.05
 41
0.05
 66
1
 10
0
 20
0
 30
0
 70
1
  0
VERTEX
  8
LAYER_1
 10
165.8245
 20
115.9009
  0
VERTEX
  8
LAYER_1
 10
165.8245
 20
115.3938
  0
VERTEX
  8
LAYER_1
 10
164.3423
 20
115.6281
  0
SEQEND
  0
POLYLINE
  8
LAYER_1
 66
1
 10
0
 20
0
 30
0
 70
1
  0
VERTEX
  8
LAYER_1
 10
165.8245
 20
115.9009
  0
VERTEX
  8
LAYER_1
 10
165.8245
 20
115.3938
  0
VERTEX
  8
LAYER_1
 10
164.3423
 20
115.6281
  0
SEQEND
  0
POLYLINE
  8
LAYER_1
 40
0.05
 41
0.05
 66
1
 10
0
 20
0
 30
0
 70
1
  0
VERTEX
  8
LAYER_1
 10
216.8456
 20
115.9009
  0
VERTEX
  8
LAYER_1
 10
216.8456
 20
115.3938
  0
VERTEX
  8
LAYER_1
 10
218.3278
 20
115.6281
  0
SEQEND
  0
POLYLINE
  8
LAYER_1
 66
1
 10
0
 20
0
 30
0
 70
1
  0
VERTEX
  8
LAYER_1
 10
216.8456
 20
115.9009
  0
VERTEX
  8
LAYER_1
 10
216.8456
 20
115.3938
  0
VERTEX
  8
LAYER_1
 10
218.3278
 20
115.6281
  0
SEQEND
  0
INSERT
  8
LAYER_1
  2
AIGNBL01010024
 10
0
 20
0
 30
0
  0
POLYLINE
  8
LAYER_1
 40
0.0353
 41
0.0353
 66
1
 10
0
 20
0
 30
0
  0
VERTEX
  8
LAYER_1
 10
169.4912
 20
112.5463
  0
VERTEX
  8
LAYER_1
 10
160.3245
 20
112.5463
  0
SEQEND
  0
POLYLINE
  8
LAYER_1
 40
0.0353
 41
0.0353
 66
1
 10
0
 20
0
 30
0
  0
VERTEX
  8
LAYER_1
 10
167.9309
 20
94.5641
  0
VERTEX
  8
LAYER_1
 10
160.3245
 20
94.5641
  0
SEQEND
  0
POLYLINE
  8
LAYER_1
 40
0.0353
 41
0.0353
 66
1
 10
0
 20
0
 30
0
  0
VERTEX
  8
LAYER_1
 10
160.4415
 20
111.0641
  0
VERTEX
  8
LAYER_1
 10
160.4415
 20
106.266
  0
SEQEND
  0
POLYLINE
  8
LAYER_1
 40
0.0353
 41
0.0353
 66
1
 10
0
 20
0
 30
0
  0
VERTEX
  8
LAYER_1
 10
160.4415
 20
96.0464
  0
VERTEX
  8
LAYER_1
 10
160.4415
 20
100.8444
  0
SEQEND
  0
POLYLINE
  8
LAYER_1
 40
0.05
 41
0.05
 66
1
 10
0
 20
0
 30
0
 70
1
  0
VERTEX
  8
LAYER_1
 10
160.2075
 20
111.0641
  0
VERTEX
  8
LAYER_1
 10
160.7146
 20
111.0641
  0
VERTEX
  8
LAYER_1
 10
160.4417
 20
112.5463
  0
SEQEND
  0
POLYLINE
  8
LAYER_1
 66
1
 10
0
 20
0
 30
0
 70
1
  0
VERTEX
  8
LAYER_1
 10
160.2075
 20
111.0641
  0
VERTEX
  8
LAYER_1
 10
160.7146
 20
111.0641
  0
VERTEX
  8
LAYER_1
 10
160.4417
 20
112.5463
  0
SEQEND
  0
POLYLINE
  8
LAYER_1
 40
0.05
 41
0.05
 66
1
 10
0
 20
0
 30
0
 70
1
  0
VERTEX
  8
LAYER_1
 10
160.2075
 20
96.0464
  0
VERTEX
  8
LAYER_1
 10
160.7146
 20
96.0464
  0
VERTEX
  8
LAYER_1
 10
160.4417
 20
94.5642
  0
SEQEND
  0
POLYLINE
  8
LAYER_1
 66
1
 10
0
 20
0
 30
0
 70
1
  0
VERTEX
  8
LAYER_1
 10
160.2075
 20
96.0464
  0
VERTEX
  8
LAYER_1
 10
160.7146
 20
96.0464
  0
VERTEX
  8
LAYER_1
 10
160.4417
 20
94.5642
  0
SEQEND
  0
INSERT
  8
LAYER_1
  2
AIGNBL01010025
 10
0
 20
0
 30
0
  0
POLYLINE
  8
LAYER_1
 40
0.0353
 41
0.0353
 66
1
 10
0
 20
0
 30
0
  0
VERTEX
  8
LAYER_1
 10
43.4055
 20
112.4293
  0
VERTEX
  8
LAYER_1
 10
43.4055
 20
115.3547
  0
SEQEND
  0
POLYLINE
  8
LAYER_1
 40
0.0353
 41
0.0353
 66
1
 10
0
 20
0
 30
0
  0
VERTEX
  8
LAYER_1
 10
153.4055
 20
112.4293
  0
VERTEX
  8
LAYER_1
 10
153.4055
 20
115.3547
  0
SEQEND
  0
POLYLINE
  8
LAYER_1
 40
0.0353
 41
0.0353
 66
1
 10
0
 20
0
 30
0
  0
VERTEX
  8
LAYER_1
 10
44.8877
 20
115.2378
  0
VERTEX
  8
LAYER_1
 10
94.7388
 20
115.2378
  0
SEQEND
  0
POLYLINE
  8
LAYER_1
 40
0.0353
 41
0.0353
 66
1
 10
0
 20
0
 30
0
  0
VERTEX
  8
LAYER_1
 10
151.8842
 20
115.2378
  0
VERTEX
  8
LAYER_1
 10
102.0721
 20
115.2378
  0
SEQEND
  0
POLYLINE
  8
LAYER_1
 40
0.05
 41
0.05
 66
1
 10
0
 20
0
 30
0
 70
1
  0
VERTEX
  8
LAYER_1
 10
44.8877
 20
115.4718
  0
VERTEX
  8
LAYER_1
 10
44.8877
 20
114.9647
  0
VERTEX
  8
LAYER_1
 10
43.4055
 20
115.2376
  0
SEQEND
  0
POLYLINE
  8
LAYER_1
 66
1
 10
0
 20
0
 30
0
 70
1
  0
VERTEX
  8
LAYER_1
 10
44.8877
 20
115.4718
  0
VERTEX
  8
LAYER_1
 10
44.8877
 20
114.9647
  0
VERTEX
  8
LAYER_1
 10
43.4055
 20
115.2376
  0
SEQEND
  0
POLYLINE
  8
LAYER_1
 40
0.05
 41
0.05
 66
1
 10
0
 20
0
 30
0
 70
1
  0
VERTEX
  8
LAYER_1
 10
151.8842
 20
115.4718
  0
VERTEX
  8
LAYER_1
 10
151.8842
 20
114.9647
  0
VERTEX
  8
LAYER_1
 10
153.4055
 20
115.2376
  0
SEQEND
  0
POLYLINE
  8
LAYER_1
 66
1
 10
0
 20
0
 30
0
 70
1
  0
VERTEX
  8
LAYER_1
 10
151.8842
 20
115.4718
  0
VERTEX
  8
LAYER_1
 10
151.8842
 20
114.9647
  0
VERTEX
  8
LAYER_1
 10
153.4055
 20
115.2376
  0
SEQEND
  0
INSERT
  8
LAYER_1
  2
AIGNBL01010026
 10
0
 20
0
 30
0
  0
INSERT
  8
LAYER_1
  2
AIGNBL01010027
 10
0
 20
0
 30
0
  0
POLYLINE
  8
LAYER_1
 40
0.2646
 41
0.2646
 66
1
 10
0
 20
0
 30
0
  0
VERTEX
  8
LAYER_1
 10
185.8351
 20
97.9967
  0
VERTEX
  8
LAYER_1
 10
186.9664
 20
96.9045
  0
SEQEND
  0
INSERT
  8
LAYER_1
  2
AIGNBL01010028
 10
0
 20
0
 30
0
  0
POLYLINE
  8
LAYER_1
 40
0.2646
 41
0.2646
 66
1
 10
0
 20
0
 30
0
  0
VERTEX
  8
LAYER_1
 10
187.0443
 20
96.7875
  0
VERTEX
  8
LAYER_1
 10
187.0443
 20
95.5391
  0
SEQEND
  0
POLYLINE
  8
LAYER_1
 40
0.2646
 41
0.2646
 66
1
 10
0
 20
0
 30
0
  0
VERTEX
  8
LAYER_1
 10
186.3422
 20
95.5393
  0
VERTEX
  8
LAYER_1
 10
186.3422
 20
96.1245
  0
VERTEX
  8
LAYER_1
 10
185.367
 20
97.0996
  0
VERTEX
  8
LAYER_1
 10
177.4097
 20
97.1777
  0
SEQEND
  0
INSERT
  8
LAYER_1
  2
AIGNBL01010029
 10
0
 20
0
 30
0
  0
POLYLINE
  8
LAYER_1
 40
0.2646
 41
0.2646
 66
1
 10
0
 20
0
 30
0
  0
VERTEX
  8
LAYER_1
 10
176.6294
 20
96.6315
  0
VERTEX
  8
LAYER_1
 10
175.8881
 20
94.6812
  0
SEQEND
  0
INSERT
  8
LAYER_1
  2
AIGNBL0101002A
 10
0
 20
0
 30
0
  0
POLYLINE
  8
LAYER_1
 40
0.2646
 41
0.2646
 66
1
 10
0
 20
0
 30
0
  0
VERTEX
  8
LAYER_1
 10
174.8351
 20
94.5641
  0
VERTEX
  8
LAYER_1
 10
175.6931
 20
94.5641
  0
SEQEND
  0
INSERT
  8
LAYER_1
  2
AIGNBL0101002B
 10
0
 20
0
 30
0
  0
POLYLINE
  8
LAYER_1
 40
0.2646
 41
0.2646
 66
1
 10
0
 20
0
 30
0
  0
VERTEX
  8
LAYER_1
 10
170.3883
 20
112.1172
  0
VERTEX
  8
LAYER_1
 10
172.0657
 20
98.972
  0
SEQEND
  0
POLYLINE
  8
LAYER_1
 40
0.2646
 41
0.2646
 66
1
 10
0
 20
0
 30
0
  0
VERTEX
  8
LAYER_1
 10
172.5337
 20
98.5429
  0
VERTEX
  8
LAYER_1
 10
185.718
 20
98.0748
  0
SEQEND
  0
INSERT
  8
LAYER_1
  2
AIGNBL0101002C
 10
0
 20
0
 30
0
  0
POLYLINE
  8
LAYER_1
 40
0.2646
 41
0.2646
 66
1
 10
0
 20
0
 30
0
  0
VERTEX
  8
LAYER_1
 10
172.1827
 20
95.8514
  0
VERTEX
  8
LAYER_1
 10
171.9875
 20
97.3336
  0
SEQEND
  0
INSERT
  8
LAYER_1
  2
AIGNBL0101002D
 10
0
 20
0
 30
0
  0
POLYLINE
  8
LAYER_1
 40
0.2646
 41
0.2646
 66
1
 10
0
 20
0
 30
0
  0
VERTEX
  8
LAYER_1
 10
172.2216
 20
97.5287
  0
VERTEX
  8
LAYER_1
 10
175.5371
 20
97.2945
  0
SEQEND
  0
INSERT
  8
LAYER_1
  2
AIGNBL0101002E
 10
0
 20
0
 30
0
  0
POLYLINE
  8
LAYER_1
 40
0.2646
 41
0.2646
 66
1
 10
0
 20
0
 30
0
  0
VERTEX
  8
LAYER_1
 10
175.6932
 20
97.0216
  0
VERTEX
  8
LAYER_1
 10
175.1861
 20
95.6955
  0
SEQEND
  0
INSERT
  8
LAYER_1
  2
AIGNBL0101002F
 10
0
 20
0
 30
0
  0
POLYLINE
  8
LAYER_1
 40
0.1411
 41
0.1411
 66
1
 10
0
 20
0
 30
0
  0
VERTEX
  8
LAYER_1
 10
172.2216
 20
98.6598
  0
VERTEX
  8
LAYER_1
 10
206.4309
 20
98.6598
  0
SEQEND
  0
POLYLINE
  8
LAYER_1
 40
0.1411
 41
0.1411
 66
1
 10
0
 20
0
 30
0
  0
VERTEX
  8
LAYER_1
 10
185.718
 20
98.0748
  0
VERTEX
  8
LAYER_1
 10
192.9734
 20
98.0748
  0
SEQEND
  0
POLYLINE
  8
LAYER_1
 40
0.1411
 41
0.1411
 66
1
 10
0
 20
0
 30
0
  0
VERTEX
  8
LAYER_1
 10
186.9663
 20
96.9046
  0
VERTEX
  8
LAYER_1
 10
191.6862
 20
96.9046
  0
SEQEND
  0
INSERT
  8
LAYER_1
  2
AIGNBL01010030
 10
0
 20
0
 30
0
  0
POLYLINE
  8
LAYER_1
 40
0.2646
 41
0.2646
 66
1
 10
0
 20
0
 30
0
  0
VERTEX
  8
LAYER_1
 10
192.8563
 20
97.9967
  0
VERTEX
  8
LAYER_1
 10
191.725
 20
96.9045
  0
SEQEND
  0
INSERT
  8
LAYER_1
  2
AIGNBL01010031
 10
0
 20
0
 30
0
  0
POLYLINE
  8
LAYER_1
 40
0.2646
 41
0.2646
 66
1
 10
0
 20
0
 30
0
  0
VERTEX
  8
LAYER_1
 10
191.6861
 20
96.7875
  0
VERTEX
  8
LAYER_1
 10
191.6861
 20
95.5391
  0
SEQEND
  0
POLYLINE
  8
LAYER_1
 40
0.2646
 41
0.2646
 66
1
 10
0
 20
0
 30
0
  0
VERTEX
  8
LAYER_1
 10
192.3492
 20
95.5393
  0
VERTEX
  8
LAYER_1
 10
192.3492
 20
96.1245
  0
VERTEX
  8
LAYER_1
 10
193.3634
 20
97.0996
  0
VERTEX
  8
LAYER_1
 10
201.2816
 20
97.1777
  0
SEQEND
  0
INSERT
  8
LAYER_1
  2
AIGNBL01010032
 10
0
 20
0
 30
0
  0
POLYLINE
  8
LAYER_1
 40
0.2646
 41
0.2646
 66
1
 10
0
 20
0
 30
0
  0
VERTEX
  8
LAYER_1
 10
202.0619
 20
96.6315
  0
VERTEX
  8
LAYER_1
 10
202.8032
 20
94.6812
  0
SEQEND
  0
INSERT
  8
LAYER_1
  2
AIGNBL01010033
 10
0
 20
0
 30
0
  0
POLYLINE
  8
LAYER_1
 40
0.2646
 41
0.2646
 66
1
 10
0
 20
0
 30
0
  0
VERTEX
  8
LAYER_1
 10
203.8563
 20
94.5641
  0
VERTEX
  8
LAYER_1
 10
202.9982
 20
94.5641
  0
SEQEND
  0
INSERT
  8
LAYER_1
  2
AIGNBL01010034
 10
0
 20
0
 30
0
  0
POLYLINE
  8
LAYER_1
 40
0.2646
 41
0.2646
 66
1
 10
0
 20
0
 30
0
  0
VERTEX
  8
LAYER_1
 10
208.303
 20
112.1172
  0
VERTEX
  8
LAYER_1
 10
206.6256
 20
98.972
  0
SEQEND
  0
POLYLINE
  8
LAYER_1
 40
0.2646
 41
0.2646
 66
1
 10
0
 20
0
 30
0
  0
VERTEX
  8
LAYER_1
 10
206.1577
 20
98.5429
  0
VERTEX
  8
LAYER_1
 10
192.9733
 20
98.0748
  0
SEQEND
  0
INSERT
  8
LAYER_1
  2
AIGNBL01010035
 10
0
 20
0
 30
0
  0
POLYLINE
  8
LAYER_1
 40
0.2646
 41
0.2646
 66
1
 10
0
 20
0
 30
0
  0
VERTEX
  8
LAYER_1
 10
206.5087
 20
95.8514
  0
VERTEX
  8
LAYER_1
 10
206.7039
 20
97.3336
  0
SEQEND
  0
INSERT
  8
LAYER_1
  2
AIGNBL01010036
 10
0
 20
0
 30
0
  0
POLYLINE
  8
LAYER_1
 40
0.2646
 41
0.2646
 66
1
 10
0
 20
0
 30
0
  0
VERTEX
  8
LAYER_1
 10
206.4697
 20
97.5287
  0
VERTEX
  8
LAYER_1
 10
203.193
 20
97.2945
  0
SEQEND
  0
INSERT
  8
LAYER_1
  2
AIGNBL01010037
 10
0
 20
0
 30
0
  0
POLYLINE
  8
LAYER_1
 40
0.2646
 41
0.2646
 66
1
 10
0
 20
0
 30
0
  0
VERTEX
  8
LAYER_1
 10
202.9981
 20
97.0216
  0
VERTEX
  8
LAYER_1
 10
203.5052
 20
95.6955
  0
SEQEND
  0
INSERT
  8
LAYER_1
  2
AIGNBL01010038
 10
0
 20
0
 30
0
  0
POLYLINE
  8
LAYER_1
 40
0.1411
 41
0.1411
 66
1
 10
0
 20
0
 30
0
  0
VERTEX
  8
LAYER_1
 10
206.4697
 20
98.6598
  0
VERTEX
  8
LAYER_1
 10
172.2605
 20
98.6598
  0
SEQEND
  0
INSERT
  8
LAYER_1
  2
AIGNBL01010039
 10
0
 20
0
 30
0
  0
POLYLINE
  8
LAYER_1
 40
0.2646
 41
0.2646
 66
1
 10
0
 20
0
 30
0
  0
VERTEX
  8
LAYER_1
 10
210.6045
 20
111.4541
  0
VERTEX
  8
LAYER_1
 10
210.6045
 20
112.5464
  0
SEQEND
  0
POLYLINE
  8
LAYER_1
 40
0.2646
 41
0.2646
 66
1
 10
0
 20
0
 30
0
  0
VERTEX
  8
LAYER_1
 10
214.0761
 20
111.4541
  0
VERTEX
  8
LAYER_1
 10
214.0761
 20
112.5464
  0
SEQEND
  0
INSERT
  8
LAYER_1
  2
AIGNBL0101003A
 10
0
 20
0
 30
0
  0
POLYLINE
  8
LAYER_1
 40
0.2646
 41
0.2646
 66
1
 10
0
 20
0
 30
0
  0
VERTEX
  8
LAYER_1
 10
87.6786
 20
94.9152
  0
VERTEX
  8
LAYER_1
 10
89.317
 20
111.454
  0
SEQEND
  0
INSERT
  8
LAYER_1
  2
AIGNBL0101003B
 10
0
 20
0
 30
0
  0
POLYLINE
  8
LAYER_1
 40
0.2646
 41
0.2646
 66
1
 10
0
 20
0
 30
0
  0
VERTEX
  8
LAYER_1
 10
65.8347
 20
97.9967
  0
VERTEX
  8
LAYER_1
 10
66.966
 20
96.9045
  0
SEQEND
  0
INSERT
  8
LAYER_1
  2
AIGNBL0101003C
 10
0
 20
0
 30
0
  0
POLYLINE
  8
LAYER_1
 40
0.2646
 41
0.2646
 66
1
 10
0
 20
0
 30
0
  0
VERTEX
  8
LAYER_1
 10
67.0439
 20
96.7485
  0
VERTEX
  8
LAYER_1
 10
67.0439
 20
95.5392
  0
SEQEND
  0
POLYLINE
  8
LAYER_1
 40
0.2646
 41
0.2646
 66
1
 10
0
 20
0
 30
0
  0
VERTEX
  8
LAYER_1
 10
66.3418
 20
95.5393
  0
VERTEX
  8
LAYER_1
 10
66.3418
 20
96.1245
  0
VERTEX
  8
LAYER_1
 10
65.3666
 20
97.0996
  0
VERTEX
  8
LAYER_1
 10
57.4484
 20
97.1777
  0
SEQEND
  0
INSERT
  8
LAYER_1
  2
AIGNBL0101003D
 10
0
 20
0
 30
0
  0
POLYLINE
  8
LAYER_1
 40
0.2646
 41
0.2646
 66
1
 10
0
 20
0
 30
0
  0
VERTEX
  8
LAYER_1
 10
56.629
 20
96.6315
  0
VERTEX
  8
LAYER_1
 10
55.8877
 20
94.6812
  0
SEQEND
  0
INSERT
  8
LAYER_1
  2
AIGNBL0101003E
 10
0
 20
0
 30
0
  0
POLYLINE
  8
LAYER_1
 40
0.2646
 41
0.2646
 66
1
 10
0
 20
0
 30
0
  0
VERTEX
  8
LAYER_1
 10
54.8348
 20
94.5641
  0
VERTEX
  8
LAYER_1
 10
55.6928
 20
94.5641
  0
SEQEND
  0
INSERT
  8
LAYER_1
  2
AIGNBL0101003F
 10
0
 20
0
 30
0
  0
POLYLINE
  8
LAYER_1
 40
0.2646
 41
0.2646
 66
1
 10
0
 20
0
 30
0
  0
VERTEX
  8
LAYER_1
 10
50.3879
 20
112.1172
  0
VERTEX
  8
LAYER_1
 10
52.0653
 20
98.972
  0
SEQEND
  0
POLYLINE
  8
LAYER_1
 40
0.2646
 41
0.2646
 66
1
 10
0
 20
0
 30
0
  0
VERTEX
  8
LAYER_1
 10
52.5333
 20
98.5038
  0
VERTEX
  8
LAYER_1
 10
65.7177
 20
98.0748
  0
SEQEND
  0
INSERT
  8
LAYER_1
  2
AIGNBL01010040
 10
0
 20
0
 30
0
  0
POLYLINE
  8
LAYER_1
 40
0.2646
 41
0.2646
 66
1
 10
0
 20
0
 30
0
  0
VERTEX
  8
LAYER_1
 10
52.1823
 20
95.8514
  0
VERTEX
  8
LAYER_1
 10
51.9871
 20
97.3336
  0
SEQEND
  0
INSERT
  8
LAYER_1
  2
AIGNBL01010041
 10
0
 20
0
 30
0
  0
POLYLINE
  8
LAYER_1
 40
0.2646
 41
0.2646
 66
1
 10
0
 20
0
 30
0
  0
VERTEX
  8
LAYER_1
 10
52.2213
 20
97.5286
  0
VERTEX
  8
LAYER_1
 10
55.5367
 20
97.2944
  0
SEQEND
  0
INSERT
  8
LAYER_1
  2
AIGNBL01010042
 10
0
 20
0
 30
0
  0
POLYLINE
  8
LAYER_1
 40
0.2646
 41
0.2646
 66
1
 10
0
 20
0
 30
0
  0
VERTEX
  8
LAYER_1
 10
55.6929
 20
97.0216
  0
VERTEX
  8
LAYER_1
 10
55.1858
 20
95.6955
  0
SEQEND
  0
INSERT
  8
LAYER_1
  2
AIGNBL01010043
 10
0
 20
0
 30
0
  0
POLYLINE
  8
LAYER_1
 40
0.1411
 41
0.1411
 66
1
 10
0
 20
0
 30
0
  0
VERTEX
  8
LAYER_1
 10
52.2213
 20
98.6598
  0
VERTEX
  8
LAYER_1
 10
86.4305
 20
98.6598
  0
SEQEND
  0
POLYLINE
  8
LAYER_1
 40
0.1411
 41
0.1411
 66
1
 10
0
 20
0
 30
0
  0
VERTEX
  8
LAYER_1
 10
65.7177
 20
98.0748
  0
VERTEX
  8
LAYER_1
 10
72.9731
 20
98.0748
  0
SEQEND
  0
POLYLINE
  8
LAYER_1
 40
0.1411
 41
0.1411
 66
1
 10
0
 20
0
 30
0
  0
VERTEX
  8
LAYER_1
 10
66.9659
 20
96.9046
  0
VERTEX
  8
LAYER_1
 10
71.6858
 20
96.9046
  0
SEQEND
  0
INSERT
  8
LAYER_1
  2
AIGNBL01010044
 10
0
 20
0
 30
0
  0
POLYLINE
  8
LAYER_1
 40
0.2646
 41
0.2646
 66
1
 10
0
 20
0
 30
0
  0
VERTEX
  8
LAYER_1
 10
72.8169
 20
97.9967
  0
VERTEX
  8
LAYER_1
 10
71.6856
 20
96.9045
  0
SEQEND
  0
POLYLINE
  8
LAYER_1
 40
0.2646
 41
0.2646
 66
1
 10
0
 20
0
 30
0
  0
VERTEX
  8
LAYER_1
 10
73.324
 20
97.0996
  0
VERTEX
  8
LAYER_1
 10
81.2813
 20
97.1777
  0
SEQEND
  0
INSERT
  8
LAYER_1
  2
AIGNBL01010045
 10
0
 20
0
 30
0
  0
POLYLINE
  8
LAYER_1
 40
0.2646
 41
0.2646
 66
1
 10
0
 20
0
 30
0
  0
VERTEX
  8
LAYER_1
 10
82.1006
 20
96.6315
  0
VERTEX
  8
LAYER_1
 10
82.8419
 20
94.6812
  0
SEQEND
  0
INSERT
  8
LAYER_1
  2
AIGNBL01010046
 10
0
 20
0
 30
0
  0
POLYLINE
  8
LAYER_1
 40
0.2646
 41
0.2646
 66
1
 10
0
 20
0
 30
0
  0
VERTEX
  8
LAYER_1
 10
83.8559
 20
94.5641
  0
VERTEX
  8
LAYER_1
 10
82.9979
 20
94.5641
  0
SEQEND
  0
INSERT
  8
LAYER_1
  2
AIGNBL01010047
 10
0
 20
0
 30
0
  0
POLYLINE
  8
LAYER_1
 40
0.2646
 41
0.2646
 66
1
 10
0
 20
0
 30
0
  0
VERTEX
  8
LAYER_1
 10
88.3027
 20
112.1172
  0
VERTEX
  8
LAYER_1
 10
86.6253
 20
98.972
  0
SEQEND
  0
POLYLINE
  8
LAYER_1
 40
0.2646
 41
0.2646
 66
1
 10
0
 20
0
 30
0
  0
VERTEX
  8
LAYER_1
 10
86.1573
 20
98.5038
  0
VERTEX
  8
LAYER_1
 10
72.973
 20
98.0748
  0
SEQEND
  0
INSERT
  8
LAYER_1
  2
AIGNBL01010048
 10
0
 20
0
 30
0
  0
POLYLINE
  8
LAYER_1
 40
0.2646
 41
0.2646
 66
1
 10
0
 20
0
 30
0
  0
VERTEX
  8
LAYER_1
 10
86.5084
 20
95.8514
  0
VERTEX
  8
LAYER_1
 10
86.7035
 20
97.3336
  0
SEQEND
  0
INSERT
  8
LAYER_1
  2
AIGNBL01010049
 10
0
 20
0
 30
0
  0
POLYLINE
  8
LAYER_1
 40
0.2646
 41
0.2646
 66
1
 10
0
 20
0
 30
0
  0
VERTEX
  8
LAYER_1
 10
86.5084
 20
97.5286
  0
VERTEX
  8
LAYER_1
 10
83.193
 20
97.2944
  0
SEQEND
  0
INSERT
  8
LAYER_1
  2
AIGNBL0101004A
 10
0
 20
0
 30
0
  0
POLYLINE
  8
LAYER_1
 40
0.2646
 41
0.2646
 66
1
 10
0
 20
0
 30
0
  0
VERTEX
  8
LAYER_1
 10
82.9977
 20
97.0216
  0
VERTEX
  8
LAYER_1
 10
83.5048
 20
95.6955
  0
SEQEND
  0
INSERT
  8
LAYER_1
  2
AIGNBL0101004B
 10
0
 20
0
 30
0
  0
POLYLINE
  8
LAYER_1
 40
0.1411
 41
0.1411
 66
1
 10
0
 20
0
 30
0
  0
VERTEX
  8
LAYER_1
 10
86.4693
 20
98.6598
  0
VERTEX
  8
LAYER_1
 10
52.2601
 20
98.6598
  0
SEQEND
  0
INSERT
  8
LAYER_1
  2
AIGNBL0101004C
 10
0
 20
0
 30
0
  0
POLYLINE
  8
LAYER_1
 40
0.2646
 41
0.2646
 66
1
 10
0
 20
0
 30
0
  0
VERTEX
  8
LAYER_1
 10
114.7104
 20
96.6315
  0
VERTEX
  8
LAYER_1
 10
113.969
 20
94.6812
  0
SEQEND
  0
INSERT
  8
LAYER_1
  2
AIGNBL0101004D
 10
0
 20
0
 30
0
  0
POLYLINE
  8
LAYER_1
 40
0.2646
 41
0.2646
 66
1
 10
0
 20
0
 30
0
  0
VERTEX
  8
LAYER_1
 10
112.916
 20
94.5641
  0
VERTEX
  8
LAYER_1
 10
113.7741
 20
94.5641
  0
SEQEND
  0
INSERT
  8
LAYER_1
  2
AIGNBL0101004E
 10
0
 20
0
 30
0
  0
POLYLINE
  8
LAYER_1
 40
0.2646
 41
0.2646
 66
1
 10
0
 20
0
 30
0
  0
VERTEX
  8
LAYER_1
 10
108.4693
 20
112.1172
  0
VERTEX
  8
LAYER_1
 10
110.1467
 20
98.972
  0
SEQEND
  0
INSERT
  8
LAYER_1
  2
AIGNBL0101004F
 10
0
 20
0
 30
0
  0
POLYLINE
  8
LAYER_1
 40
0.2646
 41
0.2646
 66
1
 10
0
 20
0
 30
0
  0
VERTEX
  8
LAYER_1
 10
110.2636
 20
95.8514
  0
VERTEX
  8
LAYER_1
 10
110.0684
 20
97.3336
  0
SEQEND
  0
INSERT
  8
LAYER_1
  2
AIGNBL01010050
 10
0
 20
0
 30
0
  0
POLYLINE
  8
LAYER_1
 40
0.2646
 41
0.2646
 66
1
 10
0
 20
0
 30
0
  0
VERTEX
  8
LAYER_1
 10
110.3026
 20
97.5286
  0
VERTEX
  8
LAYER_1
 10
113.618
 20
97.2944
  0
SEQEND
  0
INSERT
  8
LAYER_1
  2
AIGNBL01010051
 10
0
 20
0
 30
0
  0
POLYLINE
  8
LAYER_1
 40
0.2646
 41
0.2646
 66
1
 10
0
 20
0
 30
0
  0
VERTEX
  8
LAYER_1
 10
113.7742
 20
97.0216
  0
VERTEX
  8
LAYER_1
 10
113.2671
 20
95.6955
  0
SEQEND
  0
INSERT
  8
LAYER_1
  2
AIGNBL01010052
 10
0
 20
0
 30
0
  0
POLYLINE
  8
LAYER_1
 40
0.1411
 41
0.1411
 66
1
 10
0
 20
0
 30
0
  0
VERTEX
  8
LAYER_1
 10
110.3026
 20
98.6598
  0
VERTEX
  8
LAYER_1
 10
144.5118
 20
98.6598
  0
SEQEND
  0
INSERT
  8
LAYER_1
  2
AIGNBL01010053
 10
0
 20
0
 30
0
  0
POLYLINE
  8
LAYER_1
 40
0.2646
 41
0.2646
 66
1
 10
0
 20
0
 30
0
  0
VERTEX
  8
LAYER_1
 10
140.1429
 20
96.6315
  0
VERTEX
  8
LAYER_1
 10
140.8842
 20
94.6812
  0
SEQEND
  0
INSERT
  8
LAYER_1
  2
AIGNBL01010054
 10
0
 20
0
 30
0
  0
POLYLINE
  8
LAYER_1
 40
0.2646
 41
0.2646
 66
1
 10
0
 20
0
 30
0
  0
VERTEX
  8
LAYER_1
 10
141.9372
 20
94.5641
  0
VERTEX
  8
LAYER_1
 10
141.0792
 20
94.5641
  0
SEQEND
  0
INSERT
  8
LAYER_1
  2
AIGNBL01010055
 10
0
 20
0
 30
0
  0
POLYLINE
  8
LAYER_1
 40
0.2646
 41
0.2646
 66
1
 10
0
 20
0
 30
0
  0
VERTEX
  8
LAYER_1
 10
146.384
 20
112.1172
  0
VERTEX
  8
LAYER_1
 10
144.7066
 20
98.972
  0
SEQEND
  0
INSERT
  8
LAYER_1
  2
AIGNBL01010056
 10
0
 20
0
 30
0
  0
POLYLINE
  8
LAYER_1
 40
0.2646
 41
0.2646
 66
1
 10
0
 20
0
 30
0
  0
VERTEX
  8
LAYER_1
 10
144.5897
 20
95.8514
  0
VERTEX
  8
LAYER_1
 10
144.7849
 20
97.3336
  0
SEQEND
  0
INSERT
  8
LAYER_1
  2
AIGNBL01010057
 10
0
 20
0
 30
0
  0
POLYLINE
  8
LAYER_1
 40
0.2646
 41
0.2646
 66
1
 10
0
 20
0
 30
0
  0
VERTEX
  8
LAYER_1
 10
144.5506
 20
97.5286
  0
VERTEX
  8
LAYER_1
 10
141.2739
 20
97.2944
  0
SEQEND
  0
INSERT
  8
LAYER_1
  2
AIGNBL01010058
 10
0
 20
0
 30
0
  0
POLYLINE
  8
LAYER_1
 40
0.2646
 41
0.2646
 66
1
 10
0
 20
0
 30
0
  0
VERTEX
  8
LAYER_1
 10
141.0791
 20
97.0216
  0
VERTEX
  8
LAYER_1
 10
141.5861
 20
95.6955
  0
SEQEND
  0
INSERT
  8
LAYER_1
  2
AIGNBL01010059
 10
0
 20
0
 30
0
  0
POLYLINE
  8
LAYER_1
 40
0.2646
 41
0.2646
 66
1
 10
0
 20
0
 30
0
  0
VERTEX
  8
LAYER_1
 10
109.0934
 20
94.9152
  0
VERTEX
  8
LAYER_1
 10
107.455
 20
111.454
  0
SEQEND
  0
INSERT
  8
LAYER_1
  2
AIGNBL0101005A
 10
0
 20
0
 30
0
  0
POLYLINE
  8
LAYER_1
 40
0.2646
 41
0.2646
 66
1
 10
0
 20
0
 30
0
  0
VERTEX
  8
LAYER_1
 10
145.7599
 20
94.9152
  0
VERTEX
  8
LAYER_1
 10
147.3982
 20
111.454
  0
SEQEND
  0
POLYLINE
  8
LAYER_1
 40
0.2646
 41
0.2646
 66
1
 10
0
 20
0
 30
0
  0
VERTEX
  8
LAYER_1
 10
51.5192
 20
94.5641
  0
VERTEX
  8
LAYER_1
 10
52.3381
 20
94.5641
  0
SEQEND
  0
POLYLINE
  8
LAYER_1
 40
0.2646
 41
0.2646
 66
1
 10
0
 20
0
 30
0
  0
VERTEX
  8
LAYER_1
 10
86.3523
 20
94.5641
  0
VERTEX
  8
LAYER_1
 10
87.1713
 20
94.5641
  0
SEQEND
  0
POLYLINE
  8
LAYER_1
 40
0.2646
 41
0.2646
 66
1
 10
0
 20
0
 30
0
  0
VERTEX
  8
LAYER_1
 10
109.6005
 20
94.5641
  0
VERTEX
  8
LAYER_1
 10
110.4195
 20
94.5641
  0
SEQEND
  0
POLYLINE
  8
LAYER_1
 40
0.2646
 41
0.2646
 66
1
 10
0
 20
0
 30
0
  0
VERTEX
  8
LAYER_1
 10
145.2528
 20
94.5641
  0
VERTEX
  8
LAYER_1
 10
144.4338
 20
94.5641
  0
SEQEND
  0
POLYLINE
  8
LAYER_1
 40
0.2646
 41
0.2646
 66
1
 10
0
 20
0
 30
0
  0
VERTEX
  8
LAYER_1
 10
218.3278
 20
111.6492
  0
VERTEX
  8
LAYER_1
 10
218.3278
 20
112.3515
  0
SEQEND
  0
POLYLINE
  8
LAYER_1
 40
0.2646
 41
0.2646
 66
1
 10
0
 20
0
 30
0
  0
VERTEX
  8
LAYER_1
 10
208.8101
 20
112.5463
  0
VERTEX
  8
LAYER_1
 10
210.6043
 20
112.5463
  0
SEQEND
  0
POLYLINE
  8
LAYER_1
 40
0.2646
 41
0.2646
 66
1
 10
0
 20
0
 30
0
  0
VERTEX
  8
LAYER_1
 10
170.7784
 20
94.5641
  0
VERTEX
  8
LAYER_1
 10
172.3387
 20
94.5641
  0
SEQEND
  0
POLYLINE
  8
LAYER_1
 40
0.2646
 41
0.2646
 66
1
 10
0
 20
0
 30
0
  0
VERTEX
  8
LAYER_1
 10
207.2889
 20
94.5641
  0
VERTEX
  8
LAYER_1
 10
206.3527
 20
94.5641
  0
SEQEND
  0
POLYLINE
  8
LAYER_1
 40
0.0353
 41
0.0353
 66
1
 10
0
 20
0
 30
0
  0
VERTEX
  8
LAYER_1
 10
127.3876
 20
98.0748
  0
VERTEX
  8
LAYER_1
 10
126.7634
 20
98.0748
  0
SEQEND
  0
POLYLINE
  8
LAYER_1
 40
0.0353
 41
0.0353
 66
1
 10
0
 20
0
 30
0
  0
VERTEX
  8
LAYER_1
 10
127.3876
 20
112.5463
  0
VERTEX
  8
LAYER_1
 10
126.7634
 20
112.5463
  0
SEQEND
  0
POLYLINE
  8
LAYER_1
 40
0.0353
 41
0.0353
 66
1
 10
0
 20
0
 30
0
  0
VERTEX
  8
LAYER_1
 10
126.9195
 20
99.557
  0
VERTEX
  8
LAYER_1
 10
126.9195
 20
102.5996
  0
SEQEND
  0
POLYLINE
  8
LAYER_1
 40
0.0353
 41
0.0353
 66
1
 10
0
 20
0
 30
0
  0
VERTEX
  8
LAYER_1
 10
126.9195
 20
111.0641
  0
VERTEX
  8
LAYER_1
 10
126.9195
 20
108.0215
  0
SEQEND
  0
POLYLINE
  8
LAYER_1
 40
0.05
 41
0.05
 66
1
 10
0
 20
0
 30
0
 70
1
  0
VERTEX
  8
LAYER_1
 10
126.6465
 20
99.557
  0
VERTEX
  8
LAYER_1
 10
127.1536
 20
99.557
  0
VERTEX
  8
LAYER_1
 10
126.9194
 20
98.0748
  0
SEQEND
  0
POLYLINE
  8
LAYER_1
 66
1
 10
0
 20
0
 30
0
 70
1
  0
VERTEX
  8
LAYER_1
 10
126.6465
 20
99.557
  0
VERTEX
  8
LAYER_1
 10
127.1536
 20
99.557
  0
VERTEX
  8
LAYER_1
 10
126.9194
 20
98.0748
  0
SEQEND
  0
POLYLINE
  8
LAYER_1
 40
0.05
 41
0.05
 66
1
 10
0
 20
0
 30
0
 70
1
  0
VERTEX
  8
LAYER_1
 10
126.6465
 20
111.0641
  0
VERTEX
  8
LAYER_1
 10
127.1536
 20
111.0641
  0
VERTEX
  8
LAYER_1
 10
126.9194
 20
112.5463
  0
SEQEND
  0
POLYLINE
  8
LAYER_1
 66
1
 10
0
 20
0
 30
0
 70
1
  0
VERTEX
  8
LAYER_1
 10
126.6465
 20
111.0641
  0
VERTEX
  8
LAYER_1
 10
127.1536
 20
111.0641
  0
VERTEX
  8
LAYER_1
 10
126.9194
 20
112.5463
  0
SEQEND
  0
INSERT
  8
LAYER_1
  2
AIGNBL0101005B
 10
0
 20
0
 30
0
  0
POLYLINE
  8
LAYER_1
 40
0.0353
 41
0.0353
 66
1
 10
0
 20
0
 30
0
  0
VERTEX
  8
LAYER_1
 10
66.9269
 20
165.2837
  0
VERTEX
  8
LAYER_1
 10
67.6291
 20
163.9576
  0
SEQEND
  0
POLYLINE
  8
LAYER_1
 40
0.0353
 41
0.0353
 66
1
 10
0
 20
0
 30
0
  0
VERTEX
  8
LAYER_1
 10
71.1786
 20
157.2482
  0
VERTEX
  8
LAYER_1
 10
71.8809
 20
155.9222
  0
SEQEND
  0
TEXT
  8
LAYER_1
 10
62.3241
 20
171.3299
 11
62.3241
 21
171.3299
 40
3.7019
 41
0.5
 50
297.8834991
  1
 ｯ45
  0
POLYLINE
  8
LAYER_1
 40
0.0353
 41
0.0353
 66
1
 10
0
 20
0
 30
0
  0
VERTEX
  8
LAYER_1
 10
70.4765
 20
158.5745
  0
VERTEX
  8
LAYER_1
 10
68.331
 20
162.6312
  0
SEQEND
  0
POLYLINE
  8
LAYER_1
 40
0.05
 41
0.05
 66
1
 10
0
 20
0
 30
0
 70
1
  0
VERTEX
  8
LAYER_1
 10
71.3737
 20
157.3653
  0
VERTEX
  8
LAYER_1
 10
70.9447
 20
157.1311
  0
VERTEX
  8
LAYER_1
 10
70.4766
 20
158.5746
  0
SEQEND
  0
POLYLINE
  8
LAYER_1
 66
1
 10
0
 20
0
 30
0
 70
1
  0
VERTEX
  8
LAYER_1
 10
71.3737
 20
157.3653
  0
VERTEX
  8
LAYER_1
 10
70.9447
 20
157.1311
  0
VERTEX
  8
LAYER_1
 10
70.4766
 20
158.5746
  0
SEQEND
  0
POLYLINE
  8
LAYER_1
 40
0.05
 41
0.05
 66
1
 10
0
 20
0
 30
0
 70
1
  0
VERTEX
  8
LAYER_1
 10
67.8241
 20
164.0745
  0
VERTEX
  8
LAYER_1
 10
67.395
 20
163.8403
  0
VERTEX
  8
LAYER_1
 10
68.3311
 20
162.6313
  0
SEQEND
  0
POLYLINE
  8
LAYER_1
 66
1
 10
0
 20
0
 30
0
 70
1
  0
VERTEX
  8
LAYER_1
 10
67.8241
 20
164.0745
  0
VERTEX
  8
LAYER_1
 10
67.395
 20
163.8403
  0
VERTEX
  8
LAYER_1
 10
68.3311
 20
162.6313
  0
SEQEND
  0
INSERT
  8
LAYER_1
  2
AIGNBL0101005C
 10
0
 20
0
 30
0
  0
POLYLINE
  8
LAYER_1
 40
0.2646
 41
0.2646
 66
1
 10
0
 20
0
 30
0
  0
VERTEX
  8
LAYER_1
 10
67.0439
 20
96.7485
  0
VERTEX
  8
LAYER_1
 10
67.0439
 20
95.5392
  0
VERTEX
  8
LAYER_1
 10
66.3416
 20
95.5392
  0
VERTEX
  8
LAYER_1
 10
66.3416
 20
96.1243
  0
VERTEX
  8
LAYER_1
 10
65.3665
 20
97.0995
  0
SEQEND
  0
POLYLINE
  8
LAYER_1
 40
0.2646
 41
0.2646
 66
1
 10
0
 20
0
 30
0
  0
VERTEX
  8
LAYER_1
 10
71.6467
 20
95.5393
  0
VERTEX
  8
LAYER_1
 10
71.6467
 20
96.7487
  0
SEQEND
  0
INSERT
  8
LAYER_1
  2
AIGNBL0101005D
 10
0
 20
0
 30
0
  0
POLYLINE
  8
LAYER_1
 40
0.2646
 41
0.2646
 66
1
 10
0
 20
0
 30
0
  0
VERTEX
  8
LAYER_1
 10
73.324
 20
97.0996
  0
VERTEX
  8
LAYER_1
 10
72.3489
 20
96.1244
  0
VERTEX
  8
LAYER_1
 10
72.3489
 20
95.5393
  0
VERTEX
  8
LAYER_1
 10
71.6466
 20
95.5393
  0
SEQEND
  0
POLYLINE
  8
LAYER_1
 40
0.1411
 41
0.1411
 66
1
 10
0
 20
0
 30
0
  0
VERTEX
  8
LAYER_1
 10
66.9659
 20
96.9046
  0
VERTEX
  8
LAYER_1
 10
71.6858
 20
96.9046
  0
SEQEND
  0
POLYLINE
  8
LAYER_1
 40
0.1411
 41
0.1411
 66
1
 10
0
 20
0
 30
0
  0
VERTEX
  8
LAYER_1
 10
67.0439
 20
95.5393
  0
VERTEX
  8
LAYER_1
 10
71.6467
 20
95.5393
  0
SEQEND
  0
INSERT
  8
LAYER_1
  2
AIGNBL0101005E
 10
0
 20
0
 30
0
  0
POLYLINE
  8
LAYER_1
 40
0.2646
 41
0.2646
 66
1
 10
0
 20
0
 30
0
  0
VERTEX
  8
LAYER_1
 10
123.916
 20
97.9967
  0
VERTEX
  8
LAYER_1
 10
125.0473
 20
96.9045
  0
SEQEND
  0
INSERT
  8
LAYER_1
  2
AIGNBL0101005F
 10
0
 20
0
 30
0
  0
POLYLINE
  8
LAYER_1
 40
0.2646
 41
0.2646
 66
1
 10
0
 20
0
 30
0
  0
VERTEX
  8
LAYER_1
 10
125.1252
 20
96.7485
  0
VERTEX
  8
LAYER_1
 10
125.1252
 20
95.5392
  0
SEQEND
  0
POLYLINE
  8
LAYER_1
 40
0.2646
 41
0.2646
 66
1
 10
0
 20
0
 30
0
  0
VERTEX
  8
LAYER_1
 10
124.4231
 20
95.5393
  0
VERTEX
  8
LAYER_1
 10
124.4231
 20
96.1245
  0
VERTEX
  8
LAYER_1
 10
123.4479
 20
97.0996
  0
VERTEX
  8
LAYER_1
 10
115.4907
 20
97.1777
  0
SEQEND
  0
POLYLINE
  8
LAYER_1
 40
0.2646
 41
0.2646
 66
1
 10
0
 20
0
 30
0
  0
VERTEX
  8
LAYER_1
 10
110.6146
 20
98.5038
  0
VERTEX
  8
LAYER_1
 10
123.799
 20
98.0748
  0
SEQEND
  0
POLYLINE
  8
LAYER_1
 40
0.1411
 41
0.1411
 66
1
 10
0
 20
0
 30
0
  0
VERTEX
  8
LAYER_1
 10
110.3026
 20
98.6598
  0
VERTEX
  8
LAYER_1
 10
144.5118
 20
98.6598
  0
SEQEND
  0
POLYLINE
  8
LAYER_1
 40
0.1411
 41
0.1411
 66
1
 10
0
 20
0
 30
0
  0
VERTEX
  8
LAYER_1
 10
123.799
 20
98.0748
  0
VERTEX
  8
LAYER_1
 10
131.0544
 20
98.0748
  0
SEQEND
  0
POLYLINE
  8
LAYER_1
 40
0.1411
 41
0.1411
 66
1
 10
0
 20
0
 30
0
  0
VERTEX
  8
LAYER_1
 10
125.0472
 20
96.9046
  0
VERTEX
  8
LAYER_1
 10
129.7672
 20
96.9046
  0
SEQEND
  0
INSERT
  8
LAYER_1
  2
AIGNBL01010060
 10
0
 20
0
 30
0
  0
POLYLINE
  8
LAYER_1
 40
0.2646
 41
0.2646
 66
1
 10
0
 20
0
 30
0
  0
VERTEX
  8
LAYER_1
 10
130.8982
 20
97.9967
  0
VERTEX
  8
LAYER_1
 10
129.7669
 20
96.9045
  0
SEQEND
  0
POLYLINE
  8
LAYER_1
 40
0.2646
 41
0.2646
 66
1
 10
0
 20
0
 30
0
  0
VERTEX
  8
LAYER_1
 10
131.4053
 20
97.0996
  0
VERTEX
  8
LAYER_1
 10
139.3626
 20
97.1777
  0
SEQEND
  0
POLYLINE
  8
LAYER_1
 40
0.2646
 41
0.2646
 66
1
 10
0
 20
0
 30
0
  0
VERTEX
  8
LAYER_1
 10
144.2386
 20
98.5038
  0
VERTEX
  8
LAYER_1
 10
131.0543
 20
98.0748
  0
SEQEND
  0
POLYLINE
  8
LAYER_1
 40
0.1411
 41
0.1411
 66
1
 10
0
 20
0
 30
0
  0
VERTEX
  8
LAYER_1
 10
144.5506
 20
98.6598
  0
VERTEX
  8
LAYER_1
 10
110.3414
 20
98.6598
  0
SEQEND
  0
INSERT
  8
LAYER_1
  2
AIGNBL01010061
 10
0
 20
0
 30
0
  0
POLYLINE
  8
LAYER_1
 40
0.2646
 41
0.2646
 66
1
 10
0
 20
0
 30
0
  0
VERTEX
  8
LAYER_1
 10
125.1252
 20
96.7485
  0
VERTEX
  8
LAYER_1
 10
125.1252
 20
95.5392
  0
VERTEX
  8
LAYER_1
 10
124.4229
 20
95.5392
  0
VERTEX
  8
LAYER_1
 10
124.4229
 20
96.1243
  0
VERTEX
  8
LAYER_1
 10
123.4478
 20
97.0995
  0
SEQEND
  0
POLYLINE
  8
LAYER_1
 40
0.2646
 41
0.2646
 66
1
 10
0
 20
0
 30
0
  0
VERTEX
  8
LAYER_1
 10
129.728
 20
95.5393
  0
VERTEX
  8
LAYER_1
 10
129.728
 20
96.7487
  0
SEQEND
  0
INSERT
  8
LAYER_1
  2
AIGNBL01010062
 10
0
 20
0
 30
0
  0
POLYLINE
  8
LAYER_1
 40
0.2646
 41
0.2646
 66
1
 10
0
 20
0
 30
0
  0
VERTEX
  8
LAYER_1
 10
131.4053
 20
97.0996
  0
VERTEX
  8
LAYER_1
 10
130.3911
 20
96.1244
  0
VERTEX
  8
LAYER_1
 10
130.3911
 20
95.5393
  0
VERTEX
  8
LAYER_1
 10
129.7279
 20
95.5393
  0
SEQEND
  0
POLYLINE
  8
LAYER_1
 40
0.1411
 41
0.1411
 66
1
 10
0
 20
0
 30
0
  0
VERTEX
  8
LAYER_1
 10
125.0472
 20
96.9046
  0
VERTEX
  8
LAYER_1
 10
129.7672
 20
96.9046
  0
SEQEND
  0
POLYLINE
  8
LAYER_1
 40
0.1411
 41
0.1411
 66
1
 10
0
 20
0
 30
0
  0
VERTEX
  8
LAYER_1
 10
125.1252
 20
95.5393
  0
VERTEX
  8
LAYER_1
 10
129.7281
 20
95.5393
  0
SEQEND
  0
POLYLINE
  8
LAYER_1
 40
0.2646
 41
0.2646
 66
1
 10
0
 20
0
 30
0
  0
VERTEX
  8
LAYER_1
 10
186.3422
 20
95.5393
  0
VERTEX
  8
LAYER_1
 10
187.0444
 20
95.5393
  0
SEQEND
  0
POLYLINE
  8
LAYER_1
 40
0.1411
 41
0.1411
 66
1
 10
0
 20
0
 30
0
  0
VERTEX
  8
LAYER_1
 10
187.0443
 20
95.5393
  0
VERTEX
  8
LAYER_1
 10
191.6862
 20
95.5393
  0
SEQEND
  0
POLYLINE
  8
LAYER_1
 40
0.2646
 41
0.2646
 66
1
 10
0
 20
0
 30
0
  0
VERTEX
  8
LAYER_1
 10
191.6861
 20
95.5393
  0
VERTEX
  8
LAYER_1
 10
192.3493
 20
95.5393
  0
SEQEND
  0
POLYLINE
  8
LAYER_1
 40
0.0353
 41
0.0353
 66
1
 10
0
 20
0
 30
0
  0
VERTEX
  8
LAYER_1
 10
127.4266
 20
95.5003
  0
VERTEX
  8
LAYER_1
 10
127.4266
 20
91.3265
  0
SEQEND
  0
POLYLINE
  8
LAYER_1
 40
0.0353
 41
0.0353
 66
1
 10
0
 20
0
 30
0
  0
VERTEX
  8
LAYER_1
 10
69.3453
 20
95.5003
  0
VERTEX
  8
LAYER_1
 10
69.3453
 20
91.3265
  0
SEQEND
  0
POLYLINE
  8
LAYER_1
 40
0.0353
 41
0.0353
 66
1
 10
0
 20
0
 30
0
  0
VERTEX
  8
LAYER_1
 10
125.9054
 20
91.4436
  0
VERTEX
  8
LAYER_1
 10
101.2141
 20
91.4436
  0
SEQEND
  0
POLYLINE
  8
LAYER_1
 40
0.0353
 41
0.0353
 66
1
 10
0
 20
0
 30
0
  0
VERTEX
  8
LAYER_1
 10
70.8276
 20
91.4436
  0
VERTEX
  8
LAYER_1
 10
95.5579
 20
91.4436
  0
SEQEND
  0
POLYLINE
  8
LAYER_1
 40
0.05
 41
0.05
 66
1
 10
0
 20
0
 30
0
 70
1
  0
VERTEX
  8
LAYER_1
 10
125.9054
 20
91.6776
  0
VERTEX
  8
LAYER_1
 10
125.9054
 20
91.1705
  0
VERTEX
  8
LAYER_1
 10
127.4266
 20
91.4434
  0
SEQEND
  0
POLYLINE
  8
LAYER_1
 66
1
 10
0
 20
0
 30
0
 70
1
  0
VERTEX
  8
LAYER_1
 10
125.9054
 20
91.6776
  0
VERTEX
  8
LAYER_1
 10
125.9054
 20
91.1705
  0
VERTEX
  8
LAYER_1
 10
127.4266
 20
91.4434
  0
SEQEND
  0
POLYLINE
  8
LAYER_1
 40
0.05
 41
0.05
 66
1
 10
0
 20
0
 30
0
 70
1
  0
VERTEX
  8
LAYER_1
 10
70.8276
 20
91.6776
  0
VERTEX
  8
LAYER_1
 10
70.8276
 20
91.1705
  0
VERTEX
  8
LAYER_1
 10
69.3454
 20
91.4434
  0
SEQEND
  0
POLYLINE
  8
LAYER_1
 66
1
 10
0
 20
0
 30
0
 70
1
  0
VERTEX
  8
LAYER_1
 10
70.8276
 20
91.6776
  0
VERTEX
  8
LAYER_1
 10
70.8276
 20
91.1705
  0
VERTEX
  8
LAYER_1
 10
69.3454
 20
91.4434
  0
SEQEND
  0
INSERT
  8
LAYER_1
  2
AIGNBL01010063
 10
0
 20
0
 30
0
  0
POLYLINE
  8
LAYER_1
 40
0.0353
 41
0.0353
 66
1
 10
0
 20
0
 30
0
  0
VERTEX
  8
LAYER_1
 10
69.3843
 20
160.6809
  0
VERTEX
  8
LAYER_1
 10
69.3843
 20
160.7199
  0
SEQEND
  0
POLYLINE
  8
LAYER_1
 40
0.0353
 41
0.0353
 66
1
 10
0
 20
0
 30
0
  0
VERTEX
  8
LAYER_1
 10
127.3876
 20
160.6809
  0
VERTEX
  8
LAYER_1
 10
127.3876
 20
160.7199
  0
SEQEND
  0
POLYLINE
  8
LAYER_1
 40
0.0353
 41
0.0353
 66
1
 10
0
 20
0
 30
0
  0
VERTEX
  8
LAYER_1
 10
70.8666
 20
160.6029
  0
VERTEX
  8
LAYER_1
 10
95.5578
 20
160.6029
  0
SEQEND
  0
POLYLINE
  8
LAYER_1
 40
0.0353
 41
0.0353
 66
1
 10
0
 20
0
 30
0
  0
VERTEX
  8
LAYER_1
 10
125.9054
 20
160.6029
  0
VERTEX
  8
LAYER_1
 10
101.2141
 20
160.6029
  0
SEQEND
  0
POLYLINE
  8
LAYER_1
 40
0.05
 41
0.05
 66
1
 10
0
 20
0
 30
0
 70
1
  0
VERTEX
  8
LAYER_1
 10
70.8666
 20
160.8369
  0
VERTEX
  8
LAYER_1
 10
70.8666
 20
160.3688
  0
VERTEX
  8
LAYER_1
 10
69.3844
 20
160.6027
  0
SEQEND
  0
POLYLINE
  8
LAYER_1
 66
1
 10
0
 20
0
 30
0
 70
1
  0
VERTEX
  8
LAYER_1
 10
70.8666
 20
160.8369
  0
VERTEX
  8
LAYER_1
 10
70.8666
 20
160.3688
  0
VERTEX
  8
LAYER_1
 10
69.3844
 20
160.6027
  0
SEQEND
  0
POLYLINE
  8
LAYER_1
 40
0.05
 41
0.05
 66
1
 10
0
 20
0
 30
0
 70
1
  0
VERTEX
  8
LAYER_1
 10
125.9054
 20
160.8369
  0
VERTEX
  8
LAYER_1
 10
125.9054
 20
160.3688
  0
VERTEX
  8
LAYER_1
 10
127.3876
 20
160.6027
  0
SEQEND
  0
POLYLINE
  8
LAYER_1
 66
1
 10
0
 20
0
 30
0
 70
1
  0
VERTEX
  8
LAYER_1
 10
125.9054
 20
160.8369
  0
VERTEX
  8
LAYER_1
 10
125.9054
 20
160.3688
  0
VERTEX
  8
LAYER_1
 10
127.3876
 20
160.6027
  0
SEQEND
  0
INSERT
  8
LAYER_1
  2
AIGNBL01010064
 10
0
 20
0
 30
0
  0
POLYLINE
  8
LAYER_1
 40
0.0353
 41
0.0353
 66
1
 10
0
 20
0
 30
0
  0
VERTEX
  8
LAYER_1
 10
45.161
 20
112.5463
  0
VERTEX
  8
LAYER_1
 10
41.4552
 20
112.5463
  0
SEQEND
  0
POLYLINE
  8
LAYER_1
 40
0.0353
 41
0.0353
 66
1
 10
0
 20
0
 30
0
  0
VERTEX
  8
LAYER_1
 10
51.4802
 20
94.5641
  0
VERTEX
  8
LAYER_1
 10
41.4555
 20
94.5641
  0
SEQEND
  0
POLYLINE
  8
LAYER_1
 40
0.0353
 41
0.0353
 66
1
 10
0
 20
0
 30
0
  0
VERTEX
  8
LAYER_1
 10
41.6114
 20
111.0641
  0
VERTEX
  8
LAYER_1
 10
41.6114
 20
106.266
  0
SEQEND
  0
POLYLINE
  8
LAYER_1
 40
0.0353
 41
0.0353
 66
1
 10
0
 20
0
 30
0
  0
VERTEX
  8
LAYER_1
 10
41.6114
 20
96.0464
  0
VERTEX
  8
LAYER_1
 10
41.6114
 20
100.8444
  0
SEQEND
  0
POLYLINE
  8
LAYER_1
 40
0.05
 41
0.05
 66
1
 10
0
 20
0
 30
0
 70
1
  0
VERTEX
  8
LAYER_1
 10
41.3383
 20
111.0641
  0
VERTEX
  8
LAYER_1
 10
41.8454
 20
111.0641
  0
VERTEX
  8
LAYER_1
 10
41.6112
 20
112.5463
  0
SEQEND
  0
POLYLINE
  8
LAYER_1
 66
1
 10
0
 20
0
 30
0
 70
1
  0
VERTEX
  8
LAYER_1
 10
41.3383
 20
111.0641
  0
VERTEX
  8
LAYER_1
 10
41.8454
 20
111.0641
  0
VERTEX
  8
LAYER_1
 10
41.6112
 20
112.5463
  0
SEQEND
  0
POLYLINE
  8
LAYER_1
 40
0.05
 41
0.05
 66
1
 10
0
 20
0
 30
0
 70
1
  0
VERTEX
  8
LAYER_1
 10
41.3383
 20
96.0464
  0
VERTEX
  8
LAYER_1
 10
41.8454
 20
96.0464
  0
VERTEX
  8
LAYER_1
 10
41.6112
 20
94.5642
  0
SEQEND
  0
POLYLINE
  8
LAYER_1
 66
1
 10
0
 20
0
 30
0
 70
1
  0
VERTEX
  8
LAYER_1
 10
41.3383
 20
96.0464
  0
VERTEX
  8
LAYER_1
 10
41.8454
 20
96.0464
  0
VERTEX
  8
LAYER_1
 10
41.6112
 20
94.5642
  0
SEQEND
  0
INSERT
  8
LAYER_1
  2
AIGNBL01010065
 10
0
 20
0
 30
0
  0
POLYLINE
  8
LAYER_1
 40
0.0353
 41
0.0353
 66
1
 10
0
 20
0
 30
0
  0
VERTEX
  8
LAYER_1
 10
212.3208
 20
111.3761
  0
VERTEX
  8
LAYER_1
 10
212.3208
 20
108.9968
  0
SEQEND
  0
POLYLINE
  8
LAYER_1
 40
0.0353
 41
0.0353
 66
1
 10
0
 20
0
 30
0
  0
VERTEX
  8
LAYER_1
 10
218.3278
 20
111.3761
  0
VERTEX
  8
LAYER_1
 10
218.3278
 20
108.9968
  0
SEQEND
  0
POLYLINE
  8
LAYER_1
 40
0.0353
 41
0.0353
 66
1
 10
0
 20
0
 30
0
  0
VERTEX
  8
LAYER_1
 10
210.8385
 20
109.1527
  0
VERTEX
  8
LAYER_1
 10
209.3172
 20
109.1527
  0
SEQEND
  0
POLYLINE
  8
LAYER_1
 40
0.0353
 41
0.0353
 66
1
 10
0
 20
0
 30
0
  0
VERTEX
  8
LAYER_1
 10
219.8491
 20
109.1527
  0
VERTEX
  8
LAYER_1
 10
221.3313
 20
109.1527
  0
SEQEND
  0
POLYLINE
  8
LAYER_1
 40
0.0353
 41
0.0353
 66
1
 10
0
 20
0
 30
0
  0
VERTEX
  8
LAYER_1
 10
212.3208
 20
109.1527
  0
VERTEX
  8
LAYER_1
 10
213.4911
 20
109.1527
  0
SEQEND
  0
POLYLINE
  8
LAYER_1
 40
0.0353
 41
0.0353
 66
1
 10
0
 20
0
 30
0
  0
VERTEX
  8
LAYER_1
 10
218.3278
 20
109.1527
  0
VERTEX
  8
LAYER_1
 10
217.1965
 20
109.1527
  0
SEQEND
  0
POLYLINE
  8
LAYER_1
 40
0.05
 41
0.05
 66
1
 10
0
 20
0
 30
0
 70
1
  0
VERTEX
  8
LAYER_1
 10
210.8385
 20
109.3868
  0
VERTEX
  8
LAYER_1
 10
210.8385
 20
108.8797
  0
VERTEX
  8
LAYER_1
 10
212.3207
 20
109.1525
  0
SEQEND
  0
POLYLINE
  8
LAYER_1
 66
1
 10
0
 20
0
 30
0
 70
1
  0
VERTEX
  8
LAYER_1
 10
210.8385
 20
109.3868
  0
VERTEX
  8
LAYER_1
 10
210.8385
 20
108.8797
  0
VERTEX
  8
LAYER_1
 10
212.3207
 20
109.1525
  0
SEQEND
  0
POLYLINE
  8
LAYER_1
 40
0.05
 41
0.05
 66
1
 10
0
 20
0
 30
0
 70
1
  0
VERTEX
  8
LAYER_1
 10
219.8491
 20
109.3868
  0
VERTEX
  8
LAYER_1
 10
219.8491
 20
108.8797
  0
VERTEX
  8
LAYER_1
 10
218.3278
 20
109.1525
  0
SEQEND
  0
POLYLINE
  8
LAYER_1
 66
1
 10
0
 20
0
 30
0
 70
1
  0
VERTEX
  8
LAYER_1
 10
219.8491
 20
109.3868
  0
VERTEX
  8
LAYER_1
 10
219.8491
 20
108.8797
  0
VERTEX
  8
LAYER_1
 10
218.3278
 20
109.1525
  0
SEQEND
  0
INSERT
  8
LAYER_1
  2
AIGNBL01010066
 10
0
 20
0
 30
0
  0
POLYLINE
  8
LAYER_1
 40
0.0353
 41
0.0353
 66
1
 10
0
 20
0
 30
0
  0
VERTEX
  8
LAYER_1
 10
218.3278
 20
111.9612
  0
VERTEX
  8
LAYER_1
 10
218.3278
 20
91.5605
  0
SEQEND
  0
POLYLINE
  8
LAYER_1
 40
0.0353
 41
0.0353
 66
1
 10
0
 20
0
 30
0
  0
VERTEX
  8
LAYER_1
 10
189.3457
 20
97.9967
  0
VERTEX
  8
LAYER_1
 10
189.3457
 20
91.5607
  0
SEQEND
  0
POLYLINE
  8
LAYER_1
 40
0.0353
 41
0.0353
 66
1
 10
0
 20
0
 30
0
  0
VERTEX
  8
LAYER_1
 10
216.8456
 20
91.7166
  0
VERTEX
  8
LAYER_1
 10
206.6647
 20
91.7166
  0
SEQEND
  0
POLYLINE
  8
LAYER_1
 40
0.0353
 41
0.0353
 66
1
 10
0
 20
0
 30
0
  0
VERTEX
  8
LAYER_1
 10
190.828
 20
91.7166
  0
VERTEX
  8
LAYER_1
 10
201.0088
 20
91.7166
  0
SEQEND
  0
POLYLINE
  8
LAYER_1
 40
0.05
 41
0.05
 66
1
 10
0
 20
0
 30
0
 70
1
  0
VERTEX
  8
LAYER_1
 10
216.8456
 20
91.9507
  0
VERTEX
  8
LAYER_1
 10
216.8456
 20
91.4436
  0
VERTEX
  8
LAYER_1
 10
218.3278
 20
91.7165
  0
SEQEND
  0
POLYLINE
  8
LAYER_1
 66
1
 10
0
 20
0
 30
0
 70
1
  0
VERTEX
  8
LAYER_1
 10
216.8456
 20
91.9507
  0
VERTEX
  8
LAYER_1
 10
216.8456
 20
91.4436
  0
VERTEX
  8
LAYER_1
 10
218.3278
 20
91.7165
  0
SEQEND
  0
POLYLINE
  8
LAYER_1
 40
0.05
 41
0.05
 66
1
 10
0
 20
0
 30
0
 70
1
  0
VERTEX
  8
LAYER_1
 10
190.828
 20
91.9507
  0
VERTEX
  8
LAYER_1
 10
190.828
 20
91.4436
  0
VERTEX
  8
LAYER_1
 10
189.3457
 20
91.7165
  0
SEQEND
  0
POLYLINE
  8
LAYER_1
 66
1
 10
0
 20
0
 30
0
 70
1
  0
VERTEX
  8
LAYER_1
 10
190.828
 20
91.9507
  0
VERTEX
  8
LAYER_1
 10
190.828
 20
91.4436
  0
VERTEX
  8
LAYER_1
 10
189.3457
 20
91.7165
  0
SEQEND
  0
INSERT
  8
LAYER_1
  2
AIGNBL01010067
 10
0
 20
0
 30
0
  0
TEXT
  8
LAYER_1
 10
129.5025
 20
182.785
 11
129.5025
 21
182.785
 40
3.1616
 41
0.5
  1
ｯ35
  0
TEXT
  8
LAYER_1
 10
61.2473
 20
182.785
 11
61.2473
 21
182.785
 40
3.1616
 41
0.5
  1
ｯ35
  0
TEXT
  8
LAYER_1
 10
-24.4701
 20
202.6271
 11
-24.4701
 21
202.6271
 40
2.5981
 41
0.5
  1
※陶器製品は寸法公差が発生します。
  0
TEXT
  8
LAYER_2
 10
-26.2556
 20
43.1712
 11
-26.2556
 21
43.1712
 40
3.2995
 41
0.5
  1
仕様
  0
POLYLINE
  8
LAYER_2
 40
0.3528
 41
0.3528
 66
1
 10
0
 20
0
 30
0
  0
VERTEX
  8
LAYER_2
 10
250.3732
 20
51.9507
  0
VERTEX
  8
LAYER_2
 10
-29.0772
 20
51.9507
  0
SEQEND
  0
INSERT
  8
LAYER_2
  2
AIGNBL02010002
 10
0
 20
0
 30
0
  0
POLYLINE
  8
LAYER_2
 40
0.3528
 41
0.3528
 66
1
 10
0
 20
0
 30
0
  0
VERTEX
  8
LAYER_2
 10
-29.3178
 20
229.3369
  0
VERTEX
  8
LAYER_2
 10
-29.3178
 20
34.3283
  0
VERTEX
  8
LAYER_2
 10
250.6748
 20
34.3283
  0
VERTEX
  8
LAYER_2
 10
250.6748
 20
229.3369
  0
VERTEX
  8
LAYER_2
 10
-29.3178
 20
229.3369
  0
SEQEND
  0
POLYLINE
  8
LAYER_2
 40
0.3528
 41
0.3528
 66
1
 10
0
 20
0
 30
0
  0
VERTEX
  8
LAYER_2
 10
250.3732
 20
60.4597
  0
VERTEX
  8
LAYER_2
 10
-29.0772
 20
60.4597
  0
SEQEND
  0
POLYLINE
  8
LAYER_2
 40
0.3528
 41
0.3528
 66
1
 10
0
 20
0
 30
0
  0
VERTEX
  8
LAYER_2
 10
250.6748
 20
43.4416
  0
VERTEX
  8
LAYER_2
 10
99.6867
 20
43.4416
  0
SEQEND
  0
TEXT
  8
LAYER_2
 10
182.8808
 20
49.4743
 11
182.8808
 21
49.4743
 40
2.1997
 41
0.5
  1
縮尺
  0
POLYLINE
  8
LAYER_2
 40
0.3528
 41
0.3528
 66
1
 10
0
 20
0
 30
0
  0
VERTEX
  8
LAYER_2
 10
181.3526
 20
43.4416
  0
VERTEX
  8
LAYER_2
 10
181.3526
 20
51.9507
  0
SEQEND
  0
TEXT
  8
LAYER_2
 10
100.3854
 20
57.9834
 11
100.3854
 21
57.9834
 40
2.1997
 41
0.5
  1
品番
  0
TEXT
  8
LAYER_2
 10
-28.1609
 20
57.9834
 11
-28.1609
 21
57.9834
 40
2.1997
 41
0.5
  1
品名
  0
TEXT
  8
LAYER_2
 10
100.3854
 20
49.4743
 11
100.3854
 21
49.4743
 40
2.1997
 41
0.5
  1
重量
  0
TEXT
  8
LAYER_2
 10
107.4535
 20
54.1714
 11
107.4535
 21
54.1714
 40
4.6883
 41
0.5
  1
CIE-CALAD/
  0
TEXT
  8
LAYER_2
 10
110.774
 20
45.7175
 11
110.774
 21
45.7175
 40
3.7615
 41
0.5
  1
33.95kg
  0
POLYLINE
  8
LAYER_2
 40
0.3528
 41
0.3528
 66
1
 10
0
 20
0
 30
0
  0
VERTEX
  8
LAYER_2
 10
99.6867
 20
34.9539
  0
VERTEX
  8
LAYER_2
 10
99.6867
 20
60.4597
  0
SEQEND
  0
TEXT
  8
LAYER_2
 10
-15.3768
 20
54.891
 11
-15.3768
 21
54.891
 40
4.1465
 41
0.5
  1
カティーノダブル洗面ボウル1100mm
  0
INSERT
  8
LAYER_2
  2
AIGNBL02010003
 10
0
 20
0
 30
0
  0
TEXT
  8
LAYER_2
 10
-15.6835
 20
45.3736
 11
-15.6835
 21
45.3736
 40
3.5541
 41
0.5
  1
●サイズ：W1100×D580×H180mm●オーバーフローなし
  0
TEXT
  8
LAYER_2
 10
-15.6835
 20
40.6235
 11
-15.6835
 21
40.6235
 40
3.5541
 41
0.5
  1
●水栓取付穴：1穴×2●排水金具別途
  0
TEXT
  8
LAYER_2
 10
237.263
 20
63.2582
 11
237.263
 21
63.2582
 40
2.9618
 41
0.5
  1
単位：mm
  0
TEXT
  8
LAYER_2
 10
132.8297
 20
39.5359
 11
132.8297
 21
39.5359
 40
3.3853
 41
0.5
  1
●TEL 0120-65-1232●FAX 06-6532-1580
  0
TEXT
  8
LAYER_2
 10
132.8297
 20
36.0212
 11
132.8297
 21
36.0212
 40
3.3853
 41
0.5
  1
hits@hiratatile.co.jp
  0
TEXT
  8
LAYER_2
 10
240.3591
 20
225.8432
 11
240.3591
 21
225.8432
 40
2.0732
 41
0.5
  1
180604RT
  0
INSERT
  8
LAYER_2
  2
AIGNBL02010006
 10
0
 20
0
 30
0
  0
ENDSEC
  0
EOF
