  0
SECTION
  2
HEADER
  9
$ACADVER
  1
AC1009
  9
$LUNITS
 70
2
  9
$LUPREC
 70
4
  9
$LTSCALE
 40
1.0
  9
$EXTMIN
 10
-30.3177
 20
33.3285
 30
0
  9
$EXTMAX
 10
251.6749
 20
230.337
 30
0
  0
ENDSEC
  0
SECTION
  2
TABLES
  0
TABLE
  2
LTYPE
 70
256
  0
ENDTAB
  0
TABLE
  2
LAYER
 70
1
  0
LAYER
  2
LAYER_1
 70
64
 62
7
  6
CONTINUOUS
  0
ENDTAB
  0
TABLE
  2
STYLE
 70
6
  0
STYLE
  2
STANDARD
 70
0
 40
0
 50
0
 71
0
 41
0
 42
0
  3
TXT
  4
BIGFONT
  0
ENDTAB
  0
ENDSEC
  0
SECTION
  2
BLOCKS
  0
BLOCK
  8
LAYER_1
  2
AIGNBL01040009
 70
64
 10
0
 20
0
 30
0
  3
AIGNBL01040009
  0
POLYLINE
  8
LAYER_1
 40
0.05
 41
0.05
 66
1
 10
0
 20
0
 30
0
 70
1
  0
VERTEX
  8
LAYER_1
 10
105.4311
 20
39.1418
  0
VERTEX
  8
LAYER_1
 10
104.9422
 20
37.9567
  0
VERTEX
  8
LAYER_1
 10
104.3142
 20
37.9567
  0
VERTEX
  8
LAYER_1
 10
105.9137
 20
41.7225
  0
VERTEX
  8
LAYER_1
 10
106.6468
 20
41.7225
  0
VERTEX
  8
LAYER_1
 10
108.2533
 20
37.9567
  0
VERTEX
  8
LAYER_1
 10
107.6032
 20
37.9567
  0
VERTEX
  8
LAYER_1
 10
107.1006
 20
39.1418
  0
SEQEND
  0
POLYLINE
  8
LAYER_1
 40
0.05
 41
0.05
 66
1
 10
0
 20
0
 30
0
 70
1
  0
VERTEX
  8
LAYER_1
 10
106.9748
 20
39.5207
  0
VERTEX
  8
LAYER_1
 10
106.5138
 20
40.6056
  0
VERTEX
  8
LAYER_1
 10
106.2692
 20
41.2926
  0
VERTEX
  8
LAYER_1
 10
106.2555
 20
41.2926
  0
VERTEX
  8
LAYER_1
 10
106.0178
 20
40.6101
  0
VERTEX
  8
LAYER_1
 10
105.5571
 20
39.5207
  0
SEQEND
  0
ENDBLK
  0
BLOCK
  8
LAYER_1
  2
AIGNBL0104000A
 70
64
 10
0
 20
0
 30
0
  3
AIGNBL0104000A
  0
POLYLINE
  8
LAYER_1
 40
0.05
 41
0.05
 66
1
 10
0
 20
0
 30
0
 70
1
  0
VERTEX
  8
LAYER_1
 10
112.6186
 20
37.4034
 42
-0.0155848755
  0
VERTEX
  8
LAYER_1
 10
110.8164
 20
37.8395
  0
VERTEX
  8
LAYER_1
 10
110.5298
 20
37.895
 42
-0.08356944747
  0
VERTEX
  8
LAYER_1
 10
109.6658
 20
38.0612
 42
-0.0975043791
  0
VERTEX
  8
LAYER_1
 10
109.0046
 20
38.4671
 42
-0.2129077902
  0
VERTEX
  8
LAYER_1
 10
108.4559
 20
39.7998
 42
-0.0968494152
  0
VERTEX
  8
LAYER_1
 10
108.6005
 20
40.5732
 42
-0.2046438079
  0
VERTEX
  8
LAYER_1
 10
109.648
 20
41.5974
 42
-0.09824750395
  0
VERTEX
  8
LAYER_1
 10
110.649
 20
41.7838
 42
-0.08554009695
  0
VERTEX
  8
LAYER_1
 10
111.5176
 20
41.6425
 42
-0.1004336034
  0
VERTEX
  8
LAYER_1
 10
112.1827
 20
41.2483
 42
-0.2141019095
  0
VERTEX
  8
LAYER_1
 10
112.7581
 20
39.8784
 42
-0.09540850229
  0
VERTEX
  8
LAYER_1
 10
112.6192
 20
39.1106
 42
-0.2143210227
  0
VERTEX
  8
LAYER_1
 10
111.5963
 20
38.1321
 42
-0.02338900436
  0
VERTEX
  8
LAYER_1
 10
111.4172
 20
38.0738
  0
VERTEX
  8
LAYER_1
 10
111.4172
 20
38.0514
 42
0.01711211955
  0
VERTEX
  8
LAYER_1
 10
112.7936
 20
37.8113
  0
SEQEND
  0
POLYLINE
  8
LAYER_1
 40
0.05
 41
0.05
 66
1
 10
0
 20
0
 30
0
 70
1
  0
VERTEX
  8
LAYER_1
 10
112.1159
 20
39.857
 42
0.1071543648
  0
VERTEX
  8
LAYER_1
 10
111.9646
 20
40.5618
 42
0.2976507644
  0
VERTEX
  8
LAYER_1
 10
110.6276
 20
41.3873
 42
0.1072356843
  0
VERTEX
  8
LAYER_1
 10
109.9378
 20
41.2478
 42
0.2385874916
  0
VERTEX
  8
LAYER_1
 10
109.1508
 20
40.2422
 42
0.05751786988
  0
VERTEX
  8
LAYER_1
 10
109.1052
 20
39.8122
 42
0.2180663696
  0
VERTEX
  8
LAYER_1
 10
109.6358
 20
38.6168
 42
0.1772758138
  0
VERTEX
  8
LAYER_1
 10
110.5997
 20
38.2912
 42
0.1075185771
  0
VERTEX
  8
LAYER_1
 10
111.2811
 20
38.4302
 42
0.2370926009
  0
VERTEX
  8
LAYER_1
 10
112.0682
 20
39.4298
 42
0.05601310134
  0
SEQEND
  0
ENDBLK
  0
BLOCK
  8
LAYER_1
  2
AIGNBL0104000B
 70
64
 10
0
 20
0
 30
0
  3
AIGNBL0104000B
  0
POLYLINE
  8
LAYER_1
 40
0.05
 41
0.05
 66
1
 10
0
 20
0
 30
0
 70
1
  0
VERTEX
  8
LAYER_1
 10
114.0855
 20
41.7225
  0
VERTEX
  8
LAYER_1
 10
114.0855
 20
39.4932
 42
0.1145199457
  0
VERTEX
  8
LAYER_1
 10
114.2194
 20
38.8274
 42
0.1464896694
  0
VERTEX
  8
LAYER_1
 10
114.5697
 20
38.4422
 42
0.1362580474
  0
VERTEX
  8
LAYER_1
 10
115.1821
 20
38.2912
 42
0.1219300979
  0
VERTEX
  8
LAYER_1
 10
115.8052
 20
38.4259
 42
0.1503016186
  0
VERTEX
  8
LAYER_1
 10
116.177
 20
38.7949
 42
0.1256239276
  0
VERTEX
  8
LAYER_1
 10
116.3276
 20
39.4932
  0
VERTEX
  8
LAYER_1
 10
116.3276
 20
41.7225
  0
VERTEX
  8
LAYER_1
 10
116.9422
 20
41.7225
  0
VERTEX
  8
LAYER_1
 10
116.9422
 20
39.5266
 42
-0.09997665689
  0
VERTEX
  8
LAYER_1
 10
116.8073
 20
38.7839
 42
-0.1215019174
  0
VERTEX
  8
LAYER_1
 10
116.434
 20
38.2772
 42
-0.1106228669
  0
VERTEX
  8
LAYER_1
 10
115.8085
 20
37.9706
 42
-0.06128517916
  0
VERTEX
  8
LAYER_1
 10
115.161
 20
37.895
 42
-0.09418763513
  0
VERTEX
  8
LAYER_1
 10
114.3419
 20
38.0331
 42
-0.2431628294
  0
VERTEX
  8
LAYER_1
 10
113.5384
 20
38.9438
 42
-0.06320488118
  0
VERTEX
  8
LAYER_1
 10
113.4709
 20
39.5045
  0
VERTEX
  8
LAYER_1
 10
113.4709
 20
41.7225
  0
SEQEND
  0
ENDBLK
  0
BLOCK
  8
LAYER_1
  2
AIGNBL0104000C
 70
64
 10
0
 20
0
 30
0
  3
AIGNBL0104000C
  0
POLYLINE
  8
LAYER_1
 40
0.05
 41
0.05
 66
1
 10
0
 20
0
 30
0
 70
1
  0
VERTEX
  8
LAYER_1
 10
118.6885
 20
39.1418
  0
VERTEX
  8
LAYER_1
 10
118.1993
 20
37.9567
  0
VERTEX
  8
LAYER_1
 10
117.5712
 20
37.9567
  0
VERTEX
  8
LAYER_1
 10
119.1705
 20
41.7225
  0
VERTEX
  8
LAYER_1
 10
119.9036
 20
41.7225
  0
VERTEX
  8
LAYER_1
 10
121.51
 20
37.9567
  0
VERTEX
  8
LAYER_1
 10
120.8606
 20
37.9567
  0
VERTEX
  8
LAYER_1
 10
120.358
 20
39.1418
  0
SEQEND
  0
POLYLINE
  8
LAYER_1
 40
0.05
 41
0.05
 66
1
 10
0
 20
0
 30
0
 70
1
  0
VERTEX
  8
LAYER_1
 10
120.2319
 20
39.5207
  0
VERTEX
  8
LAYER_1
 10
119.7706
 20
40.6056
  0
VERTEX
  8
LAYER_1
 10
119.526
 20
41.2926
  0
VERTEX
  8
LAYER_1
 10
119.5122
 20
41.2926
  0
VERTEX
  8
LAYER_1
 10
119.2748
 20
40.6101
  0
VERTEX
  8
LAYER_1
 10
118.8139
 20
39.5207
  0
SEQEND
  0
ENDBLK
  0
BLOCK
  8
LAYER_1
  2
AIGNBL0104000D
 70
64
 10
0
 20
0
 30
0
  3
AIGNBL0104000D
  0
POLYLINE
  8
LAYER_1
 40
0.05
 41
0.05
 66
1
 10
0
 20
0
 30
0
 70
1
  0
VERTEX
  8
LAYER_1
 10
122.5508
 20
41.6777
 42
-0.03246092253
  0
VERTEX
  8
LAYER_1
 10
123.7176
 20
41.7508
 42
-0.08084549745
  0
VERTEX
  8
LAYER_1
 10
124.6741
 20
41.619
 42
-0.07819914268
  0
VERTEX
  8
LAYER_1
 10
125.0374
 20
41.4379
 42
-0.2484709269
  0
VERTEX
  8
LAYER_1
 10
125.4491
 20
40.6497
 42
-0.226147
  0
VERTEX
  8
LAYER_1
 10
125.086
 20
39.8456
 42
-0.109727648
  0
VERTEX
  8
LAYER_1
 10
124.4577
 20
39.5323
 42
-0.06565380896
  0
VERTEX
  8
LAYER_1
 10
123.6473
 20
39.4319
 42
-0.06238309955
  0
VERTEX
  8
LAYER_1
 10
123.1588
 20
39.4653
  0
VERTEX
  8
LAYER_1
 10
123.1588
 20
37.9567
  0
VERTEX
  8
LAYER_1
 10
122.5508
 20
37.9567
  0
SEQEND
  0
POLYLINE
  8
LAYER_1
 40
0.05
 41
0.05
 66
1
 10
0
 20
0
 30
0
 70
1
  0
VERTEX
  8
LAYER_1
 10
123.1588
 20
39.8622
 42
0.04203451964
  0
VERTEX
  8
LAYER_1
 10
123.6611
 20
39.8229
 42
0.1032111168
  0
VERTEX
  8
LAYER_1
 10
124.3803
 20
39.9502
 42
0.1555938032
  0
VERTEX
  8
LAYER_1
 10
124.7451
 20
40.2546
 42
0.1352673748
  0
VERTEX
  8
LAYER_1
 10
124.8421
 20
40.6273
 42
0.1737047371
  0
VERTEX
  8
LAYER_1
 10
124.7073
 20
41.0346
 42
0.1517050813
  0
VERTEX
  8
LAYER_1
 10
124.2862
 20
41.2941
 42
0.06879756253
  0
VERTEX
  8
LAYER_1
 10
123.7317
 20
41.3649
 42
0.06336983159
  0
VERTEX
  8
LAYER_1
 10
123.1588
 20
41.3257
  0
SEQEND
  0
ENDBLK
  0
BLOCK
  8
LAYER_1
  2
AIGNBL0104000E
 70
64
 10
0
 20
0
 30
0
  3
AIGNBL0104000E
  0
POLYLINE
  8
LAYER_1
 40
0.05
 41
0.05
 66
1
 10
0
 20
0
 30
0
 70
1
  0
VERTEX
  8
LAYER_1
 10
127.0011
 20
41.4207
 42
-0.2767461975
  0
VERTEX
  8
LAYER_1
 10
126.8616
 20
41.1806
 42
-0.1265294091
  0
VERTEX
  8
LAYER_1
 10
126.6094
 20
41.1189
 42
-0.2237518698
  0
VERTEX
  8
LAYER_1
 10
126.2991
 20
41.2513
 42
-0.1708341408
  0
VERTEX
  8
LAYER_1
 10
126.2391
 20
41.4207
 42
-0.2643879937
  0
VERTEX
  8
LAYER_1
 10
126.3885
 20
41.6678
 42
-0.1290073663
  0
VERTEX
  8
LAYER_1
 10
126.6232
 20
41.7277
 42
-0.225342086
  0
VERTEX
  8
LAYER_1
 10
126.94
 20
41.597
 42
-0.1691136206
  0
SEQEND
  0
POLYLINE
  8
LAYER_1
 40
0.05
 41
0.05
 66
1
 10
0
 20
0
 30
0
 70
1
  0
VERTEX
  8
LAYER_1
 10
126.3156
 20
37.9567
  0
VERTEX
  8
LAYER_1
 10
126.3156
 20
40.6607
  0
VERTEX
  8
LAYER_1
 10
126.9302
 20
40.6607
  0
VERTEX
  8
LAYER_1
 10
126.9302
 20
37.9567
  0
SEQEND
  0
ENDBLK
  0
BLOCK
  8
LAYER_1
  2
AIGNBL0104000F
 70
64
 10
0
 20
0
 30
0
  3
AIGNBL0104000F
  0
POLYLINE
  8
LAYER_1
 40
0.05
 41
0.05
 66
1
 10
0
 20
0
 30
0
 70
1
  0
VERTEX
  8
LAYER_1
 10
128.8019
 20
39.1418
  0
VERTEX
  8
LAYER_1
 10
128.3137
 20
37.9567
  0
VERTEX
  8
LAYER_1
 10
127.6846
 20
37.9567
  0
VERTEX
  8
LAYER_1
 10
129.2842
 20
41.7225
  0
VERTEX
  8
LAYER_1
 10
130.018
 20
41.7225
  0
VERTEX
  8
LAYER_1
 10
131.6245
 20
37.9567
  0
VERTEX
  8
LAYER_1
 10
130.9747
 20
37.9567
  0
VERTEX
  8
LAYER_1
 10
130.4721
 20
39.1418
  0
SEQEND
  0
POLYLINE
  8
LAYER_1
 40
0.05
 41
0.05
 66
1
 10
0
 20
0
 30
0
 70
1
  0
VERTEX
  8
LAYER_1
 10
130.346
 20
39.5207
  0
VERTEX
  8
LAYER_1
 10
129.885
 20
40.6056
  0
VERTEX
  8
LAYER_1
 10
129.6411
 20
41.2926
  0
VERTEX
  8
LAYER_1
 10
129.6263
 20
41.2926
  0
VERTEX
  8
LAYER_1
 10
129.3893
 20
40.6101
  0
VERTEX
  8
LAYER_1
 10
128.9283
 20
39.5207
  0
SEQEND
  0
ENDBLK
  0
BLOCK
  8
LAYER_1
  2
AIGNBL01030008
 70
64
 10
0
 20
0
 30
0
  3
AIGNBL01030008
  0
INSERT
  8
LAYER_1
  2
AIGNBL01040009
 10
0
 20
0
 30
0
  0
INSERT
  8
LAYER_1
  2
AIGNBL0104000A
 10
0
 20
0
 30
0
  0
INSERT
  8
LAYER_1
  2
AIGNBL0104000B
 10
0
 20
0
 30
0
  0
INSERT
  8
LAYER_1
  2
AIGNBL0104000C
 10
0
 20
0
 30
0
  0
INSERT
  8
LAYER_1
  2
AIGNBL0104000D
 10
0
 20
0
 30
0
  0
INSERT
  8
LAYER_1
  2
AIGNBL0104000E
 10
0
 20
0
 30
0
  0
INSERT
  8
LAYER_1
  2
AIGNBL0104000F
 10
0
 20
0
 30
0
  0
ENDBLK
  0
BLOCK
  8
LAYER_1
  2
AIGNBL01030011
 70
64
 10
0
 20
0
 30
0
  3
AIGNBL01030011
  0
POLYLINE
  8
LAYER_1
 40
0.05
 41
0.05
 66
1
 10
0
 20
0
 30
0
 70
1
  0
VERTEX
  8
LAYER_1
 10
104.4241
 20
36.0574
  0
VERTEX
  8
LAYER_1
 10
104.9773
 20
36.0574
  0
VERTEX
  8
LAYER_1
 10
104.9773
 20
35.9637
  0
VERTEX
  8
LAYER_1
 10
104.319
 20
35.9637
  0
VERTEX
  8
LAYER_1
 10
104.319
 20
36.9969
  0
VERTEX
  8
LAYER_1
 10
104.9598
 20
36.9969
  0
VERTEX
  8
LAYER_1
 10
104.9598
 20
36.9035
  0
VERTEX
  8
LAYER_1
 10
104.4241
 20
36.9035
  0
VERTEX
  8
LAYER_1
 10
104.4241
 20
36.549
  0
VERTEX
  8
LAYER_1
 10
104.9246
 20
36.549
  0
VERTEX
  8
LAYER_1
 10
104.9246
 20
36.4557
  0
VERTEX
  8
LAYER_1
 10
104.4241
 20
36.4557
  0
SEQEND
  0
ENDBLK
  0
BLOCK
  8
LAYER_1
  2
AIGNBL01030012
 70
64
 10
0
 20
0
 30
0
  3
AIGNBL01030012
  0
POLYLINE
  8
LAYER_1
 40
0.05
 41
0.05
 66
1
 10
0
 20
0
 30
0
 70
1
  0
VERTEX
  8
LAYER_1
 10
106.117
 20
36.117
  0
VERTEX
  8
LAYER_1
 10
106.1197
 20
36.117
  0
VERTEX
  8
LAYER_1
 10
106.1197
 20
36.9969
  0
VERTEX
  8
LAYER_1
 10
106.2248
 20
36.9969
  0
VERTEX
  8
LAYER_1
 10
106.2248
 20
35.9637
  0
VERTEX
  8
LAYER_1
 10
106.0939
 20
35.9637
  0
VERTEX
  8
LAYER_1
 10
105.4927
 20
36.8525
  0
VERTEX
  8
LAYER_1
 10
105.4893
 20
36.8525
  0
VERTEX
  8
LAYER_1
 10
105.4893
 20
35.9637
  0
VERTEX
  8
LAYER_1
 10
105.3845
 20
35.9637
  0
VERTEX
  8
LAYER_1
 10
105.3845
 20
36.9969
  0
VERTEX
  8
LAYER_1
 10
105.5158
 20
36.9969
  0
SEQEND
  0
ENDBLK
  0
BLOCK
  8
LAYER_1
  2
AIGNBL01030013
 70
64
 10
0
 20
0
 30
0
  3
AIGNBL01030013
  0
POLYLINE
  8
LAYER_1
 40
0.05
 41
0.05
 66
1
 10
0
 20
0
 30
0
 70
1
  0
VERTEX
  8
LAYER_1
 10
106.6978
 20
36.1756
  0
VERTEX
  8
LAYER_1
 10
106.7523
 20
36.0725
 42
0.1804993832
  0
VERTEX
  8
LAYER_1
 10
106.8656
 20
36.0309
  0
VERTEX
  8
LAYER_1
 10
106.9548
 20
36.0505
  0
VERTEX
  8
LAYER_1
 10
107.011
 20
36.1039
  0
VERTEX
  8
LAYER_1
 10
107.0399
 20
36.1804
  0
VERTEX
  8
LAYER_1
 10
107.0482
 20
36.27
  0
VERTEX
  8
LAYER_1
 10
107.0482
 20
36.9969
  0
VERTEX
  8
LAYER_1
 10
107.1533
 20
36.9969
  0
VERTEX
  8
LAYER_1
 10
107.1533
 20
36.2614
  0
VERTEX
  8
LAYER_1
 10
107.1419
 20
36.1535
  0
VERTEX
  8
LAYER_1
 10
107.1006
 20
36.0485
  0
VERTEX
  8
LAYER_1
 10
107.0158
 20
35.9689
  0
VERTEX
  8
LAYER_1
 10
106.877
 20
35.9375
 42
-0.1845892347
  0
VERTEX
  8
LAYER_1
 10
106.6923
 20
35.9974
 42
-0.176191571
  0
VERTEX
  8
LAYER_1
 10
106.6
 20
36.149
  0
SEQEND
  0
ENDBLK
  0
BLOCK
  8
LAYER_1
  2
AIGNBL01030014
 70
64
 10
0
 20
0
 30
0
  3
AIGNBL01030014
  0
POLYLINE
  8
LAYER_1
 40
0.05
 41
0.05
 66
1
 10
0
 20
0
 30
0
 70
1
  0
VERTEX
  8
LAYER_1
 10
108.6416
 20
36.4805
 42
-0.10394313
  0
VERTEX
  8
LAYER_1
 10
108.6005
 20
36.2631
 42
-0.1002538824
  0
VERTEX
  8
LAYER_1
 10
108.4879
 20
36.0915
  0
VERTEX
  8
LAYER_1
 10
108.317
 20
35.9785
 42
-0.09506675375
  0
VERTEX
  8
LAYER_1
 10
108.1031
 20
35.9375
 42
-0.1010866674
  0
VERTEX
  8
LAYER_1
 10
107.8895
 20
35.9785
 42
-0.1005668876
  0
VERTEX
  8
LAYER_1
 10
107.7186
 20
36.0915
 42
-0.09506076213
  0
VERTEX
  8
LAYER_1
 10
107.6053
 20
36.2631
 42
-0.09316585798
  0
VERTEX
  8
LAYER_1
 10
107.5646
 20
36.4805
 42
-0.1029152058
  0
VERTEX
  8
LAYER_1
 10
107.6053
 20
36.6978
 42
-0.1008913794
  0
VERTEX
  8
LAYER_1
 10
107.7186
 20
36.8694
 42
-0.09625543395
  0
VERTEX
  8
LAYER_1
 10
107.8895
 20
36.9824
 42
-0.09521573462
  0
VERTEX
  8
LAYER_1
 10
108.1031
 20
37.0234
 42
-0.101175466
  0
VERTEX
  8
LAYER_1
 10
108.317
 20
36.9824
 42
-0.09853409661
  0
VERTEX
  8
LAYER_1
 10
108.4879
 20
36.8694
 42
-0.09556553869
  0
VERTEX
  8
LAYER_1
 10
108.6005
 20
36.6978
 42
-0.09420719768
  0
SEQEND
  0
POLYLINE
  8
LAYER_1
 40
0.05
 41
0.05
 66
1
 10
0
 20
0
 30
0
 70
1
  0
VERTEX
  8
LAYER_1
 10
108.5306
 20
36.4798
  0
VERTEX
  8
LAYER_1
 10
108.5017
 20
36.6517
  0
VERTEX
  8
LAYER_1
 10
108.4169
 20
36.795
  0
VERTEX
  8
LAYER_1
 10
108.2819
 20
36.8932
  0
VERTEX
  8
LAYER_1
 10
108.1031
 20
36.93
  0
VERTEX
  8
LAYER_1
 10
107.9243
 20
36.8932
  0
VERTEX
  8
LAYER_1
 10
107.7896
 20
36.795
  0
VERTEX
  8
LAYER_1
 10
107.7048
 20
36.6517
  0
VERTEX
  8
LAYER_1
 10
107.6755
 20
36.4798
  0
VERTEX
  8
LAYER_1
 10
107.7048
 20
36.3079
  0
VERTEX
  8
LAYER_1
 10
107.7896
 20
36.1649
  0
VERTEX
  8
LAYER_1
 10
107.9243
 20
36.0674
 42
0.1008280473
  0
VERTEX
  8
LAYER_1
 10
108.1031
 20
36.0309
  0
VERTEX
  8
LAYER_1
 10
108.2819
 20
36.0674
  0
VERTEX
  8
LAYER_1
 10
108.4169
 20
36.1649
  0
VERTEX
  8
LAYER_1
 10
108.5017
 20
36.3079
  0
SEQEND
  0
ENDBLK
  0
BLOCK
  8
LAYER_1
  2
AIGNBL01030015
 70
64
 10
0
 20
0
 30
0
  3
AIGNBL01030015
  0
POLYLINE
  8
LAYER_1
 40
0.05
 41
0.05
 66
1
 10
0
 20
0
 30
0
 70
1
  0
VERTEX
  8
LAYER_1
 10
109.4163
 20
35.9637
  0
VERTEX
  8
LAYER_1
 10
109.3116
 20
35.9637
  0
VERTEX
  8
LAYER_1
 10
109.3116
 20
36.4091
  0
VERTEX
  8
LAYER_1
 10
108.9247
 20
36.9969
  0
VERTEX
  8
LAYER_1
 10
109.056
 20
36.9969
  0
VERTEX
  8
LAYER_1
 10
109.3671
 20
36.4967
  0
VERTEX
  8
LAYER_1
 10
109.6806
 20
36.9969
  0
VERTEX
  8
LAYER_1
 10
109.8029
 20
36.9969
  0
VERTEX
  8
LAYER_1
 10
109.4163
 20
36.4091
  0
SEQEND
  0
ENDBLK
  0
BLOCK
  8
LAYER_1
  2
AIGNBL01030016
 70
64
 10
0
 20
0
 30
0
  3
AIGNBL01030016
  0
POLYLINE
  8
LAYER_1
 40
0.05
 41
0.05
 66
1
 10
0
 20
0
 30
0
 70
1
  0
VERTEX
  8
LAYER_1
 10
110.7079
 20
36.9969
  0
VERTEX
  8
LAYER_1
 10
111.0155
 20
36.9969
  0
VERTEX
  8
LAYER_1
 10
111.1341
 20
36.9845
  0
VERTEX
  8
LAYER_1
 10
111.2409
 20
36.9421
  0
VERTEX
  8
LAYER_1
 10
111.3187
 20
36.8611
  0
VERTEX
  8
LAYER_1
 10
111.3483
 20
36.733
 42
-0.1790346201
  0
VERTEX
  8
LAYER_1
 10
111.2984
 20
36.5907
 42
-0.1642259289
  0
VERTEX
  8
LAYER_1
 10
111.1651
 20
36.5111
  0
VERTEX
  8
LAYER_1
 10
111.1651
 20
36.5084
 42
-0.1734673322
  0
VERTEX
  8
LAYER_1
 10
111.3318
 20
36.4302
 42
-0.1921994171
  0
VERTEX
  8
LAYER_1
 10
111.3979
 20
36.2496
  0
VERTEX
  8
LAYER_1
 10
111.3708
 20
36.1325
  0
VERTEX
  8
LAYER_1
 10
111.2946
 20
36.0419
  0
VERTEX
  8
LAYER_1
 10
111.1737
 20
35.9844
  0
VERTEX
  8
LAYER_1
 10
111.0138
 20
35.9637
  0
VERTEX
  8
LAYER_1
 10
110.7079
 20
35.9637
  0
SEQEND
  0
POLYLINE
  8
LAYER_1
 40
0.05
 41
0.05
 66
1
 10
0
 20
0
 30
0
 70
1
  0
VERTEX
  8
LAYER_1
 10
110.813
 20
36.5445
  0
VERTEX
  8
LAYER_1
 10
111.0245
 20
36.5445
  0
VERTEX
  8
LAYER_1
 10
111.1013
 20
36.5535
  0
VERTEX
  8
LAYER_1
 10
111.1716
 20
36.5831
  0
VERTEX
  8
LAYER_1
 10
111.2236
 20
36.6396
  0
VERTEX
  8
LAYER_1
 10
111.2433
 20
36.7258
  0
VERTEX
  8
LAYER_1
 10
111.2236
 20
36.8095
  0
VERTEX
  8
LAYER_1
 10
111.1706
 20
36.8656
  0
VERTEX
  8
LAYER_1
 10
111.0917
 20
36.897
  0
VERTEX
  8
LAYER_1
 10
110.9952
 20
36.9066
  0
VERTEX
  8
LAYER_1
 10
110.813
 20
36.9066
  0
SEQEND
  0
POLYLINE
  8
LAYER_1
 40
0.05
 41
0.05
 66
1
 10
0
 20
0
 30
0
 70
1
  0
VERTEX
  8
LAYER_1
 10
110.813
 20
36.0543
  0
VERTEX
  8
LAYER_1
 10
111.0087
 20
36.0543
  0
VERTEX
  8
LAYER_1
 10
111.1172
 20
36.0653
  0
VERTEX
  8
LAYER_1
 10
111.2078
 20
36.1001
  0
VERTEX
  8
LAYER_1
 10
111.2695
 20
36.1632
  0
VERTEX
  8
LAYER_1
 10
111.2929
 20
36.2559
 42
0.2557371221
  0
VERTEX
  8
LAYER_1
 10
111.2236
 20
36.4081
 42
0.1381508151
  0
VERTEX
  8
LAYER_1
 10
111.0276
 20
36.4584
  0
VERTEX
  8
LAYER_1
 10
110.813
 20
36.4584
  0
SEQEND
  0
ENDBLK
  0
BLOCK
  8
LAYER_1
  2
AIGNBL01030017
 70
64
 10
0
 20
0
 30
0
  3
AIGNBL01030017
  0
POLYLINE
  8
LAYER_1
 40
0.05
 41
0.05
 66
1
 10
0
 20
0
 30
0
 70
1
  0
VERTEX
  8
LAYER_1
 10
111.83
 20
35.9637
  0
VERTEX
  8
LAYER_1
 10
111.7146
 20
35.9637
  0
VERTEX
  8
LAYER_1
 10
112.1614
 20
36.9969
  0
VERTEX
  8
LAYER_1
 10
112.2637
 20
36.9969
  0
VERTEX
  8
LAYER_1
 10
112.7071
 20
35.9637
  0
VERTEX
  8
LAYER_1
 10
112.5903
 20
35.9637
  0
VERTEX
  8
LAYER_1
 10
112.4763
 20
36.2352
  0
VERTEX
  8
LAYER_1
 10
111.9423
 20
36.2352
  0
SEQEND
  0
POLYLINE
  8
LAYER_1
 40
0.05
 41
0.05
 66
1
 10
0
 20
0
 30
0
 70
1
  0
VERTEX
  8
LAYER_1
 10
111.9815
 20
36.3316
  0
VERTEX
  8
LAYER_1
 10
112.437
 20
36.3316
  0
VERTEX
  8
LAYER_1
 10
112.2093
 20
36.8804
  0
SEQEND
  0
ENDBLK
  0
BLOCK
  8
LAYER_1
  2
AIGNBL01030018
 70
64
 10
0
 20
0
 30
0
  3
AIGNBL01030018
  0
POLYLINE
  8
LAYER_1
 40
0.05
 41
0.05
 66
1
 10
0
 20
0
 30
0
 70
1
  0
VERTEX
  8
LAYER_1
 10
113.3916
 20
35.9637
  0
VERTEX
  8
LAYER_1
 10
113.2865
 20
35.9637
  0
VERTEX
  8
LAYER_1
 10
113.2865
 20
36.9035
  0
VERTEX
  8
LAYER_1
 10
112.9403
 20
36.9035
  0
VERTEX
  8
LAYER_1
 10
112.9403
 20
36.9969
  0
VERTEX
  8
LAYER_1
 10
113.7372
 20
36.9969
  0
VERTEX
  8
LAYER_1
 10
113.7372
 20
36.9035
  0
VERTEX
  8
LAYER_1
 10
113.3916
 20
36.9035
  0
SEQEND
  0
ENDBLK
  0
BLOCK
  8
LAYER_1
  2
AIGNBL01030019
 70
64
 10
0
 20
0
 30
0
  3
AIGNBL01030019
  0
POLYLINE
  8
LAYER_1
 40
0.05
 41
0.05
 66
1
 10
0
 20
0
 30
0
 70
1
  0
VERTEX
  8
LAYER_1
 10
114.0934
 20
36.9969
  0
VERTEX
  8
LAYER_1
 10
114.1981
 20
36.9969
  0
VERTEX
  8
LAYER_1
 10
114.1981
 20
36.549
  0
VERTEX
  8
LAYER_1
 10
114.7618
 20
36.549
  0
VERTEX
  8
LAYER_1
 10
114.7618
 20
36.9969
  0
VERTEX
  8
LAYER_1
 10
114.8668
 20
36.9969
  0
VERTEX
  8
LAYER_1
 10
114.8668
 20
35.9637
  0
VERTEX
  8
LAYER_1
 10
114.7618
 20
35.9637
  0
VERTEX
  8
LAYER_1
 10
114.7618
 20
36.4529
  0
VERTEX
  8
LAYER_1
 10
114.1981
 20
36.4529
  0
VERTEX
  8
LAYER_1
 10
114.1981
 20
35.9637
  0
VERTEX
  8
LAYER_1
 10
114.0934
 20
35.9637
  0
SEQEND
  0
ENDBLK
  0
BLOCK
  8
LAYER_1
  2
AIGNBL0103001A
 70
64
 10
0
 20
0
 30
0
  3
AIGNBL0103001A
  0
POLYLINE
  8
LAYER_1
 40
0.05
 41
0.05
 66
1
 10
0
 20
0
 30
0
 70
1
  0
VERTEX
  8
LAYER_1
 10
115.4473
 20
35.9637
  0
VERTEX
  8
LAYER_1
 10
115.3423
 20
35.9637
  0
VERTEX
  8
LAYER_1
 10
115.3423
 20
36.9969
  0
VERTEX
  8
LAYER_1
 10
115.6461
 20
36.9969
  0
VERTEX
  8
LAYER_1
 10
115.7867
 20
36.9824
  0
VERTEX
  8
LAYER_1
 10
115.8993
 20
36.9349
  0
VERTEX
  8
LAYER_1
 10
115.9727
 20
36.8494
  0
VERTEX
  8
LAYER_1
 10
115.9989
 20
36.7213
  0
VERTEX
  8
LAYER_1
 10
115.9789
 20
36.6176
  0
VERTEX
  8
LAYER_1
 10
115.9235
 20
36.5366
  0
VERTEX
  8
LAYER_1
 10
115.8401
 20
36.4818
  0
VERTEX
  8
LAYER_1
 10
115.735
 20
36.4557
  0
VERTEX
  8
LAYER_1
 10
116.0371
 20
35.9637
  0
VERTEX
  8
LAYER_1
 10
115.9086
 20
35.9637
  0
VERTEX
  8
LAYER_1
 10
115.6227
 20
36.4467
  0
VERTEX
  8
LAYER_1
 10
115.4473
 20
36.4467
  0
SEQEND
  0
POLYLINE
  8
LAYER_1
 40
0.05
 41
0.05
 66
1
 10
0
 20
0
 30
0
 70
1
  0
VERTEX
  8
LAYER_1
 10
115.4473
 20
36.5373
  0
VERTEX
  8
LAYER_1
 10
115.6299
 20
36.5373
 42
0.1654500383
  0
VERTEX
  8
LAYER_1
 10
115.8256
 20
36.5831
 42
0.2503949893
  0
VERTEX
  8
LAYER_1
 10
115.8942
 20
36.7213
  0
VERTEX
  8
LAYER_1
 10
115.8749
 20
36.8071
  0
VERTEX
  8
LAYER_1
 10
115.8225
 20
36.8643
  0
VERTEX
  8
LAYER_1
 10
115.7409
 20
36.8963
  0
VERTEX
  8
LAYER_1
 10
115.6344
 20
36.9066
  0
VERTEX
  8
LAYER_1
 10
115.4473
 20
36.9066
  0
SEQEND
  0
ENDBLK
  0
BLOCK
  8
LAYER_1
  2
AIGNBL0103001B
 70
64
 10
0
 20
0
 30
0
  3
AIGNBL0103001B
  0
POLYLINE
  8
LAYER_1
 40
0.05
 41
0.05
 66
1
 10
0
 20
0
 30
0
 70
1
  0
VERTEX
  8
LAYER_1
 10
117.4393
 20
36.4805
 42
-0.1005163161
  0
VERTEX
  8
LAYER_1
 10
117.3986
 20
36.2631
 42
-0.1003846159
  0
VERTEX
  8
LAYER_1
 10
117.2853
 20
36.0915
 42
-0.09584766738
  0
VERTEX
  8
LAYER_1
 10
117.1147
 20
35.9785
 42
-0.09506713234
  0
VERTEX
  8
LAYER_1
 10
116.9008
 20
35.9375
 42
-0.101175466
  0
VERTEX
  8
LAYER_1
 10
116.6869
 20
35.9785
 42
-0.09967088569
  0
VERTEX
  8
LAYER_1
 10
116.5163
 20
36.0915
 42
-0.09574135652
  0
VERTEX
  8
LAYER_1
 10
116.4033
 20
36.2631
 42
-0.09293305267
  0
VERTEX
  8
LAYER_1
 10
116.3627
 20
36.4805
 42
-0.1024980643
  0
VERTEX
  8
LAYER_1
 10
116.4033
 20
36.6978
 42
-0.1015030268
  0
VERTEX
  8
LAYER_1
 10
116.5163
 20
36.8694
 42
-0.09577113234
  0
VERTEX
  8
LAYER_1
 10
116.6869
 20
36.9824
 42
-0.09506675375
  0
VERTEX
  8
LAYER_1
 10
116.9008
 20
37.0234
 42
-0.1014233705
  0
VERTEX
  8
LAYER_1
 10
117.1147
 20
36.9824
 42
-0.1017041996
  0
VERTEX
  8
LAYER_1
 10
117.2853
 20
36.8694
 42
-0.09506500802
  0
VERTEX
  8
LAYER_1
 10
117.3986
 20
36.6978
 42
-0.09299771213
  0
SEQEND
  0
POLYLINE
  8
LAYER_1
 40
0.05
 41
0.05
 66
1
 10
0
 20
0
 30
0
 70
1
  0
VERTEX
  8
LAYER_1
 10
117.3284
 20
36.4798
  0
VERTEX
  8
LAYER_1
 10
117.2991
 20
36.6517
  0
VERTEX
  8
LAYER_1
 10
117.2143
 20
36.795
  0
VERTEX
  8
LAYER_1
 10
117.0796
 20
36.8932
  0
VERTEX
  8
LAYER_1
 10
116.9008
 20
36.93
  0
VERTEX
  8
LAYER_1
 10
116.722
 20
36.8932
  0
VERTEX
  8
LAYER_1
 10
116.587
 20
36.795
  0
VERTEX
  8
LAYER_1
 10
116.5022
 20
36.6517
  0
VERTEX
  8
LAYER_1
 10
116.4733
 20
36.4798
  0
VERTEX
  8
LAYER_1
 10
116.5022
 20
36.3079
  0
VERTEX
  8
LAYER_1
 10
116.587
 20
36.1649
  0
VERTEX
  8
LAYER_1
 10
116.722
 20
36.0674
  0
VERTEX
  8
LAYER_1
 10
116.9008
 20
36.0309
 42
0.1157330551
  0
VERTEX
  8
LAYER_1
 10
117.0796
 20
36.0674
  0
VERTEX
  8
LAYER_1
 10
117.2143
 20
36.1649
  0
VERTEX
  8
LAYER_1
 10
117.2991
 20
36.3079
  0
SEQEND
  0
ENDBLK
  0
BLOCK
  8
LAYER_1
  2
AIGNBL0103001C
 70
64
 10
0
 20
0
 30
0
  3
AIGNBL0103001C
  0
POLYLINE
  8
LAYER_1
 40
0.05
 41
0.05
 66
1
 10
0
 20
0
 30
0
 70
1
  0
VERTEX
  8
LAYER_1
 10
118.881
 20
36.4805
 42
-0.1041417444
  0
VERTEX
  8
LAYER_1
 10
118.84
 20
36.2631
 42
-0.1002538824
  0
VERTEX
  8
LAYER_1
 10
118.7274
 20
36.0915
 42
-0.09536265516
  0
VERTEX
  8
LAYER_1
 10
118.5565
 20
35.9785
 42
-0.09506675375
  0
VERTEX
  8
LAYER_1
 10
118.3426
 20
35.9375
 42
-0.101822328
  0
VERTEX
  8
LAYER_1
 10
118.129
 20
35.9785
 42
-0.102112669
  0
VERTEX
  8
LAYER_1
 10
117.9581
 20
36.0915
 42
-0.09462334812
  0
VERTEX
  8
LAYER_1
 10
117.8447
 20
36.2631
 42
-0.09290316602
  0
VERTEX
  8
LAYER_1
 10
117.8041
 20
36.4805
 42
-0.1018782207
  0
VERTEX
  8
LAYER_1
 10
117.8447
 20
36.6978
 42
-0.1006850025
  0
VERTEX
  8
LAYER_1
 10
117.9581
 20
36.8694
 42
-0.09625543395
  0
VERTEX
  8
LAYER_1
 10
118.129
 20
36.9824
 42
-0.09528409444
  0
VERTEX
  8
LAYER_1
 10
118.3426
 20
37.0234
 42
-0.101175466
  0
VERTEX
  8
LAYER_1
 10
118.5565
 20
36.9824
 42
-0.09853409661
  0
VERTEX
  8
LAYER_1
 10
118.7274
 20
36.8694
 42
-0.09556553869
  0
VERTEX
  8
LAYER_1
 10
118.84
 20
36.6978
 42
-0.09400765476
  0
SEQEND
  0
POLYLINE
  8
LAYER_1
 40
0.05
 41
0.05
 66
1
 10
0
 20
0
 30
0
 70
1
  0
VERTEX
  8
LAYER_1
 10
118.7701
 20
36.4798
  0
VERTEX
  8
LAYER_1
 10
118.7412
 20
36.6517
  0
VERTEX
  8
LAYER_1
 10
118.6564
 20
36.795
  0
VERTEX
  8
LAYER_1
 10
118.5214
 20
36.8932
  0
VERTEX
  8
LAYER_1
 10
118.3426
 20
36.93
  0
VERTEX
  8
LAYER_1
 10
118.1638
 20
36.8932
  0
VERTEX
  8
LAYER_1
 10
118.0291
 20
36.795
  0
VERTEX
  8
LAYER_1
 10
117.9443
 20
36.6517
  0
VERTEX
  8
LAYER_1
 10
117.9151
 20
36.4798
  0
VERTEX
  8
LAYER_1
 10
117.9443
 20
36.3079
  0
VERTEX
  8
LAYER_1
 10
118.0291
 20
36.1649
  0
VERTEX
  8
LAYER_1
 10
118.1638
 20
36.0674
 42
0.1008280473
  0
VERTEX
  8
LAYER_1
 10
118.3426
 20
36.0309
  0
VERTEX
  8
LAYER_1
 10
118.5214
 20
36.0674
  0
VERTEX
  8
LAYER_1
 10
118.6564
 20
36.1649
  0
VERTEX
  8
LAYER_1
 10
118.7412
 20
36.3079
  0
SEQEND
  0
ENDBLK
  0
BLOCK
  8
LAYER_1
  2
AIGNBL0103001D
 70
64
 10
0
 20
0
 30
0
  3
AIGNBL0103001D
  0
POLYLINE
  8
LAYER_1
 40
0.05
 41
0.05
 66
1
 10
0
 20
0
 30
0
 70
1
  0
VERTEX
  8
LAYER_1
 10
119.8119
 20
36.1418
  0
VERTEX
  8
LAYER_1
 10
119.8136
 20
36.1418
  0
VERTEX
  8
LAYER_1
 10
120.1592
 20
36.9969
  0
VERTEX
  8
LAYER_1
 10
120.3201
 20
36.9969
  0
VERTEX
  8
LAYER_1
 10
120.3201
 20
35.9637
  0
VERTEX
  8
LAYER_1
 10
120.2146
 20
35.9637
  0
VERTEX
  8
LAYER_1
 10
120.2146
 20
36.8611
  0
VERTEX
  8
LAYER_1
 10
120.2119
 20
36.8611
  0
VERTEX
  8
LAYER_1
 10
119.8384
 20
35.9637
  0
VERTEX
  8
LAYER_1
 10
119.783
 20
35.9637
  0
VERTEX
  8
LAYER_1
 10
119.4092
 20
36.8611
  0
VERTEX
  8
LAYER_1
 10
119.4064
 20
36.8611
  0
VERTEX
  8
LAYER_1
 10
119.4064
 20
35.9637
  0
VERTEX
  8
LAYER_1
 10
119.3014
 20
35.9637
  0
VERTEX
  8
LAYER_1
 10
119.3014
 20
36.9969
  0
VERTEX
  8
LAYER_1
 10
119.4619
 20
36.9969
  0
SEQEND
  0
ENDBLK
  0
BLOCK
  8
LAYER_1
  2
AIGNBL0103001E
 70
64
 10
0
 20
0
 30
0
  3
AIGNBL0103001E
  0
POLYLINE
  8
LAYER_1
 40
0.05
 41
0.05
 66
1
 10
0
 20
0
 30
0
 70
1
  0
VERTEX
  8
LAYER_1
 10
121.4666
 20
36.0574
  0
VERTEX
  8
LAYER_1
 10
122.0199
 20
36.0574
  0
VERTEX
  8
LAYER_1
 10
122.0199
 20
35.9637
  0
VERTEX
  8
LAYER_1
 10
121.3615
 20
35.9637
  0
VERTEX
  8
LAYER_1
 10
121.3615
 20
36.9969
  0
VERTEX
  8
LAYER_1
 10
122.0023
 20
36.9969
  0
VERTEX
  8
LAYER_1
 10
122.0023
 20
36.9035
  0
VERTEX
  8
LAYER_1
 10
121.4666
 20
36.9035
  0
VERTEX
  8
LAYER_1
 10
121.4666
 20
36.549
  0
VERTEX
  8
LAYER_1
 10
121.9672
 20
36.549
  0
VERTEX
  8
LAYER_1
 10
121.9672
 20
36.4557
  0
VERTEX
  8
LAYER_1
 10
121.4666
 20
36.4557
  0
SEQEND
  0
ENDBLK
  0
BLOCK
  8
LAYER_1
  2
AIGNBL0103001F
 70
64
 10
0
 20
0
 30
0
  3
AIGNBL0103001F
  0
POLYLINE
  8
LAYER_1
 40
0.05
 41
0.05
 66
1
 10
0
 20
0
 30
0
 70
1
  0
VERTEX
  8
LAYER_1
 10
122.765
 20
36.5797
  0
VERTEX
  8
LAYER_1
 10
123.0472
 20
36.9969
  0
VERTEX
  8
LAYER_1
 10
123.1723
 20
36.9969
  0
VERTEX
  8
LAYER_1
 10
122.8298
 20
36.5053
  0
VERTEX
  8
LAYER_1
 10
123.2091
 20
35.9637
  0
VERTEX
  8
LAYER_1
 10
123.0779
 20
35.9637
  0
VERTEX
  8
LAYER_1
 10
122.7623
 20
36.4295
  0
VERTEX
  8
LAYER_1
 10
122.4488
 20
35.9637
  0
VERTEX
  8
LAYER_1
 10
122.3172
 20
35.9637
  0
VERTEX
  8
LAYER_1
 10
122.6969
 20
36.5066
  0
VERTEX
  8
LAYER_1
 10
122.351
 20
36.9969
  0
VERTEX
  8
LAYER_1
 10
122.4825
 20
36.9969
  0
SEQEND
  0
ENDBLK
  0
BLOCK
  8
LAYER_1
  2
AIGNBL01030020
 70
64
 10
0
 20
0
 30
0
  3
AIGNBL01030020
  0
POLYLINE
  8
LAYER_1
 40
0.05
 41
0.05
 66
1
 10
0
 20
0
 30
0
 70
1
  0
VERTEX
  8
LAYER_1
 10
123.5753
 20
36.9969
  0
VERTEX
  8
LAYER_1
 10
123.8675
 20
36.9969
  0
VERTEX
  8
LAYER_1
 10
124.0105
 20
36.9804
  0
VERTEX
  8
LAYER_1
 10
124.1203
 20
36.929
  0
VERTEX
  8
LAYER_1
 10
124.1913
 20
36.8429
  0
VERTEX
  8
LAYER_1
 10
124.2158
 20
36.7213
  0
VERTEX
  8
LAYER_1
 10
124.1906
 20
36.5993
  0
VERTEX
  8
LAYER_1
 10
124.119
 20
36.5132
  0
VERTEX
  8
LAYER_1
 10
124.0081
 20
36.4615
  0
VERTEX
  8
LAYER_1
 10
123.8644
 20
36.444
  0
VERTEX
  8
LAYER_1
 10
123.6804
 20
36.444
  0
VERTEX
  8
LAYER_1
 10
123.6804
 20
35.9637
  0
VERTEX
  8
LAYER_1
 10
123.5753
 20
35.9637
  0
SEQEND
  0
POLYLINE
  8
LAYER_1
 40
0.05
 41
0.05
 66
1
 10
0
 20
0
 30
0
 70
1
  0
VERTEX
  8
LAYER_1
 10
123.6804
 20
36.5328
  0
VERTEX
  8
LAYER_1
 10
123.8582
 20
36.5328
 42
0.1829203509
  0
VERTEX
  8
LAYER_1
 10
124.0466
 20
36.581
 42
0.2345943979
  0
VERTEX
  8
LAYER_1
 10
124.111
 20
36.7213
 42
0.2650437466
  0
VERTEX
  8
LAYER_1
 10
124.0446
 20
36.8622
 42
0.1264027561
  0
VERTEX
  8
LAYER_1
 10
123.8582
 20
36.9066
  0
VERTEX
  8
LAYER_1
 10
123.6804
 20
36.9066
  0
SEQEND
  0
ENDBLK
  0
BLOCK
  8
LAYER_1
  2
AIGNBL01030021
 70
64
 10
0
 20
0
 30
0
  3
AIGNBL01030021
  0
POLYLINE
  8
LAYER_1
 40
0.05
 41
0.05
 66
1
 10
0
 20
0
 30
0
 70
1
  0
VERTEX
  8
LAYER_1
 10
124.7281
 20
36.0574
  0
VERTEX
  8
LAYER_1
 10
125.2813
 20
36.0574
  0
VERTEX
  8
LAYER_1
 10
125.2813
 20
35.9637
  0
VERTEX
  8
LAYER_1
 10
124.623
 20
35.9637
  0
VERTEX
  8
LAYER_1
 10
124.623
 20
36.9969
  0
VERTEX
  8
LAYER_1
 10
125.2638
 20
36.9969
  0
VERTEX
  8
LAYER_1
 10
125.2638
 20
36.9035
  0
VERTEX
  8
LAYER_1
 10
124.7281
 20
36.9035
  0
VERTEX
  8
LAYER_1
 10
124.7281
 20
36.549
  0
VERTEX
  8
LAYER_1
 10
125.2286
 20
36.549
  0
VERTEX
  8
LAYER_1
 10
125.2286
 20
36.4557
  0
VERTEX
  8
LAYER_1
 10
124.7281
 20
36.4557
  0
SEQEND
  0
ENDBLK
  0
BLOCK
  8
LAYER_1
  2
AIGNBL01030022
 70
64
 10
0
 20
0
 30
0
  3
AIGNBL01030022
  0
POLYLINE
  8
LAYER_1
 40
0.05
 41
0.05
 66
1
 10
0
 20
0
 30
0
 70
1
  0
VERTEX
  8
LAYER_1
 10
125.7933
 20
35.9637
  0
VERTEX
  8
LAYER_1
 10
125.6882
 20
35.9637
  0
VERTEX
  8
LAYER_1
 10
125.6882
 20
36.9969
  0
VERTEX
  8
LAYER_1
 10
125.9921
 20
36.9969
  0
VERTEX
  8
LAYER_1
 10
126.1326
 20
36.9824
  0
VERTEX
  8
LAYER_1
 10
126.2453
 20
36.9349
  0
VERTEX
  8
LAYER_1
 10
126.319
 20
36.8494
  0
VERTEX
  8
LAYER_1
 10
126.3449
 20
36.7213
  0
VERTEX
  8
LAYER_1
 10
126.3249
 20
36.6176
  0
VERTEX
  8
LAYER_1
 10
126.2694
 20
36.5366
  0
VERTEX
  8
LAYER_1
 10
126.186
 20
36.4818
  0
VERTEX
  8
LAYER_1
 10
126.0809
 20
36.4557
  0
VERTEX
  8
LAYER_1
 10
126.3831
 20
35.9637
  0
VERTEX
  8
LAYER_1
 10
126.2546
 20
35.9637
  0
VERTEX
  8
LAYER_1
 10
125.9687
 20
36.4467
  0
VERTEX
  8
LAYER_1
 10
125.7933
 20
36.4467
  0
SEQEND
  0
POLYLINE
  8
LAYER_1
 40
0.05
 41
0.05
 66
1
 10
0
 20
0
 30
0
 70
1
  0
VERTEX
  8
LAYER_1
 10
125.7933
 20
36.5373
  0
VERTEX
  8
LAYER_1
 10
125.9759
 20
36.5373
 42
0.1663801652
  0
VERTEX
  8
LAYER_1
 10
126.1716
 20
36.5831
 42
0.2503091692
  0
VERTEX
  8
LAYER_1
 10
126.2401
 20
36.7213
  0
VERTEX
  8
LAYER_1
 10
126.2212
 20
36.8071
  0
VERTEX
  8
LAYER_1
 10
126.1685
 20
36.8643
  0
VERTEX
  8
LAYER_1
 10
126.0868
 20
36.8963
  0
VERTEX
  8
LAYER_1
 10
125.9804
 20
36.9066
  0
VERTEX
  8
LAYER_1
 10
125.7933
 20
36.9066
  0
SEQEND
  0
ENDBLK
  0
BLOCK
  8
LAYER_1
  2
AIGNBL01030023
 70
64
 10
0
 20
0
 30
0
  3
AIGNBL01030023
  0
POLYLINE
  8
LAYER_1
 40
0.05
 41
0.05
 66
1
 10
0
 20
0
 30
0
 70
1
  0
VERTEX
  8
LAYER_1
 10
126.8688
 20
35.9637
  0
VERTEX
  8
LAYER_1
 10
126.7641
 20
35.9637
  0
VERTEX
  8
LAYER_1
 10
126.7641
 20
36.9969
  0
VERTEX
  8
LAYER_1
 10
126.8688
 20
36.9969
  0
SEQEND
  0
ENDBLK
  0
BLOCK
  8
LAYER_1
  2
AIGNBL01030024
 70
64
 10
0
 20
0
 30
0
  3
AIGNBL01030024
  0
POLYLINE
  8
LAYER_1
 40
0.05
 41
0.05
 66
1
 10
0
 20
0
 30
0
 70
1
  0
VERTEX
  8
LAYER_1
 10
127.4497
 20
36.0574
  0
VERTEX
  8
LAYER_1
 10
128.0026
 20
36.0574
  0
VERTEX
  8
LAYER_1
 10
128.0026
 20
35.9637
  0
VERTEX
  8
LAYER_1
 10
127.3446
 20
35.9637
  0
VERTEX
  8
LAYER_1
 10
127.3446
 20
36.9969
  0
VERTEX
  8
LAYER_1
 10
127.9854
 20
36.9969
  0
VERTEX
  8
LAYER_1
 10
127.9854
 20
36.9035
  0
VERTEX
  8
LAYER_1
 10
127.4497
 20
36.9035
  0
VERTEX
  8
LAYER_1
 10
127.4497
 20
36.549
  0
VERTEX
  8
LAYER_1
 10
127.9503
 20
36.549
  0
VERTEX
  8
LAYER_1
 10
127.9503
 20
36.4557
  0
VERTEX
  8
LAYER_1
 10
127.4497
 20
36.4557
  0
SEQEND
  0
ENDBLK
  0
BLOCK
  8
LAYER_1
  2
AIGNBL01030025
 70
64
 10
0
 20
0
 30
0
  3
AIGNBL01030025
  0
POLYLINE
  8
LAYER_1
 40
0.05
 41
0.05
 66
1
 10
0
 20
0
 30
0
 70
1
  0
VERTEX
  8
LAYER_1
 10
129.1426
 20
36.117
  0
VERTEX
  8
LAYER_1
 10
129.1454
 20
36.117
  0
VERTEX
  8
LAYER_1
 10
129.1454
 20
36.9969
  0
VERTEX
  8
LAYER_1
 10
129.2504
 20
36.9969
  0
VERTEX
  8
LAYER_1
 10
129.2504
 20
35.9637
  0
VERTEX
  8
LAYER_1
 10
129.1192
 20
35.9637
  0
VERTEX
  8
LAYER_1
 10
128.518
 20
36.8525
  0
VERTEX
  8
LAYER_1
 10
128.5149
 20
36.8525
  0
VERTEX
  8
LAYER_1
 10
128.5149
 20
35.9637
  0
VERTEX
  8
LAYER_1
 10
128.4098
 20
35.9637
  0
VERTEX
  8
LAYER_1
 10
128.4098
 20
36.9969
  0
VERTEX
  8
LAYER_1
 10
128.5414
 20
36.9969
  0
SEQEND
  0
ENDBLK
  0
BLOCK
  8
LAYER_1
  2
AIGNBL01030026
 70
64
 10
0
 20
0
 30
0
  3
AIGNBL01030026
  0
POLYLINE
  8
LAYER_1
 40
0.05
 41
0.05
 66
1
 10
0
 20
0
 30
0
 70
1
  0
VERTEX
  8
LAYER_1
 10
130.5961
 20
36.1315
  0
VERTEX
  8
LAYER_1
 10
130.5324
 20
36.0571
  0
VERTEX
  8
LAYER_1
 10
130.4463
 20
35.9954
  0
VERTEX
  8
LAYER_1
 10
130.3381
 20
35.953
  0
VERTEX
  8
LAYER_1
 10
130.2092
 20
35.9375
 42
-0.1009408553
  0
VERTEX
  8
LAYER_1
 10
129.9932
 20
35.9785
 42
-0.1036559164
  0
VERTEX
  8
LAYER_1
 10
129.8227
 20
36.0915
 42
-0.09812017057
  0
VERTEX
  8
LAYER_1
 10
129.7111
 20
36.2631
 42
-0.09255697562
  0
VERTEX
  8
LAYER_1
 10
129.6707
 20
36.4805
 42
-0.1035456296
  0
VERTEX
  8
LAYER_1
 10
129.7117
 20
36.6978
 42
-0.1005534539
  0
VERTEX
  8
LAYER_1
 10
129.8244
 20
36.8694
 42
-0.09536265516
  0
VERTEX
  8
LAYER_1
 10
129.9953
 20
36.9824
 42
-0.09506675375
  0
VERTEX
  8
LAYER_1
 10
130.2092
 20
37.0234
  0
VERTEX
  8
LAYER_1
 10
130.3208
 20
37.0114
  0
VERTEX
  8
LAYER_1
 10
130.4239
 20
36.9779
  0
VERTEX
  8
LAYER_1
 10
130.5113
 20
36.9263
  0
VERTEX
  8
LAYER_1
 10
130.5771
 20
36.8584
  0
VERTEX
  8
LAYER_1
 10
130.4896
 20
36.794
  0
VERTEX
  8
LAYER_1
 10
130.4463
 20
36.8439
  0
VERTEX
  8
LAYER_1
 10
130.3829
 20
36.8877
  0
VERTEX
  8
LAYER_1
 10
130.3033
 20
36.9183
  0
VERTEX
  8
LAYER_1
 10
130.2106
 20
36.93
  0
VERTEX
  8
LAYER_1
 10
130.0304
 20
36.8935
  0
VERTEX
  8
LAYER_1
 10
129.8954
 20
36.7954
  0
VERTEX
  8
LAYER_1
 10
129.8106
 20
36.652
  0
VERTEX
  8
LAYER_1
 10
129.7817
 20
36.4805
  0
VERTEX
  8
LAYER_1
 10
129.8116
 20
36.3089
  0
VERTEX
  8
LAYER_1
 10
129.8971
 20
36.1656
  0
VERTEX
  8
LAYER_1
 10
130.0321
 20
36.0674
 42
0.1009931409
  0
VERTEX
  8
LAYER_1
 10
130.2106
 20
36.0309
  0
VERTEX
  8
LAYER_1
 10
130.3798
 20
36.0674
 42
0.1319081761
  0
VERTEX
  8
LAYER_1
 10
130.5141
 20
36.1842
  0
SEQEND
  0
ENDBLK
  0
BLOCK
  8
LAYER_1
  2
AIGNBL01030027
 70
64
 10
0
 20
0
 30
0
  3
AIGNBL01030027
  0
POLYLINE
  8
LAYER_1
 40
0.05
 41
0.05
 66
1
 10
0
 20
0
 30
0
 70
1
  0
VERTEX
  8
LAYER_1
 10
131.0832
 20
36.0574
  0
VERTEX
  8
LAYER_1
 10
131.6365
 20
36.0574
  0
VERTEX
  8
LAYER_1
 10
131.6365
 20
35.9637
  0
VERTEX
  8
LAYER_1
 10
130.9782
 20
35.9637
  0
VERTEX
  8
LAYER_1
 10
130.9782
 20
36.9969
  0
VERTEX
  8
LAYER_1
 10
131.619
 20
36.9969
  0
VERTEX
  8
LAYER_1
 10
131.619
 20
36.9035
  0
VERTEX
  8
LAYER_1
 10
131.0832
 20
36.9035
  0
VERTEX
  8
LAYER_1
 10
131.0832
 20
36.549
  0
VERTEX
  8
LAYER_1
 10
131.5838
 20
36.549
  0
VERTEX
  8
LAYER_1
 10
131.5838
 20
36.4557
  0
VERTEX
  8
LAYER_1
 10
131.0832
 20
36.4557
  0
SEQEND
  0
ENDBLK
  0
BLOCK
  8
LAYER_1
  2
AIGNBL01020004
 70
64
 10
0
 20
0
 30
0
  3
AIGNBL01020004
  0
POLYLINE
  8
LAYER_1
 40
0.05
 41
0.05
 66
1
 10
0
 20
0
 30
0
  0
VERTEX
  8
LAYER_1
 10
-1.196
 20
217.6012
 42
-0.07434374488
  0
VERTEX
  8
LAYER_1
 10
-1.3046
 20
216.4751
 42
-0.1312981164
  0
VERTEX
  8
LAYER_1
 10
-1.5732
 20
216.0054
 42
-0.208619006
  0
VERTEX
  8
LAYER_1
 10
-2.3408
 20
215.7164
 42
-0.1980855618
  0
VERTEX
  8
LAYER_1
 10
-3.0956
 20
216.0054
 42
-0.1359059684
  0
VERTEX
  8
LAYER_1
 10
-3.3746
 20
216.5106
 42
-0.06699191066
  0
VERTEX
  8
LAYER_1
 10
-3.4732
 20
217.6012
 42
-0.07470238595
  0
VERTEX
  8
LAYER_1
 10
-3.3644
 20
218.7157
 42
-0.1310826725
  0
VERTEX
  8
LAYER_1
 10
-3.0956
 20
219.1845
 42
-0.2061520596
  0
VERTEX
  8
LAYER_1
 10
-2.3408
 20
219.4732
 42
-0.1977437771
  0
VERTEX
  8
LAYER_1
 10
-1.5732
 20
219.1845
 42
-0.1358673357
  0
VERTEX
  8
LAYER_1
 10
-1.2943
 20
218.6804
 42
-0.06720044206
  0
VERTEX
  8
LAYER_1
 10
-1.196
 20
217.6012
  0
SEQEND
  0
POLYLINE
  8
LAYER_1
 40
0.05
 41
0.05
 66
1
 10
0
 20
0
 30
0
  0
VERTEX
  8
LAYER_1
 10
0.4394
 20
217.6012
 42
0.0577585355
  0
VERTEX
  8
LAYER_1
 10
0.3194
 20
218.9609
 42
0.1358747382
  0
VERTEX
  8
LAYER_1
 10
-0.303
 20
220.1395
 42
0.1777268905
  0
VERTEX
  8
LAYER_1
 10
-1.8892
 20
220.9154
 42
0.03495822391
  0
VERTEX
  8
LAYER_1
 10
-2.3408
 20
220.9436
 42
0.07961804251
  0
VERTEX
  8
LAYER_1
 10
-3.315
 20
220.7962
 42
0.1217450219
  0
VERTEX
  8
LAYER_1
 10
-4.3662
 20
220.1395
 42
0.09150776818
  0
VERTEX
  8
LAYER_1
 10
-4.8465
 20
219.4067
 42
0.07735978812
  0
VERTEX
  8
LAYER_1
 10
-5.0776
 20
218.3847
 42
0.03281807239
  0
VERTEX
  8
LAYER_1
 10
-5.1082
 20
217.6012
 42
0.05725233541
  0
VERTEX
  8
LAYER_1
 10
-4.9885
 20
216.2362
 42
0.1359864428
  0
VERTEX
  8
LAYER_1
 10
-4.3662
 20
215.0504
 42
0.175204158
  0
VERTEX
  8
LAYER_1
 10
-2.7508
 20
214.2702
 42
0.03231924249
  0
VERTEX
  8
LAYER_1
 10
-2.3408
 20
214.2463
 42
0.07899302184
  0
VERTEX
  8
LAYER_1
 10
-1.3625
 20
214.3937
 42
0.1216861451
  0
VERTEX
  8
LAYER_1
 10
-0.303
 20
215.0504
 42
0.09340304456
  0
VERTEX
  8
LAYER_1
 10
0.1681
 20
215.7463
 42
0.0774645698
  0
VERTEX
  8
LAYER_1
 10
0.4017
 20
216.7223
 42
0.02212089617
  0
VERTEX
  8
LAYER_1
 10
0.4394
 20
217.6012
  0
SEQEND
  0
POLYLINE
  8
LAYER_1
 40
0.05
 41
0.05
 66
1
 10
0
 20
0
 30
0
  0
VERTEX
  8
LAYER_1
 10
-11.3166
 20
218.2044
  0
VERTEX
  8
LAYER_1
 10
-13.8074
 20
218.2044
 42
-0.1153546446
  0
VERTEX
  8
LAYER_1
 10
-13.6562
 20
218.9079
 42
-0.3007040875
  0
VERTEX
  8
LAYER_1
 10
-12.562
 20
219.5866
 42
-0.1235431447
  0
VERTEX
  8
LAYER_1
 10
-11.9621
 20
219.4464
 42
-0.1667603161
  0
VERTEX
  8
LAYER_1
 10
-11.4672
 20
218.9079
 42
-0.1143399212
  0
VERTEX
  8
LAYER_1
 10
-11.3166
 20
218.2044
  0
SEQEND
  0
POLYLINE
  8
LAYER_1
 40
0.05
 41
0.05
 66
1
 10
0
 20
0
 30
0
 70
1
  0
VERTEX
  8
LAYER_1
 10
-9.7064
 20
217.0861
  0
VERTEX
  8
LAYER_1
 10
-9.7064
 20
217.7772
 42
0.0677042249
  0
VERTEX
  8
LAYER_1
 10
-9.852
 20
218.9102
 42
0.07767771487
  0
VERTEX
  8
LAYER_1
 10
-10.2392
 20
219.7789
 42
0.1724975422
  0
VERTEX
  8
LAYER_1
 10
-11.5857
 20
220.7996
 42
0.07776532921
  0
VERTEX
  8
LAYER_1
 10
-12.562
 20
220.9436
 42
0.0796960513
  0
VERTEX
  8
LAYER_1
 10
-13.5247
 20
220.7966
 42
0.168887661
  0
VERTEX
  8
LAYER_1
 10
-14.846
 20
219.7874
 42
0.07658055294
  0
VERTEX
  8
LAYER_1
 10
-15.2466
 20
218.9066
 42
0.07097127065
  0
VERTEX
  8
LAYER_1
 10
-15.4177
 20
217.6012
 42
0.05685454964
  0
VERTEX
  8
LAYER_1
 10
-15.2934
 20
216.4004
 42
0.07540481703
  0
VERTEX
  8
LAYER_1
 10
-14.9492
 20
215.5069
 42
0.1774924504
  0
VERTEX
  8
LAYER_1
 10
-13.6777
 20
214.4527
 42
0.08958127581
  0
VERTEX
  8
LAYER_1
 10
-12.386
 20
214.2463
 42
0.07080596686
  0
VERTEX
  8
LAYER_1
 10
-11.2943
 20
214.3814
 42
0.08369033087
  0
VERTEX
  8
LAYER_1
 10
-10.4805
 20
214.7708
 42
0.04417423811
  0
VERTEX
  8
LAYER_1
 10
-9.8948
 20
215.2768
  0
VERTEX
  8
LAYER_1
 10
-10.8887
 20
216.2442
 42
-0.09875545259
  0
VERTEX
  8
LAYER_1
 10
-11.5612
 20
215.7667
 42
-0.1006814841
  0
VERTEX
  8
LAYER_1
 10
-12.3732
 20
215.6285
 42
-0.1070981108
  0
VERTEX
  8
LAYER_1
 10
-13.0555
 20
215.7638
 42
-0.2542521374
  0
VERTEX
  8
LAYER_1
 10
-13.7778
 20
216.7415
 42
-0.04997815034
  0
VERTEX
  8
LAYER_1
 10
-13.8074
 20
217.0861
  0
SEQEND
  0
POLYLINE
  8
LAYER_1
 40
0.05
 41
0.05
 66
1
 10
0
 20
0
 30
0
 70
1
  0
VERTEX
  8
LAYER_1
 10
-16.9018
 20
223.2773
  0
VERTEX
  8
LAYER_1
 10
-18.5517
 20
223.2773
  0
VERTEX
  8
LAYER_1
 10
-18.5517
 20
221.9454
  0
VERTEX
  8
LAYER_1
 10
-16.9018
 20
221.9454
  0
SEQEND
  0
POLYLINE
  8
LAYER_1
 40
0.05
 41
0.05
 66
1
 10
0
 20
0
 30
0
 70
1
  0
VERTEX
  8
LAYER_1
 10
-16.9146
 20
220.79
  0
VERTEX
  8
LAYER_1
 10
-18.5499
 20
220.79
  0
VERTEX
  8
LAYER_1
 10
-18.5499
 20
214.3218
  0
VERTEX
  8
LAYER_1
 10
-16.9146
 20
214.3218
  0
SEQEND
  0
POLYLINE
  8
LAYER_1
 40
0.05
 41
0.05
 66
1
 10
0
 20
0
 30
0
  0
VERTEX
  8
LAYER_1
 10
-19.8205
 20
215.1386
  0
VERTEX
  8
LAYER_1
 10
-20.9274
 20
216.2317
 42
-0.1123773458
  0
VERTEX
  8
LAYER_1
 10
-21.5025
 20
215.8017
 42
-0.09517045223
  0
VERTEX
  8
LAYER_1
 10
-21.984
 20
215.7164
 42
-0.2295666259
  0
VERTEX
  8
LAYER_1
 10
-22.9149
 20
216.1436
 42
-0.1146247369
  0
VERTEX
  8
LAYER_1
 10
-23.2025
 20
216.7765
 42
-0.05302023055
  0
VERTEX
  8
LAYER_1
 10
-23.2797
 20
217.6012
 42
-0.07909887362
  0
VERTEX
  8
LAYER_1
 10
-23.1547
 20
218.5928
 42
-0.092262399
  0
VERTEX
  8
LAYER_1
 10
-22.9149
 20
219.0461
 42
-0.2338488836
  0
VERTEX
  8
LAYER_1
 10
-21.984
 20
219.4732
 42
-0.128883052
  0
VERTEX
  8
LAYER_1
 10
-21.3835
 20
219.3322
 42
-0.07812769659
  0
VERTEX
  8
LAYER_1
 10
-20.9274
 20
218.9585
  0
VERTEX
  8
LAYER_1
 10
-19.8205
 20
220.0637
 42
0.170273791
  0
VERTEX
  8
LAYER_1
 10
-21.4399
 20
220.9062
 42
0.04126809408
  0
VERTEX
  8
LAYER_1
 10
-21.984
 20
220.9436
 42
0.07342899762
  0
VERTEX
  8
LAYER_1
 10
-22.9625
 20
220.804
 42
0.1715306153
  0
VERTEX
  8
LAYER_1
 10
-24.3547
 20
219.7917
 42
0.07792315428
  0
VERTEX
  8
LAYER_1
 10
-24.7438
 20
218.9398
 42
0.07121572719
  0
VERTEX
  8
LAYER_1
 10
-24.9151
 20
217.6012
 42
0.06071119945
  0
VERTEX
  8
LAYER_1
 10
-24.7811
 20
216.4004
 42
0.07599045696
  0
VERTEX
  8
LAYER_1
 10
-24.4186
 20
215.5069
 42
0.1707838222
  0
VERTEX
  8
LAYER_1
 10
-23.1195
 20
214.4409
 42
0.08917342928
  0
VERTEX
  8
LAYER_1
 10
-21.984
 20
214.2463
 42
0.07667723183
  0
VERTEX
  8
LAYER_1
 10
-21.0013
 20
214.3855
 42
0.1303789466
  0
VERTEX
  8
LAYER_1
 10
-19.8205
 20
215.1386
  0
SEQEND
  0
ENDBLK
  0
BLOCK
  8
LAYER_1
  2
AIGNBL01020005
 70
64
 10
0
 20
0
 30
0
  3
AIGNBL01020005
  0
POLYLINE
  8
LAYER_1
 40
0.05
 41
0.05
 66
1
 10
0
 20
0
 30
0
 70
1
  0
VERTEX
  8
LAYER_1
 10
0.3288
 20
212.6805
  0
VERTEX
  8
LAYER_1
 10
0.0009
 20
212.6805
  0
VERTEX
  8
LAYER_1
 10
-0.2479
 20
211.9109
  0
VERTEX
  8
LAYER_1
 10
-0.5066
 20
212.6805
  0
VERTEX
  8
LAYER_1
 10
-0.8342
 20
212.6805
  0
VERTEX
  8
LAYER_1
 10
-0.4084
 20
211.5234
  0
VERTEX
  8
LAYER_1
 10
-0.4611
 20
211.3704
 42
-0.396721792
  0
VERTEX
  8
LAYER_1
 10
-0.6165
 20
211.2581
  0
VERTEX
  8
LAYER_1
 10
-0.6882
 20
211.2581
  0
VERTEX
  8
LAYER_1
 10
-0.6882
 20
210.9783
  0
VERTEX
  8
LAYER_1
 10
-0.5662
 20
210.9783
 42
0.2067482179
  0
VERTEX
  8
LAYER_1
 10
-0.2985
 20
211.0741
  0
VERTEX
  8
LAYER_1
 10
-0.2048
 20
211.2343
  0
SEQEND
  0
POLYLINE
  8
LAYER_1
 40
0.05
 41
0.05
 66
1
 10
0
 20
0
 30
0
 70
1
  0
VERTEX
  8
LAYER_1
 10
-0.8704
 20
211.4352
  0
VERTEX
  8
LAYER_1
 10
-0.8704
 20
211.6977
  0
VERTEX
  8
LAYER_1
 10
-0.9899
 20
211.6977
 42
-0.4758158184
  0
VERTEX
  8
LAYER_1
 10
-1.0998
 20
211.8103
  0
VERTEX
  8
LAYER_1
 10
-1.0998
 20
213.137
  0
VERTEX
  8
LAYER_1
 10
-1.4109
 20
213.137
  0
VERTEX
  8
LAYER_1
 10
-1.4109
 20
211.7914
 42
0.4199153803
  0
VERTEX
  8
LAYER_1
 10
-1.0475
 20
211.4352
  0
SEQEND
  0
POLYLINE
  8
LAYER_1
 40
0.05
 41
0.05
 66
1
 10
0
 20
0
 30
0
 70
1
  0
VERTEX
  8
LAYER_1
 10
-1.9739
 20
211.894
 42
-0.2612643935
  0
VERTEX
  8
LAYER_1
 10
-2.0214
 20
211.7363
 42
-0.1972145384
  0
VERTEX
  8
LAYER_1
 10
-2.2057
 20
211.6763
 42
-0.4351815088
  0
VERTEX
  8
LAYER_1
 10
-2.3949
 20
211.8175
 42
-0.4650020324
  0
VERTEX
  8
LAYER_1
 10
-2.2105
 20
211.9609
  0
VERTEX
  8
LAYER_1
 10
-1.9739
 20
211.9609
  0
SEQEND
  0
POLYLINE
  8
LAYER_1
 40
0.05
 41
0.05
 66
1
 10
0
 20
0
 30
0
 70
1
  0
VERTEX
  8
LAYER_1
 10
-1.6624
 20
211.4352
  0
VERTEX
  8
LAYER_1
 10
-1.6624
 20
212.2551
 42
0.2205564812
  0
VERTEX
  8
LAYER_1
 10
-1.7881
 20
212.5772
 42
0.1806009816
  0
VERTEX
  8
LAYER_1
 10
-2.194
 20
212.6947
 42
0.2375604919
  0
VERTEX
  8
LAYER_1
 10
-2.6412
 20
212.5179
  0
VERTEX
  8
LAYER_1
 10
-2.4452
 20
212.3243
 42
-0.2464065653
  0
VERTEX
  8
LAYER_1
 10
-2.2057
 20
212.4322
 42
-0.4684872669
  0
VERTEX
  8
LAYER_1
 10
-1.9739
 20
212.2358
  0
VERTEX
  8
LAYER_1
 10
-1.9739
 20
212.1738
  0
VERTEX
  8
LAYER_1
 10
-2.2633
 20
212.1738
 42
0.2103132122
  0
VERTEX
  8
LAYER_1
 10
-2.6081
 20
212.0486
 42
0.18506809
  0
VERTEX
  8
LAYER_1
 10
-2.6942
 20
211.8127
 42
0.1945609364
  0
VERTEX
  8
LAYER_1
 10
-2.5912
 20
211.533
 42
0.1980708175
  0
VERTEX
  8
LAYER_1
 10
-2.2729
 20
211.4228
 42
0.2246292991
  0
VERTEX
  8
LAYER_1
 10
-1.9663
 20
211.5426
  0
VERTEX
  8
LAYER_1
 10
-1.9663
 20
211.4352
  0
SEQEND
  0
POLYLINE
  8
LAYER_1
 40
0.05
 41
0.05
 66
1
 10
0
 20
0
 30
0
 70
1
  0
VERTEX
  8
LAYER_1
 10
-2.8758
 20
211.4352
  0
VERTEX
  8
LAYER_1
 10
-2.8758
 20
211.6977
  0
VERTEX
  8
LAYER_1
 10
-2.9884
 20
211.6977
 42
-0.496954413
  0
VERTEX
  8
LAYER_1
 10
-3.0963
 20
211.8103
  0
VERTEX
  8
LAYER_1
 10
-3.0963
 20
212.4081
  0
VERTEX
  8
LAYER_1
 10
-2.8758
 20
212.4081
  0
VERTEX
  8
LAYER_1
 10
-2.8758
 20
212.6444
  0
VERTEX
  8
LAYER_1
 10
-3.0963
 20
212.6444
  0
VERTEX
  8
LAYER_1
 10
-3.0963
 20
213.0126
  0
VERTEX
  8
LAYER_1
 10
-3.407
 20
213.0126
  0
VERTEX
  8
LAYER_1
 10
-3.407
 20
212.6444
  0
VERTEX
  8
LAYER_1
 10
-3.539
 20
212.6444
  0
VERTEX
  8
LAYER_1
 10
-3.539
 20
212.4081
  0
VERTEX
  8
LAYER_1
 10
-3.407
 20
212.4081
  0
VERTEX
  8
LAYER_1
 10
-3.407
 20
211.7914
 42
0.4187763975
  0
VERTEX
  8
LAYER_1
 10
-3.0456
 20
211.4352
  0
SEQEND
  0
POLYLINE
  8
LAYER_1
 40
0.05
 41
0.05
 66
1
 10
0
 20
0
 30
0
 70
1
  0
VERTEX
  8
LAYER_1
 10
-3.8091
 20
213.137
  0
VERTEX
  8
LAYER_1
 10
-4.1419
 20
213.137
  0
VERTEX
  8
LAYER_1
 10
-4.1419
 20
211.4352
  0
VERTEX
  8
LAYER_1
 10
-3.8091
 20
211.4352
  0
SEQEND
  0
POLYLINE
  8
LAYER_1
 40
0.05
 41
0.05
 66
1
 10
0
 20
0
 30
0
 70
1
  0
VERTEX
  8
LAYER_1
 10
-5.0562
 20
211.4352
  0
VERTEX
  8
LAYER_1
 10
-5.0562
 20
212.231
 42
0.2135728393
  0
VERTEX
  8
LAYER_1
 10
-5.183
 20
212.5844
 42
0.1976836271
  0
VERTEX
  8
LAYER_1
 10
-5.4775
 20
212.6947
 42
0.2038428178
  0
VERTEX
  8
LAYER_1
 10
-5.7886
 20
212.5658
  0
VERTEX
  8
LAYER_1
 10
-5.7886
 20
212.6805
  0
VERTEX
  8
LAYER_1
 10
-6.0925
 20
212.6805
  0
VERTEX
  8
LAYER_1
 10
-6.0925
 20
211.4352
  0
VERTEX
  8
LAYER_1
 10
-5.7814
 20
211.4352
  0
VERTEX
  8
LAYER_1
 10
-5.7814
 20
212.1882
 42
-0.4265123439
  0
VERTEX
  8
LAYER_1
 10
-5.573
 20
212.4149
 42
-0.4361688158
  0
VERTEX
  8
LAYER_1
 10
-5.3673
 20
212.1882
  0
VERTEX
  8
LAYER_1
 10
-5.3673
 20
211.4352
  0
SEQEND
  0
POLYLINE
  8
LAYER_1
 40
0.05
 41
0.05
 66
1
 10
0
 20
0
 30
0
 70
1
  0
VERTEX
  8
LAYER_1
 10
-6.437
 20
213.1467
  0
VERTEX
  8
LAYER_1
 10
-6.7553
 20
213.1467
  0
VERTEX
  8
LAYER_1
 10
-6.7553
 20
212.8931
  0
VERTEX
  8
LAYER_1
 10
-6.437
 20
212.8931
  0
SEQEND
  0
POLYLINE
  8
LAYER_1
 40
0.05
 41
0.05
 66
1
 10
0
 20
0
 30
0
 70
1
  0
VERTEX
  8
LAYER_1
 10
-6.4394
 20
212.6444
  0
VERTEX
  8
LAYER_1
 10
-6.7508
 20
212.6444
  0
VERTEX
  8
LAYER_1
 10
-6.7508
 20
211.4352
  0
VERTEX
  8
LAYER_1
 10
-6.4394
 20
211.4352
  0
SEQEND
  0
POLYLINE
  8
LAYER_1
 40
0.05
 41
0.05
 66
1
 10
0
 20
0
 30
0
  0
VERTEX
  8
LAYER_1
 10
-7.8994
 20
212.1738
  0
VERTEX
  8
LAYER_1
 10
-8.3735
 20
212.1738
  0
VERTEX
  8
LAYER_1
 10
-8.3445
 20
212.3074
 42
-0.3006254692
  0
VERTEX
  8
LAYER_1
 10
-8.1365
 20
212.4363
 42
-0.3004502708
  0
VERTEX
  8
LAYER_1
 10
-7.9284
 20
212.3074
  0
VERTEX
  8
LAYER_1
 10
-7.8994
 20
212.1738
  0
SEQEND
  0
POLYLINE
  8
LAYER_1
 40
0.05
 41
0.05
 66
1
 10
0
 20
0
 30
0
 70
1
  0
VERTEX
  8
LAYER_1
 10
-7.5932
 20
211.9609
  0
VERTEX
  8
LAYER_1
 10
-7.5932
 20
212.0925
 42
0.1727949422
  0
VERTEX
  8
LAYER_1
 10
-7.7261
 20
212.5161
 42
0.2293242446
  0
VERTEX
  8
LAYER_1
 10
-8.1365
 20
212.6947
 42
0.4082688927
  0
VERTEX
  8
LAYER_1
 10
-8.6757
 20
212.151
 42
0.02665393029
  0
VERTEX
  8
LAYER_1
 10
-8.6797
 20
212.0591
 42
0.1685110564
  0
VERTEX
  8
LAYER_1
 10
-8.5537
 20
211.6061
 42
0.2404561047
  0
VERTEX
  8
LAYER_1
 10
-8.103
 20
211.4207
 42
0.2250390665
  0
VERTEX
  8
LAYER_1
 10
-7.629
 20
211.6167
  0
VERTEX
  8
LAYER_1
 10
-7.8181
 20
211.801
 42
-0.2242451699
  0
VERTEX
  8
LAYER_1
 10
-8.1003
 20
211.6839
 42
-0.4312737558
  0
VERTEX
  8
LAYER_1
 10
-8.3735
 20
211.9609
  0
SEQEND
  0
POLYLINE
  8
LAYER_1
 40
0.05
 41
0.05
 66
1
 10
0
 20
0
 30
0
  0
VERTEX
  8
LAYER_1
 10
-9.2778
 20
212.0591
 42
-0.253040373
  0
VERTEX
  8
LAYER_1
 10
-9.3737
 20
211.7317
 42
-0.1751487426
  0
VERTEX
  8
LAYER_1
 10
-9.4911
 20
211.7004
 42
-0.3550784466
  0
VERTEX
  8
LAYER_1
 10
-9.6774
 20
211.8331
 42
-0.1590539016
  0
VERTEX
  8
LAYER_1
 10
-9.7016
 20
212.0591
 42
-0.2613372193
  0
VERTEX
  8
LAYER_1
 10
-9.6054
 20
212.3859
 42
-0.1728730088
  0
VERTEX
  8
LAYER_1
 10
-9.4911
 20
212.4149
 42
-0.3508351005
  0
VERTEX
  8
LAYER_1
 10
-9.3031
 20
212.2839
 42
-0.1617280931
  0
VERTEX
  8
LAYER_1
 10
-9.2778
 20
212.0591
  0
SEQEND
  0
POLYLINE
  8
LAYER_1
 40
0.05
 41
0.05
 66
1
 10
0
 20
0
 30
0
 70
1
  0
VERTEX
  8
LAYER_1
 10
-8.9667
 20
211.4352
  0
VERTEX
  8
LAYER_1
 10
-8.9667
 20
213.137
  0
VERTEX
  8
LAYER_1
 10
-9.2778
 20
213.137
  0
VERTEX
  8
LAYER_1
 10
-9.2778
 20
212.5707
 42
0.2263222596
  0
VERTEX
  8
LAYER_1
 10
-9.582
 20
212.6947
 42
0.2021447193
  0
VERTEX
  8
LAYER_1
 10
-9.8835
 20
212.5824
 42
0.1955994833
  0
VERTEX
  8
LAYER_1
 10
-10.0116
 20
212.1647
 42
0.01858076917
  0
VERTEX
  8
LAYER_1
 10
-10.013
 20
212.0591
 42
0.1992737425
  0
VERTEX
  8
LAYER_1
 10
-9.8835
 20
211.533
 42
0.1967798833
  0
VERTEX
  8
LAYER_1
 10
-9.5796
 20
211.4207
 42
0.2368398509
  0
VERTEX
  8
LAYER_1
 10
-9.2709
 20
211.5523
  0
VERTEX
  8
LAYER_1
 10
-9.2709
 20
211.4352
  0
SEQEND
  0
POLYLINE
  8
LAYER_1
 40
0.05
 41
0.05
 66
1
 10
0
 20
0
 30
0
 70
1
  0
VERTEX
  8
LAYER_1
 10
-10.6062
 20
211.894
 42
-0.2606176184
  0
VERTEX
  8
LAYER_1
 10
-10.6541
 20
211.7363
 42
-0.1975146001
  0
VERTEX
  8
LAYER_1
 10
-10.8384
 20
211.6763
 42
-0.4358674545
  0
VERTEX
  8
LAYER_1
 10
-11.0272
 20
211.8175
 42
-0.4654392595
  0
VERTEX
  8
LAYER_1
 10
-10.8433
 20
211.9609
  0
VERTEX
  8
LAYER_1
 10
-10.6062
 20
211.9609
  0
SEQEND
  0
POLYLINE
  8
LAYER_1
 40
0.05
 41
0.05
 66
1
 10
0
 20
0
 30
0
 70
1
  0
VERTEX
  8
LAYER_1
 10
-10.2951
 20
211.4352
  0
VERTEX
  8
LAYER_1
 10
-10.2951
 20
212.2551
 42
0.2204713638
  0
VERTEX
  8
LAYER_1
 10
-10.4207
 20
212.5772
 42
0.1806796456
  0
VERTEX
  8
LAYER_1
 10
-10.8267
 20
212.6947
 42
0.2375604919
  0
VERTEX
  8
LAYER_1
 10
-11.2739
 20
212.5179
  0
VERTEX
  8
LAYER_1
 10
-11.0779
 20
212.3243
 42
-0.2460763492
  0
VERTEX
  8
LAYER_1
 10
-10.8384
 20
212.4322
 42
-0.4683426501
  0
VERTEX
  8
LAYER_1
 10
-10.6062
 20
212.2358
  0
VERTEX
  8
LAYER_1
 10
-10.6062
 20
212.1738
  0
VERTEX
  8
LAYER_1
 10
-10.896
 20
212.1738
 42
0.2105830771
  0
VERTEX
  8
LAYER_1
 10
-11.2407
 20
212.0486
 42
0.1847749138
  0
VERTEX
  8
LAYER_1
 10
-11.3266
 20
211.8127
 42
0.1946881207
  0
VERTEX
  8
LAYER_1
 10
-11.2239
 20
211.533
 42
0.1984095291
  0
VERTEX
  8
LAYER_1
 10
-10.9053
 20
211.4228
 42
0.2251045156
  0
VERTEX
  8
LAYER_1
 10
-10.599
 20
211.5426
  0
VERTEX
  8
LAYER_1
 10
-10.599
 20
211.4352
  0
SEQEND
  0
POLYLINE
  8
LAYER_1
 40
0.05
 41
0.05
 66
1
 10
0
 20
0
 30
0
 70
1
  0
VERTEX
  8
LAYER_1
 10
-11.5733
 20
211.4352
  0
VERTEX
  8
LAYER_1
 10
-11.5733
 20
212.231
 42
0.2096424971
  0
VERTEX
  8
LAYER_1
 10
-11.7097
 20
212.5844
 42
0.1904514856
  0
VERTEX
  8
LAYER_1
 10
-12.016
 20
212.6947
 42
0.2238328308
  0
VERTEX
  8
LAYER_1
 10
-12.3894
 20
212.5369
 42
0.2475119635
  0
VERTEX
  8
LAYER_1
 10
-12.7198
 20
212.6947
 42
0.1995172237
  0
VERTEX
  8
LAYER_1
 10
-13.0309
 20
212.5658
  0
VERTEX
  8
LAYER_1
 10
-13.0309
 20
212.6805
  0
VERTEX
  8
LAYER_1
 10
-13.3348
 20
212.6805
  0
VERTEX
  8
LAYER_1
 10
-13.3348
 20
211.4352
  0
VERTEX
  8
LAYER_1
 10
-13.0233
 20
211.4352
  0
VERTEX
  8
LAYER_1
 10
-13.0233
 20
212.1882
 42
-0.4265481482
  0
VERTEX
  8
LAYER_1
 10
-12.8153
 20
212.4149
 42
-0.4361688158
  0
VERTEX
  8
LAYER_1
 10
-12.6096
 20
212.1882
  0
VERTEX
  8
LAYER_1
 10
-12.6096
 20
211.4352
  0
VERTEX
  8
LAYER_1
 10
-12.2985
 20
211.4352
  0
VERTEX
  8
LAYER_1
 10
-12.2985
 20
212.1951
 42
-0.4236814191
  0
VERTEX
  8
LAYER_1
 10
-12.0904
 20
212.4149
 42
-0.4367319455
  0
VERTEX
  8
LAYER_1
 10
-11.8844
 20
212.1882
  0
VERTEX
  8
LAYER_1
 10
-11.8844
 20
211.4352
  0
SEQEND
  0
POLYLINE
  8
LAYER_1
 40
0.05
 41
0.05
 66
1
 10
0
 20
0
 30
0
  0
VERTEX
  8
LAYER_1
 10
-13.8973
 20
212.0229
 42
-0.2061577285
  0
VERTEX
  8
LAYER_1
 10
-14.0003
 20
211.6401
 42
-0.1860547104
  0
VERTEX
  8
LAYER_1
 10
-14.1915
 20
211.5736
 42
-0.2912351062
  0
VERTEX
  8
LAYER_1
 10
-14.4327
 20
211.7044
 42
-0.1074256356
  0
VERTEX
  8
LAYER_1
 10
-14.4882
 20
212.0229
 42
-0.2074793493
  0
VERTEX
  8
LAYER_1
 10
-14.3843
 20
212.406
 42
-0.1847812498
  0
VERTEX
  8
LAYER_1
 10
-14.1915
 20
212.4725
 42
-0.2924886932
  0
VERTEX
  8
LAYER_1
 10
-13.9523
 20
212.3416
 42
-0.1065173685
  0
VERTEX
  8
LAYER_1
 10
-13.8973
 20
212.0229
  0
SEQEND
  0
POLYLINE
  8
LAYER_1
 40
0.05
 41
0.05
 66
1
 10
0
 20
0
 30
0
 70
1
  0
VERTEX
  8
LAYER_1
 10
-13.7247
 20
211.4352
  0
VERTEX
  8
LAYER_1
 10
-13.7247
 20
213.137
  0
VERTEX
  8
LAYER_1
 10
-13.8973
 20
213.137
  0
VERTEX
  8
LAYER_1
 10
-13.8973
 20
212.4749
 42
0.2526586678
  0
VERTEX
  8
LAYER_1
 10
-14.2298
 20
212.6258
 42
0.19617536
  0
VERTEX
  8
LAYER_1
 10
-14.5171
 20
212.5224
 42
0.2062736322
  0
VERTEX
  8
LAYER_1
 10
-14.6608
 20
212.0229
 42
0.1925049638
  0
VERTEX
  8
LAYER_1
 10
-14.5171
 20
211.5234
 42
0.1893263809
  0
VERTEX
  8
LAYER_1
 10
-14.2298
 20
211.4207
 42
0.2549957718
  0
VERTEX
  8
LAYER_1
 10
-13.8949
 20
211.5761
  0
VERTEX
  8
LAYER_1
 10
-13.8949
 20
211.4352
  0
SEQEND
  0
POLYLINE
  8
LAYER_1
 40
0.05
 41
0.05
 66
1
 10
0
 20
0
 30
0
 70
1
  0
VERTEX
  8
LAYER_1
 10
-15.0173
 20
211.4352
  0
VERTEX
  8
LAYER_1
 10
-15.0173
 20
212.1882
 42
0.2089360908
  0
VERTEX
  8
LAYER_1
 10
-15.1393
 20
212.5156
 42
0.1977212202
  0
VERTEX
  8
LAYER_1
 10
-15.4411
 20
212.6258
 42
0.2189458741
  0
VERTEX
  8
LAYER_1
 10
-15.7711
 20
212.4818
  0
VERTEX
  8
LAYER_1
 10
-15.7711
 20
212.6113
  0
VERTEX
  8
LAYER_1
 10
-15.9434
 20
212.6113
  0
VERTEX
  8
LAYER_1
 10
-15.9434
 20
211.4352
  0
VERTEX
  8
LAYER_1
 10
-15.7711
 20
211.4352
  0
VERTEX
  8
LAYER_1
 10
-15.7711
 20
212.1593
 42
-0.4284576329
  0
VERTEX
  8
LAYER_1
 10
-15.479
 20
212.4725
 42
-0.4466039224
  0
VERTEX
  8
LAYER_1
 10
-15.1896
 20
212.1593
  0
VERTEX
  8
LAYER_1
 10
-15.1896
 20
211.4352
  0
SEQEND
  0
POLYLINE
  8
LAYER_1
 40
0.05
 41
0.05
 66
1
 10
0
 20
0
 30
0
 70
1
  0
VERTEX
  8
LAYER_1
 10
-16.5346
 20
211.8506
 42
-0.2283736068
  0
VERTEX
  8
LAYER_1
 10
-16.5945
 20
211.6477
 42
-0.1936527339
  0
VERTEX
  8
LAYER_1
 10
-16.8553
 20
211.5688
 42
-0.4421173513
  0
VERTEX
  8
LAYER_1
 10
-17.1281
 20
211.77
 42
-0.3470924647
  0
VERTEX
  8
LAYER_1
 10
-16.9968
 20
211.9592
 42
-0.1261120874
  0
VERTEX
  8
LAYER_1
 10
-16.8625
 20
211.9774
  0
VERTEX
  8
LAYER_1
 10
-16.5346
 20
211.9774
  0
SEQEND
  0
POLYLINE
  8
LAYER_1
 40
0.05
 41
0.05
 66
1
 10
0
 20
0
 30
0
 70
1
  0
VERTEX
  8
LAYER_1
 10
-16.362
 20
211.4352
  0
VERTEX
  8
LAYER_1
 10
-16.362
 20
212.233
 42
0.2383829599
  0
VERTEX
  8
LAYER_1
 10
-16.4898
 20
212.5337
 42
0.1599209503
  0
VERTEX
  8
LAYER_1
 10
-16.8336
 20
212.6258
 42
0.2578644009
  0
VERTEX
  8
LAYER_1
 10
-17.2501
 20
212.4487
  0
VERTEX
  8
LAYER_1
 10
-17.133
 20
212.3409
 42
-0.2730960706
  0
VERTEX
  8
LAYER_1
 10
-16.8364
 20
212.4776
 42
-0.4521672334
  0
VERTEX
  8
LAYER_1
 10
-16.5346
 20
212.2193
  0
VERTEX
  8
LAYER_1
 10
-16.5346
 20
212.1066
  0
VERTEX
  8
LAYER_1
 10
-16.8863
 20
212.1066
 42
0.2189203862
  0
VERTEX
  8
LAYER_1
 10
-17.2226
 20
211.9822
 42
0.17494127
  0
VERTEX
  8
LAYER_1
 10
-17.2956
 20
211.7673
 42
0.2075768001
  0
VERTEX
  8
LAYER_1
 10
-17.2071
 20
211.5282
 42
0.2128603639
  0
VERTEX
  8
LAYER_1
 10
-16.8742
 20
211.4207
 42
0.2247839487
  0
VERTEX
  8
LAYER_1
 10
-16.5346
 20
211.5471
  0
VERTEX
  8
LAYER_1
 10
-16.5346
 20
211.4352
  0
SEQEND
  0
POLYLINE
  8
LAYER_1
 40
0.05
 41
0.05
 66
1
 10
0
 20
0
 30
0
 70
1
  0
VERTEX
  8
LAYER_1
 10
-17.6211
 20
211.4352
  0
VERTEX
  8
LAYER_1
 10
-17.6211
 20
212.1903
 42
0.4657729105
  0
VERTEX
  8
LAYER_1
 10
-18.0449
 20
212.6258
 42
0.2190712165
  0
VERTEX
  8
LAYER_1
 10
-18.3749
 20
212.4818
  0
VERTEX
  8
LAYER_1
 10
-18.3749
 20
213.137
  0
VERTEX
  8
LAYER_1
 10
-18.5475
 20
213.137
  0
VERTEX
  8
LAYER_1
 10
-18.5475
 20
211.4352
  0
VERTEX
  8
LAYER_1
 10
-18.3749
 20
211.4352
  0
VERTEX
  8
LAYER_1
 10
-18.3749
 20
212.1617
 42
-0.4350388577
  0
VERTEX
  8
LAYER_1
 10
-18.0807
 20
212.4725
 42
-0.4517618327
  0
VERTEX
  8
LAYER_1
 10
-17.7934
 20
212.1617
  0
VERTEX
  8
LAYER_1
 10
-17.7934
 20
211.4352
  0
SEQEND
  0
ENDBLK
  0
BLOCK
  8
LAYER_1
  2
AIGNBL01020007
 70
64
 10
0
 20
0
 30
0
  3
AIGNBL01020007
  0
INSERT
  8
LAYER_1
  2
AIGNBL01030008
 10
0
 20
0
 30
0
  0
ENDBLK
  0
BLOCK
  8
LAYER_1
  2
AIGNBL01020010
 70
64
 10
0
 20
0
 30
0
  3
AIGNBL01020010
  0
INSERT
  8
LAYER_1
  2
AIGNBL01030011
 10
0
 20
0
 30
0
  0
INSERT
  8
LAYER_1
  2
AIGNBL01030012
 10
0
 20
0
 30
0
  0
INSERT
  8
LAYER_1
  2
AIGNBL01030013
 10
0
 20
0
 30
0
  0
INSERT
  8
LAYER_1
  2
AIGNBL01030014
 10
0
 20
0
 30
0
  0
INSERT
  8
LAYER_1
  2
AIGNBL01030015
 10
0
 20
0
 30
0
  0
INSERT
  8
LAYER_1
  2
AIGNBL01030016
 10
0
 20
0
 30
0
  0
INSERT
  8
LAYER_1
  2
AIGNBL01030017
 10
0
 20
0
 30
0
  0
INSERT
  8
LAYER_1
  2
AIGNBL01030018
 10
0
 20
0
 30
0
  0
INSERT
  8
LAYER_1
  2
AIGNBL01030019
 10
0
 20
0
 30
0
  0
INSERT
  8
LAYER_1
  2
AIGNBL0103001A
 10
0
 20
0
 30
0
  0
INSERT
  8
LAYER_1
  2
AIGNBL0103001B
 10
0
 20
0
 30
0
  0
INSERT
  8
LAYER_1
  2
AIGNBL0103001C
 10
0
 20
0
 30
0
  0
INSERT
  8
LAYER_1
  2
AIGNBL0103001D
 10
0
 20
0
 30
0
  0
INSERT
  8
LAYER_1
  2
AIGNBL0103001E
 10
0
 20
0
 30
0
  0
INSERT
  8
LAYER_1
  2
AIGNBL0103001F
 10
0
 20
0
 30
0
  0
INSERT
  8
LAYER_1
  2
AIGNBL01030020
 10
0
 20
0
 30
0
  0
INSERT
  8
LAYER_1
  2
AIGNBL01030021
 10
0
 20
0
 30
0
  0
INSERT
  8
LAYER_1
  2
AIGNBL01030022
 10
0
 20
0
 30
0
  0
INSERT
  8
LAYER_1
  2
AIGNBL01030023
 10
0
 20
0
 30
0
  0
INSERT
  8
LAYER_1
  2
AIGNBL01030024
 10
0
 20
0
 30
0
  0
INSERT
  8
LAYER_1
  2
AIGNBL01030025
 10
0
 20
0
 30
0
  0
INSERT
  8
LAYER_1
  2
AIGNBL01030026
 10
0
 20
0
 30
0
  0
INSERT
  8
LAYER_1
  2
AIGNBL01030027
 10
0
 20
0
 30
0
  0
ENDBLK
  0
BLOCK
  8
LAYER_1
  2
AIGNBL01010002
 70
64
 10
0
 20
0
 30
0
  3
AIGNBL01010002
  0
POLYLINE
  8
LAYER_1
 40
0.7056
 41
0.7056
 66
1
 10
0
 20
0
 30
0
 70
1
  0
VERTEX
  8
LAYER_1
 10
251.6749
 20
230.337
  0
VERTEX
  8
LAYER_1
 10
251.6749
 20
33.3285
  0
VERTEX
  8
LAYER_1
 10
-30.3177
 20
33.3285
  0
VERTEX
  8
LAYER_1
 10
-30.3177
 20
230.337
  0
SEQEND
  0
ENDBLK
  0
BLOCK
  8
LAYER_1
  2
AIGNBL01010003
 70
64
 10
0
 20
0
 30
0
  3
AIGNBL01010003
  0
INSERT
  8
LAYER_1
  2
AIGNBL01020004
 10
0
 20
0
 30
0
  0
POLYLINE
  8
LAYER_1
 40
0.05
 41
0.05
 66
1
 10
0
 20
0
 30
0
  0
VERTEX
  8
LAYER_1
 10
-6.457
 20
223.2684
  0
VERTEX
  8
LAYER_1
 10
-8.0924
 20
223.2684
  0
VERTEX
  8
LAYER_1
 10
-8.0924
 20
216.1939
 42
0.09304299953
  0
VERTEX
  8
LAYER_1
 10
-7.9518
 20
215.4241
 42
0.2872011141
  0
VERTEX
  8
LAYER_1
 10
-6.4597
 20
214.3359
  0
VERTEX
  8
LAYER_1
 10
-6.457
 20
223.2684
  0
SEQEND
  0
INSERT
  8
LAYER_1
  2
AIGNBL01020005
 10
0
 20
0
 30
0
  0
ENDBLK
  0
BLOCK
  8
LAYER_1
  2
AIGNBL01010006
 70
64
 10
0
 20
0
 30
0
  3
AIGNBL01010006
  0
INSERT
  8
LAYER_1
  2
AIGNBL01020007
 10
0
 20
0
 30
0
  0
INSERT
  8
LAYER_1
  2
AIGNBL01020010
 10
0
 20
0
 30
0
  0
ENDBLK
  0
BLOCK
  8
LAYER_1
  2
AIGNBL01010028
 70
64
 10
0
 20
0
 30
0
  3
AIGNBL01010028
  0
POLYLINE
  8
LAYER_1
 40
0.0741
 41
0.0741
 66
1
 10
0
 20
0
 30
0
  0
VERTEX
  8
LAYER_1
 10
113.2164
 20
114.4301
  0
VERTEX
  8
LAYER_1
 10
113.1748
 20
114.367
  0
SEQEND
  0
POLYLINE
  8
LAYER_1
 40
0.0741
 41
0.0741
 66
1
 10
0
 20
0
 30
0
  0
VERTEX
  8
LAYER_1
 10
113.6093
 20
114.6282
 42
0.2267186921
  0
VERTEX
  8
LAYER_1
 10
113.2163
 20
114.4302
  0
SEQEND
  0
POLYLINE
  8
LAYER_1
 40
0.0741
 41
0.0741
 66
1
 10
0
 20
0
 30
0
  0
VERTEX
  8
LAYER_1
 10
48.3895
 20
115.7291
 42
0.4141305084
  0
VERTEX
  8
LAYER_1
 10
48.206
 20
115.5456
  0
SEQEND
  0
ENDBLK
  0
BLOCK
  8
LAYER_1
  2
AIGNBL01010029
 70
64
 10
0
 20
0
 30
0
  3
AIGNBL01010029
  0
POLYLINE
  8
LAYER_1
 40
0.0741
 41
0.0741
 66
1
 10
0
 20
0
 30
0
  0
VERTEX
  8
LAYER_1
 10
48.206
 20
114.8118
 42
0.4141840697
  0
VERTEX
  8
LAYER_1
 10
48.3895
 20
114.6283
  0
SEQEND
  0
ENDBLK
  0
BLOCK
  8
LAYER_1
  2
AIGNBL0101002A
 70
64
 10
0
 20
0
 30
0
  3
AIGNBL0101002A
  0
POLYLINE
  8
LAYER_1
 40
0.0741
 41
0.0741
 66
1
 10
0
 20
0
 30
0
  0
VERTEX
  8
LAYER_1
 10
117.9006
 20
114.6283
 42
0.4141260245
  0
VERTEX
  8
LAYER_1
 10
118.0841
 20
114.8118
  0
SEQEND
  0
ENDBLK
  0
BLOCK
  8
LAYER_1
  2
AIGNBL0101002B
 70
64
 10
0
 20
0
 30
0
  3
AIGNBL0101002B
  0
POLYLINE
  8
LAYER_1
 40
0.0741
 41
0.0741
 66
1
 10
0
 20
0
 30
0
  0
VERTEX
  8
LAYER_1
 10
118.0841
 20
115.5456
 42
0.4141096995
  0
VERTEX
  8
LAYER_1
 10
117.9006
 20
115.7291
  0
SEQEND
  0
ENDBLK
  0
BLOCK
  8
LAYER_1
  2
AIGNBL0101002C
 70
64
 10
0
 20
0
 30
0
  3
AIGNBL0101002C
  0
POLYLINE
  8
LAYER_1
 40
0.0741
 41
0.0741
 66
1
 10
0
 20
0
 30
0
  0
VERTEX
  8
LAYER_1
 10
55.1789
 20
97.9111
 42
0.3792131568
  0
VERTEX
  8
LAYER_1
 10
55.3608
 20
97.7498
  0
SEQEND
  0
ENDBLK
  0
BLOCK
  8
LAYER_1
  2
AIGNBL0101002D
 70
64
 10
0
 20
0
 30
0
  3
AIGNBL0101002D
  0
POLYLINE
  8
LAYER_1
 40
0.0741
 41
0.0741
 66
1
 10
0
 20
0
 30
0
  0
VERTEX
  8
LAYER_1
 10
110.9291
 20
97.7499
 42
0.3799473583
  0
VERTEX
  8
LAYER_1
 10
111.1111
 20
97.9112
  0
SEQEND
  0
ENDBLK
  0
BLOCK
  8
LAYER_1
  2
AIGNBL0101002E
 70
64
 10
0
 20
0
 30
0
  3
AIGNBL0101002E
  0
POLYLINE
  8
LAYER_1
 40
0.0741
 41
0.0741
 66
1
 10
0
 20
0
 30
0
  0
VERTEX
  8
LAYER_1
 10
53.1152
 20
114.3671
 42
0.2659414999
  0
VERTEX
  8
LAYER_1
 10
52.681
 20
114.6281
  0
SEQEND
  0
ENDBLK
  0
BLOCK
  8
LAYER_1
  2
AIGNBL0101002F
 70
64
 10
0
 20
0
 30
0
  3
AIGNBL0101002F
  0
POLYLINE
  8
LAYER_1
 40
0.2611
 41
0.2611
 66
1
 10
0
 20
0
 30
0
  0
VERTEX
  8
LAYER_1
 10
79.6232
 20
101.1642
 42
0.1735997739
  0
VERTEX
  8
LAYER_1
 10
79.5097
 20
101.2146
  0
SEQEND
  0
ENDBLK
  0
BLOCK
  8
LAYER_1
  2
AIGNBL01010030
 70
64
 10
0
 20
0
 30
0
  3
AIGNBL01010030
  0
POLYLINE
  8
LAYER_1
 40
0.2611
 41
0.2611
 66
1
 10
0
 20
0
 30
0
  0
VERTEX
  8
LAYER_1
 10
80.8212
 20
99.9718
 42
0.2038302419
  0
VERTEX
  8
LAYER_1
 10
80.7646
 20
100.1041
  0
SEQEND
  0
ENDBLK
  0
BLOCK
  8
LAYER_1
  2
AIGNBL01010031
 70
64
 10
0
 20
0
 30
0
  3
AIGNBL01010031
  0
POLYLINE
  8
LAYER_1
 40
0.2611
 41
0.2611
 66
1
 10
0
 20
0
 30
0
  0
VERTEX
  8
LAYER_1
 10
80.1689
 20
99.1972
 42
0.2041284024
  0
VERTEX
  8
LAYER_1
 10
80.0749
 20
99.4178
  0
SEQEND
  0
ENDBLK
  0
BLOCK
  8
LAYER_1
  2
AIGNBL01010032
 70
64
 10
0
 20
0
 30
0
  3
AIGNBL01010032
  0
POLYLINE
  8
LAYER_1
 40
0.2611
 41
0.2611
 66
1
 10
0
 20
0
 30
0
  0
VERTEX
  8
LAYER_1
 10
79.2595
 20
100.1924
 42
0.1921620363
  0
VERTEX
  8
LAYER_1
 10
79.0493
 20
100.2776
  0
SEQEND
  0
POLYLINE
  8
LAYER_1
 40
0.2611
 41
0.2611
 66
1
 10
0
 20
0
 30
0
  0
VERTEX
  8
LAYER_1
 10
61.249
 20
100.357
 42
0.3323687965
  0
VERTEX
  8
LAYER_1
 10
60.4471
 20
99.8445
  0
SEQEND
  0
ENDBLK
  0
BLOCK
  8
LAYER_1
  2
AIGNBL01010033
 70
64
 10
0
 20
0
 30
0
  3
AIGNBL01010033
  0
POLYLINE
  8
LAYER_1
 40
0.2611
 41
0.2611
 66
1
 10
0
 20
0
 30
0
  0
VERTEX
  8
LAYER_1
 10
59.5194
 20
97.7499
 42
0.3127007018
  0
VERTEX
  8
LAYER_1
 10
59.691
 20
97.8688
  0
SEQEND
  0
ENDBLK
  0
BLOCK
  8
LAYER_1
  2
AIGNBL01010034
 70
64
 10
0
 20
0
 30
0
  3
AIGNBL01010034
  0
POLYLINE
  8
LAYER_1
 40
0.2611
 41
0.2611
 66
1
 10
0
 20
0
 30
0
  0
VERTEX
  8
LAYER_1
 10
85.5253
 20
100.1042
 42
0.2014703928
  0
VERTEX
  8
LAYER_1
 10
85.4687
 20
99.9719
  0
SEQEND
  0
ENDBLK
  0
BLOCK
  8
LAYER_1
  2
AIGNBL01010035
 70
64
 10
0
 20
0
 30
0
  3
AIGNBL01010035
  0
POLYLINE
  8
LAYER_1
 40
0.2611
 41
0.2611
 66
1
 10
0
 20
0
 30
0
  0
VERTEX
  8
LAYER_1
 10
86.7397
 20
101.2148
 42
0.1743617243
  0
VERTEX
  8
LAYER_1
 10
86.6262
 20
101.1644
  0
SEQEND
  0
ENDBLK
  0
BLOCK
  8
LAYER_1
  2
AIGNBL01010036
 70
64
 10
0
 20
0
 30
0
  3
AIGNBL01010036
  0
POLYLINE
  8
LAYER_1
 40
0.2611
 41
0.2611
 66
1
 10
0
 20
0
 30
0
  0
VERTEX
  8
LAYER_1
 10
106.5582
 20
97.8687
 42
0.3126801097
  0
VERTEX
  8
LAYER_1
 10
106.7298
 20
97.7498
  0
SEQEND
  0
ENDBLK
  0
BLOCK
  8
LAYER_1
  2
AIGNBL01010037
 70
64
 10
0
 20
0
 30
0
  3
AIGNBL01010037
  0
POLYLINE
  8
LAYER_1
 40
0.2611
 41
0.2611
 66
1
 10
0
 20
0
 30
0
  0
VERTEX
  8
LAYER_1
 10
105.8023
 20
99.8446
 42
0.332146654
  0
VERTEX
  8
LAYER_1
 10
105.0003
 20
100.3572
  0
SEQEND
  0
ENDBLK
  0
BLOCK
  8
LAYER_1
  2
AIGNBL01010038
 70
64
 10
0
 20
0
 30
0
  3
AIGNBL01010038
  0
POLYLINE
  8
LAYER_1
 40
0.2611
 41
0.2611
 66
1
 10
0
 20
0
 30
0
  0
VERTEX
  8
LAYER_1
 10
87.241
 20
100.2776
 42
0.1922339386
  0
VERTEX
  8
LAYER_1
 10
87.0307
 20
100.1924
  0
SEQEND
  0
ENDBLK
  0
BLOCK
  8
LAYER_1
  2
AIGNBL01010039
 70
64
 10
0
 20
0
 30
0
  3
AIGNBL01010039
  0
POLYLINE
  8
LAYER_1
 40
0.2611
 41
0.2611
 66
1
 10
0
 20
0
 30
0
  0
VERTEX
  8
LAYER_1
 10
86.2152
 20
99.4178
 42
0.2041635278
  0
VERTEX
  8
LAYER_1
 10
86.1212
 20
99.1972
  0
SEQEND
  0
POLYLINE
  8
LAYER_1
 40
0.2611
 41
0.2611
 66
1
 10
0
 20
0
 30
0
  0
VERTEX
  8
LAYER_1
 10
110.0899
 20
97.7351
 42
0.2420287852
  0
VERTEX
  8
LAYER_1
 10
107.6096
 20
97.7351
  0
SEQEND
  0
ENDBLK
  0
BLOCK
  8
LAYER_1
  2
AIGNBL0101003A
 70
64
 10
0
 20
0
 30
0
  3
AIGNBL0101003A
  0
POLYLINE
  8
LAYER_1
 40
0.2611
 41
0.2611
 66
1
 10
0
 20
0
 30
0
  0
VERTEX
  8
LAYER_1
 10
110.9291
 20
97.7499
 42
0.3799473583
  0
VERTEX
  8
LAYER_1
 10
111.1111
 20
97.9112
  0
SEQEND
  0
ENDBLK
  0
BLOCK
  8
LAYER_1
  2
AIGNBL0101003B
 70
64
 10
0
 20
0
 30
0
  3
AIGNBL0101003B
  0
POLYLINE
  8
LAYER_1
 40
0.2611
 41
0.2611
 66
1
 10
0
 20
0
 30
0
  0
VERTEX
  8
LAYER_1
 10
113.6199
 20
114.6283
 42
0.3792082563
  0
VERTEX
  8
LAYER_1
 10
113.1142
 20
114.1807
  0
SEQEND
  0
ENDBLK
  0
BLOCK
  8
LAYER_1
  2
AIGNBL0101003C
 70
64
 10
0
 20
0
 30
0
  3
AIGNBL0101003C
  0
POLYLINE
  8
LAYER_1
 40
0.2611
 41
0.2611
 66
1
 10
0
 20
0
 30
0
  0
VERTEX
  8
LAYER_1
 10
117.9006
 20
114.6283
 42
0.4141260245
  0
VERTEX
  8
LAYER_1
 10
118.0841
 20
114.8118
  0
SEQEND
  0
ENDBLK
  0
BLOCK
  8
LAYER_1
  2
AIGNBL0101003D
 70
64
 10
0
 20
0
 30
0
  3
AIGNBL0101003D
  0
POLYLINE
  8
LAYER_1
 40
0.2611
 41
0.2611
 66
1
 10
0
 20
0
 30
0
  0
VERTEX
  8
LAYER_1
 10
118.0841
 20
115.5456
 42
0.4141096995
  0
VERTEX
  8
LAYER_1
 10
117.9006
 20
115.7291
  0
SEQEND
  0
ENDBLK
  0
BLOCK
  8
LAYER_1
  2
AIGNBL0101003E
 70
64
 10
0
 20
0
 30
0
  3
AIGNBL0101003E
  0
POLYLINE
  8
LAYER_1
 40
0.2611
 41
0.2611
 66
1
 10
0
 20
0
 30
0
  0
VERTEX
  8
LAYER_1
 10
54.2356
 20
115.2845
 42
0.3769930971
  0
VERTEX
  8
LAYER_1
 10
53.7303
 20
115.729
  0
SEQEND
  0
ENDBLK
  0
BLOCK
  8
LAYER_1
  2
AIGNBL0101003F
 70
64
 10
0
 20
0
 30
0
  3
AIGNBL0101003F
  0
POLYLINE
  8
LAYER_1
 40
0.2611
 41
0.2611
 66
1
 10
0
 20
0
 30
0
  0
VERTEX
  8
LAYER_1
 10
55.9155
 20
102.1491
 42
0.3562987383
  0
VERTEX
  8
LAYER_1
 10
56.3838
 20
101.7058
  0
SEQEND
  0
ENDBLK
  0
BLOCK
  8
LAYER_1
  2
AIGNBL01010040
 70
64
 10
0
 20
0
 30
0
  3
AIGNBL01010040
  0
POLYLINE
  8
LAYER_1
 40
0.2611
 41
0.2611
 66
1
 10
0
 20
0
 30
0
  0
VERTEX
  8
LAYER_1
 10
109.9064
 20
101.7059
 42
0.3566044174
  0
VERTEX
  8
LAYER_1
 10
110.3746
 20
102.1493
  0
SEQEND
  0
ENDBLK
  0
BLOCK
  8
LAYER_1
  2
AIGNBL01010041
 70
64
 10
0
 20
0
 30
0
  3
AIGNBL01010041
  0
POLYLINE
  8
LAYER_1
 40
0.2611
 41
0.2611
 66
1
 10
0
 20
0
 30
0
  0
VERTEX
  8
LAYER_1
 10
112.5599
 20
115.7291
 42
0.3775957565
  0
VERTEX
  8
LAYER_1
 10
112.0546
 20
115.2845
  0
SEQEND
  0
ENDBLK
  0
BLOCK
  8
LAYER_1
  2
AIGNBL01010042
 70
64
 10
0
 20
0
 30
0
  3
AIGNBL01010042
  0
POLYLINE
  8
LAYER_1
 40
0.2611
 41
0.2611
 66
1
 10
0
 20
0
 30
0
  0
VERTEX
  8
LAYER_1
 10
48.3895
 20
115.7291
 42
0.4141305084
  0
VERTEX
  8
LAYER_1
 10
48.206
 20
115.5456
  0
SEQEND
  0
ENDBLK
  0
BLOCK
  8
LAYER_1
  2
AIGNBL01010043
 70
64
 10
0
 20
0
 30
0
  3
AIGNBL01010043
  0
POLYLINE
  8
LAYER_1
 40
0.2611
 41
0.2611
 66
1
 10
0
 20
0
 30
0
  0
VERTEX
  8
LAYER_1
 10
48.206
 20
114.8118
 42
0.4141840697
  0
VERTEX
  8
LAYER_1
 10
48.3895
 20
114.6283
  0
SEQEND
  0
ENDBLK
  0
BLOCK
  8
LAYER_1
  2
AIGNBL01010044
 70
64
 10
0
 20
0
 30
0
  3
AIGNBL01010044
  0
POLYLINE
  8
LAYER_1
 40
0.2611
 41
0.2611
 66
1
 10
0
 20
0
 30
0
  0
VERTEX
  8
LAYER_1
 10
53.176
 20
114.1806
 42
0.3789302203
  0
VERTEX
  8
LAYER_1
 10
52.6704
 20
114.6282
  0
SEQEND
  0
ENDBLK
  0
BLOCK
  8
LAYER_1
  2
AIGNBL01010045
 70
64
 10
0
 20
0
 30
0
  3
AIGNBL01010045
  0
POLYLINE
  8
LAYER_1
 40
0.2611
 41
0.2611
 66
1
 10
0
 20
0
 30
0
  0
VERTEX
  8
LAYER_1
 10
55.1789
 20
97.9111
 42
0.3791409325
  0
VERTEX
  8
LAYER_1
 10
55.3608
 20
97.7498
  0
SEQEND
  0
ENDBLK
  0
BLOCK
  8
LAYER_1
  2
AIGNBL01010046
 70
64
 10
0
 20
0
 30
0
  3
AIGNBL01010046
  0
POLYLINE
  8
LAYER_1
 40
0.2611
 41
0.2611
 66
1
 10
0
 20
0
 30
0
  0
VERTEX
  8
LAYER_1
 10
58.6395
 20
97.7351
 42
0.2420298605
  0
VERTEX
  8
LAYER_1
 10
56.1592
 20
97.7351
  0
SEQEND
  0
POLYLINE
  8
LAYER_1
 40
0.2611
 41
0.2611
 66
1
 10
0
 20
0
 30
0
  0
VERTEX
  8
LAYER_1
 10
110.0166
 20
98.9003
 42
0.2195629565
  0
VERTEX
  8
LAYER_1
 10
110.1718
 20
98.9202
 42
0.2186833562
  0
VERTEX
  8
LAYER_1
 10
110.2551
 20
99.0525
  0
SEQEND
  0
ENDBLK
  0
BLOCK
  8
LAYER_1
  2
AIGNBL01010047
 70
64
 10
0
 20
0
 30
0
  3
AIGNBL01010047
  0
POLYLINE
  8
LAYER_1
 40
0.2611
 41
0.2611
 66
1
 10
0
 20
0
 30
0
  0
VERTEX
  8
LAYER_1
 10
110.4181
 20
100.5203
 42
0.2210612897
  0
VERTEX
  8
LAYER_1
 10
110.3688
 20
100.669
 42
0.2198028324
  0
VERTEX
  8
LAYER_1
 10
110.2224
 20
100.7256
  0
SEQEND
  0
ENDBLK
  0
BLOCK
  8
LAYER_1
  2
AIGNBL01010048
 70
64
 10
0
 20
0
 30
0
  3
AIGNBL01010048
  0
POLYLINE
  8
LAYER_1
 40
0.2611
 41
0.2611
 66
1
 10
0
 20
0
 30
0
  0
VERTEX
  8
LAYER_1
 10
106.9203
 20
100.481
 42
0.2319967299
  0
VERTEX
  8
LAYER_1
 10
106.7793
 20
100.3969
 42
0.2320380364
  0
VERTEX
  8
LAYER_1
 10
106.7621
 20
100.2333
  0
SEQEND
  0
ENDBLK
  0
BLOCK
  8
LAYER_1
  2
AIGNBL01010049
 70
64
 10
0
 20
0
 30
0
  3
AIGNBL01010049
  0
POLYLINE
  8
LAYER_1
 40
0.2611
 41
0.2611
 66
1
 10
0
 20
0
 30
0
  0
VERTEX
  8
LAYER_1
 10
107.2513
 20
98.9287
 42
0.1993014421
  0
VERTEX
  8
LAYER_1
 10
107.348
 20
98.8259
 42
0.1993222774
  0
VERTEX
  8
LAYER_1
 10
107.4891
 20
98.8224
  0
SEQEND
  0
POLYLINE
  8
LAYER_1
 40
0.2611
 41
0.2611
 66
1
 10
0
 20
0
 30
0
  0
VERTEX
  8
LAYER_1
 10
109.9871
 20
98.8728
 42
0.1757707485
  0
VERTEX
  8
LAYER_1
 10
107.5
 20
98.7956
  0
SEQEND
  0
POLYLINE
  8
LAYER_1
 40
0.2611
 41
0.2611
 66
1
 10
0
 20
0
 30
0
  0
VERTEX
  8
LAYER_1
 10
56.035
 20
99.0527
 42
0.2211023208
  0
VERTEX
  8
LAYER_1
 10
56.1183
 20
98.9204
 42
0.2197887779
  0
VERTEX
  8
LAYER_1
 10
56.2735
 20
98.9005
  0
SEQEND
  0
ENDBLK
  0
BLOCK
  8
LAYER_1
  2
AIGNBL0101004A
 70
64
 10
0
 20
0
 30
0
  3
AIGNBL0101004A
  0
POLYLINE
  8
LAYER_1
 40
0.2611
 41
0.2611
 66
1
 10
0
 20
0
 30
0
  0
VERTEX
  8
LAYER_1
 10
56.0675
 20
100.7256
 42
0.2204613286
  0
VERTEX
  8
LAYER_1
 10
55.9211
 20
100.669
 42
0.2201026666
  0
VERTEX
  8
LAYER_1
 10
55.8718
 20
100.5203
  0
SEQEND
  0
ENDBLK
  0
BLOCK
  8
LAYER_1
  2
AIGNBL0101004B
 70
64
 10
0
 20
0
 30
0
  3
AIGNBL0101004B
  0
POLYLINE
  8
LAYER_1
 40
0.2611
 41
0.2611
 66
1
 10
0
 20
0
 30
0
  0
VERTEX
  8
LAYER_1
 10
59.528
 20
100.2333
 42
0.2330390682
  0
VERTEX
  8
LAYER_1
 10
59.5108
 20
100.3969
 42
0.2322306921
  0
VERTEX
  8
LAYER_1
 10
59.3698
 20
100.481
  0
SEQEND
  0
ENDBLK
  0
BLOCK
  8
LAYER_1
  2
AIGNBL0101004C
 70
64
 10
0
 20
0
 30
0
  3
AIGNBL0101004C
  0
POLYLINE
  8
LAYER_1
 40
0.2611
 41
0.2611
 66
1
 10
0
 20
0
 30
0
  0
VERTEX
  8
LAYER_1
 10
58.8009
 20
98.8223
 42
0.1986023554
  0
VERTEX
  8
LAYER_1
 10
58.942
 20
98.8261
 42
0.1973534616
  0
VERTEX
  8
LAYER_1
 10
59.0387
 20
98.9286
  0
SEQEND
  0
POLYLINE
  8
LAYER_1
 40
0.2611
 41
0.2611
 66
1
 10
0
 20
0
 30
0
  0
VERTEX
  8
LAYER_1
 10
58.7902
 20
98.7956
 42
0.1757746723
  0
VERTEX
  8
LAYER_1
 10
56.303
 20
98.8728
  0
SEQEND
  0
ENDBLK
  0
BLOCK
  8
LAYER_1
  2
AIGNBL0101004D
 70
64
 10
0
 20
0
 30
0
  3
AIGNBL0101004D
  0
POLYLINE
  8
LAYER_1
 40
0.0741
 41
0.0741
 66
1
 10
0
 20
0
 30
0
  0
VERTEX
  8
LAYER_1
 10
85.4281
 20
169.6868
 42
0.4142112103
  0
VERTEX
  8
LAYER_1
 10
83.1248
 20
171.9901
 42
0.4142346066
  0
VERTEX
  8
LAYER_1
 10
80.8211
 20
169.6868
 42
0.4142276593
  0
VERTEX
  8
LAYER_1
 10
83.1248
 20
167.3835
 42
0.4142042635
  0
VERTEX
  8
LAYER_1
 10
85.4281
 20
169.6868
  0
SEQEND
  0
POLYLINE
  8
LAYER_1
 40
0.0741
 41
0.0741
 66
1
 10
0
 20
0
 30
0
  0
VERTEX
  8
LAYER_1
 10
86.6919
 20
169.6868
 42
0.4142267914
  0
VERTEX
  8
LAYER_1
 10
83.1655
 20
173.2132
 42
0.4142418874
  0
VERTEX
  8
LAYER_1
 10
79.6387
 20
169.6868
 42
0.4142373493
  0
VERTEX
  8
LAYER_1
 10
83.1655
 20
166.1604
 42
0.4142222537
  0
VERTEX
  8
LAYER_1
 10
86.6919
 20
169.6868
  0
SEQEND
  0
ENDBLK
  0
BLOCK
  8
LAYER_1
  2
AIGNBL0101004E
 70
64
 10
0
 20
0
 30
0
  3
AIGNBL0101004E
  0
POLYLINE
  8
LAYER_1
 40
0.2611
 41
0.2611
 66
1
 10
0
 20
0
 30
0
  0
VERTEX
  8
LAYER_1
 10
187.2724
 20
114.6689
 42
0.4140817448
  0
VERTEX
  8
LAYER_1
 10
187.4559
 20
114.8523
  0
SEQEND
  0
POLYLINE
  8
LAYER_1
 40
0.2611
 41
0.2611
 66
1
 10
0
 20
0
 30
0
  0
VERTEX
  8
LAYER_1
 10
137.4731
 20
114.8523
 42
0.413993793
  0
VERTEX
  8
LAYER_1
 10
137.6565
 20
114.6689
  0
SEQEND
  0
POLYLINE
  8
LAYER_1
 40
0.2611
 41
0.2611
 66
1
 10
0
 20
0
 30
0
  0
VERTEX
  8
LAYER_1
 10
187.4559
 20
115.5454
 42
0.4140580291
  0
VERTEX
  8
LAYER_1
 10
187.2724
 20
115.7289
  0
SEQEND
  0
POLYLINE
  8
LAYER_1
 40
0.2611
 41
0.2611
 66
1
 10
0
 20
0
 30
0
  0
VERTEX
  8
LAYER_1
 10
137.6551
 20
115.7288
 42
0.4125917841
  0
VERTEX
  8
LAYER_1
 10
137.4732
 20
115.5454
  0
SEQEND
  0
ENDBLK
  0
BLOCK
  8
LAYER_1
  2
AIGNBL0101004F
 70
64
 10
0
 20
0
 30
0
  3
AIGNBL0101004F
  0
POLYLINE
  8
LAYER_1
 40
0.2611
 41
0.2611
 66
1
 10
0
 20
0
 30
0
  0
VERTEX
  8
LAYER_1
 10
157.9235
 20
101.2048
 42
0.173444114
  0
VERTEX
  8
LAYER_1
 10
157.8099
 20
101.2552
  0
SEQEND
  0
ENDBLK
  0
BLOCK
  8
LAYER_1
  2
AIGNBL01010050
 70
64
 10
0
 20
0
 30
0
  3
AIGNBL01010050
  0
POLYLINE
  8
LAYER_1
 40
0.2611
 41
0.2611
 66
1
 10
0
 20
0
 30
0
  0
VERTEX
  8
LAYER_1
 10
159.1214
 20
99.9716
 42
0.2038302419
  0
VERTEX
  8
LAYER_1
 10
159.0648
 20
100.1039
  0
SEQEND
  0
ENDBLK
  0
BLOCK
  8
LAYER_1
  2
AIGNBL01010051
 70
64
 10
0
 20
0
 30
0
  3
AIGNBL01010051
  0
POLYLINE
  8
LAYER_1
 40
0.2611
 41
0.2611
 66
1
 10
0
 20
0
 30
0
  0
VERTEX
  8
LAYER_1
 10
150.5569
 20
100.3568
 42
0.332394161
  0
VERTEX
  8
LAYER_1
 10
149.755
 20
99.8443
  0
SEQEND
  0
ENDBLK
  0
BLOCK
  8
LAYER_1
  2
AIGNBL01010052
 70
64
 10
0
 20
0
 30
0
  3
AIGNBL01010052
  0
POLYLINE
  8
LAYER_1
 40
0.2611
 41
0.2611
 66
1
 10
0
 20
0
 30
0
  0
VERTEX
  8
LAYER_1
 10
148.8273
 20
97.7905
 42
0.312725631
  0
VERTEX
  8
LAYER_1
 10
148.9989
 20
97.9094
  0
SEQEND
  0
ENDBLK
  0
BLOCK
  8
LAYER_1
  2
AIGNBL01010053
 70
64
 10
0
 20
0
 30
0
  3
AIGNBL01010053
  0
POLYLINE
  8
LAYER_1
 40
0.2611
 41
0.2611
 66
1
 10
0
 20
0
 30
0
  0
VERTEX
  8
LAYER_1
 10
163.8255
 20
100.104
 42
0.2013762885
  0
VERTEX
  8
LAYER_1
 10
163.7689
 20
99.9718
  0
SEQEND
  0
ENDBLK
  0
BLOCK
  8
LAYER_1
  2
AIGNBL01010054
 70
64
 10
0
 20
0
 30
0
  3
AIGNBL01010054
  0
POLYLINE
  8
LAYER_1
 40
0.2611
 41
0.2611
 66
1
 10
0
 20
0
 30
0
  0
VERTEX
  8
LAYER_1
 10
165.0399
 20
101.2554
 42
0.1748077111
  0
VERTEX
  8
LAYER_1
 10
164.9264
 20
101.2049
  0
SEQEND
  0
ENDBLK
  0
BLOCK
  8
LAYER_1
  2
AIGNBL01010055
 70
64
 10
0
 20
0
 30
0
  3
AIGNBL01010055
  0
POLYLINE
  8
LAYER_1
 40
0.2611
 41
0.2611
 66
1
 10
0
 20
0
 30
0
  0
VERTEX
  8
LAYER_1
 10
172.5054
 20
97.9093
 42
0.3128646088
  0
VERTEX
  8
LAYER_1
 10
172.6771
 20
97.7904
  0
SEQEND
  0
ENDBLK
  0
BLOCK
  8
LAYER_1
  2
AIGNBL01010056
 70
64
 10
0
 20
0
 30
0
  3
AIGNBL01010056
  0
POLYLINE
  8
LAYER_1
 40
0.2611
 41
0.2611
 66
1
 10
0
 20
0
 30
0
  0
VERTEX
  8
LAYER_1
 10
171.7495
 20
99.8444
 42
0.3321251468
  0
VERTEX
  8
LAYER_1
 10
170.9476
 20
100.357
  0
SEQEND
  0
ENDBLK
  0
BLOCK
  8
LAYER_1
  2
AIGNBL01010057
 70
64
 10
0
 20
0
 30
0
  3
AIGNBL01010057
  0
POLYLINE
  8
LAYER_1
 40
0.2611
 41
0.2611
 66
1
 10
0
 20
0
 30
0
  0
VERTEX
  8
LAYER_1
 10
176.0371
 20
97.7349
 42
0.242020259
  0
VERTEX
  8
LAYER_1
 10
173.5569
 20
97.7349
  0
SEQEND
  0
POLYLINE
  8
LAYER_1
 40
0.2611
 41
0.2611
 66
1
 10
0
 20
0
 30
0
  0
VERTEX
  8
LAYER_1
 10
176.8355
 20
97.7905
 42
0.3800274984
  0
VERTEX
  8
LAYER_1
 10
177.0175
 20
97.9518
  0
SEQEND
  0
ENDBLK
  0
BLOCK
  8
LAYER_1
  2
AIGNBL01010058
 70
64
 10
0
 20
0
 30
0
  3
AIGNBL01010058
  0
POLYLINE
  8
LAYER_1
 40
0.2611
 41
0.2611
 66
1
 10
0
 20
0
 30
0
  0
VERTEX
  8
LAYER_1
 10
179.2967
 20
114.6496
 42
0.2244197631
  0
VERTEX
  8
LAYER_1
 10
179.0647
 20
114.3232
  0
SEQEND
  0
ENDBLK
  0
BLOCK
  8
LAYER_1
  2
AIGNBL01010059
 70
64
 10
0
 20
0
 30
0
  3
AIGNBL01010059
  0
POLYLINE
  8
LAYER_1
 40
0.2611
 41
0.2611
 66
1
 10
0
 20
0
 30
0
  0
VERTEX
  8
LAYER_1
 10
187.2724
 20
114.6689
 42
0.4140817448
  0
VERTEX
  8
LAYER_1
 10
187.4559
 20
114.8523
  0
SEQEND
  0
ENDBLK
  0
BLOCK
  8
LAYER_1
  2
AIGNBL0101005A
 70
64
 10
0
 20
0
 30
0
  3
AIGNBL0101005A
  0
POLYLINE
  8
LAYER_1
 40
0.2611
 41
0.2611
 66
1
 10
0
 20
0
 30
0
  0
VERTEX
  8
LAYER_1
 10
187.4559
 20
115.5454
 42
0.4140580291
  0
VERTEX
  8
LAYER_1
 10
187.2724
 20
115.7289
  0
SEQEND
  0
ENDBLK
  0
BLOCK
  8
LAYER_1
  2
AIGNBL0101005B
 70
64
 10
0
 20
0
 30
0
  3
AIGNBL0101005B
  0
POLYLINE
  8
LAYER_1
 40
0.2611
 41
0.2611
 66
1
 10
0
 20
0
 30
0
  0
VERTEX
  8
LAYER_1
 10
143.5435
 20
115.325
 42
0.3769889937
  0
VERTEX
  8
LAYER_1
 10
143.0382
 20
115.7695
  0
SEQEND
  0
ENDBLK
  0
BLOCK
  8
LAYER_1
  2
AIGNBL0101005C
 70
64
 10
0
 20
0
 30
0
  3
AIGNBL0101005C
  0
POLYLINE
  8
LAYER_1
 40
0.2611
 41
0.2611
 66
1
 10
0
 20
0
 30
0
  0
VERTEX
  8
LAYER_1
 10
145.1826
 20
102.1489
 42
0.3562580525
  0
VERTEX
  8
LAYER_1
 10
145.6508
 20
101.7056
  0
SEQEND
  0
ENDBLK
  0
BLOCK
  8
LAYER_1
  2
AIGNBL0101005D
 70
64
 10
0
 20
0
 30
0
  3
AIGNBL0101005D
  0
POLYLINE
  8
LAYER_1
 40
0.2611
 41
0.2611
 66
1
 10
0
 20
0
 30
0
  0
VERTEX
  8
LAYER_1
 10
175.8139
 20
101.6843
 42
0.2855643406
  0
VERTEX
  8
LAYER_1
 10
176.2726
 20
102.1694
  0
SEQEND
  0
ENDBLK
  0
BLOCK
  8
LAYER_1
  2
AIGNBL0101005E
 70
64
 10
0
 20
0
 30
0
  3
AIGNBL0101005E
  0
POLYLINE
  8
LAYER_1
 40
0.2611
 41
0.2611
 66
1
 10
0
 20
0
 30
0
  0
VERTEX
  8
LAYER_1
 10
178.4663
 20
115.7696
 42
0.3775507644
  0
VERTEX
  8
LAYER_1
 10
177.961
 20
115.3251
  0
SEQEND
  0
ENDBLK
  0
BLOCK
  8
LAYER_1
  2
AIGNBL0101005F
 70
64
 10
0
 20
0
 30
0
  3
AIGNBL0101005F
  0
POLYLINE
  8
LAYER_1
 40
0.2611
 41
0.2611
 66
1
 10
0
 20
0
 30
0
  0
VERTEX
  8
LAYER_1
 10
137.6565
 20
115.7289
 42
0.4140352537
  0
VERTEX
  8
LAYER_1
 10
137.4731
 20
115.5454
  0
SEQEND
  0
ENDBLK
  0
BLOCK
  8
LAYER_1
  2
AIGNBL01010060
 70
64
 10
0
 20
0
 30
0
  3
AIGNBL01010060
  0
POLYLINE
  8
LAYER_1
 40
0.2611
 41
0.2611
 66
1
 10
0
 20
0
 30
0
  0
VERTEX
  8
LAYER_1
 10
137.4731
 20
114.8523
 42
0.413993793
  0
VERTEX
  8
LAYER_1
 10
137.6565
 20
114.6689
  0
SEQEND
  0
ENDBLK
  0
BLOCK
  8
LAYER_1
  2
AIGNBL01010061
 70
64
 10
0
 20
0
 30
0
  3
AIGNBL01010061
  0
POLYLINE
  8
LAYER_1
 40
0.2611
 41
0.2611
 66
1
 10
0
 20
0
 30
0
  0
VERTEX
  8
LAYER_1
 10
142.3823
 20
114.4076
 42
0.2717457679
  0
VERTEX
  8
LAYER_1
 10
141.9374
 20
114.6687
  0
SEQEND
  0
ENDBLK
  0
BLOCK
  8
LAYER_1
  2
AIGNBL01010062
 70
64
 10
0
 20
0
 30
0
  3
AIGNBL01010062
  0
POLYLINE
  8
LAYER_1
 40
0.2611
 41
0.2611
 66
1
 10
0
 20
0
 30
0
  0
VERTEX
  8
LAYER_1
 10
144.4459
 20
97.9517
 42
0.3792891313
  0
VERTEX
  8
LAYER_1
 10
144.6279
 20
97.7904
  0
SEQEND
  0
POLYLINE
  8
LAYER_1
 40
0.2611
 41
0.2611
 66
1
 10
0
 20
0
 30
0
  0
VERTEX
  8
LAYER_1
 10
147.9473
 20
97.7349
 42
0.2420289371
  0
VERTEX
  8
LAYER_1
 10
145.467
 20
97.7349
  0
SEQEND
  0
POLYLINE
  8
LAYER_1
 40
0.2611
 41
0.2611
 66
1
 10
0
 20
0
 30
0
  0
VERTEX
  8
LAYER_1
 10
175.9231
 20
98.9001
 42
0.2193311438
  0
VERTEX
  8
LAYER_1
 10
176.0783
 20
98.92
 42
0.2179895791
  0
VERTEX
  8
LAYER_1
 10
176.1616
 20
99.0526
  0
SEQEND
  0
ENDBLK
  0
BLOCK
  8
LAYER_1
  2
AIGNBL01010063
 70
64
 10
0
 20
0
 30
0
  3
AIGNBL01010063
  0
POLYLINE
  8
LAYER_1
 40
0.2611
 41
0.2611
 66
1
 10
0
 20
0
 30
0
  0
VERTEX
  8
LAYER_1
 10
176.3246
 20
100.5201
 42
0.2204743725
  0
VERTEX
  8
LAYER_1
 10
176.2753
 20
100.6688
 42
0.2223617828
  0
VERTEX
  8
LAYER_1
 10
176.1289
 20
100.7254
  0
SEQEND
  0
ENDBLK
  0
BLOCK
  8
LAYER_1
  2
AIGNBL01010064
 70
64
 10
0
 20
0
 30
0
  3
AIGNBL01010064
  0
POLYLINE
  8
LAYER_1
 40
0.2611
 41
0.2611
 66
1
 10
0
 20
0
 30
0
  0
VERTEX
  8
LAYER_1
 10
172.8268
 20
100.4808
 42
0.2317855838
  0
VERTEX
  8
LAYER_1
 10
172.6857
 20
100.3967
 42
0.2314260765
  0
VERTEX
  8
LAYER_1
 10
172.6685
 20
100.2331
  0
SEQEND
  0
ENDBLK
  0
BLOCK
  8
LAYER_1
  2
AIGNBL01010065
 70
64
 10
0
 20
0
 30
0
  3
AIGNBL01010065
  0
POLYLINE
  8
LAYER_1
 40
0.2611
 41
0.2611
 66
1
 10
0
 20
0
 30
0
  0
VERTEX
  8
LAYER_1
 10
173.1578
 20
98.9285
 42
0.1988043661
  0
VERTEX
  8
LAYER_1
 10
173.2544
 20
98.8257
 42
0.1993625284
  0
VERTEX
  8
LAYER_1
 10
173.3955
 20
98.8222
  0
SEQEND
  0
POLYLINE
  8
LAYER_1
 40
0.2611
 41
0.2611
 66
1
 10
0
 20
0
 30
0
  0
VERTEX
  8
LAYER_1
 10
175.8936
 20
98.8726
 42
0.175772328
  0
VERTEX
  8
LAYER_1
 10
173.4065
 20
98.7954
  0
SEQEND
  0
POLYLINE
  8
LAYER_1
 40
0.2611
 41
0.2611
 66
1
 10
0
 20
0
 30
0
  0
VERTEX
  8
LAYER_1
 10
145.3429
 20
99.0525
 42
0.2215881882
  0
VERTEX
  8
LAYER_1
 10
145.4262
 20
98.9202
 42
0.2176580993
  0
VERTEX
  8
LAYER_1
 10
145.5814
 20
98.8999
  0
SEQEND
  0
ENDBLK
  0
BLOCK
  8
LAYER_1
  2
AIGNBL01010066
 70
64
 10
0
 20
0
 30
0
  3
AIGNBL01010066
  0
POLYLINE
  8
LAYER_1
 40
0.2611
 41
0.2611
 66
1
 10
0
 20
0
 30
0
  0
VERTEX
  8
LAYER_1
 10
145.3345
 20
100.7254
 42
0.2199565382
  0
VERTEX
  8
LAYER_1
 10
145.1881
 20
100.6688
 42
0.2198762915
  0
VERTEX
  8
LAYER_1
 10
145.1388
 20
100.5201
  0
SEQEND
  0
ENDBLK
  0
BLOCK
  8
LAYER_1
  2
AIGNBL01010067
 70
64
 10
0
 20
0
 30
0
  3
AIGNBL01010067
  0
POLYLINE
  8
LAYER_1
 40
0.2611
 41
0.2611
 66
1
 10
0
 20
0
 30
0
  0
VERTEX
  8
LAYER_1
 10
148.7951
 20
100.2331
 42
0.2319604096
  0
VERTEX
  8
LAYER_1
 10
148.7779
 20
100.3967
 42
0.2314848719
  0
VERTEX
  8
LAYER_1
 10
148.6368
 20
100.4808
  0
SEQEND
  0
ENDBLK
  0
BLOCK
  8
LAYER_1
  2
AIGNBL01010068
 70
64
 10
0
 20
0
 30
0
  3
AIGNBL01010068
  0
POLYLINE
  8
LAYER_1
 40
0.2611
 41
0.2611
 66
1
 10
0
 20
0
 30
0
  0
VERTEX
  8
LAYER_1
 10
148.068
 20
98.8221
 42
0.198670163
  0
VERTEX
  8
LAYER_1
 10
148.209
 20
98.8259
 42
0.1966925021
  0
VERTEX
  8
LAYER_1
 10
148.3058
 20
98.9283
  0
SEQEND
  0
POLYLINE
  8
LAYER_1
 40
0.2611
 41
0.2611
 66
1
 10
0
 20
0
 30
0
  0
VERTEX
  8
LAYER_1
 10
148.0573
 20
98.7954
 42
0.175777313
  0
VERTEX
  8
LAYER_1
 10
145.5701
 20
98.8726
  0
SEQEND
  0
ENDBLK
  0
BLOCK
  8
LAYER_1
  2
AIGNBL01010069
 70
64
 10
0
 20
0
 30
0
  3
AIGNBL01010069
  0
POLYLINE
  8
LAYER_1
 40
0.2611
 41
0.2611
 66
1
 10
0
 20
0
 30
0
  0
VERTEX
  8
LAYER_1
 10
176.8355
 20
97.7905
 42
0.3800274984
  0
VERTEX
  8
LAYER_1
 10
177.0175
 20
97.9518
  0
SEQEND
  0
POLYLINE
  8
LAYER_1
 40
0.2611
 41
0.2611
 66
1
 10
0
 20
0
 30
0
  0
VERTEX
  8
LAYER_1
 10
137.4731
 20
114.8523
 42
0.413993793
  0
VERTEX
  8
LAYER_1
 10
137.6565
 20
114.6689
  0
SEQEND
  0
ENDBLK
  0
BLOCK
  8
LAYER_1
  2
AIGNBL0101006A
 70
64
 10
0
 20
0
 30
0
  3
AIGNBL0101006A
  0
POLYLINE
  8
LAYER_1
 40
0.2611
 41
0.2611
 66
1
 10
0
 20
0
 30
0
  0
VERTEX
  8
LAYER_1
 10
142.4431
 20
114.2212
 42
0.3789363605
  0
VERTEX
  8
LAYER_1
 10
141.9374
 20
114.6688
  0
SEQEND
  0
POLYLINE
  8
LAYER_1
 40
0.2611
 41
0.2611
 66
1
 10
0
 20
0
 30
0
  0
VERTEX
  8
LAYER_1
 10
144.4459
 20
97.9517
 42
0.3792891313
  0
VERTEX
  8
LAYER_1
 10
144.6279
 20
97.7904
  0
SEQEND
  0
ENDBLK
  0
BLOCK
  8
LAYER_1
  2
AIGNBL0101006B
 70
64
 10
0
 20
0
 30
0
  3
AIGNBL0101006B
  0
POLYLINE
  8
LAYER_1
 40
0.0882
 41
0.0882
 66
1
 10
0
 20
0
 30
0
  0
VERTEX
  8
LAYER_1
 10
79.6099
 20
191.6817
  0
VERTEX
  8
LAYER_1
 10
79.6099
 20
191.9686
  0
SEQEND
  0
POLYLINE
  8
LAYER_1
 40
0.0882
 41
0.0882
 66
1
 10
0
 20
0
 30
0
  0
VERTEX
  8
LAYER_1
 10
79.6099
 20
195.8455
  0
VERTEX
  8
LAYER_1
 10
79.6099
 20
203.8307
  0
SEQEND
  0
ENDBLK
  0
ENDSEC
  0
SECTION
  2
ENTITIES
  0
TEXT
  8
LAYER_1
 10
-26.2556
 20
43.1712
 11
-26.2556
 21
43.1712
 40
3.2991
 41
0.5
  1
仕様
  0
POLYLINE
  8
LAYER_1
 40
0.3528
 41
0.3528
 66
1
 10
0
 20
0
 30
0
  0
VERTEX
  8
LAYER_1
 10
250.6748
 20
51.9507
  0
VERTEX
  8
LAYER_1
 10
-29.3346
 20
51.9507
  0
SEQEND
  0
INSERT
  8
LAYER_1
  2
AIGNBL01010002
 10
0
 20
0
 30
0
  0
POLYLINE
  8
LAYER_1
 40
0.3528
 41
0.3528
 66
1
 10
0
 20
0
 30
0
  0
VERTEX
  8
LAYER_1
 10
-29.3178
 20
229.3369
  0
VERTEX
  8
LAYER_1
 10
-29.3178
 20
34.3283
  0
VERTEX
  8
LAYER_1
 10
250.6748
 20
34.3283
  0
VERTEX
  8
LAYER_1
 10
250.6748
 20
229.3369
  0
VERTEX
  8
LAYER_1
 10
-29.3178
 20
229.3369
  0
SEQEND
  0
POLYLINE
  8
LAYER_1
 40
0.3528
 41
0.3528
 66
1
 10
0
 20
0
 30
0
  0
VERTEX
  8
LAYER_1
 10
250.6748
 20
60.4597
  0
VERTEX
  8
LAYER_1
 10
-29.3346
 20
60.4597
  0
SEQEND
  0
POLYLINE
  8
LAYER_1
 40
0.3528
 41
0.3528
 66
1
 10
0
 20
0
 30
0
  0
VERTEX
  8
LAYER_1
 10
250.6748
 20
43.4416
  0
VERTEX
  8
LAYER_1
 10
100.3837
 20
43.4416
  0
SEQEND
  0
TEXT
  8
LAYER_1
 10
188.1725
 20
45.7175
 11
188.1725
 21
45.7175
 40
3.7609
 41
0.5
  1
-
  0
TEXT
  8
LAYER_1
 10
182.8808
 20
49.4743
 11
182.8808
 21
49.4743
 40
2.1994
 41
0.5
  1
縮尺
  0
POLYLINE
  8
LAYER_1
 40
0.3528
 41
0.3528
 66
1
 10
0
 20
0
 30
0
  0
VERTEX
  8
LAYER_1
 10
181.3526
 20
43.4416
  0
VERTEX
  8
LAYER_1
 10
181.3526
 20
51.9507
  0
SEQEND
  0
TEXT
  8
LAYER_1
 10
101.641
 20
57.9834
 11
101.641
 21
57.9834
 40
2.1994
 41
0.5
  1
品番
  0
TEXT
  8
LAYER_1
 10
-28.1609
 20
57.9834
 11
-28.1609
 21
57.9834
 40
2.1994
 41
0.5
  1
品名
  0
TEXT
  8
LAYER_1
 10
101.641
 20
49.4743
 11
101.641
 21
49.4743
 40
2.1994
 41
0.5
  1
重量
  0
TEXT
  8
LAYER_1
 10
105.0013
 20
54.1714
 11
105.0013
 21
54.1714
 40
4.6883
 41
0.5
  1
CIE-CALAOF/
  0
TEXT
  8
LAYER_1
 10
107.1887
 20
45.7175
 11
107.1887
 21
45.7175
 40
3.7609
 41
0.5
  1
13kg
  0
POLYLINE
  8
LAYER_1
 40
0.3528
 41
0.3528
 66
1
 10
0
 20
0
 30
0
  0
VERTEX
  8
LAYER_1
 10
100.3837
 20
34.9539
  0
VERTEX
  8
LAYER_1
 10
100.3837
 20
60.4597
  0
SEQEND
  0
TEXT
  8
LAYER_1
 10
-15.3768
 20
54.891
 11
-15.3768
 21
54.891
 40
4.1459
 41
0.5
  1
カティーノ洗面ボウル700ｍｍ
  0
INSERT
  8
LAYER_1
  2
AIGNBL01010003
 10
0
 20
0
 30
0
  0
TEXT
  8
LAYER_1
 10
-15.6835
 20
43.9625
 11
-15.6835
 21
43.9625
 40
3.5536
 41
0.5
  1
●サイズ：W700×D500×H180mm●排水金具別途●水栓取付穴：1穴（35mm）
  0
TEXT
  8
LAYER_1
 10
-15.6835
 20
39.2124
 11
-15.6835
 21
39.2124
 40
3.1172
 41
0.5
  1
●オーバーフローなし
  0
TEXT
  8
LAYER_1
 10
237.263
 20
63.2582
 11
237.263
 21
63.2582
 40
2.9614
 41
0.5
  1
単位：mm
  0
TEXT
  8
LAYER_1
 10
-25.5477
 20
205.0228
 11
-25.5477
 21
205.0228
 40
2.5977
 41
0.5
  1
※陶器製品は寸法公差が発生します。
  0
TEXT
  8
LAYER_1
 10
134.702
 20
39.5359
 11
134.702
 21
39.5359
 40
3.3848
 41
0.5
  1
●TEL 0120-65-1232●FAX 06-6532-1580
  0
TEXT
  8
LAYER_1
 10
134.702
 20
36.0212
 11
134.702
 21
36.0212
 40
3.3848
 41
0.5
  1
hits@hiratatile.co.jp
  0
TEXT
  8
LAYER_1
 10
240.3591
 20
225.8432
 11
240.3591
 21
225.8432
 40
2.073
 41
0.5
  1
170628RT
  0
INSERT
  8
LAYER_1
  2
AIGNBL01010006
 10
0
 20
0
 30
0
  0
POLYLINE
  8
LAYER_1
 40
0.0741
 41
0.0741
 66
1
 10
0
 20
0
 30
0
  0
VERTEX
  8
LAYER_1
 10
107.3211
 20
97.7092
  0
VERTEX
  8
LAYER_1
 10
58.9283
 20
97.7092
  0
SEQEND
  0
INSERT
  8
LAYER_1
  2
AIGNBL01010028
 10
0
 20
0
 30
0
  0
POLYLINE
  8
LAYER_1
 40
0.0741
 41
0.0741
 66
1
 10
0
 20
0
 30
0
  0
VERTEX
  8
LAYER_1
 10
48.1653
 20
115.5252
  0
VERTEX
  8
LAYER_1
 10
48.1653
 20
114.7914
  0
SEQEND
  0
INSERT
  8
LAYER_1
  2
AIGNBL01010029
 10
0
 20
0
 30
0
  0
POLYLINE
  8
LAYER_1
 40
0.0741
 41
0.0741
 66
1
 10
0
 20
0
 30
0
  0
VERTEX
  8
LAYER_1
 10
48.3691
 20
114.6283
  0
VERTEX
  8
LAYER_1
 10
52.6091
 20
114.6283
  0
VERTEX
  8
LAYER_1
 10
52.65
 20
114.6283
  0
SEQEND
  0
POLYLINE
  8
LAYER_1
 40
0.0741
 41
0.0741
 66
1
 10
0
 20
0
 30
0
  0
VERTEX
  8
LAYER_1
 10
117.8802
 20
114.6283
  0
VERTEX
  8
LAYER_1
 10
113.6402
 20
114.6283
  0
VERTEX
  8
LAYER_1
 10
113.5993
 20
114.6283
  0
SEQEND
  0
INSERT
  8
LAYER_1
  2
AIGNBL0101002A
 10
0
 20
0
 30
0
  0
POLYLINE
  8
LAYER_1
 40
0.0741
 41
0.0741
 66
1
 10
0
 20
0
 30
0
  0
VERTEX
  8
LAYER_1
 10
118.0841
 20
114.7914
  0
VERTEX
  8
LAYER_1
 10
118.0841
 20
115.5252
  0
SEQEND
  0
INSERT
  8
LAYER_1
  2
AIGNBL0101002B
 10
0
 20
0
 30
0
  0
POLYLINE
  8
LAYER_1
 40
0.0741
 41
0.0741
 66
1
 10
0
 20
0
 30
0
  0
VERTEX
  8
LAYER_1
 10
117.8802
 20
115.7291
  0
VERTEX
  8
LAYER_1
 10
112.5394
 20
115.7291
  0
VERTEX
  8
LAYER_1
 10
112.4989
 20
115.7291
  0
VERTEX
  8
LAYER_1
 10
48.3691
 20
115.7291
  0
SEQEND
  0
POLYLINE
  8
LAYER_1
 40
0.0741
 41
0.0741
 66
1
 10
0
 20
0
 30
0
  0
VERTEX
  8
LAYER_1
 10
56.0337
 20
97.7092
  0
VERTEX
  8
LAYER_1
 10
55.3407
 20
97.7092
  0
SEQEND
  0
INSERT
  8
LAYER_1
  2
AIGNBL0101002C
 10
0
 20
0
 30
0
  0
POLYLINE
  8
LAYER_1
 40
0.0741
 41
0.0741
 66
1
 10
0
 20
0
 30
0
  0
VERTEX
  8
LAYER_1
 10
55.1367
 20
97.913
  0
VERTEX
  8
LAYER_1
 10
53.2206
 20
113.3645
  0
SEQEND
  0
POLYLINE
  8
LAYER_1
 40
0.0741
 41
0.0741
 66
1
 10
0
 20
0
 30
0
  0
VERTEX
  8
LAYER_1
 10
112.9879
 20
113.3645
  0
VERTEX
  8
LAYER_1
 10
111.1127
 20
97.913
  0
SEQEND
  0
INSERT
  8
LAYER_1
  2
AIGNBL0101002D
 10
0
 20
0
 30
0
  0
POLYLINE
  8
LAYER_1
 40
0.0741
 41
0.0741
 66
1
 10
0
 20
0
 30
0
  0
VERTEX
  8
LAYER_1
 10
110.9087
 20
97.7092
  0
VERTEX
  8
LAYER_1
 10
110.2157
 20
97.7092
  0
SEQEND
  0
INSERT
  8
LAYER_1
  2
AIGNBL0101002E
 10
0
 20
0
 30
0
  0
POLYLINE
  8
LAYER_1
 40
0.0741
 41
0.0741
 66
1
 10
0
 20
0
 30
0
  0
VERTEX
  8
LAYER_1
 10
53.0575
 20
114.3429
  0
VERTEX
  8
LAYER_1
 10
52.9761
 20
114.4652
  0
SEQEND
  0
POLYLINE
  8
LAYER_1
 40
0.0882
 41
0.0882
 66
1
 10
0
 20
0
 30
0
  0
VERTEX
  8
LAYER_1
 10
48.1653
 20
114.8729
  0
VERTEX
  8
LAYER_1
 10
48.1653
 20
119.7245
  0
SEQEND
  0
POLYLINE
  8
LAYER_1
 40
0.0882
 41
0.0882
 66
1
 10
0
 20
0
 30
0
  0
VERTEX
  8
LAYER_1
 10
118.0841
 20
115.2398
  0
VERTEX
  8
LAYER_1
 10
118.0841
 20
119.7245
  0
SEQEND
  0
POLYLINE
  8
LAYER_1
 40
0.0882
 41
0.0882
 66
1
 10
0
 20
0
 30
0
  0
VERTEX
  8
LAYER_1
 10
49.6737
 20
119.5613
  0
VERTEX
  8
LAYER_1
 10
80.332
 20
119.5613
  0
SEQEND
  0
POLYLINE
  8
LAYER_1
 40
0.0882
 41
0.0882
 66
1
 10
0
 20
0
 30
0
  0
VERTEX
  8
LAYER_1
 10
116.5756
 20
119.5613
  0
VERTEX
  8
LAYER_1
 10
85.9173
 20
119.5613
  0
SEQEND
  0
POLYLINE
  8
LAYER_1
 40
0.05
 41
0.05
 66
1
 10
0
 20
0
 30
0
 70
1
  0
VERTEX
  8
LAYER_1
 10
49.6737
 20
119.8467
  0
VERTEX
  8
LAYER_1
 10
49.6737
 20
119.3166
  0
VERTEX
  8
LAYER_1
 10
48.1651
 20
119.5612
  0
SEQEND
  0
POLYLINE
  8
LAYER_1
 40
0.0882
 41
0.0882
 66
1
 10
0
 20
0
 30
0
 70
1
  0
VERTEX
  8
LAYER_1
 10
49.6737
 20
119.8467
  0
VERTEX
  8
LAYER_1
 10
49.6737
 20
119.3166
  0
VERTEX
  8
LAYER_1
 10
48.1651
 20
119.5612
  0
SEQEND
  0
POLYLINE
  8
LAYER_1
 40
0.05
 41
0.05
 66
1
 10
0
 20
0
 30
0
 70
1
  0
VERTEX
  8
LAYER_1
 10
116.5756
 20
119.8467
  0
VERTEX
  8
LAYER_1
 10
116.5756
 20
119.3166
  0
VERTEX
  8
LAYER_1
 10
118.0843
 20
119.5612
  0
SEQEND
  0
POLYLINE
  8
LAYER_1
 40
0.0882
 41
0.0882
 66
1
 10
0
 20
0
 30
0
 70
1
  0
VERTEX
  8
LAYER_1
 10
116.5756
 20
119.8467
  0
VERTEX
  8
LAYER_1
 10
116.5756
 20
119.3166
  0
VERTEX
  8
LAYER_1
 10
118.0843
 20
119.5612
  0
SEQEND
  0
TEXT
  8
LAYER_1
 10
80.4096
 20
118.3381
 11
80.4096
 21
118.3381
 40
3.1793
 41
0.5
  1
700
  0
POLYLINE
  8
LAYER_1
 40
0.0882
 41
0.0882
 66
1
 10
0
 20
0
 30
0
  0
VERTEX
  8
LAYER_1
 10
48.4098
 20
97.7092
  0
VERTEX
  8
LAYER_1
 10
42.3351
 20
97.7092
  0
SEQEND
  0
POLYLINE
  8
LAYER_1
 40
0.0882
 41
0.0882
 66
1
 10
0
 20
0
 30
0
  0
VERTEX
  8
LAYER_1
 10
83.0635
 20
115.7291
  0
VERTEX
  8
LAYER_1
 10
42.3355
 20
115.7291
  0
SEQEND
  0
POLYLINE
  8
LAYER_1
 40
0.0882
 41
0.0882
 66
1
 10
0
 20
0
 30
0
  0
VERTEX
  8
LAYER_1
 10
42.4576
 20
99.2176
  0
VERTEX
  8
LAYER_1
 10
42.4576
 20
104.0283
  0
SEQEND
  0
POLYLINE
  8
LAYER_1
 40
0.0882
 41
0.0882
 66
1
 10
0
 20
0
 30
0
  0
VERTEX
  8
LAYER_1
 10
42.4576
 20
114.2206
  0
VERTEX
  8
LAYER_1
 10
42.4576
 20
109.4099
  0
SEQEND
  0
POLYLINE
  8
LAYER_1
 40
0.05
 41
0.05
 66
1
 10
0
 20
0
 30
0
 70
1
  0
VERTEX
  8
LAYER_1
 10
42.213
 20
99.2176
  0
VERTEX
  8
LAYER_1
 10
42.7022
 20
99.2176
  0
VERTEX
  8
LAYER_1
 10
42.4576
 20
97.709
  0
SEQEND
  0
POLYLINE
  8
LAYER_1
 40
0.0882
 41
0.0882
 66
1
 10
0
 20
0
 30
0
 70
1
  0
VERTEX
  8
LAYER_1
 10
42.213
 20
99.2176
  0
VERTEX
  8
LAYER_1
 10
42.7022
 20
99.2176
  0
VERTEX
  8
LAYER_1
 10
42.4576
 20
97.709
  0
SEQEND
  0
POLYLINE
  8
LAYER_1
 40
0.05
 41
0.05
 66
1
 10
0
 20
0
 30
0
 70
1
  0
VERTEX
  8
LAYER_1
 10
42.213
 20
114.2206
  0
VERTEX
  8
LAYER_1
 10
42.7022
 20
114.2206
  0
VERTEX
  8
LAYER_1
 10
42.4576
 20
115.7289
  0
SEQEND
  0
POLYLINE
  8
LAYER_1
 40
0.0882
 41
0.0882
 66
1
 10
0
 20
0
 30
0
 70
1
  0
VERTEX
  8
LAYER_1
 10
42.213
 20
114.2206
  0
VERTEX
  8
LAYER_1
 10
42.7022
 20
114.2206
  0
VERTEX
  8
LAYER_1
 10
42.4576
 20
115.7289
  0
SEQEND
  0
TEXT
  8
LAYER_1
 10
43.6808
 20
104.1013
 11
43.6808
 21
104.1013
 40
3.1793
 41
0.5
 50
89.99999999
  1
180
  0
INSERT
  8
LAYER_1
  2
AIGNBL0101002F
 10
0
 20
0
 30
0
  0
POLYLINE
  8
LAYER_1
 40
0.2611
 41
0.2611
 66
1
 10
0
 20
0
 30
0
  0
VERTEX
  8
LAYER_1
 10
79.6389
 20
101.1745
  0
VERTEX
  8
LAYER_1
 10
80.7397
 20
100.0737
  0
SEQEND
  0
INSERT
  8
LAYER_1
  2
AIGNBL01010030
 10
0
 20
0
 30
0
  0
POLYLINE
  8
LAYER_1
 40
0.2611
 41
0.2611
 66
1
 10
0
 20
0
 30
0
  0
VERTEX
  8
LAYER_1
 10
80.8212
 20
99.9515
  0
VERTEX
  8
LAYER_1
 10
80.8212
 20
98.7283
  0
SEQEND
  0
POLYLINE
  8
LAYER_1
 40
0.2611
 41
0.2611
 66
1
 10
0
 20
0
 30
0
  0
VERTEX
  8
LAYER_1
 10
80.1281
 20
98.7284
  0
VERTEX
  8
LAYER_1
 10
80.1281
 20
99.1767
  0
SEQEND
  0
POLYLINE
  8
LAYER_1
 40
0.2611
 41
0.2611
 66
1
 10
0
 20
0
 30
0
  0
VERTEX
  8
LAYER_1
 10
80.0466
 20
99.3807
  0
VERTEX
  8
LAYER_1
 10
79.2313
 20
100.1555
  0
SEQEND
  0
INSERT
  8
LAYER_1
  2
AIGNBL01010031
 10
0
 20
0
 30
0
  0
POLYLINE
  8
LAYER_1
 40
0.2611
 41
0.2611
 66
1
 10
0
 20
0
 30
0
  0
VERTEX
  8
LAYER_1
 10
79.0274
 20
100.2368
  0
VERTEX
  8
LAYER_1
 10
61.252
 20
100.3182
  0
SEQEND
  0
INSERT
  8
LAYER_1
  2
AIGNBL01010032
 10
0
 20
0
 30
0
  0
POLYLINE
  8
LAYER_1
 40
0.2611
 41
0.2611
 66
1
 10
0
 20
0
 30
0
  0
VERTEX
  8
LAYER_1
 10
60.4367
 20
99.8291
  0
VERTEX
  8
LAYER_1
 10
59.7028
 20
97.8721
  0
SEQEND
  0
INSERT
  8
LAYER_1
  2
AIGNBL01010033
 10
0
 20
0
 30
0
  0
POLYLINE
  8
LAYER_1
 40
0.2611
 41
0.2611
 66
1
 10
0
 20
0
 30
0
  0
VERTEX
  8
LAYER_1
 10
85.4281
 20
98.7284
  0
VERTEX
  8
LAYER_1
 10
85.4281
 20
99.9515
  0
SEQEND
  0
INSERT
  8
LAYER_1
  2
AIGNBL01010034
 10
0
 20
0
 30
0
  0
POLYLINE
  8
LAYER_1
 40
0.2611
 41
0.2611
 66
1
 10
0
 20
0
 30
0
  0
VERTEX
  8
LAYER_1
 10
85.4689
 20
100.0738
  0
VERTEX
  8
LAYER_1
 10
86.6106
 20
101.1746
  0
SEQEND
  0
INSERT
  8
LAYER_1
  2
AIGNBL01010035
 10
0
 20
0
 30
0
  0
POLYLINE
  8
LAYER_1
 40
0.2611
 41
0.2611
 66
1
 10
0
 20
0
 30
0
  0
VERTEX
  8
LAYER_1
 10
58.6429
 20
97.7092
  0
VERTEX
  8
LAYER_1
 10
59.499
 20
97.7092
  0
SEQEND
  0
INSERT
  8
LAYER_1
  2
AIGNBL01010036
 10
0
 20
0
 30
0
  0
POLYLINE
  8
LAYER_1
 40
0.2611
 41
0.2611
 66
1
 10
0
 20
0
 30
0
  0
VERTEX
  8
LAYER_1
 10
106.5465
 20
97.8722
  0
VERTEX
  8
LAYER_1
 10
105.8126
 20
99.8292
  0
SEQEND
  0
INSERT
  8
LAYER_1
  2
AIGNBL01010037
 10
0
 20
0
 30
0
  0
POLYLINE
  8
LAYER_1
 40
0.2611
 41
0.2611
 66
1
 10
0
 20
0
 30
0
  0
VERTEX
  8
LAYER_1
 10
104.9972
 20
100.3184
  0
VERTEX
  8
LAYER_1
 10
87.2218
 20
100.237
  0
SEQEND
  0
INSERT
  8
LAYER_1
  2
AIGNBL01010038
 10
0
 20
0
 30
0
  0
POLYLINE
  8
LAYER_1
 40
0.2611
 41
0.2611
 66
1
 10
0
 20
0
 30
0
  0
VERTEX
  8
LAYER_1
 10
87.0181
 20
100.1553
  0
VERTEX
  8
LAYER_1
 10
86.2028
 20
99.3805
  0
SEQEND
  0
POLYLINE
  8
LAYER_1
 40
0.2611
 41
0.2611
 66
1
 10
0
 20
0
 30
0
  0
VERTEX
  8
LAYER_1
 10
86.1212
 20
99.1768
  0
VERTEX
  8
LAYER_1
 10
86.1212
 20
98.7285
  0
SEQEND
  0
INSERT
  8
LAYER_1
  2
AIGNBL01010039
 10
0
 20
0
 30
0
  0
POLYLINE
  8
LAYER_1
 40
0.2611
 41
0.2611
 66
1
 10
0
 20
0
 30
0
  0
VERTEX
  8
LAYER_1
 10
110.0934
 20
97.7092
  0
VERTEX
  8
LAYER_1
 10
110.9086
 20
97.7092
  0
SEQEND
  0
INSERT
  8
LAYER_1
  2
AIGNBL0101003A
 10
0
 20
0
 30
0
  0
POLYLINE
  8
LAYER_1
 40
0.2611
 41
0.2611
 66
1
 10
0
 20
0
 30
0
  0
VERTEX
  8
LAYER_1
 10
111.1126
 20
97.913
  0
VERTEX
  8
LAYER_1
 10
113.1101
 20
114.1798
  0
SEQEND
  0
INSERT
  8
LAYER_1
  2
AIGNBL0101003B
 10
0
 20
0
 30
0
  0
POLYLINE
  8
LAYER_1
 40
0.2611
 41
0.2611
 66
1
 10
0
 20
0
 30
0
  0
VERTEX
  8
LAYER_1
 10
113.5995
 20
114.6283
  0
VERTEX
  8
LAYER_1
 10
117.8804
 20
114.6283
  0
SEQEND
  0
INSERT
  8
LAYER_1
  2
AIGNBL0101003C
 10
0
 20
0
 30
0
  0
POLYLINE
  8
LAYER_1
 40
0.2611
 41
0.2611
 66
1
 10
0
 20
0
 30
0
  0
VERTEX
  8
LAYER_1
 10
118.0841
 20
114.7914
  0
VERTEX
  8
LAYER_1
 10
118.0841
 20
115.5252
  0
SEQEND
  0
INSERT
  8
LAYER_1
  2
AIGNBL0101003D
 10
0
 20
0
 30
0
  0
POLYLINE
  8
LAYER_1
 40
0.2611
 41
0.2611
 66
1
 10
0
 20
0
 30
0
  0
VERTEX
  8
LAYER_1
 10
117.8802
 20
115.7291
  0
VERTEX
  8
LAYER_1
 10
112.5394
 20
115.7291
  0
SEQEND
  0
INSERT
  8
LAYER_1
  2
AIGNBL0101003E
 10
0
 20
0
 30
0
  0
POLYLINE
  8
LAYER_1
 40
0.2611
 41
0.2611
 66
1
 10
0
 20
0
 30
0
  0
VERTEX
  8
LAYER_1
 10
54.1991
 20
115.2806
  0
VERTEX
  8
LAYER_1
 10
55.9114
 20
102.1122
  0
SEQEND
  0
INSERT
  8
LAYER_1
  2
AIGNBL0101003F
 10
0
 20
0
 30
0
  0
POLYLINE
  8
LAYER_1
 40
0.2611
 41
0.2611
 66
1
 10
0
 20
0
 30
0
  0
VERTEX
  8
LAYER_1
 10
56.3598
 20
101.7045
  0
VERTEX
  8
LAYER_1
 10
79.5166
 20
101.2153
  0
SEQEND
  0
POLYLINE
  8
LAYER_1
 40
0.2611
 41
0.2611
 66
1
 10
0
 20
0
 30
0
  0
VERTEX
  8
LAYER_1
 10
86.7327
 20
101.2153
  0
VERTEX
  8
LAYER_1
 10
109.8894
 20
101.7045
  0
SEQEND
  0
INSERT
  8
LAYER_1
  2
AIGNBL01010040
 10
0
 20
0
 30
0
  0
POLYLINE
  8
LAYER_1
 40
0.2611
 41
0.2611
 66
1
 10
0
 20
0
 30
0
  0
VERTEX
  8
LAYER_1
 10
110.338
 20
102.1122
  0
VERTEX
  8
LAYER_1
 10
112.0094
 20
115.2806
  0
SEQEND
  0
INSERT
  8
LAYER_1
  2
AIGNBL01010041
 10
0
 20
0
 30
0
  0
POLYLINE
  8
LAYER_1
 40
0.2611
 41
0.2611
 66
1
 10
0
 20
0
 30
0
  0
VERTEX
  8
LAYER_1
 10
53.7098
 20
115.7291
  0
VERTEX
  8
LAYER_1
 10
48.369
 20
115.7291
  0
SEQEND
  0
INSERT
  8
LAYER_1
  2
AIGNBL01010042
 10
0
 20
0
 30
0
  0
POLYLINE
  8
LAYER_1
 40
0.2611
 41
0.2611
 66
1
 10
0
 20
0
 30
0
  0
VERTEX
  8
LAYER_1
 10
48.1653
 20
115.5252
  0
VERTEX
  8
LAYER_1
 10
48.1653
 20
114.7914
  0
SEQEND
  0
INSERT
  8
LAYER_1
  2
AIGNBL01010043
 10
0
 20
0
 30
0
  0
POLYLINE
  8
LAYER_1
 40
0.2611
 41
0.2611
 66
1
 10
0
 20
0
 30
0
  0
VERTEX
  8
LAYER_1
 10
48.3691
 20
114.6283
  0
VERTEX
  8
LAYER_1
 10
52.65
 20
114.6283
  0
SEQEND
  0
INSERT
  8
LAYER_1
  2
AIGNBL01010044
 10
0
 20
0
 30
0
  0
POLYLINE
  8
LAYER_1
 40
0.2611
 41
0.2611
 66
1
 10
0
 20
0
 30
0
  0
VERTEX
  8
LAYER_1
 10
53.139
 20
114.1798
  0
VERTEX
  8
LAYER_1
 10
55.1365
 20
97.9131
  0
SEQEND
  0
INSERT
  8
LAYER_1
  2
AIGNBL01010045
 10
0
 20
0
 30
0
  0
POLYLINE
  8
LAYER_1
 40
0.2611
 41
0.2611
 66
1
 10
0
 20
0
 30
0
  0
VERTEX
  8
LAYER_1
 10
55.3406
 20
97.7092
  0
VERTEX
  8
LAYER_1
 10
56.1559
 20
97.7092
  0
SEQEND
  0
INSERT
  8
LAYER_1
  2
AIGNBL01010046
 10
0
 20
0
 30
0
  0
POLYLINE
  8
LAYER_1
 40
0.2611
 41
0.2611
 66
1
 10
0
 20
0
 30
0
  0
VERTEX
  8
LAYER_1
 10
110.2564
 20
99.0138
  0
VERTEX
  8
LAYER_1
 10
110.4196
 20
100.4815
  0
SEQEND
  0
INSERT
  8
LAYER_1
  2
AIGNBL01010047
 10
0
 20
0
 30
0
  0
POLYLINE
  8
LAYER_1
 40
0.2611
 41
0.2611
 66
1
 10
0
 20
0
 30
0
  0
VERTEX
  8
LAYER_1
 10
110.2157
 20
100.7261
  0
VERTEX
  8
LAYER_1
 10
106.9132
 20
100.4814
  0
SEQEND
  0
INSERT
  8
LAYER_1
  2
AIGNBL01010048
 10
0
 20
0
 30
0
  0
POLYLINE
  8
LAYER_1
 40
0.2611
 41
0.2611
 66
1
 10
0
 20
0
 30
0
  0
VERTEX
  8
LAYER_1
 10
106.7095
 20
100.1961
  0
VERTEX
  8
LAYER_1
 10
107.2397
 20
98.8916
  0
SEQEND
  0
INSERT
  8
LAYER_1
  2
AIGNBL01010049
 10
0
 20
0
 30
0
  0
POLYLINE
  8
LAYER_1
 40
0.2611
 41
0.2611
 66
1
 10
0
 20
0
 30
0
  0
VERTEX
  8
LAYER_1
 10
55.9929
 20
99.0138
  0
VERTEX
  8
LAYER_1
 10
55.8297
 20
100.4815
  0
SEQEND
  0
INSERT
  8
LAYER_1
  2
AIGNBL0101004A
 10
0
 20
0
 30
0
  0
POLYLINE
  8
LAYER_1
 40
0.2611
 41
0.2611
 66
1
 10
0
 20
0
 30
0
  0
VERTEX
  8
LAYER_1
 10
56.0337
 20
100.7261
  0
VERTEX
  8
LAYER_1
 10
59.3361
 20
100.4814
  0
SEQEND
  0
INSERT
  8
LAYER_1
  2
AIGNBL0101004B
 10
0
 20
0
 30
0
  0
POLYLINE
  8
LAYER_1
 40
0.2611
 41
0.2611
 66
1
 10
0
 20
0
 30
0
  0
VERTEX
  8
LAYER_1
 10
59.499
 20
100.1961
  0
VERTEX
  8
LAYER_1
 10
59.0098
 20
98.8916
  0
SEQEND
  0
INSERT
  8
LAYER_1
  2
AIGNBL0101004C
 10
0
 20
0
 30
0
  0
POLYLINE
  8
LAYER_1
 40
0.2611
 41
0.2611
 66
1
 10
0
 20
0
 30
0
  0
VERTEX
  8
LAYER_1
 10
106.7095
 20
97.7092
  0
VERTEX
  8
LAYER_1
 10
107.6066
 20
97.7092
  0
SEQEND
  0
POLYLINE
  8
LAYER_1
 40
0.0741
 41
0.0741
 66
1
 10
0
 20
0
 30
0
  0
VERTEX
  8
LAYER_1
 10
79.5166
 20
101.2153
  0
VERTEX
  8
LAYER_1
 10
86.7326
 20
101.2153
  0
SEQEND
  0
POLYLINE
  8
LAYER_1
 40
0.0741
 41
0.0741
 66
1
 10
0
 20
0
 30
0
  0
VERTEX
  8
LAYER_1
 10
80.7397
 20
100.0738
  0
VERTEX
  8
LAYER_1
 10
85.4689
 20
100.0738
  0
SEQEND
  0
POLYLINE
  8
LAYER_1
 40
0.0741
 41
0.0741
 66
1
 10
0
 20
0
 30
0
  0
VERTEX
  8
LAYER_1
 10
56.1559
 20
97.7092
  0
VERTEX
  8
LAYER_1
 10
58.6427
 20
97.7092
  0
SEQEND
  0
POLYLINE
  8
LAYER_1
 40
0.0741
 41
0.0741
 66
1
 10
0
 20
0
 30
0
  0
VERTEX
  8
LAYER_1
 10
59.499
 20
97.7092
  0
VERTEX
  8
LAYER_1
 10
106.7096
 20
97.7092
  0
SEQEND
  0
POLYLINE
  8
LAYER_1
 40
0.0741
 41
0.0741
 66
1
 10
0
 20
0
 30
0
  0
VERTEX
  8
LAYER_1
 10
107.6064
 20
97.7092
  0
VERTEX
  8
LAYER_1
 10
110.0932
 20
97.7092
  0
SEQEND
  0
POLYLINE
  8
LAYER_1
 40
0.0741
 41
0.0741
 66
1
 10
0
 20
0
 30
0
  0
VERTEX
  8
LAYER_1
 10
53.7098
 20
115.7291
  0
VERTEX
  8
LAYER_1
 10
112.5393
 20
115.7291
  0
SEQEND
  0
POLYLINE
  8
LAYER_1
 40
0.0741
 41
0.0741
 66
1
 10
0
 20
0
 30
0
  0
VERTEX
  8
LAYER_1
 10
110.1749
 20
101.8268
  0
VERTEX
  8
LAYER_1
 10
56.0338
 20
101.8268
  0
SEQEND
  0
POLYLINE
  8
LAYER_1
 40
0.0882
 41
0.0882
 66
1
 10
0
 20
0
 30
0
  0
VERTEX
  8
LAYER_1
 10
82.5335
 20
101.2153
  0
VERTEX
  8
LAYER_1
 10
82.7781
 20
101.2153
  0
SEQEND
  0
POLYLINE
  8
LAYER_1
 40
0.0882
 41
0.0882
 66
1
 10
0
 20
0
 30
0
  0
VERTEX
  8
LAYER_1
 10
82.5335
 20
115.7291
  0
VERTEX
  8
LAYER_1
 10
82.7781
 20
115.7291
  0
SEQEND
  0
POLYLINE
  8
LAYER_1
 40
0.0882
 41
0.0882
 66
1
 10
0
 20
0
 30
0
  0
VERTEX
  8
LAYER_1
 10
82.6558
 20
102.7237
  0
VERTEX
  8
LAYER_1
 10
82.6558
 20
105.7406
  0
SEQEND
  0
POLYLINE
  8
LAYER_1
 40
0.0882
 41
0.0882
 66
1
 10
0
 20
0
 30
0
  0
VERTEX
  8
LAYER_1
 10
82.6558
 20
114.2206
  0
VERTEX
  8
LAYER_1
 10
82.6558
 20
111.1628
  0
SEQEND
  0
POLYLINE
  8
LAYER_1
 40
0.05
 41
0.05
 66
1
 10
0
 20
0
 30
0
 70
1
  0
VERTEX
  8
LAYER_1
 10
82.3704
 20
102.7237
  0
VERTEX
  8
LAYER_1
 10
82.9006
 20
102.7237
  0
VERTEX
  8
LAYER_1
 10
82.6559
 20
101.2151
  0
SEQEND
  0
POLYLINE
  8
LAYER_1
 40
0.0882
 41
0.0882
 66
1
 10
0
 20
0
 30
0
 70
1
  0
VERTEX
  8
LAYER_1
 10
82.3704
 20
102.7237
  0
VERTEX
  8
LAYER_1
 10
82.9006
 20
102.7237
  0
VERTEX
  8
LAYER_1
 10
82.6559
 20
101.2151
  0
SEQEND
  0
POLYLINE
  8
LAYER_1
 40
0.05
 41
0.05
 66
1
 10
0
 20
0
 30
0
 70
1
  0
VERTEX
  8
LAYER_1
 10
82.3704
 20
114.2206
  0
VERTEX
  8
LAYER_1
 10
82.9006
 20
114.2206
  0
VERTEX
  8
LAYER_1
 10
82.6559
 20
115.7289
  0
SEQEND
  0
POLYLINE
  8
LAYER_1
 40
0.0882
 41
0.0882
 66
1
 10
0
 20
0
 30
0
 70
1
  0
VERTEX
  8
LAYER_1
 10
82.3704
 20
114.2206
  0
VERTEX
  8
LAYER_1
 10
82.9006
 20
114.2206
  0
VERTEX
  8
LAYER_1
 10
82.6559
 20
115.7289
  0
SEQEND
  0
TEXT
  8
LAYER_1
 10
83.879
 20
105.8552
 11
83.879
 21
105.8552
 40
3.1793
 41
0.5
 50
89.99999999
  1
145
  0
POLYLINE
  8
LAYER_1
 40
0.0882
 41
0.0882
 66
1
 10
0
 20
0
 30
0
  0
VERTEX
  8
LAYER_1
 10
117.921
 20
115.7291
  0
VERTEX
  8
LAYER_1
 10
121.6309
 20
115.7291
  0
SEQEND
  0
POLYLINE
  8
LAYER_1
 40
0.0882
 41
0.0882
 66
1
 10
0
 20
0
 30
0
  0
VERTEX
  8
LAYER_1
 10
117.921
 20
114.6283
  0
VERTEX
  8
LAYER_1
 10
121.6309
 20
114.6283
  0
SEQEND
  0
POLYLINE
  8
LAYER_1
 40
0.0882
 41
0.0882
 66
1
 10
0
 20
0
 30
0
  0
VERTEX
  8
LAYER_1
 10
121.4679
 20
113.1199
  0
VERTEX
  8
LAYER_1
 10
121.4679
 20
111.6112
  0
SEQEND
  0
POLYLINE
  8
LAYER_1
 40
0.0882
 41
0.0882
 66
1
 10
0
 20
0
 30
0
  0
VERTEX
  8
LAYER_1
 10
121.4679
 20
117.1967
  0
VERTEX
  8
LAYER_1
 10
121.4679
 20
118.7054
  0
SEQEND
  0
POLYLINE
  8
LAYER_1
 40
0.0882
 41
0.0882
 66
1
 10
0
 20
0
 30
0
  0
VERTEX
  8
LAYER_1
 10
121.4679
 20
114.6283
  0
VERTEX
  8
LAYER_1
 10
121.4679
 20
115.7291
  0
SEQEND
  0
POLYLINE
  8
LAYER_1
 40
0.05
 41
0.05
 66
1
 10
0
 20
0
 30
0
 70
1
  0
VERTEX
  8
LAYER_1
 10
121.2233
 20
113.1199
  0
VERTEX
  8
LAYER_1
 10
121.7535
 20
113.1199
  0
VERTEX
  8
LAYER_1
 10
121.4679
 20
114.6285
  0
SEQEND
  0
POLYLINE
  8
LAYER_1
 40
0.0882
 41
0.0882
 66
1
 10
0
 20
0
 30
0
 70
1
  0
VERTEX
  8
LAYER_1
 10
121.2233
 20
113.1199
  0
VERTEX
  8
LAYER_1
 10
121.7535
 20
113.1199
  0
VERTEX
  8
LAYER_1
 10
121.4679
 20
114.6285
  0
SEQEND
  0
POLYLINE
  8
LAYER_1
 40
0.05
 41
0.05
 66
1
 10
0
 20
0
 30
0
 70
1
  0
VERTEX
  8
LAYER_1
 10
121.2233
 20
117.1967
  0
VERTEX
  8
LAYER_1
 10
121.7535
 20
117.1967
  0
VERTEX
  8
LAYER_1
 10
121.4679
 20
115.729
  0
SEQEND
  0
POLYLINE
  8
LAYER_1
 40
0.0882
 41
0.0882
 66
1
 10
0
 20
0
 30
0
 70
1
  0
VERTEX
  8
LAYER_1
 10
121.2233
 20
117.1967
  0
VERTEX
  8
LAYER_1
 10
121.7535
 20
117.1967
  0
VERTEX
  8
LAYER_1
 10
121.4679
 20
115.729
  0
SEQEND
  0
TEXT
  8
LAYER_1
 10
122.7317
 20
118.3788
 11
122.7317
 21
118.3788
 40
3.1793
 41
0.5
 50
89.99999999
  1
10
  0
POLYLINE
  8
LAYER_1
 40
0.0741
 41
0.0741
 66
1
 10
0
 20
0
 30
0
  0
VERTEX
  8
LAYER_1
 10
84.8573
 20
191.6409
  0
VERTEX
  8
LAYER_1
 10
84.7759
 20
192.0488
  0
VERTEX
  8
LAYER_1
 10
84.6127
 20
192.4562
  0
VERTEX
  8
LAYER_1
 10
84.3681
 20
192.8232
  0
VERTEX
  8
LAYER_1
 10
84.0826
 20
193.0678
  0
VERTEX
  8
LAYER_1
 10
83.6751
 20
193.2715
  0
VERTEX
  8
LAYER_1
 10
83.2673
 20
193.3533
  0
VERTEX
  8
LAYER_1
 10
82.8189
 20
193.3533
  0
VERTEX
  8
LAYER_1
 10
82.4111
 20
193.231
  0
VERTEX
  8
LAYER_1
 10
82.0442
 20
193.0273
  0
VERTEX
  8
LAYER_1
 10
81.759
 20
192.7418
  0
VERTEX
  8
LAYER_1
 10
81.5144
 20
192.3748
  0
VERTEX
  8
LAYER_1
 10
81.3921
 20
191.967
  0
VERTEX
  8
LAYER_1
 10
81.3512
 20
191.5186
  0
VERTEX
  8
LAYER_1
 10
81.4326
 20
191.1108
  0
VERTEX
  8
LAYER_1
 10
81.5958
 20
190.7033
  0
VERTEX
  8
LAYER_1
 10
81.8404
 20
190.3769
  0
VERTEX
  8
LAYER_1
 10
82.1665
 20
190.1323
  0
VERTEX
  8
LAYER_1
 10
82.5743
 20
189.9695
  0
VERTEX
  8
LAYER_1
 10
82.9821
 20
189.8881
  0
VERTEX
  8
LAYER_1
 10
83.4305
 20
189.9286
  0
VERTEX
  8
LAYER_1
 10
83.8379
 20
190.0509
  0
VERTEX
  8
LAYER_1
 10
84.2049
 20
190.2955
  0
VERTEX
  8
LAYER_1
 10
84.4904
 20
190.581
  0
VERTEX
  8
LAYER_1
 10
84.6941
 20
190.948
  0
VERTEX
  8
LAYER_1
 10
84.8164
 20
191.3554
  0
VERTEX
  8
LAYER_1
 10
84.8573
 20
191.6
  0
VERTEX
  8
LAYER_1
 10
84.8573
 20
191.6409
  0
SEQEND
  0
POLYLINE
  8
LAYER_1
 40
0.0741
 41
0.0741
 66
1
 10
0
 20
0
 30
0
  0
VERTEX
  8
LAYER_1
 10
48.0836
 20
171.7049
  0
VERTEX
  8
LAYER_1
 10
48.1245
 20
170.4004
  0
VERTEX
  8
LAYER_1
 10
48.2874
 20
169.1363
  0
VERTEX
  8
LAYER_1
 10
48.4915
 20
167.8727
  0
VERTEX
  8
LAYER_1
 10
48.8175
 20
166.6496
  0
VERTEX
  8
LAYER_1
 10
49.1845
 20
165.4265
  0
VERTEX
  8
LAYER_1
 10
49.6737
 20
164.2442
  0
VERTEX
  8
LAYER_1
 10
50.2035
 20
163.1025
  0
VERTEX
  8
LAYER_1
 10
50.8559
 20
161.9612
  0
VERTEX
  8
LAYER_1
 10
51.5489
 20
160.8604
  0
VERTEX
  8
LAYER_1
 10
52.3237
 20
159.8005
  0
VERTEX
  8
LAYER_1
 10
53.1389
 20
158.7402
  0
VERTEX
  8
LAYER_1
 10
54.0765
 20
157.7212
  0
VERTEX
  8
LAYER_1
 10
55.055
 20
156.7427
  0
VERTEX
  8
LAYER_1
 10
56.0744
 20
155.8051
  0
VERTEX
  8
LAYER_1
 10
57.1752
 20
154.908
  0
VERTEX
  8
LAYER_1
 10
58.3574
 20
154.0113
  0
VERTEX
  8
LAYER_1
 10
59.5396
 20
153.1956
  0
VERTEX
  8
LAYER_1
 10
60.8442
 20
152.4212
  0
VERTEX
  8
LAYER_1
 10
62.1487
 20
151.6874
  0
VERTEX
  8
LAYER_1
 10
63.535
 20
150.9944
  0
VERTEX
  8
LAYER_1
 10
64.921
 20
150.3419
  0
VERTEX
  8
LAYER_1
 10
66.3887
 20
149.7304
  0
VERTEX
  8
LAYER_1
 10
67.8973
 20
149.1597
  0
VERTEX
  8
LAYER_1
 10
69.4465
 20
148.6705
  0
VERTEX
  8
LAYER_1
 10
71.0365
 20
148.2221
  0
VERTEX
  8
LAYER_1
 10
72.6671
 20
147.8143
  0
VERTEX
  8
LAYER_1
 10
74.3386
 20
147.4882
  0
VERTEX
  8
LAYER_1
 10
76.0509
 20
147.2027
  0
VERTEX
  8
LAYER_1
 10
77.7633
 20
146.999
  0
VERTEX
  8
LAYER_1
 10
79.5165
 20
146.8358
  0
VERTEX
  8
LAYER_1
 10
81.2694
 20
146.7544
  0
VERTEX
  8
LAYER_1
 10
83.1041
 20
146.7135
  0
VERTEX
  8
LAYER_1
 10
84.8979
 20
146.7544
  0
VERTEX
  8
LAYER_1
 10
86.6508
 20
146.8358
  0
VERTEX
  8
LAYER_1
 10
88.404
 20
146.999
  0
VERTEX
  8
LAYER_1
 10
90.1569
 20
147.2027
  0
VERTEX
  8
LAYER_1
 10
91.8287
 20
147.4882
  0
VERTEX
  8
LAYER_1
 10
93.5002
 20
147.8143
  0
VERTEX
  8
LAYER_1
 10
95.1307
 20
148.2221
  0
VERTEX
  8
LAYER_1
 10
96.7208
 20
148.6705
  0
VERTEX
  8
LAYER_1
 10
98.27
 20
149.1597
  0
VERTEX
  8
LAYER_1
 10
99.7786
 20
149.7304
  0
VERTEX
  8
LAYER_1
 10
101.2459
 20
150.3419
  0
VERTEX
  8
LAYER_1
 10
102.6732
 20
150.9944
  0
VERTEX
  8
LAYER_1
 10
104.0182
 20
151.6874
  0
VERTEX
  8
LAYER_1
 10
105.3636
 20
152.4212
  0
VERTEX
  8
LAYER_1
 10
106.6277
 20
153.1956
  0
VERTEX
  8
LAYER_1
 10
107.8508
 20
154.0113
  0
VERTEX
  8
LAYER_1
 10
108.9921
 20
154.908
  0
VERTEX
  8
LAYER_1
 10
110.0929
 20
155.8051
  0
VERTEX
  8
LAYER_1
 10
111.1528
 20
156.7427
  0
VERTEX
  8
LAYER_1
 10
112.1313
 20
157.7212
  0
VERTEX
  8
LAYER_1
 10
113.0284
 20
158.7402
  0
VERTEX
  8
LAYER_1
 10
113.8845
 20
159.8005
  0
VERTEX
  8
LAYER_1
 10
114.6589
 20
160.8604
  0
VERTEX
  8
LAYER_1
 10
115.3523
 20
161.9612
  0
VERTEX
  8
LAYER_1
 10
115.9635
 20
163.1025
  0
VERTEX
  8
LAYER_1
 10
116.5345
 20
164.2442
  0
VERTEX
  8
LAYER_1
 10
116.9828
 20
165.4265
  0
VERTEX
  8
LAYER_1
 10
117.3907
 20
166.6496
  0
VERTEX
  8
LAYER_1
 10
117.6758
 20
167.8727
  0
VERTEX
  8
LAYER_1
 10
117.9204
 20
169.1363
  0
VERTEX
  8
LAYER_1
 10
118.0428
 20
170.4004
  0
VERTEX
  8
LAYER_1
 10
118.0836
 20
171.7049
  0
VERTEX
  8
LAYER_1
 10
118.0428
 20
172.9689
  0
VERTEX
  8
LAYER_1
 10
117.9204
 20
174.2326
  0
VERTEX
  8
LAYER_1
 10
117.6758
 20
175.4966
  0
VERTEX
  8
LAYER_1
 10
117.3907
 20
176.7193
  0
VERTEX
  8
LAYER_1
 10
116.9828
 20
177.9424
  0
VERTEX
  8
LAYER_1
 10
116.5345
 20
179.1247
  0
VERTEX
  8
LAYER_1
 10
115.9635
 20
180.2664
  0
VERTEX
  8
LAYER_1
 10
115.3523
 20
181.4081
  0
VERTEX
  8
LAYER_1
 10
114.6589
 20
182.5085
  0
VERTEX
  8
LAYER_1
 10
113.8845
 20
183.6093
  0
VERTEX
  8
LAYER_1
 10
113.0284
 20
184.6287
  0
VERTEX
  8
LAYER_1
 10
112.1313
 20
185.6477
  0
VERTEX
  8
LAYER_1
 10
111.1528
 20
186.6262
  0
VERTEX
  8
LAYER_1
 10
110.0929
 20
187.5642
  0
VERTEX
  8
LAYER_1
 10
108.9921
 20
188.4609
  0
VERTEX
  8
LAYER_1
 10
107.8508
 20
189.358
  0
VERTEX
  8
LAYER_1
 10
106.6277
 20
190.1733
  0
VERTEX
  8
LAYER_1
 10
105.3636
 20
190.948
  0
VERTEX
  8
LAYER_1
 10
104.0182
 20
191.6815
  0
VERTEX
  8
LAYER_1
 10
102.6732
 20
192.4154
  0
VERTEX
  8
LAYER_1
 10
101.2459
 20
193.0679
  0
VERTEX
  8
LAYER_1
 10
99.7786
 20
193.6385
  0
VERTEX
  8
LAYER_1
 10
98.27
 20
194.2096
  0
VERTEX
  8
LAYER_1
 10
96.7208
 20
194.6984
  0
VERTEX
  8
LAYER_1
 10
95.1307
 20
195.1472
  0
VERTEX
  8
LAYER_1
 10
93.5002
 20
195.5546
  0
VERTEX
  8
LAYER_1
 10
91.8287
 20
195.881
  0
VERTEX
  8
LAYER_1
 10
90.1569
 20
196.1662
  0
VERTEX
  8
LAYER_1
 10
88.404
 20
196.3703
  0
VERTEX
  8
LAYER_1
 10
86.6508
 20
196.5331
  0
VERTEX
  8
LAYER_1
 10
84.8979
 20
196.6149
  0
VERTEX
  8
LAYER_1
 10
83.1041
 20
196.6554
  0
VERTEX
  8
LAYER_1
 10
81.2694
 20
196.6149
  0
VERTEX
  8
LAYER_1
 10
79.5165
 20
196.5331
  0
VERTEX
  8
LAYER_1
 10
77.7633
 20
196.3703
  0
VERTEX
  8
LAYER_1
 10
76.0509
 20
196.1662
  0
VERTEX
  8
LAYER_1
 10
74.3386
 20
195.881
  0
VERTEX
  8
LAYER_1
 10
72.6671
 20
195.5546
  0
VERTEX
  8
LAYER_1
 10
71.0365
 20
195.1472
  0
VERTEX
  8
LAYER_1
 10
69.4465
 20
194.6984
  0
VERTEX
  8
LAYER_1
 10
67.8973
 20
194.2096
  0
VERTEX
  8
LAYER_1
 10
66.3887
 20
193.6385
  0
VERTEX
  8
LAYER_1
 10
64.921
 20
193.0679
  0
VERTEX
  8
LAYER_1
 10
63.535
 20
192.4154
  0
VERTEX
  8
LAYER_1
 10
62.1487
 20
191.6815
  0
VERTEX
  8
LAYER_1
 10
60.8442
 20
190.948
  0
VERTEX
  8
LAYER_1
 10
59.5396
 20
190.1733
  0
VERTEX
  8
LAYER_1
 10
58.3574
 20
189.358
  0
VERTEX
  8
LAYER_1
 10
57.1752
 20
188.4609
  0
VERTEX
  8
LAYER_1
 10
56.0744
 20
187.5642
  0
VERTEX
  8
LAYER_1
 10
55.055
 20
186.6262
  0
VERTEX
  8
LAYER_1
 10
54.0765
 20
185.6477
  0
VERTEX
  8
LAYER_1
 10
53.1389
 20
184.6287
  0
VERTEX
  8
LAYER_1
 10
52.3237
 20
183.6093
  0
VERTEX
  8
LAYER_1
 10
51.5489
 20
182.5085
  0
VERTEX
  8
LAYER_1
 10
50.8559
 20
181.4081
  0
VERTEX
  8
LAYER_1
 10
50.2035
 20
180.2664
  0
VERTEX
  8
LAYER_1
 10
49.6737
 20
179.1247
  0
VERTEX
  8
LAYER_1
 10
49.1845
 20
177.9424
  0
VERTEX
  8
LAYER_1
 10
48.8175
 20
176.7193
  0
VERTEX
  8
LAYER_1
 10
48.4915
 20
175.4966
  0
VERTEX
  8
LAYER_1
 10
48.2874
 20
174.2326
  0
VERTEX
  8
LAYER_1
 10
48.1245
 20
172.9689
  0
VERTEX
  8
LAYER_1
 10
48.0836
 20
171.7049
  0
SEQEND
  0
POLYLINE
  8
LAYER_1
 40
0.0741
 41
0.0741
 66
1
 10
0
 20
0
 30
0
  0
VERTEX
  8
LAYER_1
 10
110.2564
 20
176.3118
  0
VERTEX
  8
LAYER_1
 10
109.6449
 20
177.1271
  0
VERTEX
  8
LAYER_1
 10
108.9519
 20
177.9018
  0
VERTEX
  8
LAYER_1
 10
108.2589
 20
178.6762
  0
VERTEX
  8
LAYER_1
 10
107.4432
 20
179.4101
  0
VERTEX
  8
LAYER_1
 10
106.6279
 20
180.144
  0
VERTEX
  8
LAYER_1
 10
105.7313
 20
180.7964
  0
VERTEX
  8
LAYER_1
 10
104.7933
 20
181.4485
  0
VERTEX
  8
LAYER_1
 10
103.7743
 20
182.0601
  0
VERTEX
  8
LAYER_1
 10
102.7549
 20
182.6716
  0
VERTEX
  8
LAYER_1
 10
101.695
 20
183.2018
  0
VERTEX
  8
LAYER_1
 10
100.5532
 20
183.7319
  0
VERTEX
  8
LAYER_1
 10
99.4119
 20
184.2208
  0
VERTEX
  8
LAYER_1
 10
98.1888
 20
184.6695
  0
VERTEX
  8
LAYER_1
 10
96.9657
 20
185.077
  0
VERTEX
  8
LAYER_1
 10
95.7426
 20
185.4439
  0
VERTEX
  8
LAYER_1
 10
94.438
 20
185.8108
  0
VERTEX
  8
LAYER_1
 10
93.1335
 20
186.0964
  0
VERTEX
  8
LAYER_1
 10
91.788
 20
186.3819
  0
VERTEX
  8
LAYER_1
 10
90.4426
 20
186.6265
  0
VERTEX
  8
LAYER_1
 10
89.0567
 20
186.7893
  0
VERTEX
  8
LAYER_1
 10
87.6703
 20
186.9526
  0
VERTEX
  8
LAYER_1
 10
86.2844
 20
187.0749
  0
VERTEX
  8
LAYER_1
 10
84.8572
 20
187.1563
  0
VERTEX
  8
LAYER_1
 10
83.4303
 20
187.1563
  0
VERTEX
  8
LAYER_1
 10
82.0035
 20
187.1563
  0
VERTEX
  8
LAYER_1
 10
80.5766
 20
187.1158
  0
VERTEX
  8
LAYER_1
 10
79.1089
 20
186.9931
  0
VERTEX
  8
LAYER_1
 10
77.682
 20
186.8708
  0
VERTEX
  8
LAYER_1
 10
76.2552
 20
186.7079
  0
VERTEX
  8
LAYER_1
 10
74.8283
 20
186.4633
  0
VERTEX
  8
LAYER_1
 10
73.4011
 20
186.1778
  0
VERTEX
  8
LAYER_1
 10
71.9742
 20
185.8518
  0
VERTEX
  8
LAYER_1
 10
70.6288
 20
185.5257
  0
VERTEX
  8
LAYER_1
 10
69.3243
 20
185.1179
  0
VERTEX
  8
LAYER_1
 10
68.0606
 20
184.71
  0
VERTEX
  8
LAYER_1
 10
66.8375
 20
184.2208
  0
VERTEX
  8
LAYER_1
 10
65.6553
 20
183.7319
  0
VERTEX
  8
LAYER_1
 10
64.5136
 20
183.2018
  0
VERTEX
  8
LAYER_1
 10
63.4128
 20
182.6311
  0
VERTEX
  8
LAYER_1
 10
62.3529
 20
182.0601
  0
VERTEX
  8
LAYER_1
 10
61.3744
 20
181.4485
  0
VERTEX
  8
LAYER_1
 10
60.3959
 20
180.7964
  0
VERTEX
  8
LAYER_1
 10
59.5397
 20
180.1035
  0
VERTEX
  8
LAYER_1
 10
58.6835
 20
179.4101
  0
VERTEX
  8
LAYER_1
 10
57.9091
 20
178.6762
  0
VERTEX
  8
LAYER_1
 10
57.1752
 20
177.9018
  0
VERTEX
  8
LAYER_1
 10
56.5228
 20
177.1271
  0
VERTEX
  8
LAYER_1
 10
55.9521
 20
176.3118
  0
SEQEND
  0
POLYLINE
  8
LAYER_1
 40
0.0741
 41
0.0741
 66
1
 10
0
 20
0
 30
0
  0
VERTEX
  8
LAYER_1
 10
55.9521
 20
176.3118
  0
VERTEX
  8
LAYER_1
 10
55.5443
 20
175.7411
  0
VERTEX
  8
LAYER_1
 10
55.2182
 20
175.1296
  0
VERTEX
  8
LAYER_1
 10
54.9327
 20
174.4771
  0
VERTEX
  8
LAYER_1
 10
54.6881
 20
173.825
  0
VERTEX
  8
LAYER_1
 10
54.4844
 20
173.1726
  0
VERTEX
  8
LAYER_1
 10
54.3215
 20
172.5201
  0
VERTEX
  8
LAYER_1
 10
54.1992
 20
171.8271
  0
VERTEX
  8
LAYER_1
 10
54.1174
 20
171.1342
  0
VERTEX
  8
LAYER_1
 10
54.1174
 20
170.4817
  0
VERTEX
  8
LAYER_1
 10
54.1174
 20
169.7887
  0
VERTEX
  8
LAYER_1
 10
54.1992
 20
169.0957
  0
VERTEX
  8
LAYER_1
 10
54.3215
 20
168.4028
  0
VERTEX
  8
LAYER_1
 10
54.4844
 20
167.7503
  0
VERTEX
  8
LAYER_1
 10
54.6476
 20
167.0573
  0
VERTEX
  8
LAYER_1
 10
54.9327
 20
166.4049
  0
VERTEX
  8
LAYER_1
 10
55.2182
 20
165.7933
  0
VERTEX
  8
LAYER_1
 10
55.5852
 20
165.0594
  0
VERTEX
  8
LAYER_1
 10
56.0335
 20
164.3256
  0
VERTEX
  8
LAYER_1
 10
56.2376
 20
163.9586
  0
VERTEX
  8
LAYER_1
 10
56.3599
 20
163.7958
  0
VERTEX
  8
LAYER_1
 10
56.4413
 20
163.714
  0
VERTEX
  8
LAYER_1
 10
56.5637
 20
163.5512
  0
VERTEX
  8
LAYER_1
 10
57.0529
 20
162.8582
  0
VERTEX
  8
LAYER_1
 10
57.6236
 20
162.2057
  0
VERTEX
  8
LAYER_1
 10
58.2351
 20
161.5128
  0
VERTEX
  8
LAYER_1
 10
58.8467
 20
160.8603
  0
VERTEX
  8
LAYER_1
 10
59.5397
 20
160.2079
  0
VERTEX
  8
LAYER_1
 10
60.2735
 20
159.5967
  0
VERTEX
  8
LAYER_1
 10
61.0483
 20
158.9442
  0
VERTEX
  8
LAYER_1
 10
61.8636
 20
158.3736
  0
VERTEX
  8
LAYER_1
 10
62.7198
 20
157.8025
  0
VERTEX
  8
LAYER_1
 10
63.6165
 20
157.2318
  0
VERTEX
  8
LAYER_1
 10
64.5545
 20
156.7017
  0
VERTEX
  8
LAYER_1
 10
65.533
 20
156.1719
  0
VERTEX
  8
LAYER_1
 10
66.552
 20
155.6827
  0
VERTEX
  8
LAYER_1
 10
67.5714
 20
155.2343
  0
VERTEX
  8
LAYER_1
 10
68.6313
 20
154.7856
  0
VERTEX
  8
LAYER_1
 10
69.7321
 20
154.4187
  0
VERTEX
  8
LAYER_1
 10
72.0151
 20
153.6852
  0
VERTEX
  8
LAYER_1
 10
74.3391
 20
153.1141
  0
VERTEX
  8
LAYER_1
 10
76.7849
 20
152.6658
  0
VERTEX
  8
LAYER_1
 10
79.2312
 20
152.3803
  0
VERTEX
  8
LAYER_1
 10
81.7179
 20
152.2174
  0
VERTEX
  8
LAYER_1
 10
84.246
 20
152.2174
  0
VERTEX
  8
LAYER_1
 10
86.7327
 20
152.3803
  0
VERTEX
  8
LAYER_1
 10
89.2195
 20
152.6658
  0
VERTEX
  8
LAYER_1
 10
91.6248
 20
153.0736
  0
VERTEX
  8
LAYER_1
 10
93.9897
 20
153.6443
  0
VERTEX
  8
LAYER_1
 10
96.2727
 20
154.3373
  0
VERTEX
  8
LAYER_1
 10
97.3735
 20
154.7451
  0
VERTEX
  8
LAYER_1
 10
98.4334
 20
155.1525
  0
VERTEX
  8
LAYER_1
 10
99.4933
 20
155.6013
  0
VERTEX
  8
LAYER_1
 10
100.4718
 20
156.0905
  0
VERTEX
  8
LAYER_1
 10
101.4503
 20
156.6203
  0
VERTEX
  8
LAYER_1
 10
102.3879
 20
157.1504
  0
VERTEX
  8
LAYER_1
 10
103.285
 20
157.6802
  0
VERTEX
  8
LAYER_1
 10
104.1817
 20
158.2918
  0
VERTEX
  8
LAYER_1
 10
104.9974
 20
158.8628
  0
VERTEX
  8
LAYER_1
 10
105.7718
 20
159.4744
  0
VERTEX
  8
LAYER_1
 10
106.5056
 20
160.1264
  0
VERTEX
  8
LAYER_1
 10
107.1986
 20
160.7789
  0
VERTEX
  8
LAYER_1
 10
107.8511
 20
161.431
  0
VERTEX
  8
LAYER_1
 10
108.4626
 20
162.0834
  0
VERTEX
  8
LAYER_1
 10
108.9924
 20
162.695
  0
VERTEX
  8
LAYER_1
 10
109.4411
 20
163.3066
  0
VERTEX
  8
LAYER_1
 10
110.2564
 20
164.5297
  0
VERTEX
  8
LAYER_1
 10
110.9494
 20
165.7528
  0
VERTEX
  8
LAYER_1
 10
111.2349
 20
166.4049
  0
VERTEX
  8
LAYER_1
 10
111.5204
 20
167.0573
  0
VERTEX
  8
LAYER_1
 10
111.6833
 20
167.7094
  0
VERTEX
  8
LAYER_1
 10
111.8465
 20
168.4028
  0
VERTEX
  8
LAYER_1
 10
111.9688
 20
169.0549
  0
VERTEX
  8
LAYER_1
 10
112.0502
 20
169.7478
  0
VERTEX
  8
LAYER_1
 10
112.0502
 20
170.4412
  0
VERTEX
  8
LAYER_1
 10
112.0502
 20
171.1342
  0
VERTEX
  8
LAYER_1
 10
111.9688
 20
171.7866
  0
VERTEX
  8
LAYER_1
 10
111.8465
 20
172.4796
  0
VERTEX
  8
LAYER_1
 10
111.6833
 20
173.1317
  0
VERTEX
  8
LAYER_1
 10
111.4795
 20
173.825
  0
VERTEX
  8
LAYER_1
 10
111.2349
 20
174.4366
  0
VERTEX
  8
LAYER_1
 10
110.9494
 20
175.0887
  0
VERTEX
  8
LAYER_1
 10
110.6233
 20
175.7002
  0
VERTEX
  8
LAYER_1
 10
110.2564
 20
176.3118
  0
SEQEND
  0
POLYLINE
  8
LAYER_1
 40
0.0882
 41
0.0882
 66
1
 10
0
 20
0
 30
0
  0
VERTEX
  8
LAYER_1
 10
48.0837
 20
171.6234
  0
VERTEX
  8
LAYER_1
 10
48.0837
 20
143.0849
  0
SEQEND
  0
POLYLINE
  8
LAYER_1
 40
0.0882
 41
0.0882
 66
1
 10
0
 20
0
 30
0
  0
VERTEX
  8
LAYER_1
 10
118.0841
 20
171.6234
  0
VERTEX
  8
LAYER_1
 10
118.0841
 20
143.0849
  0
SEQEND
  0
POLYLINE
  8
LAYER_1
 40
0.0882
 41
0.0882
 66
1
 10
0
 20
0
 30
0
  0
VERTEX
  8
LAYER_1
 10
49.5921
 20
143.2074
  0
VERTEX
  8
LAYER_1
 10
80.2913
 20
143.2074
  0
SEQEND
  0
POLYLINE
  8
LAYER_1
 40
0.0882
 41
0.0882
 66
1
 10
0
 20
0
 30
0
  0
VERTEX
  8
LAYER_1
 10
116.5756
 20
143.2074
  0
VERTEX
  8
LAYER_1
 10
85.8764
 20
143.2074
  0
SEQEND
  0
POLYLINE
  8
LAYER_1
 40
0.05
 41
0.05
 66
1
 10
0
 20
0
 30
0
 70
1
  0
VERTEX
  8
LAYER_1
 10
49.5921
 20
143.452
  0
VERTEX
  8
LAYER_1
 10
49.5921
 20
142.9627
  0
VERTEX
  8
LAYER_1
 10
48.0835
 20
143.2073
  0
SEQEND
  0
POLYLINE
  8
LAYER_1
 40
0.0882
 41
0.0882
 66
1
 10
0
 20
0
 30
0
 70
1
  0
VERTEX
  8
LAYER_1
 10
49.5921
 20
143.452
  0
VERTEX
  8
LAYER_1
 10
49.5921
 20
142.9627
  0
VERTEX
  8
LAYER_1
 10
48.0835
 20
143.2073
  0
SEQEND
  0
POLYLINE
  8
LAYER_1
 40
0.05
 41
0.05
 66
1
 10
0
 20
0
 30
0
 70
1
  0
VERTEX
  8
LAYER_1
 10
116.5756
 20
143.452
  0
VERTEX
  8
LAYER_1
 10
116.5756
 20
142.9627
  0
VERTEX
  8
LAYER_1
 10
118.0843
 20
143.2073
  0
SEQEND
  0
POLYLINE
  8
LAYER_1
 40
0.0882
 41
0.0882
 66
1
 10
0
 20
0
 30
0
 70
1
  0
VERTEX
  8
LAYER_1
 10
116.5756
 20
143.452
  0
VERTEX
  8
LAYER_1
 10
116.5756
 20
142.9627
  0
VERTEX
  8
LAYER_1
 10
118.0843
 20
143.2073
  0
SEQEND
  0
TEXT
  8
LAYER_1
 10
80.169
 20
141.9844
 11
80.169
 21
141.9844
 40
3.1793
 41
0.5
  1
700
  0
POLYLINE
  8
LAYER_1
 40
0.0882
 41
0.0882
 66
1
 10
0
 20
0
 30
0
  0
VERTEX
  8
LAYER_1
 10
83.145
 20
196.6556
  0
VERTEX
  8
LAYER_1
 10
86.9772
 20
196.6556
  0
SEQEND
  0
POLYLINE
  8
LAYER_1
 40
0.0882
 41
0.0882
 66
1
 10
0
 20
0
 30
0
  0
VERTEX
  8
LAYER_1
 10
83.145
 20
187.1564
  0
VERTEX
  8
LAYER_1
 10
86.9772
 20
187.1564
  0
SEQEND
  0
POLYLINE
  8
LAYER_1
 40
0.0882
 41
0.0882
 66
1
 10
0
 20
0
 30
0
  0
VERTEX
  8
LAYER_1
 10
86.855
 20
194.8584
  0
VERTEX
  8
LAYER_1
 10
86.855
 20
193.4724
  0
SEQEND
  0
POLYLINE
  8
LAYER_1
 40
0.0882
 41
0.0882
 66
1
 10
0
 20
0
 30
0
  0
VERTEX
  8
LAYER_1
 10
86.855
 20
188.6648
  0
VERTEX
  8
LAYER_1
 10
86.855
 20
190.0508
  0
SEQEND
  0
POLYLINE
  8
LAYER_1
 40
0.05
 41
0.05
 66
1
 10
0
 20
0
 30
0
 70
1
  0
VERTEX
  8
LAYER_1
 10
86.6104
 20
194.8584
  0
VERTEX
  8
LAYER_1
 10
87.0997
 20
194.8584
  0
VERTEX
  8
LAYER_1
 10
86.855
 20
196.367
  0
SEQEND
  0
POLYLINE
  8
LAYER_1
 40
0.0882
 41
0.0882
 66
1
 10
0
 20
0
 30
0
 70
1
  0
VERTEX
  8
LAYER_1
 10
86.6104
 20
194.8584
  0
VERTEX
  8
LAYER_1
 10
87.0997
 20
194.8584
  0
VERTEX
  8
LAYER_1
 10
86.855
 20
196.367
  0
SEQEND
  0
POLYLINE
  8
LAYER_1
 40
0.05
 41
0.05
 66
1
 10
0
 20
0
 30
0
 70
1
  0
VERTEX
  8
LAYER_1
 10
86.6104
 20
188.6648
  0
VERTEX
  8
LAYER_1
 10
87.0997
 20
188.6648
  0
VERTEX
  8
LAYER_1
 10
86.855
 20
187.1562
  0
SEQEND
  0
POLYLINE
  8
LAYER_1
 40
0.05
 41
0.05
 66
1
 10
0
 20
0
 30
0
 70
1
  0
VERTEX
  8
LAYER_1
 10
86.6104
 20
188.6648
  0
VERTEX
  8
LAYER_1
 10
87.0997
 20
188.6648
  0
VERTEX
  8
LAYER_1
 10
86.855
 20
187.1562
  0
SEQEND
  0
TEXT
  8
LAYER_1
 10
88.1189
 20
190.1693
 11
88.1189
 21
190.1693
 40
3.1793
 41
0.5
 50
89.99999999
  1
95
  0
POLYLINE
  8
LAYER_1
 40
0.0882
 41
0.0882
 66
1
 10
0
 20
0
 30
0
  0
VERTEX
  8
LAYER_1
 10
83.0635
 20
169.6664
  0
VERTEX
  8
LAYER_1
 10
74.8281
 20
169.6664
  0
SEQEND
  0
POLYLINE
  8
LAYER_1
 40
0.0882
 41
0.0882
 66
1
 10
0
 20
0
 30
0
  0
VERTEX
  8
LAYER_1
 10
83.0227
 20
196.6556
  0
VERTEX
  8
LAYER_1
 10
74.8282
 20
196.6556
  0
SEQEND
  0
POLYLINE
  8
LAYER_1
 40
0.0882
 41
0.0882
 66
1
 10
0
 20
0
 30
0
  0
VERTEX
  8
LAYER_1
 10
74.9505
 20
171.1341
  0
VERTEX
  8
LAYER_1
 10
74.9505
 20
180.3072
  0
SEQEND
  0
POLYLINE
  8
LAYER_1
 40
0.0882
 41
0.0882
 66
1
 10
0
 20
0
 30
0
  0
VERTEX
  8
LAYER_1
 10
74.9505
 20
195.1471
  0
VERTEX
  8
LAYER_1
 10
74.9505
 20
186.0149
  0
SEQEND
  0
POLYLINE
  8
LAYER_1
 40
0.05
 41
0.05
 66
1
 10
0
 20
0
 30
0
 70
1
  0
VERTEX
  8
LAYER_1
 10
74.7058
 20
171.1341
  0
VERTEX
  8
LAYER_1
 10
75.1951
 20
171.1341
  0
VERTEX
  8
LAYER_1
 10
74.9505
 20
169.6664
  0
SEQEND
  0
POLYLINE
  8
LAYER_1
 40
0.0882
 41
0.0882
 66
1
 10
0
 20
0
 30
0
 70
1
  0
VERTEX
  8
LAYER_1
 10
74.7058
 20
171.1341
  0
VERTEX
  8
LAYER_1
 10
75.1951
 20
171.1341
  0
VERTEX
  8
LAYER_1
 10
74.9505
 20
169.6664
  0
SEQEND
  0
POLYLINE
  8
LAYER_1
 40
0.05
 41
0.05
 66
1
 10
0
 20
0
 30
0
 70
1
  0
VERTEX
  8
LAYER_1
 10
74.7058
 20
195.1471
  0
VERTEX
  8
LAYER_1
 10
75.1951
 20
195.1471
  0
VERTEX
  8
LAYER_1
 10
74.9505
 20
196.6557
  0
SEQEND
  0
POLYLINE
  8
LAYER_1
 40
0.0882
 41
0.0882
 66
1
 10
0
 20
0
 30
0
 70
1
  0
VERTEX
  8
LAYER_1
 10
74.7058
 20
195.1471
  0
VERTEX
  8
LAYER_1
 10
75.1951
 20
195.1471
  0
VERTEX
  8
LAYER_1
 10
74.9505
 20
196.6557
  0
SEQEND
  0
TEXT
  8
LAYER_1
 10
75.7958
 20
180.6723
 11
75.7958
 21
180.6723
 40
3.1793
 41
0.5
 50
89.99999999
  1
270
  0
POLYLINE
  8
LAYER_1
 40
0.0882
 41
0.0882
 66
1
 10
0
 20
0
 30
0
  0
VERTEX
  8
LAYER_1
 10
80.6581
 20
196.6556
  0
VERTEX
  8
LAYER_1
 10
45.4746
 20
196.6556
  0
SEQEND
  0
POLYLINE
  8
LAYER_1
 40
0.0882
 41
0.0882
 66
1
 10
0
 20
0
 30
0
  0
VERTEX
  8
LAYER_1
 10
83.0227
 20
146.7135
  0
VERTEX
  8
LAYER_1
 10
45.4744
 20
146.7135
  0
SEQEND
  0
POLYLINE
  8
LAYER_1
 40
0.0882
 41
0.0882
 66
1
 10
0
 20
0
 30
0
  0
VERTEX
  8
LAYER_1
 10
45.5968
 20
195.1471
  0
VERTEX
  8
LAYER_1
 10
45.5968
 20
174.518
  0
SEQEND
  0
POLYLINE
  8
LAYER_1
 40
0.0882
 41
0.0882
 66
1
 10
0
 20
0
 30
0
  0
VERTEX
  8
LAYER_1
 10
45.5968
 20
148.222
  0
VERTEX
  8
LAYER_1
 10
45.5968
 20
168.851
  0
SEQEND
  0
POLYLINE
  8
LAYER_1
 40
0.05
 41
0.05
 66
1
 10
0
 20
0
 30
0
 70
1
  0
VERTEX
  8
LAYER_1
 10
45.3114
 20
195.1471
  0
VERTEX
  8
LAYER_1
 10
45.8415
 20
195.1471
  0
VERTEX
  8
LAYER_1
 10
45.5969
 20
196.6557
  0
SEQEND
  0
POLYLINE
  8
LAYER_1
 40
0.0882
 41
0.0882
 66
1
 10
0
 20
0
 30
0
 70
1
  0
VERTEX
  8
LAYER_1
 10
45.3114
 20
195.1471
  0
VERTEX
  8
LAYER_1
 10
45.8415
 20
195.1471
  0
VERTEX
  8
LAYER_1
 10
45.5969
 20
196.6557
  0
SEQEND
  0
POLYLINE
  8
LAYER_1
 40
0.05
 41
0.05
 66
1
 10
0
 20
0
 30
0
 70
1
  0
VERTEX
  8
LAYER_1
 10
45.3114
 20
148.222
  0
VERTEX
  8
LAYER_1
 10
45.8415
 20
148.222
  0
VERTEX
  8
LAYER_1
 10
45.5969
 20
146.7137
  0
SEQEND
  0
POLYLINE
  8
LAYER_1
 40
0.0882
 41
0.0882
 66
1
 10
0
 20
0
 30
0
 70
1
  0
VERTEX
  8
LAYER_1
 10
45.3114
 20
148.222
  0
VERTEX
  8
LAYER_1
 10
45.8415
 20
148.222
  0
VERTEX
  8
LAYER_1
 10
45.5969
 20
146.7137
  0
SEQEND
  0
TEXT
  8
LAYER_1
 10
46.7267
 20
169.086
 11
46.7267
 21
169.086
 40
3.1793
 41
0.5
 50
89.99999999
  1
500
  0
POLYLINE
  8
LAYER_1
 40
0.0882
 41
0.0882
 66
1
 10
0
 20
0
 30
0
  0
VERTEX
  8
LAYER_1
 10
112.0503
 20
171.0526
  0
VERTEX
  8
LAYER_1
 10
112.0503
 20
170.4001
  0
SEQEND
  0
POLYLINE
  8
LAYER_1
 40
0.0882
 41
0.0882
 66
1
 10
0
 20
0
 30
0
  0
VERTEX
  8
LAYER_1
 10
118.0841
 20
170.7672
  0
VERTEX
  8
LAYER_1
 10
118.0841
 20
170.4003
  0
SEQEND
  0
POLYLINE
  8
LAYER_1
 40
0.0882
 41
0.0882
 66
1
 10
0
 20
0
 30
0
  0
VERTEX
  8
LAYER_1
 10
110.5418
 20
170.5226
  0
VERTEX
  8
LAYER_1
 10
109.0332
 20
170.5226
  0
SEQEND
  0
POLYLINE
  8
LAYER_1
 40
0.0882
 41
0.0882
 66
1
 10
0
 20
0
 30
0
  0
VERTEX
  8
LAYER_1
 10
119.5518
 20
170.5226
  0
VERTEX
  8
LAYER_1
 10
121.0604
 20
170.5226
  0
SEQEND
  0
POLYLINE
  8
LAYER_1
 40
0.0882
 41
0.0882
 66
1
 10
0
 20
0
 30
0
  0
VERTEX
  8
LAYER_1
 10
112.0503
 20
170.5226
  0
VERTEX
  8
LAYER_1
 10
113.192
 20
170.5226
  0
SEQEND
  0
POLYLINE
  8
LAYER_1
 40
0.0882
 41
0.0882
 66
1
 10
0
 20
0
 30
0
  0
VERTEX
  8
LAYER_1
 10
118.0841
 20
170.5226
  0
VERTEX
  8
LAYER_1
 10
116.9019
 20
170.5226
  0
SEQEND
  0
POLYLINE
  8
LAYER_1
 40
0.05
 41
0.05
 66
1
 10
0
 20
0
 30
0
 70
1
  0
VERTEX
  8
LAYER_1
 10
110.5418
 20
170.7672
  0
VERTEX
  8
LAYER_1
 10
110.5418
 20
170.278
  0
VERTEX
  8
LAYER_1
 10
112.0505
 20
170.5226
  0
SEQEND
  0
POLYLINE
  8
LAYER_1
 40
0.0882
 41
0.0882
 66
1
 10
0
 20
0
 30
0
 70
1
  0
VERTEX
  8
LAYER_1
 10
110.5418
 20
170.7672
  0
VERTEX
  8
LAYER_1
 10
110.5418
 20
170.278
  0
VERTEX
  8
LAYER_1
 10
112.0505
 20
170.5226
  0
SEQEND
  0
POLYLINE
  8
LAYER_1
 40
0.05
 41
0.05
 66
1
 10
0
 20
0
 30
0
 70
1
  0
VERTEX
  8
LAYER_1
 10
119.5518
 20
170.7672
  0
VERTEX
  8
LAYER_1
 10
119.5518
 20
170.278
  0
VERTEX
  8
LAYER_1
 10
118.084
 20
170.5226
  0
SEQEND
  0
POLYLINE
  8
LAYER_1
 40
0.0882
 41
0.0882
 66
1
 10
0
 20
0
 30
0
 70
1
  0
VERTEX
  8
LAYER_1
 10
119.5518
 20
170.7672
  0
VERTEX
  8
LAYER_1
 10
119.5518
 20
170.278
  0
VERTEX
  8
LAYER_1
 10
118.084
 20
170.5226
  0
SEQEND
  0
TEXT
  8
LAYER_1
 10
113.5509
 20
169.2995
 11
113.5509
 21
169.2995
 40
3.1793
 41
0.5
  1
60
  0
INSERT
  8
LAYER_1
  2
AIGNBL0101004D
 10
0
 20
0
 30
0
  0
POLYLINE
  8
LAYER_1
 40
0.0882
 41
0.0882
 66
1
 10
0
 20
0
 30
0
  0
VERTEX
  8
LAYER_1
 10
83.3897
 20
191.6409
  0
VERTEX
  8
LAYER_1
 10
79.6099
 20
191.6409
  0
SEQEND
  0
POLYLINE
  8
LAYER_1
 40
0.0882
 41
0.0882
 66
1
 10
0
 20
0
 30
0
  0
VERTEX
  8
LAYER_1
 10
83.145
 20
196.6556
  0
VERTEX
  8
LAYER_1
 10
83.2265
 20
196.6556
  0
SEQEND
  0
POLYLINE
  8
LAYER_1
 40
0.0882
 41
0.0882
 66
1
 10
0
 20
0
 30
0
  0
VERTEX
  8
LAYER_1
 10
79.6099
 20
190.1325
  0
VERTEX
  8
LAYER_1
 10
79.6099
 20
188.6242
  0
SEQEND
  0
POLYLINE
  8
LAYER_1
 40
0.0882
 41
0.0882
 66
1
 10
0
 20
0
 30
0
  0
VERTEX
  8
LAYER_1
 10
79.6099
 20
198.164
  0
VERTEX
  8
LAYER_1
 10
79.6099
 20
199.6726
  0
SEQEND
  0
POLYLINE
  8
LAYER_1
 40
0.0882
 41
0.0882
 66
1
 10
0
 20
0
 30
0
  0
VERTEX
  8
LAYER_1
 10
79.6099
 20
191.6409
  0
VERTEX
  8
LAYER_1
 10
79.6099
 20
192.2934
  0
SEQEND
  0
POLYLINE
  8
LAYER_1
 40
0.0882
 41
0.0882
 66
1
 10
0
 20
0
 30
0
  0
VERTEX
  8
LAYER_1
 10
79.6099
 20
196.6556
  0
VERTEX
  8
LAYER_1
 10
79.6099
 20
196.0031
  0
SEQEND
  0
POLYLINE
  8
LAYER_1
 40
0.05
 41
0.05
 66
1
 10
0
 20
0
 30
0
 70
1
  0
VERTEX
  8
LAYER_1
 10
79.3653
 20
190.1325
  0
VERTEX
  8
LAYER_1
 10
79.8546
 20
190.1325
  0
VERTEX
  8
LAYER_1
 10
79.6099
 20
191.6411
  0
SEQEND
  0
POLYLINE
  8
LAYER_1
 40
0.0882
 41
0.0882
 66
1
 10
0
 20
0
 30
0
 70
1
  0
VERTEX
  8
LAYER_1
 10
79.3653
 20
190.1325
  0
VERTEX
  8
LAYER_1
 10
79.8546
 20
190.1325
  0
VERTEX
  8
LAYER_1
 10
79.6099
 20
191.6411
  0
SEQEND
  0
POLYLINE
  8
LAYER_1
 40
0.05
 41
0.05
 66
1
 10
0
 20
0
 30
0
 70
1
  0
VERTEX
  8
LAYER_1
 10
79.3653
 20
198.164
  0
VERTEX
  8
LAYER_1
 10
79.8546
 20
198.164
  0
VERTEX
  8
LAYER_1
 10
79.6099
 20
196.6557
  0
SEQEND
  0
POLYLINE
  8
LAYER_1
 40
0.0882
 41
0.0882
 66
1
 10
0
 20
0
 30
0
 70
1
  0
VERTEX
  8
LAYER_1
 10
79.3653
 20
198.164
  0
VERTEX
  8
LAYER_1
 10
79.8546
 20
198.164
  0
VERTEX
  8
LAYER_1
 10
79.6099
 20
196.6557
  0
SEQEND
  0
TEXT
  8
LAYER_1
 10
80.7746
 20
192.4735
 11
80.7746
 21
192.4735
 40
3.1793
 41
0.5
 50
89.99999999
  1
50
  0
POLYLINE
  8
LAYER_1
 40
0.0882
 41
0.0882
 66
1
 10
0
 20
0
 30
0
  0
VERTEX
  8
LAYER_1
 10
80.6173
 20
174.3549
  0
VERTEX
  8
LAYER_1
 10
81.3103
 20
173.0095
  0
SEQEND
  0
POLYLINE
  8
LAYER_1
 40
0.0882
 41
0.0882
 66
1
 10
0
 20
0
 30
0
  0
VERTEX
  8
LAYER_1
 10
84.8573
 20
166.3234
  0
VERTEX
  8
LAYER_1
 10
85.5912
 20
164.978
  0
SEQEND
  0
TEXT
  8
LAYER_1
 10
76.6571
 20
179.4317
 11
76.6571
 21
179.4317
 40
3.1793
 41
0.5
 50
297.9434694
  1
 ｯ45
  0
POLYLINE
  8
LAYER_1
 40
0.0882
 41
0.0882
 66
1
 10
0
 20
0
 30
0
  0
VERTEX
  8
LAYER_1
 10
84.1643
 20
167.628
  0
VERTEX
  8
LAYER_1
 10
82.0445
 20
171.7048
  0
SEQEND
  0
POLYLINE
  8
LAYER_1
 40
0.05
 41
0.05
 66
1
 10
0
 20
0
 30
0
 70
1
  0
VERTEX
  8
LAYER_1
 10
85.102
 20
166.4049
  0
VERTEX
  8
LAYER_1
 10
84.6536
 20
166.2012
  0
VERTEX
  8
LAYER_1
 10
84.1644
 20
167.628
  0
SEQEND
  0
POLYLINE
  8
LAYER_1
 40
0.0882
 41
0.0882
 66
1
 10
0
 20
0
 30
0
 70
1
  0
VERTEX
  8
LAYER_1
 10
85.102
 20
166.4049
  0
VERTEX
  8
LAYER_1
 10
84.6536
 20
166.2012
  0
VERTEX
  8
LAYER_1
 10
84.1644
 20
167.628
  0
SEQEND
  0
POLYLINE
  8
LAYER_1
 40
0.05
 41
0.05
 66
1
 10
0
 20
0
 30
0
 70
1
  0
VERTEX
  8
LAYER_1
 10
81.5551
 20
173.1318
  0
VERTEX
  8
LAYER_1
 10
81.1067
 20
172.8872
  0
VERTEX
  8
LAYER_1
 10
82.0443
 20
171.705
  0
SEQEND
  0
POLYLINE
  8
LAYER_1
 40
0.0882
 41
0.0882
 66
1
 10
0
 20
0
 30
0
 70
1
  0
VERTEX
  8
LAYER_1
 10
81.5551
 20
173.1318
  0
VERTEX
  8
LAYER_1
 10
81.1067
 20
172.8872
  0
VERTEX
  8
LAYER_1
 10
82.0443
 20
171.705
  0
SEQEND
  0
POLYLINE
  8
LAYER_1
 40
0.2611
 41
0.2611
 66
1
 10
0
 20
0
 30
0
  0
VERTEX
  8
LAYER_1
 10
80.1281
 20
98.7284
  0
VERTEX
  8
LAYER_1
 10
80.8211
 20
98.7284
  0
SEQEND
  0
POLYLINE
  8
LAYER_1
 40
0.0741
 41
0.0741
 66
1
 10
0
 20
0
 30
0
  0
VERTEX
  8
LAYER_1
 10
80.8212
 20
98.7284
  0
VERTEX
  8
LAYER_1
 10
85.4282
 20
98.7284
  0
SEQEND
  0
POLYLINE
  8
LAYER_1
 40
0.2611
 41
0.2611
 66
1
 10
0
 20
0
 30
0
  0
VERTEX
  8
LAYER_1
 10
85.4281
 20
98.7284
  0
VERTEX
  8
LAYER_1
 10
86.1211
 20
98.7284
  0
SEQEND
  0
POLYLINE
  8
LAYER_1
 40
0.2611
 41
0.2611
 66
1
 10
0
 20
0
 30
0
  0
VERTEX
  8
LAYER_1
 10
137.6362
 20
114.6281
  0
VERTEX
  8
LAYER_1
 10
141.9171
 20
114.6281
  0
SEQEND
  0
POLYLINE
  8
LAYER_1
 40
0.2611
 41
0.2611
 66
1
 10
0
 20
0
 30
0
  0
VERTEX
  8
LAYER_1
 10
187.4559
 20
114.8319
  0
VERTEX
  8
LAYER_1
 10
187.4559
 20
115.5249
  0
SEQEND
  0
INSERT
  8
LAYER_1
  2
AIGNBL0101004E
 10
0
 20
0
 30
0
  0
POLYLINE
  8
LAYER_1
 40
0.2611
 41
0.2611
 66
1
 10
0
 20
0
 30
0
  0
VERTEX
  8
LAYER_1
 10
137.6362
 20
115.7289
  0
SEQEND
  0
POLYLINE
  8
LAYER_1
 40
0.2611
 41
0.2611
 66
1
 10
0
 20
0
 30
0
  0
VERTEX
  8
LAYER_1
 10
137.4323
 20
114.8319
  0
VERTEX
  8
LAYER_1
 10
137.4323
 20
115.5249
  0
SEQEND
  0
INSERT
  8
LAYER_1
  2
AIGNBL0101004F
 10
0
 20
0
 30
0
  0
POLYLINE
  8
LAYER_1
 40
0.2611
 41
0.2611
 66
1
 10
0
 20
0
 30
0
  0
VERTEX
  8
LAYER_1
 10
157.9391
 20
101.2151
  0
VERTEX
  8
LAYER_1
 10
159.0399
 20
100.1143
  0
SEQEND
  0
INSERT
  8
LAYER_1
  2
AIGNBL01010050
 10
0
 20
0
 30
0
  0
POLYLINE
  8
LAYER_1
 40
0.2611
 41
0.2611
 66
1
 10
0
 20
0
 30
0
  0
VERTEX
  8
LAYER_1
 10
159.1214
 20
99.9513
  0
VERTEX
  8
LAYER_1
 10
159.1214
 20
98.7281
  0
VERTEX
  8
LAYER_1
 10
158.4284
 20
98.7281
  0
VERTEX
  8
LAYER_1
 10
158.4284
 20
99.3397
  0
VERTEX
  8
LAYER_1
 10
157.4499
 20
100.2773
  0
VERTEX
  8
LAYER_1
 10
150.519
 20
100.3591
  0
SEQEND
  0
INSERT
  8
LAYER_1
  2
AIGNBL01010051
 10
0
 20
0
 30
0
  0
POLYLINE
  8
LAYER_1
 40
0.2611
 41
0.2611
 66
1
 10
0
 20
0
 30
0
  0
VERTEX
  8
LAYER_1
 10
149.7038
 20
99.8289
  0
VERTEX
  8
LAYER_1
 10
148.9699
 20
97.872
  0
SEQEND
  0
INSERT
  8
LAYER_1
  2
AIGNBL01010052
 10
0
 20
0
 30
0
  0
POLYLINE
  8
LAYER_1
 40
0.2611
 41
0.2611
 66
1
 10
0
 20
0
 30
0
  0
VERTEX
  8
LAYER_1
 10
163.7283
 20
98.7282
  0
VERTEX
  8
LAYER_1
 10
163.7283
 20
99.9513
  0
SEQEND
  0
INSERT
  8
LAYER_1
  2
AIGNBL01010053
 10
0
 20
0
 30
0
  0
POLYLINE
  8
LAYER_1
 40
0.2611
 41
0.2611
 66
1
 10
0
 20
0
 30
0
  0
VERTEX
  8
LAYER_1
 10
163.7691
 20
100.1144
  0
VERTEX
  8
LAYER_1
 10
164.9108
 20
101.2152
  0
SEQEND
  0
INSERT
  8
LAYER_1
  2
AIGNBL01010054
 10
0
 20
0
 30
0
  0
POLYLINE
  8
LAYER_1
 40
0.2611
 41
0.2611
 66
1
 10
0
 20
0
 30
0
  0
VERTEX
  8
LAYER_1
 10
147.9507
 20
97.7498
  0
VERTEX
  8
LAYER_1
 10
148.8069
 20
97.7498
  0
SEQEND
  0
POLYLINE
  8
LAYER_1
 40
0.2611
 41
0.2611
 66
1
 10
0
 20
0
 30
0
  0
VERTEX
  8
LAYER_1
 10
144.6076
 20
97.7498
  0
VERTEX
  8
LAYER_1
 10
145.4229
 20
97.7498
  0
SEQEND
  0
POLYLINE
  8
LAYER_1
 40
0.0741
 41
0.0741
 66
1
 10
0
 20
0
 30
0
  0
VERTEX
  8
LAYER_1
 10
147.7469
 20
97.7498
  0
VERTEX
  8
LAYER_1
 10
175.0622
 20
97.7498
  0
SEQEND
  0
POLYLINE
  8
LAYER_1
 40
0.2611
 41
0.2611
 66
1
 10
0
 20
0
 30
0
  0
VERTEX
  8
LAYER_1
 10
175.9998
 20
97.7498
  0
VERTEX
  8
LAYER_1
 10
176.8151
 20
97.7498
  0
SEQEND
  0
INSERT
  8
LAYER_1
  2
AIGNBL01010055
 10
0
 20
0
 30
0
  0
POLYLINE
  8
LAYER_1
 40
0.2611
 41
0.2611
 66
1
 10
0
 20
0
 30
0
  0
VERTEX
  8
LAYER_1
 10
172.4529
 20
97.872
  0
VERTEX
  8
LAYER_1
 10
171.719
 20
99.829
  0
SEQEND
  0
INSERT
  8
LAYER_1
  2
AIGNBL01010056
 10
0
 20
0
 30
0
  0
POLYLINE
  8
LAYER_1
 40
0.2611
 41
0.2611
 66
1
 10
0
 20
0
 30
0
  0
VERTEX
  8
LAYER_1
 10
170.9036
 20
100.3589
  0
VERTEX
  8
LAYER_1
 10
165.4
 20
100.2775
  0
VERTEX
  8
LAYER_1
 10
164.4215
 20
99.3395
  0
VERTEX
  8
LAYER_1
 10
164.4215
 20
98.7284
  0
VERTEX
  8
LAYER_1
 10
163.7281
 20
98.7284
  0
SEQEND
  0
INSERT
  8
LAYER_1
  2
AIGNBL01010057
 10
0
 20
0
 30
0
  0
POLYLINE
  8
LAYER_1
 40
0.2611
 41
0.2611
 66
1
 10
0
 20
0
 30
0
  0
VERTEX
  8
LAYER_1
 10
177.019
 20
97.9128
  0
VERTEX
  8
LAYER_1
 10
177.7938
 20
104.1913
  0
VERTEX
  8
LAYER_1
 10
179.0165
 20
114.3019
  0
SEQEND
  0
INSERT
  8
LAYER_1
  2
AIGNBL01010058
 10
0
 20
0
 30
0
  0
POLYLINE
  8
LAYER_1
 40
0.0741
 41
0.0741
 66
1
 10
0
 20
0
 30
0
  0
VERTEX
  8
LAYER_1
 10
180.6475
 20
114.6281
  0
VERTEX
  8
LAYER_1
 10
184.1536
 20
114.6281
  0
SEQEND
  0
POLYLINE
  8
LAYER_1
 40
0.2611
 41
0.2611
 66
1
 10
0
 20
0
 30
0
  0
VERTEX
  8
LAYER_1
 10
184.1536
 20
114.6281
  0
VERTEX
  8
LAYER_1
 10
187.2519
 20
114.6281
  0
SEQEND
  0
INSERT
  8
LAYER_1
  2
AIGNBL01010059
 10
0
 20
0
 30
0
  0
POLYLINE
  8
LAYER_1
 40
0.2611
 41
0.2611
 66
1
 10
0
 20
0
 30
0
  0
VERTEX
  8
LAYER_1
 10
187.4559
 20
114.8319
  0
VERTEX
  8
LAYER_1
 10
187.4559
 20
115.5249
  0
SEQEND
  0
INSERT
  8
LAYER_1
  2
AIGNBL0101005A
 10
0
 20
0
 30
0
  0
POLYLINE
  8
LAYER_1
 40
0.2611
 41
0.2611
 66
1
 10
0
 20
0
 30
0
  0
VERTEX
  8
LAYER_1
 10
187.252
 20
115.7289
  0
VERTEX
  8
LAYER_1
 10
184.1537
 20
115.7289
  0
SEQEND
  0
POLYLINE
  8
LAYER_1
 40
0.0741
 41
0.0741
 66
1
 10
0
 20
0
 30
0
  0
VERTEX
  8
LAYER_1
 10
184.1536
 20
115.7289
  0
VERTEX
  8
LAYER_1
 10
180.6474
 20
115.7289
  0
SEQEND
  0
POLYLINE
  8
LAYER_1
 40
0.2611
 41
0.2611
 66
1
 10
0
 20
0
 30
0
  0
VERTEX
  8
LAYER_1
 10
180.6475
 20
115.7289
  0
VERTEX
  8
LAYER_1
 10
178.4458
 20
115.7289
  0
SEQEND
  0
INSERT
  8
LAYER_1
  2
AIGNBL0101005B
 10
0
 20
0
 30
0
  0
POLYLINE
  8
LAYER_1
 40
0.2611
 41
0.2611
 66
1
 10
0
 20
0
 30
0
  0
VERTEX
  8
LAYER_1
 10
143.5069
 20
115.2804
  0
VERTEX
  8
LAYER_1
 10
145.1784
 20
102.1529
  0
SEQEND
  0
INSERT
  8
LAYER_1
  2
AIGNBL0101005C
 10
0
 20
0
 30
0
  0
POLYLINE
  8
LAYER_1
 40
0.2611
 41
0.2611
 66
1
 10
0
 20
0
 30
0
  0
VERTEX
  8
LAYER_1
 10
145.6269
 20
101.7043
  0
VERTEX
  8
LAYER_1
 10
157.8168
 20
101.256
  0
SEQEND
  0
POLYLINE
  8
LAYER_1
 40
0.2611
 41
0.2611
 66
1
 10
0
 20
0
 30
0
  0
VERTEX
  8
LAYER_1
 10
165.0329
 20
101.2559
  0
VERTEX
  8
LAYER_1
 10
175.796
 20
101.6637
  0
SEQEND
  0
INSERT
  8
LAYER_1
  2
AIGNBL0101005D
 10
0
 20
0
 30
0
  0
POLYLINE
  8
LAYER_1
 40
0.2611
 41
0.2611
 66
1
 10
0
 20
0
 30
0
  0
VERTEX
  8
LAYER_1
 10
176.2444
 20
102.1528
  0
VERTEX
  8
LAYER_1
 10
177.9568
 20
115.2803
  0
SEQEND
  0
INSERT
  8
LAYER_1
  2
AIGNBL0101005E
 10
0
 20
0
 30
0
  0
POLYLINE
  8
LAYER_1
 40
0.2611
 41
0.2611
 66
1
 10
0
 20
0
 30
0
  0
VERTEX
  8
LAYER_1
 10
143.0177
 20
115.7289
  0
VERTEX
  8
LAYER_1
 10
137.6363
 20
115.7289
  0
SEQEND
  0
INSERT
  8
LAYER_1
  2
AIGNBL0101005F
 10
0
 20
0
 30
0
  0
POLYLINE
  8
LAYER_1
 40
0.2611
 41
0.2611
 66
1
 10
0
 20
0
 30
0
  0
VERTEX
  8
LAYER_1
 10
137.4323
 20
115.525
  0
VERTEX
  8
LAYER_1
 10
137.4323
 20
114.832
  0
SEQEND
  0
INSERT
  8
LAYER_1
  2
AIGNBL01010060
 10
0
 20
0
 30
0
  0
POLYLINE
  8
LAYER_1
 40
0.2611
 41
0.2611
 66
1
 10
0
 20
0
 30
0
  0
VERTEX
  8
LAYER_1
 10
137.6362
 20
114.6281
  0
VERTEX
  8
LAYER_1
 10
141.9171
 20
114.6281
  0
SEQEND
  0
INSERT
  8
LAYER_1
  2
AIGNBL01010061
 10
0
 20
0
 30
0
  0
POLYLINE
  8
LAYER_1
 40
0.2611
 41
0.2611
 66
1
 10
0
 20
0
 30
0
  0
VERTEX
  8
LAYER_1
 10
142.4061
 20
114.1796
  0
VERTEX
  8
LAYER_1
 10
144.4036
 20
97.9129
  0
SEQEND
  0
INSERT
  8
LAYER_1
  2
AIGNBL01010062
 10
0
 20
0
 30
0
  0
POLYLINE
  8
LAYER_1
 40
0.2611
 41
0.2611
 66
1
 10
0
 20
0
 30
0
  0
VERTEX
  8
LAYER_1
 10
176.1628
 20
99.0136
  0
VERTEX
  8
LAYER_1
 10
176.3261
 20
100.5222
  0
SEQEND
  0
INSERT
  8
LAYER_1
  2
AIGNBL01010063
 10
0
 20
0
 30
0
  0
POLYLINE
  8
LAYER_1
 40
0.2611
 41
0.2611
 66
1
 10
0
 20
0
 30
0
  0
VERTEX
  8
LAYER_1
 10
176.1221
 20
100.7259
  0
VERTEX
  8
LAYER_1
 10
172.8197
 20
100.4813
  0
SEQEND
  0
INSERT
  8
LAYER_1
  2
AIGNBL01010064
 10
0
 20
0
 30
0
  0
POLYLINE
  8
LAYER_1
 40
0.2611
 41
0.2611
 66
1
 10
0
 20
0
 30
0
  0
VERTEX
  8
LAYER_1
 10
172.6567
 20
100.2366
  0
VERTEX
  8
LAYER_1
 10
173.146
 20
98.8912
  0
SEQEND
  0
INSERT
  8
LAYER_1
  2
AIGNBL01010065
 10
0
 20
0
 30
0
  0
POLYLINE
  8
LAYER_1
 40
0.2611
 41
0.2611
 66
1
 10
0
 20
0
 30
0
  0
VERTEX
  8
LAYER_1
 10
145.3007
 20
99.0136
  0
VERTEX
  8
LAYER_1
 10
145.097
 20
100.5222
  0
SEQEND
  0
INSERT
  8
LAYER_1
  2
AIGNBL01010066
 10
0
 20
0
 30
0
  0
POLYLINE
  8
LAYER_1
 40
0.2611
 41
0.2611
 66
1
 10
0
 20
0
 30
0
  0
VERTEX
  8
LAYER_1
 10
145.3007
 20
100.7259
  0
VERTEX
  8
LAYER_1
 10
148.6437
 20
100.4813
  0
SEQEND
  0
INSERT
  8
LAYER_1
  2
AIGNBL01010067
 10
0
 20
0
 30
0
  0
POLYLINE
  8
LAYER_1
 40
0.2611
 41
0.2611
 66
1
 10
0
 20
0
 30
0
  0
VERTEX
  8
LAYER_1
 10
148.8069
 20
100.2366
  0
VERTEX
  8
LAYER_1
 10
148.3176
 20
98.8912
  0
SEQEND
  0
INSERT
  8
LAYER_1
  2
AIGNBL01010068
 10
0
 20
0
 30
0
  0
POLYLINE
  8
LAYER_1
 40
0.0741
 41
0.0741
 66
1
 10
0
 20
0
 30
0
  0
VERTEX
  8
LAYER_1
 10
145.3415
 20
101.8674
  0
VERTEX
  8
LAYER_1
 10
176.1221
 20
101.8674
  0
SEQEND
  0
POLYLINE
  8
LAYER_1
 40
0.2611
 41
0.2611
 66
1
 10
0
 20
0
 30
0
  0
VERTEX
  8
LAYER_1
 10
172.6567
 20
97.7498
  0
VERTEX
  8
LAYER_1
 10
173.5129
 20
97.7498
  0
SEQEND
  0
POLYLINE
  8
LAYER_1
 40
0.0882
 41
0.0882
 66
1
 10
0
 20
0
 30
0
  0
VERTEX
  8
LAYER_1
 10
139.5115
 20
97.7498
  0
VERTEX
  8
LAYER_1
 10
135.6385
 20
97.7498
  0
SEQEND
  0
POLYLINE
  8
LAYER_1
 40
0.0882
 41
0.0882
 66
1
 10
0
 20
0
 30
0
  0
VERTEX
  8
LAYER_1
 10
140.2454
 20
115.7289
  0
VERTEX
  8
LAYER_1
 10
135.6384
 20
115.7289
  0
SEQEND
  0
POLYLINE
  8
LAYER_1
 40
0.0882
 41
0.0882
 66
1
 10
0
 20
0
 30
0
  0
VERTEX
  8
LAYER_1
 10
135.7608
 20
99.2582
  0
VERTEX
  8
LAYER_1
 10
135.7608
 20
104.028
  0
SEQEND
  0
POLYLINE
  8
LAYER_1
 40
0.0882
 41
0.0882
 66
1
 10
0
 20
0
 30
0
  0
VERTEX
  8
LAYER_1
 10
135.7608
 20
114.2204
  0
VERTEX
  8
LAYER_1
 10
135.7608
 20
109.4506
  0
SEQEND
  0
POLYLINE
  8
LAYER_1
 40
0.05
 41
0.05
 66
1
 10
0
 20
0
 30
0
 70
1
  0
VERTEX
  8
LAYER_1
 10
135.5162
 20
99.2582
  0
VERTEX
  8
LAYER_1
 10
136.0054
 20
99.2582
  0
VERTEX
  8
LAYER_1
 10
135.7608
 20
97.7499
  0
SEQEND
  0
POLYLINE
  8
LAYER_1
 40
0.0882
 41
0.0882
 66
1
 10
0
 20
0
 30
0
 70
1
  0
VERTEX
  8
LAYER_1
 10
135.5162
 20
99.2582
  0
VERTEX
  8
LAYER_1
 10
136.0054
 20
99.2582
  0
VERTEX
  8
LAYER_1
 10
135.7608
 20
97.7499
  0
SEQEND
  0
POLYLINE
  8
LAYER_1
 40
0.05
 41
0.05
 66
1
 10
0
 20
0
 30
0
 70
1
  0
VERTEX
  8
LAYER_1
 10
135.5162
 20
114.2204
  0
VERTEX
  8
LAYER_1
 10
136.0054
 20
114.2204
  0
VERTEX
  8
LAYER_1
 10
135.7608
 20
115.7291
  0
SEQEND
  0
POLYLINE
  8
LAYER_1
 40
0.0882
 41
0.0882
 66
1
 10
0
 20
0
 30
0
 70
1
  0
VERTEX
  8
LAYER_1
 10
135.5162
 20
114.2204
  0
VERTEX
  8
LAYER_1
 10
136.0054
 20
114.2204
  0
VERTEX
  8
LAYER_1
 10
135.7608
 20
115.7291
  0
SEQEND
  0
TEXT
  8
LAYER_1
 10
136.9838
 20
104.143
 11
136.9838
 21
104.143
 40
3.1793
 41
0.5
 50
89.99999999
  1
180
  0
POLYLINE
  8
LAYER_1
 40
0.0741
 41
0.0741
 66
1
 10
0
 20
0
 30
0
  0
VERTEX
  8
LAYER_1
 10
157.8168
 20
101.2559
  0
VERTEX
  8
LAYER_1
 10
165.0329
 20
101.2559
  0
SEQEND
  0
POLYLINE
  8
LAYER_1
 40
0.0741
 41
0.0741
 66
1
 10
0
 20
0
 30
0
  0
VERTEX
  8
LAYER_1
 10
159.0399
 20
100.1144
  0
VERTEX
  8
LAYER_1
 10
163.7691
 20
100.1144
  0
SEQEND
  0
POLYLINE
  8
LAYER_1
 40
0.0741
 41
0.0741
 66
1
 10
0
 20
0
 30
0
  0
VERTEX
  8
LAYER_1
 10
159.1214
 20
98.7282
  0
VERTEX
  8
LAYER_1
 10
163.7284
 20
98.7282
  0
SEQEND
  0
POLYLINE
  8
LAYER_1
 40
0.0741
 41
0.0741
 66
1
 10
0
 20
0
 30
0
  0
VERTEX
  8
LAYER_1
 10
145.423
 20
97.7498
  0
VERTEX
  8
LAYER_1
 10
175.9999
 20
97.7498
  0
SEQEND
  0
POLYLINE
  8
LAYER_1
 40
0.0882
 41
0.0882
 66
1
 10
0
 20
0
 30
0
  0
VERTEX
  8
LAYER_1
 10
161.3637
 20
101.2559
  0
VERTEX
  8
LAYER_1
 10
160.7522
 20
101.2559
  0
SEQEND
  0
POLYLINE
  8
LAYER_1
 40
0.0882
 41
0.0882
 66
1
 10
0
 20
0
 30
0
  0
VERTEX
  8
LAYER_1
 10
161.3637
 20
115.7289
  0
VERTEX
  8
LAYER_1
 10
160.7522
 20
115.7289
  0
SEQEND
  0
POLYLINE
  8
LAYER_1
 40
0.0882
 41
0.0882
 66
1
 10
0
 20
0
 30
0
  0
VERTEX
  8
LAYER_1
 10
160.8745
 20
102.7643
  0
VERTEX
  8
LAYER_1
 10
160.8745
 20
105.7812
  0
SEQEND
  0
POLYLINE
  8
LAYER_1
 40
0.0882
 41
0.0882
 66
1
 10
0
 20
0
 30
0
  0
VERTEX
  8
LAYER_1
 10
160.8745
 20
114.2204
  0
VERTEX
  8
LAYER_1
 10
160.8745
 20
111.2035
  0
SEQEND
  0
POLYLINE
  8
LAYER_1
 40
0.05
 41
0.05
 66
1
 10
0
 20
0
 30
0
 70
1
  0
VERTEX
  8
LAYER_1
 10
160.6298
 20
102.7643
  0
VERTEX
  8
LAYER_1
 10
161.16
 20
102.7643
  0
VERTEX
  8
LAYER_1
 10
160.8745
 20
101.2557
  0
SEQEND
  0
POLYLINE
  8
LAYER_1
 40
0.0882
 41
0.0882
 66
1
 10
0
 20
0
 30
0
 70
1
  0
VERTEX
  8
LAYER_1
 10
160.6298
 20
102.7643
  0
VERTEX
  8
LAYER_1
 10
161.16
 20
102.7643
  0
VERTEX
  8
LAYER_1
 10
160.8745
 20
101.2557
  0
SEQEND
  0
POLYLINE
  8
LAYER_1
 40
0.05
 41
0.05
 66
1
 10
0
 20
0
 30
0
 70
1
  0
VERTEX
  8
LAYER_1
 10
160.6298
 20
114.2204
  0
VERTEX
  8
LAYER_1
 10
161.16
 20
114.2204
  0
VERTEX
  8
LAYER_1
 10
160.8745
 20
115.7291
  0
SEQEND
  0
POLYLINE
  8
LAYER_1
 40
0.0882
 41
0.0882
 66
1
 10
0
 20
0
 30
0
 70
1
  0
VERTEX
  8
LAYER_1
 10
160.6298
 20
114.2204
  0
VERTEX
  8
LAYER_1
 10
161.16
 20
114.2204
  0
VERTEX
  8
LAYER_1
 10
160.8745
 20
115.7291
  0
SEQEND
  0
TEXT
  8
LAYER_1
 10
161.6245
 20
106.0439
 11
161.6245
 21
106.0439
 40
3.1793
 41
0.5
 50
89.99999999
  1
145
  0
INSERT
  8
LAYER_1
  2
AIGNBL01010069
 10
0
 20
0
 30
0
  0
POLYLINE
  8
LAYER_1
 40
0.2611
 41
0.2611
 66
1
 10
0
 20
0
 30
0
  0
VERTEX
  8
LAYER_1
 10
137.6362
 20
114.6281
  0
VERTEX
  8
LAYER_1
 10
141.9171
 20
114.6281
  0
SEQEND
  0
INSERT
  8
LAYER_1
  2
AIGNBL0101006A
 10
0
 20
0
 30
0
  0
POLYLINE
  8
LAYER_1
 40
0.2611
 41
0.2611
 66
1
 10
0
 20
0
 30
0
  0
VERTEX
  8
LAYER_1
 10
180.6475
 20
115.7289
  0
VERTEX
  8
LAYER_1
 10
180.6475
 20
114.6281
  0
SEQEND
  0
POLYLINE
  8
LAYER_1
 40
0.2611
 41
0.2611
 66
1
 10
0
 20
0
 30
0
  0
VERTEX
  8
LAYER_1
 10
184.1536
 20
115.7289
  0
VERTEX
  8
LAYER_1
 10
184.1536
 20
114.6281
  0
SEQEND
  0
POLYLINE
  8
LAYER_1
 40
0.0882
 41
0.0882
 66
1
 10
0
 20
0
 30
0
  0
VERTEX
  8
LAYER_1
 10
182.4005
 20
115.8104
  0
VERTEX
  8
LAYER_1
 10
182.4005
 20
117.5228
  0
SEQEND
  0
POLYLINE
  8
LAYER_1
 40
0.0882
 41
0.0882
 66
1
 10
0
 20
0
 30
0
  0
VERTEX
  8
LAYER_1
 10
187.4559
 20
115.2396
  0
VERTEX
  8
LAYER_1
 10
187.4559
 20
117.5227
  0
SEQEND
  0
POLYLINE
  8
LAYER_1
 40
0.0882
 41
0.0882
 66
1
 10
0
 20
0
 30
0
  0
VERTEX
  8
LAYER_1
 10
180.892
 20
117.4004
  0
VERTEX
  8
LAYER_1
 10
179.4243
 20
117.4004
  0
SEQEND
  0
POLYLINE
  8
LAYER_1
 40
0.0882
 41
0.0882
 66
1
 10
0
 20
0
 30
0
  0
VERTEX
  8
LAYER_1
 10
188.9236
 20
117.4004
  0
VERTEX
  8
LAYER_1
 10
190.4322
 20
117.4004
  0
SEQEND
  0
POLYLINE
  8
LAYER_1
 40
0.0882
 41
0.0882
 66
1
 10
0
 20
0
 30
0
  0
VERTEX
  8
LAYER_1
 10
182.4005
 20
117.4004
  0
VERTEX
  8
LAYER_1
 10
183.0935
 20
117.4004
  0
SEQEND
  0
POLYLINE
  8
LAYER_1
 40
0.0882
 41
0.0882
 66
1
 10
0
 20
0
 30
0
  0
VERTEX
  8
LAYER_1
 10
187.4559
 20
117.4004
  0
VERTEX
  8
LAYER_1
 10
186.7629
 20
117.4004
  0
SEQEND
  0
POLYLINE
  8
LAYER_1
 40
0.05
 41
0.05
 66
1
 10
0
 20
0
 30
0
 70
1
  0
VERTEX
  8
LAYER_1
 10
180.892
 20
117.645
  0
VERTEX
  8
LAYER_1
 10
180.892
 20
117.1558
  0
VERTEX
  8
LAYER_1
 10
182.4007
 20
117.4004
  0
SEQEND
  0
POLYLINE
  8
LAYER_1
 40
0.0882
 41
0.0882
 66
1
 10
0
 20
0
 30
0
 70
1
  0
VERTEX
  8
LAYER_1
 10
180.892
 20
117.645
  0
VERTEX
  8
LAYER_1
 10
180.892
 20
117.1558
  0
VERTEX
  8
LAYER_1
 10
182.4007
 20
117.4004
  0
SEQEND
  0
POLYLINE
  8
LAYER_1
 40
0.05
 41
0.05
 66
1
 10
0
 20
0
 30
0
 70
1
  0
VERTEX
  8
LAYER_1
 10
188.9236
 20
117.645
  0
VERTEX
  8
LAYER_1
 10
188.9236
 20
117.1558
  0
VERTEX
  8
LAYER_1
 10
187.4558
 20
117.4004
  0
SEQEND
  0
POLYLINE
  8
LAYER_1
 40
0.0882
 41
0.0882
 66
1
 10
0
 20
0
 30
0
 70
1
  0
VERTEX
  8
LAYER_1
 10
188.9236
 20
117.645
  0
VERTEX
  8
LAYER_1
 10
188.9236
 20
117.1558
  0
VERTEX
  8
LAYER_1
 10
187.4558
 20
117.4004
  0
SEQEND
  0
TEXT
  8
LAYER_1
 10
183.412
 20
116.1773
 11
183.412
 21
116.1773
 40
3.1793
 41
0.5
  1
50
  0
POLYLINE
  8
LAYER_1
 40
0.2611
 41
0.2611
 66
1
 10
0
 20
0
 30
0
  0
VERTEX
  8
LAYER_1
 10
180.6475
 20
114.6281
  0
VERTEX
  8
LAYER_1
 10
179.2611
 20
114.6281
  0
SEQEND
  0
POLYLINE
  8
LAYER_1
 40
0.0741
 41
0.0741
 66
1
 10
0
 20
0
 30
0
  0
VERTEX
  8
LAYER_1
 10
178.4459
 20
115.7289
  0
VERTEX
  8
LAYER_1
 10
143.0178
 20
115.7289
  0
SEQEND
  0
POLYLINE
  8
LAYER_1
 40
0.0882
 41
0.0882
 66
1
 10
0
 20
0
 30
0
  0
VERTEX
  8
LAYER_1
 10
187.4559
 20
115.3212
  0
VERTEX
  8
LAYER_1
 10
187.415
 20
122.5781
  0
SEQEND
  0
POLYLINE
  8
LAYER_1
 40
0.0882
 41
0.0882
 66
1
 10
0
 20
0
 30
0
  0
VERTEX
  8
LAYER_1
 10
137.4323
 20
115.2396
  0
VERTEX
  8
LAYER_1
 10
137.4323
 20
122.4966
  0
SEQEND
  0
POLYLINE
  8
LAYER_1
 40
0.0882
 41
0.0882
 66
1
 10
0
 20
0
 30
0
  0
VERTEX
  8
LAYER_1
 10
185.9474
 20
122.4557
  0
VERTEX
  8
LAYER_1
 10
164.2175
 20
122.4148
  0
SEQEND
  0
POLYLINE
  8
LAYER_1
 40
0.0882
 41
0.0882
 66
1
 10
0
 20
0
 30
0
  0
VERTEX
  8
LAYER_1
 10
138.9408
 20
122.3742
  0
VERTEX
  8
LAYER_1
 10
158.5914
 20
122.4151
  0
SEQEND
  0
POLYLINE
  8
LAYER_1
 40
0.05
 41
0.05
 66
1
 10
0
 20
0
 30
0
 70
1
  0
VERTEX
  8
LAYER_1
 10
185.9474
 20
122.7004
  0
VERTEX
  8
LAYER_1
 10
185.9474
 20
122.1702
  0
VERTEX
  8
LAYER_1
 10
187.4152
 20
122.4557
  0
SEQEND
  0
POLYLINE
  8
LAYER_1
 40
0.0882
 41
0.0882
 66
1
 10
0
 20
0
 30
0
 70
1
  0
VERTEX
  8
LAYER_1
 10
185.9474
 20
122.7004
  0
VERTEX
  8
LAYER_1
 10
185.9474
 20
122.1702
  0
VERTEX
  8
LAYER_1
 10
187.4152
 20
122.4557
  0
SEQEND
  0
POLYLINE
  8
LAYER_1
 40
0.05
 41
0.05
 66
1
 10
0
 20
0
 30
0
 70
1
  0
VERTEX
  8
LAYER_1
 10
138.9408
 20
122.6188
  0
VERTEX
  8
LAYER_1
 10
138.9408
 20
122.1296
  0
VERTEX
  8
LAYER_1
 10
137.4321
 20
122.3742
  0
SEQEND
  0
POLYLINE
  8
LAYER_1
 40
0.0882
 41
0.0882
 66
1
 10
0
 20
0
 30
0
 70
1
  0
VERTEX
  8
LAYER_1
 10
138.9408
 20
122.6188
  0
VERTEX
  8
LAYER_1
 10
138.9408
 20
122.1296
  0
VERTEX
  8
LAYER_1
 10
137.4321
 20
122.3742
  0
SEQEND
  0
TEXT
  8
LAYER_1
 10
159.1217
 20
121.137
 11
159.1217
 21
121.137
 40
3.1793
 41
0.5
 50
0.4010719504
  1
500
  0
POLYLINE
  8
LAYER_1
 40
0.0882
 41
0.0882
 66
1
 10
0
 20
0
 30
0
  0
VERTEX
  8
LAYER_1
 10
143.3438
 20
115.6881
  0
VERTEX
  8
LAYER_1
 10
143.3438
 20
118.7864
  0
SEQEND
  0
POLYLINE
  8
LAYER_1
 40
0.0882
 41
0.0882
 66
1
 10
0
 20
0
 30
0
  0
VERTEX
  8
LAYER_1
 10
137.4323
 20
115.8104
  0
VERTEX
  8
LAYER_1
 10
137.4323
 20
118.7864
  0
SEQEND
  0
POLYLINE
  8
LAYER_1
 40
0.0882
 41
0.0882
 66
1
 10
0
 20
0
 30
0
  0
VERTEX
  8
LAYER_1
 10
144.8115
 20
118.6642
  0
VERTEX
  8
LAYER_1
 10
146.3201
 20
118.6642
  0
SEQEND
  0
POLYLINE
  8
LAYER_1
 40
0.0882
 41
0.0882
 66
1
 10
0
 20
0
 30
0
  0
VERTEX
  8
LAYER_1
 10
135.9646
 20
118.6642
  0
VERTEX
  8
LAYER_1
 10
134.4563
 20
118.6642
  0
SEQEND
  0
POLYLINE
  8
LAYER_1
 40
0.0882
 41
0.0882
 66
1
 10
0
 20
0
 30
0
  0
VERTEX
  8
LAYER_1
 10
143.3438
 20
118.6642
  0
VERTEX
  8
LAYER_1
 10
142.243
 20
118.6642
  0
SEQEND
  0
POLYLINE
  8
LAYER_1
 40
0.0882
 41
0.0882
 66
1
 10
0
 20
0
 30
0
  0
VERTEX
  8
LAYER_1
 10
137.4323
 20
118.6642
  0
VERTEX
  8
LAYER_1
 10
138.5331
 20
118.6642
  0
SEQEND
  0
POLYLINE
  8
LAYER_1
 40
0.05
 41
0.05
 66
1
 10
0
 20
0
 30
0
 70
1
  0
VERTEX
  8
LAYER_1
 10
144.8115
 20
118.9088
  0
VERTEX
  8
LAYER_1
 10
144.8115
 20
118.4196
  0
VERTEX
  8
LAYER_1
 10
143.3437
 20
118.6642
  0
SEQEND
  0
POLYLINE
  8
LAYER_1
 40
0.0882
 41
0.0882
 66
1
 10
0
 20
0
 30
0
 70
1
  0
VERTEX
  8
LAYER_1
 10
144.8115
 20
118.9088
  0
VERTEX
  8
LAYER_1
 10
144.8115
 20
118.4196
  0
VERTEX
  8
LAYER_1
 10
143.3437
 20
118.6642
  0
SEQEND
  0
POLYLINE
  8
LAYER_1
 40
0.05
 41
0.05
 66
1
 10
0
 20
0
 30
0
 70
1
  0
VERTEX
  8
LAYER_1
 10
135.9646
 20
118.9088
  0
VERTEX
  8
LAYER_1
 10
135.9646
 20
118.4196
  0
VERTEX
  8
LAYER_1
 10
137.4324
 20
118.6642
  0
SEQEND
  0
POLYLINE
  8
LAYER_1
 40
0.0882
 41
0.0882
 66
1
 10
0
 20
0
 30
0
 70
1
  0
VERTEX
  8
LAYER_1
 10
135.9646
 20
118.9088
  0
VERTEX
  8
LAYER_1
 10
135.9646
 20
118.4196
  0
VERTEX
  8
LAYER_1
 10
137.4324
 20
118.6642
  0
SEQEND
  0
TEXT
  8
LAYER_1
 10
138.8515
 20
117.441
 11
138.8515
 21
117.441
 40
3.1793
 41
0.5
  1
60
  0
POLYLINE
  8
LAYER_1
 40
0.0882
 41
0.0882
 66
1
 10
0
 20
0
 30
0
  0
VERTEX
  8
LAYER_1
 10
143.3438
 20
115.8104
  0
VERTEX
  8
LAYER_1
 10
143.3438
 20
118.7864
  0
SEQEND
  0
POLYLINE
  8
LAYER_1
 40
0.0882
 41
0.0882
 66
1
 10
0
 20
0
 30
0
  0
VERTEX
  8
LAYER_1
 10
178.4459
 20
115.8104
  0
VERTEX
  8
LAYER_1
 10
178.4459
 20
118.7864
  0
SEQEND
  0
POLYLINE
  8
LAYER_1
 40
0.0882
 41
0.0882
 66
1
 10
0
 20
0
 30
0
  0
VERTEX
  8
LAYER_1
 10
144.8115
 20
118.6642
  0
VERTEX
  8
LAYER_1
 10
158.0613
 20
118.6642
  0
SEQEND
  0
POLYLINE
  8
LAYER_1
 40
0.0882
 41
0.0882
 66
1
 10
0
 20
0
 30
0
  0
VERTEX
  8
LAYER_1
 10
176.9375
 20
118.6642
  0
VERTEX
  8
LAYER_1
 10
163.6876
 20
118.6642
  0
SEQEND
  0
POLYLINE
  8
LAYER_1
 40
0.05
 41
0.05
 66
1
 10
0
 20
0
 30
0
 70
1
  0
VERTEX
  8
LAYER_1
 10
144.8115
 20
118.9088
  0
VERTEX
  8
LAYER_1
 10
144.8115
 20
118.4196
  0
VERTEX
  8
LAYER_1
 10
143.3437
 20
118.6642
  0
SEQEND
  0
POLYLINE
  8
LAYER_1
 40
0.0882
 41
0.0882
 66
1
 10
0
 20
0
 30
0
 70
1
  0
VERTEX
  8
LAYER_1
 10
144.8115
 20
118.9088
  0
VERTEX
  8
LAYER_1
 10
144.8115
 20
118.4196
  0
VERTEX
  8
LAYER_1
 10
143.3437
 20
118.6642
  0
SEQEND
  0
POLYLINE
  8
LAYER_1
 40
0.05
 41
0.05
 66
1
 10
0
 20
0
 30
0
 70
1
  0
VERTEX
  8
LAYER_1
 10
176.9375
 20
118.9088
  0
VERTEX
  8
LAYER_1
 10
176.9375
 20
118.4196
  0
VERTEX
  8
LAYER_1
 10
178.4461
 20
118.6642
  0
SEQEND
  0
POLYLINE
  8
LAYER_1
 40
0.0882
 41
0.0882
 66
1
 10
0
 20
0
 30
0
 70
1
  0
VERTEX
  8
LAYER_1
 10
176.9375
 20
118.9088
  0
VERTEX
  8
LAYER_1
 10
176.9375
 20
118.4196
  0
VERTEX
  8
LAYER_1
 10
178.4461
 20
118.6642
  0
SEQEND
  0
TEXT
  8
LAYER_1
 10
158.5796
 20
117.441
 11
158.5796
 21
117.441
 40
3.1793
 41
0.5
  1
350
  0
POLYLINE
  8
LAYER_1
 40
0.0882
 41
0.0882
 66
1
 10
0
 20
0
 30
0
  0
VERTEX
  8
LAYER_1
 10
83.0227
 20
146.7135
  0
VERTEX
  8
LAYER_1
 10
82.9413
 20
146.7135
  0
SEQEND
  0
POLYLINE
  8
LAYER_1
 40
0.0882
 41
0.0882
 66
1
 10
0
 20
0
 30
0
  0
VERTEX
  8
LAYER_1
 10
83.0227
 20
152.2173
  0
VERTEX
  8
LAYER_1
 10
82.9413
 20
152.2173
  0
SEQEND
  0
POLYLINE
  8
LAYER_1
 40
0.0882
 41
0.0882
 66
1
 10
0
 20
0
 30
0
  0
VERTEX
  8
LAYER_1
 10
83.0635
 20
145.205
  0
VERTEX
  8
LAYER_1
 10
83.0635
 20
143.6964
  0
SEQEND
  0
POLYLINE
  8
LAYER_1
 40
0.0882
 41
0.0882
 66
1
 10
0
 20
0
 30
0
  0
VERTEX
  8
LAYER_1
 10
83.0635
 20
153.685
  0
VERTEX
  8
LAYER_1
 10
83.0635
 20
155.1936
  0
SEQEND
  0
POLYLINE
  8
LAYER_1
 40
0.0882
 41
0.0882
 66
1
 10
0
 20
0
 30
0
  0
VERTEX
  8
LAYER_1
 10
83.0635
 20
146.7135
  0
VERTEX
  8
LAYER_1
 10
83.0635
 20
147.6106
  0
SEQEND
  0
POLYLINE
  8
LAYER_1
 40
0.0882
 41
0.0882
 66
1
 10
0
 20
0
 30
0
  0
VERTEX
  8
LAYER_1
 10
83.0635
 20
152.2173
  0
VERTEX
  8
LAYER_1
 10
83.0635
 20
151.3202
  0
SEQEND
  0
POLYLINE
  8
LAYER_1
 40
0.05
 41
0.05
 66
1
 10
0
 20
0
 30
0
 70
1
  0
VERTEX
  8
LAYER_1
 10
82.8189
 20
145.205
  0
VERTEX
  8
LAYER_1
 10
83.3081
 20
145.205
  0
VERTEX
  8
LAYER_1
 10
83.0635
 20
146.7137
  0
SEQEND
  0
POLYLINE
  8
LAYER_1
 40
0.0882
 41
0.0882
 66
1
 10
0
 20
0
 30
0
 70
1
  0
VERTEX
  8
LAYER_1
 10
82.8189
 20
145.205
  0
VERTEX
  8
LAYER_1
 10
83.3081
 20
145.205
  0
VERTEX
  8
LAYER_1
 10
83.0635
 20
146.7137
  0
SEQEND
  0
POLYLINE
  8
LAYER_1
 40
0.05
 41
0.05
 66
1
 10
0
 20
0
 30
0
 70
1
  0
VERTEX
  8
LAYER_1
 10
82.8189
 20
153.685
  0
VERTEX
  8
LAYER_1
 10
83.3081
 20
153.685
  0
VERTEX
  8
LAYER_1
 10
83.0635
 20
152.2172
  0
SEQEND
  0
POLYLINE
  8
LAYER_1
 40
0.0882
 41
0.0882
 66
1
 10
0
 20
0
 30
0
 70
1
  0
VERTEX
  8
LAYER_1
 10
82.8189
 20
153.685
  0
VERTEX
  8
LAYER_1
 10
83.3081
 20
153.685
  0
VERTEX
  8
LAYER_1
 10
83.0635
 20
152.2172
  0
SEQEND
  0
TEXT
  8
LAYER_1
 10
84.2865
 20
147.9036
 11
84.2865
 21
147.9036
 40
3.1793
 41
0.5
 50
89.99999999
  1
55
  0
INSERT
  8
LAYER_1
  2
AIGNBL0101006B
 10
0
 20
0
 30
0
  0
TEXT
  8
LAYER_1
 10
80.6644
 20
187.593
 11
80.6644
 21
187.593
 40
2.9144
 41
0.5
  1
ｯ35
  0
ENDSEC
  0
EOF
