  0
SECTION
  2
HEADER
  9
$ACADVER
  1
AC1009
  9
$LUNITS
 70
2
  9
$LUPREC
 70
4
  9
$LTSCALE
 40
1.0
  9
$EXTMIN
 10
-30.3177
 20
33.3285
 30
0
  9
$EXTMAX
 10
251.6749
 20
230.337
 30
0
  0
ENDSEC
  0
SECTION
  2
TABLES
  0
TABLE
  2
LTYPE
 70
256
  0
ENDTAB
  0
TABLE
  2
LAYER
 70
2
  0
LAYER
  2
LAYER_1
 70
64
 62
7
  6
CONTINUOUS
  0
LAYER
  2
LAYER_2
 70
64
 62
7
  6
CONTINUOUS
  0
ENDTAB
  0
TABLE
  2
STYLE
 70
6
  0
STYLE
  2
STANDARD
 70
0
 40
0
 50
0
 71
0
 41
0
 42
0
  3
TXT
  4
BIGFONT
  0
ENDTAB
  0
ENDSEC
  0
SECTION
  2
BLOCKS
  0
BLOCK
  8
LAYER_2
  2
AIGNBL02040009
 70
64
 10
0
 20
0
 30
0
  3
AIGNBL02040009
  0
POLYLINE
  8
LAYER_2
 40
0.05
 41
0.05
 66
1
 10
0
 20
0
 30
0
 70
1
  0
VERTEX
  8
LAYER_2
 10
106.4059
 20
39.1418
  0
VERTEX
  8
LAYER_2
 10
105.917
 20
37.9567
  0
VERTEX
  8
LAYER_2
 10
105.289
 20
37.9567
  0
VERTEX
  8
LAYER_2
 10
106.8885
 20
41.7225
  0
VERTEX
  8
LAYER_2
 10
107.6217
 20
41.7225
  0
VERTEX
  8
LAYER_2
 10
109.2281
 20
37.9567
  0
VERTEX
  8
LAYER_2
 10
108.578
 20
37.9567
  0
VERTEX
  8
LAYER_2
 10
108.0754
 20
39.1418
  0
SEQEND
  0
POLYLINE
  8
LAYER_2
 40
0.05
 41
0.05
 66
1
 10
0
 20
0
 30
0
 70
1
  0
VERTEX
  8
LAYER_2
 10
107.9496
 20
39.5207
  0
VERTEX
  8
LAYER_2
 10
107.4887
 20
40.6056
  0
VERTEX
  8
LAYER_2
 10
107.2441
 20
41.2926
  0
VERTEX
  8
LAYER_2
 10
107.2303
 20
41.2926
  0
VERTEX
  8
LAYER_2
 10
106.9926
 20
40.6101
  0
VERTEX
  8
LAYER_2
 10
106.532
 20
39.5207
  0
SEQEND
  0
ENDBLK
  0
BLOCK
  8
LAYER_2
  2
AIGNBL0204000A
 70
64
 10
0
 20
0
 30
0
  3
AIGNBL0204000A
  0
POLYLINE
  8
LAYER_2
 40
0.05
 41
0.05
 66
1
 10
0
 20
0
 30
0
 70
1
  0
VERTEX
  8
LAYER_2
 10
113.5934
 20
37.4034
 42
-0.01559967508
  0
VERTEX
  8
LAYER_2
 10
111.7913
 20
37.8395
  0
VERTEX
  8
LAYER_2
 10
111.5046
 20
37.895
 42
-0.08356944747
  0
VERTEX
  8
LAYER_2
 10
110.6406
 20
38.0612
 42
-0.0975043791
  0
VERTEX
  8
LAYER_2
 10
109.9794
 20
38.4671
 42
-0.2129077902
  0
VERTEX
  8
LAYER_2
 10
109.4307
 20
39.7998
 42
-0.0968494152
  0
VERTEX
  8
LAYER_2
 10
109.5753
 20
40.5732
 42
-0.2046438079
  0
VERTEX
  8
LAYER_2
 10
110.6228
 20
41.5974
 42
-0.09824750395
  0
VERTEX
  8
LAYER_2
 10
111.6238
 20
41.7838
 42
-0.08554009695
  0
VERTEX
  8
LAYER_2
 10
112.4924
 20
41.6425
 42
-0.1004336034
  0
VERTEX
  8
LAYER_2
 10
113.1575
 20
41.2483
 42
-0.2141019095
  0
VERTEX
  8
LAYER_2
 10
113.7329
 20
39.8784
 42
-0.09539620281
  0
VERTEX
  8
LAYER_2
 10
113.594
 20
39.1106
 42
-0.2143310008
  0
VERTEX
  8
LAYER_2
 10
112.5712
 20
38.1321
 42
-0.02339132607
  0
VERTEX
  8
LAYER_2
 10
112.3921
 20
38.0738
  0
VERTEX
  8
LAYER_2
 10
112.3921
 20
38.0514
 42
0.01711831943
  0
VERTEX
  8
LAYER_2
 10
113.7684
 20
37.8113
  0
SEQEND
  0
POLYLINE
  8
LAYER_2
 40
0.05
 41
0.05
 66
1
 10
0
 20
0
 30
0
 70
1
  0
VERTEX
  8
LAYER_2
 10
113.0907
 20
39.857
 42
0.1071543648
  0
VERTEX
  8
LAYER_2
 10
112.9394
 20
40.5618
 42
0.2976507644
  0
VERTEX
  8
LAYER_2
 10
111.6024
 20
41.3873
 42
0.1072363269
  0
VERTEX
  8
LAYER_2
 10
110.9126
 20
41.2478
 42
0.2386054241
  0
VERTEX
  8
LAYER_2
 10
110.1257
 20
40.2422
 42
0.05752774583
  0
VERTEX
  8
LAYER_2
 10
110.0801
 20
39.8122
 42
0.218096749
  0
VERTEX
  8
LAYER_2
 10
110.6107
 20
38.6168
 42
0.1772796408
  0
VERTEX
  8
LAYER_2
 10
111.5745
 20
38.2912
 42
0.1075185771
  0
VERTEX
  8
LAYER_2
 10
112.2559
 20
38.4302
 42
0.2370926009
  0
VERTEX
  8
LAYER_2
 10
113.043
 20
39.4298
 42
0.05601310134
  0
SEQEND
  0
ENDBLK
  0
BLOCK
  8
LAYER_2
  2
AIGNBL0204000B
 70
64
 10
0
 20
0
 30
0
  3
AIGNBL0204000B
  0
POLYLINE
  8
LAYER_2
 40
0.05
 41
0.05
 66
1
 10
0
 20
0
 30
0
 70
1
  0
VERTEX
  8
LAYER_2
 10
115.0603
 20
41.7225
  0
VERTEX
  8
LAYER_2
 10
115.0603
 20
39.4932
 42
0.114533087
  0
VERTEX
  8
LAYER_2
 10
115.1942
 20
38.8274
 42
0.1464774934
  0
VERTEX
  8
LAYER_2
 10
115.5446
 20
38.4422
 42
0.1362552487
  0
VERTEX
  8
LAYER_2
 10
116.1569
 20
38.2912
 42
0.1219300979
  0
VERTEX
  8
LAYER_2
 10
116.78
 20
38.4259
 42
0.1503016186
  0
VERTEX
  8
LAYER_2
 10
117.1518
 20
38.7949
 42
0.1256239276
  0
VERTEX
  8
LAYER_2
 10
117.3024
 20
39.4932
  0
VERTEX
  8
LAYER_2
 10
117.3024
 20
41.7225
  0
VERTEX
  8
LAYER_2
 10
117.917
 20
41.7225
  0
VERTEX
  8
LAYER_2
 10
117.917
 20
39.5266
 42
-0.09997505101
  0
VERTEX
  8
LAYER_2
 10
117.7821
 20
38.7839
 42
-0.1214984503
  0
VERTEX
  8
LAYER_2
 10
117.4088
 20
38.2772
 42
-0.1106235892
  0
VERTEX
  8
LAYER_2
 10
116.7834
 20
37.9706
 42
-0.06128954947
  0
VERTEX
  8
LAYER_2
 10
116.1359
 20
37.895
 42
-0.09418225932
  0
VERTEX
  8
LAYER_2
 10
115.3167
 20
38.0331
 42
-0.2431666463
  0
VERTEX
  8
LAYER_2
 10
114.5132
 20
38.9438
 42
-0.06320556818
  0
VERTEX
  8
LAYER_2
 10
114.4457
 20
39.5045
  0
VERTEX
  8
LAYER_2
 10
114.4457
 20
41.7225
  0
SEQEND
  0
ENDBLK
  0
BLOCK
  8
LAYER_2
  2
AIGNBL0204000C
 70
64
 10
0
 20
0
 30
0
  3
AIGNBL0204000C
  0
POLYLINE
  8
LAYER_2
 40
0.05
 41
0.05
 66
1
 10
0
 20
0
 30
0
 70
1
  0
VERTEX
  8
LAYER_2
 10
119.6633
 20
39.1418
  0
VERTEX
  8
LAYER_2
 10
119.1741
 20
37.9567
  0
VERTEX
  8
LAYER_2
 10
118.5461
 20
37.9567
  0
VERTEX
  8
LAYER_2
 10
120.1453
 20
41.7225
  0
VERTEX
  8
LAYER_2
 10
120.8784
 20
41.7225
  0
VERTEX
  8
LAYER_2
 10
122.4848
 20
37.9567
  0
VERTEX
  8
LAYER_2
 10
121.8354
 20
37.9567
  0
VERTEX
  8
LAYER_2
 10
121.3328
 20
39.1418
  0
SEQEND
  0
POLYLINE
  8
LAYER_2
 40
0.05
 41
0.05
 66
1
 10
0
 20
0
 30
0
 70
1
  0
VERTEX
  8
LAYER_2
 10
121.2067
 20
39.5207
  0
VERTEX
  8
LAYER_2
 10
120.7454
 20
40.6056
  0
VERTEX
  8
LAYER_2
 10
120.5008
 20
41.2926
  0
VERTEX
  8
LAYER_2
 10
120.487
 20
41.2926
  0
VERTEX
  8
LAYER_2
 10
120.2497
 20
40.6101
  0
VERTEX
  8
LAYER_2
 10
119.7887
 20
39.5207
  0
SEQEND
  0
ENDBLK
  0
BLOCK
  8
LAYER_2
  2
AIGNBL0204000D
 70
64
 10
0
 20
0
 30
0
  3
AIGNBL0204000D
  0
POLYLINE
  8
LAYER_2
 40
0.05
 41
0.05
 66
1
 10
0
 20
0
 30
0
 70
1
  0
VERTEX
  8
LAYER_2
 10
123.5256
 20
41.6777
 42
-0.03245981043
  0
VERTEX
  8
LAYER_2
 10
124.6924
 20
41.7508
 42
-0.08083972759
  0
VERTEX
  8
LAYER_2
 10
125.6489
 20
41.619
 42
-0.0781591286
  0
VERTEX
  8
LAYER_2
 10
126.0123
 20
41.4379
 42
-0.2484156816
  0
VERTEX
  8
LAYER_2
 10
126.4239
 20
40.6497
 42
-0.226147
  0
VERTEX
  8
LAYER_2
 10
126.0608
 20
39.8456
 42
-0.1097236176
  0
VERTEX
  8
LAYER_2
 10
125.4326
 20
39.5323
 42
-0.06566039781
  0
VERTEX
  8
LAYER_2
 10
124.6222
 20
39.4319
 42
-0.06233087798
  0
VERTEX
  8
LAYER_2
 10
124.1336
 20
39.4653
  0
VERTEX
  8
LAYER_2
 10
124.1336
 20
37.9567
  0
VERTEX
  8
LAYER_2
 10
123.5256
 20
37.9567
  0
SEQEND
  0
POLYLINE
  8
LAYER_2
 40
0.05
 41
0.05
 66
1
 10
0
 20
0
 30
0
 70
1
  0
VERTEX
  8
LAYER_2
 10
124.1336
 20
39.8622
 42
0.04202445636
  0
VERTEX
  8
LAYER_2
 10
124.636
 20
39.8229
 42
0.1032184983
  0
VERTEX
  8
LAYER_2
 10
125.3551
 20
39.9502
 42
0.1555899564
  0
VERTEX
  8
LAYER_2
 10
125.7199
 20
40.2546
 42
0.1352638191
  0
VERTEX
  8
LAYER_2
 10
125.8169
 20
40.6273
 42
0.1736824711
  0
VERTEX
  8
LAYER_2
 10
125.6821
 20
41.0346
 42
0.151721714
  0
VERTEX
  8
LAYER_2
 10
125.261
 20
41.2941
 42
0.06880216409
  0
VERTEX
  8
LAYER_2
 10
124.7066
 20
41.3649
 42
0.06337515897
  0
VERTEX
  8
LAYER_2
 10
124.1336
 20
41.3257
  0
SEQEND
  0
ENDBLK
  0
BLOCK
  8
LAYER_2
  2
AIGNBL0204000E
 70
64
 10
0
 20
0
 30
0
  3
AIGNBL0204000E
  0
POLYLINE
  8
LAYER_2
 40
0.05
 41
0.05
 66
1
 10
0
 20
0
 30
0
 70
1
  0
VERTEX
  8
LAYER_2
 10
127.976
 20
41.4207
 42
-0.276556311
  0
VERTEX
  8
LAYER_2
 10
127.8364
 20
41.1806
 42
-0.1265551601
  0
VERTEX
  8
LAYER_2
 10
127.5843
 20
41.1189
 42
-0.22367962
  0
VERTEX
  8
LAYER_2
 10
127.274
 20
41.2513
 42
-0.170907845
  0
VERTEX
  8
LAYER_2
 10
127.2139
 20
41.4207
 42
-0.2643879937
  0
VERTEX
  8
LAYER_2
 10
127.3633
 20
41.6678
 42
-0.1290073663
  0
VERTEX
  8
LAYER_2
 10
127.598
 20
41.7277
 42
-0.2252702025
  0
VERTEX
  8
LAYER_2
 10
127.9149
 20
41.597
 42
-0.1691869544
  0
SEQEND
  0
POLYLINE
  8
LAYER_2
 40
0.05
 41
0.05
 66
1
 10
0
 20
0
 30
0
 70
1
  0
VERTEX
  8
LAYER_2
 10
127.2904
 20
37.9567
  0
VERTEX
  8
LAYER_2
 10
127.2904
 20
40.6607
  0
VERTEX
  8
LAYER_2
 10
127.905
 20
40.6607
  0
VERTEX
  8
LAYER_2
 10
127.905
 20
37.9567
  0
SEQEND
  0
ENDBLK
  0
BLOCK
  8
LAYER_2
  2
AIGNBL0204000F
 70
64
 10
0
 20
0
 30
0
  3
AIGNBL0204000F
  0
POLYLINE
  8
LAYER_2
 40
0.05
 41
0.05
 66
1
 10
0
 20
0
 30
0
 70
1
  0
VERTEX
  8
LAYER_2
 10
129.7767
 20
39.1418
  0
VERTEX
  8
LAYER_2
 10
129.2885
 20
37.9567
  0
VERTEX
  8
LAYER_2
 10
128.6595
 20
37.9567
  0
VERTEX
  8
LAYER_2
 10
130.259
 20
41.7225
  0
VERTEX
  8
LAYER_2
 10
130.9928
 20
41.7225
  0
VERTEX
  8
LAYER_2
 10
132.5993
 20
37.9567
  0
VERTEX
  8
LAYER_2
 10
131.9495
 20
37.9567
  0
VERTEX
  8
LAYER_2
 10
131.4469
 20
39.1418
  0
SEQEND
  0
POLYLINE
  8
LAYER_2
 40
0.05
 41
0.05
 66
1
 10
0
 20
0
 30
0
 70
1
  0
VERTEX
  8
LAYER_2
 10
131.3208
 20
39.5207
  0
VERTEX
  8
LAYER_2
 10
130.8598
 20
40.6056
  0
VERTEX
  8
LAYER_2
 10
130.6159
 20
41.2926
  0
VERTEX
  8
LAYER_2
 10
130.6011
 20
41.2926
  0
VERTEX
  8
LAYER_2
 10
130.3641
 20
40.6101
  0
VERTEX
  8
LAYER_2
 10
129.9031
 20
39.5207
  0
SEQEND
  0
ENDBLK
  0
BLOCK
  8
LAYER_2
  2
AIGNBL02030008
 70
64
 10
0
 20
0
 30
0
  3
AIGNBL02030008
  0
INSERT
  8
LAYER_2
  2
AIGNBL02040009
 10
0
 20
0
 30
0
  0
INSERT
  8
LAYER_2
  2
AIGNBL0204000A
 10
0
 20
0
 30
0
  0
INSERT
  8
LAYER_2
  2
AIGNBL0204000B
 10
0
 20
0
 30
0
  0
INSERT
  8
LAYER_2
  2
AIGNBL0204000C
 10
0
 20
0
 30
0
  0
INSERT
  8
LAYER_2
  2
AIGNBL0204000D
 10
0
 20
0
 30
0
  0
INSERT
  8
LAYER_2
  2
AIGNBL0204000E
 10
0
 20
0
 30
0
  0
INSERT
  8
LAYER_2
  2
AIGNBL0204000F
 10
0
 20
0
 30
0
  0
ENDBLK
  0
BLOCK
  8
LAYER_2
  2
AIGNBL02030011
 70
64
 10
0
 20
0
 30
0
  3
AIGNBL02030011
  0
POLYLINE
  8
LAYER_2
 40
0.05
 41
0.05
 66
1
 10
0
 20
0
 30
0
 70
1
  0
VERTEX
  8
LAYER_2
 10
105.3989
 20
36.0574
  0
VERTEX
  8
LAYER_2
 10
105.9521
 20
36.0574
  0
VERTEX
  8
LAYER_2
 10
105.9521
 20
35.9637
  0
VERTEX
  8
LAYER_2
 10
105.2938
 20
35.9637
  0
VERTEX
  8
LAYER_2
 10
105.2938
 20
36.9969
  0
VERTEX
  8
LAYER_2
 10
105.9346
 20
36.9969
  0
VERTEX
  8
LAYER_2
 10
105.9346
 20
36.9035
  0
VERTEX
  8
LAYER_2
 10
105.3989
 20
36.9035
  0
VERTEX
  8
LAYER_2
 10
105.3989
 20
36.549
  0
VERTEX
  8
LAYER_2
 10
105.8994
 20
36.549
  0
VERTEX
  8
LAYER_2
 10
105.8994
 20
36.4557
  0
VERTEX
  8
LAYER_2
 10
105.3989
 20
36.4557
  0
SEQEND
  0
ENDBLK
  0
BLOCK
  8
LAYER_2
  2
AIGNBL02030012
 70
64
 10
0
 20
0
 30
0
  3
AIGNBL02030012
  0
POLYLINE
  8
LAYER_2
 40
0.05
 41
0.05
 66
1
 10
0
 20
0
 30
0
 70
1
  0
VERTEX
  8
LAYER_2
 10
107.0918
 20
36.117
  0
VERTEX
  8
LAYER_2
 10
107.0945
 20
36.117
  0
VERTEX
  8
LAYER_2
 10
107.0945
 20
36.9969
  0
VERTEX
  8
LAYER_2
 10
107.1996
 20
36.9969
  0
VERTEX
  8
LAYER_2
 10
107.1996
 20
35.9637
  0
VERTEX
  8
LAYER_2
 10
107.0687
 20
35.9637
  0
VERTEX
  8
LAYER_2
 10
106.4676
 20
36.8525
  0
VERTEX
  8
LAYER_2
 10
106.4641
 20
36.8525
  0
VERTEX
  8
LAYER_2
 10
106.4641
 20
35.9637
  0
VERTEX
  8
LAYER_2
 10
106.3594
 20
35.9637
  0
VERTEX
  8
LAYER_2
 10
106.3594
 20
36.9969
  0
VERTEX
  8
LAYER_2
 10
106.4906
 20
36.9969
  0
SEQEND
  0
ENDBLK
  0
BLOCK
  8
LAYER_2
  2
AIGNBL02030013
 70
64
 10
0
 20
0
 30
0
  3
AIGNBL02030013
  0
POLYLINE
  8
LAYER_2
 40
0.05
 41
0.05
 66
1
 10
0
 20
0
 30
0
 70
1
  0
VERTEX
  8
LAYER_2
 10
107.6726
 20
36.1756
  0
VERTEX
  8
LAYER_2
 10
107.7271
 20
36.0725
 42
0.1804993832
  0
VERTEX
  8
LAYER_2
 10
107.8404
 20
36.0309
  0
VERTEX
  8
LAYER_2
 10
107.9296
 20
36.0505
  0
VERTEX
  8
LAYER_2
 10
107.9858
 20
36.1039
  0
VERTEX
  8
LAYER_2
 10
108.0147
 20
36.1804
  0
VERTEX
  8
LAYER_2
 10
108.023
 20
36.27
  0
VERTEX
  8
LAYER_2
 10
108.023
 20
36.9969
  0
VERTEX
  8
LAYER_2
 10
108.1281
 20
36.9969
  0
VERTEX
  8
LAYER_2
 10
108.1281
 20
36.2614
  0
VERTEX
  8
LAYER_2
 10
108.1167
 20
36.1535
  0
VERTEX
  8
LAYER_2
 10
108.0754
 20
36.0485
  0
VERTEX
  8
LAYER_2
 10
107.9906
 20
35.9689
  0
VERTEX
  8
LAYER_2
 10
107.8518
 20
35.9375
 42
-0.1842921564
  0
VERTEX
  8
LAYER_2
 10
107.6671
 20
35.9974
 42
-0.176191571
  0
VERTEX
  8
LAYER_2
 10
107.5748
 20
36.149
  0
SEQEND
  0
ENDBLK
  0
BLOCK
  8
LAYER_2
  2
AIGNBL02030014
 70
64
 10
0
 20
0
 30
0
  3
AIGNBL02030014
  0
POLYLINE
  8
LAYER_2
 40
0.05
 41
0.05
 66
1
 10
0
 20
0
 30
0
 70
1
  0
VERTEX
  8
LAYER_2
 10
109.6164
 20
36.4805
 42
-0.103587114
  0
VERTEX
  8
LAYER_2
 10
109.5754
 20
36.2631
 42
-0.1000549391
  0
VERTEX
  8
LAYER_2
 10
109.4627
 20
36.0915
  0
VERTEX
  8
LAYER_2
 10
109.2918
 20
35.9785
 42
-0.09506675375
  0
VERTEX
  8
LAYER_2
 10
109.0779
 20
35.9375
 42
-0.1010765979
  0
VERTEX
  8
LAYER_2
 10
108.8643
 20
35.9785
 42
-0.1005668876
  0
VERTEX
  8
LAYER_2
 10
108.6934
 20
36.0915
 42
-0.09506076213
  0
VERTEX
  8
LAYER_2
 10
108.5801
 20
36.2631
 42
-0.0931359716
  0
VERTEX
  8
LAYER_2
 10
108.5394
 20
36.4805
 42
-0.1022959507
  0
VERTEX
  8
LAYER_2
 10
108.5801
 20
36.6978
 42
-0.1008913794
  0
VERTEX
  8
LAYER_2
 10
108.6934
 20
36.8694
 42
-0.09625543395
  0
VERTEX
  8
LAYER_2
 10
108.8643
 20
36.9824
 42
-0.0952064105
  0
VERTEX
  8
LAYER_2
 10
109.0779
 20
37.0234
 42
-0.101175466
  0
VERTEX
  8
LAYER_2
 10
109.2918
 20
36.9824
 42
-0.09853409661
  0
VERTEX
  8
LAYER_2
 10
109.4627
 20
36.8694
 42
-0.09576191851
  0
VERTEX
  8
LAYER_2
 10
109.5754
 20
36.6978
 42
-0.09397271416
  0
SEQEND
  0
POLYLINE
  8
LAYER_2
 40
0.05
 41
0.05
 66
1
 10
0
 20
0
 30
0
 70
1
  0
VERTEX
  8
LAYER_2
 10
109.5054
 20
36.4798
  0
VERTEX
  8
LAYER_2
 10
109.4765
 20
36.6517
  0
VERTEX
  8
LAYER_2
 10
109.3917
 20
36.795
  0
VERTEX
  8
LAYER_2
 10
109.2567
 20
36.8932
  0
VERTEX
  8
LAYER_2
 10
109.0779
 20
36.93
  0
VERTEX
  8
LAYER_2
 10
108.8991
 20
36.8932
  0
VERTEX
  8
LAYER_2
 10
108.7644
 20
36.795
  0
VERTEX
  8
LAYER_2
 10
108.6796
 20
36.6517
  0
VERTEX
  8
LAYER_2
 10
108.6504
 20
36.4798
  0
VERTEX
  8
LAYER_2
 10
108.6796
 20
36.3079
  0
VERTEX
  8
LAYER_2
 10
108.7644
 20
36.1649
  0
VERTEX
  8
LAYER_2
 10
108.8991
 20
36.0674
 42
0.1008257054
  0
VERTEX
  8
LAYER_2
 10
109.0779
 20
36.0309
  0
VERTEX
  8
LAYER_2
 10
109.2567
 20
36.0674
  0
VERTEX
  8
LAYER_2
 10
109.3917
 20
36.1649
  0
VERTEX
  8
LAYER_2
 10
109.4765
 20
36.3079
  0
SEQEND
  0
ENDBLK
  0
BLOCK
  8
LAYER_2
  2
AIGNBL02030015
 70
64
 10
0
 20
0
 30
0
  3
AIGNBL02030015
  0
POLYLINE
  8
LAYER_2
 40
0.05
 41
0.05
 66
1
 10
0
 20
0
 30
0
 70
1
  0
VERTEX
  8
LAYER_2
 10
110.3911
 20
35.9637
  0
VERTEX
  8
LAYER_2
 10
110.2864
 20
35.9637
  0
VERTEX
  8
LAYER_2
 10
110.2864
 20
36.4091
  0
VERTEX
  8
LAYER_2
 10
109.8996
 20
36.9969
  0
VERTEX
  8
LAYER_2
 10
110.0308
 20
36.9969
  0
VERTEX
  8
LAYER_2
 10
110.3419
 20
36.4967
  0
VERTEX
  8
LAYER_2
 10
110.6554
 20
36.9969
  0
VERTEX
  8
LAYER_2
 10
110.7777
 20
36.9969
  0
VERTEX
  8
LAYER_2
 10
110.3911
 20
36.4091
  0
SEQEND
  0
ENDBLK
  0
BLOCK
  8
LAYER_2
  2
AIGNBL02030016
 70
64
 10
0
 20
0
 30
0
  3
AIGNBL02030016
  0
POLYLINE
  8
LAYER_2
 40
0.05
 41
0.05
 66
1
 10
0
 20
0
 30
0
 70
1
  0
VERTEX
  8
LAYER_2
 10
111.6827
 20
36.9969
  0
VERTEX
  8
LAYER_2
 10
111.9904
 20
36.9969
  0
VERTEX
  8
LAYER_2
 10
112.1089
 20
36.9845
  0
VERTEX
  8
LAYER_2
 10
112.2157
 20
36.9421
  0
VERTEX
  8
LAYER_2
 10
112.2935
 20
36.8611
  0
VERTEX
  8
LAYER_2
 10
112.3232
 20
36.733
 42
-0.1787887146
  0
VERTEX
  8
LAYER_2
 10
112.2732
 20
36.5907
 42
-0.1642670326
  0
VERTEX
  8
LAYER_2
 10
112.1399
 20
36.5111
  0
VERTEX
  8
LAYER_2
 10
112.1399
 20
36.5084
 42
-0.1734673322
  0
VERTEX
  8
LAYER_2
 10
112.3066
 20
36.4302
 42
-0.1923000161
  0
VERTEX
  8
LAYER_2
 10
112.3728
 20
36.2496
  0
VERTEX
  8
LAYER_2
 10
112.3456
 20
36.1325
  0
VERTEX
  8
LAYER_2
 10
112.2694
 20
36.0419
  0
VERTEX
  8
LAYER_2
 10
112.1485
 20
35.9844
  0
VERTEX
  8
LAYER_2
 10
111.9887
 20
35.9637
  0
VERTEX
  8
LAYER_2
 10
111.6827
 20
35.9637
  0
SEQEND
  0
POLYLINE
  8
LAYER_2
 40
0.05
 41
0.05
 66
1
 10
0
 20
0
 30
0
 70
1
  0
VERTEX
  8
LAYER_2
 10
111.7878
 20
36.5445
  0
VERTEX
  8
LAYER_2
 10
111.9993
 20
36.5445
  0
VERTEX
  8
LAYER_2
 10
112.0762
 20
36.5535
  0
VERTEX
  8
LAYER_2
 10
112.1464
 20
36.5831
  0
VERTEX
  8
LAYER_2
 10
112.1985
 20
36.6396
  0
VERTEX
  8
LAYER_2
 10
112.2181
 20
36.7258
  0
VERTEX
  8
LAYER_2
 10
112.1985
 20
36.8095
  0
VERTEX
  8
LAYER_2
 10
112.1454
 20
36.8656
  0
VERTEX
  8
LAYER_2
 10
112.0665
 20
36.897
  0
VERTEX
  8
LAYER_2
 10
111.97
 20
36.9066
  0
VERTEX
  8
LAYER_2
 10
111.7878
 20
36.9066
  0
SEQEND
  0
POLYLINE
  8
LAYER_2
 40
0.05
 41
0.05
 66
1
 10
0
 20
0
 30
0
 70
1
  0
VERTEX
  8
LAYER_2
 10
111.7878
 20
36.0543
  0
VERTEX
  8
LAYER_2
 10
111.9835
 20
36.0543
  0
VERTEX
  8
LAYER_2
 10
112.092
 20
36.0653
  0
VERTEX
  8
LAYER_2
 10
112.1826
 20
36.1001
  0
VERTEX
  8
LAYER_2
 10
112.2443
 20
36.1632
  0
VERTEX
  8
LAYER_2
 10
112.2677
 20
36.2559
 42
0.2554060681
  0
VERTEX
  8
LAYER_2
 10
112.1985
 20
36.4081
 42
0.1380642909
  0
VERTEX
  8
LAYER_2
 10
112.0024
 20
36.4584
  0
VERTEX
  8
LAYER_2
 10
111.7878
 20
36.4584
  0
SEQEND
  0
ENDBLK
  0
BLOCK
  8
LAYER_2
  2
AIGNBL02030017
 70
64
 10
0
 20
0
 30
0
  3
AIGNBL02030017
  0
POLYLINE
  8
LAYER_2
 40
0.05
 41
0.05
 66
1
 10
0
 20
0
 30
0
 70
1
  0
VERTEX
  8
LAYER_2
 10
112.8048
 20
35.9637
  0
VERTEX
  8
LAYER_2
 10
112.6894
 20
35.9637
  0
VERTEX
  8
LAYER_2
 10
113.1362
 20
36.9969
  0
VERTEX
  8
LAYER_2
 10
113.2385
 20
36.9969
  0
VERTEX
  8
LAYER_2
 10
113.6819
 20
35.9637
  0
VERTEX
  8
LAYER_2
 10
113.5651
 20
35.9637
  0
VERTEX
  8
LAYER_2
 10
113.4511
 20
36.2352
  0
VERTEX
  8
LAYER_2
 10
112.9171
 20
36.2352
  0
SEQEND
  0
POLYLINE
  8
LAYER_2
 40
0.05
 41
0.05
 66
1
 10
0
 20
0
 30
0
 70
1
  0
VERTEX
  8
LAYER_2
 10
112.9564
 20
36.3316
  0
VERTEX
  8
LAYER_2
 10
113.4118
 20
36.3316
  0
VERTEX
  8
LAYER_2
 10
113.1841
 20
36.8804
  0
SEQEND
  0
ENDBLK
  0
BLOCK
  8
LAYER_2
  2
AIGNBL02030018
 70
64
 10
0
 20
0
 30
0
  3
AIGNBL02030018
  0
POLYLINE
  8
LAYER_2
 40
0.05
 41
0.05
 66
1
 10
0
 20
0
 30
0
 70
1
  0
VERTEX
  8
LAYER_2
 10
114.3665
 20
35.9637
  0
VERTEX
  8
LAYER_2
 10
114.2614
 20
35.9637
  0
VERTEX
  8
LAYER_2
 10
114.2614
 20
36.9035
  0
VERTEX
  8
LAYER_2
 10
113.9152
 20
36.9035
  0
VERTEX
  8
LAYER_2
 10
113.9152
 20
36.9969
  0
VERTEX
  8
LAYER_2
 10
114.712
 20
36.9969
  0
VERTEX
  8
LAYER_2
 10
114.712
 20
36.9035
  0
VERTEX
  8
LAYER_2
 10
114.3665
 20
36.9035
  0
SEQEND
  0
ENDBLK
  0
BLOCK
  8
LAYER_2
  2
AIGNBL02030019
 70
64
 10
0
 20
0
 30
0
  3
AIGNBL02030019
  0
POLYLINE
  8
LAYER_2
 40
0.05
 41
0.05
 66
1
 10
0
 20
0
 30
0
 70
1
  0
VERTEX
  8
LAYER_2
 10
115.0682
 20
36.9969
  0
VERTEX
  8
LAYER_2
 10
115.1729
 20
36.9969
  0
VERTEX
  8
LAYER_2
 10
115.1729
 20
36.549
  0
VERTEX
  8
LAYER_2
 10
115.7366
 20
36.549
  0
VERTEX
  8
LAYER_2
 10
115.7366
 20
36.9969
  0
VERTEX
  8
LAYER_2
 10
115.8416
 20
36.9969
  0
VERTEX
  8
LAYER_2
 10
115.8416
 20
35.9637
  0
VERTEX
  8
LAYER_2
 10
115.7366
 20
35.9637
  0
VERTEX
  8
LAYER_2
 10
115.7366
 20
36.4529
  0
VERTEX
  8
LAYER_2
 10
115.1729
 20
36.4529
  0
VERTEX
  8
LAYER_2
 10
115.1729
 20
35.9637
  0
VERTEX
  8
LAYER_2
 10
115.0682
 20
35.9637
  0
SEQEND
  0
ENDBLK
  0
BLOCK
  8
LAYER_2
  2
AIGNBL0203001A
 70
64
 10
0
 20
0
 30
0
  3
AIGNBL0203001A
  0
POLYLINE
  8
LAYER_2
 40
0.05
 41
0.05
 66
1
 10
0
 20
0
 30
0
 70
1
  0
VERTEX
  8
LAYER_2
 10
116.4221
 20
35.9637
  0
VERTEX
  8
LAYER_2
 10
116.3171
 20
35.9637
  0
VERTEX
  8
LAYER_2
 10
116.3171
 20
36.9969
  0
VERTEX
  8
LAYER_2
 10
116.6209
 20
36.9969
  0
VERTEX
  8
LAYER_2
 10
116.7615
 20
36.9824
  0
VERTEX
  8
LAYER_2
 10
116.8741
 20
36.9349
  0
VERTEX
  8
LAYER_2
 10
116.9475
 20
36.8494
  0
VERTEX
  8
LAYER_2
 10
116.9737
 20
36.7213
  0
VERTEX
  8
LAYER_2
 10
116.9537
 20
36.6176
  0
VERTEX
  8
LAYER_2
 10
116.8983
 20
36.5366
  0
VERTEX
  8
LAYER_2
 10
116.8149
 20
36.4818
  0
VERTEX
  8
LAYER_2
 10
116.7098
 20
36.4557
  0
VERTEX
  8
LAYER_2
 10
117.0119
 20
35.9637
  0
VERTEX
  8
LAYER_2
 10
116.8835
 20
35.9637
  0
VERTEX
  8
LAYER_2
 10
116.5975
 20
36.4467
  0
VERTEX
  8
LAYER_2
 10
116.4221
 20
36.4467
  0
SEQEND
  0
POLYLINE
  8
LAYER_2
 40
0.05
 41
0.05
 66
1
 10
0
 20
0
 30
0
 70
1
  0
VERTEX
  8
LAYER_2
 10
116.4221
 20
36.5373
  0
VERTEX
  8
LAYER_2
 10
116.6047
 20
36.5373
 42
0.1657798624
  0
VERTEX
  8
LAYER_2
 10
116.8004
 20
36.5831
 42
0.2503949893
  0
VERTEX
  8
LAYER_2
 10
116.869
 20
36.7213
  0
VERTEX
  8
LAYER_2
 10
116.8497
 20
36.8071
  0
VERTEX
  8
LAYER_2
 10
116.7973
 20
36.8643
  0
VERTEX
  8
LAYER_2
 10
116.7157
 20
36.8963
  0
VERTEX
  8
LAYER_2
 10
116.6092
 20
36.9066
  0
VERTEX
  8
LAYER_2
 10
116.4221
 20
36.9066
  0
SEQEND
  0
ENDBLK
  0
BLOCK
  8
LAYER_2
  2
AIGNBL0203001B
 70
64
 10
0
 20
0
 30
0
  3
AIGNBL0203001B
  0
POLYLINE
  8
LAYER_2
 40
0.05
 41
0.05
 66
1
 10
0
 20
0
 30
0
 70
1
  0
VERTEX
  8
LAYER_2
 10
118.4141
 20
36.4805
 42
-0.1000954639
  0
VERTEX
  8
LAYER_2
 10
118.3735
 20
36.2631
 42
-0.1001905425
  0
VERTEX
  8
LAYER_2
 10
118.2601
 20
36.0915
 42
-0.09571058079
  0
VERTEX
  8
LAYER_2
 10
118.0896
 20
35.9785
 42
-0.09502028874
  0
VERTEX
  8
LAYER_2
 10
117.8756
 20
35.9375
 42
-0.101175466
  0
VERTEX
  8
LAYER_2
 10
117.6617
 20
35.9785
 42
-0.1000517149
  0
VERTEX
  8
LAYER_2
 10
117.4912
 20
36.0915
 42
-0.09638651027
  0
VERTEX
  8
LAYER_2
 10
117.3782
 20
36.2631
 42
-0.0931359716
  0
VERTEX
  8
LAYER_2
 10
117.3375
 20
36.4805
 42
-0.1022959507
  0
VERTEX
  8
LAYER_2
 10
117.3782
 20
36.6978
 42
-0.1020104137
  0
VERTEX
  8
LAYER_2
 10
117.4912
 20
36.8694
 42
-0.09596829797
  0
VERTEX
  8
LAYER_2
 10
117.6617
 20
36.9824
 42
-0.09506675375
  0
VERTEX
  8
LAYER_2
 10
117.8756
 20
37.0234
 42
-0.1012083438
  0
VERTEX
  8
LAYER_2
 10
118.0896
 20
36.9824
 42
-0.1015678172
  0
VERTEX
  8
LAYER_2
 10
118.2601
 20
36.8694
 42
-0.09462760439
  0
VERTEX
  8
LAYER_2
 10
118.3735
 20
36.6978
 42
-0.09276657997
  0
SEQEND
  0
POLYLINE
  8
LAYER_2
 40
0.05
 41
0.05
 66
1
 10
0
 20
0
 30
0
 70
1
  0
VERTEX
  8
LAYER_2
 10
118.3032
 20
36.4798
  0
VERTEX
  8
LAYER_2
 10
118.2739
 20
36.6517
  0
VERTEX
  8
LAYER_2
 10
118.1891
 20
36.795
  0
VERTEX
  8
LAYER_2
 10
118.0544
 20
36.8932
  0
VERTEX
  8
LAYER_2
 10
117.8756
 20
36.93
  0
VERTEX
  8
LAYER_2
 10
117.6968
 20
36.8932
  0
VERTEX
  8
LAYER_2
 10
117.5618
 20
36.795
  0
VERTEX
  8
LAYER_2
 10
117.477
 20
36.6517
  0
VERTEX
  8
LAYER_2
 10
117.4481
 20
36.4798
  0
VERTEX
  8
LAYER_2
 10
117.477
 20
36.3079
  0
VERTEX
  8
LAYER_2
 10
117.5618
 20
36.1649
  0
VERTEX
  8
LAYER_2
 10
117.6968
 20
36.0674
  0
VERTEX
  8
LAYER_2
 10
117.8756
 20
36.0309
 42
0.1157330551
  0
VERTEX
  8
LAYER_2
 10
118.0544
 20
36.0674
  0
VERTEX
  8
LAYER_2
 10
118.1891
 20
36.1649
  0
VERTEX
  8
LAYER_2
 10
118.2739
 20
36.3079
  0
SEQEND
  0
ENDBLK
  0
BLOCK
  8
LAYER_2
  2
AIGNBL0203001C
 70
64
 10
0
 20
0
 30
0
  3
AIGNBL0203001C
  0
POLYLINE
  8
LAYER_2
 40
0.05
 41
0.05
 66
1
 10
0
 20
0
 30
0
 70
1
  0
VERTEX
  8
LAYER_2
 10
119.8559
 20
36.4805
 42
-0.1041417444
  0
VERTEX
  8
LAYER_2
 10
119.8149
 20
36.2631
 42
-0.1000549391
  0
VERTEX
  8
LAYER_2
 10
119.7022
 20
36.0915
 42
-0.09536265516
  0
VERTEX
  8
LAYER_2
 10
119.5313
 20
35.9785
 42
-0.09506675375
  0
VERTEX
  8
LAYER_2
 10
119.3174
 20
35.9375
 42
-0.101822328
  0
VERTEX
  8
LAYER_2
 10
119.1038
 20
35.9785
 42
-0.102112669
  0
VERTEX
  8
LAYER_2
 10
118.9329
 20
36.0915
 42
-0.09442769366
  0
VERTEX
  8
LAYER_2
 10
118.8196
 20
36.2631
 42
-0.0931359716
  0
VERTEX
  8
LAYER_2
 10
118.7789
 20
36.4805
 42
-0.1022959507
  0
VERTEX
  8
LAYER_2
 10
118.8196
 20
36.6978
 42
-0.1008832254
  0
VERTEX
  8
LAYER_2
 10
118.9329
 20
36.8694
 42
-0.09625543395
  0
VERTEX
  8
LAYER_2
 10
119.1038
 20
36.9824
 42
-0.09528409444
  0
VERTEX
  8
LAYER_2
 10
119.3174
 20
37.0234
 42
-0.101175466
  0
VERTEX
  8
LAYER_2
 10
119.5313
 20
36.9824
 42
-0.09853409661
  0
VERTEX
  8
LAYER_2
 10
119.7022
 20
36.8694
 42
-0.09576191851
  0
VERTEX
  8
LAYER_2
 10
119.8149
 20
36.6978
 42
-0.09400765476
  0
SEQEND
  0
POLYLINE
  8
LAYER_2
 40
0.05
 41
0.05
 66
1
 10
0
 20
0
 30
0
 70
1
  0
VERTEX
  8
LAYER_2
 10
119.7449
 20
36.4798
  0
VERTEX
  8
LAYER_2
 10
119.716
 20
36.6517
  0
VERTEX
  8
LAYER_2
 10
119.6312
 20
36.795
  0
VERTEX
  8
LAYER_2
 10
119.4962
 20
36.8932
  0
VERTEX
  8
LAYER_2
 10
119.3174
 20
36.93
  0
VERTEX
  8
LAYER_2
 10
119.1386
 20
36.8932
  0
VERTEX
  8
LAYER_2
 10
119.0039
 20
36.795
  0
VERTEX
  8
LAYER_2
 10
118.9192
 20
36.6517
  0
VERTEX
  8
LAYER_2
 10
118.8899
 20
36.4798
  0
VERTEX
  8
LAYER_2
 10
118.9192
 20
36.3079
  0
VERTEX
  8
LAYER_2
 10
119.0039
 20
36.1649
  0
VERTEX
  8
LAYER_2
 10
119.1386
 20
36.0674
 42
0.1008257054
  0
VERTEX
  8
LAYER_2
 10
119.3174
 20
36.0309
  0
VERTEX
  8
LAYER_2
 10
119.4962
 20
36.0674
  0
VERTEX
  8
LAYER_2
 10
119.6312
 20
36.1649
  0
VERTEX
  8
LAYER_2
 10
119.716
 20
36.3079
  0
SEQEND
  0
ENDBLK
  0
BLOCK
  8
LAYER_2
  2
AIGNBL0203001D
 70
64
 10
0
 20
0
 30
0
  3
AIGNBL0203001D
  0
POLYLINE
  8
LAYER_2
 40
0.05
 41
0.05
 66
1
 10
0
 20
0
 30
0
 70
1
  0
VERTEX
  8
LAYER_2
 10
120.7867
 20
36.1418
  0
VERTEX
  8
LAYER_2
 10
120.7885
 20
36.1418
  0
VERTEX
  8
LAYER_2
 10
121.134
 20
36.9969
  0
VERTEX
  8
LAYER_2
 10
121.2949
 20
36.9969
  0
VERTEX
  8
LAYER_2
 10
121.2949
 20
35.9637
  0
VERTEX
  8
LAYER_2
 10
121.1895
 20
35.9637
  0
VERTEX
  8
LAYER_2
 10
121.1895
 20
36.8611
  0
VERTEX
  8
LAYER_2
 10
121.1867
 20
36.8611
  0
VERTEX
  8
LAYER_2
 10
120.8133
 20
35.9637
  0
VERTEX
  8
LAYER_2
 10
120.7578
 20
35.9637
  0
VERTEX
  8
LAYER_2
 10
120.384
 20
36.8611
  0
VERTEX
  8
LAYER_2
 10
120.3813
 20
36.8611
  0
VERTEX
  8
LAYER_2
 10
120.3813
 20
35.9637
  0
VERTEX
  8
LAYER_2
 10
120.2762
 20
35.9637
  0
VERTEX
  8
LAYER_2
 10
120.2762
 20
36.9969
  0
VERTEX
  8
LAYER_2
 10
120.4367
 20
36.9969
  0
SEQEND
  0
ENDBLK
  0
BLOCK
  8
LAYER_2
  2
AIGNBL0203001E
 70
64
 10
0
 20
0
 30
0
  3
AIGNBL0203001E
  0
POLYLINE
  8
LAYER_2
 40
0.05
 41
0.05
 66
1
 10
0
 20
0
 30
0
 70
1
  0
VERTEX
  8
LAYER_2
 10
122.4414
 20
36.0574
  0
VERTEX
  8
LAYER_2
 10
122.9947
 20
36.0574
  0
VERTEX
  8
LAYER_2
 10
122.9947
 20
35.9637
  0
VERTEX
  8
LAYER_2
 10
122.3363
 20
35.9637
  0
VERTEX
  8
LAYER_2
 10
122.3363
 20
36.9969
  0
VERTEX
  8
LAYER_2
 10
122.9771
 20
36.9969
  0
VERTEX
  8
LAYER_2
 10
122.9771
 20
36.9035
  0
VERTEX
  8
LAYER_2
 10
122.4414
 20
36.9035
  0
VERTEX
  8
LAYER_2
 10
122.4414
 20
36.549
  0
VERTEX
  8
LAYER_2
 10
122.942
 20
36.549
  0
VERTEX
  8
LAYER_2
 10
122.942
 20
36.4557
  0
VERTEX
  8
LAYER_2
 10
122.4414
 20
36.4557
  0
SEQEND
  0
ENDBLK
  0
BLOCK
  8
LAYER_2
  2
AIGNBL0203001F
 70
64
 10
0
 20
0
 30
0
  3
AIGNBL0203001F
  0
POLYLINE
  8
LAYER_2
 40
0.05
 41
0.05
 66
1
 10
0
 20
0
 30
0
 70
1
  0
VERTEX
  8
LAYER_2
 10
123.7399
 20
36.5797
  0
VERTEX
  8
LAYER_2
 10
124.022
 20
36.9969
  0
VERTEX
  8
LAYER_2
 10
124.1471
 20
36.9969
  0
VERTEX
  8
LAYER_2
 10
123.8046
 20
36.5053
  0
VERTEX
  8
LAYER_2
 10
124.1839
 20
35.9637
  0
VERTEX
  8
LAYER_2
 10
124.0527
 20
35.9637
  0
VERTEX
  8
LAYER_2
 10
123.7371
 20
36.4295
  0
VERTEX
  8
LAYER_2
 10
123.4236
 20
35.9637
  0
VERTEX
  8
LAYER_2
 10
123.292
 20
35.9637
  0
VERTEX
  8
LAYER_2
 10
123.6717
 20
36.5066
  0
VERTEX
  8
LAYER_2
 10
123.3258
 20
36.9969
  0
VERTEX
  8
LAYER_2
 10
123.4574
 20
36.9969
  0
SEQEND
  0
ENDBLK
  0
BLOCK
  8
LAYER_2
  2
AIGNBL02030020
 70
64
 10
0
 20
0
 30
0
  3
AIGNBL02030020
  0
POLYLINE
  8
LAYER_2
 40
0.05
 41
0.05
 66
1
 10
0
 20
0
 30
0
 70
1
  0
VERTEX
  8
LAYER_2
 10
124.5502
 20
36.9969
  0
VERTEX
  8
LAYER_2
 10
124.8423
 20
36.9969
  0
VERTEX
  8
LAYER_2
 10
124.9853
 20
36.9804
  0
VERTEX
  8
LAYER_2
 10
125.0952
 20
36.929
  0
VERTEX
  8
LAYER_2
 10
125.1662
 20
36.8429
  0
VERTEX
  8
LAYER_2
 10
125.1906
 20
36.7213
  0
VERTEX
  8
LAYER_2
 10
125.1654
 20
36.5993
  0
VERTEX
  8
LAYER_2
 10
125.0938
 20
36.5132
  0
VERTEX
  8
LAYER_2
 10
124.9829
 20
36.4615
  0
VERTEX
  8
LAYER_2
 10
124.8392
 20
36.444
  0
VERTEX
  8
LAYER_2
 10
124.6552
 20
36.444
  0
VERTEX
  8
LAYER_2
 10
124.6552
 20
35.9637
  0
VERTEX
  8
LAYER_2
 10
124.5502
 20
35.9637
  0
SEQEND
  0
POLYLINE
  8
LAYER_2
 40
0.05
 41
0.05
 66
1
 10
0
 20
0
 30
0
 70
1
  0
VERTEX
  8
LAYER_2
 10
124.6552
 20
36.5328
  0
VERTEX
  8
LAYER_2
 10
124.833
 20
36.5328
 42
0.1829203509
  0
VERTEX
  8
LAYER_2
 10
125.0214
 20
36.581
 42
0.2347011275
  0
VERTEX
  8
LAYER_2
 10
125.0859
 20
36.7213
 42
0.26486771
  0
VERTEX
  8
LAYER_2
 10
125.0194
 20
36.8622
 42
0.1264027561
  0
VERTEX
  8
LAYER_2
 10
124.833
 20
36.9066
  0
VERTEX
  8
LAYER_2
 10
124.6552
 20
36.9066
  0
SEQEND
  0
ENDBLK
  0
BLOCK
  8
LAYER_2
  2
AIGNBL02030021
 70
64
 10
0
 20
0
 30
0
  3
AIGNBL02030021
  0
POLYLINE
  8
LAYER_2
 40
0.05
 41
0.05
 66
1
 10
0
 20
0
 30
0
 70
1
  0
VERTEX
  8
LAYER_2
 10
125.7029
 20
36.0574
  0
VERTEX
  8
LAYER_2
 10
126.2562
 20
36.0574
  0
VERTEX
  8
LAYER_2
 10
126.2562
 20
35.9637
  0
VERTEX
  8
LAYER_2
 10
125.5978
 20
35.9637
  0
VERTEX
  8
LAYER_2
 10
125.5978
 20
36.9969
  0
VERTEX
  8
LAYER_2
 10
126.2386
 20
36.9969
  0
VERTEX
  8
LAYER_2
 10
126.2386
 20
36.9035
  0
VERTEX
  8
LAYER_2
 10
125.7029
 20
36.9035
  0
VERTEX
  8
LAYER_2
 10
125.7029
 20
36.549
  0
VERTEX
  8
LAYER_2
 10
126.2035
 20
36.549
  0
VERTEX
  8
LAYER_2
 10
126.2035
 20
36.4557
  0
VERTEX
  8
LAYER_2
 10
125.7029
 20
36.4557
  0
SEQEND
  0
ENDBLK
  0
BLOCK
  8
LAYER_2
  2
AIGNBL02030022
 70
64
 10
0
 20
0
 30
0
  3
AIGNBL02030022
  0
POLYLINE
  8
LAYER_2
 40
0.05
 41
0.05
 66
1
 10
0
 20
0
 30
0
 70
1
  0
VERTEX
  8
LAYER_2
 10
126.7681
 20
35.9637
  0
VERTEX
  8
LAYER_2
 10
126.663
 20
35.9637
  0
VERTEX
  8
LAYER_2
 10
126.663
 20
36.9969
  0
VERTEX
  8
LAYER_2
 10
126.9669
 20
36.9969
  0
VERTEX
  8
LAYER_2
 10
127.1075
 20
36.9824
  0
VERTEX
  8
LAYER_2
 10
127.2201
 20
36.9349
  0
VERTEX
  8
LAYER_2
 10
127.2938
 20
36.8494
  0
VERTEX
  8
LAYER_2
 10
127.3197
 20
36.7213
  0
VERTEX
  8
LAYER_2
 10
127.2997
 20
36.6176
  0
VERTEX
  8
LAYER_2
 10
127.2442
 20
36.5366
  0
VERTEX
  8
LAYER_2
 10
127.1609
 20
36.4818
  0
VERTEX
  8
LAYER_2
 10
127.0558
 20
36.4557
  0
VERTEX
  8
LAYER_2
 10
127.3579
 20
35.9637
  0
VERTEX
  8
LAYER_2
 10
127.2294
 20
35.9637
  0
VERTEX
  8
LAYER_2
 10
126.9435
 20
36.4467
  0
VERTEX
  8
LAYER_2
 10
126.7681
 20
36.4467
  0
SEQEND
  0
POLYLINE
  8
LAYER_2
 40
0.05
 41
0.05
 66
1
 10
0
 20
0
 30
0
 70
1
  0
VERTEX
  8
LAYER_2
 10
126.7681
 20
36.5373
  0
VERTEX
  8
LAYER_2
 10
126.9507
 20
36.5373
 42
0.1667734107
  0
VERTEX
  8
LAYER_2
 10
127.1464
 20
36.5831
 42
0.2503091692
  0
VERTEX
  8
LAYER_2
 10
127.2149
 20
36.7213
  0
VERTEX
  8
LAYER_2
 10
127.196
 20
36.8071
  0
VERTEX
  8
LAYER_2
 10
127.1433
 20
36.8643
  0
VERTEX
  8
LAYER_2
 10
127.0616
 20
36.8963
  0
VERTEX
  8
LAYER_2
 10
126.9552
 20
36.9066
  0
VERTEX
  8
LAYER_2
 10
126.7681
 20
36.9066
  0
SEQEND
  0
ENDBLK
  0
BLOCK
  8
LAYER_2
  2
AIGNBL02030023
 70
64
 10
0
 20
0
 30
0
  3
AIGNBL02030023
  0
POLYLINE
  8
LAYER_2
 40
0.05
 41
0.05
 66
1
 10
0
 20
0
 30
0
 70
1
  0
VERTEX
  8
LAYER_2
 10
127.8437
 20
35.9637
  0
VERTEX
  8
LAYER_2
 10
127.739
 20
35.9637
  0
VERTEX
  8
LAYER_2
 10
127.739
 20
36.9969
  0
VERTEX
  8
LAYER_2
 10
127.8437
 20
36.9969
  0
SEQEND
  0
ENDBLK
  0
BLOCK
  8
LAYER_2
  2
AIGNBL02030024
 70
64
 10
0
 20
0
 30
0
  3
AIGNBL02030024
  0
POLYLINE
  8
LAYER_2
 40
0.05
 41
0.05
 66
1
 10
0
 20
0
 30
0
 70
1
  0
VERTEX
  8
LAYER_2
 10
128.4245
 20
36.0574
  0
VERTEX
  8
LAYER_2
 10
128.9775
 20
36.0574
  0
VERTEX
  8
LAYER_2
 10
128.9775
 20
35.9637
  0
VERTEX
  8
LAYER_2
 10
128.3195
 20
35.9637
  0
VERTEX
  8
LAYER_2
 10
128.3195
 20
36.9969
  0
VERTEX
  8
LAYER_2
 10
128.9602
 20
36.9969
  0
VERTEX
  8
LAYER_2
 10
128.9602
 20
36.9035
  0
VERTEX
  8
LAYER_2
 10
128.4245
 20
36.9035
  0
VERTEX
  8
LAYER_2
 10
128.4245
 20
36.549
  0
VERTEX
  8
LAYER_2
 10
128.9251
 20
36.549
  0
VERTEX
  8
LAYER_2
 10
128.9251
 20
36.4557
  0
VERTEX
  8
LAYER_2
 10
128.4245
 20
36.4557
  0
SEQEND
  0
ENDBLK
  0
BLOCK
  8
LAYER_2
  2
AIGNBL02030025
 70
64
 10
0
 20
0
 30
0
  3
AIGNBL02030025
  0
POLYLINE
  8
LAYER_2
 40
0.05
 41
0.05
 66
1
 10
0
 20
0
 30
0
 70
1
  0
VERTEX
  8
LAYER_2
 10
130.1174
 20
36.117
  0
VERTEX
  8
LAYER_2
 10
130.1202
 20
36.117
  0
VERTEX
  8
LAYER_2
 10
130.1202
 20
36.9969
  0
VERTEX
  8
LAYER_2
 10
130.2253
 20
36.9969
  0
VERTEX
  8
LAYER_2
 10
130.2253
 20
35.9637
  0
VERTEX
  8
LAYER_2
 10
130.094
 20
35.9637
  0
VERTEX
  8
LAYER_2
 10
129.4928
 20
36.8525
  0
VERTEX
  8
LAYER_2
 10
129.4897
 20
36.8525
  0
VERTEX
  8
LAYER_2
 10
129.4897
 20
35.9637
  0
VERTEX
  8
LAYER_2
 10
129.3847
 20
35.9637
  0
VERTEX
  8
LAYER_2
 10
129.3847
 20
36.9969
  0
VERTEX
  8
LAYER_2
 10
129.5163
 20
36.9969
  0
SEQEND
  0
ENDBLK
  0
BLOCK
  8
LAYER_2
  2
AIGNBL02030026
 70
64
 10
0
 20
0
 30
0
  3
AIGNBL02030026
  0
POLYLINE
  8
LAYER_2
 40
0.05
 41
0.05
 66
1
 10
0
 20
0
 30
0
 70
1
  0
VERTEX
  8
LAYER_2
 10
131.5709
 20
36.1315
  0
VERTEX
  8
LAYER_2
 10
131.5072
 20
36.0571
  0
VERTEX
  8
LAYER_2
 10
131.4211
 20
35.9954
  0
VERTEX
  8
LAYER_2
 10
131.3129
 20
35.953
  0
VERTEX
  8
LAYER_2
 10
131.184
 20
35.9375
 42
-0.1009408553
  0
VERTEX
  8
LAYER_2
 10
130.968
 20
35.9785
 42
-0.1036559164
  0
VERTEX
  8
LAYER_2
 10
130.7975
 20
36.0915
 42
-0.09812017057
  0
VERTEX
  8
LAYER_2
 10
130.6859
 20
36.2631
 42
-0.09232404316
  0
VERTEX
  8
LAYER_2
 10
130.6456
 20
36.4805
 42
-0.1041003847
  0
VERTEX
  8
LAYER_2
 10
130.6866
 20
36.6978
 42
-0.1007605982
  0
VERTEX
  8
LAYER_2
 10
130.7992
 20
36.8694
 42
-0.09536265516
  0
VERTEX
  8
LAYER_2
 10
130.9701
 20
36.9824
 42
-0.09506675375
  0
VERTEX
  8
LAYER_2
 10
131.184
 20
37.0234
  0
VERTEX
  8
LAYER_2
 10
131.2957
 20
37.0114
  0
VERTEX
  8
LAYER_2
 10
131.3987
 20
36.9779
  0
VERTEX
  8
LAYER_2
 10
131.4862
 20
36.9263
  0
VERTEX
  8
LAYER_2
 10
131.552
 20
36.8584
  0
VERTEX
  8
LAYER_2
 10
131.4645
 20
36.794
  0
VERTEX
  8
LAYER_2
 10
131.4211
 20
36.8439
  0
VERTEX
  8
LAYER_2
 10
131.3577
 20
36.8877
  0
VERTEX
  8
LAYER_2
 10
131.2781
 20
36.9183
  0
VERTEX
  8
LAYER_2
 10
131.1854
 20
36.93
  0
VERTEX
  8
LAYER_2
 10
131.0052
 20
36.8935
  0
VERTEX
  8
LAYER_2
 10
130.8702
 20
36.7954
  0
VERTEX
  8
LAYER_2
 10
130.7854
 20
36.652
  0
VERTEX
  8
LAYER_2
 10
130.7565
 20
36.4805
  0
VERTEX
  8
LAYER_2
 10
130.7865
 20
36.3089
  0
VERTEX
  8
LAYER_2
 10
130.8719
 20
36.1656
  0
VERTEX
  8
LAYER_2
 10
131.007
 20
36.0674
 42
0.1010490553
  0
VERTEX
  8
LAYER_2
 10
131.1854
 20
36.0309
  0
VERTEX
  8
LAYER_2
 10
131.3546
 20
36.0674
 42
0.1325349639
  0
VERTEX
  8
LAYER_2
 10
131.4889
 20
36.1842
  0
SEQEND
  0
ENDBLK
  0
BLOCK
  8
LAYER_2
  2
AIGNBL02030027
 70
64
 10
0
 20
0
 30
0
  3
AIGNBL02030027
  0
POLYLINE
  8
LAYER_2
 40
0.05
 41
0.05
 66
1
 10
0
 20
0
 30
0
 70
1
  0
VERTEX
  8
LAYER_2
 10
132.0581
 20
36.0574
  0
VERTEX
  8
LAYER_2
 10
132.6114
 20
36.0574
  0
VERTEX
  8
LAYER_2
 10
132.6114
 20
35.9637
  0
VERTEX
  8
LAYER_2
 10
131.953
 20
35.9637
  0
VERTEX
  8
LAYER_2
 10
131.953
 20
36.9969
  0
VERTEX
  8
LAYER_2
 10
132.5938
 20
36.9969
  0
VERTEX
  8
LAYER_2
 10
132.5938
 20
36.9035
  0
VERTEX
  8
LAYER_2
 10
132.0581
 20
36.9035
  0
VERTEX
  8
LAYER_2
 10
132.0581
 20
36.549
  0
VERTEX
  8
LAYER_2
 10
132.5586
 20
36.549
  0
VERTEX
  8
LAYER_2
 10
132.5586
 20
36.4557
  0
VERTEX
  8
LAYER_2
 10
132.0581
 20
36.4557
  0
SEQEND
  0
ENDBLK
  0
BLOCK
  8
LAYER_2
  2
AIGNBL02020004
 70
64
 10
0
 20
0
 30
0
  3
AIGNBL02020004
  0
POLYLINE
  8
LAYER_2
 40
0.05
 41
0.05
 66
1
 10
0
 20
0
 30
0
  0
VERTEX
  8
LAYER_2
 10
-1.196
 20
217.6012
 42
-0.07434374488
  0
VERTEX
  8
LAYER_2
 10
-1.3046
 20
216.4751
 42
-0.1312981164
  0
VERTEX
  8
LAYER_2
 10
-1.5732
 20
216.0054
 42
-0.208619006
  0
VERTEX
  8
LAYER_2
 10
-2.3408
 20
215.7164
 42
-0.1980855618
  0
VERTEX
  8
LAYER_2
 10
-3.0956
 20
216.0054
 42
-0.1359059684
  0
VERTEX
  8
LAYER_2
 10
-3.3746
 20
216.5106
 42
-0.06699191066
  0
VERTEX
  8
LAYER_2
 10
-3.4732
 20
217.6012
 42
-0.07470238595
  0
VERTEX
  8
LAYER_2
 10
-3.3644
 20
218.7157
 42
-0.1310826725
  0
VERTEX
  8
LAYER_2
 10
-3.0956
 20
219.1845
 42
-0.2061520596
  0
VERTEX
  8
LAYER_2
 10
-2.3408
 20
219.4732
 42
-0.1977437771
  0
VERTEX
  8
LAYER_2
 10
-1.5732
 20
219.1845
 42
-0.1358673357
  0
VERTEX
  8
LAYER_2
 10
-1.2943
 20
218.6804
 42
-0.06720044206
  0
VERTEX
  8
LAYER_2
 10
-1.196
 20
217.6012
  0
SEQEND
  0
POLYLINE
  8
LAYER_2
 40
0.05
 41
0.05
 66
1
 10
0
 20
0
 30
0
  0
VERTEX
  8
LAYER_2
 10
0.4394
 20
217.6012
 42
0.0577585355
  0
VERTEX
  8
LAYER_2
 10
0.3194
 20
218.9609
 42
0.1358747382
  0
VERTEX
  8
LAYER_2
 10
-0.303
 20
220.1395
 42
0.1777268905
  0
VERTEX
  8
LAYER_2
 10
-1.8892
 20
220.9154
 42
0.03495822391
  0
VERTEX
  8
LAYER_2
 10
-2.3408
 20
220.9436
 42
0.07961804251
  0
VERTEX
  8
LAYER_2
 10
-3.315
 20
220.7962
 42
0.1217450219
  0
VERTEX
  8
LAYER_2
 10
-4.3662
 20
220.1395
 42
0.09150776818
  0
VERTEX
  8
LAYER_2
 10
-4.8465
 20
219.4067
 42
0.07735978812
  0
VERTEX
  8
LAYER_2
 10
-5.0776
 20
218.3847
 42
0.03281807239
  0
VERTEX
  8
LAYER_2
 10
-5.1082
 20
217.6012
 42
0.05725233541
  0
VERTEX
  8
LAYER_2
 10
-4.9885
 20
216.2362
 42
0.1359864428
  0
VERTEX
  8
LAYER_2
 10
-4.3662
 20
215.0504
 42
0.175204158
  0
VERTEX
  8
LAYER_2
 10
-2.7508
 20
214.2702
 42
0.03231924249
  0
VERTEX
  8
LAYER_2
 10
-2.3408
 20
214.2463
 42
0.07899302184
  0
VERTEX
  8
LAYER_2
 10
-1.3625
 20
214.3937
 42
0.1216861451
  0
VERTEX
  8
LAYER_2
 10
-0.303
 20
215.0504
 42
0.09340304456
  0
VERTEX
  8
LAYER_2
 10
0.1681
 20
215.7463
 42
0.0774645698
  0
VERTEX
  8
LAYER_2
 10
0.4017
 20
216.7223
 42
0.02212089617
  0
VERTEX
  8
LAYER_2
 10
0.4394
 20
217.6012
  0
SEQEND
  0
POLYLINE
  8
LAYER_2
 40
0.05
 41
0.05
 66
1
 10
0
 20
0
 30
0
  0
VERTEX
  8
LAYER_2
 10
-11.3166
 20
218.2044
  0
VERTEX
  8
LAYER_2
 10
-13.8074
 20
218.2044
 42
-0.1153546446
  0
VERTEX
  8
LAYER_2
 10
-13.6562
 20
218.9079
 42
-0.3007040875
  0
VERTEX
  8
LAYER_2
 10
-12.562
 20
219.5866
 42
-0.1235431447
  0
VERTEX
  8
LAYER_2
 10
-11.9621
 20
219.4464
 42
-0.1667603161
  0
VERTEX
  8
LAYER_2
 10
-11.4672
 20
218.9079
 42
-0.1143399212
  0
VERTEX
  8
LAYER_2
 10
-11.3166
 20
218.2044
  0
SEQEND
  0
POLYLINE
  8
LAYER_2
 40
0.05
 41
0.05
 66
1
 10
0
 20
0
 30
0
 70
1
  0
VERTEX
  8
LAYER_2
 10
-9.7064
 20
217.0861
  0
VERTEX
  8
LAYER_2
 10
-9.7064
 20
217.7772
 42
0.0677042249
  0
VERTEX
  8
LAYER_2
 10
-9.852
 20
218.9102
 42
0.07767771487
  0
VERTEX
  8
LAYER_2
 10
-10.2392
 20
219.7789
 42
0.1724975422
  0
VERTEX
  8
LAYER_2
 10
-11.5857
 20
220.7996
 42
0.07776532921
  0
VERTEX
  8
LAYER_2
 10
-12.562
 20
220.9436
 42
0.0796960513
  0
VERTEX
  8
LAYER_2
 10
-13.5247
 20
220.7966
 42
0.168887661
  0
VERTEX
  8
LAYER_2
 10
-14.846
 20
219.7874
 42
0.07658055294
  0
VERTEX
  8
LAYER_2
 10
-15.2466
 20
218.9066
 42
0.07097127065
  0
VERTEX
  8
LAYER_2
 10
-15.4177
 20
217.6012
 42
0.05685454964
  0
VERTEX
  8
LAYER_2
 10
-15.2934
 20
216.4004
 42
0.07540481703
  0
VERTEX
  8
LAYER_2
 10
-14.9492
 20
215.5069
 42
0.1774924504
  0
VERTEX
  8
LAYER_2
 10
-13.6777
 20
214.4527
 42
0.08958127581
  0
VERTEX
  8
LAYER_2
 10
-12.386
 20
214.2463
 42
0.07080596686
  0
VERTEX
  8
LAYER_2
 10
-11.2943
 20
214.3814
 42
0.08369033087
  0
VERTEX
  8
LAYER_2
 10
-10.4805
 20
214.7708
 42
0.04417423811
  0
VERTEX
  8
LAYER_2
 10
-9.8948
 20
215.2768
  0
VERTEX
  8
LAYER_2
 10
-10.8887
 20
216.2442
 42
-0.09875545259
  0
VERTEX
  8
LAYER_2
 10
-11.5612
 20
215.7667
 42
-0.1006814841
  0
VERTEX
  8
LAYER_2
 10
-12.3732
 20
215.6285
 42
-0.1070981108
  0
VERTEX
  8
LAYER_2
 10
-13.0555
 20
215.7638
 42
-0.2542521374
  0
VERTEX
  8
LAYER_2
 10
-13.7778
 20
216.7415
 42
-0.04997815034
  0
VERTEX
  8
LAYER_2
 10
-13.8074
 20
217.0861
  0
SEQEND
  0
POLYLINE
  8
LAYER_2
 40
0.05
 41
0.05
 66
1
 10
0
 20
0
 30
0
 70
1
  0
VERTEX
  8
LAYER_2
 10
-16.9018
 20
223.2773
  0
VERTEX
  8
LAYER_2
 10
-18.5517
 20
223.2773
  0
VERTEX
  8
LAYER_2
 10
-18.5517
 20
221.9454
  0
VERTEX
  8
LAYER_2
 10
-16.9018
 20
221.9454
  0
SEQEND
  0
POLYLINE
  8
LAYER_2
 40
0.05
 41
0.05
 66
1
 10
0
 20
0
 30
0
 70
1
  0
VERTEX
  8
LAYER_2
 10
-16.9146
 20
220.79
  0
VERTEX
  8
LAYER_2
 10
-18.5499
 20
220.79
  0
VERTEX
  8
LAYER_2
 10
-18.5499
 20
214.3218
  0
VERTEX
  8
LAYER_2
 10
-16.9146
 20
214.3218
  0
SEQEND
  0
POLYLINE
  8
LAYER_2
 40
0.05
 41
0.05
 66
1
 10
0
 20
0
 30
0
  0
VERTEX
  8
LAYER_2
 10
-19.8205
 20
215.1386
  0
VERTEX
  8
LAYER_2
 10
-20.9274
 20
216.2317
 42
-0.1123773458
  0
VERTEX
  8
LAYER_2
 10
-21.5025
 20
215.8017
 42
-0.09517045223
  0
VERTEX
  8
LAYER_2
 10
-21.984
 20
215.7164
 42
-0.2295666259
  0
VERTEX
  8
LAYER_2
 10
-22.9149
 20
216.1436
 42
-0.1146247369
  0
VERTEX
  8
LAYER_2
 10
-23.2025
 20
216.7765
 42
-0.05302023055
  0
VERTEX
  8
LAYER_2
 10
-23.2797
 20
217.6012
 42
-0.07909887362
  0
VERTEX
  8
LAYER_2
 10
-23.1547
 20
218.5928
 42
-0.092262399
  0
VERTEX
  8
LAYER_2
 10
-22.9149
 20
219.0461
 42
-0.2338488836
  0
VERTEX
  8
LAYER_2
 10
-21.984
 20
219.4732
 42
-0.128883052
  0
VERTEX
  8
LAYER_2
 10
-21.3835
 20
219.3322
 42
-0.07812769659
  0
VERTEX
  8
LAYER_2
 10
-20.9274
 20
218.9585
  0
VERTEX
  8
LAYER_2
 10
-19.8205
 20
220.0637
 42
0.170273791
  0
VERTEX
  8
LAYER_2
 10
-21.4399
 20
220.9062
 42
0.04126809408
  0
VERTEX
  8
LAYER_2
 10
-21.984
 20
220.9436
 42
0.07342899762
  0
VERTEX
  8
LAYER_2
 10
-22.9625
 20
220.804
 42
0.1715306153
  0
VERTEX
  8
LAYER_2
 10
-24.3547
 20
219.7917
 42
0.07792315428
  0
VERTEX
  8
LAYER_2
 10
-24.7438
 20
218.9398
 42
0.07121572719
  0
VERTEX
  8
LAYER_2
 10
-24.9151
 20
217.6012
 42
0.06071119945
  0
VERTEX
  8
LAYER_2
 10
-24.7811
 20
216.4004
 42
0.07599045696
  0
VERTEX
  8
LAYER_2
 10
-24.4186
 20
215.5069
 42
0.1707838222
  0
VERTEX
  8
LAYER_2
 10
-23.1195
 20
214.4409
 42
0.08917342928
  0
VERTEX
  8
LAYER_2
 10
-21.984
 20
214.2463
 42
0.07667723183
  0
VERTEX
  8
LAYER_2
 10
-21.0013
 20
214.3855
 42
0.1303789466
  0
VERTEX
  8
LAYER_2
 10
-19.8205
 20
215.1386
  0
SEQEND
  0
ENDBLK
  0
BLOCK
  8
LAYER_2
  2
AIGNBL02020005
 70
64
 10
0
 20
0
 30
0
  3
AIGNBL02020005
  0
POLYLINE
  8
LAYER_2
 40
0.05
 41
0.05
 66
1
 10
0
 20
0
 30
0
 70
1
  0
VERTEX
  8
LAYER_2
 10
0.3288
 20
212.6805
  0
VERTEX
  8
LAYER_2
 10
0.0009
 20
212.6805
  0
VERTEX
  8
LAYER_2
 10
-0.2479
 20
211.9109
  0
VERTEX
  8
LAYER_2
 10
-0.5066
 20
212.6805
  0
VERTEX
  8
LAYER_2
 10
-0.8342
 20
212.6805
  0
VERTEX
  8
LAYER_2
 10
-0.4084
 20
211.5234
  0
VERTEX
  8
LAYER_2
 10
-0.4611
 20
211.3704
 42
-0.396721792
  0
VERTEX
  8
LAYER_2
 10
-0.6165
 20
211.2581
  0
VERTEX
  8
LAYER_2
 10
-0.6882
 20
211.2581
  0
VERTEX
  8
LAYER_2
 10
-0.6882
 20
210.9783
  0
VERTEX
  8
LAYER_2
 10
-0.5662
 20
210.9783
 42
0.2105921841
  0
VERTEX
  8
LAYER_2
 10
-0.2985
 20
211.0741
  0
VERTEX
  8
LAYER_2
 10
-0.2048
 20
211.2343
  0
SEQEND
  0
POLYLINE
  8
LAYER_2
 40
0.05
 41
0.05
 66
1
 10
0
 20
0
 30
0
 70
1
  0
VERTEX
  8
LAYER_2
 10
-0.8704
 20
211.4352
  0
VERTEX
  8
LAYER_2
 10
-0.8704
 20
211.6977
  0
VERTEX
  8
LAYER_2
 10
-0.9899
 20
211.6977
 42
-0.4758158184
  0
VERTEX
  8
LAYER_2
 10
-1.0998
 20
211.8103
  0
VERTEX
  8
LAYER_2
 10
-1.0998
 20
213.137
  0
VERTEX
  8
LAYER_2
 10
-1.4109
 20
213.137
  0
VERTEX
  8
LAYER_2
 10
-1.4109
 20
211.7914
 42
0.4199153803
  0
VERTEX
  8
LAYER_2
 10
-1.0475
 20
211.4352
  0
SEQEND
  0
POLYLINE
  8
LAYER_2
 40
0.05
 41
0.05
 66
1
 10
0
 20
0
 30
0
 70
1
  0
VERTEX
  8
LAYER_2
 10
-1.9739
 20
211.894
 42
-0.2612643935
  0
VERTEX
  8
LAYER_2
 10
-2.0214
 20
211.7363
 42
-0.1972145384
  0
VERTEX
  8
LAYER_2
 10
-2.2057
 20
211.6763
 42
-0.4351815088
  0
VERTEX
  8
LAYER_2
 10
-2.3949
 20
211.8175
 42
-0.4650020324
  0
VERTEX
  8
LAYER_2
 10
-2.2105
 20
211.9609
  0
VERTEX
  8
LAYER_2
 10
-1.9739
 20
211.9609
  0
SEQEND
  0
POLYLINE
  8
LAYER_2
 40
0.05
 41
0.05
 66
1
 10
0
 20
0
 30
0
 70
1
  0
VERTEX
  8
LAYER_2
 10
-1.6624
 20
211.4352
  0
VERTEX
  8
LAYER_2
 10
-1.6624
 20
212.2551
 42
0.2205564812
  0
VERTEX
  8
LAYER_2
 10
-1.7881
 20
212.5772
 42
0.1806009816
  0
VERTEX
  8
LAYER_2
 10
-2.194
 20
212.6947
 42
0.2375604919
  0
VERTEX
  8
LAYER_2
 10
-2.6412
 20
212.5179
  0
VERTEX
  8
LAYER_2
 10
-2.4452
 20
212.3243
 42
-0.2464065653
  0
VERTEX
  8
LAYER_2
 10
-2.2057
 20
212.4322
 42
-0.4684872669
  0
VERTEX
  8
LAYER_2
 10
-1.9739
 20
212.2358
  0
VERTEX
  8
LAYER_2
 10
-1.9739
 20
212.1738
  0
VERTEX
  8
LAYER_2
 10
-2.2633
 20
212.1738
 42
0.2103132122
  0
VERTEX
  8
LAYER_2
 10
-2.6081
 20
212.0486
 42
0.18506809
  0
VERTEX
  8
LAYER_2
 10
-2.6942
 20
211.8127
 42
0.1945609364
  0
VERTEX
  8
LAYER_2
 10
-2.5912
 20
211.533
 42
0.1980708175
  0
VERTEX
  8
LAYER_2
 10
-2.2729
 20
211.4228
 42
0.2246292991
  0
VERTEX
  8
LAYER_2
 10
-1.9663
 20
211.5426
  0
VERTEX
  8
LAYER_2
 10
-1.9663
 20
211.4352
  0
SEQEND
  0
POLYLINE
  8
LAYER_2
 40
0.05
 41
0.05
 66
1
 10
0
 20
0
 30
0
 70
1
  0
VERTEX
  8
LAYER_2
 10
-2.8758
 20
211.4352
  0
VERTEX
  8
LAYER_2
 10
-2.8758
 20
211.6977
  0
VERTEX
  8
LAYER_2
 10
-2.9884
 20
211.6977
 42
-0.4605815503
  0
VERTEX
  8
LAYER_2
 10
-3.0963
 20
211.8103
  0
VERTEX
  8
LAYER_2
 10
-3.0963
 20
212.4081
  0
VERTEX
  8
LAYER_2
 10
-2.8758
 20
212.4081
  0
VERTEX
  8
LAYER_2
 10
-2.8758
 20
212.6444
  0
VERTEX
  8
LAYER_2
 10
-3.0963
 20
212.6444
  0
VERTEX
  8
LAYER_2
 10
-3.0963
 20
213.0126
  0
VERTEX
  8
LAYER_2
 10
-3.407
 20
213.0126
  0
VERTEX
  8
LAYER_2
 10
-3.407
 20
212.6444
  0
VERTEX
  8
LAYER_2
 10
-3.539
 20
212.6444
  0
VERTEX
  8
LAYER_2
 10
-3.539
 20
212.4081
  0
VERTEX
  8
LAYER_2
 10
-3.407
 20
212.4081
  0
VERTEX
  8
LAYER_2
 10
-3.407
 20
211.7914
 42
0.4187763975
  0
VERTEX
  8
LAYER_2
 10
-3.0456
 20
211.4352
  0
SEQEND
  0
POLYLINE
  8
LAYER_2
 40
0.05
 41
0.05
 66
1
 10
0
 20
0
 30
0
 70
1
  0
VERTEX
  8
LAYER_2
 10
-3.8091
 20
213.137
  0
VERTEX
  8
LAYER_2
 10
-4.1419
 20
213.137
  0
VERTEX
  8
LAYER_2
 10
-4.1419
 20
211.4352
  0
VERTEX
  8
LAYER_2
 10
-3.8091
 20
211.4352
  0
SEQEND
  0
POLYLINE
  8
LAYER_2
 40
0.05
 41
0.05
 66
1
 10
0
 20
0
 30
0
 70
1
  0
VERTEX
  8
LAYER_2
 10
-5.0562
 20
211.4352
  0
VERTEX
  8
LAYER_2
 10
-5.0562
 20
212.231
 42
0.2135728393
  0
VERTEX
  8
LAYER_2
 10
-5.183
 20
212.5844
 42
0.1976836271
  0
VERTEX
  8
LAYER_2
 10
-5.4775
 20
212.6947
 42
0.2038428178
  0
VERTEX
  8
LAYER_2
 10
-5.7886
 20
212.5658
  0
VERTEX
  8
LAYER_2
 10
-5.7886
 20
212.6805
  0
VERTEX
  8
LAYER_2
 10
-6.0925
 20
212.6805
  0
VERTEX
  8
LAYER_2
 10
-6.0925
 20
211.4352
  0
VERTEX
  8
LAYER_2
 10
-5.7814
 20
211.4352
  0
VERTEX
  8
LAYER_2
 10
-5.7814
 20
212.1882
 42
-0.4265123439
  0
VERTEX
  8
LAYER_2
 10
-5.573
 20
212.4149
 42
-0.4361688158
  0
VERTEX
  8
LAYER_2
 10
-5.3673
 20
212.1882
  0
VERTEX
  8
LAYER_2
 10
-5.3673
 20
211.4352
  0
SEQEND
  0
POLYLINE
  8
LAYER_2
 40
0.05
 41
0.05
 66
1
 10
0
 20
0
 30
0
 70
1
  0
VERTEX
  8
LAYER_2
 10
-6.437
 20
213.1467
  0
VERTEX
  8
LAYER_2
 10
-6.7553
 20
213.1467
  0
VERTEX
  8
LAYER_2
 10
-6.7553
 20
212.8931
  0
VERTEX
  8
LAYER_2
 10
-6.437
 20
212.8931
  0
SEQEND
  0
POLYLINE
  8
LAYER_2
 40
0.05
 41
0.05
 66
1
 10
0
 20
0
 30
0
 70
1
  0
VERTEX
  8
LAYER_2
 10
-6.4394
 20
212.6444
  0
VERTEX
  8
LAYER_2
 10
-6.7508
 20
212.6444
  0
VERTEX
  8
LAYER_2
 10
-6.7508
 20
211.4352
  0
VERTEX
  8
LAYER_2
 10
-6.4394
 20
211.4352
  0
SEQEND
  0
POLYLINE
  8
LAYER_2
 40
0.05
 41
0.05
 66
1
 10
0
 20
0
 30
0
  0
VERTEX
  8
LAYER_2
 10
-7.8994
 20
212.1738
  0
VERTEX
  8
LAYER_2
 10
-8.3735
 20
212.1738
  0
VERTEX
  8
LAYER_2
 10
-8.3445
 20
212.3074
 42
-0.3006254692
  0
VERTEX
  8
LAYER_2
 10
-8.1365
 20
212.4363
 42
-0.3004502708
  0
VERTEX
  8
LAYER_2
 10
-7.9284
 20
212.3074
  0
VERTEX
  8
LAYER_2
 10
-7.8994
 20
212.1738
  0
SEQEND
  0
POLYLINE
  8
LAYER_2
 40
0.05
 41
0.05
 66
1
 10
0
 20
0
 30
0
 70
1
  0
VERTEX
  8
LAYER_2
 10
-7.5932
 20
211.9609
  0
VERTEX
  8
LAYER_2
 10
-7.5932
 20
212.0925
 42
0.1727949422
  0
VERTEX
  8
LAYER_2
 10
-7.7261
 20
212.5161
 42
0.2293242446
  0
VERTEX
  8
LAYER_2
 10
-8.1365
 20
212.6947
 42
0.4082688927
  0
VERTEX
  8
LAYER_2
 10
-8.6757
 20
212.151
 42
0.02665393029
  0
VERTEX
  8
LAYER_2
 10
-8.6797
 20
212.0591
 42
0.1685110564
  0
VERTEX
  8
LAYER_2
 10
-8.5537
 20
211.6061
 42
0.2404561047
  0
VERTEX
  8
LAYER_2
 10
-8.103
 20
211.4207
 42
0.2250390665
  0
VERTEX
  8
LAYER_2
 10
-7.629
 20
211.6167
  0
VERTEX
  8
LAYER_2
 10
-7.8181
 20
211.801
 42
-0.2242451699
  0
VERTEX
  8
LAYER_2
 10
-8.1003
 20
211.6839
 42
-0.4312737558
  0
VERTEX
  8
LAYER_2
 10
-8.3735
 20
211.9609
  0
SEQEND
  0
POLYLINE
  8
LAYER_2
 40
0.05
 41
0.05
 66
1
 10
0
 20
0
 30
0
  0
VERTEX
  8
LAYER_2
 10
-9.2778
 20
212.0591
 42
-0.253040373
  0
VERTEX
  8
LAYER_2
 10
-9.3737
 20
211.7317
 42
-0.1751487426
  0
VERTEX
  8
LAYER_2
 10
-9.4911
 20
211.7004
 42
-0.3550784466
  0
VERTEX
  8
LAYER_2
 10
-9.6774
 20
211.8331
 42
-0.1590539016
  0
VERTEX
  8
LAYER_2
 10
-9.7016
 20
212.0591
 42
-0.2613372193
  0
VERTEX
  8
LAYER_2
 10
-9.6054
 20
212.3859
 42
-0.1728730088
  0
VERTEX
  8
LAYER_2
 10
-9.4911
 20
212.4149
 42
-0.3508351005
  0
VERTEX
  8
LAYER_2
 10
-9.3031
 20
212.2839
 42
-0.1617280931
  0
VERTEX
  8
LAYER_2
 10
-9.2778
 20
212.0591
  0
SEQEND
  0
POLYLINE
  8
LAYER_2
 40
0.05
 41
0.05
 66
1
 10
0
 20
0
 30
0
 70
1
  0
VERTEX
  8
LAYER_2
 10
-8.9667
 20
211.4352
  0
VERTEX
  8
LAYER_2
 10
-8.9667
 20
213.137
  0
VERTEX
  8
LAYER_2
 10
-9.2778
 20
213.137
  0
VERTEX
  8
LAYER_2
 10
-9.2778
 20
212.5707
 42
0.2263222596
  0
VERTEX
  8
LAYER_2
 10
-9.582
 20
212.6947
 42
0.2021447193
  0
VERTEX
  8
LAYER_2
 10
-9.8835
 20
212.5824
 42
0.1955994833
  0
VERTEX
  8
LAYER_2
 10
-10.0116
 20
212.1647
 42
0.01858076917
  0
VERTEX
  8
LAYER_2
 10
-10.013
 20
212.0591
 42
0.1992737425
  0
VERTEX
  8
LAYER_2
 10
-9.8835
 20
211.533
 42
0.1967798833
  0
VERTEX
  8
LAYER_2
 10
-9.5796
 20
211.4207
 42
0.2329721531
  0
VERTEX
  8
LAYER_2
 10
-9.2709
 20
211.5523
  0
VERTEX
  8
LAYER_2
 10
-9.2709
 20
211.4352
  0
SEQEND
  0
POLYLINE
  8
LAYER_2
 40
0.05
 41
0.05
 66
1
 10
0
 20
0
 30
0
 70
1
  0
VERTEX
  8
LAYER_2
 10
-10.6062
 20
211.894
 42
-0.2606176184
  0
VERTEX
  8
LAYER_2
 10
-10.6541
 20
211.7363
 42
-0.1975146001
  0
VERTEX
  8
LAYER_2
 10
-10.8384
 20
211.6763
 42
-0.4358674545
  0
VERTEX
  8
LAYER_2
 10
-11.0272
 20
211.8175
 42
-0.4654392595
  0
VERTEX
  8
LAYER_2
 10
-10.8433
 20
211.9609
  0
VERTEX
  8
LAYER_2
 10
-10.6062
 20
211.9609
  0
SEQEND
  0
POLYLINE
  8
LAYER_2
 40
0.05
 41
0.05
 66
1
 10
0
 20
0
 30
0
 70
1
  0
VERTEX
  8
LAYER_2
 10
-10.2951
 20
211.4352
  0
VERTEX
  8
LAYER_2
 10
-10.2951
 20
212.2551
 42
0.2204713638
  0
VERTEX
  8
LAYER_2
 10
-10.4207
 20
212.5772
 42
0.1806796456
  0
VERTEX
  8
LAYER_2
 10
-10.8267
 20
212.6947
 42
0.2375604919
  0
VERTEX
  8
LAYER_2
 10
-11.2739
 20
212.5179
  0
VERTEX
  8
LAYER_2
 10
-11.0779
 20
212.3243
 42
-0.2460763492
  0
VERTEX
  8
LAYER_2
 10
-10.8384
 20
212.4322
 42
-0.4683426501
  0
VERTEX
  8
LAYER_2
 10
-10.6062
 20
212.2358
  0
VERTEX
  8
LAYER_2
 10
-10.6062
 20
212.1738
  0
VERTEX
  8
LAYER_2
 10
-10.896
 20
212.1738
 42
0.2105830771
  0
VERTEX
  8
LAYER_2
 10
-11.2407
 20
212.0486
 42
0.1847749138
  0
VERTEX
  8
LAYER_2
 10
-11.3266
 20
211.8127
 42
0.1946881207
  0
VERTEX
  8
LAYER_2
 10
-11.2239
 20
211.533
 42
0.1984095291
  0
VERTEX
  8
LAYER_2
 10
-10.9053
 20
211.4228
 42
0.2251045156
  0
VERTEX
  8
LAYER_2
 10
-10.599
 20
211.5426
  0
VERTEX
  8
LAYER_2
 10
-10.599
 20
211.4352
  0
SEQEND
  0
POLYLINE
  8
LAYER_2
 40
0.05
 41
0.05
 66
1
 10
0
 20
0
 30
0
 70
1
  0
VERTEX
  8
LAYER_2
 10
-11.5733
 20
211.4352
  0
VERTEX
  8
LAYER_2
 10
-11.5733
 20
212.231
 42
0.2096424971
  0
VERTEX
  8
LAYER_2
 10
-11.7097
 20
212.5844
 42
0.1904514856
  0
VERTEX
  8
LAYER_2
 10
-12.016
 20
212.6947
 42
0.2201014615
  0
VERTEX
  8
LAYER_2
 10
-12.3894
 20
212.5369
 42
0.2475119635
  0
VERTEX
  8
LAYER_2
 10
-12.7198
 20
212.6947
 42
0.1971786765
  0
VERTEX
  8
LAYER_2
 10
-13.0309
 20
212.5658
  0
VERTEX
  8
LAYER_2
 10
-13.0309
 20
212.6805
  0
VERTEX
  8
LAYER_2
 10
-13.3348
 20
212.6805
  0
VERTEX
  8
LAYER_2
 10
-13.3348
 20
211.4352
  0
VERTEX
  8
LAYER_2
 10
-13.0233
 20
211.4352
  0
VERTEX
  8
LAYER_2
 10
-13.0233
 20
212.1882
 42
-0.4265481482
  0
VERTEX
  8
LAYER_2
 10
-12.8153
 20
212.4149
 42
-0.4361688158
  0
VERTEX
  8
LAYER_2
 10
-12.6096
 20
212.1882
  0
VERTEX
  8
LAYER_2
 10
-12.6096
 20
211.4352
  0
VERTEX
  8
LAYER_2
 10
-12.2985
 20
211.4352
  0
VERTEX
  8
LAYER_2
 10
-12.2985
 20
212.1951
 42
-0.4236814191
  0
VERTEX
  8
LAYER_2
 10
-12.0904
 20
212.4149
 42
-0.4367319455
  0
VERTEX
  8
LAYER_2
 10
-11.8844
 20
212.1882
  0
VERTEX
  8
LAYER_2
 10
-11.8844
 20
211.4352
  0
SEQEND
  0
POLYLINE
  8
LAYER_2
 40
0.05
 41
0.05
 66
1
 10
0
 20
0
 30
0
  0
VERTEX
  8
LAYER_2
 10
-13.8973
 20
212.0229
 42
-0.2061577285
  0
VERTEX
  8
LAYER_2
 10
-14.0003
 20
211.6401
 42
-0.1860547104
  0
VERTEX
  8
LAYER_2
 10
-14.1915
 20
211.5736
 42
-0.2912351062
  0
VERTEX
  8
LAYER_2
 10
-14.4327
 20
211.7044
 42
-0.1074256356
  0
VERTEX
  8
LAYER_2
 10
-14.4882
 20
212.0229
 42
-0.2074793493
  0
VERTEX
  8
LAYER_2
 10
-14.3843
 20
212.406
 42
-0.1847812498
  0
VERTEX
  8
LAYER_2
 10
-14.1915
 20
212.4725
 42
-0.2924886932
  0
VERTEX
  8
LAYER_2
 10
-13.9523
 20
212.3416
 42
-0.1065173685
  0
VERTEX
  8
LAYER_2
 10
-13.8973
 20
212.0229
  0
SEQEND
  0
POLYLINE
  8
LAYER_2
 40
0.05
 41
0.05
 66
1
 10
0
 20
0
 30
0
 70
1
  0
VERTEX
  8
LAYER_2
 10
-13.7247
 20
211.4352
  0
VERTEX
  8
LAYER_2
 10
-13.7247
 20
213.137
  0
VERTEX
  8
LAYER_2
 10
-13.8973
 20
213.137
  0
VERTEX
  8
LAYER_2
 10
-13.8973
 20
212.4749
 42
0.2526586678
  0
VERTEX
  8
LAYER_2
 10
-14.2298
 20
212.6258
 42
0.19617536
  0
VERTEX
  8
LAYER_2
 10
-14.5171
 20
212.5224
 42
0.2062736322
  0
VERTEX
  8
LAYER_2
 10
-14.6608
 20
212.0229
 42
0.1925049638
  0
VERTEX
  8
LAYER_2
 10
-14.5171
 20
211.5234
 42
0.1893263809
  0
VERTEX
  8
LAYER_2
 10
-14.2298
 20
211.4207
 42
0.2549957718
  0
VERTEX
  8
LAYER_2
 10
-13.8949
 20
211.5761
  0
VERTEX
  8
LAYER_2
 10
-13.8949
 20
211.4352
  0
SEQEND
  0
POLYLINE
  8
LAYER_2
 40
0.05
 41
0.05
 66
1
 10
0
 20
0
 30
0
 70
1
  0
VERTEX
  8
LAYER_2
 10
-15.0173
 20
211.4352
  0
VERTEX
  8
LAYER_2
 10
-15.0173
 20
212.1882
 42
0.2089360908
  0
VERTEX
  8
LAYER_2
 10
-15.1393
 20
212.5156
 42
0.1977212202
  0
VERTEX
  8
LAYER_2
 10
-15.4411
 20
212.6258
 42
0.2189458741
  0
VERTEX
  8
LAYER_2
 10
-15.7711
 20
212.4818
  0
VERTEX
  8
LAYER_2
 10
-15.7711
 20
212.6113
  0
VERTEX
  8
LAYER_2
 10
-15.9434
 20
212.6113
  0
VERTEX
  8
LAYER_2
 10
-15.9434
 20
211.4352
  0
VERTEX
  8
LAYER_2
 10
-15.7711
 20
211.4352
  0
VERTEX
  8
LAYER_2
 10
-15.7711
 20
212.1593
 42
-0.4284576329
  0
VERTEX
  8
LAYER_2
 10
-15.479
 20
212.4725
 42
-0.4466039224
  0
VERTEX
  8
LAYER_2
 10
-15.1896
 20
212.1593
  0
VERTEX
  8
LAYER_2
 10
-15.1896
 20
211.4352
  0
SEQEND
  0
POLYLINE
  8
LAYER_2
 40
0.05
 41
0.05
 66
1
 10
0
 20
0
 30
0
 70
1
  0
VERTEX
  8
LAYER_2
 10
-16.5346
 20
211.8506
 42
-0.2283736068
  0
VERTEX
  8
LAYER_2
 10
-16.5945
 20
211.6477
 42
-0.1936527339
  0
VERTEX
  8
LAYER_2
 10
-16.8553
 20
211.5688
 42
-0.4421173513
  0
VERTEX
  8
LAYER_2
 10
-17.1281
 20
211.77
 42
-0.3470924647
  0
VERTEX
  8
LAYER_2
 10
-16.9968
 20
211.9592
 42
-0.1261120874
  0
VERTEX
  8
LAYER_2
 10
-16.8625
 20
211.9774
  0
VERTEX
  8
LAYER_2
 10
-16.5346
 20
211.9774
  0
SEQEND
  0
POLYLINE
  8
LAYER_2
 40
0.05
 41
0.05
 66
1
 10
0
 20
0
 30
0
 70
1
  0
VERTEX
  8
LAYER_2
 10
-16.362
 20
211.4352
  0
VERTEX
  8
LAYER_2
 10
-16.362
 20
212.233
 42
0.2383829599
  0
VERTEX
  8
LAYER_2
 10
-16.4898
 20
212.5337
 42
0.1599209503
  0
VERTEX
  8
LAYER_2
 10
-16.8336
 20
212.6258
 42
0.2578644009
  0
VERTEX
  8
LAYER_2
 10
-17.2501
 20
212.4487
  0
VERTEX
  8
LAYER_2
 10
-17.133
 20
212.3409
 42
-0.2730960706
  0
VERTEX
  8
LAYER_2
 10
-16.8364
 20
212.4776
 42
-0.4521672334
  0
VERTEX
  8
LAYER_2
 10
-16.5346
 20
212.2193
  0
VERTEX
  8
LAYER_2
 10
-16.5346
 20
212.1066
  0
VERTEX
  8
LAYER_2
 10
-16.8863
 20
212.1066
 42
0.2189203862
  0
VERTEX
  8
LAYER_2
 10
-17.2226
 20
211.9822
 42
0.17494127
  0
VERTEX
  8
LAYER_2
 10
-17.2956
 20
211.7673
 42
0.2075768001
  0
VERTEX
  8
LAYER_2
 10
-17.2071
 20
211.5282
 42
0.2128603639
  0
VERTEX
  8
LAYER_2
 10
-16.8742
 20
211.4207
 42
0.2247839487
  0
VERTEX
  8
LAYER_2
 10
-16.5346
 20
211.5471
  0
VERTEX
  8
LAYER_2
 10
-16.5346
 20
211.4352
  0
SEQEND
  0
POLYLINE
  8
LAYER_2
 40
0.05
 41
0.05
 66
1
 10
0
 20
0
 30
0
 70
1
  0
VERTEX
  8
LAYER_2
 10
-17.6211
 20
211.4352
  0
VERTEX
  8
LAYER_2
 10
-17.6211
 20
212.1903
 42
0.2163078196
  0
VERTEX
  8
LAYER_2
 10
-17.7538
 20
212.5281
 42
0.1798246735
  0
VERTEX
  8
LAYER_2
 10
-18.0449
 20
212.6258
 42
0.2190712165
  0
VERTEX
  8
LAYER_2
 10
-18.3749
 20
212.4818
  0
VERTEX
  8
LAYER_2
 10
-18.3749
 20
213.137
  0
VERTEX
  8
LAYER_2
 10
-18.5475
 20
213.137
  0
VERTEX
  8
LAYER_2
 10
-18.5475
 20
211.4352
  0
VERTEX
  8
LAYER_2
 10
-18.3749
 20
211.4352
  0
VERTEX
  8
LAYER_2
 10
-18.3749
 20
212.1617
 42
-0.4350388577
  0
VERTEX
  8
LAYER_2
 10
-18.0807
 20
212.4725
 42
-0.4517618327
  0
VERTEX
  8
LAYER_2
 10
-17.7934
 20
212.1617
  0
VERTEX
  8
LAYER_2
 10
-17.7934
 20
211.4352
  0
SEQEND
  0
ENDBLK
  0
BLOCK
  8
LAYER_2
  2
AIGNBL02020007
 70
64
 10
0
 20
0
 30
0
  3
AIGNBL02020007
  0
INSERT
  8
LAYER_2
  2
AIGNBL02030008
 10
0
 20
0
 30
0
  0
ENDBLK
  0
BLOCK
  8
LAYER_2
  2
AIGNBL02020010
 70
64
 10
0
 20
0
 30
0
  3
AIGNBL02020010
  0
INSERT
  8
LAYER_2
  2
AIGNBL02030011
 10
0
 20
0
 30
0
  0
INSERT
  8
LAYER_2
  2
AIGNBL02030012
 10
0
 20
0
 30
0
  0
INSERT
  8
LAYER_2
  2
AIGNBL02030013
 10
0
 20
0
 30
0
  0
INSERT
  8
LAYER_2
  2
AIGNBL02030014
 10
0
 20
0
 30
0
  0
INSERT
  8
LAYER_2
  2
AIGNBL02030015
 10
0
 20
0
 30
0
  0
INSERT
  8
LAYER_2
  2
AIGNBL02030016
 10
0
 20
0
 30
0
  0
INSERT
  8
LAYER_2
  2
AIGNBL02030017
 10
0
 20
0
 30
0
  0
INSERT
  8
LAYER_2
  2
AIGNBL02030018
 10
0
 20
0
 30
0
  0
INSERT
  8
LAYER_2
  2
AIGNBL02030019
 10
0
 20
0
 30
0
  0
INSERT
  8
LAYER_2
  2
AIGNBL0203001A
 10
0
 20
0
 30
0
  0
INSERT
  8
LAYER_2
  2
AIGNBL0203001B
 10
0
 20
0
 30
0
  0
INSERT
  8
LAYER_2
  2
AIGNBL0203001C
 10
0
 20
0
 30
0
  0
INSERT
  8
LAYER_2
  2
AIGNBL0203001D
 10
0
 20
0
 30
0
  0
INSERT
  8
LAYER_2
  2
AIGNBL0203001E
 10
0
 20
0
 30
0
  0
INSERT
  8
LAYER_2
  2
AIGNBL0203001F
 10
0
 20
0
 30
0
  0
INSERT
  8
LAYER_2
  2
AIGNBL02030020
 10
0
 20
0
 30
0
  0
INSERT
  8
LAYER_2
  2
AIGNBL02030021
 10
0
 20
0
 30
0
  0
INSERT
  8
LAYER_2
  2
AIGNBL02030022
 10
0
 20
0
 30
0
  0
INSERT
  8
LAYER_2
  2
AIGNBL02030023
 10
0
 20
0
 30
0
  0
INSERT
  8
LAYER_2
  2
AIGNBL02030024
 10
0
 20
0
 30
0
  0
INSERT
  8
LAYER_2
  2
AIGNBL02030025
 10
0
 20
0
 30
0
  0
INSERT
  8
LAYER_2
  2
AIGNBL02030026
 10
0
 20
0
 30
0
  0
INSERT
  8
LAYER_2
  2
AIGNBL02030027
 10
0
 20
0
 30
0
  0
ENDBLK
  0
BLOCK
  8
LAYER_2
  2
AIGNBL02010002
 70
64
 10
0
 20
0
 30
0
  3
AIGNBL02010002
  0
POLYLINE
  8
LAYER_2
 40
0.7056
 41
0.7056
 66
1
 10
0
 20
0
 30
0
 70
1
  0
VERTEX
  8
LAYER_2
 10
251.6749
 20
230.337
  0
VERTEX
  8
LAYER_2
 10
251.6749
 20
33.3285
  0
VERTEX
  8
LAYER_2
 10
-30.3177
 20
33.3285
  0
VERTEX
  8
LAYER_2
 10
-30.3177
 20
230.337
  0
SEQEND
  0
ENDBLK
  0
BLOCK
  8
LAYER_2
  2
AIGNBL02010003
 70
64
 10
0
 20
0
 30
0
  3
AIGNBL02010003
  0
INSERT
  8
LAYER_2
  2
AIGNBL02020004
 10
0
 20
0
 30
0
  0
POLYLINE
  8
LAYER_2
 40
0.05
 41
0.05
 66
1
 10
0
 20
0
 30
0
  0
VERTEX
  8
LAYER_2
 10
-6.457
 20
223.2684
  0
VERTEX
  8
LAYER_2
 10
-8.0924
 20
223.2684
  0
VERTEX
  8
LAYER_2
 10
-8.0924
 20
216.1939
 42
0.09304299953
  0
VERTEX
  8
LAYER_2
 10
-7.9518
 20
215.4241
 42
0.2872011141
  0
VERTEX
  8
LAYER_2
 10
-6.4597
 20
214.3359
  0
VERTEX
  8
LAYER_2
 10
-6.457
 20
223.2684
  0
SEQEND
  0
INSERT
  8
LAYER_2
  2
AIGNBL02020005
 10
0
 20
0
 30
0
  0
ENDBLK
  0
BLOCK
  8
LAYER_2
  2
AIGNBL02010006
 70
64
 10
0
 20
0
 30
0
  3
AIGNBL02010006
  0
INSERT
  8
LAYER_2
  2
AIGNBL02020007
 10
0
 20
0
 30
0
  0
INSERT
  8
LAYER_2
  2
AIGNBL02020010
 10
0
 20
0
 30
0
  0
ENDBLK
  0
BLOCK
  8
LAYER_2
  2
AIGNBL02010028
 70
64
 10
0
 20
0
 30
0
  3
AIGNBL02010028
  0
POLYLINE
  8
LAYER_2
 40
0.2646
 41
0.2646
 66
1
 10
0
 20
0
 30
0
  0
VERTEX
  8
LAYER_2
 10
55.0307
 20
134.0477
 42
0.4143138232
  0
VERTEX
  8
LAYER_2
 10
55.2286
 20
133.8497
  0
SEQEND
  0
POLYLINE
  8
LAYER_2
 40
0.2646
 41
0.2646
 66
1
 10
0
 20
0
 30
0
  0
VERTEX
  8
LAYER_2
 10
55.2284
 20
134.8926
 42
0.4142439764
  0
VERTEX
  8
LAYER_2
 10
55.0305
 20
134.6947
  0
SEQEND
  0
ENDBLK
  0
BLOCK
  8
LAYER_2
  2
AIGNBL02010029
 70
64
 10
0
 20
0
 30
0
  3
AIGNBL02010029
  0
POLYLINE
  8
LAYER_2
 40
0.2646
 41
0.2646
 66
1
 10
0
 20
0
 30
0
  0
VERTEX
  8
LAYER_2
 10
55.2284
 20
134.8926
 42
0.4142439764
  0
VERTEX
  8
LAYER_2
 10
55.0305
 20
134.6947
  0
SEQEND
  0
ENDBLK
  0
BLOCK
  8
LAYER_2
  2
AIGNBL0201002A
 70
64
 10
0
 20
0
 30
0
  3
AIGNBL0201002A
  0
POLYLINE
  8
LAYER_2
 40
0.2646
 41
0.2646
 66
1
 10
0
 20
0
 30
0
  0
VERTEX
  8
LAYER_2
 10
55.0307
 20
134.0477
 42
0.4143138232
  0
VERTEX
  8
LAYER_2
 10
55.2286
 20
133.8497
  0
SEQEND
  0
ENDBLK
  0
BLOCK
  8
LAYER_2
  2
AIGNBL0201002B
 70
64
 10
0
 20
0
 30
0
  3
AIGNBL0201002B
  0
POLYLINE
  8
LAYER_2
 40
0.2646
 41
0.2646
 66
1
 10
0
 20
0
 30
0
  0
VERTEX
  8
LAYER_2
 10
226.7074
 20
133.8499
 42
0.4141632972
  0
VERTEX
  8
LAYER_2
 10
226.9053
 20
134.0478
  0
SEQEND
  0
POLYLINE
  8
LAYER_2
 40
0.2646
 41
0.2646
 66
1
 10
0
 20
0
 30
0
  0
VERTEX
  8
LAYER_2
 10
177.1057
 20
134.0477
 42
0.4143407062
  0
VERTEX
  8
LAYER_2
 10
177.3037
 20
133.8497
  0
SEQEND
  0
POLYLINE
  8
LAYER_2
 40
0.2646
 41
0.2646
 66
1
 10
0
 20
0
 30
0
  0
VERTEX
  8
LAYER_2
 10
177.3035
 20
134.8926
 42
0.4142310552
  0
VERTEX
  8
LAYER_2
 10
177.1056
 20
134.6947
  0
SEQEND
  0
POLYLINE
  8
LAYER_2
 40
0.2646
 41
0.2646
 66
1
 10
0
 20
0
 30
0
  0
VERTEX
  8
LAYER_2
 10
226.9051
 20
134.6949
 42
0.4141856735
  0
VERTEX
  8
LAYER_2
 10
226.7072
 20
134.8928
  0
SEQEND
  0
ENDBLK
  0
BLOCK
  8
LAYER_2
  2
AIGNBL0201002C
 70
64
 10
0
 20
0
 30
0
  3
AIGNBL0201002C
  0
POLYLINE
  8
LAYER_2
 40
0.2646
 41
0.2646
 66
1
 10
0
 20
0
 30
0
  0
VERTEX
  8
LAYER_2
 10
219.0128
 20
133.8499
 42
0.2357091186
  0
VERTEX
  8
LAYER_2
 10
218.654
 20
133.671
  0
SEQEND
  0
POLYLINE
  8
LAYER_2
 40
0.2646
 41
0.2646
 66
1
 10
0
 20
0
 30
0
  0
VERTEX
  8
LAYER_2
 10
216.593
 20
118.2835
 42
0.3669174808
  0
VERTEX
  8
LAYER_2
 10
217.0435
 20
118.6052
  0
SEQEND
  0
ENDBLK
  0
BLOCK
  8
LAYER_2
  2
AIGNBL0201002D
 70
64
 10
0
 20
0
 30
0
  3
AIGNBL0201002D
  0
POLYLINE
  8
LAYER_2
 40
0.2646
 41
0.2646
 66
1
 10
0
 20
0
 30
0
  0
VERTEX
  8
LAYER_2
 10
181.7258
 20
133.6706
 42
0.2355115548
  0
VERTEX
  8
LAYER_2
 10
181.3667
 20
133.8498
  0
SEQEND
  0
POLYLINE
  8
LAYER_2
 40
0.2646
 41
0.2646
 66
1
 10
0
 20
0
 30
0
  0
VERTEX
  8
LAYER_2
 10
182.6077
 20
118.7426
 42
0.3987554865
  0
VERTEX
  8
LAYER_2
 10
183.0564
 20
118.3168
  0
SEQEND
  0
ENDBLK
  0
BLOCK
  8
LAYER_2
  2
AIGNBL0201002E
 70
64
 10
0
 20
0
 30
0
  3
AIGNBL0201002E
  0
POLYLINE
  8
LAYER_2
 40
0.2646
 41
0.2646
 66
1
 10
0
 20
0
 30
0
  0
VERTEX
  8
LAYER_2
 10
177.1057
 20
134.0477
 42
0.4143407062
  0
VERTEX
  8
LAYER_2
 10
177.3037
 20
133.8497
  0
SEQEND
  0
POLYLINE
  8
LAYER_2
 40
0.2646
 41
0.2646
 66
1
 10
0
 20
0
 30
0
  0
VERTEX
  8
LAYER_2
 10
177.3035
 20
134.8926
 42
0.4142310552
  0
VERTEX
  8
LAYER_2
 10
177.1056
 20
134.6947
  0
SEQEND
  0
POLYLINE
  8
LAYER_2
 40
0.2646
 41
0.2646
 66
1
 10
0
 20
0
 30
0
  0
VERTEX
  8
LAYER_2
 10
226.7074
 20
133.8499
 42
0.4141632972
  0
VERTEX
  8
LAYER_2
 10
226.9053
 20
134.0478
  0
SEQEND
  0
POLYLINE
  8
LAYER_2
 40
0.2646
 41
0.2646
 66
1
 10
0
 20
0
 30
0
  0
VERTEX
  8
LAYER_2
 10
226.9051
 20
134.6949
 42
0.4141856735
  0
VERTEX
  8
LAYER_2
 10
226.7072
 20
134.8928
  0
SEQEND
  0
ENDBLK
  0
BLOCK
  8
LAYER_2
  2
AIGNBL0201002F
 70
64
 10
0
 20
0
 30
0
  3
AIGNBL0201002F
  0
POLYLINE
  8
LAYER_2
 40
0.05
 41
0.05
 66
1
 10
0
 20
0
 30
0
 70
1
  0
VERTEX
  8
LAYER_2
 10
199.4603
 20
137.1504
  0
VERTEX
  8
LAYER_2
 10
199.7575
 20
137.1755
 42
0.1773120814
  0
VERTEX
  8
LAYER_2
 10
199.9108
 20
136.8493
 42
0.1900571269
  0
VERTEX
  8
LAYER_2
 10
200.2008
 20
136.74
 42
0.2162712139
  0
VERTEX
  8
LAYER_2
 10
200.5467
 20
136.8941
 42
0.1918964755
  0
VERTEX
  8
LAYER_2
 10
200.6882
 20
137.3029
 42
0.1987607501
  0
VERTEX
  8
LAYER_2
 10
200.5522
 20
137.6849
 42
0.2079447879
  0
VERTEX
  8
LAYER_2
 10
200.1961
 20
137.8248
 42
0.1328631001
  0
VERTEX
  8
LAYER_2
 10
199.9493
 20
137.7627
 42
0.1269558027
  0
VERTEX
  8
LAYER_2
 10
199.7764
 20
137.6016
  0
VERTEX
  8
LAYER_2
 10
199.5106
 20
137.6362
  0
VERTEX
  8
LAYER_2
 10
199.7339
 20
138.8201
  0
VERTEX
  8
LAYER_2
 10
200.88
 20
138.8201
  0
VERTEX
  8
LAYER_2
 10
200.88
 20
138.5496
  0
VERTEX
  8
LAYER_2
 10
199.9603
 20
138.5496
  0
VERTEX
  8
LAYER_2
 10
199.8361
 20
137.9302
 42
-0.1559622877
  0
VERTEX
  8
LAYER_2
 10
200.2716
 20
138.0748
 42
-0.2045862004
  0
VERTEX
  8
LAYER_2
 10
200.781
 20
137.8657
 42
-0.2046127192
  0
VERTEX
  8
LAYER_2
 10
200.9885
 20
137.328
 42
-0.1727685639
  0
VERTEX
  8
LAYER_2
 10
200.8062
 20
136.7872
 42
-0.238730576
  0
VERTEX
  8
LAYER_2
 10
200.2008
 20
136.5073
 42
-0.1846129299
  0
VERTEX
  8
LAYER_2
 10
199.6875
 20
136.6834
 42
-0.194884667
  0
SEQEND
  0
POLYLINE
  8
LAYER_2
 40
0.05
 41
0.05
 66
1
 10
0
 20
0
 30
0
 70
1
  0
VERTEX
  8
LAYER_2
 10
202.1578
 20
136.5466
  0
VERTEX
  8
LAYER_2
 10
202.1578
 20
137.0985
  0
VERTEX
  8
LAYER_2
 10
201.1578
 20
137.0985
  0
VERTEX
  8
LAYER_2
 10
201.1578
 20
137.3579
  0
VERTEX
  8
LAYER_2
 10
202.2097
 20
138.8515
  0
VERTEX
  8
LAYER_2
 10
202.4408
 20
138.8515
  0
VERTEX
  8
LAYER_2
 10
202.4408
 20
137.3579
  0
VERTEX
  8
LAYER_2
 10
202.7521
 20
137.3579
  0
VERTEX
  8
LAYER_2
 10
202.7521
 20
137.0985
  0
VERTEX
  8
LAYER_2
 10
202.4408
 20
137.0985
  0
VERTEX
  8
LAYER_2
 10
202.4408
 20
136.5466
  0
SEQEND
  0
POLYLINE
  8
LAYER_2
 40
0.05
 41
0.05
 66
1
 10
0
 20
0
 30
0
 70
1
  0
VERTEX
  8
LAYER_2
 10
202.1578
 20
137.3579
  0
VERTEX
  8
LAYER_2
 10
202.1578
 20
138.3971
  0
VERTEX
  8
LAYER_2
 10
201.4361
 20
137.3579
  0
SEQEND
  0
POLYLINE
  8
LAYER_2
 40
0.05
 41
0.05
 66
1
 10
0
 20
0
 30
0
 70
1
  0
VERTEX
  8
LAYER_2
 10
203.2688
 20
136.7463
 42
-0.1335505391
  0
VERTEX
  8
LAYER_2
 10
203.0643
 20
137.3044
 42
-0.04625901734
  0
VERTEX
  8
LAYER_2
 10
203.0409
 20
137.6833
 42
-0.08415946907
  0
VERTEX
  8
LAYER_2
 10
203.125
 20
138.3413
 42
-0.1439872905
  0
VERTEX
  8
LAYER_2
 10
203.375
 20
138.7257
 42
-0.1755895383
  0
VERTEX
  8
LAYER_2
 10
203.7924
 20
138.8609
 42
-0.1274768811
  0
VERTEX
  8
LAYER_2
 10
204.1178
 20
138.7863
 42
-0.1265971543
  0
VERTEX
  8
LAYER_2
 10
204.349
 20
138.5709
 42
-0.07516071156
  0
VERTEX
  8
LAYER_2
 10
204.492
 20
138.2281
 42
-0.05313719341
  0
VERTEX
  8
LAYER_2
 10
204.5439
 20
137.6833
 42
-0.08359335125
  0
VERTEX
  8
LAYER_2
 10
204.4606
 20
137.0285
 42
-0.143767343
  0
VERTEX
  8
LAYER_2
 10
204.2114
 20
136.6433
 42
-0.176190946
  0
VERTEX
  8
LAYER_2
 10
203.7924
 20
136.5073
 42
-0.2330373665
  0
SEQEND
  0
POLYLINE
  8
LAYER_2
 40
0.05
 41
0.05
 66
1
 10
0
 20
0
 30
0
 70
1
  0
VERTEX
  8
LAYER_2
 10
203.4779
 20
138.4616
 42
0.1340043555
  0
VERTEX
  8
LAYER_2
 10
203.336
 20
137.8679
 42
0.01812863699
  0
VERTEX
  8
LAYER_2
 10
203.3317
 20
137.6833
 42
0.1343455582
  0
VERTEX
  8
LAYER_2
 10
203.4646
 20
136.9279
 42
0.2504100629
  0
VERTEX
  8
LAYER_2
 10
203.7924
 20
136.74
 42
0.254825547
  0
VERTEX
  8
LAYER_2
 10
204.1202
 20
136.9287
 42
0.1353059869
  0
VERTEX
  8
LAYER_2
 10
204.2502
 20
137.5236
 42
0.01456698045
  0
VERTEX
  8
LAYER_2
 10
204.2531
 20
137.6833
 42
0.1345062864
  0
VERTEX
  8
LAYER_2
 10
204.1202
 20
138.4396
 42
0.2500267912
  0
VERTEX
  8
LAYER_2
 10
203.7893
 20
138.6267
 42
0.2537531878
  0
SEQEND
  0
ENDBLK
  0
BLOCK
  8
LAYER_2
  2
AIGNBL02010030
 70
64
 10
0
 20
0
 30
0
  3
AIGNBL02010030
  0
POLYLINE
  8
LAYER_2
 40
0.05
 41
0.05
 66
1
 10
0
 20
0
 30
0
 70
1
  0
VERTEX
  8
LAYER_2
 10
169.8587
 20
127.7243
 42
-0.1336240984
  0
VERTEX
  8
LAYER_2
 10
169.3005
 20
127.5197
 42
-0.04626698921
  0
VERTEX
  8
LAYER_2
 10
168.9216
 20
127.4963
 42
-0.08414734453
  0
VERTEX
  8
LAYER_2
 10
168.2637
 20
127.5805
 42
-0.1439586137
  0
VERTEX
  8
LAYER_2
 10
167.8792
 20
127.8304
 42
-0.1750999977
  0
VERTEX
  8
LAYER_2
 10
167.744
 20
128.2479
 42
-0.1276761332
  0
VERTEX
  8
LAYER_2
 10
167.8187
 20
128.5733
 42
-0.1265751839
  0
VERTEX
  8
LAYER_2
 10
168.0341
 20
128.8044
 42
-0.07533292951
  0
VERTEX
  8
LAYER_2
 10
168.3769
 20
128.9475
 42
-0.05315293434
  0
VERTEX
  8
LAYER_2
 10
168.9216
 20
128.9994
 42
-0.0835683295
  0
VERTEX
  8
LAYER_2
 10
169.5765
 20
128.9161
 42
-0.1436188774
  0
VERTEX
  8
LAYER_2
 10
169.9617
 20
128.6669
 42
-0.176036927
  0
VERTEX
  8
LAYER_2
 10
170.0976
 20
128.2479
 42
-0.233029582
  0
SEQEND
  0
POLYLINE
  8
LAYER_2
 40
0.05
 41
0.05
 66
1
 10
0
 20
0
 30
0
 70
1
  0
VERTEX
  8
LAYER_2
 10
168.8084
 20
126.1416
 42
-0.1578681864
  0
VERTEX
  8
LAYER_2
 10
168.6245
 20
125.8806
 42
-0.1543873458
  0
VERTEX
  8
LAYER_2
 10
168.3383
 20
125.7957
 42
-0.2115164651
  0
VERTEX
  8
LAYER_2
 10
167.9154
 20
125.9765
 42
-0.1976681312
  0
VERTEX
  8
LAYER_2
 10
167.744
 20
126.4576
 42
-0.1944868381
  0
VERTEX
  8
LAYER_2
 10
167.9193
 20
126.9434
 42
-0.2108577413
  0
VERTEX
  8
LAYER_2
 10
168.3462
 20
127.1274
 42
-0.1595111041
  0
VERTEX
  8
LAYER_2
 10
168.6253
 20
127.0433
 42
-0.1454842327
  0
VERTEX
  8
LAYER_2
 10
168.8084
 20
126.7878
 42
-0.1629518185
  0
VERTEX
  8
LAYER_2
 10
169.0317
 20
127.1109
 42
-0.1580708817
  0
VERTEX
  8
LAYER_2
 10
169.3996
 20
127.2217
 42
-0.2090222232
  0
VERTEX
  8
LAYER_2
 10
169.8964
 20
127.0126
 42
-0.2009048411
  0
VERTEX
  8
LAYER_2
 10
170.0976
 20
126.4623
 42
-0.1954954402
  0
VERTEX
  8
LAYER_2
 10
169.8956
 20
125.912
 42
-0.2094987376
  0
VERTEX
  8
LAYER_2
 10
169.3917
 20
125.7029
 42
-0.1662995404
  0
VERTEX
  8
LAYER_2
 10
169.0152
 20
125.8169
 42
-0.1710141289
  0
SEQEND
  0
POLYLINE
  8
LAYER_2
 40
0.05
 41
0.05
 66
1
 10
0
 20
0
 30
0
 70
1
  0
VERTEX
  8
LAYER_2
 10
170.0583
 20
124.9818
  0
VERTEX
  8
LAYER_2
 10
170.0583
 20
124.6988
  0
VERTEX
  8
LAYER_2
 10
168.255
 20
124.6988
  0
VERTEX
  8
LAYER_2
 10
168.45
 20
124.4307
  0
VERTEX
  8
LAYER_2
 10
168.5962
 20
124.1328
  0
VERTEX
  8
LAYER_2
 10
168.3226
 20
124.1328
 42
0.07447164687
  0
VERTEX
  8
LAYER_2
 10
168.0522
 20
124.5478
 42
0.1026560454
  0
VERTEX
  8
LAYER_2
 10
167.744
 20
124.7994
  0
VERTEX
  8
LAYER_2
 10
167.744
 20
124.9818
  0
SEQEND
  0
POLYLINE
  8
LAYER_2
 40
0.05
 41
0.05
 66
1
 10
0
 20
0
 30
0
 70
1
  0
VERTEX
  8
LAYER_2
 10
168.3289
 20
126.085
 42
0.2075163246
  0
VERTEX
  8
LAYER_2
 10
168.5962
 20
126.1903
 42
0.1993634192
  0
VERTEX
  8
LAYER_2
 10
168.6999
 20
126.4639
 42
0.2033148101
  0
VERTEX
  8
LAYER_2
 10
168.597
 20
126.732
 42
0.2056079815
  0
VERTEX
  8
LAYER_2
 10
168.3446
 20
126.8365
 42
0.2064269622
  0
VERTEX
  8
LAYER_2
 10
168.0828
 20
126.7288
 42
0.2007473667
  0
VERTEX
  8
LAYER_2
 10
167.9767
 20
126.4608
 42
0.2012100612
  0
VERTEX
  8
LAYER_2
 10
168.0805
 20
126.1919
 42
0.2087279643
  0
SEQEND
  0
POLYLINE
  8
LAYER_2
 40
0.05
 41
0.05
 66
1
 10
0
 20
0
 30
0
 70
1
  0
VERTEX
  8
LAYER_2
 10
168.1434
 20
127.9334
 42
0.1341803112
  0
VERTEX
  8
LAYER_2
 10
168.7371
 20
127.7915
 42
0.0181183757
  0
VERTEX
  8
LAYER_2
 10
168.9216
 20
127.7872
 42
0.1343215453
  0
VERTEX
  8
LAYER_2
 10
169.6771
 20
127.9201
 42
0.2502394661
  0
VERTEX
  8
LAYER_2
 10
169.865
 20
128.2479
 42
0.2547360631
  0
VERTEX
  8
LAYER_2
 10
169.6763
 20
128.5757
 42
0.1351746835
  0
VERTEX
  8
LAYER_2
 10
169.0813
 20
128.7056
 42
0.01455832408
  0
VERTEX
  8
LAYER_2
 10
168.9216
 20
128.7085
 42
0.134405779
  0
VERTEX
  8
LAYER_2
 10
168.1654
 20
128.5757
 42
0.2500679765
  0
VERTEX
  8
LAYER_2
 10
167.9783
 20
128.2447
 42
0.2539859574
  0
SEQEND
  0
POLYLINE
  8
LAYER_2
 40
0.05
 41
0.05
 66
1
 10
0
 20
0
 30
0
 70
1
  0
VERTEX
  8
LAYER_2
 10
169.3933
 20
125.9938
 42
0.1164274019
  0
VERTEX
  8
LAYER_2
 10
169.6276
 20
126.0512
 42
0.1521074846
  0
VERTEX
  8
LAYER_2
 10
169.8029
 20
126.2218
 42
0.126417887
  0
VERTEX
  8
LAYER_2
 10
169.865
 20
126.4655
 42
0.2028721239
  0
VERTEX
  8
LAYER_2
 10
169.7345
 20
126.8003
 42
0.2054261195
  0
VERTEX
  8
LAYER_2
 10
169.4027
 20
126.9324
 42
0.206740869
  0
VERTEX
  8
LAYER_2
 10
169.0647
 20
126.7964
 42
0.2013368187
  0
VERTEX
  8
LAYER_2
 10
168.9311
 20
126.456
 42
0.2051638081
  0
VERTEX
  8
LAYER_2
 10
169.0631
 20
126.1251
 42
0.2029280038
  0
SEQEND
  0
ENDBLK
  0
BLOCK
  8
LAYER_2
  2
AIGNBL02010031
 70
64
 10
0
 20
0
 30
0
  3
AIGNBL02010031
  0
POLYLINE
  8
LAYER_2
 40
0.2646
 41
0.2646
 66
1
 10
0
 20
0
 30
0
  0
VERTEX
  8
LAYER_2
 10
196.9287
 20
121.4618
 42
0.1720463809
  0
VERTEX
  8
LAYER_2
 10
196.8063
 20
121.5165
  0
SEQEND
  0
ENDBLK
  0
BLOCK
  8
LAYER_2
  2
AIGNBL02010032
 70
64
 10
0
 20
0
 30
0
  3
AIGNBL02010032
  0
POLYLINE
  8
LAYER_2
 40
0.2646
 41
0.2646
 66
1
 10
0
 20
0
 30
0
  0
VERTEX
  8
LAYER_2
 10
198.0682
 20
120.3483
 42
0.2026463611
  0
VERTEX
  8
LAYER_2
 10
198.0076
 20
120.4909
  0
SEQEND
  0
ENDBLK
  0
BLOCK
  8
LAYER_2
  2
AIGNBL02010033
 70
64
 10
0
 20
0
 30
0
  3
AIGNBL02010033
  0
POLYLINE
  8
LAYER_2
 40
0.2646
 41
0.2646
 66
1
 10
0
 20
0
 30
0
  0
VERTEX
  8
LAYER_2
 10
189.187
 20
120.688
 42
0.3324078333
  0
VERTEX
  8
LAYER_2
 10
188.4433
 20
120.2128
  0
SEQEND
  0
ENDBLK
  0
BLOCK
  8
LAYER_2
  2
AIGNBL02010034
 70
64
 10
0
 20
0
 30
0
  3
AIGNBL02010034
  0
POLYLINE
  8
LAYER_2
 40
0.2646
 41
0.2646
 66
1
 10
0
 20
0
 30
0
  0
VERTEX
  8
LAYER_2
 10
187.587
 20
118.2809
 42
0.3014362459
  0
VERTEX
  8
LAYER_2
 10
187.7722
 20
118.4089
  0
SEQEND
  0
ENDBLK
  0
BLOCK
  8
LAYER_2
  2
AIGNBL02010035
 70
64
 10
0
 20
0
 30
0
  3
AIGNBL02010035
  0
POLYLINE
  8
LAYER_2
 40
0.2646
 41
0.2646
 66
1
 10
0
 20
0
 30
0
  0
VERTEX
  8
LAYER_2
 10
182.6753
 20
134.4645
 42
0.377146513
  0
VERTEX
  8
LAYER_2
 10
182.2294
 20
134.8568
  0
SEQEND
  0
ENDBLK
  0
BLOCK
  8
LAYER_2
  2
AIGNBL02010036
 70
64
 10
0
 20
0
 30
0
  3
AIGNBL02010036
  0
POLYLINE
  8
LAYER_2
 40
0.2646
 41
0.2646
 66
1
 10
0
 20
0
 30
0
  0
VERTEX
  8
LAYER_2
 10
186.8048
 20
118.2878
 42
0.2421327463
  0
VERTEX
  8
LAYER_2
 10
184.486
 20
118.2878
  0
SEQEND
  0
POLYLINE
  8
LAYER_2
 40
0.2646
 41
0.2646
 66
1
 10
0
 20
0
 30
0
  0
VERTEX
  8
LAYER_2
 10
184.3344
 20
119.4614
 42
0.2202380895
  0
VERTEX
  8
LAYER_2
 10
184.4244
 20
119.3188
 42
0.2209035863
  0
VERTEX
  8
LAYER_2
 10
184.5916
 20
119.2973
  0
SEQEND
  0
ENDBLK
  0
BLOCK
  8
LAYER_2
  2
AIGNBL02010037
 70
64
 10
0
 20
0
 30
0
  3
AIGNBL02010037
  0
POLYLINE
  8
LAYER_2
 40
0.2646
 41
0.2646
 66
1
 10
0
 20
0
 30
0
  0
VERTEX
  8
LAYER_2
 10
184.3654
 20
121.049
 42
0.2195340839
  0
VERTEX
  8
LAYER_2
 10
184.2077
 20
120.9883
 42
0.221684851
  0
VERTEX
  8
LAYER_2
 10
184.1548
 20
120.8278
  0
SEQEND
  0
ENDBLK
  0
BLOCK
  8
LAYER_2
  2
AIGNBL02010038
 70
64
 10
0
 20
0
 30
0
  3
AIGNBL02010038
  0
POLYLINE
  8
LAYER_2
 40
0.2646
 41
0.2646
 66
1
 10
0
 20
0
 30
0
  0
VERTEX
  8
LAYER_2
 10
187.5922
 20
120.5662
 42
0.2360508592
  0
VERTEX
  8
LAYER_2
 10
187.5739
 20
120.7426
 42
0.2323108739
  0
VERTEX
  8
LAYER_2
 10
187.4215
 20
120.8333
  0
SEQEND
  0
ENDBLK
  0
BLOCK
  8
LAYER_2
  2
AIGNBL02010039
 70
64
 10
0
 20
0
 30
0
  3
AIGNBL02010039
  0
POLYLINE
  8
LAYER_2
 40
0.2646
 41
0.2646
 66
1
 10
0
 20
0
 30
0
  0
VERTEX
  8
LAYER_2
 10
186.9044
 20
119.229
 42
0.1974089792
  0
VERTEX
  8
LAYER_2
 10
187.0565
 20
119.2329
 42
0.197293805
  0
VERTEX
  8
LAYER_2
 10
187.1609
 20
119.3437
  0
SEQEND
  0
POLYLINE
  8
LAYER_2
 40
0.2646
 41
0.2646
 66
1
 10
0
 20
0
 30
0
  0
VERTEX
  8
LAYER_2
 10
186.8892
 20
119.2288
 42
0.1757177999
  0
VERTEX
  8
LAYER_2
 10
184.5976
 20
119.3001
  0
SEQEND
  0
ENDBLK
  0
BLOCK
  8
LAYER_2
  2
AIGNBL0201003A
 70
64
 10
0
 20
0
 30
0
  3
AIGNBL0201003A
  0
POLYLINE
  8
LAYER_2
 40
0.2646
 41
0.2646
 66
1
 10
0
 20
0
 30
0
  0
VERTEX
  8
LAYER_2
 10
184.2647
 20
122.3405
 42
0.3567301318
  0
VERTEX
  8
LAYER_2
 10
184.6778
 20
121.9496
  0
SEQEND
  0
POLYLINE
  8
LAYER_2
 40
0.2646
 41
0.2646
 66
1
 10
0
 20
0
 30
0
  0
VERTEX
  8
LAYER_2
 10
203.5371
 20
121.5164
 42
0.1747163656
  0
VERTEX
  8
LAYER_2
 10
203.4147
 20
121.4617
  0
SEQEND
  0
ENDBLK
  0
BLOCK
  8
LAYER_2
  2
AIGNBL0201003B
 70
64
 10
0
 20
0
 30
0
  3
AIGNBL0201003B
  0
POLYLINE
  8
LAYER_2
 40
0.2646
 41
0.2646
 66
1
 10
0
 20
0
 30
0
  0
VERTEX
  8
LAYER_2
 10
202.3719
 20
120.491
 42
0.2011272861
  0
VERTEX
  8
LAYER_2
 10
202.3112
 20
120.3485
  0
SEQEND
  0
ENDBLK
  0
BLOCK
  8
LAYER_2
  2
AIGNBL0201003C
 70
64
 10
0
 20
0
 30
0
  3
AIGNBL0201003C
  0
POLYLINE
  8
LAYER_2
 40
0.2646
 41
0.2646
 66
1
 10
0
 20
0
 30
0
  0
VERTEX
  8
LAYER_2
 10
211.9
 20
120.2128
 42
0.3322904015
  0
VERTEX
  8
LAYER_2
 10
211.1563
 20
120.688
  0
SEQEND
  0
ENDBLK
  0
BLOCK
  8
LAYER_2
  2
AIGNBL0201003D
 70
64
 10
0
 20
0
 30
0
  3
AIGNBL0201003D
  0
POLYLINE
  8
LAYER_2
 40
0.2646
 41
0.2646
 66
1
 10
0
 20
0
 30
0
  0
VERTEX
  8
LAYER_2
 10
212.5713
 20
118.4089
 42
0.3123753208
  0
VERTEX
  8
LAYER_2
 10
212.7565
 20
118.2808
  0
SEQEND
  0
ENDBLK
  0
BLOCK
  8
LAYER_2
  2
AIGNBL0201003E
 70
64
 10
0
 20
0
 30
0
  3
AIGNBL0201003E
  0
POLYLINE
  8
LAYER_2
 40
0.2646
 41
0.2646
 66
1
 10
0
 20
0
 30
0
  0
VERTEX
  8
LAYER_2
 10
218.1138
 20
134.8567
 42
0.3771158507
  0
VERTEX
  8
LAYER_2
 10
217.6679
 20
134.4644
  0
SEQEND
  0
ENDBLK
  0
BLOCK
  8
LAYER_2
  2
AIGNBL0201003F
 70
64
 10
0
 20
0
 30
0
  3
AIGNBL0201003F
  0
POLYLINE
  8
LAYER_2
 40
0.2646
 41
0.2646
 66
1
 10
0
 20
0
 30
0
  0
VERTEX
  8
LAYER_2
 10
215.8574
 20
118.2878
 42
0.2421327457
  0
VERTEX
  8
LAYER_2
 10
213.5386
 20
118.2878
  0
SEQEND
  0
POLYLINE
  8
LAYER_2
 40
0.2646
 41
0.2646
 66
1
 10
0
 20
0
 30
0
  0
VERTEX
  8
LAYER_2
 10
215.7519
 20
119.2972
 42
0.2201875525
  0
VERTEX
  8
LAYER_2
 10
215.9191
 20
119.3187
 42
0.2194628673
  0
VERTEX
  8
LAYER_2
 10
216.0091
 20
119.4612
  0
SEQEND
  0
ENDBLK
  0
BLOCK
  8
LAYER_2
  2
AIGNBL02010040
 70
64
 10
0
 20
0
 30
0
  3
AIGNBL02010040
  0
POLYLINE
  8
LAYER_2
 40
0.2646
 41
0.2646
 66
1
 10
0
 20
0
 30
0
  0
VERTEX
  8
LAYER_2
 10
216.1887
 20
120.8277
 42
0.2198594179
  0
VERTEX
  8
LAYER_2
 10
216.1354
 20
120.9882
 42
0.2200664341
  0
VERTEX
  8
LAYER_2
 10
215.9781
 20
121.0489
  0
SEQEND
  0
ENDBLK
  0
BLOCK
  8
LAYER_2
  2
AIGNBL02010041
 70
64
 10
0
 20
0
 30
0
  3
AIGNBL02010041
  0
POLYLINE
  8
LAYER_2
 40
0.2646
 41
0.2646
 66
1
 10
0
 20
0
 30
0
  0
VERTEX
  8
LAYER_2
 10
212.9217
 20
120.8332
 42
0.2366494901
  0
VERTEX
  8
LAYER_2
 10
212.7696
 20
120.7426
 42
0.2318137355
  0
VERTEX
  8
LAYER_2
 10
212.7509
 20
120.5662
  0
SEQEND
  0
ENDBLK
  0
BLOCK
  8
LAYER_2
  2
AIGNBL02010042
 70
64
 10
0
 20
0
 30
0
  3
AIGNBL02010042
  0
POLYLINE
  8
LAYER_2
 40
0.2646
 41
0.2646
 66
1
 10
0
 20
0
 30
0
  0
VERTEX
  8
LAYER_2
 10
213.2185
 20
119.3437
 42
0.198020198
  0
VERTEX
  8
LAYER_2
 10
213.3229
 20
119.233
 42
0.1976531777
  0
VERTEX
  8
LAYER_2
 10
213.475
 20
119.2291
  0
SEQEND
  0
POLYLINE
  8
LAYER_2
 40
0.2646
 41
0.2646
 66
1
 10
0
 20
0
 30
0
  0
VERTEX
  8
LAYER_2
 10
215.7458
 20
119.3
 42
0.1758220939
  0
VERTEX
  8
LAYER_2
 10
213.4542
 20
119.2287
  0
SEQEND
  0
ENDBLK
  0
BLOCK
  8
LAYER_2
  2
AIGNBL02010043
 70
64
 10
0
 20
0
 30
0
  3
AIGNBL02010043
  0
POLYLINE
  8
LAYER_2
 40
0.2646
 41
0.2646
 66
1
 10
0
 20
0
 30
0
  0
VERTEX
  8
LAYER_2
 10
215.6657
 20
121.9496
 42
0.3424930524
  0
VERTEX
  8
LAYER_2
 10
216.0788
 20
122.3405
  0
SEQEND
  0
ENDBLK
  0
BLOCK
  8
LAYER_2
  2
AIGNBL02010044
 70
64
 10
0
 20
0
 30
0
  3
AIGNBL02010044
  0
POLYLINE
  8
LAYER_2
 40
0.1411
 41
0.1411
 66
1
 10
0
 20
0
 30
0
  0
VERTEX
  8
LAYER_2
 10
58.2487
 20
205.9062
 42
0.4142121216
  0
VERTEX
  8
LAYER_2
 10
55.0307
 20
202.6881
  0
SEQEND
  0
POLYLINE
  8
LAYER_2
 40
0.1411
 41
0.1411
 66
1
 10
0
 20
0
 30
0
  0
VERTEX
  8
LAYER_2
 10
55.0307
 20
159.3608
 42
0.4142096795
  0
VERTEX
  8
LAYER_2
 10
58.2487
 20
156.1428
  0
SEQEND
  0
ENDBLK
  0
BLOCK
  8
LAYER_2
  2
AIGNBL02010045
 70
64
 10
0
 20
0
 30
0
  3
AIGNBL02010045
  0
POLYLINE
  8
LAYER_2
 40
0.1411
 41
0.1411
 66
1
 10
0
 20
0
 30
0
  0
VERTEX
  8
LAYER_2
 10
156.4272
 20
202.6881
 42
0.4142112153
  0
VERTEX
  8
LAYER_2
 10
153.2092
 20
205.9061
  0
SEQEND
  0
ENDBLK
  0
BLOCK
  8
LAYER_2
  2
AIGNBL02010046
 70
64
 10
0
 20
0
 30
0
  3
AIGNBL02010046
  0
POLYLINE
  8
LAYER_2
 40
0.1411
 41
0.1411
 66
1
 10
0
 20
0
 30
0
  0
VERTEX
  8
LAYER_2
 10
153.2091
 20
156.1428
 42
0.4142173853
  0
VERTEX
  8
LAYER_2
 10
156.4272
 20
159.3608
  0
SEQEND
  0
ENDBLK
  0
BLOCK
  8
LAYER_2
  2
AIGNBL02010047
 70
64
 10
0
 20
0
 30
0
  3
AIGNBL02010047
  0
POLYLINE
  8
LAYER_2
 40
0.05
 41
0.05
 66
1
 10
0
 20
0
 30
0
 70
1
  0
VERTEX
  8
LAYER_2
 10
103.2251
 20
150.5336
  0
VERTEX
  8
LAYER_2
 10
102.9421
 20
150.5336
  0
VERTEX
  8
LAYER_2
 10
102.9421
 20
152.3369
  0
VERTEX
  8
LAYER_2
 10
102.674
 20
152.142
  0
VERTEX
  8
LAYER_2
 10
102.3761
 20
151.9958
  0
VERTEX
  8
LAYER_2
 10
102.3761
 20
152.2693
 42
0.07442701333
  0
VERTEX
  8
LAYER_2
 10
102.7911
 20
152.5398
 42
0.1027572249
  0
VERTEX
  8
LAYER_2
 10
103.0427
 20
152.8479
  0
VERTEX
  8
LAYER_2
 10
103.2251
 20
152.8479
  0
SEQEND
  0
POLYLINE
  8
LAYER_2
 40
0.05
 41
0.05
 66
1
 10
0
 20
0
 30
0
 70
1
  0
VERTEX
  8
LAYER_2
 10
105.0153
 20
150.5336
  0
VERTEX
  8
LAYER_2
 10
104.7323
 20
150.5336
  0
VERTEX
  8
LAYER_2
 10
104.7323
 20
152.3369
  0
VERTEX
  8
LAYER_2
 10
104.4643
 20
152.142
  0
VERTEX
  8
LAYER_2
 10
104.1663
 20
151.9958
  0
VERTEX
  8
LAYER_2
 10
104.1663
 20
152.2693
 42
0.07435168362
  0
VERTEX
  8
LAYER_2
 10
104.5814
 20
152.5398
 42
0.1029581885
  0
VERTEX
  8
LAYER_2
 10
104.833
 20
152.8479
  0
VERTEX
  8
LAYER_2
 10
105.0153
 20
152.8479
  0
SEQEND
  0
POLYLINE
  8
LAYER_2
 40
0.05
 41
0.05
 66
1
 10
0
 20
0
 30
0
 70
1
  0
VERTEX
  8
LAYER_2
 10
105.9676
 20
150.7333
 42
-0.133629677
  0
VERTEX
  8
LAYER_2
 10
105.763
 20
151.2914
 42
-0.04627695523
  0
VERTEX
  8
LAYER_2
 10
105.7396
 20
151.6703
 42
-0.08413585262
  0
VERTEX
  8
LAYER_2
 10
105.8238
 20
152.3283
 42
-0.1438991323
  0
VERTEX
  8
LAYER_2
 10
106.0737
 20
152.7127
 42
-0.1750999975
  0
VERTEX
  8
LAYER_2
 10
106.4912
 20
152.8479
 42
-0.127676133
  0
VERTEX
  8
LAYER_2
 10
106.8166
 20
152.7732
 42
-0.1265751839
  0
VERTEX
  8
LAYER_2
 10
107.0477
 20
152.5578
 42
-0.07537967751
  0
VERTEX
  8
LAYER_2
 10
107.1908
 20
152.2151
 42
-0.05313719341
  0
VERTEX
  8
LAYER_2
 10
107.2427
 20
151.6703
 42
-0.08359335125
  0
VERTEX
  8
LAYER_2
 10
107.1594
 20
151.0155
 42
-0.1438093054
  0
VERTEX
  8
LAYER_2
 10
106.9102
 20
150.6303
 42
-0.176190946
  0
VERTEX
  8
LAYER_2
 10
106.4912
 20
150.4943
 42
-0.2331766699
  0
SEQEND
  0
POLYLINE
  8
LAYER_2
 40
0.05
 41
0.05
 66
1
 10
0
 20
0
 30
0
 70
1
  0
VERTEX
  8
LAYER_2
 10
106.1767
 20
152.4486
 42
0.1341401562
  0
VERTEX
  8
LAYER_2
 10
106.0348
 20
151.8549
 42
0.01812019342
  0
VERTEX
  8
LAYER_2
 10
106.0305
 20
151.6703
 42
0.1343691235
  0
VERTEX
  8
LAYER_2
 10
106.1634
 20
150.9149
 42
0.2504100629
  0
VERTEX
  8
LAYER_2
 10
106.4912
 20
150.727
 42
0.2547360631
  0
VERTEX
  8
LAYER_2
 10
106.819
 20
150.9157
 42
0.13521546
  0
VERTEX
  8
LAYER_2
 10
106.9489
 20
151.5106
 42
0.01455690891
  0
VERTEX
  8
LAYER_2
 10
106.9518
 20
151.6703
 42
0.1343581804
  0
VERTEX
  8
LAYER_2
 10
106.819
 20
152.4266
 42
0.2500679765
  0
VERTEX
  8
LAYER_2
 10
106.488
 20
152.6137
 42
0.2538175653
  0
SEQEND
  0
POLYLINE
  8
LAYER_2
 40
0.05
 41
0.05
 66
1
 10
0
 20
0
 30
0
 70
1
  0
VERTEX
  8
LAYER_2
 10
107.7579
 20
150.7333
 42
-0.133629677
  0
VERTEX
  8
LAYER_2
 10
107.5533
 20
151.2914
 42
-0.04627695523
  0
VERTEX
  8
LAYER_2
 10
107.5299
 20
151.6703
 42
-0.08414290434
  0
VERTEX
  8
LAYER_2
 10
107.614
 20
152.3283
 42
-0.1437643755
  0
VERTEX
  8
LAYER_2
 10
107.864
 20
152.7127
 42
-0.1751402471
  0
VERTEX
  8
LAYER_2
 10
108.2814
 20
152.8479
 42
-0.1277015659
  0
VERTEX
  8
LAYER_2
 10
108.6069
 20
152.7732
 42
-0.1265751839
  0
VERTEX
  8
LAYER_2
 10
108.838
 20
152.5578
 42
-0.07537967751
  0
VERTEX
  8
LAYER_2
 10
108.9811
 20
152.2151
 42
-0.05307553777
  0
VERTEX
  8
LAYER_2
 10
109.0329
 20
151.6703
 42
-0.08374861645
  0
VERTEX
  8
LAYER_2
 10
108.9496
 20
151.0155
 42
-0.144073218
  0
VERTEX
  8
LAYER_2
 10
108.7004
 20
150.6303
 42
-0.1762445847
  0
VERTEX
  8
LAYER_2
 10
108.2814
 20
150.4943
 42
-0.2331712142
  0
SEQEND
  0
POLYLINE
  8
LAYER_2
 40
0.05
 41
0.05
 66
1
 10
0
 20
0
 30
0
 70
1
  0
VERTEX
  8
LAYER_2
 10
107.967
 20
152.4486
 42
0.1341401562
  0
VERTEX
  8
LAYER_2
 10
107.8251
 20
151.8549
 42
0.01812019342
  0
VERTEX
  8
LAYER_2
 10
107.8208
 20
151.6703
 42
0.1343431086
  0
VERTEX
  8
LAYER_2
 10
107.9536
 20
150.9149
 42
0.2502238607
  0
VERTEX
  8
LAYER_2
 10
108.2814
 20
150.727
 42
0.2548973883
  0
VERTEX
  8
LAYER_2
 10
108.6092
 20
150.9157
 42
0.1353502956
  0
VERTEX
  8
LAYER_2
 10
108.7392
 20
151.5106
 42
0.01456480983
  0
VERTEX
  8
LAYER_2
 10
108.7421
 20
151.6703
 42
0.134482718
  0
VERTEX
  8
LAYER_2
 10
108.6092
 20
152.4266
 42
0.2502109507
  0
VERTEX
  8
LAYER_2
 10
108.2783
 20
152.6137
 42
0.253899296
  0
SEQEND
  0
ENDBLK
  0
BLOCK
  8
LAYER_2
  2
AIGNBL02010048
 70
64
 10
0
 20
0
 30
0
  3
AIGNBL02010048
  0
POLYLINE
  8
LAYER_2
 40
0.05
 41
0.05
 66
1
 10
0
 20
0
 30
0
 70
1
  0
VERTEX
  8
LAYER_2
 10
51.8826
 20
182.2699
 42
-0.1336240984
  0
VERTEX
  8
LAYER_2
 10
51.3244
 20
182.0653
 42
-0.04626698921
  0
VERTEX
  8
LAYER_2
 10
50.9455
 20
182.0419
 42
-0.08414734453
  0
VERTEX
  8
LAYER_2
 10
50.2876
 20
182.1261
 42
-0.1440066993
  0
VERTEX
  8
LAYER_2
 10
49.9032
 20
182.376
 42
-0.1752540109
  0
VERTEX
  8
LAYER_2
 10
49.7679
 20
182.7935
 42
-0.1273731367
  0
VERTEX
  8
LAYER_2
 10
49.8426
 20
183.1189
 42
-0.1265751839
  0
VERTEX
  8
LAYER_2
 10
50.058
 20
183.35
 42
-0.07533292951
  0
VERTEX
  8
LAYER_2
 10
50.4008
 20
183.4931
 42
-0.05314072605
  0
VERTEX
  8
LAYER_2
 10
50.9455
 20
183.545
 42
-0.083598605
  0
VERTEX
  8
LAYER_2
 10
51.6004
 20
183.4617
 42
-0.1436188774
  0
VERTEX
  8
LAYER_2
 10
51.9856
 20
183.2125
 42
-0.1760321172
  0
VERTEX
  8
LAYER_2
 10
52.1216
 20
182.7935
 42
-0.233087038
  0
SEQEND
  0
POLYLINE
  8
LAYER_2
 40
0.05
 41
0.05
 66
1
 10
0
 20
0
 30
0
 70
1
  0
VERTEX
  8
LAYER_2
 10
52.0823
 20
181.1588
  0
VERTEX
  8
LAYER_2
 10
51.5304
 20
181.1588
  0
VERTEX
  8
LAYER_2
 10
51.5304
 20
180.1589
  0
VERTEX
  8
LAYER_2
 10
51.271
 20
180.1589
  0
VERTEX
  8
LAYER_2
 10
49.7774
 20
181.2107
  0
VERTEX
  8
LAYER_2
 10
49.7774
 20
181.4418
  0
VERTEX
  8
LAYER_2
 10
51.271
 20
181.4418
  0
VERTEX
  8
LAYER_2
 10
51.271
 20
181.7531
  0
VERTEX
  8
LAYER_2
 10
51.5304
 20
181.7531
  0
VERTEX
  8
LAYER_2
 10
51.5304
 20
181.4418
  0
VERTEX
  8
LAYER_2
 10
52.0823
 20
181.4418
  0
SEQEND
  0
POLYLINE
  8
LAYER_2
 40
0.05
 41
0.05
 66
1
 10
0
 20
0
 30
0
 70
1
  0
VERTEX
  8
LAYER_2
 10
51.4785
 20
178.4614
  0
VERTEX
  8
LAYER_2
 10
51.4534
 20
178.7585
 42
0.1769514452
  0
VERTEX
  8
LAYER_2
 10
51.7796
 20
178.9118
 42
0.190093476
  0
VERTEX
  8
LAYER_2
 10
51.8889
 20
179.2019
 42
0.2162712139
  0
VERTEX
  8
LAYER_2
 10
51.7348
 20
179.5478
 42
0.1917321991
  0
VERTEX
  8
LAYER_2
 10
51.326
 20
179.6893
 42
0.1987607501
  0
VERTEX
  8
LAYER_2
 10
50.944
 20
179.5533
 42
0.2077860801
  0
VERTEX
  8
LAYER_2
 10
50.804
 20
179.1972
 42
0.1324418463
  0
VERTEX
  8
LAYER_2
 10
50.8661
 20
178.9504
 42
0.1268347747
  0
VERTEX
  8
LAYER_2
 10
51.0273
 20
178.7774
  0
VERTEX
  8
LAYER_2
 10
50.9927
 20
178.5117
  0
VERTEX
  8
LAYER_2
 10
49.8088
 20
178.735
  0
VERTEX
  8
LAYER_2
 10
49.8088
 20
179.8811
  0
VERTEX
  8
LAYER_2
 10
50.0792
 20
179.8811
  0
VERTEX
  8
LAYER_2
 10
50.0792
 20
178.9614
  0
VERTEX
  8
LAYER_2
 10
50.6987
 20
178.8372
 42
-0.1559622877
  0
VERTEX
  8
LAYER_2
 10
50.5541
 20
179.2727
 42
-0.2045862006
  0
VERTEX
  8
LAYER_2
 10
50.7632
 20
179.7821
 42
-0.2046127192
  0
VERTEX
  8
LAYER_2
 10
51.3009
 20
179.9896
 42
-0.1728465341
  0
VERTEX
  8
LAYER_2
 10
51.8417
 20
179.8072
 42
-0.2387083425
  0
VERTEX
  8
LAYER_2
 10
52.1216
 20
179.2019
 42
-0.1846129299
  0
VERTEX
  8
LAYER_2
 10
51.9455
 20
178.6886
 42
-0.1948248194
  0
SEQEND
  0
POLYLINE
  8
LAYER_2
 40
0.05
 41
0.05
 66
1
 10
0
 20
0
 30
0
 70
1
  0
VERTEX
  8
LAYER_2
 10
50.1673
 20
182.479
 42
0.1341357551
  0
VERTEX
  8
LAYER_2
 10
50.761
 20
182.3371
 42
0.01812093438
  0
VERTEX
  8
LAYER_2
 10
50.9455
 20
182.3328
 42
0.1343451035
  0
VERTEX
  8
LAYER_2
 10
51.701
 20
182.4657
 42
0.2504100629
  0
VERTEX
  8
LAYER_2
 10
51.8889
 20
182.7935
 42
0.2547360631
  0
VERTEX
  8
LAYER_2
 10
51.7002
 20
183.1213
 42
0.1351746835
  0
VERTEX
  8
LAYER_2
 10
51.1052
 20
183.2512
 42
0.01455832408
  0
VERTEX
  8
LAYER_2
 10
50.9455
 20
183.2541
 42
0.134405779
  0
VERTEX
  8
LAYER_2
 10
50.1893
 20
183.1213
 42
0.2500679765
  0
VERTEX
  8
LAYER_2
 10
50.0022
 20
182.7903
 42
0.2539859574
  0
SEQEND
  0
POLYLINE
  8
LAYER_2
 40
0.05
 41
0.05
 66
1
 10
0
 20
0
 30
0
 70
1
  0
VERTEX
  8
LAYER_2
 10
51.271
 20
181.1588
  0
VERTEX
  8
LAYER_2
 10
50.2318
 20
181.1588
  0
VERTEX
  8
LAYER_2
 10
51.271
 20
180.4372
  0
SEQEND
  0
ENDBLK
  0
BLOCK
  8
LAYER_2
  2
AIGNBL02010049
 70
64
 10
0
 20
0
 30
0
  3
AIGNBL02010049
  0
POLYLINE
  8
LAYER_2
 40
0.05
 41
0.05
 66
1
 10
0
 20
0
 30
0
 70
1
  0
VERTEX
  8
LAYER_2
 10
153.9303
 20
173.2006
  0
VERTEX
  8
LAYER_2
 10
153.6489
 20
173.1785
 42
0.1466945318
  0
VERTEX
  8
LAYER_2
 10
153.542
 20
173.4207
 42
0.2115179069
  0
VERTEX
  8
LAYER_2
 10
153.259
 20
173.5417
 42
0.1646354798
  0
VERTEX
  8
LAYER_2
 10
153.0216
 20
173.4663
 42
0.1356009652
  0
VERTEX
  8
LAYER_2
 10
152.8109
 20
173.1817
 42
0.08627853548
  0
VERTEX
  8
LAYER_2
 10
152.7307
 20
172.6487
 42
-0.1337914515
  0
VERTEX
  8
LAYER_2
 10
152.9807
 20
172.8798
 42
-0.1200174879
  0
VERTEX
  8
LAYER_2
 10
153.2904
 20
172.9553
 42
-0.2107547731
  0
VERTEX
  8
LAYER_2
 10
153.7723
 20
172.747
 42
-0.1992870047
  0
VERTEX
  8
LAYER_2
 10
153.9712
 20
172.2085
 42
-0.1185272376
  0
VERTEX
  8
LAYER_2
 10
153.8776
 20
171.8052
 42
-0.143966872
  0
VERTEX
  8
LAYER_2
 10
153.6206
 20
171.5198
 42
-0.1371804102
  0
VERTEX
  8
LAYER_2
 10
153.2496
 20
171.4208
 42
-0.2241934627
  0
VERTEX
  8
LAYER_2
 10
152.6725
 20
171.681
 42
-0.142334457
  0
VERTEX
  8
LAYER_2
 10
152.4711
 20
172.1981
 42
-0.04784102884
  0
VERTEX
  8
LAYER_2
 10
152.4493
 20
172.5386
 42
-0.1016776299
  0
VERTEX
  8
LAYER_2
 10
152.5768
 20
173.3108
 42
-0.05283921328
  0
VERTEX
  8
LAYER_2
 10
152.6961
 20
173.5103
 42
-0.2344613929
  0
VERTEX
  8
LAYER_2
 10
153.2763
 20
173.7744
 42
-0.1846868792
  0
VERTEX
  8
LAYER_2
 10
153.722
 20
173.6219
 42
-0.1867350926
  0
SEQEND
  0
POLYLINE
  8
LAYER_2
 40
0.05
 41
0.05
 66
1
 10
0
 20
0
 30
0
 70
1
  0
VERTEX
  8
LAYER_2
 10
152.7747
 20
172.2069
 42
0.1094945066
  0
VERTEX
  8
LAYER_2
 10
152.8368
 20
171.9271
 42
0.1498022492
  0
VERTEX
  8
LAYER_2
 10
153.0106
 20
171.7234
 42
0.1445263492
  0
VERTEX
  8
LAYER_2
 10
153.2448
 20
171.6535
 42
0.2199535906
  0
VERTEX
  8
LAYER_2
 10
153.553
 20
171.7981
 42
0.1861953477
  0
VERTEX
  8
LAYER_2
 10
153.6819
 20
172.1912
 42
0.1923413576
  0
VERTEX
  8
LAYER_2
 10
153.5546
 20
172.5677
 42
0.2149228662
  0
VERTEX
  8
LAYER_2
 10
153.2338
 20
172.7053
 42
0.2026983003
  0
VERTEX
  8
LAYER_2
 10
152.9084
 20
172.5677
 42
0.1992221187
  0
SEQEND
  0
POLYLINE
  8
LAYER_2
 40
0.05
 41
0.05
 66
1
 10
0
 20
0
 30
0
 70
1
  0
VERTEX
  8
LAYER_2
 10
154.4801
 20
171.6598
 42
-0.133629677
  0
VERTEX
  8
LAYER_2
 10
154.2755
 20
172.2179
 42
-0.04627695523
  0
VERTEX
  8
LAYER_2
 10
154.2521
 20
172.5968
 42
-0.08399056074
  0
VERTEX
  8
LAYER_2
 10
154.3362
 20
173.2548
 42
-0.1437643755
  0
VERTEX
  8
LAYER_2
 10
154.5862
 20
173.6392
 42
-0.1751536129
  0
VERTEX
  8
LAYER_2
 10
155.0037
 20
173.7744
 42
-0.127676133
  0
VERTEX
  8
LAYER_2
 10
155.3291
 20
173.6997
 42
-0.1265751839
  0
VERTEX
  8
LAYER_2
 10
155.5602
 20
173.4843
 42
-0.07537967751
  0
VERTEX
  8
LAYER_2
 10
155.7033
 20
173.1416
 42
-0.05313719341
  0
VERTEX
  8
LAYER_2
 10
155.7552
 20
172.5968
 42
-0.08373999622
  0
VERTEX
  8
LAYER_2
 10
155.6718
 20
171.942
 42
-0.1439442051
  0
VERTEX
  8
LAYER_2
 10
155.4227
 20
171.5568
 42
-0.176190946
  0
VERTEX
  8
LAYER_2
 10
155.0037
 20
171.4208
 42
-0.2331766699
  0
SEQEND
  0
POLYLINE
  8
LAYER_2
 40
0.05
 41
0.05
 66
1
 10
0
 20
0
 30
0
 70
1
  0
VERTEX
  8
LAYER_2
 10
154.6892
 20
173.3751
 42
0.1341401562
  0
VERTEX
  8
LAYER_2
 10
154.5473
 20
172.7814
 42
0.01812019342
  0
VERTEX
  8
LAYER_2
 10
154.543
 20
172.5968
 42
0.1342446412
  0
VERTEX
  8
LAYER_2
 10
154.6758
 20
171.8414
 42
0.2502665783
  0
VERTEX
  8
LAYER_2
 10
155.0037
 20
171.6535
 42
0.2547360631
  0
VERTEX
  8
LAYER_2
 10
155.3315
 20
171.8422
 42
0.13521546
  0
VERTEX
  8
LAYER_2
 10
155.4614
 20
172.4371
 42
0.01455690891
  0
VERTEX
  8
LAYER_2
 10
155.4643
 20
172.5968
 42
0.1343581804
  0
VERTEX
  8
LAYER_2
 10
155.3315
 20
173.3531
 42
0.2500679765
  0
VERTEX
  8
LAYER_2
 10
155.0005
 20
173.5402
 42
0.2538175653
  0
SEQEND
  0
ENDBLK
  0
BLOCK
  8
LAYER_2
  2
AIGNBL0201004A
 70
64
 10
0
 20
0
 30
0
  3
AIGNBL0201004A
  0
POLYLINE
  8
LAYER_2
 40
0.05
 41
0.05
 66
1
 10
0
 20
0
 30
0
 70
1
  0
VERTEX
  8
LAYER_2
 10
106.6439
 20
159.6969
 42
-0.1336666046
  0
VERTEX
  8
LAYER_2
 10
106.0857
 20
159.4924
 42
-0.04625661473
  0
VERTEX
  8
LAYER_2
 10
105.7068
 20
159.469
 42
-0.08415439884
  0
VERTEX
  8
LAYER_2
 10
105.0489
 20
159.5531
 42
-0.1439872905
  0
VERTEX
  8
LAYER_2
 10
104.6645
 20
159.8031
 42
-0.1755895385
  0
VERTEX
  8
LAYER_2
 10
104.5293
 20
160.2205
 42
-0.1274320775
  0
VERTEX
  8
LAYER_2
 10
104.6039
 20
160.5459
 42
-0.1263575394
  0
VERTEX
  8
LAYER_2
 10
104.8193
 20
160.7771
 42
-0.07516071156
  0
VERTEX
  8
LAYER_2
 10
105.1621
 20
160.9201
 42
-0.05314072605
  0
VERTEX
  8
LAYER_2
 10
105.7068
 20
160.972
 42
-0.083598605
  0
VERTEX
  8
LAYER_2
 10
106.3617
 20
160.8887
 42
-0.143767343
  0
VERTEX
  8
LAYER_2
 10
106.7469
 20
160.6395
 42
-0.1760321172
  0
VERTEX
  8
LAYER_2
 10
106.8829
 20
160.2205
 42
-0.2330373665
  0
SEQEND
  0
POLYLINE
  8
LAYER_2
 40
0.05
 41
0.05
 66
1
 10
0
 20
0
 30
0
 70
1
  0
VERTEX
  8
LAYER_2
 10
104.8406
 20
157.6976
  0
VERTEX
  8
LAYER_2
 10
104.5686
 20
157.6976
  0
VERTEX
  8
LAYER_2
 10
104.5686
 20
159.1896
  0
VERTEX
  8
LAYER_2
 10
104.7887
 20
159.1896
 42
0.05794506127
  0
VERTEX
  8
LAYER_2
 10
105.4113
 20
158.7533
 42
0.05750891802
  0
VERTEX
  8
LAYER_2
 10
106.21
 20
158.4192
 42
0.05246588746
  0
VERTEX
  8
LAYER_2
 10
106.8436
 20
158.3107
  0
VERTEX
  8
LAYER_2
 10
106.8436
 20
158.0199
 42
-0.05515399597
  0
VERTEX
  8
LAYER_2
 10
106.1864
 20
158.1268
 42
-0.0578783064
  0
VERTEX
  8
LAYER_2
 10
105.4435
 20
158.42
 42
-0.05982040819
  0
VERTEX
  8
LAYER_2
 10
104.8406
 20
158.8264
  0
SEQEND
  0
POLYLINE
  8
LAYER_2
 40
0.05
 41
0.05
 66
1
 10
0
 20
0
 30
0
 70
1
  0
VERTEX
  8
LAYER_2
 10
104.9286
 20
159.906
 42
0.1339999468
  0
VERTEX
  8
LAYER_2
 10
105.5223
 20
159.7641
 42
0.01812937774
  0
VERTEX
  8
LAYER_2
 10
105.7068
 20
159.7598
 42
0.1343451035
  0
VERTEX
  8
LAYER_2
 10
106.4623
 20
159.8927
 42
0.2504100629
  0
VERTEX
  8
LAYER_2
 10
106.6502
 20
160.2205
 42
0.2547360631
  0
VERTEX
  8
LAYER_2
 10
106.4615
 20
160.5483
 42
0.1351683329
  0
VERTEX
  8
LAYER_2
 10
105.8665
 20
160.6783
 42
0.01457466771
  0
VERTEX
  8
LAYER_2
 10
105.7068
 20
160.6812
 42
0.1344083698
  0
VERTEX
  8
LAYER_2
 10
104.9506
 20
160.5483
 42
0.2500679765
  0
VERTEX
  8
LAYER_2
 10
104.7635
 20
160.2173
 42
0.2537249461
  0
SEQEND
  0
ENDBLK
  0
BLOCK
  8
LAYER_2
  2
AIGNBL0201004B
 70
64
 10
0
 20
0
 30
0
  3
AIGNBL0201004B
  0
POLYLINE
  8
LAYER_2
 40
0.1411
 41
0.1411
 66
1
 10
0
 20
0
 30
0
  0
VERTEX
  8
LAYER_2
 10
107.347
 20
200.3869
 42
0.414207448
  0
VERTEX
  8
LAYER_2
 10
105.7468
 20
201.9871
 42
0.4142152173
  0
VERTEX
  8
LAYER_2
 10
104.1469
 20
200.3869
 42
0.4142196776
  0
VERTEX
  8
LAYER_2
 10
105.7468
 20
198.7867
 42
0.414211907
  0
VERTEX
  8
LAYER_2
 10
107.347
 20
200.3869
  0
SEQEND
  0
ENDBLK
  0
BLOCK
  8
LAYER_2
  2
AIGNBL0201004C
 70
64
 10
0
 20
0
 30
0
  3
AIGNBL0201004C
  0
POLYLINE
  8
LAYER_2
 40
0.1411
 41
0.1411
 66
1
 10
0
 20
0
 30
0
  0
VERTEX
  8
LAYER_2
 10
150.89
 20
193.4474
 42
0.4142106478
  0
VERTEX
  8
LAYER_2
 10
147.6719
 20
196.6654
  0
SEQEND
  0
ENDBLK
  0
BLOCK
  8
LAYER_2
  2
AIGNBL0201004D
 70
64
 10
0
 20
0
 30
0
  3
AIGNBL0201004D
  0
POLYLINE
  8
LAYER_2
 40
0.1411
 41
0.1411
 66
1
 10
0
 20
0
 30
0
  0
VERTEX
  8
LAYER_2
 10
147.6719
 20
162.5789
 42
0.4142156928
  0
VERTEX
  8
LAYER_2
 10
150.8899
 20
165.797
  0
SEQEND
  0
ENDBLK
  0
BLOCK
  8
LAYER_2
  2
AIGNBL0201004E
 70
64
 10
0
 20
0
 30
0
  3
AIGNBL0201004E
  0
POLYLINE
  8
LAYER_2
 40
0.1411
 41
0.1411
 66
1
 10
0
 20
0
 30
0
  0
VERTEX
  8
LAYER_2
 10
60.5679
 20
165.797
 42
0.414207987
  0
VERTEX
  8
LAYER_2
 10
63.7859
 20
162.579
  0
SEQEND
  0
ENDBLK
  0
BLOCK
  8
LAYER_2
  2
AIGNBL0201004F
 70
64
 10
0
 20
0
 30
0
  3
AIGNBL0201004F
  0
POLYLINE
  8
LAYER_2
 40
0.1411
 41
0.1411
 66
1
 10
0
 20
0
 30
0
  0
VERTEX
  8
LAYER_2
 10
63.786
 20
196.6654
 42
0.4142110638
  0
VERTEX
  8
LAYER_2
 10
60.568
 20
193.4474
  0
SEQEND
  0
ENDBLK
  0
BLOCK
  8
LAYER_2
  2
AIGNBL02010050
 70
64
 10
0
 20
0
 30
0
  3
AIGNBL02010050
  0
POLYLINE
  8
LAYER_2
 40
0.1411
 41
0.1411
 66
1
 10
0
 20
0
 30
0
  0
VERTEX
  8
LAYER_2
 10
107.8144
 20
179.1727
 42
0.4142241772
  0
VERTEX
  8
LAYER_2
 10
105.7111
 20
181.2764
 42
0.4142120444
  0
VERTEX
  8
LAYER_2
 10
103.6075
 20
179.1727
 42
0.4142029472
  0
VERTEX
  8
LAYER_2
 10
105.7111
 20
177.0695
 42
0.414215081
  0
VERTEX
  8
LAYER_2
 10
107.8144
 20
179.1727
  0
SEQEND
  0
POLYLINE
  8
LAYER_2
 40
0.1411
 41
0.1411
 66
1
 10
0
 20
0
 30
0
  0
VERTEX
  8
LAYER_2
 10
109.0009
 20
179.1727
 42
0.4142181886
  0
VERTEX
  8
LAYER_2
 10
105.7469
 20
182.4268
 42
0.4142148167
  0
VERTEX
  8
LAYER_2
 10
102.4929
 20
179.1727
 42
0.4142089362
  0
VERTEX
  8
LAYER_2
 10
105.7469
 20
175.9187
 42
0.4142123083
  0
VERTEX
  8
LAYER_2
 10
109.0009
 20
179.1727
  0
SEQEND
  0
ENDBLK
  0
BLOCK
  8
LAYER_2
  2
AIGNBL02010051
 70
64
 10
0
 20
0
 30
0
  3
AIGNBL02010051
  0
POLYLINE
  8
LAYER_2
 40
0.05
 41
0.05
 66
1
 10
0
 20
0
 30
0
 70
1
  0
VERTEX
  8
LAYER_2
 10
103.2083
 20
171.9931
  0
VERTEX
  8
LAYER_2
 10
103.4803
 20
172.0182
 42
0.1766983973
  0
VERTEX
  8
LAYER_2
 10
103.6124
 20
171.74
 42
0.1824861108
  0
VERTEX
  8
LAYER_2
 10
103.8624
 20
171.6535
 42
0.1430219688
  0
VERTEX
  8
LAYER_2
 10
104.0911
 20
171.7132
 42
0.1150235443
  0
VERTEX
  8
LAYER_2
 10
104.2523
 20
171.8728
 42
0.06522716181
  0
VERTEX
  8
LAYER_2
 10
104.3576
 20
172.1424
 42
0.06117094904
  0
VERTEX
  8
LAYER_2
 10
104.4001
 20
172.4883
  0
VERTEX
  8
LAYER_2
 10
104.3985
 20
172.5449
 42
-0.1224347529
  0
VERTEX
  8
LAYER_2
 10
104.1666
 20
172.3256
 42
-0.1306555141
  0
VERTEX
  8
LAYER_2
 10
103.8482
 20
172.2415
 42
-0.2049417274
  0
VERTEX
  8
LAYER_2
 10
103.364
 20
172.449
 42
-0.1997199556
  0
VERTEX
  8
LAYER_2
 10
103.1659
 20
172.9962
 42
-0.1954278072
  0
VERTEX
  8
LAYER_2
 10
103.3726
 20
173.5606
 42
-0.2095200729
  0
VERTEX
  8
LAYER_2
 10
103.8907
 20
173.7744
 42
-0.1471206471
  0
VERTEX
  8
LAYER_2
 10
104.3018
 20
173.6533
 42
-0.1491531078
  0
VERTEX
  8
LAYER_2
 10
104.5848
 20
173.3082
 42
-0.09584893347
  0
VERTEX
  8
LAYER_2
 10
104.6815
 20
172.6597
 42
-0.08904300666
  0
VERTEX
  8
LAYER_2
 10
104.5856
 20
171.9561
 42
-0.1517695812
  0
VERTEX
  8
LAYER_2
 10
104.3002
 20
171.5576
 42
-0.1599332309
  0
VERTEX
  8
LAYER_2
 10
103.8561
 20
171.4208
 42
-0.1845514215
  0
VERTEX
  8
LAYER_2
 10
103.4143
 20
171.5709
 42
-0.1875284129
  0
SEQEND
  0
POLYLINE
  8
LAYER_2
 40
0.05
 41
0.05
 66
1
 10
0
 20
0
 30
0
 70
1
  0
VERTEX
  8
LAYER_2
 10
104.367
 20
173.0103
 42
0.1896354769
  0
VERTEX
  8
LAYER_2
 10
104.2373
 20
173.3971
 42
0.2180334842
  0
VERTEX
  8
LAYER_2
 10
103.9252
 20
173.5402
 42
0.2175850164
  0
VERTEX
  8
LAYER_2
 10
103.5967
 20
173.3861
 42
0.1902243297
  0
VERTEX
  8
LAYER_2
 10
103.4567
 20
172.9867
 42
0.1992519184
  0
VERTEX
  8
LAYER_2
 10
103.5896
 20
172.629
 42
0.2091033816
  0
VERTEX
  8
LAYER_2
 10
103.9174
 20
172.4915
 42
0.2160059061
  0
VERTEX
  8
LAYER_2
 10
104.2405
 20
172.629
 42
0.1901744757
  0
SEQEND
  0
POLYLINE
  8
LAYER_2
 40
0.05
 41
0.05
 66
1
 10
0
 20
0
 30
0
 70
1
  0
VERTEX
  8
LAYER_2
 10
105.3916
 20
172.71
 42
-0.1580036093
  0
VERTEX
  8
LAYER_2
 10
105.1306
 20
172.894
 42
-0.1544855218
  0
VERTEX
  8
LAYER_2
 10
105.0457
 20
173.1801
 42
-0.2115670672
  0
VERTEX
  8
LAYER_2
 10
105.2265
 20
173.603
 42
-0.1980520234
  0
VERTEX
  8
LAYER_2
 10
105.7077
 20
173.7744
 42
-0.1945160537
  0
VERTEX
  8
LAYER_2
 10
106.1935
 20
173.5991
 42
-0.210733669
  0
VERTEX
  8
LAYER_2
 10
106.3774
 20
173.1722
 42
-0.1599862247
  0
VERTEX
  8
LAYER_2
 10
106.2933
 20
172.8932
 42
-0.1455608928
  0
VERTEX
  8
LAYER_2
 10
106.0378
 20
172.71
 42
-0.1631096022
  0
VERTEX
  8
LAYER_2
 10
106.3609
 20
172.4868
 42
-0.1579849526
  0
VERTEX
  8
LAYER_2
 10
106.4718
 20
172.1189
 42
-0.209034071
  0
VERTEX
  8
LAYER_2
 10
106.2626
 20
171.622
 42
-0.2007538881
  0
VERTEX
  8
LAYER_2
 10
105.7124
 20
171.4208
 42
-0.1955382437
  0
VERTEX
  8
LAYER_2
 10
105.1621
 20
171.6228
 42
-0.2094495114
  0
VERTEX
  8
LAYER_2
 10
104.953
 20
172.1267
 42
-0.166189453
  0
VERTEX
  8
LAYER_2
 10
105.067
 20
172.5033
 42
-0.170813261
  0
SEQEND
  0
POLYLINE
  8
LAYER_2
 40
0.05
 41
0.05
 66
1
 10
0
 20
0
 30
0
 70
1
  0
VERTEX
  8
LAYER_2
 10
105.2438
 20
172.1252
 42
0.1160070416
  0
VERTEX
  8
LAYER_2
 10
105.3012
 20
171.8909
 42
0.1521352935
  0
VERTEX
  8
LAYER_2
 10
105.4718
 20
171.7156
 42
0.1264040547
  0
VERTEX
  8
LAYER_2
 10
105.7155
 20
171.6535
 42
0.2028222611
  0
VERTEX
  8
LAYER_2
 10
106.0504
 20
171.784
 42
0.2053007682
  0
VERTEX
  8
LAYER_2
 10
106.1825
 20
172.1157
 42
0.2066286224
  0
VERTEX
  8
LAYER_2
 10
106.0465
 20
172.4537
 42
0.201252893
  0
VERTEX
  8
LAYER_2
 10
105.7061
 20
172.5874
 42
0.2052842276
  0
VERTEX
  8
LAYER_2
 10
105.3751
 20
172.4553
 42
0.2029784439
  0
SEQEND
  0
POLYLINE
  8
LAYER_2
 40
0.05
 41
0.05
 66
1
 10
0
 20
0
 30
0
 70
1
  0
VERTEX
  8
LAYER_2
 10
105.335
 20
173.1895
 42
0.2079187764
  0
VERTEX
  8
LAYER_2
 10
105.4404
 20
172.9223
 42
0.1993616514
  0
VERTEX
  8
LAYER_2
 10
105.7139
 20
172.8185
 42
0.2036677039
  0
VERTEX
  8
LAYER_2
 10
105.982
 20
172.9215
 42
0.2057651869
  0
VERTEX
  8
LAYER_2
 10
106.0866
 20
173.1738
 42
0.2063872813
  0
VERTEX
  8
LAYER_2
 10
105.9789
 20
173.4356
 42
0.2006730882
  0
VERTEX
  8
LAYER_2
 10
105.7108
 20
173.5417
 42
0.2009914793
  0
VERTEX
  8
LAYER_2
 10
105.4419
 20
173.438
 42
0.2085441273
  0
SEQEND
  0
POLYLINE
  8
LAYER_2
 40
0.05
 41
0.05
 66
1
 10
0
 20
0
 30
0
 70
1
  0
VERTEX
  8
LAYER_2
 10
106.9744
 20
171.6598
 42
-0.133629677
  0
VERTEX
  8
LAYER_2
 10
106.7698
 20
172.2179
 42
-0.04627695523
  0
VERTEX
  8
LAYER_2
 10
106.7464
 20
172.5968
 42
-0.08414290434
  0
VERTEX
  8
LAYER_2
 10
106.8305
 20
173.2548
 42
-0.1437643755
  0
VERTEX
  8
LAYER_2
 10
107.0805
 20
173.6392
 42
-0.1751402471
  0
VERTEX
  8
LAYER_2
 10
107.4979
 20
173.7744
 42
-0.1277015659
  0
VERTEX
  8
LAYER_2
 10
107.8234
 20
173.6997
 42
-0.1265751839
  0
VERTEX
  8
LAYER_2
 10
108.0545
 20
173.4843
 42
-0.07537967751
  0
VERTEX
  8
LAYER_2
 10
108.1976
 20
173.1416
 42
-0.05307553777
  0
VERTEX
  8
LAYER_2
 10
108.2494
 20
172.5968
 42
-0.08374861645
  0
VERTEX
  8
LAYER_2
 10
108.1661
 20
171.942
 42
-0.144073218
  0
VERTEX
  8
LAYER_2
 10
107.9169
 20
171.5568
 42
-0.1762445847
  0
VERTEX
  8
LAYER_2
 10
107.4979
 20
171.4208
 42
-0.2331712142
  0
SEQEND
  0
POLYLINE
  8
LAYER_2
 40
0.05
 41
0.05
 66
1
 10
0
 20
0
 30
0
 70
1
  0
VERTEX
  8
LAYER_2
 10
107.1835
 20
173.3751
 42
0.1341401562
  0
VERTEX
  8
LAYER_2
 10
107.0416
 20
172.7814
 42
0.01812019342
  0
VERTEX
  8
LAYER_2
 10
107.0373
 20
172.5968
 42
0.1343431086
  0
VERTEX
  8
LAYER_2
 10
107.1701
 20
171.8414
 42
0.2502238607
  0
VERTEX
  8
LAYER_2
 10
107.4979
 20
171.6535
 42
0.2548973883
  0
VERTEX
  8
LAYER_2
 10
107.8257
 20
171.8422
 42
0.1353502956
  0
VERTEX
  8
LAYER_2
 10
107.9557
 20
172.4371
 42
0.01456480983
  0
VERTEX
  8
LAYER_2
 10
107.9586
 20
172.5968
 42
0.134482718
  0
VERTEX
  8
LAYER_2
 10
107.8257
 20
173.3531
 42
0.2502109507
  0
VERTEX
  8
LAYER_2
 10
107.4948
 20
173.5402
 42
0.253899296
  0
SEQEND
  0
ENDBLK
  0
BLOCK
  8
LAYER_2
  2
AIGNBL02010052
 70
64
 10
0
 20
0
 30
0
  3
AIGNBL02010052
  0
POLYLINE
  8
LAYER_2
 40
0.05
 41
0.05
 66
1
 10
0
 20
0
 30
0
 70
1
  0
VERTEX
  8
LAYER_2
 10
121.5298
 20
180.8676
 42
-0.1336545804
  0
VERTEX
  8
LAYER_2
 10
120.9716
 20
180.6631
 42
-0.04624651001
  0
VERTEX
  8
LAYER_2
 10
120.5927
 20
180.6397
 42
-0.08415439884
  0
VERTEX
  8
LAYER_2
 10
119.9348
 20
180.7238
 42
-0.144070973
  0
VERTEX
  8
LAYER_2
 10
119.5504
 20
180.9738
 42
-0.1755845638
  0
VERTEX
  8
LAYER_2
 10
119.4151
 20
181.3912
 42
-0.1273731367
  0
VERTEX
  8
LAYER_2
 10
119.4898
 20
181.7166
 42
-0.1265751839
  0
VERTEX
  8
LAYER_2
 10
119.7052
 20
181.9477
 42
-0.07533292951
  0
VERTEX
  8
LAYER_2
 10
120.048
 20
182.0908
 42
-0.05314997763
  0
VERTEX
  8
LAYER_2
 10
120.5927
 20
182.1427
 42
-0.0835683295
  0
VERTEX
  8
LAYER_2
 10
121.2476
 20
182.0594
 42
-0.1436188774
  0
VERTEX
  8
LAYER_2
 10
121.6328
 20
181.8102
 42
-0.1760321172
  0
VERTEX
  8
LAYER_2
 10
121.7688
 20
181.3912
 42
-0.2330373665
  0
SEQEND
  0
POLYLINE
  8
LAYER_2
 40
0.05
 41
0.05
 66
1
 10
0
 20
0
 30
0
 70
1
  0
VERTEX
  8
LAYER_2
 10
121.121
 20
177.0607
  0
VERTEX
  8
LAYER_2
 10
121.0833
 20
177.3437
 42
0.1641777457
  0
VERTEX
  8
LAYER_2
 10
121.4299
 20
177.5096
 42
0.1893273989
  0
VERTEX
  8
LAYER_2
 10
121.5361
 20
177.7949
 42
0.2050681009
  0
VERTEX
  8
LAYER_2
 10
121.3977
 20
178.1322
 42
0.2032403679
  0
VERTEX
  8
LAYER_2
 10
121.055
 20
178.2697
 42
0.2054625594
  0
VERTEX
  8
LAYER_2
 10
120.7335
 20
178.1424
 42
0.2025391008
  0
VERTEX
  8
LAYER_2
 10
120.6069
 20
177.8185
  0
VERTEX
  8
LAYER_2
 10
120.6383
 20
177.6188
  0
VERTEX
  8
LAYER_2
 10
120.3899
 20
177.6503
  0
VERTEX
  8
LAYER_2
 10
120.3931
 20
177.6959
 42
0.1482371551
  0
VERTEX
  8
LAYER_2
 10
120.2987
 20
178.0213
 42
0.2643692323
  0
VERTEX
  8
LAYER_2
 10
120.0079
 20
178.166
 42
0.2090387246
  0
VERTEX
  8
LAYER_2
 10
119.75
 20
178.0606
 42
0.1969473626
  0
VERTEX
  8
LAYER_2
 10
119.6478
 20
177.7886
 42
0.1972897915
  0
VERTEX
  8
LAYER_2
 10
119.7516
 20
177.5135
 42
0.1632997905
  0
VERTEX
  8
LAYER_2
 10
120.0629
 20
177.372
  0
VERTEX
  8
LAYER_2
 10
120.0126
 20
177.089
 42
-0.1748650781
  0
VERTEX
  8
LAYER_2
 10
119.5716
 20
177.3248
 42
-0.1819320142
  0
VERTEX
  8
LAYER_2
 10
119.4151
 20
177.7823
 42
-0.1205268845
  0
VERTEX
  8
LAYER_2
 10
119.4961
 20
178.1298
 42
-0.14383138
  0
VERTEX
  8
LAYER_2
 10
119.717
 20
178.3727
 42
-0.138431175
  0
VERTEX
  8
LAYER_2
 10
120.0142
 20
178.4568
 42
-0.1481549168
  0
VERTEX
  8
LAYER_2
 10
120.2861
 20
178.3766
 42
-0.1380471711
  0
VERTEX
  8
LAYER_2
 10
120.4811
 20
178.1392
 42
-0.1792177832
  0
VERTEX
  8
LAYER_2
 10
120.6768
 20
178.4568
 42
-0.1648690542
  0
VERTEX
  8
LAYER_2
 10
121.0487
 20
178.57
 42
-0.2107684761
  0
VERTEX
  8
LAYER_2
 10
121.5604
 20
178.3499
 42
-0.1990464172
  0
VERTEX
  8
LAYER_2
 10
121.7703
 20
177.7933
 42
-0.1882166349
  0
VERTEX
  8
LAYER_2
 10
121.5895
 20
177.2894
 42
-0.1917014306
  0
SEQEND
  0
POLYLINE
  8
LAYER_2
 40
0.05
 41
0.05
 66
1
 10
0
 20
0
 30
0
 70
1
  0
VERTEX
  8
LAYER_2
 10
119.7264
 20
178.8683
  0
VERTEX
  8
LAYER_2
 10
119.4544
 20
178.8683
  0
VERTEX
  8
LAYER_2
 10
119.4544
 20
180.3603
  0
VERTEX
  8
LAYER_2
 10
119.6746
 20
180.3603
 42
0.0581301628
  0
VERTEX
  8
LAYER_2
 10
120.2972
 20
179.924
 42
0.05748099217
  0
VERTEX
  8
LAYER_2
 10
121.0958
 20
179.5899
 42
0.05243896517
  0
VERTEX
  8
LAYER_2
 10
121.7294
 20
179.4814
  0
VERTEX
  8
LAYER_2
 10
121.7294
 20
179.1906
 42
-0.05514176297
  0
VERTEX
  8
LAYER_2
 10
121.0723
 20
179.2975
 42
-0.05792652097
  0
VERTEX
  8
LAYER_2
 10
120.3294
 20
179.5907
 42
-0.0597353825
  0
VERTEX
  8
LAYER_2
 10
119.7264
 20
179.9971
  0
SEQEND
  0
POLYLINE
  8
LAYER_2
 40
0.05
 41
0.05
 66
1
 10
0
 20
0
 30
0
 70
1
  0
VERTEX
  8
LAYER_2
 10
119.8145
 20
181.0767
 42
0.1339999468
  0
VERTEX
  8
LAYER_2
 10
120.4082
 20
180.9348
 42
0.01812937774
  0
VERTEX
  8
LAYER_2
 10
120.5927
 20
180.9305
 42
0.1343215453
  0
VERTEX
  8
LAYER_2
 10
121.3482
 20
181.0634
 42
0.2502394661
  0
VERTEX
  8
LAYER_2
 10
121.5361
 20
181.3912
 42
0.2547360631
  0
VERTEX
  8
LAYER_2
 10
121.3474
 20
181.719
 42
0.1351746835
  0
VERTEX
  8
LAYER_2
 10
120.7524
 20
181.8489
 42
0.01455832408
  0
VERTEX
  8
LAYER_2
 10
120.5927
 20
181.8518
 42
0.134405779
  0
VERTEX
  8
LAYER_2
 10
119.8365
 20
181.719
 42
0.2500679765
  0
VERTEX
  8
LAYER_2
 10
119.6494
 20
181.388
 42
0.2538933577
  0
SEQEND
  0
ENDBLK
  0
BLOCK
  8
LAYER_2
  2
AIGNBL02010053
 70
64
 10
0
 20
0
 30
0
  3
AIGNBL02010053
  0
POLYLINE
  8
LAYER_2
 40
0.05
 41
0.05
 66
1
 10
0
 20
0
 30
0
 70
1
  0
VERTEX
  8
LAYER_2
 10
106.8237
 20
191.0432
 42
-0.133629677
  0
VERTEX
  8
LAYER_2
 10
106.2656
 20
190.8386
 42
-0.04627695502
  0
VERTEX
  8
LAYER_2
 10
105.8867
 20
190.8152
 42
-0.08413585241
  0
VERTEX
  8
LAYER_2
 10
105.2287
 20
190.8994
 42
-0.1440066993
  0
VERTEX
  8
LAYER_2
 10
104.8443
 20
191.1493
 42
-0.1754943916
  0
VERTEX
  8
LAYER_2
 10
104.7091
 20
191.5668
 42
-0.1276761332
  0
VERTEX
  8
LAYER_2
 10
104.7838
 20
191.8922
 42
-0.1265281525
  0
VERTEX
  8
LAYER_2
 10
104.9991
 20
192.1233
 42
-0.07531058865
  0
VERTEX
  8
LAYER_2
 10
105.3419
 20
192.2664
 42
-0.05313719341
  0
VERTEX
  8
LAYER_2
 10
105.8867
 20
192.3183
 42
-0.08359335125
  0
VERTEX
  8
LAYER_2
 10
106.5415
 20
192.235
 42
-0.1436188774
  0
VERTEX
  8
LAYER_2
 10
106.9267
 20
191.9858
 42
-0.176190946
  0
VERTEX
  8
LAYER_2
 10
107.0627
 20
191.5668
 42
-0.233087038
  0
SEQEND
  0
POLYLINE
  8
LAYER_2
 40
0.05
 41
0.05
 66
1
 10
0
 20
0
 30
0
 70
1
  0
VERTEX
  8
LAYER_2
 10
106.4149
 20
189.0265
  0
VERTEX
  8
LAYER_2
 10
106.3772
 20
189.3095
 42
0.1640966534
  0
VERTEX
  8
LAYER_2
 10
106.7239
 20
189.4754
 42
0.1890818284
  0
VERTEX
  8
LAYER_2
 10
106.83
 20
189.7608
 42
0.2051975283
  0
VERTEX
  8
LAYER_2
 10
106.6916
 20
190.098
 42
0.2032991808
  0
VERTEX
  8
LAYER_2
 10
106.3489
 20
190.2356
 42
0.2053489786
  0
VERTEX
  8
LAYER_2
 10
106.0274
 20
190.1082
 42
0.2026161936
  0
VERTEX
  8
LAYER_2
 10
105.9008
 20
189.7843
  0
VERTEX
  8
LAYER_2
 10
105.9323
 20
189.5847
  0
VERTEX
  8
LAYER_2
 10
105.6839
 20
189.6161
  0
VERTEX
  8
LAYER_2
 10
105.687
 20
189.6617
 42
0.1479019633
  0
VERTEX
  8
LAYER_2
 10
105.5927
 20
189.9872
 42
0.2643318202
  0
VERTEX
  8
LAYER_2
 10
105.3018
 20
190.1318
 42
0.2092830771
  0
VERTEX
  8
LAYER_2
 10
105.044
 20
190.0265
 42
0.1970806497
  0
VERTEX
  8
LAYER_2
 10
104.9418
 20
189.7545
 42
0.1972490496
  0
VERTEX
  8
LAYER_2
 10
105.0455
 20
189.4793
 42
0.1628194008
  0
VERTEX
  8
LAYER_2
 10
105.3568
 20
189.3378
  0
VERTEX
  8
LAYER_2
 10
105.3065
 20
189.0548
 42
-0.1749837153
  0
VERTEX
  8
LAYER_2
 10
104.8655
 20
189.2907
 42
-0.1820518509
  0
VERTEX
  8
LAYER_2
 10
104.7091
 20
189.7482
 42
-0.1204528644
  0
VERTEX
  8
LAYER_2
 10
104.79
 20
190.0956
 42
-0.143631736
  0
VERTEX
  8
LAYER_2
 10
105.0109
 20
190.3386
 42
-0.1382801727
  0
VERTEX
  8
LAYER_2
 10
105.3081
 20
190.4227
 42
-0.1477283669
  0
VERTEX
  8
LAYER_2
 10
105.5801
 20
190.3425
 42
-0.1378016554
  0
VERTEX
  8
LAYER_2
 10
105.775
 20
190.1051
 42
-0.179143596
  0
VERTEX
  8
LAYER_2
 10
105.9708
 20
190.4227
 42
-0.1647986432
  0
VERTEX
  8
LAYER_2
 10
106.3426
 20
190.5359
 42
-0.2107436109
  0
VERTEX
  8
LAYER_2
 10
106.8544
 20
190.3158
 42
-0.1988527416
  0
VERTEX
  8
LAYER_2
 10
107.0643
 20
189.7592
 42
-0.1881396314
  0
VERTEX
  8
LAYER_2
 10
106.8835
 20
189.2553
 42
-0.1915758166
  0
SEQEND
  0
POLYLINE
  8
LAYER_2
 40
0.05
 41
0.05
 66
1
 10
0
 20
0
 30
0
 70
1
  0
VERTEX
  8
LAYER_2
 10
106.7514
 20
188.722
  0
VERTEX
  8
LAYER_2
 10
107.0234
 20
188.722
  0
VERTEX
  8
LAYER_2
 10
107.0234
 20
187.1985
 42
-0.1002596475
  0
VERTEX
  8
LAYER_2
 10
106.8268
 20
187.2316
 42
-0.08243576045
  0
VERTEX
  8
LAYER_2
 10
106.5203
 20
187.4179
 42
-0.03590574587
  0
VERTEX
  8
LAYER_2
 10
106.1712
 20
187.7881
 42
0.06893699049
  0
VERTEX
  8
LAYER_2
 10
105.6831
 20
188.2959
 42
0.1645036252
  0
VERTEX
  8
LAYER_2
 10
105.3427
 20
188.428
 42
0.2099587929
  0
VERTEX
  8
LAYER_2
 10
105.0589
 20
188.3077
 42
0.1966432473
  0
VERTEX
  8
LAYER_2
 10
104.9433
 20
187.9941
 42
0.2046446066
  0
VERTEX
  8
LAYER_2
 10
105.066
 20
187.6671
 42
0.1999931807
  0
VERTEX
  8
LAYER_2
 10
105.4056
 20
187.5429
  0
VERTEX
  8
LAYER_2
 10
105.3757
 20
187.252
 42
-0.1924237408
  0
VERTEX
  8
LAYER_2
 10
104.8797
 20
187.4768
 42
-0.1869077955
  0
VERTEX
  8
LAYER_2
 10
104.7091
 20
188.0004
 42
-0.1927011272
  0
VERTEX
  8
LAYER_2
 10
104.893
 20
188.5255
 42
-0.2113199217
  0
VERTEX
  8
LAYER_2
 10
105.349
 20
188.7189
 42
-0.09888010751
  0
VERTEX
  8
LAYER_2
 10
105.621
 20
188.6623
 42
-0.07221103893
  0
VERTEX
  8
LAYER_2
 10
105.9024
 20
188.4744
  0
VERTEX
  8
LAYER_2
 10
106.308
 20
188.0381
  0
VERTEX
  8
LAYER_2
 10
106.5981
 20
187.7111
  0
VERTEX
  8
LAYER_2
 10
106.7514
 20
187.5916
  0
SEQEND
  0
POLYLINE
  8
LAYER_2
 40
0.05
 41
0.05
 66
1
 10
0
 20
0
 30
0
 70
1
  0
VERTEX
  8
LAYER_2
 10
105.1084
 20
191.2523
 42
0.134140156
  0
VERTEX
  8
LAYER_2
 10
105.7021
 20
191.1104
 42
0.01812019321
  0
VERTEX
  8
LAYER_2
 10
105.8867
 20
191.1061
 42
0.1343691233
  0
VERTEX
  8
LAYER_2
 10
106.6421
 20
191.239
 42
0.2504100629
  0
VERTEX
  8
LAYER_2
 10
106.83
 20
191.5668
 42
0.2547360631
  0
VERTEX
  8
LAYER_2
 10
106.6413
 20
191.8946
 42
0.13521546
  0
VERTEX
  8
LAYER_2
 10
106.0464
 20
192.0245
 42
0.01455690891
  0
VERTEX
  8
LAYER_2
 10
105.8867
 20
192.0274
 42
0.1343817335
  0
VERTEX
  8
LAYER_2
 10
105.1304
 20
191.8946
 42
0.2500679765
  0
VERTEX
  8
LAYER_2
 10
104.9433
 20
191.5636
 42
0.2538175655
  0
SEQEND
  0
ENDBLK
  0
BLOCK
  8
LAYER_2
  2
AIGNBL02010054
 70
64
 10
0
 20
0
 30
0
  3
AIGNBL02010054
  0
POLYLINE
  8
LAYER_2
 40
0.05
 41
0.05
 66
1
 10
0
 20
0
 30
0
 70
1
  0
VERTEX
  8
LAYER_2
 10
57.1361
 20
173.2006
  0
VERTEX
  8
LAYER_2
 10
56.8547
 20
173.1785
 42
0.1468044022
  0
VERTEX
  8
LAYER_2
 10
56.7478
 20
173.4207
 42
0.2115179069
  0
VERTEX
  8
LAYER_2
 10
56.4648
 20
173.5417
 42
0.1646354798
  0
VERTEX
  8
LAYER_2
 10
56.2274
 20
173.4663
 42
0.1353922711
  0
VERTEX
  8
LAYER_2
 10
56.0167
 20
173.1817
 42
0.08581508609
  0
VERTEX
  8
LAYER_2
 10
55.9365
 20
172.6487
 42
-0.1337040316
  0
VERTEX
  8
LAYER_2
 10
56.1865
 20
172.8798
 42
-0.1200174879
  0
VERTEX
  8
LAYER_2
 10
56.4962
 20
172.9553
 42
-0.2107547731
  0
VERTEX
  8
LAYER_2
 10
56.9781
 20
172.747
 42
-0.1992870047
  0
VERTEX
  8
LAYER_2
 10
57.177
 20
172.2085
 42
-0.1183452941
  0
VERTEX
  8
LAYER_2
 10
57.0835
 20
171.8052
 42
-0.143818929
  0
VERTEX
  8
LAYER_2
 10
56.8264
 20
171.5198
 42
-0.1371804102
  0
VERTEX
  8
LAYER_2
 10
56.4554
 20
171.4208
 42
-0.2242585539
  0
VERTEX
  8
LAYER_2
 10
55.8784
 20
171.681
 42
-0.1424177791
  0
VERTEX
  8
LAYER_2
 10
55.6769
 20
172.1981
 42
-0.04785956977
  0
VERTEX
  8
LAYER_2
 10
55.6551
 20
172.5386
 42
-0.1016776299
  0
VERTEX
  8
LAYER_2
 10
55.7826
 20
173.3108
 42
-0.05283921328
  0
VERTEX
  8
LAYER_2
 10
55.9019
 20
173.5103
 42
-0.2344613929
  0
VERTEX
  8
LAYER_2
 10
56.4821
 20
173.7744
 42
-0.1846868792
  0
VERTEX
  8
LAYER_2
 10
56.9278
 20
173.6219
 42
-0.1867350926
  0
SEQEND
  0
POLYLINE
  8
LAYER_2
 40
0.05
 41
0.05
 66
1
 10
0
 20
0
 30
0
 70
1
  0
VERTEX
  8
LAYER_2
 10
55.9806
 20
172.2069
 42
0.1098762673
  0
VERTEX
  8
LAYER_2
 10
56.0427
 20
171.9271
 42
0.1496220677
  0
VERTEX
  8
LAYER_2
 10
56.2164
 20
171.7234
 42
0.1445189693
  0
VERTEX
  8
LAYER_2
 10
56.4507
 20
171.6535
 42
0.2200093958
  0
VERTEX
  8
LAYER_2
 10
56.7588
 20
171.7981
 42
0.1861953477
  0
VERTEX
  8
LAYER_2
 10
56.8877
 20
172.1912
 42
0.1923413576
  0
VERTEX
  8
LAYER_2
 10
56.7604
 20
172.5677
 42
0.2150044514
  0
VERTEX
  8
LAYER_2
 10
56.4396
 20
172.7053
 42
0.2026765856
  0
VERTEX
  8
LAYER_2
 10
56.1142
 20
172.5677
 42
0.199230172
  0
SEQEND
  0
POLYLINE
  8
LAYER_2
 40
0.05
 41
0.05
 66
1
 10
0
 20
0
 30
0
 70
1
  0
VERTEX
  8
LAYER_2
 10
57.6859
 20
171.6598
 42
-0.1336601664
  0
VERTEX
  8
LAYER_2
 10
57.4814
 20
172.2179
 42
-0.04625647144
  0
VERTEX
  8
LAYER_2
 10
57.458
 20
172.5968
 42
-0.08414290434
  0
VERTEX
  8
LAYER_2
 10
57.5421
 20
173.2548
 42
-0.1438797115
  0
VERTEX
  8
LAYER_2
 10
57.7921
 20
173.6392
 42
-0.1751938848
  0
VERTEX
  8
LAYER_2
 10
58.2095
 20
173.7744
 42
-0.127676133
  0
VERTEX
  8
LAYER_2
 10
58.5349
 20
173.6997
 42
-0.1265751839
  0
VERTEX
  8
LAYER_2
 10
58.766
 20
173.4843
 42
-0.07537967751
  0
VERTEX
  8
LAYER_2
 10
58.9091
 20
173.1416
 42
-0.05313719341
  0
VERTEX
  8
LAYER_2
 10
58.961
 20
172.5968
 42
-0.08359335125
  0
VERTEX
  8
LAYER_2
 10
58.8777
 20
171.942
 42
-0.1438093054
  0
VERTEX
  8
LAYER_2
 10
58.6285
 20
171.5568
 42
-0.176190946
  0
VERTEX
  8
LAYER_2
 10
58.2095
 20
171.4208
 42
-0.2331270067
  0
SEQEND
  0
POLYLINE
  8
LAYER_2
 40
0.05
 41
0.05
 66
1
 10
0
 20
0
 30
0
 70
1
  0
VERTEX
  8
LAYER_2
 10
57.895
 20
173.3751
 42
0.1340043555
  0
VERTEX
  8
LAYER_2
 10
57.7531
 20
172.7814
 42
0.01812863699
  0
VERTEX
  8
LAYER_2
 10
57.7488
 20
172.5968
 42
0.1343691235
  0
VERTEX
  8
LAYER_2
 10
57.8817
 20
171.8414
 42
0.2504100629
  0
VERTEX
  8
LAYER_2
 10
58.2095
 20
171.6535
 42
0.2547360631
  0
VERTEX
  8
LAYER_2
 10
58.5373
 20
171.8422
 42
0.1353566499
  0
VERTEX
  8
LAYER_2
 10
58.6672
 20
172.4371
 42
0.01454846731
  0
VERTEX
  8
LAYER_2
 10
58.6701
 20
172.5968
 42
0.1344565795
  0
VERTEX
  8
LAYER_2
 10
58.5373
 20
173.3531
 42
0.2500679765
  0
VERTEX
  8
LAYER_2
 10
58.2063
 20
173.5402
 42
0.2537249459
  0
SEQEND
  0
ENDBLK
  0
BLOCK
  8
LAYER_2
  2
AIGNBL02010055
 70
64
 10
0
 20
0
 30
0
  3
AIGNBL02010055
  0
POLYLINE
  8
LAYER_2
 40
0.2646
 41
0.2646
 66
1
 10
0
 20
0
 30
0
  0
VERTEX
  8
LAYER_2
 10
62.0878
 20
118.6053
 42
0.3843231791
  0
VERTEX
  8
LAYER_2
 10
62.5383
 20
118.2835
  0
SEQEND
  0
POLYLINE
  8
LAYER_2
 40
0.2646
 41
0.2646
 66
1
 10
0
 20
0
 30
0
  0
VERTEX
  8
LAYER_2
 10
102.504
 20
121.4618
 42
0.1719050113
  0
VERTEX
  8
LAYER_2
 10
102.3816
 20
121.5165
  0
SEQEND
  0
ENDBLK
  0
BLOCK
  8
LAYER_2
  2
AIGNBL02010056
 70
64
 10
0
 20
0
 30
0
  3
AIGNBL02010056
  0
POLYLINE
  8
LAYER_2
 40
0.2646
 41
0.2646
 66
1
 10
0
 20
0
 30
0
  0
VERTEX
  8
LAYER_2
 10
103.6435
 20
120.3124
 42
0.2028708392
  0
VERTEX
  8
LAYER_2
 10
103.5828
 20
120.4549
  0
SEQEND
  0
ENDBLK
  0
BLOCK
  8
LAYER_2
  2
AIGNBL02010057
 70
64
 10
0
 20
0
 30
0
  3
AIGNBL02010057
  0
POLYLINE
  8
LAYER_2
 40
0.2646
 41
0.2646
 66
1
 10
0
 20
0
 30
0
  0
VERTEX
  8
LAYER_2
 10
67.9748
 20
120.6879
 42
0.3324068149
  0
VERTEX
  8
LAYER_2
 10
67.2312
 20
120.2127
  0
SEQEND
  0
ENDBLK
  0
BLOCK
  8
LAYER_2
  2
AIGNBL02010058
 70
64
 10
0
 20
0
 30
0
  3
AIGNBL02010058
  0
POLYLINE
  8
LAYER_2
 40
0.2646
 41
0.2646
 66
1
 10
0
 20
0
 30
0
  0
VERTEX
  8
LAYER_2
 10
66.3748
 20
118.2809
 42
0.301624185
  0
VERTEX
  8
LAYER_2
 10
66.56
 20
118.4089
  0
SEQEND
  0
ENDBLK
  0
BLOCK
  8
LAYER_2
  2
AIGNBL02010059
 70
64
 10
0
 20
0
 30
0
  3
AIGNBL02010059
  0
POLYLINE
  8
LAYER_2
 40
0.2646
 41
0.2646
 66
1
 10
0
 20
0
 30
0
  0
VERTEX
  8
LAYER_2
 10
61.0789
 20
134.4249
 42
0.2581493314
  0
VERTEX
  8
LAYER_2
 10
60.597
 20
134.9022
  0
SEQEND
  0
ENDBLK
  0
BLOCK
  8
LAYER_2
  2
AIGNBL0201005A
 70
64
 10
0
 20
0
 30
0
  3
AIGNBL0201005A
  0
POLYLINE
  8
LAYER_2
 40
0.2646
 41
0.2646
 66
1
 10
0
 20
0
 30
0
  0
VERTEX
  8
LAYER_2
 10
65.5927
 20
118.2878
 42
0.2421332618
  0
VERTEX
  8
LAYER_2
 10
63.2739
 20
118.2878
  0
SEQEND
  0
POLYLINE
  8
LAYER_2
 40
0.2646
 41
0.2646
 66
1
 10
0
 20
0
 30
0
  0
VERTEX
  8
LAYER_2
 10
63.1223
 20
119.4614
 42
0.220140255
  0
VERTEX
  8
LAYER_2
 10
63.2122
 20
119.3188
 42
0.2209573002
  0
VERTEX
  8
LAYER_2
 10
63.3794
 20
119.2973
  0
SEQEND
  0
ENDBLK
  0
BLOCK
  8
LAYER_2
  2
AIGNBL0201005B
 70
64
 10
0
 20
0
 30
0
  3
AIGNBL0201005B
  0
POLYLINE
  8
LAYER_2
 40
0.2646
 41
0.2646
 66
1
 10
0
 20
0
 30
0
  0
VERTEX
  8
LAYER_2
 10
63.1892
 20
121.049
 42
0.2195340839
  0
VERTEX
  8
LAYER_2
 10
63.0315
 20
120.9883
 42
0.221684851
  0
VERTEX
  8
LAYER_2
 10
62.9786
 20
120.8278
  0
SEQEND
  0
ENDBLK
  0
BLOCK
  8
LAYER_2
  2
AIGNBL0201005C
 70
64
 10
0
 20
0
 30
0
  3
AIGNBL0201005C
  0
POLYLINE
  8
LAYER_2
 40
0.2646
 41
0.2646
 66
1
 10
0
 20
0
 30
0
  0
VERTEX
  8
LAYER_2
 10
66.3801
 20
120.5662
 42
0.2360197817
  0
VERTEX
  8
LAYER_2
 10
66.3618
 20
120.7426
 42
0.2323108739
  0
VERTEX
  8
LAYER_2
 10
66.2094
 20
120.8333
  0
SEQEND
  0
ENDBLK
  0
BLOCK
  8
LAYER_2
  2
AIGNBL0201005D
 70
64
 10
0
 20
0
 30
0
  3
AIGNBL0201005D
  0
POLYLINE
  8
LAYER_2
 40
0.2646
 41
0.2646
 66
1
 10
0
 20
0
 30
0
  0
VERTEX
  8
LAYER_2
 10
65.6923
 20
119.229
 42
0.1976345981
  0
VERTEX
  8
LAYER_2
 10
65.8443
 20
119.2329
 42
0.1975530155
  0
VERTEX
  8
LAYER_2
 10
65.9488
 20
119.3437
  0
SEQEND
  0
POLYLINE
  8
LAYER_2
 40
0.2646
 41
0.2646
 66
1
 10
0
 20
0
 30
0
  0
VERTEX
  8
LAYER_2
 10
65.677
 20
119.2288
 42
0.1757185688
  0
VERTEX
  8
LAYER_2
 10
63.3854
 20
119.3001
  0
SEQEND
  0
ENDBLK
  0
BLOCK
  8
LAYER_2
  2
AIGNBL0201005E
 70
64
 10
0
 20
0
 30
0
  3
AIGNBL0201005E
  0
POLYLINE
  8
LAYER_2
 40
0.2646
 41
0.2646
 66
1
 10
0
 20
0
 30
0
  0
VERTEX
  8
LAYER_2
 10
63.0526
 20
122.3405
 42
0.3567458141
  0
VERTEX
  8
LAYER_2
 10
63.4657
 20
121.9496
  0
SEQEND
  0
ENDBLK
  0
BLOCK
  8
LAYER_2
  2
AIGNBL0201005F
 70
64
 10
0
 20
0
 30
0
  3
AIGNBL0201005F
  0
POLYLINE
  8
LAYER_2
 40
0.2646
 41
0.2646
 66
1
 10
0
 20
0
 30
0
  0
VERTEX
  8
LAYER_2
 10
156.2295
 20
133.8499
 42
0.4141351615
  0
VERTEX
  8
LAYER_2
 10
156.4274
 20
134.0478
  0
SEQEND
  0
POLYLINE
  8
LAYER_2
 40
0.2646
 41
0.2646
 66
1
 10
0
 20
0
 30
0
  0
VERTEX
  8
LAYER_2
 10
156.4272
 20
134.6949
 42
0.4141894039
  0
VERTEX
  8
LAYER_2
 10
156.2293
 20
134.8928
  0
SEQEND
  0
ENDBLK
  0
BLOCK
  8
LAYER_2
  2
AIGNBL02010060
 70
64
 10
0
 20
0
 30
0
  3
AIGNBL02010060
  0
POLYLINE
  8
LAYER_2
 40
0.2646
 41
0.2646
 66
1
 10
0
 20
0
 30
0
  0
VERTEX
  8
LAYER_2
 10
156.4272
 20
134.6949
 42
0.4141894039
  0
VERTEX
  8
LAYER_2
 10
156.2293
 20
134.8928
  0
SEQEND
  0
ENDBLK
  0
BLOCK
  8
LAYER_2
  2
AIGNBL02010061
 70
64
 10
0
 20
0
 30
0
  3
AIGNBL02010061
  0
POLYLINE
  8
LAYER_2
 40
0.2646
 41
0.2646
 66
1
 10
0
 20
0
 30
0
  0
VERTEX
  8
LAYER_2
 10
156.2295
 20
133.8499
 42
0.4141351615
  0
VERTEX
  8
LAYER_2
 10
156.4274
 20
134.0478
  0
SEQEND
  0
ENDBLK
  0
BLOCK
  8
LAYER_2
  2
AIGNBL02010062
 70
64
 10
0
 20
0
 30
0
  3
AIGNBL02010062
  0
POLYLINE
  8
LAYER_2
 40
0.2646
 41
0.2646
 66
1
 10
0
 20
0
 30
0
  0
VERTEX
  8
LAYER_2
 10
148.9197
 20
118.2835
 42
0.3668962773
  0
VERTEX
  8
LAYER_2
 10
149.3702
 20
118.6052
  0
SEQEND
  0
POLYLINE
  8
LAYER_2
 40
0.2646
 41
0.2646
 66
1
 10
0
 20
0
 30
0
  0
VERTEX
  8
LAYER_2
 10
109.0404
 20
121.5164
 42
0.1740064527
  0
VERTEX
  8
LAYER_2
 10
108.918
 20
121.4617
  0
SEQEND
  0
ENDBLK
  0
BLOCK
  8
LAYER_2
  2
AIGNBL02010063
 70
64
 10
0
 20
0
 30
0
  3
AIGNBL02010063
  0
POLYLINE
  8
LAYER_2
 40
0.2646
 41
0.2646
 66
1
 10
0
 20
0
 30
0
  0
VERTEX
  8
LAYER_2
 10
107.8752
 20
120.455
 42
0.2011272861
  0
VERTEX
  8
LAYER_2
 10
107.8145
 20
120.3125
  0
SEQEND
  0
ENDBLK
  0
BLOCK
  8
LAYER_2
  2
AIGNBL02010064
 70
64
 10
0
 20
0
 30
0
  3
AIGNBL02010064
  0
POLYLINE
  8
LAYER_2
 40
0.2646
 41
0.2646
 66
1
 10
0
 20
0
 30
0
  0
VERTEX
  8
LAYER_2
 10
144.2267
 20
120.2128
 42
0.3319954868
  0
VERTEX
  8
LAYER_2
 10
143.483
 20
120.688
  0
SEQEND
  0
ENDBLK
  0
BLOCK
  8
LAYER_2
  2
AIGNBL02010065
 70
64
 10
0
 20
0
 30
0
  3
AIGNBL02010065
  0
POLYLINE
  8
LAYER_2
 40
0.2646
 41
0.2646
 66
1
 10
0
 20
0
 30
0
  0
VERTEX
  8
LAYER_2
 10
144.898
 20
118.4088
 42
0.3122926752
  0
VERTEX
  8
LAYER_2
 10
145.0832
 20
118.2808
  0
SEQEND
  0
ENDBLK
  0
BLOCK
  8
LAYER_2
  2
AIGNBL02010066
 70
64
 10
0
 20
0
 30
0
  3
AIGNBL02010066
  0
POLYLINE
  8
LAYER_2
 40
0.2646
 41
0.2646
 66
1
 10
0
 20
0
 30
0
  0
VERTEX
  8
LAYER_2
 10
150.8607
 20
134.902
 42
0.2576719016
  0
VERTEX
  8
LAYER_2
 10
150.3789
 20
134.4247
  0
SEQEND
  0
ENDBLK
  0
BLOCK
  8
LAYER_2
  2
AIGNBL02010067
 70
64
 10
0
 20
0
 30
0
  3
AIGNBL02010067
  0
POLYLINE
  8
LAYER_2
 40
0.2646
 41
0.2646
 66
1
 10
0
 20
0
 30
0
  0
VERTEX
  8
LAYER_2
 10
148.1841
 20
118.2878
 42
0.2421332604
  0
VERTEX
  8
LAYER_2
 10
145.8653
 20
118.2878
  0
SEQEND
  0
POLYLINE
  8
LAYER_2
 40
0.2646
 41
0.2646
 66
1
 10
0
 20
0
 30
0
  0
VERTEX
  8
LAYER_2
 10
148.0786
 20
119.2972
 42
0.2196040941
  0
VERTEX
  8
LAYER_2
 10
148.2458
 20
119.3187
 42
0.2190189254
  0
VERTEX
  8
LAYER_2
 10
148.3358
 20
119.4612
  0
SEQEND
  0
ENDBLK
  0
BLOCK
  8
LAYER_2
  2
AIGNBL02010068
 70
64
 10
0
 20
0
 30
0
  3
AIGNBL02010068
  0
POLYLINE
  8
LAYER_2
 40
0.2646
 41
0.2646
 66
1
 10
0
 20
0
 30
0
  0
VERTEX
  8
LAYER_2
 10
148.4794
 20
120.8277
 42
0.2202306483
  0
VERTEX
  8
LAYER_2
 10
148.4262
 20
120.9882
 42
0.2198794361
  0
VERTEX
  8
LAYER_2
 10
148.2688
 20
121.0489
  0
SEQEND
  0
ENDBLK
  0
BLOCK
  8
LAYER_2
  2
AIGNBL02010069
 70
64
 10
0
 20
0
 30
0
  3
AIGNBL02010069
  0
POLYLINE
  8
LAYER_2
 40
0.2646
 41
0.2646
 66
1
 10
0
 20
0
 30
0
  0
VERTEX
  8
LAYER_2
 10
145.2124
 20
120.8332
 42
0.2366367854
  0
VERTEX
  8
LAYER_2
 10
145.0604
 20
120.7425
 42
0.2327185043
  0
VERTEX
  8
LAYER_2
 10
145.0417
 20
120.5662
  0
SEQEND
  0
ENDBLK
  0
BLOCK
  8
LAYER_2
  2
AIGNBL0201006A
 70
64
 10
0
 20
0
 30
0
  3
AIGNBL0201006A
  0
POLYLINE
  8
LAYER_2
 40
0.2646
 41
0.2646
 66
1
 10
0
 20
0
 30
0
  0
VERTEX
  8
LAYER_2
 10
145.5092
 20
119.3437
 42
0.1976747393
  0
VERTEX
  8
LAYER_2
 10
145.6137
 20
119.2329
 42
0.1973092134
  0
VERTEX
  8
LAYER_2
 10
145.7657
 20
119.2291
  0
SEQEND
  0
POLYLINE
  8
LAYER_2
 40
0.2646
 41
0.2646
 66
1
 10
0
 20
0
 30
0
  0
VERTEX
  8
LAYER_2
 10
148.0725
 20
119.3
 42
0.1758314874
  0
VERTEX
  8
LAYER_2
 10
145.7808
 20
119.2287
  0
SEQEND
  0
ENDBLK
  0
BLOCK
  8
LAYER_2
  2
AIGNBL0201006B
 70
64
 10
0
 20
0
 30
0
  3
AIGNBL0201006B
  0
POLYLINE
  8
LAYER_2
 40
0.2646
 41
0.2646
 66
1
 10
0
 20
0
 30
0
  0
VERTEX
  8
LAYER_2
 10
147.9924
 20
121.9496
 42
0.3424930524
  0
VERTEX
  8
LAYER_2
 10
148.4055
 20
122.3405
  0
SEQEND
  0
ENDBLK
  0
BLOCK
  8
LAYER_2
  2
AIGNBL0201006C
 70
64
 10
0
 20
0
 30
0
  3
AIGNBL0201006C
  0
POLYLINE
  8
LAYER_2
 40
0.2646
 41
0.2646
 66
1
 10
0
 20
0
 30
0
  0
VERTEX
  8
LAYER_2
 10
60.1762
 20
133.3641
 42
0.3097943703
  0
VERTEX
  8
LAYER_2
 10
59.5246
 20
133.8841
  0
SEQEND
  0
ENDBLK
  0
BLOCK
  8
LAYER_2
  2
AIGNBL0201006D
 70
64
 10
0
 20
0
 30
0
  3
AIGNBL0201006D
  0
POLYLINE
  8
LAYER_2
 40
0.2646
 41
0.2646
 66
1
 10
0
 20
0
 30
0
  0
VERTEX
  8
LAYER_2
 10
151.9333
 20
133.8839
 42
0.3101165915
  0
VERTEX
  8
LAYER_2
 10
151.2817
 20
133.3639
  0
SEQEND
  0
ENDBLK
  0
BLOCK
  8
LAYER_2
  2
AIGNBL0201006E
 70
64
 10
0
 20
0
 30
0
  3
AIGNBL0201006E
  0
POLYLINE
  8
LAYER_2
 40
0.05
 41
0.05
 66
1
 10
0
 20
0
 30
0
 70
1
  0
VERTEX
  8
LAYER_2
 10
103.2251
 20
136.187
  0
VERTEX
  8
LAYER_2
 10
102.9421
 20
136.187
  0
VERTEX
  8
LAYER_2
 10
102.9421
 20
137.9904
  0
VERTEX
  8
LAYER_2
 10
102.674
 20
137.7954
  0
VERTEX
  8
LAYER_2
 10
102.3761
 20
137.6492
  0
VERTEX
  8
LAYER_2
 10
102.3761
 20
137.9228
 42
0.07447164687
  0
VERTEX
  8
LAYER_2
 10
102.7911
 20
138.1932
 42
0.1026560454
  0
VERTEX
  8
LAYER_2
 10
103.0427
 20
138.5014
  0
VERTEX
  8
LAYER_2
 10
103.2251
 20
138.5014
  0
SEQEND
  0
POLYLINE
  8
LAYER_2
 40
0.05
 41
0.05
 66
1
 10
0
 20
0
 30
0
 70
1
  0
VERTEX
  8
LAYER_2
 10
105.0153
 20
136.187
  0
VERTEX
  8
LAYER_2
 10
104.7323
 20
136.187
  0
VERTEX
  8
LAYER_2
 10
104.7323
 20
137.9904
  0
VERTEX
  8
LAYER_2
 10
104.4643
 20
137.7954
  0
VERTEX
  8
LAYER_2
 10
104.1663
 20
137.6492
  0
VERTEX
  8
LAYER_2
 10
104.1663
 20
137.9228
 42
0.07439631384
  0
VERTEX
  8
LAYER_2
 10
104.5814
 20
138.1932
 42
0.102857665
  0
VERTEX
  8
LAYER_2
 10
104.833
 20
138.5014
  0
VERTEX
  8
LAYER_2
 10
105.0153
 20
138.5014
  0
SEQEND
  0
POLYLINE
  8
LAYER_2
 40
0.05
 41
0.05
 66
1
 10
0
 20
0
 30
0
 70
1
  0
VERTEX
  8
LAYER_2
 10
105.9676
 20
136.3867
 42
-0.1336240984
  0
VERTEX
  8
LAYER_2
 10
105.763
 20
136.9449
 42
-0.04626698942
  0
VERTEX
  8
LAYER_2
 10
105.7396
 20
137.3238
 42
-0.08414734474
  0
VERTEX
  8
LAYER_2
 10
105.8238
 20
137.9817
 42
-0.1440903725
  0
VERTEX
  8
LAYER_2
 10
106.0737
 20
138.3661
 42
-0.1752540107
  0
VERTEX
  8
LAYER_2
 10
106.4912
 20
138.5014
 42
-0.1273731365
  0
VERTEX
  8
LAYER_2
 10
106.8166
 20
138.4267
 42
-0.1265751839
  0
VERTEX
  8
LAYER_2
 10
107.0477
 20
138.2113
 42
-0.07533292951
  0
VERTEX
  8
LAYER_2
 10
107.1908
 20
137.8685
 42
-0.05314997763
  0
VERTEX
  8
LAYER_2
 10
107.2427
 20
137.3238
 42
-0.083598605
  0
VERTEX
  8
LAYER_2
 10
107.1594
 20
136.6689
 42
-0.1436188774
  0
VERTEX
  8
LAYER_2
 10
106.9102
 20
136.2837
 42
-0.1760321172
  0
VERTEX
  8
LAYER_2
 10
106.4912
 20
136.1477
 42
-0.233087038
  0
SEQEND
  0
POLYLINE
  8
LAYER_2
 40
0.05
 41
0.05
 66
1
 10
0
 20
0
 30
0
 70
1
  0
VERTEX
  8
LAYER_2
 10
106.1767
 20
138.102
 42
0.1341357553
  0
VERTEX
  8
LAYER_2
 10
106.0348
 20
137.5083
 42
0.01812093459
  0
VERTEX
  8
LAYER_2
 10
106.0305
 20
137.3238
 42
0.1343215455
  0
VERTEX
  8
LAYER_2
 10
106.1634
 20
136.5683
 42
0.2502394661
  0
VERTEX
  8
LAYER_2
 10
106.4912
 20
136.3804
 42
0.2547360631
  0
VERTEX
  8
LAYER_2
 10
106.819
 20
136.5691
 42
0.1351746835
  0
VERTEX
  8
LAYER_2
 10
106.9489
 20
137.1641
 42
0.01455832408
  0
VERTEX
  8
LAYER_2
 10
106.9518
 20
137.3238
 42
0.134405779
  0
VERTEX
  8
LAYER_2
 10
106.819
 20
138.08
 42
0.2500679765
  0
VERTEX
  8
LAYER_2
 10
106.488
 20
138.2671
 42
0.2539859572
  0
SEQEND
  0
POLYLINE
  8
LAYER_2
 40
0.05
 41
0.05
 66
1
 10
0
 20
0
 30
0
 70
1
  0
VERTEX
  8
LAYER_2
 10
107.7579
 20
136.3867
 42
-0.1336240984
  0
VERTEX
  8
LAYER_2
 10
107.5533
 20
136.9449
 42
-0.04626698942
  0
VERTEX
  8
LAYER_2
 10
107.5299
 20
137.3238
 42
-0.08415439905
  0
VERTEX
  8
LAYER_2
 10
107.614
 20
137.9817
 42
-0.1439556442
  0
VERTEX
  8
LAYER_2
 10
107.864
 20
138.3661
 42
-0.1752942812
  0
VERTEX
  8
LAYER_2
 10
108.2814
 20
138.5014
 42
-0.1273986089
  0
VERTEX
  8
LAYER_2
 10
108.6069
 20
138.4267
 42
-0.1265751839
  0
VERTEX
  8
LAYER_2
 10
108.838
 20
138.2113
 42
-0.07533292951
  0
VERTEX
  8
LAYER_2
 10
108.9811
 20
137.8685
 42
-0.05308830323
  0
VERTEX
  8
LAYER_2
 10
109.0329
 20
137.3238
 42
-0.08375385824
  0
VERTEX
  8
LAYER_2
 10
108.9496
 20
136.6689
 42
-0.1438828063
  0
VERTEX
  8
LAYER_2
 10
108.7004
 20
136.2837
 42
-0.1760857594
  0
VERTEX
  8
LAYER_2
 10
108.2814
 20
136.1477
 42
-0.2330815637
  0
SEQEND
  0
POLYLINE
  8
LAYER_2
 40
0.05
 41
0.05
 66
1
 10
0
 20
0
 30
0
 70
1
  0
VERTEX
  8
LAYER_2
 10
107.967
 20
138.102
 42
0.1341357553
  0
VERTEX
  8
LAYER_2
 10
107.8251
 20
137.5083
 42
0.01812093459
  0
VERTEX
  8
LAYER_2
 10
107.8208
 20
137.3238
 42
0.1342955481
  0
VERTEX
  8
LAYER_2
 10
107.9536
 20
136.5683
 42
0.2500532322
  0
VERTEX
  8
LAYER_2
 10
108.2814
 20
136.3804
 42
0.2548973883
  0
VERTEX
  8
LAYER_2
 10
108.6092
 20
136.5691
 42
0.1353094916
  0
VERTEX
  8
LAYER_2
 10
108.7392
 20
137.1641
 42
0.01456622561
  0
VERTEX
  8
LAYER_2
 10
108.7421
 20
137.3238
 42
0.1345303495
  0
VERTEX
  8
LAYER_2
 10
108.6092
 20
138.08
 42
0.2502109507
  0
VERTEX
  8
LAYER_2
 10
108.2783
 20
138.2671
 42
0.2540676704
  0
SEQEND
  0
ENDBLK
  0
BLOCK
  8
LAYER_2
  2
AIGNBL0201006F
 70
64
 10
0
 20
0
 30
0
  3
AIGNBL0201006F
  0
POLYLINE
  8
LAYER_2
 40
0.05
 41
0.05
 66
1
 10
0
 20
0
 30
0
 70
1
  0
VERTEX
  8
LAYER_2
 10
106.3762
 20
126.5998
  0
VERTEX
  8
LAYER_2
 10
106.3762
 20
126.3168
  0
VERTEX
  8
LAYER_2
 10
104.5728
 20
126.3168
  0
VERTEX
  8
LAYER_2
 10
104.7678
 20
126.0487
  0
VERTEX
  8
LAYER_2
 10
104.914
 20
125.7508
  0
VERTEX
  8
LAYER_2
 10
104.6404
 20
125.7508
 42
0.07439631384
  0
VERTEX
  8
LAYER_2
 10
104.37
 20
126.1659
 42
0.1024822161
  0
VERTEX
  8
LAYER_2
 10
104.0619
 20
126.4174
  0
VERTEX
  8
LAYER_2
 10
104.0619
 20
126.5998
  0
SEQEND
  0
POLYLINE
  8
LAYER_2
 40
0.05
 41
0.05
 66
1
 10
0
 20
0
 30
0
 70
1
  0
VERTEX
  8
LAYER_2
 10
106.3762
 20
128.2313
  0
VERTEX
  8
LAYER_2
 10
105.8243
 20
128.2313
  0
VERTEX
  8
LAYER_2
 10
105.8243
 20
127.2313
  0
VERTEX
  8
LAYER_2
 10
105.5649
 20
127.2313
  0
VERTEX
  8
LAYER_2
 10
104.0713
 20
128.2832
  0
VERTEX
  8
LAYER_2
 10
104.0713
 20
128.5143
  0
VERTEX
  8
LAYER_2
 10
105.5649
 20
128.5143
  0
VERTEX
  8
LAYER_2
 10
105.5649
 20
128.8256
  0
VERTEX
  8
LAYER_2
 10
105.8243
 20
128.8256
  0
VERTEX
  8
LAYER_2
 10
105.8243
 20
128.5143
  0
VERTEX
  8
LAYER_2
 10
106.3762
 20
128.5143
  0
SEQEND
  0
POLYLINE
  8
LAYER_2
 40
0.05
 41
0.05
 66
1
 10
0
 20
0
 30
0
 70
1
  0
VERTEX
  8
LAYER_2
 10
105.7724
 20
129.1144
  0
VERTEX
  8
LAYER_2
 10
105.7473
 20
129.4115
 42
0.1773120814
  0
VERTEX
  8
LAYER_2
 10
106.0735
 20
129.5648
 42
0.190093476
  0
VERTEX
  8
LAYER_2
 10
106.1828
 20
129.8549
 42
0.2161206709
  0
VERTEX
  8
LAYER_2
 10
106.0287
 20
130.2008
 42
0.1917321991
  0
VERTEX
  8
LAYER_2
 10
105.6199
 20
130.3423
 42
0.1985916298
  0
VERTEX
  8
LAYER_2
 10
105.2379
 20
130.2063
 42
0.2077860801
  0
VERTEX
  8
LAYER_2
 10
105.0979
 20
129.8502
 42
0.1325670192
  0
VERTEX
  8
LAYER_2
 10
105.1601
 20
129.6033
 42
0.1268651691
  0
VERTEX
  8
LAYER_2
 10
105.3212
 20
129.4304
  0
VERTEX
  8
LAYER_2
 10
105.2866
 20
129.1647
  0
VERTEX
  8
LAYER_2
 10
104.1027
 20
129.3879
  0
VERTEX
  8
LAYER_2
 10
104.1027
 20
130.5341
  0
VERTEX
  8
LAYER_2
 10
104.3732
 20
130.5341
  0
VERTEX
  8
LAYER_2
 10
104.3732
 20
129.6143
  0
VERTEX
  8
LAYER_2
 10
104.9926
 20
129.4901
 42
-0.1559189626
  0
VERTEX
  8
LAYER_2
 10
104.848
 20
129.9256
 42
-0.204670584
  0
VERTEX
  8
LAYER_2
 10
105.0571
 20
130.435
 42
-0.2047227207
  0
VERTEX
  8
LAYER_2
 10
105.5948
 20
130.6426
 42
-0.1728805766
  0
VERTEX
  8
LAYER_2
 10
106.1356
 20
130.4602
 42
-0.2387083425
  0
VERTEX
  8
LAYER_2
 10
106.4155
 20
129.8549
 42
-0.1846948369
  0
VERTEX
  8
LAYER_2
 10
106.2394
 20
129.3416
 42
-0.1949914975
  0
SEQEND
  0
POLYLINE
  8
LAYER_2
 40
0.05
 41
0.05
 66
1
 10
0
 20
0
 30
0
 70
1
  0
VERTEX
  8
LAYER_2
 10
105.5649
 20
128.2313
  0
VERTEX
  8
LAYER_2
 10
104.5257
 20
128.2313
  0
VERTEX
  8
LAYER_2
 10
105.5649
 20
127.5096
  0
SEQEND
  0
ENDBLK
  0
BLOCK
  8
LAYER_2
  2
AIGNBL02010070
 70
64
 10
0
 20
0
 30
0
  3
AIGNBL02010070
  0
POLYLINE
  8
LAYER_2
 40
0.05
 41
0.05
 66
1
 10
0
 20
0
 30
0
 70
1
  0
VERTEX
  8
LAYER_2
 10
104.4092
 20
204.3186
 42
-0.133629677
  0
VERTEX
  8
LAYER_2
 10
103.8511
 20
204.114
 42
-0.04627695502
  0
VERTEX
  8
LAYER_2
 10
103.4722
 20
204.0906
 42
-0.08396105583
  0
VERTEX
  8
LAYER_2
 10
102.8142
 20
204.1747
 42
-0.1437643755
  0
VERTEX
  8
LAYER_2
 10
102.4298
 20
204.4247
 42
-0.1751402473
  0
VERTEX
  8
LAYER_2
 10
102.2946
 20
204.8421
 42
-0.1277015661
  0
VERTEX
  8
LAYER_2
 10
102.3693
 20
205.1676
 42
-0.1265751839
  0
VERTEX
  8
LAYER_2
 10
102.5847
 20
205.3987
 42
-0.07528758216
  0
VERTEX
  8
LAYER_2
 10
102.9274
 20
205.5418
 42
-0.05313719341
  0
VERTEX
  8
LAYER_2
 10
103.4722
 20
205.5937
 42
-0.08373999622
  0
VERTEX
  8
LAYER_2
 10
104.127
 20
205.5103
 42
-0.144073218
  0
VERTEX
  8
LAYER_2
 10
104.5122
 20
205.2611
 42
-0.1762999362
  0
VERTEX
  8
LAYER_2
 10
104.6482
 20
204.8421
 42
-0.2331712142
  0
SEQEND
  0
POLYLINE
  8
LAYER_2
 40
0.05
 41
0.05
 66
1
 10
0
 20
0
 30
0
 70
1
  0
VERTEX
  8
LAYER_2
 10
102.8685
 20
203.7688
  0
VERTEX
  8
LAYER_2
 10
102.8905
 20
203.4874
 42
0.1466977293
  0
VERTEX
  8
LAYER_2
 10
102.6484
 20
203.3805
 42
0.2115082761
  0
VERTEX
  8
LAYER_2
 10
102.5273
 20
203.0975
 42
0.1645414732
  0
VERTEX
  8
LAYER_2
 10
102.6028
 20
202.8601
 42
0.1356581791
  0
VERTEX
  8
LAYER_2
 10
102.8873
 20
202.6494
 42
0.08627853528
  0
VERTEX
  8
LAYER_2
 10
103.4203
 20
202.5692
 42
-0.1336759684
  0
VERTEX
  8
LAYER_2
 10
103.1892
 20
202.8192
 42
-0.1200174881
  0
VERTEX
  8
LAYER_2
 10
103.1137
 20
203.1289
 42
-0.2108628614
  0
VERTEX
  8
LAYER_2
 10
103.3221
 20
203.6108
 42
-0.1993143322
  0
VERTEX
  8
LAYER_2
 10
103.8605
 20
203.8097
 42
-0.1185272376
  0
VERTEX
  8
LAYER_2
 10
104.2638
 20
203.7161
 42
-0.143966872
  0
VERTEX
  8
LAYER_2
 10
104.5492
 20
203.4591
 42
-0.1371872961
  0
VERTEX
  8
LAYER_2
 10
104.6482
 20
203.088
 42
-0.2241884543
  0
VERTEX
  8
LAYER_2
 10
104.388
 20
202.511
 42
-0.1423908421
  0
VERTEX
  8
LAYER_2
 10
103.8709
 20
202.3096
 42
-0.04783682669
  0
VERTEX
  8
LAYER_2
 10
103.5304
 20
202.2878
 42
-0.1016776297
  0
VERTEX
  8
LAYER_2
 10
102.7582
 20
202.4153
 42
-0.05283921328
  0
VERTEX
  8
LAYER_2
 10
102.5587
 20
202.5346
 42
-0.2343046143
  0
VERTEX
  8
LAYER_2
 10
102.2946
 20
203.1148
 42
-0.1845462353
  0
VERTEX
  8
LAYER_2
 10
102.4471
 20
203.5605
 42
-0.1866413697
  0
SEQEND
  0
POLYLINE
  8
LAYER_2
 40
0.05
 41
0.05
 66
1
 10
0
 20
0
 30
0
 70
1
  0
VERTEX
  8
LAYER_2
 10
102.6939
 20
204.5277
 42
0.134140156
  0
VERTEX
  8
LAYER_2
 10
103.2876
 20
204.3858
 42
0.01812019321
  0
VERTEX
  8
LAYER_2
 10
103.4722
 20
204.3815
 42
0.1341970957
  0
VERTEX
  8
LAYER_2
 10
104.2277
 20
204.5143
 42
0.2501029803
  0
VERTEX
  8
LAYER_2
 10
104.4155
 20
204.8421
 42
0.2546431008
  0
VERTEX
  8
LAYER_2
 10
104.2269
 20
205.17
 42
0.1351515596
  0
VERTEX
  8
LAYER_2
 10
103.6319
 20
205.2999
 42
0.01455533736
  0
VERTEX
  8
LAYER_2
 10
103.4722
 20
205.3028
 42
0.134405779
  0
VERTEX
  8
LAYER_2
 10
102.716
 20
205.17
 42
0.2502378619
  0
VERTEX
  8
LAYER_2
 10
102.5289
 20
204.839
 42
0.25384286
  0
SEQEND
  0
POLYLINE
  8
LAYER_2
 40
0.05
 41
0.05
 66
1
 10
0
 20
0
 30
0
 70
1
  0
VERTEX
  8
LAYER_2
 10
103.8621
 20
202.6132
 42
0.1093557353
  0
VERTEX
  8
LAYER_2
 10
104.142
 20
202.6753
 42
0.1497888805
  0
VERTEX
  8
LAYER_2
 10
104.3456
 20
202.8491
 42
0.1445263492
  0
VERTEX
  8
LAYER_2
 10
104.4155
 20
203.0833
 42
0.2199535906
  0
VERTEX
  8
LAYER_2
 10
104.2709
 20
203.3915
 42
0.1862545806
  0
VERTEX
  8
LAYER_2
 10
103.8778
 20
203.5204
 42
0.1923413576
  0
VERTEX
  8
LAYER_2
 10
103.5013
 20
203.3931
 42
0.2149228664
  0
VERTEX
  8
LAYER_2
 10
103.3637
 20
203.0723
 42
0.2026926584
  0
VERTEX
  8
LAYER_2
 10
103.5013
 20
202.7469
 42
0.1992221185
  0
SEQEND
  0
ENDBLK
  0
BLOCK
  8
LAYER_2
  2
AIGNBL02010071
 70
64
 10
0
 20
0
 30
0
  3
AIGNBL02010071
  0
POLYLINE
  8
LAYER_2
 40
0.05
 41
0.05
 66
1
 10
0
 20
0
 30
0
 70
1
  0
VERTEX
  8
LAYER_2
 10
147.7059
 20
202.4414
 42
-0.133629677
  0
VERTEX
  8
LAYER_2
 10
147.1478
 20
202.2368
 42
-0.04627695502
  0
VERTEX
  8
LAYER_2
 10
146.7689
 20
202.2134
 42
-0.08414290413
  0
VERTEX
  8
LAYER_2
 10
146.1109
 20
202.2975
 42
-0.1437643755
  0
VERTEX
  8
LAYER_2
 10
145.7265
 20
202.5475
 42
-0.1751402473
  0
VERTEX
  8
LAYER_2
 10
145.5913
 20
202.9649
 42
-0.1277015661
  0
VERTEX
  8
LAYER_2
 10
145.666
 20
203.2904
 42
-0.1264701388
  0
VERTEX
  8
LAYER_2
 10
145.8814
 20
203.5215
 42
-0.07537967751
  0
VERTEX
  8
LAYER_2
 10
146.2241
 20
203.6646
 42
-0.05301633457
  0
VERTEX
  8
LAYER_2
 10
146.7689
 20
203.7164
 42
-0.08374861645
  0
VERTEX
  8
LAYER_2
 10
147.4237
 20
203.6331
 42
-0.1439577618
  0
VERTEX
  8
LAYER_2
 10
147.8089
 20
203.3839
 42
-0.1762445847
  0
VERTEX
  8
LAYER_2
 10
147.9449
 20
202.9649
 42
-0.2331712142
  0
SEQEND
  0
POLYLINE
  8
LAYER_2
 40
0.05
 41
0.05
 66
1
 10
0
 20
0
 30
0
 70
1
  0
VERTEX
  8
LAYER_2
 10
147.7059
 20
200.6511
 42
-0.133629677
  0
VERTEX
  8
LAYER_2
 10
147.1478
 20
200.4465
 42
-0.04627695502
  0
VERTEX
  8
LAYER_2
 10
146.7689
 20
200.4231
 42
-0.08414290413
  0
VERTEX
  8
LAYER_2
 10
146.1109
 20
200.5072
 42
-0.1437643755
  0
VERTEX
  8
LAYER_2
 10
145.7265
 20
200.7572
 42
-0.1751402473
  0
VERTEX
  8
LAYER_2
 10
145.5913
 20
201.1746
 42
-0.1277015661
  0
VERTEX
  8
LAYER_2
 10
145.666
 20
201.5001
 42
-0.1265751839
  0
VERTEX
  8
LAYER_2
 10
145.8814
 20
201.7312
 42
-0.07537967751
  0
VERTEX
  8
LAYER_2
 10
146.2241
 20
201.8743
 42
-0.05313719341
  0
VERTEX
  8
LAYER_2
 10
146.7689
 20
201.9262
 42
-0.08373999622
  0
VERTEX
  8
LAYER_2
 10
147.4237
 20
201.8428
 42
-0.144073218
  0
VERTEX
  8
LAYER_2
 10
147.8089
 20
201.5936
 42
-0.1762445847
  0
VERTEX
  8
LAYER_2
 10
147.9449
 20
201.1746
 42
-0.2331712142
  0
SEQEND
  0
POLYLINE
  8
LAYER_2
 40
0.05
 41
0.05
 66
1
 10
0
 20
0
 30
0
 70
1
  0
VERTEX
  8
LAYER_2
 10
147.9056
 20
199.6988
  0
VERTEX
  8
LAYER_2
 10
147.9056
 20
199.4158
  0
VERTEX
  8
LAYER_2
 10
146.1023
 20
199.4158
  0
VERTEX
  8
LAYER_2
 10
146.2972
 20
199.1478
  0
VERTEX
  8
LAYER_2
 10
146.4434
 20
198.8498
  0
VERTEX
  8
LAYER_2
 10
146.1699
 20
198.8498
 42
0.07435168362
  0
VERTEX
  8
LAYER_2
 10
145.8994
 20
199.2649
 42
0.1029038756
  0
VERTEX
  8
LAYER_2
 10
145.5913
 20
199.5164
  0
VERTEX
  8
LAYER_2
 10
145.5913
 20
199.6988
  0
SEQEND
  0
POLYLINE
  8
LAYER_2
 40
0.05
 41
0.05
 66
1
 10
0
 20
0
 30
0
 70
1
  0
VERTEX
  8
LAYER_2
 10
145.9906
 20
202.6505
 42
0.134140156
  0
VERTEX
  8
LAYER_2
 10
146.5843
 20
202.5086
 42
0.01812019321
  0
VERTEX
  8
LAYER_2
 10
146.7689
 20
202.5043
 42
0.1343431084
  0
VERTEX
  8
LAYER_2
 10
147.5243
 20
202.6371
 42
0.2503111383
  0
VERTEX
  8
LAYER_2
 10
147.7122
 20
202.9649
 42
0.254825547
  0
VERTEX
  8
LAYER_2
 10
147.5235
 20
203.2927
 42
0.1353502956
  0
VERTEX
  8
LAYER_2
 10
146.9286
 20
203.4227
 42
0.01456480983
  0
VERTEX
  8
LAYER_2
 10
146.7689
 20
203.4256
 42
0.134482718
  0
VERTEX
  8
LAYER_2
 10
146.0126
 20
203.2927
 42
0.2500267912
  0
VERTEX
  8
LAYER_2
 10
145.8255
 20
202.9618
 42
0.2538992962
  0
SEQEND
  0
POLYLINE
  8
LAYER_2
 40
0.05
 41
0.05
 66
1
 10
0
 20
0
 30
0
 70
1
  0
VERTEX
  8
LAYER_2
 10
145.9906
 20
200.8602
 42
0.134140156
  0
VERTEX
  8
LAYER_2
 10
146.5843
 20
200.7183
 42
0.01812019321
  0
VERTEX
  8
LAYER_2
 10
146.7689
 20
200.714
 42
0.1343431084
  0
VERTEX
  8
LAYER_2
 10
147.5243
 20
200.8468
 42
0.2502238607
  0
VERTEX
  8
LAYER_2
 10
147.7122
 20
201.1746
 42
0.2548973883
  0
VERTEX
  8
LAYER_2
 10
147.5235
 20
201.5024
 42
0.1353502956
  0
VERTEX
  8
LAYER_2
 10
146.9286
 20
201.6324
 42
0.01456480983
  0
VERTEX
  8
LAYER_2
 10
146.7689
 20
201.6353
 42
0.134482718
  0
VERTEX
  8
LAYER_2
 10
146.0126
 20
201.5024
 42
0.2502109507
  0
VERTEX
  8
LAYER_2
 10
145.8255
 20
201.1715
 42
0.2538992962
  0
SEQEND
  0
ENDBLK
  0
BLOCK
  8
LAYER_2
  2
AIGNBL02010072
 70
64
 10
0
 20
0
 30
0
  3
AIGNBL02010072
  0
POLYLINE
  8
LAYER_2
 40
0.05
 41
0.05
 66
1
 10
0
 20
0
 30
0
 70
1
  0
VERTEX
  8
LAYER_2
 10
223.9893
 20
132.3424
  0
VERTEX
  8
LAYER_2
 10
223.7078
 20
132.3204
 42
0.1467301807
  0
VERTEX
  8
LAYER_2
 10
223.6009
 20
132.5625
 42
0.2116091462
  0
VERTEX
  8
LAYER_2
 10
223.3179
 20
132.6835
 42
0.1645600158
  0
VERTEX
  8
LAYER_2
 10
223.0805
 20
132.6081
 42
0.1353922711
  0
VERTEX
  8
LAYER_2
 10
222.8698
 20
132.3235
 42
0.08630705985
  0
VERTEX
  8
LAYER_2
 10
222.7897
 20
131.7905
 42
-0.1338474739
  0
VERTEX
  8
LAYER_2
 10
223.0396
 20
132.0216
 42
-0.1201459111
  0
VERTEX
  8
LAYER_2
 10
223.3494
 20
132.0971
 42
-0.2108104284
  0
VERTEX
  8
LAYER_2
 10
223.8313
 20
131.8888
 42
-0.1991731998
  0
VERTEX
  8
LAYER_2
 10
224.0301
 20
131.3503
 42
-0.1183076456
  0
VERTEX
  8
LAYER_2
 10
223.9366
 20
130.947
 42
-0.1439965076
  0
VERTEX
  8
LAYER_2
 10
223.6795
 20
130.6617
 42
-0.1373995657
  0
VERTEX
  8
LAYER_2
 10
223.3085
 20
130.5626
 42
-0.2242147413
  0
VERTEX
  8
LAYER_2
 10
222.7315
 20
130.8228
 42
-0.142410968
  0
VERTEX
  8
LAYER_2
 10
222.53
 20
131.34
 42
-0.0478483735
  0
VERTEX
  8
LAYER_2
 10
222.5082
 20
131.6805
 42
-0.1017201568
  0
VERTEX
  8
LAYER_2
 10
222.6357
 20
132.4526
 42
-0.05287047101
  0
VERTEX
  8
LAYER_2
 10
222.7551
 20
132.6521
 42
-0.2344817979
  0
VERTEX
  8
LAYER_2
 10
223.3352
 20
132.9162
 42
-0.1846868792
  0
VERTEX
  8
LAYER_2
 10
223.7809
 20
132.7637
 42
-0.1865912852
  0
SEQEND
  0
POLYLINE
  8
LAYER_2
 40
0.05
 41
0.05
 66
1
 10
0
 20
0
 30
0
 70
1
  0
VERTEX
  8
LAYER_2
 10
222.8337
 20
131.3487
 42
0.1093212187
  0
VERTEX
  8
LAYER_2
 10
222.8958
 20
131.0689
 42
0.1499050267
  0
VERTEX
  8
LAYER_2
 10
223.0695
 20
130.8653
 42
0.1447531188
  0
VERTEX
  8
LAYER_2
 10
223.3038
 20
130.7953
 42
0.2202553943
  0
VERTEX
  8
LAYER_2
 10
223.6119
 20
130.94
 42
0.1864089137
  0
VERTEX
  8
LAYER_2
 10
223.7409
 20
131.333
 42
0.1922172203
  0
VERTEX
  8
LAYER_2
 10
223.6135
 20
131.7096
 42
0.2149987341
  0
VERTEX
  8
LAYER_2
 10
223.2928
 20
131.8471
 42
0.202717247
  0
VERTEX
  8
LAYER_2
 10
222.9673
 20
131.7096
 42
0.1991791985
  0
SEQEND
  0
POLYLINE
  8
LAYER_2
 40
0.05
 41
0.05
 66
1
 10
0
 20
0
 30
0
 70
1
  0
VERTEX
  8
LAYER_2
 10
224.539
 20
130.8016
 42
-0.1335505391
  0
VERTEX
  8
LAYER_2
 10
224.3345
 20
131.3597
 42
-0.04625901734
  0
VERTEX
  8
LAYER_2
 10
224.3111
 20
131.7386
 42
-0.08415946907
  0
VERTEX
  8
LAYER_2
 10
224.3952
 20
132.3966
 42
-0.1439872905
  0
VERTEX
  8
LAYER_2
 10
224.6452
 20
132.781
 42
-0.1755895383
  0
VERTEX
  8
LAYER_2
 10
225.0626
 20
132.9162
 42
-0.1274768811
  0
VERTEX
  8
LAYER_2
 10
225.388
 20
132.8416
 42
-0.1265971543
  0
VERTEX
  8
LAYER_2
 10
225.6192
 20
132.6262
 42
-0.07516071156
  0
VERTEX
  8
LAYER_2
 10
225.7622
 20
132.2834
 42
-0.05313719341
  0
VERTEX
  8
LAYER_2
 10
225.8141
 20
131.7386
 42
-0.08359335125
  0
VERTEX
  8
LAYER_2
 10
225.7308
 20
131.0838
 42
-0.143767343
  0
VERTEX
  8
LAYER_2
 10
225.4816
 20
130.6986
 42
-0.176190946
  0
VERTEX
  8
LAYER_2
 10
225.0626
 20
130.5626
 42
-0.2330055271
  0
SEQEND
  0
POLYLINE
  8
LAYER_2
 40
0.05
 41
0.05
 66
1
 10
0
 20
0
 30
0
 70
1
  0
VERTEX
  8
LAYER_2
 10
224.7481
 20
132.5169
 42
0.1340043555
  0
VERTEX
  8
LAYER_2
 10
224.6062
 20
131.9232
 42
0.01812863699
  0
VERTEX
  8
LAYER_2
 10
224.6019
 20
131.7386
 42
0.1343455582
  0
VERTEX
  8
LAYER_2
 10
224.7348
 20
130.9832
 42
0.2504100629
  0
VERTEX
  8
LAYER_2
 10
225.0626
 20
130.7953
 42
0.254825547
  0
VERTEX
  8
LAYER_2
 10
225.3904
 20
130.984
 42
0.1353059869
  0
VERTEX
  8
LAYER_2
 10
225.5204
 20
131.5789
 42
0.01456698045
  0
VERTEX
  8
LAYER_2
 10
225.5233
 20
131.7386
 42
0.1345062864
  0
VERTEX
  8
LAYER_2
 10
225.3904
 20
132.4949
 42
0.2500267912
  0
VERTEX
  8
LAYER_2
 10
225.0595
 20
132.682
 42
0.2537531878
  0
SEQEND
  0
ENDBLK
  0
BLOCK
  8
LAYER_2
  2
AIGNBL02010073
 70
64
 10
0
 20
0
 30
0
  3
AIGNBL02010073
  0
POLYLINE
  8
LAYER_2
 40
0.05
 41
0.05
 66
1
 10
0
 20
0
 30
0
 70
1
  0
VERTEX
  8
LAYER_2
 10
52.0264
 20
127.7243
 42
-0.133629677
  0
VERTEX
  8
LAYER_2
 10
51.4683
 20
127.5197
 42
-0.04627695502
  0
VERTEX
  8
LAYER_2
 10
51.0894
 20
127.4963
 42
-0.08399056053
  0
VERTEX
  8
LAYER_2
 10
50.4314
 20
127.5804
 42
-0.1438719586
  0
VERTEX
  8
LAYER_2
 10
50.047
 20
127.8304
 42
-0.1751402473
  0
VERTEX
  8
LAYER_2
 10
49.9118
 20
128.2478
 42
-0.1277015661
  0
VERTEX
  8
LAYER_2
 10
49.9865
 20
128.5733
 42
-0.126434886
  0
VERTEX
  8
LAYER_2
 10
50.2018
 20
128.8044
 42
-0.07531058865
  0
VERTEX
  8
LAYER_2
 10
50.5446
 20
128.9475
 42
-0.05313719341
  0
VERTEX
  8
LAYER_2
 10
51.0894
 20
128.9994
 42
-0.08373999622
  0
VERTEX
  8
LAYER_2
 10
51.7442
 20
128.916
 42
-0.1438828063
  0
VERTEX
  8
LAYER_2
 10
52.1294
 20
128.6668
 42
-0.1762445847
  0
VERTEX
  8
LAYER_2
 10
52.2654
 20
128.2478
 42
-0.2330815637
  0
SEQEND
  0
POLYLINE
  8
LAYER_2
 40
0.05
 41
0.05
 66
1
 10
0
 20
0
 30
0
 70
1
  0
VERTEX
  8
LAYER_2
 10
50.9762
 20
126.1415
 42
-0.1582303521
  0
VERTEX
  8
LAYER_2
 10
50.7922
 20
125.8806
 42
-0.1544855216
  0
VERTEX
  8
LAYER_2
 10
50.5061
 20
125.7957
 42
-0.2116028483
  0
VERTEX
  8
LAYER_2
 10
50.0831
 20
125.9765
 42
-0.1979700731
  0
VERTEX
  8
LAYER_2
 10
49.9118
 20
126.4576
 42
-0.1945160539
  0
VERTEX
  8
LAYER_2
 10
50.0871
 20
126.9434
 42
-0.210769013
  0
VERTEX
  8
LAYER_2
 10
50.5139
 20
127.1273
 42
-0.1599549058
  0
VERTEX
  8
LAYER_2
 10
50.793
 20
127.0432
 42
-0.1455608928
  0
VERTEX
  8
LAYER_2
 10
50.9762
 20
126.7877
 42
-0.1631096022
  0
VERTEX
  8
LAYER_2
 10
51.1994
 20
127.1108
 42
-0.1579849526
  0
VERTEX
  8
LAYER_2
 10
51.5673
 20
127.2217
 42
-0.2091100571
  0
VERTEX
  8
LAYER_2
 10
52.0641
 20
127.0126
 42
-0.2007765495
  0
VERTEX
  8
LAYER_2
 10
52.2654
 20
126.4623
 42
-0.1955382437
  0
VERTEX
  8
LAYER_2
 10
52.0634
 20
125.912
 42
-0.2094495112
  0
VERTEX
  8
LAYER_2
 10
51.5595
 20
125.7029
 42
-0.1661894528
  0
VERTEX
  8
LAYER_2
 10
51.1829
 20
125.8169
 42
-0.170813261
  0
SEQEND
  0
POLYLINE
  8
LAYER_2
 40
0.05
 41
0.05
 66
1
 10
0
 20
0
 30
0
 70
1
  0
VERTEX
  8
LAYER_2
 10
52.2261
 20
124.9817
  0
VERTEX
  8
LAYER_2
 10
52.2261
 20
124.6987
  0
VERTEX
  8
LAYER_2
 10
50.4227
 20
124.6987
  0
VERTEX
  8
LAYER_2
 10
50.6177
 20
124.4307
  0
VERTEX
  8
LAYER_2
 10
50.7639
 20
124.1327
  0
VERTEX
  8
LAYER_2
 10
50.4904
 20
124.1327
 42
0.07442734374
  0
VERTEX
  8
LAYER_2
 10
50.2199
 20
124.5478
 42
0.1027572249
  0
VERTEX
  8
LAYER_2
 10
49.9118
 20
124.7994
  0
VERTEX
  8
LAYER_2
 10
49.9118
 20
124.9817
  0
SEQEND
  0
POLYLINE
  8
LAYER_2
 40
0.05
 41
0.05
 66
1
 10
0
 20
0
 30
0
 70
1
  0
VERTEX
  8
LAYER_2
 10
50.4966
 20
126.085
 42
0.2076083902
  0
VERTEX
  8
LAYER_2
 10
50.7639
 20
126.1903
 42
0.1993757513
  0
VERTEX
  8
LAYER_2
 10
50.8677
 20
126.4639
 42
0.2037205138
  0
VERTEX
  8
LAYER_2
 10
50.7647
 20
126.7319
 42
0.2057651869
  0
VERTEX
  8
LAYER_2
 10
50.5124
 20
126.8365
 42
0.2066538786
  0
VERTEX
  8
LAYER_2
 10
50.2506
 20
126.7288
 42
0.20087182
  0
VERTEX
  8
LAYER_2
 10
50.1445
 20
126.4607
 42
0.2011728284
  0
VERTEX
  8
LAYER_2
 10
50.2482
 20
126.1919
 42
0.2087279643
  0
SEQEND
  0
POLYLINE
  8
LAYER_2
 40
0.05
 41
0.05
 66
1
 10
0
 20
0
 30
0
 70
1
  0
VERTEX
  8
LAYER_2
 10
50.3111
 20
127.9334
 42
0.134140156
  0
VERTEX
  8
LAYER_2
 10
50.9048
 20
127.7915
 42
0.01812019321
  0
VERTEX
  8
LAYER_2
 10
51.0894
 20
127.7872
 42
0.134244641
  0
VERTEX
  8
LAYER_2
 10
51.8448
 20
127.92
 42
0.2502238607
  0
VERTEX
  8
LAYER_2
 10
52.0327
 20
128.2478
 42
0.2548973883
  0
VERTEX
  8
LAYER_2
 10
51.844
 20
128.5756
 42
0.1353502956
  0
VERTEX
  8
LAYER_2
 10
51.2491
 20
128.7056
 42
0.01456480983
  0
VERTEX
  8
LAYER_2
 10
51.0894
 20
128.7085
 42
0.1345062864
  0
VERTEX
  8
LAYER_2
 10
50.3331
 20
128.5756
 42
0.2502109507
  0
VERTEX
  8
LAYER_2
 10
50.146
 20
128.2447
 42
0.2538175655
  0
SEQEND
  0
POLYLINE
  8
LAYER_2
 40
0.05
 41
0.05
 66
1
 10
0
 20
0
 30
0
 70
1
  0
VERTEX
  8
LAYER_2
 10
51.561
 20
125.9938
 42
0.1161512215
  0
VERTEX
  8
LAYER_2
 10
51.7953
 20
126.0511
 42
0.1518693503
  0
VERTEX
  8
LAYER_2
 10
51.9706
 20
126.2217
 42
0.1264040547
  0
VERTEX
  8
LAYER_2
 10
52.0327
 20
126.4654
 42
0.2028222611
  0
VERTEX
  8
LAYER_2
 10
51.9022
 20
126.8003
 42
0.2054058634
  0
VERTEX
  8
LAYER_2
 10
51.5705
 20
126.9324
 42
0.2065774359
  0
VERTEX
  8
LAYER_2
 10
51.2324
 20
126.7964
 42
0.2010857995
  0
VERTEX
  8
LAYER_2
 10
51.0988
 20
126.456
 42
0.2052005541
  0
VERTEX
  8
LAYER_2
 10
51.2309
 20
126.125
 42
0.202990246
  0
SEQEND
  0
ENDBLK
  0
BLOCK
  8
LAYER_2
  2
AIGNBL02010074
 70
64
 10
0
 20
0
 30
0
  3
AIGNBL02010074
  0
POLYLINE
  8
LAYER_2
 40
0.05
 41
0.05
 66
1
 10
0
 20
0
 30
0
 70
1
  0
VERTEX
  8
LAYER_2
 10
212.4896
 20
114.8494
  0
VERTEX
  8
LAYER_2
 10
212.4896
 20
114.5774
  0
VERTEX
  8
LAYER_2
 10
210.9661
 20
114.5774
 42
-0.1002201265
  0
VERTEX
  8
LAYER_2
 10
210.9992
 20
114.7739
 42
-0.08233415614
  0
VERTEX
  8
LAYER_2
 10
211.1855
 20
115.0805
 42
-0.03582970587
  0
VERTEX
  8
LAYER_2
 10
211.5557
 20
115.4295
 42
0.06890480527
  0
VERTEX
  8
LAYER_2
 10
212.0636
 20
115.9177
 42
0.164781088
  0
VERTEX
  8
LAYER_2
 10
212.1956
 20
116.2581
 42
0.2099219032
  0
VERTEX
  8
LAYER_2
 10
212.0753
 20
116.5418
 42
0.1966432471
  0
VERTEX
  8
LAYER_2
 10
211.7617
 20
116.6574
 42
0.2044593939
  0
VERTEX
  8
LAYER_2
 10
211.4347
 20
116.5348
 42
0.1998488569
  0
VERTEX
  8
LAYER_2
 10
211.3105
 20
116.1952
  0
VERTEX
  8
LAYER_2
 10
211.0196
 20
116.225
 42
-0.1922298068
  0
VERTEX
  8
LAYER_2
 10
211.2444
 20
116.7211
 42
-0.1867659876
  0
VERTEX
  8
LAYER_2
 10
211.768
 20
116.8917
 42
-0.1927096284
  0
VERTEX
  8
LAYER_2
 10
212.2931
 20
116.7077
 42
-0.2113682068
  0
VERTEX
  8
LAYER_2
 10
212.4865
 20
116.2518
 42
-0.09890845033
  0
VERTEX
  8
LAYER_2
 10
212.4299
 20
115.9798
 42
-0.07221103893
  0
VERTEX
  8
LAYER_2
 10
212.242
 20
115.6984
  0
VERTEX
  8
LAYER_2
 10
211.8057
 20
115.2927
  0
VERTEX
  8
LAYER_2
 10
211.4787
 20
115.0026
  0
VERTEX
  8
LAYER_2
 10
211.3592
 20
114.8494
  0
SEQEND
  0
POLYLINE
  8
LAYER_2
 40
0.05
 41
0.05
 66
1
 10
0
 20
0
 30
0
 70
1
  0
VERTEX
  8
LAYER_2
 10
212.835
 20
115.1103
  0
VERTEX
  8
LAYER_2
 10
213.107
 20
115.1355
 42
0.1766584521
  0
VERTEX
  8
LAYER_2
 10
213.2391
 20
114.8572
 42
0.1822916084
  0
VERTEX
  8
LAYER_2
 10
213.4891
 20
114.7707
 42
0.1433586465
  0
VERTEX
  8
LAYER_2
 10
213.7178
 20
114.8305
 42
0.1150764394
  0
VERTEX
  8
LAYER_2
 10
213.879
 20
114.9901
 42
0.0652342483
  0
VERTEX
  8
LAYER_2
 10
213.9843
 20
115.2597
 42
0.06117094904
  0
VERTEX
  8
LAYER_2
 10
214.0268
 20
115.6056
  0
VERTEX
  8
LAYER_2
 10
214.0252
 20
115.6622
 42
-0.1227945955
  0
VERTEX
  8
LAYER_2
 10
213.7933
 20
115.4429
 42
-0.1306738029
  0
VERTEX
  8
LAYER_2
 10
213.4749
 20
115.3588
 42
-0.2049547777
  0
VERTEX
  8
LAYER_2
 10
212.9907
 20
115.5663
 42
-0.199810627
  0
VERTEX
  8
LAYER_2
 10
212.7926
 20
116.1134
 42
-0.1954582395
  0
VERTEX
  8
LAYER_2
 10
212.9993
 20
116.6778
 42
-0.2096270971
  0
VERTEX
  8
LAYER_2
 10
213.5174
 20
116.8917
 42
-0.1471206471
  0
VERTEX
  8
LAYER_2
 10
213.9285
 20
116.7706
 42
-0.1491531078
  0
VERTEX
  8
LAYER_2
 10
214.2115
 20
116.4255
 42
-0.09583099295
  0
VERTEX
  8
LAYER_2
 10
214.3082
 20
115.777
 42
-0.08908536976
  0
VERTEX
  8
LAYER_2
 10
214.2123
 20
115.0734
 42
-0.1517433311
  0
VERTEX
  8
LAYER_2
 10
213.9269
 20
114.6748
 42
-0.1599369436
  0
VERTEX
  8
LAYER_2
 10
213.4828
 20
114.5381
 42
-0.1845514215
  0
VERTEX
  8
LAYER_2
 10
213.041
 20
114.6882
 42
-0.1874948996
  0
SEQEND
  0
POLYLINE
  8
LAYER_2
 40
0.05
 41
0.05
 66
1
 10
0
 20
0
 30
0
 70
1
  0
VERTEX
  8
LAYER_2
 10
213.9937
 20
116.1276
 42
0.189620502
  0
VERTEX
  8
LAYER_2
 10
213.864
 20
116.5143
 42
0.2181894329
  0
VERTEX
  8
LAYER_2
 10
213.552
 20
116.6574
 42
0.2176159401
  0
VERTEX
  8
LAYER_2
 10
213.2234
 20
116.5033
 42
0.1903312844
  0
VERTEX
  8
LAYER_2
 10
213.0834
 20
116.104
 42
0.199320659
  0
VERTEX
  8
LAYER_2
 10
213.2163
 20
115.7463
 42
0.209087182
  0
VERTEX
  8
LAYER_2
 10
213.5441
 20
115.6087
 42
0.2159813113
  0
VERTEX
  8
LAYER_2
 10
213.8672
 20
115.7463
 42
0.1901744757
  0
SEQEND
  0
POLYLINE
  8
LAYER_2
 40
0.05
 41
0.05
 66
1
 10
0
 20
0
 30
0
 70
1
  0
VERTEX
  8
LAYER_2
 10
214.8108
 20
114.777
 42
-0.1336240984
  0
VERTEX
  8
LAYER_2
 10
214.6062
 20
115.3352
 42
-0.04626698942
  0
VERTEX
  8
LAYER_2
 10
214.5828
 20
115.7141
 42
-0.08414734474
  0
VERTEX
  8
LAYER_2
 10
214.667
 20
116.372
 42
-0.1439586137
  0
VERTEX
  8
LAYER_2
 10
214.9169
 20
116.7565
 42
-0.1750999975
  0
VERTEX
  8
LAYER_2
 10
215.3344
 20
116.8917
 42
-0.127676133
  0
VERTEX
  8
LAYER_2
 10
215.6598
 20
116.817
 42
-0.1265751839
  0
VERTEX
  8
LAYER_2
 10
215.8909
 20
116.6016
 42
-0.07533292951
  0
VERTEX
  8
LAYER_2
 10
216.034
 20
116.2588
 42
-0.05315293434
  0
VERTEX
  8
LAYER_2
 10
216.0859
 20
115.7141
 42
-0.08355191956
  0
VERTEX
  8
LAYER_2
 10
216.0026
 20
115.0592
 42
-0.143750082
  0
VERTEX
  8
LAYER_2
 10
215.7534
 20
114.6741
 42
-0.176190946
  0
VERTEX
  8
LAYER_2
 10
215.3344
 20
114.5381
 42
-0.2330792375
  0
SEQEND
  0
POLYLINE
  8
LAYER_2
 40
0.05
 41
0.05
 66
1
 10
0
 20
0
 30
0
 70
1
  0
VERTEX
  8
LAYER_2
 10
215.0199
 20
116.4923
 42
0.1341803114
  0
VERTEX
  8
LAYER_2
 10
214.878
 20
115.8986
 42
0.0181183759
  0
VERTEX
  8
LAYER_2
 10
214.8737
 20
115.7141
 42
0.1343215455
  0
VERTEX
  8
LAYER_2
 10
215.0066
 20
114.9586
 42
0.2502394661
  0
VERTEX
  8
LAYER_2
 10
215.3344
 20
114.7707
 42
0.2547360631
  0
VERTEX
  8
LAYER_2
 10
215.6622
 20
114.9594
 42
0.1351746835
  0
VERTEX
  8
LAYER_2
 10
215.7921
 20
115.5544
 42
0.01455832408
  0
VERTEX
  8
LAYER_2
 10
215.795
 20
115.7141
 42
0.134405779
  0
VERTEX
  8
LAYER_2
 10
215.6622
 20
116.4703
 42
0.2500679765
  0
VERTEX
  8
LAYER_2
 10
215.3312
 20
116.6574
 42
0.2539859572
  0
SEQEND
  0
ENDBLK
  0
ENDSEC
  0
SECTION
  2
ENTITIES
  0
TEXT
  8
LAYER_2
 10
-26.2556
 20
43.1712
 11
-26.2556
 21
43.1712
 40
3.2995
 41
0.5
  1
仕様
  0
POLYLINE
  8
LAYER_2
 40
0.3528
 41
0.3528
 66
1
 10
0
 20
0
 30
0
  0
VERTEX
  8
LAYER_2
 10
250.4089
 20
51.9507
  0
VERTEX
  8
LAYER_2
 10
-29.1405
 20
51.9507
  0
SEQEND
  0
INSERT
  8
LAYER_2
  2
AIGNBL02010002
 10
0
 20
0
 30
0
  0
POLYLINE
  8
LAYER_2
 40
0.3528
 41
0.3528
 66
1
 10
0
 20
0
 30
0
  0
VERTEX
  8
LAYER_2
 10
-29.3178
 20
229.3369
  0
VERTEX
  8
LAYER_2
 10
-29.3178
 20
34.3283
  0
VERTEX
  8
LAYER_2
 10
250.6748
 20
34.3283
  0
VERTEX
  8
LAYER_2
 10
250.6748
 20
229.3369
  0
VERTEX
  8
LAYER_2
 10
-29.3178
 20
229.3369
  0
SEQEND
  0
POLYLINE
  8
LAYER_2
 40
0.3528
 41
0.3528
 66
1
 10
0
 20
0
 30
0
  0
VERTEX
  8
LAYER_2
 10
250.4089
 20
60.4597
  0
VERTEX
  8
LAYER_2
 10
-29.1405
 20
60.4597
  0
SEQEND
  0
POLYLINE
  8
LAYER_2
 40
0.3528
 41
0.3528
 66
1
 10
0
 20
0
 30
0
  0
VERTEX
  8
LAYER_2
 10
250.6748
 20
43.4416
  0
VERTEX
  8
LAYER_2
 10
102.0225
 20
43.4416
  0
SEQEND
  0
TEXT
  8
LAYER_2
 10
182.8808
 20
49.4743
 11
182.8808
 21
49.4743
 40
2.1997
 41
0.5
  1
縮尺
  0
POLYLINE
  8
LAYER_2
 40
0.3528
 41
0.3528
 66
1
 10
0
 20
0
 30
0
  0
VERTEX
  8
LAYER_2
 10
181.3526
 20
43.4416
  0
VERTEX
  8
LAYER_2
 10
181.3526
 20
51.9507
  0
SEQEND
  0
TEXT
  8
LAYER_2
 10
102.7211
 20
57.9834
 11
102.7211
 21
57.9834
 40
2.1997
 41
0.5
  1
品番
  0
TEXT
  8
LAYER_2
 10
-28.1609
 20
57.9834
 11
-28.1609
 21
57.9834
 40
2.1997
 41
0.5
  1
品名
  0
TEXT
  8
LAYER_2
 10
102.7211
 20
49.4743
 11
102.7211
 21
49.4743
 40
2.1997
 41
0.5
  1
重量
  0
TEXT
  8
LAYER_2
 10
105.6444
 20
54.1714
 11
105.6444
 21
54.1714
 40
4.6883
 41
0.5
  1
CIE-CALAR/
  0
TEXT
  8
LAYER_2
 10
109.4985
 20
45.7175
 11
109.4985
 21
45.7175
 40
3.7615
 41
0.5
  1
33.95kg
  0
POLYLINE
  8
LAYER_2
 40
0.3528
 41
0.3528
 66
1
 10
0
 20
0
 30
0
  0
VERTEX
  8
LAYER_2
 10
102.0225
 20
34.7539
  0
VERTEX
  8
LAYER_2
 10
102.0225
 20
60.4597
  0
SEQEND
  0
TEXT
  8
LAYER_2
 10
-15.3768
 20
54.891
 11
-15.3768
 21
54.891
 40
4.1465
 41
0.5
  1
カティーノレクタングル洗面ボウル1100mm
  0
INSERT
  8
LAYER_2
  2
AIGNBL02010003
 10
0
 20
0
 30
0
  0
TEXT
  8
LAYER_2
 10
-15.6835
 20
45.3736
 11
-15.6835
 21
45.3736
 40
3.5541
 41
0.5
  1
●サイズ：W1100×D580×H830mm●オーバーフローなし
  0
TEXT
  8
LAYER_2
 10
-15.6835
 20
40.6235
 11
-15.6835
 21
40.6235
 40
3.5541
 41
0.5
  1
●水栓取付穴：1穴●排水金具別途
  0
TEXT
  8
LAYER_2
 10
237.263
 20
63.2582
 11
237.263
 21
63.2582
 40
2.9618
 41
0.5
  1
単位：mm
  0
TEXT
  8
LAYER_2
 10
135.6768
 20
39.5359
 11
135.6768
 21
39.5359
 40
3.3853
 41
0.5
  1
●TEL 0120-65-1232●FAX 06-6532-1580
  0
TEXT
  8
LAYER_2
 10
135.6768
 20
36.0212
 11
135.6768
 21
36.0212
 40
3.3853
 41
0.5
  1
hits@hiratatile.co.jp
  0
TEXT
  8
LAYER_2
 10
240.3591
 20
225.8432
 11
240.3591
 21
225.8432
 40
2.0732
 41
0.5
  1
180604RT
  0
INSERT
  8
LAYER_2
  2
AIGNBL02010006
 10
0
 20
0
 30
0
  0
POLYLINE
  8
LAYER_2
 40
0.1411
 41
0.1411
 66
1
 10
0
 20
0
 30
0
  0
VERTEX
  8
LAYER_2
 10
55.0307
 20
202.6701
  0
VERTEX
  8
LAYER_2
 10
55.0307
 20
159.343
  0
SEQEND
  0
POLYLINE
  8
LAYER_2
 40
0.2646
 41
0.2646
 66
1
 10
0
 20
0
 30
0
  0
VERTEX
  8
LAYER_2
 10
55.2104
 20
133.8499
  0
VERTEX
  8
LAYER_2
 10
58.2309
 20
133.8499
  0
SEQEND
  0
POLYLINE
  8
LAYER_2
 40
0.2646
 41
0.2646
 66
1
 10
0
 20
0
 30
0
  0
VERTEX
  8
LAYER_2
 10
55.2104
 20
134.8567
  0
VERTEX
  8
LAYER_2
 10
60.5681
 20
134.8567
  0
SEQEND
  0
POLYLINE
  8
LAYER_2
 40
0.2646
 41
0.2646
 66
1
 10
0
 20
0
 30
0
  0
VERTEX
  8
LAYER_2
 10
55.0307
 20
134.6769
  0
VERTEX
  8
LAYER_2
 10
55.0307
 20
134.0295
  0
SEQEND
  0
INSERT
  8
LAYER_2
  2
AIGNBL02010028
 10
0
 20
0
 30
0
  0
POLYLINE
  8
LAYER_2
 40
0.1411
 41
0.1411
 66
1
 10
0
 20
0
 30
0
  0
VERTEX
  8
LAYER_2
 10
90.5194
 20
133.8499
  0
SEQEND
  0
INSERT
  8
LAYER_2
  2
AIGNBL02010029
 10
0
 20
0
 30
0
  0
POLYLINE
  8
LAYER_2
 40
0.2646
 41
0.2646
 66
1
 10
0
 20
0
 30
0
  0
VERTEX
  8
LAYER_2
 10
55.0307
 20
134.6769
  0
VERTEX
  8
LAYER_2
 10
55.0307
 20
134.0295
  0
SEQEND
  0
INSERT
  8
LAYER_2
  2
AIGNBL0201002A
 10
0
 20
0
 30
0
  0
POLYLINE
  8
LAYER_2
 40
0.2646
 41
0.2646
 66
1
 10
0
 20
0
 30
0
  0
VERTEX
  8
LAYER_2
 10
55.2104
 20
133.8499
  0
VERTEX
  8
LAYER_2
 10
59.4893
 20
133.8499
  0
SEQEND
  0
POLYLINE
  8
LAYER_2
 40
0.1411
 41
0.1411
 66
1
 10
0
 20
0
 30
0
  0
VERTEX
  8
LAYER_2
 10
60.5679
 20
134.8567
  0
VERTEX
  8
LAYER_2
 10
96.8836
 20
134.8567
  0
SEQEND
  0
POLYLINE
  8
LAYER_2
 40
0.1411
 41
0.1411
 66
1
 10
0
 20
0
 30
0
  0
VERTEX
  8
LAYER_2
 10
60.9994
 20
134.8567
  0
VERTEX
  8
LAYER_2
 10
105.6928
 20
134.8567
  0
SEQEND
  0
POLYLINE
  8
LAYER_2
 40
0.2646
 41
0.2646
 66
1
 10
0
 20
0
 30
0
  0
VERTEX
  8
LAYER_2
 10
180.3059
 20
133.8499
  0
VERTEX
  8
LAYER_2
 10
177.2854
 20
133.8499
  0
SEQEND
  0
POLYLINE
  8
LAYER_2
 40
0.2646
 41
0.2646
 66
1
 10
0
 20
0
 30
0
  0
VERTEX
  8
LAYER_2
 10
226.6894
 20
134.8567
  0
VERTEX
  8
LAYER_2
 10
222.9499
 20
134.8567
  0
SEQEND
  0
POLYLINE
  8
LAYER_2
 40
0.1411
 41
0.1411
 66
1
 10
0
 20
0
 30
0
  0
VERTEX
  8
LAYER_2
 10
222.9499
 20
134.8567
  0
VERTEX
  8
LAYER_2
 10
219.7499
 20
134.8567
  0
SEQEND
  0
POLYLINE
  8
LAYER_2
 40
0.1411
 41
0.1411
 66
1
 10
0
 20
0
 30
0
  0
VERTEX
  8
LAYER_2
 10
218.0958
 20
134.8567
  0
VERTEX
  8
LAYER_2
 10
182.2116
 20
134.8567
  0
SEQEND
  0
POLYLINE
  8
LAYER_2
 40
0.2646
 41
0.2646
 66
1
 10
0
 20
0
 30
0
  0
VERTEX
  8
LAYER_2
 10
182.2115
 20
134.8567
  0
VERTEX
  8
LAYER_2
 10
177.2857
 20
134.8567
  0
SEQEND
  0
POLYLINE
  8
LAYER_2
 40
0.2646
 41
0.2646
 66
1
 10
0
 20
0
 30
0
  0
VERTEX
  8
LAYER_2
 10
177.1057
 20
134.6769
  0
VERTEX
  8
LAYER_2
 10
177.1057
 20
134.0296
  0
SEQEND
  0
INSERT
  8
LAYER_2
  2
AIGNBL0201002B
 10
0
 20
0
 30
0
  0
POLYLINE
  8
LAYER_2
 40
0.2646
 41
0.2646
 66
1
 10
0
 20
0
 30
0
  0
VERTEX
  8
LAYER_2
 10
226.6894
 20
133.8499
  0
VERTEX
  8
LAYER_2
 10
222.9499
 20
133.8499
  0
SEQEND
  0
POLYLINE
  8
LAYER_2
 40
0.1411
 41
0.1411
 66
1
 10
0
 20
0
 30
0
  0
VERTEX
  8
LAYER_2
 10
222.9499
 20
133.8499
  0
VERTEX
  8
LAYER_2
 10
219.7499
 20
133.8499
  0
SEQEND
  0
POLYLINE
  8
LAYER_2
 40
0.2646
 41
0.2646
 66
1
 10
0
 20
0
 30
0
  0
VERTEX
  8
LAYER_2
 10
219.7498
 20
133.8499
  0
VERTEX
  8
LAYER_2
 10
218.9949
 20
133.8499
  0
SEQEND
  0
POLYLINE
  8
LAYER_2
 40
0.2646
 41
0.2646
 66
1
 10
0
 20
0
 30
0
  0
VERTEX
  8
LAYER_2
 10
181.3486
 20
133.8499
  0
VERTEX
  8
LAYER_2
 10
177.2857
 20
133.8499
  0
SEQEND
  0
INSERT
  8
LAYER_2
  2
AIGNBL0201002C
 10
0
 20
0
 30
0
  0
POLYLINE
  8
LAYER_2
 40
0.1411
 41
0.1411
 66
1
 10
0
 20
0
 30
0
  0
VERTEX
  8
LAYER_2
 10
216.5857
 20
118.2809
  0
VERTEX
  8
LAYER_2
 10
183.0386
 20
118.2809
  0
SEQEND
  0
POLYLINE
  8
LAYER_2
 40
0.2646
 41
0.2646
 66
1
 10
0
 20
0
 30
0
  0
VERTEX
  8
LAYER_2
 10
217.0531
 20
118.6045
  0
VERTEX
  8
LAYER_2
 10
218.5993
 20
133.6702
  0
SEQEND
  0
POLYLINE
  8
LAYER_2
 40
0.2646
 41
0.2646
 66
1
 10
0
 20
0
 30
0
  0
VERTEX
  8
LAYER_2
 10
177.2855
 20
133.8499
  0
VERTEX
  8
LAYER_2
 10
181.3485
 20
133.8499
  0
SEQEND
  0
INSERT
  8
LAYER_2
  2
AIGNBL0201002D
 10
0
 20
0
 30
0
  0
POLYLINE
  8
LAYER_2
 40
0.2646
 41
0.2646
 66
1
 10
0
 20
0
 30
0
  0
VERTEX
  8
LAYER_2
 10
182.5711
 20
118.7123
  0
VERTEX
  8
LAYER_2
 10
181.7082
 20
133.6701
  0
SEQEND
  0
POLYLINE
  8
LAYER_2
 40
0.2646
 41
0.2646
 66
1
 10
0
 20
0
 30
0
  0
VERTEX
  8
LAYER_2
 10
177.1057
 20
134.6769
  0
VERTEX
  8
LAYER_2
 10
177.1057
 20
134.0296
  0
SEQEND
  0
INSERT
  8
LAYER_2
  2
AIGNBL0201002E
 10
0
 20
0
 30
0
  0
POLYLINE
  8
LAYER_2
 40
0.0882
 41
0.0882
 66
1
 10
0
 20
0
 30
0
  0
VERTEX
  8
LAYER_2
 10
177.1057
 20
134.4252
  0
VERTEX
  8
LAYER_2
 10
177.1057
 20
137.8052
  0
SEQEND
  0
POLYLINE
  8
LAYER_2
 40
0.0882
 41
0.0882
 66
1
 10
0
 20
0
 30
0
  0
VERTEX
  8
LAYER_2
 10
226.8692
 20
135.8275
  0
VERTEX
  8
LAYER_2
 10
226.8692
 20
137.8052
  0
SEQEND
  0
POLYLINE
  8
LAYER_2
 40
0.0882
 41
0.0882
 66
1
 10
0
 20
0
 30
0
  0
VERTEX
  8
LAYER_2
 10
178.4721
 20
137.6972
  0
VERTEX
  8
LAYER_2
 10
199.3985
 20
137.6972
  0
SEQEND
  0
POLYLINE
  8
LAYER_2
 40
0.0882
 41
0.0882
 66
1
 10
0
 20
0
 30
0
  0
VERTEX
  8
LAYER_2
 10
225.5028
 20
137.6972
  0
VERTEX
  8
LAYER_2
 10
204.5764
 20
137.6972
  0
SEQEND
  0
POLYLINE
  8
LAYER_2
 40
0.05
 41
0.05
 66
1
 10
0
 20
0
 30
0
 70
1
  0
VERTEX
  8
LAYER_2
 10
178.4721
 20
137.9489
  0
VERTEX
  8
LAYER_2
 10
178.4721
 20
137.4815
  0
VERTEX
  8
LAYER_2
 10
177.1058
 20
137.6974
  0
SEQEND
  0
POLYLINE
  8
LAYER_2
 40
0.0882
 41
0.0882
 66
1
 10
0
 20
0
 30
0
 70
1
  0
VERTEX
  8
LAYER_2
 10
178.4721
 20
137.9489
  0
VERTEX
  8
LAYER_2
 10
178.4721
 20
137.4815
  0
VERTEX
  8
LAYER_2
 10
177.1058
 20
137.6974
  0
SEQEND
  0
POLYLINE
  8
LAYER_2
 40
0.05
 41
0.05
 66
1
 10
0
 20
0
 30
0
 70
1
  0
VERTEX
  8
LAYER_2
 10
225.5028
 20
137.9489
  0
VERTEX
  8
LAYER_2
 10
225.5028
 20
137.4815
  0
VERTEX
  8
LAYER_2
 10
226.8691
 20
137.6974
  0
SEQEND
  0
POLYLINE
  8
LAYER_2
 40
0.0882
 41
0.0882
 66
1
 10
0
 20
0
 30
0
 70
1
  0
VERTEX
  8
LAYER_2
 10
225.5028
 20
137.9489
  0
VERTEX
  8
LAYER_2
 10
225.5028
 20
137.4815
  0
VERTEX
  8
LAYER_2
 10
226.8691
 20
137.6974
  0
SEQEND
  0
INSERT
  8
LAYER_2
  2
AIGNBL0201002F
 10
0
 20
0
 30
0
  0
POLYLINE
  8
LAYER_2
 40
0.0882
 41
0.0882
 66
1
 10
0
 20
0
 30
0
  0
VERTEX
  8
LAYER_2
 10
177.2136
 20
134.8567
  0
VERTEX
  8
LAYER_2
 10
168.7999
 20
134.8567
  0
SEQEND
  0
POLYLINE
  8
LAYER_2
 40
0.0882
 41
0.0882
 66
1
 10
0
 20
0
 30
0
  0
VERTEX
  8
LAYER_2
 10
175.8113
 20
118.2809
  0
VERTEX
  8
LAYER_2
 10
168.7999
 20
118.2809
  0
SEQEND
  0
POLYLINE
  8
LAYER_2
 40
0.0882
 41
0.0882
 66
1
 10
0
 20
0
 30
0
  0
VERTEX
  8
LAYER_2
 10
168.9077
 20
133.4903
  0
VERTEX
  8
LAYER_2
 10
168.9077
 20
129.0676
  0
SEQEND
  0
POLYLINE
  8
LAYER_2
 40
0.0882
 41
0.0882
 66
1
 10
0
 20
0
 30
0
  0
VERTEX
  8
LAYER_2
 10
168.9077
 20
119.6472
  0
VERTEX
  8
LAYER_2
 10
168.9077
 20
124.07
  0
SEQEND
  0
POLYLINE
  8
LAYER_2
 40
0.05
 41
0.05
 66
1
 10
0
 20
0
 30
0
 70
1
  0
VERTEX
  8
LAYER_2
 10
168.692
 20
133.4903
  0
VERTEX
  8
LAYER_2
 10
169.1234
 20
133.4903
  0
VERTEX
  8
LAYER_2
 10
168.9079
 20
134.8566
  0
SEQEND
  0
POLYLINE
  8
LAYER_2
 40
0.0882
 41
0.0882
 66
1
 10
0
 20
0
 30
0
 70
1
  0
VERTEX
  8
LAYER_2
 10
168.692
 20
133.4903
  0
VERTEX
  8
LAYER_2
 10
169.1234
 20
133.4903
  0
VERTEX
  8
LAYER_2
 10
168.9079
 20
134.8566
  0
SEQEND
  0
POLYLINE
  8
LAYER_2
 40
0.05
 41
0.05
 66
1
 10
0
 20
0
 30
0
 70
1
  0
VERTEX
  8
LAYER_2
 10
168.692
 20
119.6472
  0
VERTEX
  8
LAYER_2
 10
169.1234
 20
119.6472
  0
VERTEX
  8
LAYER_2
 10
168.9079
 20
118.2809
  0
SEQEND
  0
POLYLINE
  8
LAYER_2
 40
0.0882
 41
0.0882
 66
1
 10
0
 20
0
 30
0
 70
1
  0
VERTEX
  8
LAYER_2
 10
168.692
 20
119.6472
  0
VERTEX
  8
LAYER_2
 10
169.1234
 20
119.6472
  0
VERTEX
  8
LAYER_2
 10
168.9079
 20
118.2809
  0
SEQEND
  0
INSERT
  8
LAYER_2
  2
AIGNBL02010030
 10
0
 20
0
 30
0
  0
INSERT
  8
LAYER_2
  2
AIGNBL02010031
 10
0
 20
0
 30
0
  0
POLYLINE
  8
LAYER_2
 40
0.2646
 41
0.2646
 66
1
 10
0
 20
0
 30
0
  0
VERTEX
  8
LAYER_2
 10
196.9176
 20
121.445
  0
VERTEX
  8
LAYER_2
 10
197.9605
 20
120.4382
  0
SEQEND
  0
INSERT
  8
LAYER_2
  2
AIGNBL02010032
 10
0
 20
0
 30
0
  0
POLYLINE
  8
LAYER_2
 40
0.2646
 41
0.2646
 66
1
 10
0
 20
0
 30
0
  0
VERTEX
  8
LAYER_2
 10
198.0323
 20
120.3304
  0
VERTEX
  8
LAYER_2
 10
198.0323
 20
119.1796
  0
SEQEND
  0
POLYLINE
  8
LAYER_2
 40
0.2646
 41
0.2646
 66
1
 10
0
 20
0
 30
0
  0
VERTEX
  8
LAYER_2
 10
197.3851
 20
119.1798
  0
VERTEX
  8
LAYER_2
 10
197.3851
 20
119.7192
  0
VERTEX
  8
LAYER_2
 10
196.4862
 20
120.618
  0
VERTEX
  8
LAYER_2
 10
189.1512
 20
120.69
  0
SEQEND
  0
INSERT
  8
LAYER_2
  2
AIGNBL02010033
 10
0
 20
0
 30
0
  0
POLYLINE
  8
LAYER_2
 40
0.2646
 41
0.2646
 66
1
 10
0
 20
0
 30
0
  0
VERTEX
  8
LAYER_2
 10
188.432
 20
120.1865
  0
VERTEX
  8
LAYER_2
 10
187.7486
 20
118.3888
  0
SEQEND
  0
INSERT
  8
LAYER_2
  2
AIGNBL02010034
 10
0
 20
0
 30
0
  0
POLYLINE
  8
LAYER_2
 40
0.2646
 41
0.2646
 66
1
 10
0
 20
0
 30
0
  0
VERTEX
  8
LAYER_2
 10
186.778
 20
118.2809
  0
VERTEX
  8
LAYER_2
 10
187.5689
 20
118.2809
  0
SEQEND
  0
INSERT
  8
LAYER_2
  2
AIGNBL02010035
 10
0
 20
0
 30
0
  0
POLYLINE
  8
LAYER_2
 40
0.2646
 41
0.2646
 66
1
 10
0
 20
0
 30
0
  0
VERTEX
  8
LAYER_2
 10
182.679
 20
134.4611
  0
VERTEX
  8
LAYER_2
 10
184.2252
 20
122.3439
  0
SEQEND
  0
POLYLINE
  8
LAYER_2
 40
0.2646
 41
0.2646
 66
1
 10
0
 20
0
 30
0
  0
VERTEX
  8
LAYER_2
 10
184.6566
 20
121.9484
  0
VERTEX
  8
LAYER_2
 10
196.8098
 20
121.5169
  0
SEQEND
  0
INSERT
  8
LAYER_2
  2
AIGNBL02010036
 10
0
 20
0
 30
0
  0
POLYLINE
  8
LAYER_2
 40
0.2646
 41
0.2646
 66
1
 10
0
 20
0
 30
0
  0
VERTEX
  8
LAYER_2
 10
184.333
 20
119.4674
  0
VERTEX
  8
LAYER_2
 10
184.153
 20
120.8337
  0
SEQEND
  0
INSERT
  8
LAYER_2
  2
AIGNBL02010037
 10
0
 20
0
 30
0
  0
POLYLINE
  8
LAYER_2
 40
0.2646
 41
0.2646
 66
1
 10
0
 20
0
 30
0
  0
VERTEX
  8
LAYER_2
 10
184.3689
 20
121.0135
  0
VERTEX
  8
LAYER_2
 10
187.425
 20
120.7976
  0
SEQEND
  0
INSERT
  8
LAYER_2
  2
AIGNBL02010038
 10
0
 20
0
 30
0
  0
POLYLINE
  8
LAYER_2
 40
0.2646
 41
0.2646
 66
1
 10
0
 20
0
 30
0
  0
VERTEX
  8
LAYER_2
 10
187.569
 20
120.5461
  0
VERTEX
  8
LAYER_2
 10
187.1016
 20
119.3237
  0
SEQEND
  0
INSERT
  8
LAYER_2
  2
AIGNBL02010039
 10
0
 20
0
 30
0
  0
POLYLINE
  8
LAYER_2
 40
0.1411
 41
0.1411
 66
1
 10
0
 20
0
 30
0
  0
VERTEX
  8
LAYER_2
 10
184.3689
 20
122.0562
  0
VERTEX
  8
LAYER_2
 10
215.9027
 20
122.0562
  0
SEQEND
  0
POLYLINE
  8
LAYER_2
 40
0.1411
 41
0.1411
 66
1
 10
0
 20
0
 30
0
  0
VERTEX
  8
LAYER_2
 10
196.8098
 20
121.5169
  0
VERTEX
  8
LAYER_2
 10
203.4977
 20
121.5169
  0
SEQEND
  0
POLYLINE
  8
LAYER_2
 40
0.1411
 41
0.1411
 66
1
 10
0
 20
0
 30
0
  0
VERTEX
  8
LAYER_2
 10
197.9604
 20
120.4382
  0
VERTEX
  8
LAYER_2
 10
202.3112
 20
120.4382
  0
SEQEND
  0
INSERT
  8
LAYER_2
  2
AIGNBL0201003A
 10
0
 20
0
 30
0
  0
POLYLINE
  8
LAYER_2
 40
0.2646
 41
0.2646
 66
1
 10
0
 20
0
 30
0
  0
VERTEX
  8
LAYER_2
 10
203.3897
 20
121.445
  0
VERTEX
  8
LAYER_2
 10
202.3469
 20
120.4382
  0
SEQEND
  0
INSERT
  8
LAYER_2
  2
AIGNBL0201003B
 10
0
 20
0
 30
0
  0
POLYLINE
  8
LAYER_2
 40
0.2646
 41
0.2646
 66
1
 10
0
 20
0
 30
0
  0
VERTEX
  8
LAYER_2
 10
202.3111
 20
120.3304
  0
VERTEX
  8
LAYER_2
 10
202.3111
 20
119.1796
  0
SEQEND
  0
POLYLINE
  8
LAYER_2
 40
0.2646
 41
0.2646
 66
1
 10
0
 20
0
 30
0
  0
VERTEX
  8
LAYER_2
 10
202.9223
 20
119.1798
  0
VERTEX
  8
LAYER_2
 10
202.9223
 20
119.7192
  0
VERTEX
  8
LAYER_2
 10
203.8572
 20
120.618
  0
VERTEX
  8
LAYER_2
 10
211.1561
 20
120.69
  0
SEQEND
  0
INSERT
  8
LAYER_2
  2
AIGNBL0201003C
 10
0
 20
0
 30
0
  0
POLYLINE
  8
LAYER_2
 40
0.2646
 41
0.2646
 66
1
 10
0
 20
0
 30
0
  0
VERTEX
  8
LAYER_2
 10
211.8754
 20
120.1865
  0
VERTEX
  8
LAYER_2
 10
212.5588
 20
118.3888
  0
SEQEND
  0
INSERT
  8
LAYER_2
  2
AIGNBL0201003D
 10
0
 20
0
 30
0
  0
POLYLINE
  8
LAYER_2
 40
0.2646
 41
0.2646
 66
1
 10
0
 20
0
 30
0
  0
VERTEX
  8
LAYER_2
 10
213.5294
 20
118.2809
  0
VERTEX
  8
LAYER_2
 10
212.7385
 20
118.2809
  0
SEQEND
  0
INSERT
  8
LAYER_2
  2
AIGNBL0201003E
 10
0
 20
0
 30
0
  0
POLYLINE
  8
LAYER_2
 40
0.2646
 41
0.2646
 66
1
 10
0
 20
0
 30
0
  0
VERTEX
  8
LAYER_2
 10
217.6284
 20
134.4611
  0
VERTEX
  8
LAYER_2
 10
216.0822
 20
122.3439
  0
SEQEND
  0
POLYLINE
  8
LAYER_2
 40
0.2646
 41
0.2646
 66
1
 10
0
 20
0
 30
0
  0
VERTEX
  8
LAYER_2
 10
215.6508
 20
121.9484
  0
VERTEX
  8
LAYER_2
 10
203.4976
 20
121.5169
  0
SEQEND
  0
INSERT
  8
LAYER_2
  2
AIGNBL0201003F
 10
0
 20
0
 30
0
  0
POLYLINE
  8
LAYER_2
 40
0.2646
 41
0.2646
 66
1
 10
0
 20
0
 30
0
  0
VERTEX
  8
LAYER_2
 10
215.9744
 20
119.4674
  0
VERTEX
  8
LAYER_2
 10
216.1544
 20
120.8337
  0
SEQEND
  0
INSERT
  8
LAYER_2
  2
AIGNBL02010040
 10
0
 20
0
 30
0
  0
POLYLINE
  8
LAYER_2
 40
0.2646
 41
0.2646
 66
1
 10
0
 20
0
 30
0
  0
VERTEX
  8
LAYER_2
 10
215.9385
 20
121.0135
  0
VERTEX
  8
LAYER_2
 10
212.918
 20
120.7976
  0
SEQEND
  0
INSERT
  8
LAYER_2
  2
AIGNBL02010041
 10
0
 20
0
 30
0
  0
POLYLINE
  8
LAYER_2
 40
0.2646
 41
0.2646
 66
1
 10
0
 20
0
 30
0
  0
VERTEX
  8
LAYER_2
 10
212.7384
 20
120.5461
  0
VERTEX
  8
LAYER_2
 10
213.2058
 20
119.3237
  0
SEQEND
  0
INSERT
  8
LAYER_2
  2
AIGNBL02010042
 10
0
 20
0
 30
0
  0
POLYLINE
  8
LAYER_2
 40
0.1411
 41
0.1411
 66
1
 10
0
 20
0
 30
0
  0
VERTEX
  8
LAYER_2
 10
215.9385
 20
122.0562
  0
VERTEX
  8
LAYER_2
 10
184.4047
 20
122.0562
  0
SEQEND
  0
INSERT
  8
LAYER_2
  2
AIGNBL02010043
 10
0
 20
0
 30
0
  0
POLYLINE
  8
LAYER_2
 40
0.2646
 41
0.2646
 66
1
 10
0
 20
0
 30
0
  0
VERTEX
  8
LAYER_2
 10
219.7498
 20
133.8499
  0
VERTEX
  8
LAYER_2
 10
219.7498
 20
134.8567
  0
SEQEND
  0
POLYLINE
  8
LAYER_2
 40
0.2646
 41
0.2646
 66
1
 10
0
 20
0
 30
0
  0
VERTEX
  8
LAYER_2
 10
222.9499
 20
133.8499
  0
VERTEX
  8
LAYER_2
 10
222.9499
 20
134.8567
  0
SEQEND
  0
POLYLINE
  8
LAYER_2
 40
0.2646
 41
0.2646
 66
1
 10
0
 20
0
 30
0
  0
VERTEX
  8
LAYER_2
 10
226.8692
 20
134.0297
  0
VERTEX
  8
LAYER_2
 10
226.8692
 20
134.677
  0
SEQEND
  0
POLYLINE
  8
LAYER_2
 40
0.2646
 41
0.2646
 66
1
 10
0
 20
0
 30
0
  0
VERTEX
  8
LAYER_2
 10
218.0958
 20
134.8567
  0
VERTEX
  8
LAYER_2
 10
219.7497
 20
134.8567
  0
SEQEND
  0
POLYLINE
  8
LAYER_2
 40
0.2646
 41
0.2646
 66
1
 10
0
 20
0
 30
0
  0
VERTEX
  8
LAYER_2
 10
183.0385
 20
118.2809
  0
VERTEX
  8
LAYER_2
 10
184.4768
 20
118.2809
  0
SEQEND
  0
POLYLINE
  8
LAYER_2
 40
0.2646
 41
0.2646
 66
1
 10
0
 20
0
 30
0
  0
VERTEX
  8
LAYER_2
 10
216.6935
 20
118.2809
  0
VERTEX
  8
LAYER_2
 10
215.8306
 20
118.2809
  0
SEQEND
  0
POLYLINE
  8
LAYER_2
 40
0.1411
 41
0.1411
 66
1
 10
0
 20
0
 30
0
  0
VERTEX
  8
LAYER_2
 10
153.1912
 20
205.9062
  0
VERTEX
  8
LAYER_2
 10
58.2308
 20
205.9062
  0
SEQEND
  0
INSERT
  8
LAYER_2
  2
AIGNBL02010044
 10
0
 20
0
 30
0
  0
POLYLINE
  8
LAYER_2
 40
0.1411
 41
0.1411
 66
1
 10
0
 20
0
 30
0
  0
VERTEX
  8
LAYER_2
 10
153.1912
 20
156.1068
  0
VERTEX
  8
LAYER_2
 10
58.2308
 20
156.1068
  0
SEQEND
  0
INSERT
  8
LAYER_2
  2
AIGNBL02010045
 10
0
 20
0
 30
0
  0
POLYLINE
  8
LAYER_2
 40
0.1411
 41
0.1411
 66
1
 10
0
 20
0
 30
0
  0
VERTEX
  8
LAYER_2
 10
156.4272
 20
202.6701
  0
VERTEX
  8
LAYER_2
 10
156.4272
 20
159.343
  0
SEQEND
  0
INSERT
  8
LAYER_2
  2
AIGNBL02010046
 10
0
 20
0
 30
0
  0
POLYLINE
  8
LAYER_2
 40
0.0882
 41
0.0882
 66
1
 10
0
 20
0
 30
0
  0
VERTEX
  8
LAYER_2
 10
55.0307
 20
159.271
  0
VERTEX
  8
LAYER_2
 10
55.0307
 20
151.5762
  0
SEQEND
  0
POLYLINE
  8
LAYER_2
 40
0.0882
 41
0.0882
 66
1
 10
0
 20
0
 30
0
  0
VERTEX
  8
LAYER_2
 10
156.4272
 20
159.271
  0
VERTEX
  8
LAYER_2
 10
156.4272
 20
151.5762
  0
SEQEND
  0
POLYLINE
  8
LAYER_2
 40
0.0882
 41
0.0882
 66
1
 10
0
 20
0
 30
0
  0
VERTEX
  8
LAYER_2
 10
56.397
 20
151.6842
  0
VERTEX
  8
LAYER_2
 10
102.3491
 20
151.6842
  0
SEQEND
  0
POLYLINE
  8
LAYER_2
 40
0.0882
 41
0.0882
 66
1
 10
0
 20
0
 30
0
  0
VERTEX
  8
LAYER_2
 10
155.0249
 20
151.6842
  0
VERTEX
  8
LAYER_2
 10
109.1088
 20
151.6842
  0
SEQEND
  0
POLYLINE
  8
LAYER_2
 40
0.05
 41
0.05
 66
1
 10
0
 20
0
 30
0
 70
1
  0
VERTEX
  8
LAYER_2
 10
56.397
 20
151.8999
  0
VERTEX
  8
LAYER_2
 10
56.397
 20
151.4685
  0
VERTEX
  8
LAYER_2
 10
55.0307
 20
151.684
  0
SEQEND
  0
POLYLINE
  8
LAYER_2
 40
0.0882
 41
0.0882
 66
1
 10
0
 20
0
 30
0
 70
1
  0
VERTEX
  8
LAYER_2
 10
56.397
 20
151.8999
  0
VERTEX
  8
LAYER_2
 10
56.397
 20
151.4685
  0
VERTEX
  8
LAYER_2
 10
55.0307
 20
151.684
  0
SEQEND
  0
POLYLINE
  8
LAYER_2
 40
0.05
 41
0.05
 66
1
 10
0
 20
0
 30
0
 70
1
  0
VERTEX
  8
LAYER_2
 10
155.0249
 20
151.8999
  0
VERTEX
  8
LAYER_2
 10
155.0249
 20
151.4685
  0
VERTEX
  8
LAYER_2
 10
156.4272
 20
151.684
  0
SEQEND
  0
POLYLINE
  8
LAYER_2
 40
0.0882
 41
0.0882
 66
1
 10
0
 20
0
 30
0
 70
1
  0
VERTEX
  8
LAYER_2
 10
155.0249
 20
151.8999
  0
VERTEX
  8
LAYER_2
 10
155.0249
 20
151.4685
  0
VERTEX
  8
LAYER_2
 10
156.4272
 20
151.684
  0
SEQEND
  0
INSERT
  8
LAYER_2
  2
AIGNBL02010047
 10
0
 20
0
 30
0
  0
POLYLINE
  8
LAYER_2
 40
0.0882
 41
0.0882
 66
1
 10
0
 20
0
 30
0
  0
VERTEX
  8
LAYER_2
 10
58.1948
 20
205.9062
  0
VERTEX
  8
LAYER_2
 10
50.8239
 20
205.9062
  0
SEQEND
  0
POLYLINE
  8
LAYER_2
 40
0.0882
 41
0.0882
 66
1
 10
0
 20
0
 30
0
  0
VERTEX
  8
LAYER_2
 10
58.1948
 20
156.1068
  0
VERTEX
  8
LAYER_2
 10
50.8239
 20
156.1068
  0
SEQEND
  0
POLYLINE
  8
LAYER_2
 40
0.0882
 41
0.0882
 66
1
 10
0
 20
0
 30
0
  0
VERTEX
  8
LAYER_2
 10
50.9676
 20
204.5039
  0
VERTEX
  8
LAYER_2
 10
50.9676
 20
183.6135
  0
SEQEND
  0
POLYLINE
  8
LAYER_2
 40
0.0882
 41
0.0882
 66
1
 10
0
 20
0
 30
0
  0
VERTEX
  8
LAYER_2
 10
50.9676
 20
157.4731
  0
VERTEX
  8
LAYER_2
 10
50.9676
 20
178.3996
  0
SEQEND
  0
POLYLINE
  8
LAYER_2
 40
0.05
 41
0.05
 66
1
 10
0
 20
0
 30
0
 70
1
  0
VERTEX
  8
LAYER_2
 10
50.7159
 20
204.5039
  0
VERTEX
  8
LAYER_2
 10
51.1833
 20
204.5039
  0
VERTEX
  8
LAYER_2
 10
50.9674
 20
205.9062
  0
SEQEND
  0
POLYLINE
  8
LAYER_2
 40
0.0882
 41
0.0882
 66
1
 10
0
 20
0
 30
0
 70
1
  0
VERTEX
  8
LAYER_2
 10
50.7159
 20
204.5039
  0
VERTEX
  8
LAYER_2
 10
51.1833
 20
204.5039
  0
VERTEX
  8
LAYER_2
 10
50.9674
 20
205.9062
  0
SEQEND
  0
POLYLINE
  8
LAYER_2
 40
0.05
 41
0.05
 66
1
 10
0
 20
0
 30
0
 70
1
  0
VERTEX
  8
LAYER_2
 10
50.7159
 20
157.4731
  0
VERTEX
  8
LAYER_2
 10
51.1833
 20
157.4731
  0
VERTEX
  8
LAYER_2
 10
50.9674
 20
156.1068
  0
SEQEND
  0
POLYLINE
  8
LAYER_2
 40
0.0882
 41
0.0882
 66
1
 10
0
 20
0
 30
0
 70
1
  0
VERTEX
  8
LAYER_2
 10
50.7159
 20
157.4731
  0
VERTEX
  8
LAYER_2
 10
51.1833
 20
157.4731
  0
VERTEX
  8
LAYER_2
 10
50.9674
 20
156.1068
  0
SEQEND
  0
INSERT
  8
LAYER_2
  2
AIGNBL02010048
 10
0
 20
0
 30
0
  0
POLYLINE
  8
LAYER_2
 40
0.0882
 41
0.0882
 66
1
 10
0
 20
0
 30
0
  0
VERTEX
  8
LAYER_2
 10
150.89
 20
172.6467
  0
VERTEX
  8
LAYER_2
 10
150.89
 20
172.7186
  0
SEQEND
  0
POLYLINE
  8
LAYER_2
 40
0.0882
 41
0.0882
 66
1
 10
0
 20
0
 30
0
  0
VERTEX
  8
LAYER_2
 10
156.4272
 20
179.2986
  0
VERTEX
  8
LAYER_2
 10
156.4272
 20
172.503
  0
SEQEND
  0
POLYLINE
  8
LAYER_2
 40
0.0882
 41
0.0882
 66
1
 10
0
 20
0
 30
0
  0
VERTEX
  8
LAYER_2
 10
149.5236
 20
172.6107
  0
VERTEX
  8
LAYER_2
 10
148.1213
 20
172.6107
  0
SEQEND
  0
POLYLINE
  8
LAYER_2
 40
0.0882
 41
0.0882
 66
1
 10
0
 20
0
 30
0
  0
VERTEX
  8
LAYER_2
 10
157.7936
 20
172.6107
  0
VERTEX
  8
LAYER_2
 10
159.1959
 20
172.6107
  0
SEQEND
  0
POLYLINE
  8
LAYER_2
 40
0.0882
 41
0.0882
 66
1
 10
0
 20
0
 30
0
  0
VERTEX
  8
LAYER_2
 10
150.89
 20
172.6107
  0
VERTEX
  8
LAYER_2
 10
152.4002
 20
172.6107
  0
SEQEND
  0
POLYLINE
  8
LAYER_2
 40
0.0882
 41
0.0882
 66
1
 10
0
 20
0
 30
0
  0
VERTEX
  8
LAYER_2
 10
156.4272
 20
172.6107
  0
VERTEX
  8
LAYER_2
 10
155.8159
 20
172.6107
  0
SEQEND
  0
POLYLINE
  8
LAYER_2
 40
0.05
 41
0.05
 66
1
 10
0
 20
0
 30
0
 70
1
  0
VERTEX
  8
LAYER_2
 10
149.5236
 20
172.8264
  0
VERTEX
  8
LAYER_2
 10
149.5236
 20
172.359
  0
VERTEX
  8
LAYER_2
 10
150.8899
 20
172.6105
  0
SEQEND
  0
POLYLINE
  8
LAYER_2
 40
0.0882
 41
0.0882
 66
1
 10
0
 20
0
 30
0
 70
1
  0
VERTEX
  8
LAYER_2
 10
149.5236
 20
172.8264
  0
VERTEX
  8
LAYER_2
 10
149.5236
 20
172.359
  0
VERTEX
  8
LAYER_2
 10
150.8899
 20
172.6105
  0
SEQEND
  0
POLYLINE
  8
LAYER_2
 40
0.05
 41
0.05
 66
1
 10
0
 20
0
 30
0
 70
1
  0
VERTEX
  8
LAYER_2
 10
157.7936
 20
172.8264
  0
VERTEX
  8
LAYER_2
 10
157.7936
 20
172.359
  0
VERTEX
  8
LAYER_2
 10
156.4273
 20
172.6105
  0
SEQEND
  0
POLYLINE
  8
LAYER_2
 40
0.0882
 41
0.0882
 66
1
 10
0
 20
0
 30
0
 70
1
  0
VERTEX
  8
LAYER_2
 10
157.7936
 20
172.8264
  0
VERTEX
  8
LAYER_2
 10
157.7936
 20
172.359
  0
VERTEX
  8
LAYER_2
 10
156.4273
 20
172.6105
  0
SEQEND
  0
INSERT
  8
LAYER_2
  2
AIGNBL02010049
 10
0
 20
0
 30
0
  0
POLYLINE
  8
LAYER_2
 40
0.0882
 41
0.0882
 66
1
 10
0
 20
0
 30
0
  0
VERTEX
  8
LAYER_2
 10
105.621
 20
162.543
  0
VERTEX
  8
LAYER_2
 10
105.8369
 20
162.543
  0
SEQEND
  0
POLYLINE
  8
LAYER_2
 40
0.0882
 41
0.0882
 66
1
 10
0
 20
0
 30
0
  0
VERTEX
  8
LAYER_2
 10
79.0494
 20
156.1068
  0
VERTEX
  8
LAYER_2
 10
105.8369
 20
156.1068
  0
SEQEND
  0
POLYLINE
  8
LAYER_2
 40
0.0882
 41
0.0882
 66
1
 10
0
 20
0
 30
0
  0
VERTEX
  8
LAYER_2
 10
105.7289
 20
161.1766
  0
VERTEX
  8
LAYER_2
 10
105.7289
 20
161.0327
  0
SEQEND
  0
POLYLINE
  8
LAYER_2
 40
0.0882
 41
0.0882
 66
1
 10
0
 20
0
 30
0
  0
VERTEX
  8
LAYER_2
 10
105.7289
 20
157.4731
  0
VERTEX
  8
LAYER_2
 10
105.7289
 20
157.6171
  0
SEQEND
  0
POLYLINE
  8
LAYER_2
 40
0.05
 41
0.05
 66
1
 10
0
 20
0
 30
0
 70
1
  0
VERTEX
  8
LAYER_2
 10
105.4773
 20
161.1766
  0
VERTEX
  8
LAYER_2
 10
105.9447
 20
161.1766
  0
VERTEX
  8
LAYER_2
 10
105.7288
 20
162.5429
  0
SEQEND
  0
POLYLINE
  8
LAYER_2
 40
0.0882
 41
0.0882
 66
1
 10
0
 20
0
 30
0
 70
1
  0
VERTEX
  8
LAYER_2
 10
105.4773
 20
161.1766
  0
VERTEX
  8
LAYER_2
 10
105.9447
 20
161.1766
  0
VERTEX
  8
LAYER_2
 10
105.7288
 20
162.5429
  0
SEQEND
  0
POLYLINE
  8
LAYER_2
 40
0.05
 41
0.05
 66
1
 10
0
 20
0
 30
0
 70
1
  0
VERTEX
  8
LAYER_2
 10
105.4773
 20
157.4731
  0
VERTEX
  8
LAYER_2
 10
105.9447
 20
157.4731
  0
VERTEX
  8
LAYER_2
 10
105.7288
 20
156.1068
  0
SEQEND
  0
POLYLINE
  8
LAYER_2
 40
0.0882
 41
0.0882
 66
1
 10
0
 20
0
 30
0
 70
1
  0
VERTEX
  8
LAYER_2
 10
105.4773
 20
157.4731
  0
VERTEX
  8
LAYER_2
 10
105.9447
 20
157.4731
  0
VERTEX
  8
LAYER_2
 10
105.7288
 20
156.1068
  0
SEQEND
  0
INSERT
  8
LAYER_2
  2
AIGNBL0201004A
 10
0
 20
0
 30
0
  0
POLYLINE
  8
LAYER_2
 40
0.0882
 41
0.0882
 66
1
 10
0
 20
0
 30
0
  0
VERTEX
  8
LAYER_2
 10
156.4272
 20
199.3262
  0
VERTEX
  8
LAYER_2
 10
156.4272
 20
188.1079
  0
SEQEND
  0
INSERT
  8
LAYER_2
  2
AIGNBL0201004B
 10
0
 20
0
 30
0
  0
INSERT
  8
LAYER_2
  2
AIGNBL0201004C
 10
0
 20
0
 30
0
  0
POLYLINE
  8
LAYER_2
 40
0.1411
 41
0.1411
 66
1
 10
0
 20
0
 30
0
  0
VERTEX
  8
LAYER_2
 10
150.89
 20
193.4294
  0
VERTEX
  8
LAYER_2
 10
150.89
 20
165.779
  0
SEQEND
  0
INSERT
  8
LAYER_2
  2
AIGNBL0201004D
 10
0
 20
0
 30
0
  0
POLYLINE
  8
LAYER_2
 40
0.1411
 41
0.1411
 66
1
 10
0
 20
0
 30
0
  0
VERTEX
  8
LAYER_2
 10
147.6539
 20
162.543
  0
VERTEX
  8
LAYER_2
 10
63.7679
 20
162.543
  0
SEQEND
  0
INSERT
  8
LAYER_2
  2
AIGNBL0201004E
 10
0
 20
0
 30
0
  0
POLYLINE
  8
LAYER_2
 40
0.1411
 41
0.1411
 66
1
 10
0
 20
0
 30
0
  0
VERTEX
  8
LAYER_2
 10
60.532
 20
165.779
  0
VERTEX
  8
LAYER_2
 10
60.532
 20
193.4294
  0
SEQEND
  0
INSERT
  8
LAYER_2
  2
AIGNBL0201004F
 10
0
 20
0
 30
0
  0
POLYLINE
  8
LAYER_2
 40
0.1411
 41
0.1411
 66
1
 10
0
 20
0
 30
0
  0
VERTEX
  8
LAYER_2
 10
63.768
 20
196.6654
  0
VERTEX
  8
LAYER_2
 10
147.654
 20
196.6654
  0
SEQEND
  0
INSERT
  8
LAYER_2
  2
AIGNBL02010050
 10
0
 20
0
 30
0
  0
POLYLINE
  8
LAYER_2
 40
0.0882
 41
0.0882
 66
1
 10
0
 20
0
 30
0
  0
VERTEX
  8
LAYER_2
 10
60.532
 20
179.5503
  0
VERTEX
  8
LAYER_2
 10
60.532
 20
172.5028
  0
SEQEND
  0
POLYLINE
  8
LAYER_2
 40
0.0882
 41
0.0882
 66
1
 10
0
 20
0
 30
0
  0
VERTEX
  8
LAYER_2
 10
150.89
 20
179.5503
  0
VERTEX
  8
LAYER_2
 10
150.89
 20
172.5028
  0
SEQEND
  0
POLYLINE
  8
LAYER_2
 40
0.0882
 41
0.0882
 66
1
 10
0
 20
0
 30
0
  0
VERTEX
  8
LAYER_2
 10
61.9343
 20
172.6107
  0
VERTEX
  8
LAYER_2
 10
103.1041
 20
172.6107
  0
SEQEND
  0
POLYLINE
  8
LAYER_2
 40
0.0882
 41
0.0882
 66
1
 10
0
 20
0
 30
0
  0
VERTEX
  8
LAYER_2
 10
149.5236
 20
172.6107
  0
VERTEX
  8
LAYER_2
 10
108.3177
 20
172.6107
  0
SEQEND
  0
POLYLINE
  8
LAYER_2
 40
0.05
 41
0.05
 66
1
 10
0
 20
0
 30
0
 70
1
  0
VERTEX
  8
LAYER_2
 10
61.9343
 20
172.8264
  0
VERTEX
  8
LAYER_2
 10
61.9343
 20
172.359
  0
VERTEX
  8
LAYER_2
 10
60.532
 20
172.6105
  0
SEQEND
  0
POLYLINE
  8
LAYER_2
 40
0.0882
 41
0.0882
 66
1
 10
0
 20
0
 30
0
 70
1
  0
VERTEX
  8
LAYER_2
 10
61.9343
 20
172.8264
  0
VERTEX
  8
LAYER_2
 10
61.9343
 20
172.359
  0
VERTEX
  8
LAYER_2
 10
60.532
 20
172.6105
  0
SEQEND
  0
POLYLINE
  8
LAYER_2
 40
0.05
 41
0.05
 66
1
 10
0
 20
0
 30
0
 70
1
  0
VERTEX
  8
LAYER_2
 10
149.5236
 20
172.8264
  0
VERTEX
  8
LAYER_2
 10
149.5236
 20
172.359
  0
VERTEX
  8
LAYER_2
 10
150.8899
 20
172.6105
  0
SEQEND
  0
POLYLINE
  8
LAYER_2
 40
0.0882
 41
0.0882
 66
1
 10
0
 20
0
 30
0
 70
1
  0
VERTEX
  8
LAYER_2
 10
149.5236
 20
172.8264
  0
VERTEX
  8
LAYER_2
 10
149.5236
 20
172.359
  0
VERTEX
  8
LAYER_2
 10
150.8899
 20
172.6105
  0
SEQEND
  0
INSERT
  8
LAYER_2
  2
AIGNBL02010051
 10
0
 20
0
 30
0
  0
POLYLINE
  8
LAYER_2
 40
0.0882
 41
0.0882
 66
1
 10
0
 20
0
 30
0
  0
VERTEX
  8
LAYER_2
 10
128.9567
 20
162.543
  0
VERTEX
  8
LAYER_2
 10
120.4709
 20
162.543
  0
SEQEND
  0
POLYLINE
  8
LAYER_2
 40
0.0882
 41
0.0882
 66
1
 10
0
 20
0
 30
0
  0
VERTEX
  8
LAYER_2
 10
128.3814
 20
196.6654
  0
VERTEX
  8
LAYER_2
 10
120.471
 20
196.6654
  0
SEQEND
  0
POLYLINE
  8
LAYER_2
 40
0.0882
 41
0.0882
 66
1
 10
0
 20
0
 30
0
  0
VERTEX
  8
LAYER_2
 10
120.5789
 20
163.9453
  0
VERTEX
  8
LAYER_2
 10
120.5789
 20
176.9973
  0
SEQEND
  0
POLYLINE
  8
LAYER_2
 40
0.0882
 41
0.0882
 66
1
 10
0
 20
0
 30
0
  0
VERTEX
  8
LAYER_2
 10
120.5789
 20
195.2991
  0
VERTEX
  8
LAYER_2
 10
120.5789
 20
182.211
  0
SEQEND
  0
POLYLINE
  8
LAYER_2
 40
0.05
 41
0.05
 66
1
 10
0
 20
0
 30
0
 70
1
  0
VERTEX
  8
LAYER_2
 10
120.3631
 20
163.9453
  0
VERTEX
  8
LAYER_2
 10
120.7946
 20
163.9453
  0
VERTEX
  8
LAYER_2
 10
120.579
 20
162.543
  0
SEQEND
  0
POLYLINE
  8
LAYER_2
 40
0.0882
 41
0.0882
 66
1
 10
0
 20
0
 30
0
 70
1
  0
VERTEX
  8
LAYER_2
 10
120.3631
 20
163.9453
  0
VERTEX
  8
LAYER_2
 10
120.7946
 20
163.9453
  0
VERTEX
  8
LAYER_2
 10
120.579
 20
162.543
  0
SEQEND
  0
POLYLINE
  8
LAYER_2
 40
0.05
 41
0.05
 66
1
 10
0
 20
0
 30
0
 70
1
  0
VERTEX
  8
LAYER_2
 10
120.3631
 20
195.2991
  0
VERTEX
  8
LAYER_2
 10
120.7946
 20
195.2991
  0
VERTEX
  8
LAYER_2
 10
120.579
 20
196.6654
  0
SEQEND
  0
POLYLINE
  8
LAYER_2
 40
0.0882
 41
0.0882
 66
1
 10
0
 20
0
 30
0
 70
1
  0
VERTEX
  8
LAYER_2
 10
120.3631
 20
195.2991
  0
VERTEX
  8
LAYER_2
 10
120.7946
 20
195.2991
  0
VERTEX
  8
LAYER_2
 10
120.579
 20
196.6654
  0
SEQEND
  0
INSERT
  8
LAYER_2
  2
AIGNBL02010052
 10
0
 20
0
 30
0
  0
POLYLINE
  8
LAYER_2
 40
0.0882
 41
0.0882
 66
1
 10
0
 20
0
 30
0
  0
VERTEX
  8
LAYER_2
 10
105.7649
 20
200.3689
  0
VERTEX
  8
LAYER_2
 10
106.0164
 20
200.3689
  0
SEQEND
  0
POLYLINE
  8
LAYER_2
 40
0.0882
 41
0.0882
 66
1
 10
0
 20
0
 30
0
  0
VERTEX
  8
LAYER_2
 10
105.7649
 20
179.1547
  0
VERTEX
  8
LAYER_2
 10
106.0164
 20
179.1547
  0
SEQEND
  0
POLYLINE
  8
LAYER_2
 40
0.0882
 41
0.0882
 66
1
 10
0
 20
0
 30
0
  0
VERTEX
  8
LAYER_2
 10
105.8728
 20
198.9666
  0
VERTEX
  8
LAYER_2
 10
105.8728
 20
192.3866
  0
SEQEND
  0
POLYLINE
  8
LAYER_2
 40
0.0882
 41
0.0882
 66
1
 10
0
 20
0
 30
0
  0
VERTEX
  8
LAYER_2
 10
105.8728
 20
180.5211
  0
VERTEX
  8
LAYER_2
 10
105.8728
 20
187.1371
  0
SEQEND
  0
POLYLINE
  8
LAYER_2
 40
0.05
 41
0.05
 66
1
 10
0
 20
0
 30
0
 70
1
  0
VERTEX
  8
LAYER_2
 10
105.657
 20
198.9666
  0
VERTEX
  8
LAYER_2
 10
106.1245
 20
198.9666
  0
VERTEX
  8
LAYER_2
 10
105.8729
 20
200.3689
  0
SEQEND
  0
POLYLINE
  8
LAYER_2
 40
0.0882
 41
0.0882
 66
1
 10
0
 20
0
 30
0
 70
1
  0
VERTEX
  8
LAYER_2
 10
105.657
 20
198.9666
  0
VERTEX
  8
LAYER_2
 10
106.1245
 20
198.9666
  0
VERTEX
  8
LAYER_2
 10
105.8729
 20
200.3689
  0
SEQEND
  0
POLYLINE
  8
LAYER_2
 40
0.05
 41
0.05
 66
1
 10
0
 20
0
 30
0
 70
1
  0
VERTEX
  8
LAYER_2
 10
105.657
 20
180.5211
  0
VERTEX
  8
LAYER_2
 10
106.1245
 20
180.5211
  0
VERTEX
  8
LAYER_2
 10
105.8729
 20
179.1548
  0
SEQEND
  0
POLYLINE
  8
LAYER_2
 40
0.0882
 41
0.0882
 66
1
 10
0
 20
0
 30
0
 70
1
  0
VERTEX
  8
LAYER_2
 10
105.657
 20
180.5211
  0
VERTEX
  8
LAYER_2
 10
106.1245
 20
180.5211
  0
VERTEX
  8
LAYER_2
 10
105.8729
 20
179.1548
  0
SEQEND
  0
INSERT
  8
LAYER_2
  2
AIGNBL02010053
 10
0
 20
0
 30
0
  0
POLYLINE
  8
LAYER_2
 40
0.0882
 41
0.0882
 66
1
 10
0
 20
0
 30
0
  0
VERTEX
  8
LAYER_2
 10
60.532
 20
172.6467
  0
VERTEX
  8
LAYER_2
 10
60.532
 20
172.7186
  0
SEQEND
  0
POLYLINE
  8
LAYER_2
 40
0.0882
 41
0.0882
 66
1
 10
0
 20
0
 30
0
  0
VERTEX
  8
LAYER_2
 10
55.0307
 20
179.2986
  0
VERTEX
  8
LAYER_2
 10
55.0307
 20
172.503
  0
SEQEND
  0
POLYLINE
  8
LAYER_2
 40
0.0882
 41
0.0882
 66
1
 10
0
 20
0
 30
0
  0
VERTEX
  8
LAYER_2
 10
61.9343
 20
172.6107
  0
VERTEX
  8
LAYER_2
 10
63.3006
 20
172.6107
  0
SEQEND
  0
POLYLINE
  8
LAYER_2
 40
0.0882
 41
0.0882
 66
1
 10
0
 20
0
 30
0
  0
VERTEX
  8
LAYER_2
 10
53.6284
 20
172.6107
  0
VERTEX
  8
LAYER_2
 10
52.2621
 20
172.6107
  0
SEQEND
  0
POLYLINE
  8
LAYER_2
 40
0.0882
 41
0.0882
 66
1
 10
0
 20
0
 30
0
  0
VERTEX
  8
LAYER_2
 10
60.532
 20
172.6107
  0
VERTEX
  8
LAYER_2
 10
59.0217
 20
172.6107
  0
SEQEND
  0
POLYLINE
  8
LAYER_2
 40
0.0882
 41
0.0882
 66
1
 10
0
 20
0
 30
0
  0
VERTEX
  8
LAYER_2
 10
55.0307
 20
172.6107
  0
VERTEX
  8
LAYER_2
 10
55.606
 20
172.6107
  0
SEQEND
  0
POLYLINE
  8
LAYER_2
 40
0.05
 41
0.05
 66
1
 10
0
 20
0
 30
0
 70
1
  0
VERTEX
  8
LAYER_2
 10
61.9343
 20
172.8264
  0
VERTEX
  8
LAYER_2
 10
61.9343
 20
172.359
  0
VERTEX
  8
LAYER_2
 10
60.532
 20
172.6105
  0
SEQEND
  0
POLYLINE
  8
LAYER_2
 40
0.0882
 41
0.0882
 66
1
 10
0
 20
0
 30
0
 70
1
  0
VERTEX
  8
LAYER_2
 10
61.9343
 20
172.8264
  0
VERTEX
  8
LAYER_2
 10
61.9343
 20
172.359
  0
VERTEX
  8
LAYER_2
 10
60.532
 20
172.6105
  0
SEQEND
  0
POLYLINE
  8
LAYER_2
 40
0.05
 41
0.05
 66
1
 10
0
 20
0
 30
0
 70
1
  0
VERTEX
  8
LAYER_2
 10
53.6284
 20
172.8264
  0
VERTEX
  8
LAYER_2
 10
53.6284
 20
172.359
  0
VERTEX
  8
LAYER_2
 10
55.0307
 20
172.6105
  0
SEQEND
  0
POLYLINE
  8
LAYER_2
 40
0.0882
 41
0.0882
 66
1
 10
0
 20
0
 30
0
 70
1
  0
VERTEX
  8
LAYER_2
 10
53.6284
 20
172.8264
  0
VERTEX
  8
LAYER_2
 10
53.6284
 20
172.359
  0
VERTEX
  8
LAYER_2
 10
55.0307
 20
172.6105
  0
SEQEND
  0
INSERT
  8
LAYER_2
  2
AIGNBL02010054
 10
0
 20
0
 30
0
  0
POLYLINE
  8
LAYER_2
 40
0.2646
 41
0.2646
 66
1
 10
0
 20
0
 30
0
  0
VERTEX
  8
LAYER_2
 10
62.0421
 20
118.6045
  0
VERTEX
  8
LAYER_2
 10
60.1364
 20
133.3467
  0
SEQEND
  0
POLYLINE
  8
LAYER_2
 40
0.1411
 41
0.1411
 66
1
 10
0
 20
0
 30
0
  0
VERTEX
  8
LAYER_2
 10
105.693
 20
118.2809
  0
VERTEX
  8
LAYER_2
 10
62.5095
 20
118.2809
  0
SEQEND
  0
INSERT
  8
LAYER_2
  2
AIGNBL02010055
 10
0
 20
0
 30
0
  0
POLYLINE
  8
LAYER_2
 40
0.2646
 41
0.2646
 66
1
 10
0
 20
0
 30
0
  0
VERTEX
  8
LAYER_2
 10
102.4929
 20
121.445
  0
VERTEX
  8
LAYER_2
 10
103.5357
 20
120.4382
  0
SEQEND
  0
INSERT
  8
LAYER_2
  2
AIGNBL02010056
 10
0
 20
0
 30
0
  0
POLYLINE
  8
LAYER_2
 40
0.2646
 41
0.2646
 66
1
 10
0
 20
0
 30
0
  0
VERTEX
  8
LAYER_2
 10
103.6075
 20
120.2944
  0
VERTEX
  8
LAYER_2
 10
103.6075
 20
119.1796
  0
SEQEND
  0
POLYLINE
  8
LAYER_2
 40
0.2646
 41
0.2646
 66
1
 10
0
 20
0
 30
0
  0
VERTEX
  8
LAYER_2
 10
102.9603
 20
119.1798
  0
VERTEX
  8
LAYER_2
 10
102.9603
 20
119.7192
  0
VERTEX
  8
LAYER_2
 10
102.0614
 20
120.618
  0
VERTEX
  8
LAYER_2
 10
67.975
 20
120.69
  0
SEQEND
  0
INSERT
  8
LAYER_2
  2
AIGNBL02010057
 10
0
 20
0
 30
0
  0
POLYLINE
  8
LAYER_2
 40
0.2646
 41
0.2646
 66
1
 10
0
 20
0
 30
0
  0
VERTEX
  8
LAYER_2
 10
67.2198
 20
120.1865
  0
VERTEX
  8
LAYER_2
 10
66.5365
 20
118.3888
  0
SEQEND
  0
INSERT
  8
LAYER_2
  2
AIGNBL02010058
 10
0
 20
0
 30
0
  0
POLYLINE
  8
LAYER_2
 40
0.2646
 41
0.2646
 66
1
 10
0
 20
0
 30
0
  0
VERTEX
  8
LAYER_2
 10
65.5658
 20
118.2809
  0
VERTEX
  8
LAYER_2
 10
66.3568
 20
118.2809
  0
SEQEND
  0
INSERT
  8
LAYER_2
  2
AIGNBL02010059
 10
0
 20
0
 30
0
  0
POLYLINE
  8
LAYER_2
 40
0.2646
 41
0.2646
 66
1
 10
0
 20
0
 30
0
  0
VERTEX
  8
LAYER_2
 10
61.0353
 20
134.3893
  0
VERTEX
  8
LAYER_2
 10
63.013
 20
122.344
  0
SEQEND
  0
POLYLINE
  8
LAYER_2
 40
0.2646
 41
0.2646
 66
1
 10
0
 20
0
 30
0
  0
VERTEX
  8
LAYER_2
 10
63.4444
 20
121.9124
  0
VERTEX
  8
LAYER_2
 10
102.3851
 20
121.517
  0
SEQEND
  0
INSERT
  8
LAYER_2
  2
AIGNBL0201005A
 10
0
 20
0
 30
0
  0
POLYLINE
  8
LAYER_2
 40
0.2646
 41
0.2646
 66
1
 10
0
 20
0
 30
0
  0
VERTEX
  8
LAYER_2
 10
63.1208
 20
119.4674
  0
VERTEX
  8
LAYER_2
 10
62.9409
 20
120.8337
  0
SEQEND
  0
INSERT
  8
LAYER_2
  2
AIGNBL0201005B
 10
0
 20
0
 30
0
  0
POLYLINE
  8
LAYER_2
 40
0.2646
 41
0.2646
 66
1
 10
0
 20
0
 30
0
  0
VERTEX
  8
LAYER_2
 10
63.1568
 20
121.0135
  0
VERTEX
  8
LAYER_2
 10
66.2129
 20
120.7976
  0
SEQEND
  0
INSERT
  8
LAYER_2
  2
AIGNBL0201005C
 10
0
 20
0
 30
0
  0
POLYLINE
  8
LAYER_2
 40
0.2646
 41
0.2646
 66
1
 10
0
 20
0
 30
0
  0
VERTEX
  8
LAYER_2
 10
66.3569
 20
120.5461
  0
VERTEX
  8
LAYER_2
 10
65.8895
 20
119.3237
  0
SEQEND
  0
INSERT
  8
LAYER_2
  2
AIGNBL0201005D
 10
0
 20
0
 30
0
  0
POLYLINE
  8
LAYER_2
 40
0.1411
 41
0.1411
 66
1
 10
0
 20
0
 30
0
  0
VERTEX
  8
LAYER_2
 10
63.1568
 20
122.0562
  0
VERTEX
  8
LAYER_2
 10
105.7289
 20
122.0562
  0
SEQEND
  0
POLYLINE
  8
LAYER_2
 40
0.1411
 41
0.1411
 66
1
 10
0
 20
0
 30
0
  0
VERTEX
  8
LAYER_2
 10
102.385
 20
121.5169
  0
VERTEX
  8
LAYER_2
 10
105.729
 20
121.5169
  0
SEQEND
  0
POLYLINE
  8
LAYER_2
 40
0.1411
 41
0.1411
 66
1
 10
0
 20
0
 30
0
  0
VERTEX
  8
LAYER_2
 10
103.5356
 20
120.4382
  0
VERTEX
  8
LAYER_2
 10
105.7288
 20
120.4382
  0
SEQEND
  0
INSERT
  8
LAYER_2
  2
AIGNBL0201005E
 10
0
 20
0
 30
0
  0
POLYLINE
  8
LAYER_2
 40
0.2646
 41
0.2646
 66
1
 10
0
 20
0
 30
0
  0
VERTEX
  8
LAYER_2
 10
62.5096
 20
118.2809
  0
VERTEX
  8
LAYER_2
 10
63.2645
 20
118.2809
  0
SEQEND
  0
POLYLINE
  8
LAYER_2
 40
0.2646
 41
0.2646
 66
1
 10
0
 20
0
 30
0
  0
VERTEX
  8
LAYER_2
 10
156.2115
 20
133.8499
  0
VERTEX
  8
LAYER_2
 10
153.191
 20
133.8499
  0
SEQEND
  0
POLYLINE
  8
LAYER_2
 40
0.2646
 41
0.2646
 66
1
 10
0
 20
0
 30
0
  0
VERTEX
  8
LAYER_2
 10
156.2115
 20
134.8567
  0
VERTEX
  8
LAYER_2
 10
150.8539
 20
134.8567
  0
SEQEND
  0
POLYLINE
  8
LAYER_2
 40
0.2646
 41
0.2646
 66
1
 10
0
 20
0
 30
0
  0
VERTEX
  8
LAYER_2
 10
156.3913
 20
134.6769
  0
VERTEX
  8
LAYER_2
 10
156.3913
 20
134.0295
  0
SEQEND
  0
INSERT
  8
LAYER_2
  2
AIGNBL0201005F
 10
0
 20
0
 30
0
  0
POLYLINE
  8
LAYER_2
 40
0.1411
 41
0.1411
 66
1
 10
0
 20
0
 30
0
  0
VERTEX
  8
LAYER_2
 10
120.9025
 20
133.8499
  0
SEQEND
  0
INSERT
  8
LAYER_2
  2
AIGNBL02010060
 10
0
 20
0
 30
0
  0
POLYLINE
  8
LAYER_2
 40
0.2646
 41
0.2646
 66
1
 10
0
 20
0
 30
0
  0
VERTEX
  8
LAYER_2
 10
156.3913
 20
134.6769
  0
VERTEX
  8
LAYER_2
 10
156.3913
 20
134.0295
  0
SEQEND
  0
INSERT
  8
LAYER_2
  2
AIGNBL02010061
 10
0
 20
0
 30
0
  0
POLYLINE
  8
LAYER_2
 40
0.1411
 41
0.1411
 66
1
 10
0
 20
0
 30
0
  0
VERTEX
  8
LAYER_2
 10
150.854
 20
134.8567
  0
VERTEX
  8
LAYER_2
 10
114.5384
 20
134.8567
  0
SEQEND
  0
POLYLINE
  8
LAYER_2
 40
0.1411
 41
0.1411
 66
1
 10
0
 20
0
 30
0
  0
VERTEX
  8
LAYER_2
 10
150.4225
 20
134.8567
  0
VERTEX
  8
LAYER_2
 10
105.6931
 20
134.8567
  0
SEQEND
  0
POLYLINE
  8
LAYER_2
 40
0.1411
 41
0.1411
 66
1
 10
0
 20
0
 30
0
  0
VERTEX
  8
LAYER_2
 10
105.693
 20
118.2809
  0
VERTEX
  8
LAYER_2
 10
148.9125
 20
118.2809
  0
SEQEND
  0
INSERT
  8
LAYER_2
  2
AIGNBL02010062
 10
0
 20
0
 30
0
  0
POLYLINE
  8
LAYER_2
 40
0.2646
 41
0.2646
 66
1
 10
0
 20
0
 30
0
  0
VERTEX
  8
LAYER_2
 10
108.929
 20
121.445
  0
VERTEX
  8
LAYER_2
 10
107.8862
 20
120.4382
  0
SEQEND
  0
INSERT
  8
LAYER_2
  2
AIGNBL02010063
 10
0
 20
0
 30
0
  0
POLYLINE
  8
LAYER_2
 40
0.2646
 41
0.2646
 66
1
 10
0
 20
0
 30
0
  0
VERTEX
  8
LAYER_2
 10
107.8144
 20
120.2944
  0
VERTEX
  8
LAYER_2
 10
107.8144
 20
119.1796
  0
SEQEND
  0
POLYLINE
  8
LAYER_2
 40
0.2646
 41
0.2646
 66
1
 10
0
 20
0
 30
0
  0
VERTEX
  8
LAYER_2
 10
108.4616
 20
119.1798
  0
VERTEX
  8
LAYER_2
 10
108.4616
 20
119.7192
  0
VERTEX
  8
LAYER_2
 10
109.3605
 20
120.618
  0
VERTEX
  8
LAYER_2
 10
143.4469
 20
120.69
  0
SEQEND
  0
INSERT
  8
LAYER_2
  2
AIGNBL02010064
 10
0
 20
0
 30
0
  0
POLYLINE
  8
LAYER_2
 40
0.2646
 41
0.2646
 66
1
 10
0
 20
0
 30
0
  0
VERTEX
  8
LAYER_2
 10
144.2021
 20
120.1865
  0
VERTEX
  8
LAYER_2
 10
144.8854
 20
118.3888
  0
SEQEND
  0
INSERT
  8
LAYER_2
  2
AIGNBL02010065
 10
0
 20
0
 30
0
  0
POLYLINE
  8
LAYER_2
 40
0.2646
 41
0.2646
 66
1
 10
0
 20
0
 30
0
  0
VERTEX
  8
LAYER_2
 10
145.8561
 20
118.2809
  0
VERTEX
  8
LAYER_2
 10
145.0652
 20
118.2809
  0
SEQEND
  0
INSERT
  8
LAYER_2
  2
AIGNBL02010066
 10
0
 20
0
 30
0
  0
POLYLINE
  8
LAYER_2
 40
0.2646
 41
0.2646
 66
1
 10
0
 20
0
 30
0
  0
VERTEX
  8
LAYER_2
 10
150.3866
 20
134.3893
  0
VERTEX
  8
LAYER_2
 10
148.3729
 20
122.344
  0
SEQEND
  0
POLYLINE
  8
LAYER_2
 40
0.2646
 41
0.2646
 66
1
 10
0
 20
0
 30
0
  0
VERTEX
  8
LAYER_2
 10
147.9775
 20
121.9124
  0
VERTEX
  8
LAYER_2
 10
109.0368
 20
121.517
  0
SEQEND
  0
INSERT
  8
LAYER_2
  2
AIGNBL02010067
 10
0
 20
0
 30
0
  0
POLYLINE
  8
LAYER_2
 40
0.2646
 41
0.2646
 66
1
 10
0
 20
0
 30
0
  0
VERTEX
  8
LAYER_2
 10
148.3011
 20
119.4674
  0
VERTEX
  8
LAYER_2
 10
148.4451
 20
120.8337
  0
SEQEND
  0
INSERT
  8
LAYER_2
  2
AIGNBL02010068
 10
0
 20
0
 30
0
  0
POLYLINE
  8
LAYER_2
 40
0.2646
 41
0.2646
 66
1
 10
0
 20
0
 30
0
  0
VERTEX
  8
LAYER_2
 10
148.2651
 20
121.0135
  0
VERTEX
  8
LAYER_2
 10
145.209
 20
120.7976
  0
SEQEND
  0
INSERT
  8
LAYER_2
  2
AIGNBL02010069
 10
0
 20
0
 30
0
  0
POLYLINE
  8
LAYER_2
 40
0.2646
 41
0.2646
 66
1
 10
0
 20
0
 30
0
  0
VERTEX
  8
LAYER_2
 10
145.0651
 20
120.5461
  0
VERTEX
  8
LAYER_2
 10
145.4965
 20
119.3237
  0
SEQEND
  0
INSERT
  8
LAYER_2
  2
AIGNBL0201006A
 10
0
 20
0
 30
0
  0
POLYLINE
  8
LAYER_2
 40
0.1411
 41
0.1411
 66
1
 10
0
 20
0
 30
0
  0
VERTEX
  8
LAYER_2
 10
148.2651
 20
122.0562
  0
VERTEX
  8
LAYER_2
 10
105.693
 20
122.0562
  0
SEQEND
  0
POLYLINE
  8
LAYER_2
 40
0.1411
 41
0.1411
 66
1
 10
0
 20
0
 30
0
  0
VERTEX
  8
LAYER_2
 10
109.0369
 20
121.5169
  0
VERTEX
  8
LAYER_2
 10
105.6929
 20
121.5169
  0
SEQEND
  0
POLYLINE
  8
LAYER_2
 40
0.1411
 41
0.1411
 66
1
 10
0
 20
0
 30
0
  0
VERTEX
  8
LAYER_2
 10
107.8863
 20
120.4382
  0
VERTEX
  8
LAYER_2
 10
105.6931
 20
120.4382
  0
SEQEND
  0
INSERT
  8
LAYER_2
  2
AIGNBL0201006B
 10
0
 20
0
 30
0
  0
POLYLINE
  8
LAYER_2
 40
0.2646
 41
0.2646
 66
1
 10
0
 20
0
 30
0
  0
VERTEX
  8
LAYER_2
 10
148.9124
 20
118.2809
  0
VERTEX
  8
LAYER_2
 10
148.1574
 20
118.2809
  0
SEQEND
  0
INSERT
  8
LAYER_2
  2
AIGNBL0201006C
 10
0
 20
0
 30
0
  0
POLYLINE
  8
LAYER_2
 40
0.2646
 41
0.2646
 66
1
 10
0
 20
0
 30
0
  0
VERTEX
  8
LAYER_2
 10
151.9327
 20
133.8499
  0
VERTEX
  8
LAYER_2
 10
156.2115
 20
133.8499
  0
VERTEX
  8
LAYER_2
 10
153.1911
 20
133.8499
  0
SEQEND
  0
POLYLINE
  8
LAYER_2
 40
0.2646
 41
0.2646
 66
1
 10
0
 20
0
 30
0
  0
VERTEX
  8
LAYER_2
 10
149.3798
 20
118.6045
  0
VERTEX
  8
LAYER_2
 10
151.2855
 20
133.3467
  0
SEQEND
  0
INSERT
  8
LAYER_2
  2
AIGNBL0201006D
 10
0
 20
0
 30
0
  0
POLYLINE
  8
LAYER_2
 40
0.0882
 41
0.0882
 66
1
 10
0
 20
0
 30
0
  0
VERTEX
  8
LAYER_2
 10
54.9947
 20
134.7488
  0
VERTEX
  8
LAYER_2
 10
54.9947
 20
137.4454
  0
SEQEND
  0
POLYLINE
  8
LAYER_2
 40
0.0882
 41
0.0882
 66
1
 10
0
 20
0
 30
0
  0
VERTEX
  8
LAYER_2
 10
156.4272
 20
134.7488
  0
VERTEX
  8
LAYER_2
 10
156.4272
 20
137.4454
  0
SEQEND
  0
POLYLINE
  8
LAYER_2
 40
0.0882
 41
0.0882
 66
1
 10
0
 20
0
 30
0
  0
VERTEX
  8
LAYER_2
 10
56.397
 20
137.3377
  0
VERTEX
  8
LAYER_2
 10
102.3131
 20
137.3377
  0
SEQEND
  0
POLYLINE
  8
LAYER_2
 40
0.0882
 41
0.0882
 66
1
 10
0
 20
0
 30
0
  0
VERTEX
  8
LAYER_2
 10
155.0249
 20
137.3377
  0
VERTEX
  8
LAYER_2
 10
109.1088
 20
137.3377
  0
SEQEND
  0
POLYLINE
  8
LAYER_2
 40
0.05
 41
0.05
 66
1
 10
0
 20
0
 30
0
 70
1
  0
VERTEX
  8
LAYER_2
 10
56.397
 20
137.5534
  0
VERTEX
  8
LAYER_2
 10
56.397
 20
137.0859
  0
VERTEX
  8
LAYER_2
 10
54.9947
 20
137.3375
  0
SEQEND
  0
POLYLINE
  8
LAYER_2
 40
0.0882
 41
0.0882
 66
1
 10
0
 20
0
 30
0
 70
1
  0
VERTEX
  8
LAYER_2
 10
56.397
 20
137.5534
  0
VERTEX
  8
LAYER_2
 10
56.397
 20
137.0859
  0
VERTEX
  8
LAYER_2
 10
54.9947
 20
137.3375
  0
SEQEND
  0
POLYLINE
  8
LAYER_2
 40
0.05
 41
0.05
 66
1
 10
0
 20
0
 30
0
 70
1
  0
VERTEX
  8
LAYER_2
 10
155.0249
 20
137.5534
  0
VERTEX
  8
LAYER_2
 10
155.0249
 20
137.0859
  0
VERTEX
  8
LAYER_2
 10
156.4272
 20
137.3375
  0
SEQEND
  0
POLYLINE
  8
LAYER_2
 40
0.0882
 41
0.0882
 66
1
 10
0
 20
0
 30
0
 70
1
  0
VERTEX
  8
LAYER_2
 10
155.0249
 20
137.5534
  0
VERTEX
  8
LAYER_2
 10
155.0249
 20
137.0859
  0
VERTEX
  8
LAYER_2
 10
156.4272
 20
137.3375
  0
SEQEND
  0
INSERT
  8
LAYER_2
  2
AIGNBL0201006E
 10
0
 20
0
 30
0
  0
POLYLINE
  8
LAYER_2
 40
0.0882
 41
0.0882
 66
1
 10
0
 20
0
 30
0
  0
VERTEX
  8
LAYER_2
 10
105.657
 20
121.5169
  0
VERTEX
  8
LAYER_2
 10
105.1176
 20
121.5169
  0
SEQEND
  0
POLYLINE
  8
LAYER_2
 40
0.0882
 41
0.0882
 66
1
 10
0
 20
0
 30
0
  0
VERTEX
  8
LAYER_2
 10
105.657
 20
134.8567
  0
VERTEX
  8
LAYER_2
 10
105.1176
 20
134.8567
  0
SEQEND
  0
POLYLINE
  8
LAYER_2
 40
0.0882
 41
0.0882
 66
1
 10
0
 20
0
 30
0
  0
VERTEX
  8
LAYER_2
 10
105.2255
 20
122.8833
  0
VERTEX
  8
LAYER_2
 10
105.2255
 20
125.6879
  0
SEQEND
  0
POLYLINE
  8
LAYER_2
 40
0.0882
 41
0.0882
 66
1
 10
0
 20
0
 30
0
  0
VERTEX
  8
LAYER_2
 10
105.2255
 20
133.4903
  0
VERTEX
  8
LAYER_2
 10
105.2255
 20
130.6857
  0
SEQEND
  0
POLYLINE
  8
LAYER_2
 40
0.05
 41
0.05
 66
1
 10
0
 20
0
 30
0
 70
1
  0
VERTEX
  8
LAYER_2
 10
105.0098
 20
122.8833
  0
VERTEX
  8
LAYER_2
 10
105.4412
 20
122.8833
  0
VERTEX
  8
LAYER_2
 10
105.2257
 20
121.517
  0
SEQEND
  0
POLYLINE
  8
LAYER_2
 40
0.0882
 41
0.0882
 66
1
 10
0
 20
0
 30
0
 70
1
  0
VERTEX
  8
LAYER_2
 10
105.0098
 20
122.8833
  0
VERTEX
  8
LAYER_2
 10
105.4412
 20
122.8833
  0
VERTEX
  8
LAYER_2
 10
105.2257
 20
121.517
  0
SEQEND
  0
POLYLINE
  8
LAYER_2
 40
0.05
 41
0.05
 66
1
 10
0
 20
0
 30
0
 70
1
  0
VERTEX
  8
LAYER_2
 10
105.0098
 20
133.4903
  0
VERTEX
  8
LAYER_2
 10
105.4412
 20
133.4903
  0
VERTEX
  8
LAYER_2
 10
105.2257
 20
134.8566
  0
SEQEND
  0
POLYLINE
  8
LAYER_2
 40
0.0882
 41
0.0882
 66
1
 10
0
 20
0
 30
0
 70
1
  0
VERTEX
  8
LAYER_2
 10
105.0098
 20
133.4903
  0
VERTEX
  8
LAYER_2
 10
105.4412
 20
133.4903
  0
VERTEX
  8
LAYER_2
 10
105.2257
 20
134.8566
  0
SEQEND
  0
INSERT
  8
LAYER_2
  2
AIGNBL0201006F
 10
0
 20
0
 30
0
  0
POLYLINE
  8
LAYER_2
 40
0.0882
 41
0.0882
 66
1
 10
0
 20
0
 30
0
  0
VERTEX
  8
LAYER_2
 10
103.4277
 20
183.4695
  0
VERTEX
  8
LAYER_2
 10
104.0751
 20
182.2471
  0
SEQEND
  0
POLYLINE
  8
LAYER_2
 40
0.0882
 41
0.0882
 66
1
 10
0
 20
0
 30
0
  0
VERTEX
  8
LAYER_2
 10
107.347
 20
176.0625
  0
VERTEX
  8
LAYER_2
 10
107.9943
 20
174.8401
  0
SEQEND
  0
TEXT
  8
LAYER_2
 10
99.1849
 20
189.0427
 11
99.1849
 21
189.0427
 40
3.4123
 41
0.5
 50
297.8834991
  1
 ｯ45
  0
POLYLINE
  8
LAYER_2
 40
0.0882
 41
0.0882
 66
1
 10
0
 20
0
 30
0
  0
VERTEX
  8
LAYER_2
 10
106.6998
 20
177.285
  0
VERTEX
  8
LAYER_2
 10
104.7221
 20
181.0245
  0
SEQEND
  0
POLYLINE
  8
LAYER_2
 40
0.05
 41
0.05
 66
1
 10
0
 20
0
 30
0
 70
1
  0
VERTEX
  8
LAYER_2
 10
107.5627
 20
176.1704
  0
VERTEX
  8
LAYER_2
 10
107.1313
 20
175.9545
  0
VERTEX
  8
LAYER_2
 10
106.6998
 20
177.2852
  0
SEQEND
  0
POLYLINE
  8
LAYER_2
 40
0.0882
 41
0.0882
 66
1
 10
0
 20
0
 30
0
 70
1
  0
VERTEX
  8
LAYER_2
 10
107.5627
 20
176.1704
  0
VERTEX
  8
LAYER_2
 10
107.1313
 20
175.9545
  0
VERTEX
  8
LAYER_2
 10
106.6998
 20
177.2852
  0
SEQEND
  0
POLYLINE
  8
LAYER_2
 40
0.05
 41
0.05
 66
1
 10
0
 20
0
 30
0
 70
1
  0
VERTEX
  8
LAYER_2
 10
104.2907
 20
182.3549
  0
VERTEX
  8
LAYER_2
 10
103.8592
 20
182.139
  0
VERTEX
  8
LAYER_2
 10
104.7221
 20
181.0245
  0
SEQEND
  0
POLYLINE
  8
LAYER_2
 40
0.0882
 41
0.0882
 66
1
 10
0
 20
0
 30
0
 70
1
  0
VERTEX
  8
LAYER_2
 10
104.2907
 20
182.3549
  0
VERTEX
  8
LAYER_2
 10
103.8592
 20
182.139
  0
VERTEX
  8
LAYER_2
 10
104.7221
 20
181.0245
  0
SEQEND
  0
POLYLINE
  8
LAYER_2
 40
0.0882
 41
0.0882
 66
1
 10
0
 20
0
 30
0
  0
VERTEX
  8
LAYER_2
 10
105.7289
 20
201.6993
  0
VERTEX
  8
LAYER_2
 10
105.7289
 20
203.749
  0
SEQEND
  0
POLYLINE
  8
LAYER_2
 40
0.0882
 41
0.0882
 66
1
 10
0
 20
0
 30
0
  0
VERTEX
  8
LAYER_2
 10
105.7289
 20
201.6993
  0
VERTEX
  8
LAYER_2
 10
105.7289
 20
203.749
  0
SEQEND
  0
POLYLINE
  8
LAYER_2
 40
0.0882
 41
0.0882
 66
1
 10
0
 20
0
 30
0
  0
VERTEX
  8
LAYER_2
 10
106.7303
 20
200.3689
  0
VERTEX
  8
LAYER_2
 10
103.3504
 20
200.3689
  0
SEQEND
  0
POLYLINE
  8
LAYER_2
 40
0.0882
 41
0.0882
 66
1
 10
0
 20
0
 30
0
  0
VERTEX
  8
LAYER_2
 10
79.7685
 20
205.9062
  0
VERTEX
  8
LAYER_2
 10
76.3886
 20
205.9062
  0
SEQEND
  0
POLYLINE
  8
LAYER_2
 40
0.0882
 41
0.0882
 66
1
 10
0
 20
0
 30
0
  0
VERTEX
  8
LAYER_2
 10
103.4943
 20
198.9666
  0
VERTEX
  8
LAYER_2
 10
103.4943
 20
197.6003
  0
SEQEND
  0
POLYLINE
  8
LAYER_2
 40
0.0882
 41
0.0882
 66
1
 10
0
 20
0
 30
0
  0
VERTEX
  8
LAYER_2
 10
103.4943
 20
207.2725
  0
VERTEX
  8
LAYER_2
 10
103.4943
 20
208.6388
  0
SEQEND
  0
POLYLINE
  8
LAYER_2
 40
0.0882
 41
0.0882
 66
1
 10
0
 20
0
 30
0
  0
VERTEX
  8
LAYER_2
 10
103.4943
 20
200.3689
  0
VERTEX
  8
LAYER_2
 10
103.4943
 20
202.2027
  0
SEQEND
  0
POLYLINE
  8
LAYER_2
 40
0.0882
 41
0.0882
 66
1
 10
0
 20
0
 30
0
  0
VERTEX
  8
LAYER_2
 10
103.4943
 20
205.9062
  0
VERTEX
  8
LAYER_2
 10
103.4943
 20
205.6546
  0
SEQEND
  0
POLYLINE
  8
LAYER_2
 40
0.05
 41
0.05
 66
1
 10
0
 20
0
 30
0
 70
1
  0
VERTEX
  8
LAYER_2
 10
103.2426
 20
198.9666
  0
VERTEX
  8
LAYER_2
 10
103.71
 20
198.9666
  0
VERTEX
  8
LAYER_2
 10
103.4941
 20
200.3689
  0
SEQEND
  0
POLYLINE
  8
LAYER_2
 40
0.0882
 41
0.0882
 66
1
 10
0
 20
0
 30
0
 70
1
  0
VERTEX
  8
LAYER_2
 10
103.2426
 20
198.9666
  0
VERTEX
  8
LAYER_2
 10
103.71
 20
198.9666
  0
VERTEX
  8
LAYER_2
 10
103.4941
 20
200.3689
  0
SEQEND
  0
POLYLINE
  8
LAYER_2
 40
0.05
 41
0.05
 66
1
 10
0
 20
0
 30
0
 70
1
  0
VERTEX
  8
LAYER_2
 10
103.2426
 20
207.2725
  0
VERTEX
  8
LAYER_2
 10
103.71
 20
207.2725
  0
VERTEX
  8
LAYER_2
 10
103.4941
 20
205.9062
  0
SEQEND
  0
POLYLINE
  8
LAYER_2
 40
0.0882
 41
0.0882
 66
1
 10
0
 20
0
 30
0
 70
1
  0
VERTEX
  8
LAYER_2
 10
103.2426
 20
207.2725
  0
VERTEX
  8
LAYER_2
 10
103.71
 20
207.2725
  0
VERTEX
  8
LAYER_2
 10
103.4941
 20
205.9062
  0
SEQEND
  0
INSERT
  8
LAYER_2
  2
AIGNBL02010070
 10
0
 20
0
 30
0
  0
POLYLINE
  8
LAYER_2
 40
0.0882
 41
0.0882
 66
1
 10
0
 20
0
 30
0
  0
VERTEX
  8
LAYER_2
 10
146.719
 20
196.6654
  0
VERTEX
  8
LAYER_2
 10
146.6471
 20
196.6654
  0
SEQEND
  0
POLYLINE
  8
LAYER_2
 40
0.0882
 41
0.0882
 66
1
 10
0
 20
0
 30
0
  0
VERTEX
  8
LAYER_2
 10
146.719
 20
205.9062
  0
VERTEX
  8
LAYER_2
 10
146.6471
 20
205.9062
  0
SEQEND
  0
POLYLINE
  8
LAYER_2
 40
0.0882
 41
0.0882
 66
1
 10
0
 20
0
 30
0
  0
VERTEX
  8
LAYER_2
 10
146.755
 20
198.0677
  0
VERTEX
  8
LAYER_2
 10
146.755
 20
198.7867
  0
SEQEND
  0
POLYLINE
  8
LAYER_2
 40
0.0882
 41
0.0882
 66
1
 10
0
 20
0
 30
0
  0
VERTEX
  8
LAYER_2
 10
146.755
 20
204.5039
  0
VERTEX
  8
LAYER_2
 10
146.755
 20
203.7846
  0
SEQEND
  0
POLYLINE
  8
LAYER_2
 40
0.05
 41
0.05
 66
1
 10
0
 20
0
 30
0
 70
1
  0
VERTEX
  8
LAYER_2
 10
146.5393
 20
198.0677
  0
VERTEX
  8
LAYER_2
 10
147.0067
 20
198.0677
  0
VERTEX
  8
LAYER_2
 10
146.7551
 20
196.6654
  0
SEQEND
  0
POLYLINE
  8
LAYER_2
 40
0.0882
 41
0.0882
 66
1
 10
0
 20
0
 30
0
 70
1
  0
VERTEX
  8
LAYER_2
 10
146.5393
 20
198.0677
  0
VERTEX
  8
LAYER_2
 10
147.0067
 20
198.0677
  0
VERTEX
  8
LAYER_2
 10
146.7551
 20
196.6654
  0
SEQEND
  0
POLYLINE
  8
LAYER_2
 40
0.05
 41
0.05
 66
1
 10
0
 20
0
 30
0
 70
1
  0
VERTEX
  8
LAYER_2
 10
146.5393
 20
204.5039
  0
VERTEX
  8
LAYER_2
 10
147.0067
 20
204.5039
  0
VERTEX
  8
LAYER_2
 10
146.7551
 20
205.9062
  0
SEQEND
  0
POLYLINE
  8
LAYER_2
 40
0.0882
 41
0.0882
 66
1
 10
0
 20
0
 30
0
 70
1
  0
VERTEX
  8
LAYER_2
 10
146.5393
 20
204.5039
  0
VERTEX
  8
LAYER_2
 10
147.0067
 20
204.5039
  0
VERTEX
  8
LAYER_2
 10
146.7551
 20
205.9062
  0
SEQEND
  0
INSERT
  8
LAYER_2
  2
AIGNBL02010071
 10
0
 20
0
 30
0
  0
POLYLINE
  8
LAYER_2
 40
0.2646
 41
0.2646
 66
1
 10
0
 20
0
 30
0
  0
VERTEX
  8
LAYER_2
 10
102.9603
 20
119.1798
  0
VERTEX
  8
LAYER_2
 10
103.6076
 20
119.1798
  0
SEQEND
  0
POLYLINE
  8
LAYER_2
 40
0.1411
 41
0.1411
 66
1
 10
0
 20
0
 30
0
  0
VERTEX
  8
LAYER_2
 10
103.6075
 20
119.1798
  0
VERTEX
  8
LAYER_2
 10
107.8144
 20
119.1798
  0
SEQEND
  0
POLYLINE
  8
LAYER_2
 40
0.2646
 41
0.2646
 66
1
 10
0
 20
0
 30
0
  0
VERTEX
  8
LAYER_2
 10
107.8144
 20
119.1798
  0
VERTEX
  8
LAYER_2
 10
108.4618
 20
119.1798
  0
SEQEND
  0
POLYLINE
  8
LAYER_2
 40
0.2646
 41
0.2646
 66
1
 10
0
 20
0
 30
0
  0
VERTEX
  8
LAYER_2
 10
197.3851
 20
119.1798
  0
VERTEX
  8
LAYER_2
 10
198.0324
 20
119.1798
  0
SEQEND
  0
POLYLINE
  8
LAYER_2
 40
0.1411
 41
0.1411
 66
1
 10
0
 20
0
 30
0
  0
VERTEX
  8
LAYER_2
 10
198.0323
 20
119.1798
  0
VERTEX
  8
LAYER_2
 10
202.3111
 20
119.1798
  0
SEQEND
  0
POLYLINE
  8
LAYER_2
 40
0.2646
 41
0.2646
 66
1
 10
0
 20
0
 30
0
  0
VERTEX
  8
LAYER_2
 10
202.3111
 20
119.1798
  0
VERTEX
  8
LAYER_2
 10
202.9224
 20
119.1798
  0
SEQEND
  0
POLYLINE
  8
LAYER_2
 40
0.0882
 41
0.0882
 66
1
 10
0
 20
0
 30
0
  0
VERTEX
  8
LAYER_2
 10
55.0307
 20
199.3262
  0
VERTEX
  8
LAYER_2
 10
55.0307
 20
188.1079
  0
SEQEND
  0
POLYLINE
  8
LAYER_2
 40
0.0882
 41
0.0882
 66
1
 10
0
 20
0
 30
0
  0
VERTEX
  8
LAYER_2
 10
221.3319
 20
133.778
  0
VERTEX
  8
LAYER_2
 10
221.3319
 20
132.2677
  0
SEQEND
  0
POLYLINE
  8
LAYER_2
 40
0.0882
 41
0.0882
 66
1
 10
0
 20
0
 30
0
  0
VERTEX
  8
LAYER_2
 10
226.8692
 20
134.3173
  0
VERTEX
  8
LAYER_2
 10
226.8692
 20
132.2677
  0
SEQEND
  0
POLYLINE
  8
LAYER_2
 40
0.0882
 41
0.0882
 66
1
 10
0
 20
0
 30
0
  0
VERTEX
  8
LAYER_2
 10
219.9656
 20
132.3757
  0
VERTEX
  8
LAYER_2
 10
218.5633
 20
132.3757
  0
SEQEND
  0
POLYLINE
  8
LAYER_2
 40
0.0882
 41
0.0882
 66
1
 10
0
 20
0
 30
0
  0
VERTEX
  8
LAYER_2
 10
228.2715
 20
132.3757
  0
VERTEX
  8
LAYER_2
 10
229.6378
 20
132.3757
  0
SEQEND
  0
POLYLINE
  8
LAYER_2
 40
0.0882
 41
0.0882
 66
1
 10
0
 20
0
 30
0
  0
VERTEX
  8
LAYER_2
 10
221.3319
 20
132.3757
  0
VERTEX
  8
LAYER_2
 10
222.4107
 20
132.3757
  0
SEQEND
  0
POLYLINE
  8
LAYER_2
 40
0.0882
 41
0.0882
 66
1
 10
0
 20
0
 30
0
  0
VERTEX
  8
LAYER_2
 10
226.8692
 20
132.3757
  0
VERTEX
  8
LAYER_2
 10
225.8264
 20
132.3757
  0
SEQEND
  0
POLYLINE
  8
LAYER_2
 40
0.05
 41
0.05
 66
1
 10
0
 20
0
 30
0
 70
1
  0
VERTEX
  8
LAYER_2
 10
219.9656
 20
132.6274
  0
VERTEX
  8
LAYER_2
 10
219.9656
 20
132.1599
  0
VERTEX
  8
LAYER_2
 10
221.3319
 20
132.3758
  0
SEQEND
  0
POLYLINE
  8
LAYER_2
 40
0.0882
 41
0.0882
 66
1
 10
0
 20
0
 30
0
 70
1
  0
VERTEX
  8
LAYER_2
 10
219.9656
 20
132.6274
  0
VERTEX
  8
LAYER_2
 10
219.9656
 20
132.1599
  0
VERTEX
  8
LAYER_2
 10
221.3319
 20
132.3758
  0
SEQEND
  0
POLYLINE
  8
LAYER_2
 40
0.05
 41
0.05
 66
1
 10
0
 20
0
 30
0
 70
1
  0
VERTEX
  8
LAYER_2
 10
228.2715
 20
132.6274
  0
VERTEX
  8
LAYER_2
 10
228.2715
 20
132.1599
  0
VERTEX
  8
LAYER_2
 10
226.8692
 20
132.3758
  0
SEQEND
  0
POLYLINE
  8
LAYER_2
 40
0.0882
 41
0.0882
 66
1
 10
0
 20
0
 30
0
 70
1
  0
VERTEX
  8
LAYER_2
 10
228.2715
 20
132.6274
  0
VERTEX
  8
LAYER_2
 10
228.2715
 20
132.1599
  0
VERTEX
  8
LAYER_2
 10
226.8692
 20
132.3758
  0
SEQEND
  0
INSERT
  8
LAYER_2
  2
AIGNBL02010072
 10
0
 20
0
 30
0
  0
POLYLINE
  8
LAYER_2
 40
0.0882
 41
0.0882
 66
1
 10
0
 20
0
 30
0
  0
VERTEX
  8
LAYER_2
 10
59.4173
 20
134.8567
  0
VERTEX
  8
LAYER_2
 10
50.9676
 20
134.8567
  0
SEQEND
  0
POLYLINE
  8
LAYER_2
 40
0.0882
 41
0.0882
 66
1
 10
0
 20
0
 30
0
  0
VERTEX
  8
LAYER_2
 10
57.9791
 20
118.2809
  0
VERTEX
  8
LAYER_2
 10
50.9676
 20
118.2809
  0
SEQEND
  0
POLYLINE
  8
LAYER_2
 40
0.0882
 41
0.0882
 66
1
 10
0
 20
0
 30
0
  0
VERTEX
  8
LAYER_2
 10
51.1114
 20
133.4903
  0
VERTEX
  8
LAYER_2
 10
51.1114
 20
129.0676
  0
SEQEND
  0
POLYLINE
  8
LAYER_2
 40
0.0882
 41
0.0882
 66
1
 10
0
 20
0
 30
0
  0
VERTEX
  8
LAYER_2
 10
51.1114
 20
119.6472
  0
VERTEX
  8
LAYER_2
 10
51.1114
 20
124.07
  0
SEQEND
  0
POLYLINE
  8
LAYER_2
 40
0.05
 41
0.05
 66
1
 10
0
 20
0
 30
0
 70
1
  0
VERTEX
  8
LAYER_2
 10
50.8597
 20
133.4903
  0
VERTEX
  8
LAYER_2
 10
51.3272
 20
133.4903
  0
VERTEX
  8
LAYER_2
 10
51.1113
 20
134.8566
  0
SEQEND
  0
POLYLINE
  8
LAYER_2
 40
0.0882
 41
0.0882
 66
1
 10
0
 20
0
 30
0
 70
1
  0
VERTEX
  8
LAYER_2
 10
50.8597
 20
133.4903
  0
VERTEX
  8
LAYER_2
 10
51.3272
 20
133.4903
  0
VERTEX
  8
LAYER_2
 10
51.1113
 20
134.8566
  0
SEQEND
  0
POLYLINE
  8
LAYER_2
 40
0.05
 41
0.05
 66
1
 10
0
 20
0
 30
0
 70
1
  0
VERTEX
  8
LAYER_2
 10
50.8597
 20
119.6472
  0
VERTEX
  8
LAYER_2
 10
51.3272
 20
119.6472
  0
VERTEX
  8
LAYER_2
 10
51.1113
 20
118.2809
  0
SEQEND
  0
POLYLINE
  8
LAYER_2
 40
0.0882
 41
0.0882
 66
1
 10
0
 20
0
 30
0
 70
1
  0
VERTEX
  8
LAYER_2
 10
50.8597
 20
119.6472
  0
VERTEX
  8
LAYER_2
 10
51.3272
 20
119.6472
  0
VERTEX
  8
LAYER_2
 10
51.1113
 20
118.2809
  0
SEQEND
  0
INSERT
  8
LAYER_2
  2
AIGNBL02010073
 10
0
 20
0
 30
0
  0
POLYLINE
  8
LAYER_2
 40
0.0882
 41
0.0882
 66
1
 10
0
 20
0
 30
0
  0
VERTEX
  8
LAYER_2
 10
200.1537
 20
120.4023
  0
VERTEX
  8
LAYER_2
 10
200.1537
 20
115.62
  0
SEQEND
  0
POLYLINE
  8
LAYER_2
 40
0.0882
 41
0.0882
 66
1
 10
0
 20
0
 30
0
  0
VERTEX
  8
LAYER_2
 10
226.8692
 20
134.6409
  0
VERTEX
  8
LAYER_2
 10
226.8692
 20
115.6202
  0
SEQEND
  0
POLYLINE
  8
LAYER_2
 40
0.0882
 41
0.0882
 66
1
 10
0
 20
0
 30
0
  0
VERTEX
  8
LAYER_2
 10
201.5201
 20
115.728
  0
VERTEX
  8
LAYER_2
 10
210.9046
 20
115.728
  0
SEQEND
  0
POLYLINE
  8
LAYER_2
 40
0.0882
 41
0.0882
 66
1
 10
0
 20
0
 30
0
  0
VERTEX
  8
LAYER_2
 10
225.5028
 20
115.728
  0
VERTEX
  8
LAYER_2
 10
216.1182
 20
115.728
  0
SEQEND
  0
POLYLINE
  8
LAYER_2
 40
0.05
 41
0.05
 66
1
 10
0
 20
0
 30
0
 70
1
  0
VERTEX
  8
LAYER_2
 10
201.5201
 20
115.9437
  0
VERTEX
  8
LAYER_2
 10
201.5201
 20
115.5123
  0
VERTEX
  8
LAYER_2
 10
200.1537
 20
115.7278
  0
SEQEND
  0
POLYLINE
  8
LAYER_2
 40
0.0882
 41
0.0882
 66
1
 10
0
 20
0
 30
0
 70
1
  0
VERTEX
  8
LAYER_2
 10
201.5201
 20
115.9437
  0
VERTEX
  8
LAYER_2
 10
201.5201
 20
115.5123
  0
VERTEX
  8
LAYER_2
 10
200.1537
 20
115.7278
  0
SEQEND
  0
POLYLINE
  8
LAYER_2
 40
0.05
 41
0.05
 66
1
 10
0
 20
0
 30
0
 70
1
  0
VERTEX
  8
LAYER_2
 10
225.5028
 20
115.9437
  0
VERTEX
  8
LAYER_2
 10
225.5028
 20
115.5123
  0
VERTEX
  8
LAYER_2
 10
226.8691
 20
115.7278
  0
SEQEND
  0
POLYLINE
  8
LAYER_2
 40
0.0882
 41
0.0882
 66
1
 10
0
 20
0
 30
0
 70
1
  0
VERTEX
  8
LAYER_2
 10
225.5028
 20
115.9437
  0
VERTEX
  8
LAYER_2
 10
225.5028
 20
115.5123
  0
VERTEX
  8
LAYER_2
 10
226.8691
 20
115.7278
  0
SEQEND
  0
INSERT
  8
LAYER_2
  2
AIGNBL02010074
 10
0
 20
0
 30
0
  0
TEXT
  8
LAYER_2
 10
108.7255
 20
199.201
 11
108.7255
 21
199.201
 40
3.1616
 41
0.5
  1
ｯ35
  0
ENDSEC
  0
EOF
