  0
SECTION
  2
HEADER
  9
$ACADVER
  1
AC1009
  9
$LUNITS
 70
2
  9
$LUPREC
 70
4
  9
$LTSCALE
 40
1.0
  9
$EXTMIN
 10
-30.3177
 20
33.3285
 30
0
  9
$EXTMAX
 10
251.6749
 20
230.337
 30
0
  0
ENDSEC
  0
SECTION
  2
TABLES
  0
TABLE
  2
LTYPE
 70
256
  0
LTYPE
  2
AIGENLINE001
 70
64
  3
generate AI->DXF Converter
 72
65
 73
2
 40
1.0374
 49
0.5187
 49
-0.5187
  0
LTYPE
  2
AIGENLINE002
 70
64
  3
generate AI->DXF Converter
 72
65
 73
2
 40
0.0127
 49
0.0063
 49
-0.0063
  0
LTYPE
  2
AIGENLINE003
 70
64
  3
generate AI->DXF Converter
 72
65
 73
2
 40
0.0134
 49
0.0067
 49
-0.0067
  0
LTYPE
  2
AIGENLINE004
 70
64
  3
generate AI->DXF Converter
 72
65
 73
2
 40
0.0155
 49
0.0078
 49
-0.0078
  0
LTYPE
  2
AIGENLINE005
 70
64
  3
generate AI->DXF Converter
 72
65
 73
2
 40
0.0183
 49
0.0092
 49
-0.0092
  0
LTYPE
  2
AIGENLINE006
 70
64
  3
generate AI->DXF Converter
 72
65
 73
2
 40
0.019
 49
0.0095
 49
-0.0095
  0
LTYPE
  2
AIGENLINE007
 70
64
  3
generate AI->DXF Converter
 72
65
 73
2
 40
0.0197
 49
0.0099
 49
-0.0099
  0
LTYPE
  2
AIGENLINE008
 70
64
  3
generate AI->DXF Converter
 72
65
 73
2
 40
0.0205
 49
0.0102
 49
-0.0102
  0
LTYPE
  2
AIGENLINE009
 70
64
  3
generate AI->DXF Converter
 72
65
 73
2
 40
0.0212
 49
0.0106
 49
-0.0106
  0
LTYPE
  2
AIGENLINE010
 70
64
  3
generate AI->DXF Converter
 72
65
 73
2
 40
0.0099
 49
0.0049
 49
-0.0049
  0
LTYPE
  2
AIGENLINE011
 70
64
  3
generate AI->DXF Converter
 72
65
 73
2
 40
0.0219
 49
0.0109
 49
-0.0109
  0
LTYPE
  2
AIGENLINE012
 70
64
  3
generate AI->DXF Converter
 72
65
 73
2
 40
0.0226
 49
0.0113
 49
-0.0113
  0
LTYPE
  2
AIGENLINE013
 70
64
  3
generate AI->DXF Converter
 72
65
 73
2
 40
1.0325
 49
0.5163
 49
-0.5163
  0
LTYPE
  2
AIGENLINE014
 70
64
  3
generate AI->DXF Converter
 72
65
 73
2
 40
0.0106
 49
0.0053
 49
-0.0053
  0
LTYPE
  2
AIGENLINE015
 70
64
  3
generate AI->DXF Converter
 72
65
 73
2
 40
0.012
 49
0.006
 49
-0.006
  0
LTYPE
  2
AIGENLINE016
 70
64
  3
generate AI->DXF Converter
 72
65
 73
2
 40
0.1975
 49
0.0987
 49
-0.0987
  0
LTYPE
  2
AIGENLINE017
 70
64
  3
generate AI->DXF Converter
 72
65
 73
2
 40
0.7941
 49
0.3971
 49
-0.3971
  0
LTYPE
  2
AIGENLINE018
 70
64
  3
generate AI->DXF Converter
 72
65
 73
2
 40
0.0162
 49
0.0081
 49
-0.0081
  0
LTYPE
  2
AIGENLINE019
 70
64
  3
generate AI->DXF Converter
 72
65
 73
2
 40
1.1037
 49
0.5519
 49
-0.5519
  0
LTYPE
  2
AIGENLINE020
 70
64
  3
generate AI->DXF Converter
 72
65
 73
2
 40
0.9761
 49
0.488
 49
-0.488
  0
LTYPE
  2
AIGENLINE021
 70
64
  3
generate AI->DXF Converter
 72
65
 73
2
 40
0.658
 49
0.329
 49
-0.329
  0
LTYPE
  2
AIGENLINE022
 70
64
  3
generate AI->DXF Converter
 72
65
 73
2
 40
1.0057
 49
0.5028
 49
-0.5028
  0
LTYPE
  2
AIGENLINE023
 70
64
  3
generate AI->DXF Converter
 72
65
 73
2
 40
1.0924
 49
0.5462
 49
-0.5462
  0
LTYPE
  2
AIGENLINE024
 70
64
  3
generate AI->DXF Converter
 72
65
 73
2
 40
0.9231
 49
0.4616
 49
-0.4616
  0
LTYPE
  2
AIGENLINE025
 70
64
  3
generate AI->DXF Converter
 72
65
 73
2
 40
1.0226
 49
0.5113
 49
-0.5113
  0
LTYPE
  2
AIGENLINE026
 70
64
  3
generate AI->DXF Converter
 72
65
 73
2
 40
1.1432
 49
0.5716
 49
-0.5716
  0
LTYPE
  2
AIGENLINE027
 70
64
  3
generate AI->DXF Converter
 72
65
 73
2
 40
1.0847
 49
0.5423
 49
-0.5423
  0
LTYPE
  2
AIGENLINE028
 70
64
  3
generate AI->DXF Converter
 72
65
 73
2
 40
1.0219
 49
0.511
 49
-0.511
  0
LTYPE
  2
AIGENLINE029
 70
64
  3
generate AI->DXF Converter
 72
65
 73
2
 40
1.0494
 49
0.5247
 49
-0.5247
  0
LTYPE
  2
AIGENLINE030
 70
64
  3
generate AI->DXF Converter
 72
65
 73
2
 40
1.1108
 49
0.5554
 49
-0.5554
  0
LTYPE
  2
AIGENLINE031
 70
64
  3
generate AI->DXF Converter
 72
65
 73
2
 40
0.5445
 49
0.2722
 49
-0.2722
  0
LTYPE
  2
AIGENLINE032
 70
64
  3
generate AI->DXF Converter
 72
65
 73
2
 40
0.4069
 49
0.2035
 49
-0.2035
  0
LTYPE
  2
AIGENLINE033
 70
64
  3
generate AI->DXF Converter
 72
65
 73
2
 40
1.3273
 49
0.6636
 49
-0.6636
  0
LTYPE
  2
AIGENLINE034
 70
64
  3
generate AI->DXF Converter
 72
65
 73
2
 40
0.9358
 49
0.4679
 49
-0.4679
  0
LTYPE
  2
AIGENLINE035
 70
64
  3
generate AI->DXF Converter
 72
65
 73
2
 40
1.3689
 49
0.6845
 49
-0.6845
  0
LTYPE
  2
AIGENLINE036
 70
64
  3
generate AI->DXF Converter
 72
65
 73
2
 40
1.0868
 49
0.5434
 49
-0.5434
  0
LTYPE
  2
AIGENLINE037
 70
64
  3
generate AI->DXF Converter
 72
65
 73
2
 40
0.9972
 49
0.4986
 49
-0.4986
  0
LTYPE
  2
AIGENLINE038
 70
64
  3
generate AI->DXF Converter
 72
65
 73
2
 40
1.0269
 49
0.5134
 49
-0.5134
  0
LTYPE
  2
AIGENLINE039
 70
64
  3
generate AI->DXF Converter
 72
65
 73
2
 40
1.0952
 49
0.5476
 49
-0.5476
  0
LTYPE
  2
AIGENLINE040
 70
64
  3
generate AI->DXF Converter
 72
65
 73
2
 40
1.1326
 49
0.5663
 49
-0.5663
  0
LTYPE
  2
AIGENLINE041
 70
64
  3
generate AI->DXF Converter
 72
65
 73
2
 40
1.0671
 49
0.5335
 49
-0.5335
  0
LTYPE
  2
AIGENLINE042
 70
64
  3
generate AI->DXF Converter
 72
65
 73
2
 40
1.1721
 49
0.5861
 49
-0.5861
  0
LTYPE
  2
AIGENLINE043
 70
64
  3
generate AI->DXF Converter
 72
65
 73
2
 40
1.1199
 49
0.56
 49
-0.56
  0
LTYPE
  2
AIGENLINE044
 70
64
  3
generate AI->DXF Converter
 72
65
 73
2
 40
0.4062
 49
0.2031
 49
-0.2031
  0
LTYPE
  2
AIGENLINE045
 70
64
  3
generate AI->DXF Converter
 72
65
 73
2
 40
0.9747
 49
0.4873
 49
-0.4873
  0
LTYPE
  2
AIGENLINE046
 70
64
  3
generate AI->DXF Converter
 72
65
 73
2
 40
0.409
 49
0.2045
 49
-0.2045
  0
LTYPE
  2
AIGENLINE047
 70
64
  3
generate AI->DXF Converter
 72
65
 73
2
 40
1.0163
 49
0.5081
 49
-0.5081
  0
LTYPE
  2
AIGENLINE048
 70
64
  3
generate AI->DXF Converter
 72
65
 73
2
 40
0.4979
 49
0.249
 49
-0.249
  0
LTYPE
  2
AIGENLINE049
 70
64
  3
generate AI->DXF Converter
 72
65
 73
2
 40
0.5374
 49
0.2687
 49
-0.2687
  0
LTYPE
  2
AIGENLINE050
 70
64
  3
generate AI->DXF Converter
 72
65
 73
2
 40
0.4387
 49
0.2193
 49
-0.2193
  0
LTYPE
  2
AIGENLINE051
 70
64
  3
generate AI->DXF Converter
 72
65
 73
2
 40
0.9655
 49
0.4827
 49
-0.4827
  0
LTYPE
  2
AIGENLINE052
 70
64
  3
generate AI->DXF Converter
 72
65
 73
2
 40
0.7878
 49
0.3939
 49
-0.3939
  0
LTYPE
  2
AIGENLINE053
 70
64
  3
generate AI->DXF Converter
 72
65
 73
2
 40
1.0931
 49
0.5466
 49
-0.5466
  0
LTYPE
  2
AIGENLINE054
 70
64
  3
generate AI->DXF Converter
 72
65
 73
2
 40
0.2546
 49
0.1273
 49
-0.1273
  0
LTYPE
  2
AIGENLINE055
 70
64
  3
generate AI->DXF Converter
 72
65
 73
2
 40
0.2031
 49
0.1016
 49
-0.1016
  0
LTYPE
  2
AIGENLINE056
 70
64
  3
generate AI->DXF Converter
 72
65
 73
2
 40
0.4697
 49
0.2349
 49
-0.2349
  0
LTYPE
  2
AIGENLINE057
 70
64
  3
generate AI->DXF Converter
 72
65
 73
2
 40
1.0692
 49
0.5346
 49
-0.5346
  0
LTYPE
  2
AIGENLINE058
 70
64
  3
generate AI->DXF Converter
 72
65
 73
2
 40
0.1968
 49
0.0984
 49
-0.0984
  0
LTYPE
  2
AIGENLINE059
 70
64
  3
generate AI->DXF Converter
 72
65
 73
2
 40
0.7934
 49
0.3967
 49
-0.3967
  0
LTYPE
  2
AIGENLINE060
 70
64
  3
generate AI->DXF Converter
 72
65
 73
2
 40
1.0389
 49
0.5194
 49
-0.5194
  0
LTYPE
  2
AIGENLINE061
 70
64
  3
generate AI->DXF Converter
 72
65
 73
2
 40
1.0438
 49
0.5219
 49
-0.5219
  0
LTYPE
  2
AIGENLINE062
 70
64
  3
generate AI->DXF Converter
 72
65
 73
2
 40
1.0396
 49
0.5198
 49
-0.5198
  0
LTYPE
  2
AIGENLINE063
 70
64
  3
generate AI->DXF Converter
 72
65
 73
2
 40
1.0636
 49
0.5318
 49
-0.5318
  0
LTYPE
  2
AIGENLINE064
 70
64
  3
generate AI->DXF Converter
 72
65
 73
2
 40
1.194
 49
0.597
 49
-0.597
  0
LTYPE
  2
AIGENLINE065
 70
64
  3
generate AI->DXF Converter
 72
65
 73
2
 40
1.0417
 49
0.5208
 49
-0.5208
  0
LTYPE
  2
AIGENLINE066
 70
64
  3
generate AI->DXF Converter
 72
65
 73
2
 40
0.4055
 49
0.2028
 49
-0.2028
  0
LTYPE
  2
AIGENLINE067
 70
64
  3
generate AI->DXF Converter
 72
65
 73
2
 40
0.8696
 49
0.4348
 49
-0.4348
  0
LTYPE
  2
AIGENLINE068
 70
64
  3
generate AI->DXF Converter
 72
65
 73
2
 40
1.0769
 49
0.5384
 49
-0.5384
  0
LTYPE
  2
AIGENLINE069
 70
64
  3
generate AI->DXF Converter
 72
65
 73
2
 40
1.151
 49
0.5755
 49
-0.5755
  0
LTYPE
  2
AIGENLINE070
 70
64
  3
generate AI->DXF Converter
 72
65
 73
2
 40
1.1799
 49
0.59
 49
-0.59
  0
LTYPE
  2
AIGENLINE071
 70
64
  3
generate AI->DXF Converter
 72
65
 73
2
 40
1.0565
 49
0.5282
 49
-0.5282
  0
LTYPE
  2
AIGENLINE072
 70
64
  3
generate AI->DXF Converter
 72
65
 73
0
 40
0
  0
ENDTAB
  0
TABLE
  2
LAYER
 70
2
  0
LAYER
  2
LAYER_1
 70
64
 62
7
  6
CONTINUOUS
  0
LAYER
  2
LAYER_2
 70
64
 62
7
  6
CONTINUOUS
  0
ENDTAB
  0
TABLE
  2
STYLE
 70
6
  0
STYLE
  2
STANDARD
 70
0
 40
0
 50
0
 71
0
 41
0
 42
0
  3
TXT
  4
BIGFONT
  0
ENDTAB
  0
ENDSEC
  0
SECTION
  2
BLOCKS
  0
BLOCK
  8
LAYER_2
  2
AIGNBL02040009
 70
64
 10
0
 20
0
 30
0
  3
AIGNBL02040009
  0
POLYLINE
  8
LAYER_2
 40
0.05
 41
0.05
 66
1
 10
0
 20
0
 30
0
 70
1
  0
VERTEX
  8
LAYER_2
 10
146.7545
 20
39.1418
  0
VERTEX
  8
LAYER_2
 10
146.2656
 20
37.9567
  0
VERTEX
  8
LAYER_2
 10
145.6376
 20
37.9567
  0
VERTEX
  8
LAYER_2
 10
147.2372
 20
41.7225
  0
VERTEX
  8
LAYER_2
 10
147.9703
 20
41.7225
  0
VERTEX
  8
LAYER_2
 10
149.5768
 20
37.9567
  0
VERTEX
  8
LAYER_2
 10
148.9267
 20
37.9567
  0
VERTEX
  8
LAYER_2
 10
148.424
 20
39.1418
  0
SEQEND
  0
POLYLINE
  8
LAYER_2
 40
0.05
 41
0.05
 66
1
 10
0
 20
0
 30
0
 70
1
  0
VERTEX
  8
LAYER_2
 10
148.2983
 20
39.5207
  0
VERTEX
  8
LAYER_2
 10
147.8373
 20
40.6056
 42
-0.02317247198
  0
VERTEX
  8
LAYER_2
 10
147.5927
 20
41.2926
  0
VERTEX
  8
LAYER_2
 10
147.5789
 20
41.2926
 42
-0.02064481114
  0
VERTEX
  8
LAYER_2
 10
147.3412
 20
40.6101
  0
VERTEX
  8
LAYER_2
 10
146.8806
 20
39.5207
  0
SEQEND
  0
ENDBLK
  0
BLOCK
  8
LAYER_2
  2
AIGNBL0204000A
 70
64
 10
0
 20
0
 30
0
  3
AIGNBL0204000A
  0
POLYLINE
  8
LAYER_2
 40
0.05
 41
0.05
 66
1
 10
0
 20
0
 30
0
 70
1
  0
VERTEX
  8
LAYER_2
 10
153.942
 20
37.4034
 42
-0.01520763512
  0
VERTEX
  8
LAYER_2
 10
152.1399
 20
37.8395
 42
0.09160443264
  0
VERTEX
  8
LAYER_2
 10
151.8533
 20
37.895
 42
-0.09256808484
  0
VERTEX
  8
LAYER_2
 10
150.8994
 20
38.0977
 42
-0.09799469934
  0
VERTEX
  8
LAYER_2
 10
150.2621
 20
38.5324
 42
-0.1630918382
  0
VERTEX
  8
LAYER_2
 10
149.7964
 20
39.5259
 42
-0.0316951694
  0
VERTEX
  8
LAYER_2
 10
149.7793
 20
39.7998
 42
-0.1055313794
  0
VERTEX
  8
LAYER_2
 10
149.9533
 20
40.6417
 42
-0.1619874109
  0
VERTEX
  8
LAYER_2
 10
150.7418
 20
41.4867
 42
-0.09224146328
  0
VERTEX
  8
LAYER_2
 10
151.5409
 20
41.7524
 42
-0.03717154931
  0
VERTEX
  8
LAYER_2
 10
151.9725
 20
41.7838
 42
-0.09530639066
  0
VERTEX
  8
LAYER_2
 10
152.9361
 20
41.6062
 42
-0.1001950085
  0
VERTEX
  8
LAYER_2
 10
153.5732
 20
41.1834
 42
-0.1611155306
  0
VERTEX
  8
LAYER_2
 10
154.0599
 20
40.1825
 42
-0.03590167283
  0
VERTEX
  8
LAYER_2
 10
154.0815
 20
39.8784
 42
-0.1066761192
  0
VERTEX
  8
LAYER_2
 10
153.9051
 20
39.0236
 42
-0.2183970027
  0
VERTEX
  8
LAYER_2
 10
152.7953
 20
38.0897
 42
-0.006706711403
  0
VERTEX
  8
LAYER_2
 10
152.7407
 20
38.0738
  0
VERTEX
  8
LAYER_2
 10
152.7407
 20
38.0514
 42
0.01533555045
  0
VERTEX
  8
LAYER_2
 10
154.117
 20
37.8113
  0
SEQEND
  0
POLYLINE
  8
LAYER_2
 40
0.05
 41
0.05
 66
1
 10
0
 20
0
 30
0
 70
1
  0
VERTEX
  8
LAYER_2
 10
153.4394
 20
39.857
 42
0.1175610784
  0
VERTEX
  8
LAYER_2
 10
153.257
 20
40.6254
 42
0.1170135141
  0
VERTEX
  8
LAYER_2
 10
152.8315
 20
41.1234
 42
0.1200044572
  0
VERTEX
  8
LAYER_2
 10
152.2186
 20
41.3675
 42
0.03774262044
  0
VERTEX
  8
LAYER_2
 10
151.9511
 20
41.3873
 42
0.1153139376
  0
VERTEX
  8
LAYER_2
 10
151.2089
 20
41.2226
 42
0.1853550912
  0
VERTEX
  8
LAYER_2
 10
150.5507
 20
40.4882
 42
0.09859892291
  0
VERTEX
  8
LAYER_2
 10
150.4287
 20
39.8122
 42
0.1178359247
  0
VERTEX
  8
LAYER_2
 10
150.5964
 20
39.0734
 42
0.2866694251
  0
VERTEX
  8
LAYER_2
 10
151.9232
 20
38.2912
 42
0.1188197759
  0
VERTEX
  8
LAYER_2
 10
152.6722
 20
38.4633
 42
0.1796740134
  0
VERTEX
  8
LAYER_2
 10
153.3126
 20
39.18
 42
0.09850052237
  0
SEQEND
  0
ENDBLK
  0
BLOCK
  8
LAYER_2
  2
AIGNBL0204000B
 70
64
 10
0
 20
0
 30
0
  3
AIGNBL0204000B
  0
POLYLINE
  8
LAYER_2
 40
0.05
 41
0.05
 66
1
 10
0
 20
0
 30
0
 70
1
  0
VERTEX
  8
LAYER_2
 10
155.4089
 20
41.7225
  0
VERTEX
  8
LAYER_2
 10
155.4089
 20
39.4932
 42
0.1220213404
  0
VERTEX
  8
LAYER_2
 10
155.569
 20
38.7775
 42
0.2218709818
  0
VERTEX
  8
LAYER_2
 10
156.2104
 20
38.3206
 42
0.05223876895
  0
VERTEX
  8
LAYER_2
 10
156.5055
 20
38.2912
 42
0.1302821267
  0
VERTEX
  8
LAYER_2
 10
157.1748
 20
38.452
 42
0.1509367336
  0
VERTEX
  8
LAYER_2
 10
157.526
 20
38.8454
 42
0.1174732039
  0
VERTEX
  8
LAYER_2
 10
157.651
 20
39.4932
  0
VERTEX
  8
LAYER_2
 10
157.651
 20
41.7225
  0
VERTEX
  8
LAYER_2
 10
158.2656
 20
41.7225
  0
VERTEX
  8
LAYER_2
 10
158.2656
 20
39.5266
 42
-0.1106199636
  0
VERTEX
  8
LAYER_2
 10
158.0961
 20
38.708
 42
-0.1822316276
  0
VERTEX
  8
LAYER_2
 10
157.4057
 20
38.0637
 42
-0.09768689614
  0
VERTEX
  8
LAYER_2
 10
156.6028
 20
37.8972
 42
-0.01000776787
  0
VERTEX
  8
LAYER_2
 10
156.4845
 20
37.895
 42
-0.09899539667
  0
VERTEX
  8
LAYER_2
 10
155.612
 20
38.0554
 42
-0.120955925
  0
VERTEX
  8
LAYER_2
 10
155.1093
 20
38.4366
 42
-0.1193006487
  0
VERTEX
  8
LAYER_2
 10
154.8407
 20
39.0316
 42
-0.05319923583
  0
VERTEX
  8
LAYER_2
 10
154.7943
 20
39.5045
  0
VERTEX
  8
LAYER_2
 10
154.7943
 20
41.7225
  0
SEQEND
  0
ENDBLK
  0
BLOCK
  8
LAYER_2
  2
AIGNBL0204000C
 70
64
 10
0
 20
0
 30
0
  3
AIGNBL0204000C
  0
POLYLINE
  8
LAYER_2
 40
0.05
 41
0.05
 66
1
 10
0
 20
0
 30
0
 70
1
  0
VERTEX
  8
LAYER_2
 10
160.0119
 20
39.1418
  0
VERTEX
  8
LAYER_2
 10
159.5227
 20
37.9567
  0
VERTEX
  8
LAYER_2
 10
158.8947
 20
37.9567
  0
VERTEX
  8
LAYER_2
 10
160.4939
 20
41.7225
  0
VERTEX
  8
LAYER_2
 10
161.227
 20
41.7225
  0
VERTEX
  8
LAYER_2
 10
162.8335
 20
37.9567
  0
VERTEX
  8
LAYER_2
 10
162.1841
 20
37.9567
  0
VERTEX
  8
LAYER_2
 10
161.6814
 20
39.1418
  0
SEQEND
  0
POLYLINE
  8
LAYER_2
 40
0.05
 41
0.05
 66
1
 10
0
 20
0
 30
0
 70
1
  0
VERTEX
  8
LAYER_2
 10
161.5553
 20
39.5207
  0
VERTEX
  8
LAYER_2
 10
161.094
 20
40.6056
 42
-0.02227599701
  0
VERTEX
  8
LAYER_2
 10
160.8494
 20
41.2926
  0
VERTEX
  8
LAYER_2
 10
160.8357
 20
41.2926
 42
-0.0208222547
  0
VERTEX
  8
LAYER_2
 10
160.5983
 20
40.6101
  0
VERTEX
  8
LAYER_2
 10
160.1373
 20
39.5207
  0
SEQEND
  0
ENDBLK
  0
BLOCK
  8
LAYER_2
  2
AIGNBL0204000D
 70
64
 10
0
 20
0
 30
0
  3
AIGNBL0204000D
  0
POLYLINE
  8
LAYER_2
 40
0.05
 41
0.05
 66
1
 10
0
 20
0
 30
0
 70
1
  0
VERTEX
  8
LAYER_2
 10
163.8742
 20
41.6777
 42
-0.03334485223
  0
VERTEX
  8
LAYER_2
 10
165.0411
 20
41.7508
 42
-0.08844478427
  0
VERTEX
  8
LAYER_2
 10
166.0871
 20
41.5858
 42
-0.06037505309
  0
VERTEX
  8
LAYER_2
 10
166.3609
 20
41.4379
 42
-0.2472514979
  0
VERTEX
  8
LAYER_2
 10
166.7726
 20
40.6497
 42
-0.1483298328
  0
VERTEX
  8
LAYER_2
 10
166.6029
 20
40.0554
 42
-0.07223194904
  0
VERTEX
  8
LAYER_2
 10
166.4095
 20
39.8456
 42
-0.1209372404
  0
VERTEX
  8
LAYER_2
 10
165.7228
 20
39.517
 42
-0.06224269186
  0
VERTEX
  8
LAYER_2
 10
164.9708
 20
39.4319
 42
-0.05738783264
  0
VERTEX
  8
LAYER_2
 10
164.4823
 20
39.4653
  0
VERTEX
  8
LAYER_2
 10
164.4823
 20
37.9567
  0
VERTEX
  8
LAYER_2
 10
163.8742
 20
37.9567
  0
SEQEND
  0
POLYLINE
  8
LAYER_2
 40
0.05
 41
0.05
 66
1
 10
0
 20
0
 30
0
 70
1
  0
VERTEX
  8
LAYER_2
 10
164.4823
 20
39.8622
 42
0.05012782438
  0
VERTEX
  8
LAYER_2
 10
164.9846
 20
39.8229
 42
0.1135299982
  0
VERTEX
  8
LAYER_2
 10
165.7697
 20
39.9822
 42
0.1653556145
  0
VERTEX
  8
LAYER_2
 10
166.1074
 20
40.3302
 42
0.1044590446
  0
VERTEX
  8
LAYER_2
 10
166.1656
 20
40.6273
 42
0.2826437488
  0
VERTEX
  8
LAYER_2
 10
165.8147
 20
41.2103
 42
0.0629694601
  0
VERTEX
  8
LAYER_2
 10
165.549
 20
41.3107
 42
0.06259589917
  0
VERTEX
  8
LAYER_2
 10
165.0552
 20
41.3649
 42
0.05192366909
  0
VERTEX
  8
LAYER_2
 10
164.4823
 20
41.3257
  0
SEQEND
  0
ENDBLK
  0
BLOCK
  8
LAYER_2
  2
AIGNBL0204000E
 70
64
 10
0
 20
0
 30
0
  3
AIGNBL0204000E
  0
POLYLINE
  8
LAYER_2
 40
0.05
 41
0.05
 66
1
 10
0
 20
0
 30
0
 70
1
  0
VERTEX
  8
LAYER_2
 10
168.3246
 20
41.4207
 42
-0.3048675751
  0
VERTEX
  8
LAYER_2
 10
168.1582
 20
41.1661
 42
-0.1151020929
  0
VERTEX
  8
LAYER_2
 10
167.9329
 20
41.1189
 42
-0.2442513348
  0
VERTEX
  8
LAYER_2
 10
167.6028
 20
41.2794
 42
-0.1394546152
  0
VERTEX
  8
LAYER_2
 10
167.5626
 20
41.4207
 42
-0.287439772
  0
VERTEX
  8
LAYER_2
 10
167.7346
 20
41.6803
 42
-0.1179404017
  0
VERTEX
  8
LAYER_2
 10
167.9467
 20
41.7277
 42
-0.2416274379
  0
VERTEX
  8
LAYER_2
 10
168.2814
 20
41.5719
 42
-0.1426378456
  0
SEQEND
  0
POLYLINE
  8
LAYER_2
 40
0.05
 41
0.05
 66
1
 10
0
 20
0
 30
0
 70
1
  0
VERTEX
  8
LAYER_2
 10
167.639
 20
37.9567
  0
VERTEX
  8
LAYER_2
 10
167.639
 20
40.6607
  0
VERTEX
  8
LAYER_2
 10
168.2537
 20
40.6607
  0
VERTEX
  8
LAYER_2
 10
168.2537
 20
37.9567
  0
SEQEND
  0
ENDBLK
  0
BLOCK
  8
LAYER_2
  2
AIGNBL0204000F
 70
64
 10
0
 20
0
 30
0
  3
AIGNBL0204000F
  0
POLYLINE
  8
LAYER_2
 40
0.05
 41
0.05
 66
1
 10
0
 20
0
 30
0
 70
1
  0
VERTEX
  8
LAYER_2
 10
170.1254
 20
39.1418
  0
VERTEX
  8
LAYER_2
 10
169.6372
 20
37.9567
  0
VERTEX
  8
LAYER_2
 10
169.0081
 20
37.9567
  0
VERTEX
  8
LAYER_2
 10
170.6077
 20
41.7225
  0
VERTEX
  8
LAYER_2
 10
171.3415
 20
41.7225
  0
VERTEX
  8
LAYER_2
 10
172.9479
 20
37.9567
  0
VERTEX
  8
LAYER_2
 10
172.2982
 20
37.9567
  0
VERTEX
  8
LAYER_2
 10
171.7955
 20
39.1418
  0
SEQEND
  0
POLYLINE
  8
LAYER_2
 40
0.05
 41
0.05
 66
1
 10
0
 20
0
 30
0
 70
1
  0
VERTEX
  8
LAYER_2
 10
171.6695
 20
39.5207
  0
VERTEX
  8
LAYER_2
 10
171.2085
 20
40.6056
 42
-0.02430767271
  0
VERTEX
  8
LAYER_2
 10
170.9646
 20
41.2926
  0
VERTEX
  8
LAYER_2
 10
170.9498
 20
41.2926
 42
-0.02034719794
  0
VERTEX
  8
LAYER_2
 10
170.7128
 20
40.6101
  0
VERTEX
  8
LAYER_2
 10
170.2518
 20
39.5207
  0
SEQEND
  0
ENDBLK
  0
BLOCK
  8
LAYER_2
  2
AIGNBL02030008
 70
64
 10
0
 20
0
 30
0
  3
AIGNBL02030008
  0
INSERT
  8
LAYER_2
  2
AIGNBL02040009
 10
0
 20
0
 30
0
  0
INSERT
  8
LAYER_2
  2
AIGNBL0204000A
 10
0
 20
0
 30
0
  0
INSERT
  8
LAYER_2
  2
AIGNBL0204000B
 10
0
 20
0
 30
0
  0
INSERT
  8
LAYER_2
  2
AIGNBL0204000C
 10
0
 20
0
 30
0
  0
INSERT
  8
LAYER_2
  2
AIGNBL0204000D
 10
0
 20
0
 30
0
  0
INSERT
  8
LAYER_2
  2
AIGNBL0204000E
 10
0
 20
0
 30
0
  0
INSERT
  8
LAYER_2
  2
AIGNBL0204000F
 10
0
 20
0
 30
0
  0
ENDBLK
  0
BLOCK
  8
LAYER_2
  2
AIGNBL02030011
 70
64
 10
0
 20
0
 30
0
  3
AIGNBL02030011
  0
POLYLINE
  8
LAYER_2
 40
0.05
 41
0.05
 66
1
 10
0
 20
0
 30
0
 70
1
  0
VERTEX
  8
LAYER_2
 10
145.7475
 20
36.0574
  0
VERTEX
  8
LAYER_2
 10
146.3008
 20
36.0574
  0
VERTEX
  8
LAYER_2
 10
146.3008
 20
35.9637
  0
VERTEX
  8
LAYER_2
 10
145.6424
 20
35.9637
  0
VERTEX
  8
LAYER_2
 10
145.6424
 20
36.9969
  0
VERTEX
  8
LAYER_2
 10
146.2832
 20
36.9969
  0
VERTEX
  8
LAYER_2
 10
146.2832
 20
36.9035
  0
VERTEX
  8
LAYER_2
 10
145.7475
 20
36.9035
  0
VERTEX
  8
LAYER_2
 10
145.7475
 20
36.549
  0
VERTEX
  8
LAYER_2
 10
146.2481
 20
36.549
  0
VERTEX
  8
LAYER_2
 10
146.2481
 20
36.4557
  0
VERTEX
  8
LAYER_2
 10
145.7475
 20
36.4557
  0
SEQEND
  0
ENDBLK
  0
BLOCK
  8
LAYER_2
  2
AIGNBL02030012
 70
64
 10
0
 20
0
 30
0
  3
AIGNBL02030012
  0
POLYLINE
  8
LAYER_2
 40
0.05
 41
0.05
 66
1
 10
0
 20
0
 30
0
 70
1
  0
VERTEX
  8
LAYER_2
 10
147.4404
 20
36.117
  0
VERTEX
  8
LAYER_2
 10
147.4432
 20
36.117
  0
VERTEX
  8
LAYER_2
 10
147.4432
 20
36.9969
  0
VERTEX
  8
LAYER_2
 10
147.5483
 20
36.9969
  0
VERTEX
  8
LAYER_2
 10
147.5483
 20
35.9637
  0
VERTEX
  8
LAYER_2
 10
147.4174
 20
35.9637
  0
VERTEX
  8
LAYER_2
 10
146.8162
 20
36.8525
  0
VERTEX
  8
LAYER_2
 10
146.8127
 20
36.8525
  0
VERTEX
  8
LAYER_2
 10
146.8127
 20
35.9637
  0
VERTEX
  8
LAYER_2
 10
146.708
 20
35.9637
  0
VERTEX
  8
LAYER_2
 10
146.708
 20
36.9969
  0
VERTEX
  8
LAYER_2
 10
146.8393
 20
36.9969
  0
SEQEND
  0
ENDBLK
  0
BLOCK
  8
LAYER_2
  2
AIGNBL02030013
 70
64
 10
0
 20
0
 30
0
  3
AIGNBL02030013
  0
POLYLINE
  8
LAYER_2
 40
0.05
 41
0.05
 66
1
 10
0
 20
0
 30
0
 70
1
  0
VERTEX
  8
LAYER_2
 10
148.0213
 20
36.1756
 42
0.1557655154
  0
VERTEX
  8
LAYER_2
 10
148.0757
 20
36.0725
 42
0.1918235184
  0
VERTEX
  8
LAYER_2
 10
148.1891
 20
36.0309
  0
VERTEX
  8
LAYER_2
 10
148.2783
 20
36.0505
  0
VERTEX
  8
LAYER_2
 10
148.3344
 20
36.1039
  0
VERTEX
  8
LAYER_2
 10
148.3634
 20
36.1804
  0
VERTEX
  8
LAYER_2
 10
148.3717
 20
36.27
  0
VERTEX
  8
LAYER_2
 10
148.3717
 20
36.9969
  0
VERTEX
  8
LAYER_2
 10
148.4767
 20
36.9969
  0
VERTEX
  8
LAYER_2
 10
148.4767
 20
36.2614
  0
VERTEX
  8
LAYER_2
 10
148.4654
 20
36.1535
 42
-0.0973308998
  0
VERTEX
  8
LAYER_2
 10
148.424
 20
36.0485
 42
-0.1149355521
  0
VERTEX
  8
LAYER_2
 10
148.3393
 20
35.9689
 42
-0.1249341208
  0
VERTEX
  8
LAYER_2
 10
148.2004
 20
35.9375
 42
-0.1793665557
  0
VERTEX
  8
LAYER_2
 10
148.0158
 20
35.9974
 42
-0.1772363953
  0
VERTEX
  8
LAYER_2
 10
147.9234
 20
36.149
  0
SEQEND
  0
ENDBLK
  0
BLOCK
  8
LAYER_2
  2
AIGNBL02030014
 70
64
 10
0
 20
0
 30
0
  3
AIGNBL02030014
  0
POLYLINE
  8
LAYER_2
 40
0.05
 41
0.05
 66
1
 10
0
 20
0
 30
0
 70
1
  0
VERTEX
  8
LAYER_2
 10
149.965
 20
36.4805
 42
-0.1019307791
  0
VERTEX
  8
LAYER_2
 10
149.924
 20
36.2631
 42
-0.1000112985
  0
VERTEX
  8
LAYER_2
 10
149.8113
 20
36.0915
 42
-0.09646612644
  0
VERTEX
  8
LAYER_2
 10
149.6405
 20
35.9785
 42
-0.09758594962
  0
VERTEX
  8
LAYER_2
 10
149.4265
 20
35.9375
 42
-0.1000844711
  0
VERTEX
  8
LAYER_2
 10
149.2129
 20
35.9785
 42
-0.09954994557
  0
VERTEX
  8
LAYER_2
 10
149.042
 20
36.0915
 42
-0.09699237735
  0
VERTEX
  8
LAYER_2
 10
148.9287
 20
36.2631
 42
-0.09653980076
  0
VERTEX
  8
LAYER_2
 10
148.8881
 20
36.4805
 42
-0.1004051845
  0
VERTEX
  8
LAYER_2
 10
148.9287
 20
36.6978
 42
-0.0998654539
  0
VERTEX
  8
LAYER_2
 10
149.042
 20
36.8694
 42
-0.09851519288
  0
VERTEX
  8
LAYER_2
 10
149.2129
 20
36.9824
 42
-0.09768823248
  0
VERTEX
  8
LAYER_2
 10
149.4265
 20
37.0234
 42
-0.1000514256
  0
VERTEX
  8
LAYER_2
 10
149.6405
 20
36.9824
 42
-0.09863053528
  0
VERTEX
  8
LAYER_2
 10
149.8113
 20
36.8694
 42
-0.09807107579
  0
VERTEX
  8
LAYER_2
 10
149.924
 20
36.6978
 42
-0.0978256893
  0
SEQEND
  0
POLYLINE
  8
LAYER_2
 40
0.05
 41
0.05
 66
1
 10
0
 20
0
 30
0
 70
1
  0
VERTEX
  8
LAYER_2
 10
149.8541
 20
36.4798
 42
0.08634913196
  0
VERTEX
  8
LAYER_2
 10
149.8251
 20
36.6517
 42
0.09649608129
  0
VERTEX
  8
LAYER_2
 10
149.7404
 20
36.795
 42
0.1032857511
  0
VERTEX
  8
LAYER_2
 10
149.6053
 20
36.8932
 42
0.1061320656
  0
VERTEX
  8
LAYER_2
 10
149.4265
 20
36.93
 42
0.1115874499
  0
VERTEX
  8
LAYER_2
 10
149.2478
 20
36.8932
 42
0.1058584166
  0
VERTEX
  8
LAYER_2
 10
149.113
 20
36.795
 42
0.09787799956
  0
VERTEX
  8
LAYER_2
 10
149.0283
 20
36.6517
 42
0.08491464556
  0
VERTEX
  8
LAYER_2
 10
148.999
 20
36.4798
 42
0.08693146424
  0
VERTEX
  8
LAYER_2
 10
149.0283
 20
36.3079
 42
0.1009797617
  0
VERTEX
  8
LAYER_2
 10
149.113
 20
36.1649
 42
0.09998489394
  0
VERTEX
  8
LAYER_2
 10
149.2478
 20
36.0674
 42
0.1061678446
  0
VERTEX
  8
LAYER_2
 10
149.4265
 20
36.0309
 42
0.1126980581
  0
VERTEX
  8
LAYER_2
 10
149.6053
 20
36.0674
 42
0.1036982708
  0
VERTEX
  8
LAYER_2
 10
149.7404
 20
36.1649
 42
0.09370250368
  0
VERTEX
  8
LAYER_2
 10
149.8251
 20
36.3079
 42
0.08466662837
  0
SEQEND
  0
ENDBLK
  0
BLOCK
  8
LAYER_2
  2
AIGNBL02030015
 70
64
 10
0
 20
0
 30
0
  3
AIGNBL02030015
  0
POLYLINE
  8
LAYER_2
 40
0.05
 41
0.05
 66
1
 10
0
 20
0
 30
0
 70
1
  0
VERTEX
  8
LAYER_2
 10
150.7398
 20
35.9637
  0
VERTEX
  8
LAYER_2
 10
150.6351
 20
35.9637
  0
VERTEX
  8
LAYER_2
 10
150.6351
 20
36.4091
  0
VERTEX
  8
LAYER_2
 10
150.2482
 20
36.9969
  0
VERTEX
  8
LAYER_2
 10
150.3795
 20
36.9969
  0
VERTEX
  8
LAYER_2
 10
150.6905
 20
36.4967
  0
VERTEX
  8
LAYER_2
 10
151.0041
 20
36.9969
  0
VERTEX
  8
LAYER_2
 10
151.1263
 20
36.9969
  0
VERTEX
  8
LAYER_2
 10
150.7398
 20
36.4091
  0
SEQEND
  0
ENDBLK
  0
BLOCK
  8
LAYER_2
  2
AIGNBL02030016
 70
64
 10
0
 20
0
 30
0
  3
AIGNBL02030016
  0
POLYLINE
  8
LAYER_2
 40
0.05
 41
0.05
 66
1
 10
0
 20
0
 30
0
 70
1
  0
VERTEX
  8
LAYER_2
 10
152.0314
 20
36.9969
  0
VERTEX
  8
LAYER_2
 10
152.339
 20
36.9969
  0
VERTEX
  8
LAYER_2
 10
152.4575
 20
36.9845
  0
VERTEX
  8
LAYER_2
 10
152.5643
 20
36.9421
 42
-0.1168262011
  0
VERTEX
  8
LAYER_2
 10
152.6422
 20
36.8611
 42
-0.1230288266
  0
VERTEX
  8
LAYER_2
 10
152.6718
 20
36.733
 42
-0.1795449175
  0
VERTEX
  8
LAYER_2
 10
152.6219
 20
36.5907
 42
-0.170141964
  0
VERTEX
  8
LAYER_2
 10
152.4885
 20
36.5111
  0
VERTEX
  8
LAYER_2
 10
152.4885
 20
36.5084
 42
-0.1719890535
  0
VERTEX
  8
LAYER_2
 10
152.6553
 20
36.4302
 42
-0.2018462152
  0
VERTEX
  8
LAYER_2
 10
152.7214
 20
36.2496
 42
-0.1247085485
  0
VERTEX
  8
LAYER_2
 10
152.6942
 20
36.1325
 42
-0.1153486961
  0
VERTEX
  8
LAYER_2
 10
152.6181
 20
36.0419
 42
-0.08656795839
  0
VERTEX
  8
LAYER_2
 10
152.4972
 20
35.9844
 42
-0.06557363107
  0
VERTEX
  8
LAYER_2
 10
152.3373
 20
35.9637
  0
VERTEX
  8
LAYER_2
 10
152.0314
 20
35.9637
  0
SEQEND
  0
POLYLINE
  8
LAYER_2
 40
0.05
 41
0.05
 66
1
 10
0
 20
0
 30
0
 70
1
  0
VERTEX
  8
LAYER_2
 10
152.1364
 20
36.5445
  0
VERTEX
  8
LAYER_2
 10
152.348
 20
36.5445
  0
VERTEX
  8
LAYER_2
 10
152.4248
 20
36.5535
  0
VERTEX
  8
LAYER_2
 10
152.4951
 20
36.5831
  0
VERTEX
  8
LAYER_2
 10
152.5471
 20
36.6396
 42
0.1162126025
  0
VERTEX
  8
LAYER_2
 10
152.5668
 20
36.7258
  0
VERTEX
  8
LAYER_2
 10
152.5471
 20
36.8095
  0
VERTEX
  8
LAYER_2
 10
152.494
 20
36.8656
  0
VERTEX
  8
LAYER_2
 10
152.4152
 20
36.897
  0
VERTEX
  8
LAYER_2
 10
152.3187
 20
36.9066
  0
VERTEX
  8
LAYER_2
 10
152.1364
 20
36.9066
  0
SEQEND
  0
POLYLINE
  8
LAYER_2
 40
0.05
 41
0.05
 66
1
 10
0
 20
0
 30
0
 70
1
  0
VERTEX
  8
LAYER_2
 10
152.1364
 20
36.0543
  0
VERTEX
  8
LAYER_2
 10
152.3321
 20
36.0543
  0
VERTEX
  8
LAYER_2
 10
152.4406
 20
36.0653
  0
VERTEX
  8
LAYER_2
 10
152.5313
 20
36.1001
 42
0.1172546835
  0
VERTEX
  8
LAYER_2
 10
152.5929
 20
36.1632
 42
0.1286243504
  0
VERTEX
  8
LAYER_2
 10
152.6164
 20
36.2559
 42
0.2498669706
  0
VERTEX
  8
LAYER_2
 10
152.5471
 20
36.4081
 42
0.1538083763
  0
VERTEX
  8
LAYER_2
 10
152.3511
 20
36.4584
  0
VERTEX
  8
LAYER_2
 10
152.1364
 20
36.4584
  0
SEQEND
  0
ENDBLK
  0
BLOCK
  8
LAYER_2
  2
AIGNBL02030017
 70
64
 10
0
 20
0
 30
0
  3
AIGNBL02030017
  0
POLYLINE
  8
LAYER_2
 40
0.05
 41
0.05
 66
1
 10
0
 20
0
 30
0
 70
1
  0
VERTEX
  8
LAYER_2
 10
153.1534
 20
35.9637
  0
VERTEX
  8
LAYER_2
 10
153.038
 20
35.9637
  0
VERTEX
  8
LAYER_2
 10
153.4849
 20
36.9969
  0
VERTEX
  8
LAYER_2
 10
153.5872
 20
36.9969
  0
VERTEX
  8
LAYER_2
 10
154.0306
 20
35.9637
  0
VERTEX
  8
LAYER_2
 10
153.9138
 20
35.9637
  0
VERTEX
  8
LAYER_2
 10
153.7997
 20
36.2352
  0
VERTEX
  8
LAYER_2
 10
153.2657
 20
36.2352
  0
SEQEND
  0
POLYLINE
  8
LAYER_2
 40
0.05
 41
0.05
 66
1
 10
0
 20
0
 30
0
 70
1
  0
VERTEX
  8
LAYER_2
 10
153.305
 20
36.3316
  0
VERTEX
  8
LAYER_2
 10
153.7604
 20
36.3316
  0
VERTEX
  8
LAYER_2
 10
153.5327
 20
36.8804
  0
SEQEND
  0
ENDBLK
  0
BLOCK
  8
LAYER_2
  2
AIGNBL02030018
 70
64
 10
0
 20
0
 30
0
  3
AIGNBL02030018
  0
POLYLINE
  8
LAYER_2
 40
0.05
 41
0.05
 66
1
 10
0
 20
0
 30
0
 70
1
  0
VERTEX
  8
LAYER_2
 10
154.7151
 20
35.9637
  0
VERTEX
  8
LAYER_2
 10
154.61
 20
35.9637
  0
VERTEX
  8
LAYER_2
 10
154.61
 20
36.9035
  0
VERTEX
  8
LAYER_2
 10
154.2638
 20
36.9035
  0
VERTEX
  8
LAYER_2
 10
154.2638
 20
36.9969
  0
VERTEX
  8
LAYER_2
 10
155.0606
 20
36.9969
  0
VERTEX
  8
LAYER_2
 10
155.0606
 20
36.9035
  0
VERTEX
  8
LAYER_2
 10
154.7151
 20
36.9035
  0
SEQEND
  0
ENDBLK
  0
BLOCK
  8
LAYER_2
  2
AIGNBL02030019
 70
64
 10
0
 20
0
 30
0
  3
AIGNBL02030019
  0
POLYLINE
  8
LAYER_2
 40
0.05
 41
0.05
 66
1
 10
0
 20
0
 30
0
 70
1
  0
VERTEX
  8
LAYER_2
 10
155.4169
 20
36.9969
  0
VERTEX
  8
LAYER_2
 10
155.5216
 20
36.9969
  0
VERTEX
  8
LAYER_2
 10
155.5216
 20
36.549
  0
VERTEX
  8
LAYER_2
 10
156.0852
 20
36.549
  0
VERTEX
  8
LAYER_2
 10
156.0852
 20
36.9969
  0
VERTEX
  8
LAYER_2
 10
156.1903
 20
36.9969
  0
VERTEX
  8
LAYER_2
 10
156.1903
 20
35.9637
  0
VERTEX
  8
LAYER_2
 10
156.0852
 20
35.9637
  0
VERTEX
  8
LAYER_2
 10
156.0852
 20
36.4529
  0
VERTEX
  8
LAYER_2
 10
155.5216
 20
36.4529
  0
VERTEX
  8
LAYER_2
 10
155.5216
 20
35.9637
  0
VERTEX
  8
LAYER_2
 10
155.4169
 20
35.9637
  0
SEQEND
  0
ENDBLK
  0
BLOCK
  8
LAYER_2
  2
AIGNBL0203001A
 70
64
 10
0
 20
0
 30
0
  3
AIGNBL0203001A
  0
POLYLINE
  8
LAYER_2
 40
0.05
 41
0.05
 66
1
 10
0
 20
0
 30
0
 70
1
  0
VERTEX
  8
LAYER_2
 10
156.7708
 20
35.9637
  0
VERTEX
  8
LAYER_2
 10
156.6657
 20
35.9637
  0
VERTEX
  8
LAYER_2
 10
156.6657
 20
36.9969
  0
VERTEX
  8
LAYER_2
 10
156.9696
 20
36.9969
  0
VERTEX
  8
LAYER_2
 10
157.1101
 20
36.9824
 42
-0.1032885834
  0
VERTEX
  8
LAYER_2
 10
157.2228
 20
36.9349
 42
-0.1280591957
  0
VERTEX
  8
LAYER_2
 10
157.2962
 20
36.8494
 42
-0.1078860225
  0
VERTEX
  8
LAYER_2
 10
157.3223
 20
36.7213
  0
VERTEX
  8
LAYER_2
 10
157.3024
 20
36.6176
  0
VERTEX
  8
LAYER_2
 10
157.2469
 20
36.5366
  0
VERTEX
  8
LAYER_2
 10
157.1635
 20
36.4818
  0
VERTEX
  8
LAYER_2
 10
157.0585
 20
36.4557
  0
VERTEX
  8
LAYER_2
 10
157.3606
 20
35.9637
  0
VERTEX
  8
LAYER_2
 10
157.2321
 20
35.9637
  0
VERTEX
  8
LAYER_2
 10
156.9461
 20
36.4467
  0
VERTEX
  8
LAYER_2
 10
156.7708
 20
36.4467
  0
SEQEND
  0
POLYLINE
  8
LAYER_2
 40
0.05
 41
0.05
 66
1
 10
0
 20
0
 30
0
 70
1
  0
VERTEX
  8
LAYER_2
 10
156.7708
 20
36.5373
  0
VERTEX
  8
LAYER_2
 10
156.9534
 20
36.5373
 42
0.153451873
  0
VERTEX
  8
LAYER_2
 10
157.1491
 20
36.5831
 42
0.2580279849
  0
VERTEX
  8
LAYER_2
 10
157.2176
 20
36.7213
  0
VERTEX
  8
LAYER_2
 10
157.1983
 20
36.8071
  0
VERTEX
  8
LAYER_2
 10
157.146
 20
36.8643
  0
VERTEX
  8
LAYER_2
 10
157.0643
 20
36.8963
  0
VERTEX
  8
LAYER_2
 10
156.9578
 20
36.9066
  0
VERTEX
  8
LAYER_2
 10
156.7708
 20
36.9066
  0
SEQEND
  0
ENDBLK
  0
BLOCK
  8
LAYER_2
  2
AIGNBL0203001B
 70
64
 10
0
 20
0
 30
0
  3
AIGNBL0203001B
  0
POLYLINE
  8
LAYER_2
 40
0.05
 41
0.05
 66
1
 10
0
 20
0
 30
0
 70
1
  0
VERTEX
  8
LAYER_2
 10
158.7627
 20
36.4805
 42
-0.09904480664
  0
VERTEX
  8
LAYER_2
 10
158.7221
 20
36.2631
 42
-0.09984043552
  0
VERTEX
  8
LAYER_2
 10
158.6087
 20
36.0915
 42
-0.09841590082
  0
VERTEX
  8
LAYER_2
 10
158.4382
 20
35.9785
 42
-0.09758412454
  0
VERTEX
  8
LAYER_2
 10
158.2243
 20
35.9375
 42
-0.09999517154
  0
VERTEX
  8
LAYER_2
 10
158.0103
 20
35.9785
 42
-0.09953435427
  0
VERTEX
  8
LAYER_2
 10
157.8398
 20
36.0915
 42
-0.09853706159
  0
VERTEX
  8
LAYER_2
 10
157.7268
 20
36.2631
 42
-0.09653980076
  0
VERTEX
  8
LAYER_2
 10
157.6862
 20
36.4805
 42
-0.1004051845
  0
VERTEX
  8
LAYER_2
 10
157.7268
 20
36.6978
 42
-0.1008040346
  0
VERTEX
  8
LAYER_2
 10
157.8398
 20
36.8694
 42
-0.09763764092
  0
VERTEX
  8
LAYER_2
 10
158.0103
 20
36.9824
 42
-0.09752919603
  0
VERTEX
  8
LAYER_2
 10
158.2243
 20
37.0234
 42
-0.1000174927
  0
VERTEX
  8
LAYER_2
 10
158.4382
 20
36.9824
 42
-0.1009762109
  0
VERTEX
  8
LAYER_2
 10
158.6087
 20
36.8694
 42
-0.09735230618
  0
VERTEX
  8
LAYER_2
 10
158.7221
 20
36.6978
 42
-0.09580191209
  0
SEQEND
  0
POLYLINE
  8
LAYER_2
 40
0.05
 41
0.05
 66
1
 10
0
 20
0
 30
0
 70
1
  0
VERTEX
  8
LAYER_2
 10
158.6518
 20
36.4798
 42
0.08852014676
  0
VERTEX
  8
LAYER_2
 10
158.6225
 20
36.6517
 42
0.09973444611
  0
VERTEX
  8
LAYER_2
 10
158.5378
 20
36.795
 42
0.1024799068
  0
VERTEX
  8
LAYER_2
 10
158.4031
 20
36.8932
 42
0.1060321998
  0
VERTEX
  8
LAYER_2
 10
158.2243
 20
36.93
 42
0.1116325688
  0
VERTEX
  8
LAYER_2
 10
158.0455
 20
36.8932
 42
0.1060506217
  0
VERTEX
  8
LAYER_2
 10
157.9104
 20
36.795
 42
0.09526104957
  0
VERTEX
  8
LAYER_2
 10
157.8257
 20
36.6517
 42
0.08422602157
  0
VERTEX
  8
LAYER_2
 10
157.7968
 20
36.4798
 42
0.0876992245
  0
VERTEX
  8
LAYER_2
 10
157.8257
 20
36.3079
 42
0.09826867926
  0
VERTEX
  8
LAYER_2
 10
157.9104
 20
36.1649
 42
0.09965756504
  0
VERTEX
  8
LAYER_2
 10
158.0455
 20
36.0674
 42
0.1061654103
  0
VERTEX
  8
LAYER_2
 10
158.2243
 20
36.0309
 42
0.1124388132
  0
VERTEX
  8
LAYER_2
 10
158.4031
 20
36.0674
 42
0.1029122982
  0
VERTEX
  8
LAYER_2
 10
158.5378
 20
36.1649
 42
0.09882210045
  0
VERTEX
  8
LAYER_2
 10
158.6225
 20
36.3079
 42
0.08589740831
  0
SEQEND
  0
ENDBLK
  0
BLOCK
  8
LAYER_2
  2
AIGNBL0203001C
 70
64
 10
0
 20
0
 30
0
  3
AIGNBL0203001C
  0
POLYLINE
  8
LAYER_2
 40
0.05
 41
0.05
 66
1
 10
0
 20
0
 30
0
 70
1
  0
VERTEX
  8
LAYER_2
 10
160.2045
 20
36.4805
 42
-0.1019307791
  0
VERTEX
  8
LAYER_2
 10
160.1635
 20
36.2631
 42
-0.09929652324
  0
VERTEX
  8
LAYER_2
 10
160.0509
 20
36.0915
 42
-0.09710469009
  0
VERTEX
  8
LAYER_2
 10
159.88
 20
35.9785
 42
-0.09758412454
  0
VERTEX
  8
LAYER_2
 10
159.6661
 20
35.9375
 42
-0.1005051182
  0
VERTEX
  8
LAYER_2
 10
159.4524
 20
35.9785
 42
-0.1009789173
  0
VERTEX
  8
LAYER_2
 10
159.2816
 20
36.0915
 42
-0.09724598852
  0
VERTEX
  8
LAYER_2
 10
159.1682
 20
36.2631
 42
-0.09653980076
  0
VERTEX
  8
LAYER_2
 10
159.1276
 20
36.4805
 42
-0.1004051845
  0
VERTEX
  8
LAYER_2
 10
159.1682
 20
36.6978
 42
-0.1001669327
  0
VERTEX
  8
LAYER_2
 10
159.2816
 20
36.8694
 42
-0.09846843416
  0
VERTEX
  8
LAYER_2
 10
159.4524
 20
36.9824
 42
-0.09783444074
  0
VERTEX
  8
LAYER_2
 10
159.6661
 20
37.0234
 42
-0.1000174927
  0
VERTEX
  8
LAYER_2
 10
159.88
 20
36.9824
 42
-0.098457988
  0
VERTEX
  8
LAYER_2
 10
160.0509
 20
36.8694
 42
-0.09762598086
  0
VERTEX
  8
LAYER_2
 10
160.1635
 20
36.6978
 42
-0.0978256893
  0
SEQEND
  0
POLYLINE
  8
LAYER_2
 40
0.05
 41
0.05
 66
1
 10
0
 20
0
 30
0
 70
1
  0
VERTEX
  8
LAYER_2
 10
160.0936
 20
36.4798
 42
0.08653869446
  0
VERTEX
  8
LAYER_2
 10
160.0647
 20
36.6517
 42
0.09689814906
  0
VERTEX
  8
LAYER_2
 10
159.9799
 20
36.795
 42
0.1032857511
  0
VERTEX
  8
LAYER_2
 10
159.8448
 20
36.8932
 42
0.1061350344
  0
VERTEX
  8
LAYER_2
 10
159.6661
 20
36.93
 42
0.1114208933
  0
VERTEX
  8
LAYER_2
 10
159.4872
 20
36.8932
 42
0.1056595975
  0
VERTEX
  8
LAYER_2
 10
159.3525
 20
36.795
 42
0.09787799956
  0
VERTEX
  8
LAYER_2
 10
159.2678
 20
36.6517
 42
0.08491464556
  0
VERTEX
  8
LAYER_2
 10
159.2385
 20
36.4798
 42
0.08693146424
  0
VERTEX
  8
LAYER_2
 10
159.2678
 20
36.3079
 42
0.1009797617
  0
VERTEX
  8
LAYER_2
 10
159.3525
 20
36.1649
 42
0.09978391674
  0
VERTEX
  8
LAYER_2
 10
159.4872
 20
36.0674
 42
0.1060616244
  0
VERTEX
  8
LAYER_2
 10
159.6661
 20
36.0309
 42
0.1126531325
  0
VERTEX
  8
LAYER_2
 10
159.8448
 20
36.0674
 42
0.1036982708
  0
VERTEX
  8
LAYER_2
 10
159.9799
 20
36.1649
 42
0.09401062747
  0
VERTEX
  8
LAYER_2
 10
160.0647
 20
36.3079
 42
0.0844927763
  0
SEQEND
  0
ENDBLK
  0
BLOCK
  8
LAYER_2
  2
AIGNBL0203001D
 70
64
 10
0
 20
0
 30
0
  3
AIGNBL0203001D
  0
POLYLINE
  8
LAYER_2
 40
0.05
 41
0.05
 66
1
 10
0
 20
0
 30
0
 70
1
  0
VERTEX
  8
LAYER_2
 10
161.1354
 20
36.1418
  0
VERTEX
  8
LAYER_2
 10
161.1371
 20
36.1418
  0
VERTEX
  8
LAYER_2
 10
161.4826
 20
36.9969
  0
VERTEX
  8
LAYER_2
 10
161.6435
 20
36.9969
  0
VERTEX
  8
LAYER_2
 10
161.6435
 20
35.9637
  0
VERTEX
  8
LAYER_2
 10
161.5381
 20
35.9637
  0
VERTEX
  8
LAYER_2
 10
161.5381
 20
36.8611
  0
VERTEX
  8
LAYER_2
 10
161.5354
 20
36.8611
  0
VERTEX
  8
LAYER_2
 10
161.1619
 20
35.9637
  0
VERTEX
  8
LAYER_2
 10
161.1064
 20
35.9637
  0
VERTEX
  8
LAYER_2
 10
160.7326
 20
36.8611
  0
VERTEX
  8
LAYER_2
 10
160.7299
 20
36.8611
  0
VERTEX
  8
LAYER_2
 10
160.7299
 20
35.9637
  0
VERTEX
  8
LAYER_2
 10
160.6248
 20
35.9637
  0
VERTEX
  8
LAYER_2
 10
160.6248
 20
36.9969
  0
VERTEX
  8
LAYER_2
 10
160.7853
 20
36.9969
  0
SEQEND
  0
ENDBLK
  0
BLOCK
  8
LAYER_2
  2
AIGNBL0203001E
 70
64
 10
0
 20
0
 30
0
  3
AIGNBL0203001E
  0
POLYLINE
  8
LAYER_2
 40
0.05
 41
0.05
 66
1
 10
0
 20
0
 30
0
 70
1
  0
VERTEX
  8
LAYER_2
 10
162.79
 20
36.0574
  0
VERTEX
  8
LAYER_2
 10
163.3433
 20
36.0574
  0
VERTEX
  8
LAYER_2
 10
163.3433
 20
35.9637
  0
VERTEX
  8
LAYER_2
 10
162.685
 20
35.9637
  0
VERTEX
  8
LAYER_2
 10
162.685
 20
36.9969
  0
VERTEX
  8
LAYER_2
 10
163.3258
 20
36.9969
  0
VERTEX
  8
LAYER_2
 10
163.3258
 20
36.9035
  0
VERTEX
  8
LAYER_2
 10
162.79
 20
36.9035
  0
VERTEX
  8
LAYER_2
 10
162.79
 20
36.549
  0
VERTEX
  8
LAYER_2
 10
163.2906
 20
36.549
  0
VERTEX
  8
LAYER_2
 10
163.2906
 20
36.4557
  0
VERTEX
  8
LAYER_2
 10
162.79
 20
36.4557
  0
SEQEND
  0
ENDBLK
  0
BLOCK
  8
LAYER_2
  2
AIGNBL0203001F
 70
64
 10
0
 20
0
 30
0
  3
AIGNBL0203001F
  0
POLYLINE
  8
LAYER_2
 40
0.05
 41
0.05
 66
1
 10
0
 20
0
 30
0
 70
1
  0
VERTEX
  8
LAYER_2
 10
164.0885
 20
36.5797
  0
VERTEX
  8
LAYER_2
 10
164.3707
 20
36.9969
  0
VERTEX
  8
LAYER_2
 10
164.4957
 20
36.9969
  0
VERTEX
  8
LAYER_2
 10
164.1533
 20
36.5053
  0
VERTEX
  8
LAYER_2
 10
164.5326
 20
35.9637
  0
VERTEX
  8
LAYER_2
 10
164.4013
 20
35.9637
  0
VERTEX
  8
LAYER_2
 10
164.0858
 20
36.4295
  0
VERTEX
  8
LAYER_2
 10
163.7722
 20
35.9637
  0
VERTEX
  8
LAYER_2
 10
163.6407
 20
35.9637
  0
VERTEX
  8
LAYER_2
 10
164.0203
 20
36.5066
  0
VERTEX
  8
LAYER_2
 10
163.6744
 20
36.9969
  0
VERTEX
  8
LAYER_2
 10
163.806
 20
36.9969
  0
SEQEND
  0
ENDBLK
  0
BLOCK
  8
LAYER_2
  2
AIGNBL02030020
 70
64
 10
0
 20
0
 30
0
  3
AIGNBL02030020
  0
POLYLINE
  8
LAYER_2
 40
0.05
 41
0.05
 66
1
 10
0
 20
0
 30
0
 70
1
  0
VERTEX
  8
LAYER_2
 10
164.8988
 20
36.9969
  0
VERTEX
  8
LAYER_2
 10
165.1909
 20
36.9969
  0
VERTEX
  8
LAYER_2
 10
165.3339
 20
36.9804
 42
-0.104160294
  0
VERTEX
  8
LAYER_2
 10
165.4438
 20
36.929
 42
-0.1209616443
  0
VERTEX
  8
LAYER_2
 10
165.5148
 20
36.8429
 42
-0.1032545831
  0
VERTEX
  8
LAYER_2
 10
165.5392
 20
36.7213
 42
-0.1239274235
  0
VERTEX
  8
LAYER_2
 10
165.5141
 20
36.5993
 42
-0.1163667494
  0
VERTEX
  8
LAYER_2
 10
165.4424
 20
36.5132
 42
-0.08715194998
  0
VERTEX
  8
LAYER_2
 10
165.3315
 20
36.4615
 42
-0.06075348808
  0
VERTEX
  8
LAYER_2
 10
165.1878
 20
36.444
  0
VERTEX
  8
LAYER_2
 10
165.0039
 20
36.444
  0
VERTEX
  8
LAYER_2
 10
165.0039
 20
35.9637
  0
VERTEX
  8
LAYER_2
 10
164.8988
 20
35.9637
  0
SEQEND
  0
POLYLINE
  8
LAYER_2
 40
0.05
 41
0.05
 66
1
 10
0
 20
0
 30
0
 70
1
  0
VERTEX
  8
LAYER_2
 10
165.0039
 20
36.5328
  0
VERTEX
  8
LAYER_2
 10
165.1816
 20
36.5328
 42
0.1694225951
  0
VERTEX
  8
LAYER_2
 10
165.3701
 20
36.581
 42
0.2442570363
  0
VERTEX
  8
LAYER_2
 10
165.4345
 20
36.7213
 42
0.2590967024
  0
VERTEX
  8
LAYER_2
 10
165.368
 20
36.8622
 42
0.143072224
  0
VERTEX
  8
LAYER_2
 10
165.1816
 20
36.9066
  0
VERTEX
  8
LAYER_2
 10
165.0039
 20
36.9066
  0
SEQEND
  0
ENDBLK
  0
BLOCK
  8
LAYER_2
  2
AIGNBL02030021
 70
64
 10
0
 20
0
 30
0
  3
AIGNBL02030021
  0
POLYLINE
  8
LAYER_2
 40
0.05
 41
0.05
 66
1
 10
0
 20
0
 30
0
 70
1
  0
VERTEX
  8
LAYER_2
 10
166.0515
 20
36.0574
  0
VERTEX
  8
LAYER_2
 10
166.6048
 20
36.0574
  0
VERTEX
  8
LAYER_2
 10
166.6048
 20
35.9637
  0
VERTEX
  8
LAYER_2
 10
165.9465
 20
35.9637
  0
VERTEX
  8
LAYER_2
 10
165.9465
 20
36.9969
  0
VERTEX
  8
LAYER_2
 10
166.5872
 20
36.9969
  0
VERTEX
  8
LAYER_2
 10
166.5872
 20
36.9035
  0
VERTEX
  8
LAYER_2
 10
166.0515
 20
36.9035
  0
VERTEX
  8
LAYER_2
 10
166.0515
 20
36.549
  0
VERTEX
  8
LAYER_2
 10
166.5521
 20
36.549
  0
VERTEX
  8
LAYER_2
 10
166.5521
 20
36.4557
  0
VERTEX
  8
LAYER_2
 10
166.0515
 20
36.4557
  0
SEQEND
  0
ENDBLK
  0
BLOCK
  8
LAYER_2
  2
AIGNBL02030022
 70
64
 10
0
 20
0
 30
0
  3
AIGNBL02030022
  0
POLYLINE
  8
LAYER_2
 40
0.05
 41
0.05
 66
1
 10
0
 20
0
 30
0
 70
1
  0
VERTEX
  8
LAYER_2
 10
167.1168
 20
35.9637
  0
VERTEX
  8
LAYER_2
 10
167.0117
 20
35.9637
  0
VERTEX
  8
LAYER_2
 10
167.0117
 20
36.9969
  0
VERTEX
  8
LAYER_2
 10
167.3155
 20
36.9969
  0
VERTEX
  8
LAYER_2
 10
167.4561
 20
36.9824
 42
-0.1039428931
  0
VERTEX
  8
LAYER_2
 10
167.5687
 20
36.9349
 42
-0.1259973384
  0
VERTEX
  8
LAYER_2
 10
167.6425
 20
36.8494
 42
-0.1064650891
  0
VERTEX
  8
LAYER_2
 10
167.6683
 20
36.7213
  0
VERTEX
  8
LAYER_2
 10
167.6483
 20
36.6176
  0
VERTEX
  8
LAYER_2
 10
167.5929
 20
36.5366
  0
VERTEX
  8
LAYER_2
 10
167.5095
 20
36.4818
  0
VERTEX
  8
LAYER_2
 10
167.4044
 20
36.4557
  0
VERTEX
  8
LAYER_2
 10
167.7066
 20
35.9637
  0
VERTEX
  8
LAYER_2
 10
167.578
 20
35.9637
  0
VERTEX
  8
LAYER_2
 10
167.2921
 20
36.4467
  0
VERTEX
  8
LAYER_2
 10
167.1168
 20
36.4467
  0
SEQEND
  0
POLYLINE
  8
LAYER_2
 40
0.05
 41
0.05
 66
1
 10
0
 20
0
 30
0
 70
1
  0
VERTEX
  8
LAYER_2
 10
167.1168
 20
36.5373
  0
VERTEX
  8
LAYER_2
 10
167.2994
 20
36.5373
 42
0.1542400453
  0
VERTEX
  8
LAYER_2
 10
167.495
 20
36.5831
 42
0.2583775622
  0
VERTEX
  8
LAYER_2
 10
167.5636
 20
36.7213
  0
VERTEX
  8
LAYER_2
 10
167.5446
 20
36.8071
  0
VERTEX
  8
LAYER_2
 10
167.4919
 20
36.8643
  0
VERTEX
  8
LAYER_2
 10
167.4103
 20
36.8963
  0
VERTEX
  8
LAYER_2
 10
167.3038
 20
36.9066
  0
VERTEX
  8
LAYER_2
 10
167.1168
 20
36.9066
  0
SEQEND
  0
ENDBLK
  0
BLOCK
  8
LAYER_2
  2
AIGNBL02030023
 70
64
 10
0
 20
0
 30
0
  3
AIGNBL02030023
  0
POLYLINE
  8
LAYER_2
 40
0.05
 41
0.05
 66
1
 10
0
 20
0
 30
0
 70
1
  0
VERTEX
  8
LAYER_2
 10
168.1923
 20
35.9637
  0
VERTEX
  8
LAYER_2
 10
168.0876
 20
35.9637
  0
VERTEX
  8
LAYER_2
 10
168.0876
 20
36.9969
  0
VERTEX
  8
LAYER_2
 10
168.1923
 20
36.9969
  0
SEQEND
  0
ENDBLK
  0
BLOCK
  8
LAYER_2
  2
AIGNBL02030024
 70
64
 10
0
 20
0
 30
0
  3
AIGNBL02030024
  0
POLYLINE
  8
LAYER_2
 40
0.05
 41
0.05
 66
1
 10
0
 20
0
 30
0
 70
1
  0
VERTEX
  8
LAYER_2
 10
168.7732
 20
36.0574
  0
VERTEX
  8
LAYER_2
 10
169.3261
 20
36.0574
  0
VERTEX
  8
LAYER_2
 10
169.3261
 20
35.9637
  0
VERTEX
  8
LAYER_2
 10
168.6681
 20
35.9637
  0
VERTEX
  8
LAYER_2
 10
168.6681
 20
36.9969
  0
VERTEX
  8
LAYER_2
 10
169.3089
 20
36.9969
  0
VERTEX
  8
LAYER_2
 10
169.3089
 20
36.9035
  0
VERTEX
  8
LAYER_2
 10
168.7732
 20
36.9035
  0
VERTEX
  8
LAYER_2
 10
168.7732
 20
36.549
  0
VERTEX
  8
LAYER_2
 10
169.2737
 20
36.549
  0
VERTEX
  8
LAYER_2
 10
169.2737
 20
36.4557
  0
VERTEX
  8
LAYER_2
 10
168.7732
 20
36.4557
  0
SEQEND
  0
ENDBLK
  0
BLOCK
  8
LAYER_2
  2
AIGNBL02030025
 70
64
 10
0
 20
0
 30
0
  3
AIGNBL02030025
  0
POLYLINE
  8
LAYER_2
 40
0.05
 41
0.05
 66
1
 10
0
 20
0
 30
0
 70
1
  0
VERTEX
  8
LAYER_2
 10
170.4661
 20
36.117
  0
VERTEX
  8
LAYER_2
 10
170.4689
 20
36.117
  0
VERTEX
  8
LAYER_2
 10
170.4689
 20
36.9969
  0
VERTEX
  8
LAYER_2
 10
170.5739
 20
36.9969
  0
VERTEX
  8
LAYER_2
 10
170.5739
 20
35.9637
  0
VERTEX
  8
LAYER_2
 10
170.4426
 20
35.9637
  0
VERTEX
  8
LAYER_2
 10
169.8415
 20
36.8525
  0
VERTEX
  8
LAYER_2
 10
169.8384
 20
36.8525
  0
VERTEX
  8
LAYER_2
 10
169.8384
 20
35.9637
  0
VERTEX
  8
LAYER_2
 10
169.7333
 20
35.9637
  0
VERTEX
  8
LAYER_2
 10
169.7333
 20
36.9969
  0
VERTEX
  8
LAYER_2
 10
169.8649
 20
36.9969
  0
SEQEND
  0
ENDBLK
  0
BLOCK
  8
LAYER_2
  2
AIGNBL02030026
 70
64
 10
0
 20
0
 30
0
  3
AIGNBL02030026
  0
POLYLINE
  8
LAYER_2
 40
0.05
 41
0.05
 66
1
 10
0
 20
0
 30
0
 70
1
  0
VERTEX
  8
LAYER_2
 10
171.9196
 20
36.1315
  0
VERTEX
  8
LAYER_2
 10
171.8558
 20
36.0571
  0
VERTEX
  8
LAYER_2
 10
171.7697
 20
35.9954
  0
VERTEX
  8
LAYER_2
 10
171.6615
 20
35.953
  0
VERTEX
  8
LAYER_2
 10
171.5327
 20
35.9375
 42
-0.0997799169
  0
VERTEX
  8
LAYER_2
 10
171.3167
 20
35.9785
 42
-0.102530266
  0
VERTEX
  8
LAYER_2
 10
171.1461
 20
36.0915
 42
-0.09968794278
  0
VERTEX
  8
LAYER_2
 10
171.0345
 20
36.2631
 42
-0.09630702324
  0
VERTEX
  8
LAYER_2
 10
170.9942
 20
36.4805
 42
-0.1018981748
  0
VERTEX
  8
LAYER_2
 10
171.0352
 20
36.6978
 42
-0.09989904409
  0
VERTEX
  8
LAYER_2
 10
171.1479
 20
36.8694
 42
-0.09694965588
  0
VERTEX
  8
LAYER_2
 10
171.3187
 20
36.9824
 42
-0.09744116728
  0
VERTEX
  8
LAYER_2
 10
171.5327
 20
37.0234
  0
VERTEX
  8
LAYER_2
 10
171.6443
 20
37.0114
  0
VERTEX
  8
LAYER_2
 10
171.7473
 20
36.9779
  0
VERTEX
  8
LAYER_2
 10
171.8348
 20
36.9263
  0
VERTEX
  8
LAYER_2
 10
171.9006
 20
36.8584
  0
VERTEX
  8
LAYER_2
 10
171.8131
 20
36.794
  0
VERTEX
  8
LAYER_2
 10
171.7697
 20
36.8439
  0
VERTEX
  8
LAYER_2
 10
171.7063
 20
36.8877
  0
VERTEX
  8
LAYER_2
 10
171.6267
 20
36.9183
  0
VERTEX
  8
LAYER_2
 10
171.5341
 20
36.93
 42
0.1106055686
  0
VERTEX
  8
LAYER_2
 10
171.3539
 20
36.8935
 42
0.1037389517
  0
VERTEX
  8
LAYER_2
 10
171.2188
 20
36.7954
 42
0.09534605581
  0
VERTEX
  8
LAYER_2
 10
171.1341
 20
36.652
 42
0.08447361069
  0
VERTEX
  8
LAYER_2
 10
171.1052
 20
36.4805
 42
0.09038739564
  0
VERTEX
  8
LAYER_2
 10
171.1351
 20
36.3089
 42
0.09795352863
  0
VERTEX
  8
LAYER_2
 10
171.2205
 20
36.1656
 42
0.1034747097
  0
VERTEX
  8
LAYER_2
 10
171.3556
 20
36.0674
 42
0.1064777274
  0
VERTEX
  8
LAYER_2
 10
171.5341
 20
36.0309
 42
0.1092499226
  0
VERTEX
  8
LAYER_2
 10
171.7032
 20
36.0674
 42
0.1370031249
  0
VERTEX
  8
LAYER_2
 10
171.8376
 20
36.1842
  0
SEQEND
  0
ENDBLK
  0
BLOCK
  8
LAYER_2
  2
AIGNBL02030027
 70
64
 10
0
 20
0
 30
0
  3
AIGNBL02030027
  0
POLYLINE
  8
LAYER_2
 40
0.05
 41
0.05
 66
1
 10
0
 20
0
 30
0
 70
1
  0
VERTEX
  8
LAYER_2
 10
172.4067
 20
36.0574
  0
VERTEX
  8
LAYER_2
 10
172.96
 20
36.0574
  0
VERTEX
  8
LAYER_2
 10
172.96
 20
35.9637
  0
VERTEX
  8
LAYER_2
 10
172.3016
 20
35.9637
  0
VERTEX
  8
LAYER_2
 10
172.3016
 20
36.9969
  0
VERTEX
  8
LAYER_2
 10
172.9424
 20
36.9969
  0
VERTEX
  8
LAYER_2
 10
172.9424
 20
36.9035
  0
VERTEX
  8
LAYER_2
 10
172.4067
 20
36.9035
  0
VERTEX
  8
LAYER_2
 10
172.4067
 20
36.549
  0
VERTEX
  8
LAYER_2
 10
172.9073
 20
36.549
  0
VERTEX
  8
LAYER_2
 10
172.9073
 20
36.4557
  0
VERTEX
  8
LAYER_2
 10
172.4067
 20
36.4557
  0
SEQEND
  0
ENDBLK
  0
BLOCK
  8
LAYER_2
  2
AIGNBL02020004
 70
64
 10
0
 20
0
 30
0
  3
AIGNBL02020004
  0
POLYLINE
  8
LAYER_2
 40
0.05
 41
0.05
 66
1
 10
0
 20
0
 30
0
  0
VERTEX
  8
LAYER_2
 10
-1.196
 20
217.6012
 42
-0.04245719054
  0
VERTEX
  8
LAYER_2
 10
-1.2437
 20
216.7495
 42
-0.1145799327
  0
VERTEX
  8
LAYER_2
 10
-1.4854
 20
216.1042
 42
-0.03657724702
  0
VERTEX
  8
LAYER_2
 10
-1.5732
 20
216.0054
 42
-0.1577844027
  0
VERTEX
  8
LAYER_2
 10
-2.1025
 20
215.7362
 42
-0.04286355862
  0
VERTEX
  8
LAYER_2
 10
-2.3408
 20
215.7164
 42
-0.1461347274
  0
VERTEX
  8
LAYER_2
 10
-2.9525
 20
215.8874
 42
-0.04825720136
  0
VERTEX
  8
LAYER_2
 10
-3.0956
 20
216.0054
 42
-0.1514389093
  0
VERTEX
  8
LAYER_2
 10
-3.3903
 20
216.5711
 42
-0.04033585951
  0
VERTEX
  8
LAYER_2
 10
-3.4563
 20
217.0249
 42
-0.01781626242
  0
VERTEX
  8
LAYER_2
 10
-3.4732
 20
217.6012
 42
-0.04130139583
  0
VERTEX
  8
LAYER_2
 10
-3.4273
 20
218.4296
 42
-0.115134122
  0
VERTEX
  8
LAYER_2
 10
-3.1834
 20
219.0859
 42
-0.03655204802
  0
VERTEX
  8
LAYER_2
 10
-3.0956
 20
219.1845
 42
-0.2077091659
  0
VERTEX
  8
LAYER_2
 10
-2.3408
 20
219.4732
 42
-0.1450941273
  0
VERTEX
  8
LAYER_2
 10
-1.7165
 20
219.3022
 42
-0.04840000405
  0
VERTEX
  8
LAYER_2
 10
-1.5732
 20
219.1845
 42
-0.1513847701
  0
VERTEX
  8
LAYER_2
 10
-1.2787
 20
218.6201
 42
-0.04039612069
  0
VERTEX
  8
LAYER_2
 10
-1.2128
 20
218.1697
 42
-0.01794233576
  0
VERTEX
  8
LAYER_2
 10
-1.196
 20
217.6012
  0
SEQEND
  0
POLYLINE
  8
LAYER_2
 40
0.05
 41
0.05
 66
1
 10
0
 20
0
 30
0
  0
VERTEX
  8
LAYER_2
 10
0.4394
 20
217.6012
 42
0.03175065208
  0
VERTEX
  8
LAYER_2
 10
0.3919
 20
218.5427
 42
0.07858555415
  0
VERTEX
  8
LAYER_2
 10
0.123
 20
219.5272
 42
0.07786217308
  0
VERTEX
  8
LAYER_2
 10
-0.303
 20
220.1395
 42
0.1422741765
  0
VERTEX
  8
LAYER_2
 10
-1.5044
 20
220.8409
 42
0.06575783118
  0
VERTEX
  8
LAYER_2
 10
-2.3408
 20
220.9436
 42
0.08626163736
  0
VERTEX
  8
LAYER_2
 10
-3.3996
 20
220.7669
 42
0.1130730203
  0
VERTEX
  8
LAYER_2
 10
-4.3662
 20
220.1395
 42
0.09873852385
  0
VERTEX
  8
LAYER_2
 10
-4.8748
 20
219.3361
 42
0.04046067269
  0
VERTEX
  8
LAYER_2
 10
-5.006
 20
218.8809
 42
0.03220856709
  0
VERTEX
  8
LAYER_2
 10
-5.0854
 20
218.2915
 42
0.01857685015
  0
VERTEX
  8
LAYER_2
 10
-5.1082
 20
217.6012
 42
0.03149278186
  0
VERTEX
  8
LAYER_2
 10
-5.0608
 20
216.6571
 42
0.0779698511
  0
VERTEX
  8
LAYER_2
 10
-4.7923
 20
215.6655
 42
0.07853580552
  0
VERTEX
  8
LAYER_2
 10
-4.3662
 20
215.0504
 42
0.1826502598
  0
VERTEX
  8
LAYER_2
 10
-2.668
 20
214.2613
 42
0.02311737764
  0
VERTEX
  8
LAYER_2
 10
-2.3408
 20
214.2463
 42
0.08564977323
  0
VERTEX
  8
LAYER_2
 10
-1.2772
 20
214.423
 42
0.1129150187
  0
VERTEX
  8
LAYER_2
 10
-0.303
 20
215.0504
 42
0.1497181056
  0
VERTEX
  8
LAYER_2
 10
0.3325
 20
216.2722
 42
0.03273812963
  0
VERTEX
  8
LAYER_2
 10
0.4143
 20
216.8609
 42
0.01955851524
  0
VERTEX
  8
LAYER_2
 10
0.4394
 20
217.6012
  0
SEQEND
  0
POLYLINE
  8
LAYER_2
 40
0.05
 41
0.05
 66
1
 10
0
 20
0
 30
0
  0
VERTEX
  8
LAYER_2
 10
-11.3166
 20
218.2044
  0
VERTEX
  8
LAYER_2
 10
-13.8074
 20
218.2044
 42
-0.1126267973
  0
VERTEX
  8
LAYER_2
 10
-13.6562
 20
218.9079
 42
-0.1394863081
  0
VERTEX
  8
LAYER_2
 10
-13.2507
 20
219.3934
 42
-0.1317584651
  0
VERTEX
  8
LAYER_2
 10
-12.676
 20
219.5824
 42
-0.01996454454
  0
VERTEX
  8
LAYER_2
 10
-12.562
 20
219.5866
 42
-0.137467943
  0
VERTEX
  8
LAYER_2
 10
-11.8991
 20
219.4101
 42
-0.150691583
  0
VERTEX
  8
LAYER_2
 10
-11.4672
 20
218.9079
 42
-0.1174358853
  0
VERTEX
  8
LAYER_2
 10
-11.3166
 20
218.2044
  0
SEQEND
  0
POLYLINE
  8
LAYER_2
 40
0.05
 41
0.05
 66
1
 10
0
 20
0
 30
0
 70
1
  0
VERTEX
  8
LAYER_2
 10
-9.7064
 20
217.0861
  0
VERTEX
  8
LAYER_2
 10
-9.7064
 20
217.7772
 42
0.07163312002
  0
VERTEX
  8
LAYER_2
 10
-9.8733
 20
218.9838
 42
0.08028385511
  0
VERTEX
  8
LAYER_2
 10
-10.299
 20
219.8659
 42
0.0865588964
  0
VERTEX
  8
LAYER_2
 10
-10.9136
 20
220.4722
 42
0.08455684744
  0
VERTEX
  8
LAYER_2
 10
-11.6929
 20
220.8316
 42
0.06903226706
  0
VERTEX
  8
LAYER_2
 10
-12.562
 20
220.9436
 42
0.08515866825
  0
VERTEX
  8
LAYER_2
 10
-13.5923
 20
220.7733
 42
0.2152076095
  0
VERTEX
  8
LAYER_2
 10
-15.1128
 20
219.2869
 42
0.07250212731
  0
VERTEX
  8
LAYER_2
 10
-15.3825
 20
218.223
 42
0.02934637219
  0
VERTEX
  8
LAYER_2
 10
-15.4177
 20
217.6012
 42
0.06683021014
  0
VERTEX
  8
LAYER_2
 10
-15.2459
 20
216.2162
 42
0.08312981404
  0
VERTEX
  8
LAYER_2
 10
-14.8229
 20
215.3116
 42
0.184288283
  0
VERTEX
  8
LAYER_2
 10
-13.3775
 20
214.3603
 42
0.06413161868
  0
VERTEX
  8
LAYER_2
 10
-12.386
 20
214.2463
 42
0.07683816196
  0
VERTEX
  8
LAYER_2
 10
-11.1942
 20
214.4123
 42
0.08470040866
  0
VERTEX
  8
LAYER_2
 10
-10.383
 20
214.8416
 42
0.03763897922
  0
VERTEX
  8
LAYER_2
 10
-9.8948
 20
215.2768
  0
VERTEX
  8
LAYER_2
 10
-10.8887
 20
216.2442
 42
-0.1072414833
  0
VERTEX
  8
LAYER_2
 10
-11.6397
 20
215.7366
 42
-0.09138316631
  0
VERTEX
  8
LAYER_2
 10
-12.3732
 20
215.6285
 42
-0.1206713536
  0
VERTEX
  8
LAYER_2
 10
-13.1336
 20
215.8026
 42
-0.1907051017
  0
VERTEX
  8
LAYER_2
 10
-13.7142
 20
216.4979
 42
-0.08636520349
  0
VERTEX
  8
LAYER_2
 10
-13.8074
 20
217.0861
  0
SEQEND
  0
POLYLINE
  8
LAYER_2
 40
0.05
 41
0.05
 66
1
 10
0
 20
0
 30
0
 70
1
  0
VERTEX
  8
LAYER_2
 10
-16.9018
 20
223.2773
  0
VERTEX
  8
LAYER_2
 10
-18.5517
 20
223.2773
  0
VERTEX
  8
LAYER_2
 10
-18.5517
 20
221.9454
  0
VERTEX
  8
LAYER_2
 10
-16.9018
 20
221.9454
  0
SEQEND
  0
POLYLINE
  8
LAYER_2
 40
0.05
 41
0.05
 66
1
 10
0
 20
0
 30
0
 70
1
  0
VERTEX
  8
LAYER_2
 10
-16.9146
 20
220.79
  0
VERTEX
  8
LAYER_2
 10
-18.5499
 20
220.79
  0
VERTEX
  8
LAYER_2
 10
-18.5499
 20
214.3218
  0
VERTEX
  8
LAYER_2
 10
-16.9146
 20
214.3218
  0
SEQEND
  0
POLYLINE
  8
LAYER_2
 40
0.05
 41
0.05
 66
1
 10
0
 20
0
 30
0
  0
VERTEX
  8
LAYER_2
 10
-19.8205
 20
215.1386
  0
VERTEX
  8
LAYER_2
 10
-20.9274
 20
216.2317
 42
-0.1240518821
  0
VERTEX
  8
LAYER_2
 10
-21.5761
 20
215.7751
 42
-0.08031715103
  0
VERTEX
  8
LAYER_2
 10
-21.984
 20
215.7164
 42
-0.1386946894
  0
VERTEX
  8
LAYER_2
 10
-22.625
 20
215.8856
 42
-0.08219094685
  0
VERTEX
  8
LAYER_2
 10
-22.9149
 20
216.1436
 42
-0.1253393202
  0
VERTEX
  8
LAYER_2
 10
-23.215
 20
216.8347
 42
-0.05211869655
  0
VERTEX
  8
LAYER_2
 10
-23.2797
 20
217.6012
 42
-0.0435450793
  0
VERTEX
  8
LAYER_2
 10
-23.2306
 20
218.2793
 42
-0.1072750387
  0
VERTEX
  8
LAYER_2
 10
-22.9604
 20
218.9857
 42
-0.01439054395
  0
VERTEX
  8
LAYER_2
 10
-22.9149
 20
219.0461
 42
-0.143087315
  0
VERTEX
  8
LAYER_2
 10
-22.387
 20
219.4143
 42
-0.07946465155
  0
VERTEX
  8
LAYER_2
 10
-21.984
 20
219.4732
 42
-0.1421084185
  0
VERTEX
  8
LAYER_2
 10
-21.3214
 20
219.2962
 42
-0.06975828358
  0
VERTEX
  8
LAYER_2
 10
-20.9274
 20
218.9585
  0
VERTEX
  8
LAYER_2
 10
-19.8205
 20
220.0637
 42
0.08882909472
  0
VERTEX
  8
LAYER_2
 10
-20.632
 20
220.6645
 42
0.08605806955
  0
VERTEX
  8
LAYER_2
 10
-21.5364
 20
220.9189
 42
0.02865290108
  0
VERTEX
  8
LAYER_2
 10
-21.984
 20
220.9436
 42
0.0806713287
  0
VERTEX
  8
LAYER_2
 10
-23.0569
 20
220.7735
 42
0.08357777431
  0
VERTEX
  8
LAYER_2
 10
-23.8317
 20
220.3573
 42
0.09024198391
  0
VERTEX
  8
LAYER_2
 10
-24.4186
 20
219.692
 42
0.07835989587
  0
VERTEX
  8
LAYER_2
 10
-24.7811
 20
218.801
 42
0.06322906838
  0
VERTEX
  8
LAYER_2
 10
-24.9151
 20
217.6012
 42
0.06782437491
  0
VERTEX
  8
LAYER_2
 10
-24.7438
 20
216.2613
 42
0.08255528881
  0
VERTEX
  8
LAYER_2
 10
-24.3104
 20
215.3428
 42
0.176800775
  0
VERTEX
  8
LAYER_2
 10
-22.8675
 20
214.3603
 42
0.06692285682
  0
VERTEX
  8
LAYER_2
 10
-21.984
 20
214.2463
 42
0.08462179993
  0
VERTEX
  8
LAYER_2
 10
-20.8976
 20
214.4204
 42
0.08609104881
  0
VERTEX
  8
LAYER_2
 10
-20.1139
 20
214.8669
 42
0.03054496576
  0
VERTEX
  8
LAYER_2
 10
-19.8205
 20
215.1386
  0
SEQEND
  0
ENDBLK
  0
BLOCK
  8
LAYER_2
  2
AIGNBL02020005
 70
64
 10
0
 20
0
 30
0
  3
AIGNBL02020005
  0
POLYLINE
  8
LAYER_2
 40
0.05
 41
0.05
 66
1
 10
0
 20
0
 30
0
 70
1
  0
VERTEX
  8
LAYER_2
 10
0.3288
 20
212.6805
  0
VERTEX
  8
LAYER_2
 10
0.0009
 20
212.6805
  0
VERTEX
  8
LAYER_2
 10
-0.2479
 20
211.9109
  0
VERTEX
  8
LAYER_2
 10
-0.5066
 20
212.6805
  0
VERTEX
  8
LAYER_2
 10
-0.8342
 20
212.6805
  0
VERTEX
  8
LAYER_2
 10
-0.4084
 20
211.5234
  0
VERTEX
  8
LAYER_2
 10
-0.4611
 20
211.3704
 42
-0.3961336399
  0
VERTEX
  8
LAYER_2
 10
-0.6165
 20
211.2581
  0
VERTEX
  8
LAYER_2
 10
-0.6882
 20
211.2581
  0
VERTEX
  8
LAYER_2
 10
-0.6882
 20
210.9783
  0
VERTEX
  8
LAYER_2
 10
-0.5662
 20
210.9783
 42
0.2034440672
  0
VERTEX
  8
LAYER_2
 10
-0.2985
 20
211.0741
 42
0.1004639661
  0
VERTEX
  8
LAYER_2
 10
-0.2048
 20
211.2343
  0
SEQEND
  0
POLYLINE
  8
LAYER_2
 40
0.05
 41
0.05
 66
1
 10
0
 20
0
 30
0
 70
1
  0
VERTEX
  8
LAYER_2
 10
-0.8704
 20
211.4352
  0
VERTEX
  8
LAYER_2
 10
-0.8704
 20
211.6977
  0
VERTEX
  8
LAYER_2
 10
-0.9899
 20
211.6977
 42
-0.4751531158
  0
VERTEX
  8
LAYER_2
 10
-1.0998
 20
211.8103
  0
VERTEX
  8
LAYER_2
 10
-1.0998
 20
213.137
  0
VERTEX
  8
LAYER_2
 10
-1.4109
 20
213.137
  0
VERTEX
  8
LAYER_2
 10
-1.4109
 20
211.7914
 42
0.2572712742
  0
VERTEX
  8
LAYER_2
 10
-1.2491
 20
211.4844
 42
0.1351549622
  0
VERTEX
  8
LAYER_2
 10
-1.0475
 20
211.4352
  0
SEQEND
  0
POLYLINE
  8
LAYER_2
 40
0.05
 41
0.05
 66
1
 10
0
 20
0
 30
0
 70
1
  0
VERTEX
  8
LAYER_2
 10
-1.9739
 20
211.894
 42
-0.2469446344
  0
VERTEX
  8
LAYER_2
 10
-2.0214
 20
211.7363
 42
-0.2123665607
  0
VERTEX
  8
LAYER_2
 10
-2.2057
 20
211.6763
 42
-0.2053009356
  0
VERTEX
  8
LAYER_2
 10
-2.3584
 20
211.723
 42
-0.206083917
  0
VERTEX
  8
LAYER_2
 10
-2.3949
 20
211.8175
 42
-0.4725867343
  0
VERTEX
  8
LAYER_2
 10
-2.2105
 20
211.9609
  0
VERTEX
  8
LAYER_2
 10
-1.9739
 20
211.9609
  0
SEQEND
  0
POLYLINE
  8
LAYER_2
 40
0.05
 41
0.05
 66
1
 10
0
 20
0
 30
0
 70
1
  0
VERTEX
  8
LAYER_2
 10
-1.6624
 20
211.4352
  0
VERTEX
  8
LAYER_2
 10
-1.6624
 20
212.2551
 42
0.2451162416
  0
VERTEX
  8
LAYER_2
 10
-1.8225
 20
212.6039
 42
0.1630344424
  0
VERTEX
  8
LAYER_2
 10
-2.194
 20
212.6947
 42
0.223003002
  0
VERTEX
  8
LAYER_2
 10
-2.6298
 20
212.5302
 42
0.006267388191
  0
VERTEX
  8
LAYER_2
 10
-2.6412
 20
212.5179
  0
VERTEX
  8
LAYER_2
 10
-2.4452
 20
212.3243
 42
-0.2474228759
  0
VERTEX
  8
LAYER_2
 10
-2.2057
 20
212.4322
 42
-0.1875116517
  0
VERTEX
  8
LAYER_2
 10
-2.0297
 20
212.3865
 42
-0.2385471677
  0
VERTEX
  8
LAYER_2
 10
-1.9739
 20
212.2358
  0
VERTEX
  8
LAYER_2
 10
-1.9739
 20
212.1738
  0
VERTEX
  8
LAYER_2
 10
-2.2633
 20
212.1738
 42
0.2343493414
  0
VERTEX
  8
LAYER_2
 10
-2.6354
 20
212.0142
 42
0.1534284984
  0
VERTEX
  8
LAYER_2
 10
-2.6942
 20
211.8127
 42
0.1895201048
  0
VERTEX
  8
LAYER_2
 10
-2.5912
 20
211.533
 42
0.2074502918
  0
VERTEX
  8
LAYER_2
 10
-2.2729
 20
211.4228
 42
0.2214267061
  0
VERTEX
  8
LAYER_2
 10
-1.9663
 20
211.5426
  0
VERTEX
  8
LAYER_2
 10
-1.9663
 20
211.4352
  0
SEQEND
  0
POLYLINE
  8
LAYER_2
 40
0.05
 41
0.05
 66
1
 10
0
 20
0
 30
0
 70
1
  0
VERTEX
  8
LAYER_2
 10
-2.8758
 20
211.4352
  0
VERTEX
  8
LAYER_2
 10
-2.8758
 20
211.6977
  0
VERTEX
  8
LAYER_2
 10
-2.9884
 20
211.6977
 42
-0.4616084329
  0
VERTEX
  8
LAYER_2
 10
-3.0963
 20
211.8103
  0
VERTEX
  8
LAYER_2
 10
-3.0963
 20
212.4081
  0
VERTEX
  8
LAYER_2
 10
-2.8758
 20
212.4081
  0
VERTEX
  8
LAYER_2
 10
-2.8758
 20
212.6444
  0
VERTEX
  8
LAYER_2
 10
-3.0963
 20
212.6444
  0
VERTEX
  8
LAYER_2
 10
-3.0963
 20
213.0126
  0
VERTEX
  8
LAYER_2
 10
-3.407
 20
213.0126
  0
VERTEX
  8
LAYER_2
 10
-3.407
 20
212.6444
  0
VERTEX
  8
LAYER_2
 10
-3.539
 20
212.6444
  0
VERTEX
  8
LAYER_2
 10
-3.539
 20
212.4081
  0
VERTEX
  8
LAYER_2
 10
-3.407
 20
212.4081
  0
VERTEX
  8
LAYER_2
 10
-3.407
 20
211.7914
 42
0.2563568817
  0
VERTEX
  8
LAYER_2
 10
-3.2458
 20
211.4844
 42
0.1357760723
  0
VERTEX
  8
LAYER_2
 10
-3.0456
 20
211.4352
  0
SEQEND
  0
POLYLINE
  8
LAYER_2
 40
0.05
 41
0.05
 66
1
 10
0
 20
0
 30
0
 70
1
  0
VERTEX
  8
LAYER_2
 10
-3.8091
 20
213.137
  0
VERTEX
  8
LAYER_2
 10
-4.1419
 20
213.137
  0
VERTEX
  8
LAYER_2
 10
-4.1419
 20
211.4352
  0
VERTEX
  8
LAYER_2
 10
-3.8091
 20
211.4352
  0
SEQEND
  0
POLYLINE
  8
LAYER_2
 40
0.05
 41
0.05
 66
1
 10
0
 20
0
 30
0
 70
1
  0
VERTEX
  8
LAYER_2
 10
-5.0562
 20
211.4352
  0
VERTEX
  8
LAYER_2
 10
-5.0562
 20
212.231
 42
0.2072987281
  0
VERTEX
  8
LAYER_2
 10
-5.183
 20
212.5844
 42
0.2031043538
  0
VERTEX
  8
LAYER_2
 10
-5.4775
 20
212.6947
 42
0.201378382
  0
VERTEX
  8
LAYER_2
 10
-5.7886
 20
212.5658
  0
VERTEX
  8
LAYER_2
 10
-5.7886
 20
212.6805
  0
VERTEX
  8
LAYER_2
 10
-6.0925
 20
212.6805
  0
VERTEX
  8
LAYER_2
 10
-6.0925
 20
211.4352
  0
VERTEX
  8
LAYER_2
 10
-5.7814
 20
211.4352
  0
VERTEX
  8
LAYER_2
 10
-5.7814
 20
212.1882
 42
-0.4179312156
  0
VERTEX
  8
LAYER_2
 10
-5.573
 20
212.4149
 42
-0.4343639015
  0
VERTEX
  8
LAYER_2
 10
-5.3673
 20
212.1882
  0
VERTEX
  8
LAYER_2
 10
-5.3673
 20
211.4352
  0
SEQEND
  0
POLYLINE
  8
LAYER_2
 40
0.05
 41
0.05
 66
1
 10
0
 20
0
 30
0
 70
1
  0
VERTEX
  8
LAYER_2
 10
-6.437
 20
213.1467
  0
VERTEX
  8
LAYER_2
 10
-6.7553
 20
213.1467
  0
VERTEX
  8
LAYER_2
 10
-6.7553
 20
212.8931
  0
VERTEX
  8
LAYER_2
 10
-6.437
 20
212.8931
  0
SEQEND
  0
POLYLINE
  8
LAYER_2
 40
0.05
 41
0.05
 66
1
 10
0
 20
0
 30
0
 70
1
  0
VERTEX
  8
LAYER_2
 10
-6.4394
 20
212.6444
  0
VERTEX
  8
LAYER_2
 10
-6.7508
 20
212.6444
  0
VERTEX
  8
LAYER_2
 10
-6.7508
 20
211.4352
  0
VERTEX
  8
LAYER_2
 10
-6.4394
 20
211.4352
  0
SEQEND
  0
POLYLINE
  8
LAYER_2
 40
0.05
 41
0.05
 66
1
 10
0
 20
0
 30
0
  0
VERTEX
  8
LAYER_2
 10
-7.8994
 20
212.1738
  0
VERTEX
  8
LAYER_2
 10
-8.3735
 20
212.1738
 42
-0.1150247832
  0
VERTEX
  8
LAYER_2
 10
-8.3445
 20
212.3074
 42
-0.3021002553
  0
VERTEX
  8
LAYER_2
 10
-8.1365
 20
212.4363
 42
-0.2972451875
  0
VERTEX
  8
LAYER_2
 10
-7.9284
 20
212.3074
 42
-0.09898717384
  0
VERTEX
  8
LAYER_2
 10
-7.8994
 20
212.1738
  0
SEQEND
  0
POLYLINE
  8
LAYER_2
 40
0.05
 41
0.05
 66
1
 10
0
 20
0
 30
0
 70
1
  0
VERTEX
  8
LAYER_2
 10
-7.5932
 20
211.9609
  0
VERTEX
  8
LAYER_2
 10
-7.5932
 20
212.0925
 42
0.1892091988
  0
VERTEX
  8
LAYER_2
 10
-7.7571
 20
212.5503
 42
0.2074689034
  0
VERTEX
  8
LAYER_2
 10
-8.1365
 20
212.6947
 42
0.212635805
  0
VERTEX
  8
LAYER_2
 10
-8.5293
 20
212.5292
 42
0.1815550622
  0
VERTEX
  8
LAYER_2
 10
-8.6787
 20
212.1059
 42
0.01190200981
  0
VERTEX
  8
LAYER_2
 10
-8.6797
 20
212.0591
 42
0.1802893809
  0
VERTEX
  8
LAYER_2
 10
-8.5263
 20
211.5744
 42
0.2020162133
  0
VERTEX
  8
LAYER_2
 10
-8.158
 20
211.4223
 42
0.01695408336
  0
VERTEX
  8
LAYER_2
 10
-8.103
 20
211.4207
 42
0.2069028033
  0
VERTEX
  8
LAYER_2
 10
-7.6557
 20
211.5904
 42
0.01111068861
  0
VERTEX
  8
LAYER_2
 10
-7.629
 20
211.6167
  0
VERTEX
  8
LAYER_2
 10
-7.8181
 20
211.801
 42
-0.224324849
  0
VERTEX
  8
LAYER_2
 10
-8.1003
 20
211.6839
 42
-0.4264622019
  0
VERTEX
  8
LAYER_2
 10
-8.3735
 20
211.9609
  0
SEQEND
  0
POLYLINE
  8
LAYER_2
 40
0.05
 41
0.05
 66
1
 10
0
 20
0
 30
0
  0
VERTEX
  8
LAYER_2
 10
-9.2778
 20
212.0591
 42
-0.1438386142
  0
VERTEX
  8
LAYER_2
 10
-9.3235
 20
211.7869
 42
-0.2886460427
  0
VERTEX
  8
LAYER_2
 10
-9.4911
 20
211.7004
 42
-0.3841580528
  0
VERTEX
  8
LAYER_2
 10
-9.6851
 20
211.8609
 42
-0.05455021257
  0
VERTEX
  8
LAYER_2
 10
-9.7016
 20
212.0591
 42
-0.1483049254
  0
VERTEX
  8
LAYER_2
 10
-9.6559
 20
212.3323
 42
-0.2855556046
  0
VERTEX
  8
LAYER_2
 10
-9.4911
 20
212.4149
 42
-0.3794480357
  0
VERTEX
  8
LAYER_2
 10
-9.2951
 20
212.2564
 42
-0.05697683845
  0
VERTEX
  8
LAYER_2
 10
-9.2778
 20
212.0591
  0
SEQEND
  0
POLYLINE
  8
LAYER_2
 40
0.05
 41
0.05
 66
1
 10
0
 20
0
 30
0
 70
1
  0
VERTEX
  8
LAYER_2
 10
-8.9667
 20
211.4352
  0
VERTEX
  8
LAYER_2
 10
-8.9667
 20
213.137
  0
VERTEX
  8
LAYER_2
 10
-9.2778
 20
213.137
  0
VERTEX
  8
LAYER_2
 10
-9.2778
 20
212.5707
 42
0.2297998422
  0
VERTEX
  8
LAYER_2
 10
-9.582
 20
212.6947
 42
0.1954770263
  0
VERTEX
  8
LAYER_2
 10
-9.8835
 20
212.5824
 42
0.1230294745
  0
VERTEX
  8
LAYER_2
 10
-9.9795
 20
212.4101
 42
0.0747779445
  0
VERTEX
  8
LAYER_2
 10
-10.013
 20
212.0591
 42
0.0994726102
  0
VERTEX
  8
LAYER_2
 10
-9.9681
 20
211.6704
 42
0.1089535567
  0
VERTEX
  8
LAYER_2
 10
-9.8835
 20
211.533
 42
0.2047870903
  0
VERTEX
  8
LAYER_2
 10
-9.5796
 20
211.4207
 42
0.2301632332
  0
VERTEX
  8
LAYER_2
 10
-9.2709
 20
211.5523
  0
VERTEX
  8
LAYER_2
 10
-9.2709
 20
211.4352
  0
SEQEND
  0
POLYLINE
  8
LAYER_2
 40
0.05
 41
0.05
 66
1
 10
0
 20
0
 30
0
 70
1
  0
VERTEX
  8
LAYER_2
 10
-10.6062
 20
211.894
 42
-0.2466163696
  0
VERTEX
  8
LAYER_2
 10
-10.6541
 20
211.7363
 42
-0.212724989
  0
VERTEX
  8
LAYER_2
 10
-10.8384
 20
211.6763
 42
-0.2058776096
  0
VERTEX
  8
LAYER_2
 10
-10.9909
 20
211.723
 42
-0.205582218
  0
VERTEX
  8
LAYER_2
 10
-11.0272
 20
211.8175
 42
-0.4728058788
  0
VERTEX
  8
LAYER_2
 10
-10.8433
 20
211.9609
  0
VERTEX
  8
LAYER_2
 10
-10.6062
 20
211.9609
  0
SEQEND
  0
POLYLINE
  8
LAYER_2
 40
0.05
 41
0.05
 66
1
 10
0
 20
0
 30
0
 70
1
  0
VERTEX
  8
LAYER_2
 10
-10.2951
 20
211.4352
  0
VERTEX
  8
LAYER_2
 10
-10.2951
 20
212.2551
 42
0.2450199827
  0
VERTEX
  8
LAYER_2
 10
-10.455
 20
212.6039
 42
0.1631220144
  0
VERTEX
  8
LAYER_2
 10
-10.8267
 20
212.6947
 42
0.223003002
  0
VERTEX
  8
LAYER_2
 10
-11.2625
 20
212.5302
 42
0.006267388191
  0
VERTEX
  8
LAYER_2
 10
-11.2739
 20
212.5179
  0
VERTEX
  8
LAYER_2
 10
-11.0779
 20
212.3243
 42
-0.2470834876
  0
VERTEX
  8
LAYER_2
 10
-10.8384
 20
212.4322
 42
-0.1872740545
  0
VERTEX
  8
LAYER_2
 10
-10.6621
 20
212.3865
 42
-0.238797369
  0
VERTEX
  8
LAYER_2
 10
-10.6062
 20
212.2358
  0
VERTEX
  8
LAYER_2
 10
-10.6062
 20
212.1738
  0
VERTEX
  8
LAYER_2
 10
-10.896
 20
212.1738
 42
0.2346153399
  0
VERTEX
  8
LAYER_2
 10
-11.268
 20
212.0142
 42
0.1531846975
  0
VERTEX
  8
LAYER_2
 10
-11.3266
 20
211.8127
 42
0.1894880782
  0
VERTEX
  8
LAYER_2
 10
-11.2239
 20
211.533
 42
0.2078362131
  0
VERTEX
  8
LAYER_2
 10
-10.9053
 20
211.4228
 42
0.2218282602
  0
VERTEX
  8
LAYER_2
 10
-10.599
 20
211.5426
  0
VERTEX
  8
LAYER_2
 10
-10.599
 20
211.4352
  0
SEQEND
  0
POLYLINE
  8
LAYER_2
 40
0.05
 41
0.05
 66
1
 10
0
 20
0
 30
0
 70
1
  0
VERTEX
  8
LAYER_2
 10
-11.5733
 20
211.4352
  0
VERTEX
  8
LAYER_2
 10
-11.5733
 20
212.231
 42
0.205542241
  0
VERTEX
  8
LAYER_2
 10
-11.7097
 20
212.5844
 42
0.1987814349
  0
VERTEX
  8
LAYER_2
 10
-12.016
 20
212.6947
 42
0.2182066523
  0
VERTEX
  8
LAYER_2
 10
-12.3894
 20
212.5369
 42
0.2492914965
  0
VERTEX
  8
LAYER_2
 10
-12.7198
 20
212.6947
 42
0.1963594215
  0
VERTEX
  8
LAYER_2
 10
-13.0309
 20
212.5658
  0
VERTEX
  8
LAYER_2
 10
-13.0309
 20
212.6805
  0
VERTEX
  8
LAYER_2
 10
-13.3348
 20
212.6805
  0
VERTEX
  8
LAYER_2
 10
-13.3348
 20
211.4352
  0
VERTEX
  8
LAYER_2
 10
-13.0233
 20
211.4352
  0
VERTEX
  8
LAYER_2
 10
-13.0233
 20
212.1882
 42
-0.4178253314
  0
VERTEX
  8
LAYER_2
 10
-12.8153
 20
212.4149
 42
-0.4343639015
  0
VERTEX
  8
LAYER_2
 10
-12.6096
 20
212.1882
  0
VERTEX
  8
LAYER_2
 10
-12.6096
 20
211.4352
  0
VERTEX
  8
LAYER_2
 10
-12.2985
 20
211.4352
  0
VERTEX
  8
LAYER_2
 10
-12.2985
 20
212.1951
 42
-0.4176164983
  0
VERTEX
  8
LAYER_2
 10
-12.0904
 20
212.4149
 42
-0.434797635
  0
VERTEX
  8
LAYER_2
 10
-11.8844
 20
212.1882
  0
VERTEX
  8
LAYER_2
 10
-11.8844
 20
211.4352
  0
SEQEND
  0
POLYLINE
  8
LAYER_2
 40
0.05
 41
0.05
 66
1
 10
0
 20
0
 30
0
  0
VERTEX
  8
LAYER_2
 10
-13.8973
 20
212.0229
 42
-0.1159462989
  0
VERTEX
  8
LAYER_2
 10
-13.9445
 20
211.7201
 42
-0.3129536504
  0
VERTEX
  8
LAYER_2
 10
-14.1915
 20
211.5736
 42
-0.314965659
  0
VERTEX
  8
LAYER_2
 10
-14.446
 20
211.7323
 42
-0.1053090454
  0
VERTEX
  8
LAYER_2
 10
-14.4882
 20
212.0229
 42
-0.113954245
  0
VERTEX
  8
LAYER_2
 10
-14.4424
 20
212.3219
 42
-0.3163619605
  0
VERTEX
  8
LAYER_2
 10
-14.1915
 20
212.4725
 42
-0.3164516036
  0
VERTEX
  8
LAYER_2
 10
-13.9392
 20
212.3138
 42
-0.103439187
  0
VERTEX
  8
LAYER_2
 10
-13.8973
 20
212.0229
  0
SEQEND
  0
POLYLINE
  8
LAYER_2
 40
0.05
 41
0.05
 66
1
 10
0
 20
0
 30
0
 70
1
  0
VERTEX
  8
LAYER_2
 10
-13.7247
 20
211.4352
  0
VERTEX
  8
LAYER_2
 10
-13.7247
 20
213.137
  0
VERTEX
  8
LAYER_2
 10
-13.8973
 20
213.137
  0
VERTEX
  8
LAYER_2
 10
-13.8973
 20
212.4749
 42
0.2525818121
  0
VERTEX
  8
LAYER_2
 10
-14.2298
 20
212.6258
 42
0.1886393528
  0
VERTEX
  8
LAYER_2
 10
-14.5171
 20
212.5224
 42
0.1172978386
  0
VERTEX
  8
LAYER_2
 10
-14.6205
 20
212.3434
 42
0.07876818405
  0
VERTEX
  8
LAYER_2
 10
-14.6608
 20
212.0229
 42
0.09207329595
  0
VERTEX
  8
LAYER_2
 10
-14.6127
 20
211.6805
 42
0.1077667615
  0
VERTEX
  8
LAYER_2
 10
-14.5171
 20
211.5234
 42
0.198210181
  0
VERTEX
  8
LAYER_2
 10
-14.2298
 20
211.4207
 42
0.2515984765
  0
VERTEX
  8
LAYER_2
 10
-13.8949
 20
211.5761
  0
VERTEX
  8
LAYER_2
 10
-13.8949
 20
211.4352
  0
SEQEND
  0
POLYLINE
  8
LAYER_2
 40
0.05
 41
0.05
 66
1
 10
0
 20
0
 30
0
 70
1
  0
VERTEX
  8
LAYER_2
 10
-15.0173
 20
211.4352
  0
VERTEX
  8
LAYER_2
 10
-15.0173
 20
212.1882
 42
0.2025955741
  0
VERTEX
  8
LAYER_2
 10
-15.1393
 20
212.5156
 42
0.2044555257
  0
VERTEX
  8
LAYER_2
 10
-15.4411
 20
212.6258
 42
0.2165707378
  0
VERTEX
  8
LAYER_2
 10
-15.7711
 20
212.4818
  0
VERTEX
  8
LAYER_2
 10
-15.7711
 20
212.6113
  0
VERTEX
  8
LAYER_2
 10
-15.9434
 20
212.6113
  0
VERTEX
  8
LAYER_2
 10
-15.9434
 20
211.4352
  0
VERTEX
  8
LAYER_2
 10
-15.7711
 20
211.4352
  0
VERTEX
  8
LAYER_2
 10
-15.7711
 20
212.1593
 42
-0.2837547598
  0
VERTEX
  8
LAYER_2
 10
-15.6189
 20
212.4442
 42
-0.1086336204
  0
VERTEX
  8
LAYER_2
 10
-15.479
 20
212.4725
 42
-0.442304779
  0
VERTEX
  8
LAYER_2
 10
-15.1896
 20
212.1593
  0
VERTEX
  8
LAYER_2
 10
-15.1896
 20
211.4352
  0
SEQEND
  0
POLYLINE
  8
LAYER_2
 40
0.05
 41
0.05
 66
1
 10
0
 20
0
 30
0
 70
1
  0
VERTEX
  8
LAYER_2
 10
-16.5346
 20
211.8506
 42
-0.2101171453
  0
VERTEX
  8
LAYER_2
 10
-16.5945
 20
211.6477
 42
-0.2061049303
  0
VERTEX
  8
LAYER_2
 10
-16.8553
 20
211.5688
 42
-0.162375608
  0
VERTEX
  8
LAYER_2
 10
-17.0584
 20
211.6151
 42
-0.2625865829
  0
VERTEX
  8
LAYER_2
 10
-17.1281
 20
211.77
 42
-0.3766203625
  0
VERTEX
  8
LAYER_2
 10
-16.9692
 20
211.9668
 42
-0.05119198821
  0
VERTEX
  8
LAYER_2
 10
-16.8625
 20
211.9774
  0
VERTEX
  8
LAYER_2
 10
-16.5346
 20
211.9774
  0
SEQEND
  0
POLYLINE
  8
LAYER_2
 40
0.05
 41
0.05
 66
1
 10
0
 20
0
 30
0
 70
1
  0
VERTEX
  8
LAYER_2
 10
-16.362
 20
211.4352
  0
VERTEX
  8
LAYER_2
 10
-16.362
 20
212.233
 42
0.2623610217
  0
VERTEX
  8
LAYER_2
 10
-16.5224
 20
212.5561
 42
0.1450933816
  0
VERTEX
  8
LAYER_2
 10
-16.8336
 20
212.6258
 42
0.2362276322
  0
VERTEX
  8
LAYER_2
 10
-17.2355
 20
212.4672
 42
0.01170794038
  0
VERTEX
  8
LAYER_2
 10
-17.2501
 20
212.4487
  0
VERTEX
  8
LAYER_2
 10
-17.133
 20
212.3409
 42
-0.2755800686
  0
VERTEX
  8
LAYER_2
 10
-16.8364
 20
212.4776
 42
-0.1517468402
  0
VERTEX
  8
LAYER_2
 10
-16.6283
 20
212.4308
 42
-0.2800643637
  0
VERTEX
  8
LAYER_2
 10
-16.5346
 20
212.2193
  0
VERTEX
  8
LAYER_2
 10
-16.5346
 20
212.1066
  0
VERTEX
  8
LAYER_2
 10
-16.8863
 20
212.1066
 42
0.2378691362
  0
VERTEX
  8
LAYER_2
 10
-17.2451
 20
211.9523
 42
0.1477379502
  0
VERTEX
  8
LAYER_2
 10
-17.2956
 20
211.7673
 42
0.1983884986
  0
VERTEX
  8
LAYER_2
 10
-17.2071
 20
211.5282
 42
0.2222408302
  0
VERTEX
  8
LAYER_2
 10
-16.8742
 20
211.4207
 42
0.21971579
  0
VERTEX
  8
LAYER_2
 10
-16.5346
 20
211.5471
  0
VERTEX
  8
LAYER_2
 10
-16.5346
 20
211.4352
  0
SEQEND
  0
POLYLINE
  8
LAYER_2
 40
0.05
 41
0.05
 66
1
 10
0
 20
0
 30
0
 70
1
  0
VERTEX
  8
LAYER_2
 10
-17.6211
 20
211.4352
  0
VERTEX
  8
LAYER_2
 10
-17.6211
 20
212.1903
 42
0.2366048602
  0
VERTEX
  8
LAYER_2
 10
-17.7848
 20
212.5524
 42
0.1585996094
  0
VERTEX
  8
LAYER_2
 10
-18.0449
 20
212.6258
 42
0.2174282511
  0
VERTEX
  8
LAYER_2
 10
-18.3749
 20
212.4818
  0
VERTEX
  8
LAYER_2
 10
-18.3749
 20
213.137
  0
VERTEX
  8
LAYER_2
 10
-18.5475
 20
213.137
  0
VERTEX
  8
LAYER_2
 10
-18.5475
 20
211.4352
  0
VERTEX
  8
LAYER_2
 10
-18.3749
 20
211.4352
  0
VERTEX
  8
LAYER_2
 10
-18.3749
 20
212.1617
 42
-0.2889308341
  0
VERTEX
  8
LAYER_2
 10
-18.2221
 20
212.4453
 42
-0.1047577161
  0
VERTEX
  8
LAYER_2
 10
-18.0807
 20
212.4725
 42
-0.4463558923
  0
VERTEX
  8
LAYER_2
 10
-17.7934
 20
212.1617
  0
VERTEX
  8
LAYER_2
 10
-17.7934
 20
211.4352
  0
SEQEND
  0
ENDBLK
  0
BLOCK
  8
LAYER_2
  2
AIGNBL02020007
 70
64
 10
0
 20
0
 30
0
  3
AIGNBL02020007
  0
INSERT
  8
LAYER_2
  2
AIGNBL02030008
 10
0
 20
0
 30
0
  0
ENDBLK
  0
BLOCK
  8
LAYER_2
  2
AIGNBL02020010
 70
64
 10
0
 20
0
 30
0
  3
AIGNBL02020010
  0
INSERT
  8
LAYER_2
  2
AIGNBL02030011
 10
0
 20
0
 30
0
  0
INSERT
  8
LAYER_2
  2
AIGNBL02030012
 10
0
 20
0
 30
0
  0
INSERT
  8
LAYER_2
  2
AIGNBL02030013
 10
0
 20
0
 30
0
  0
INSERT
  8
LAYER_2
  2
AIGNBL02030014
 10
0
 20
0
 30
0
  0
INSERT
  8
LAYER_2
  2
AIGNBL02030015
 10
0
 20
0
 30
0
  0
INSERT
  8
LAYER_2
  2
AIGNBL02030016
 10
0
 20
0
 30
0
  0
INSERT
  8
LAYER_2
  2
AIGNBL02030017
 10
0
 20
0
 30
0
  0
INSERT
  8
LAYER_2
  2
AIGNBL02030018
 10
0
 20
0
 30
0
  0
INSERT
  8
LAYER_2
  2
AIGNBL02030019
 10
0
 20
0
 30
0
  0
INSERT
  8
LAYER_2
  2
AIGNBL0203001A
 10
0
 20
0
 30
0
  0
INSERT
  8
LAYER_2
  2
AIGNBL0203001B
 10
0
 20
0
 30
0
  0
INSERT
  8
LAYER_2
  2
AIGNBL0203001C
 10
0
 20
0
 30
0
  0
INSERT
  8
LAYER_2
  2
AIGNBL0203001D
 10
0
 20
0
 30
0
  0
INSERT
  8
LAYER_2
  2
AIGNBL0203001E
 10
0
 20
0
 30
0
  0
INSERT
  8
LAYER_2
  2
AIGNBL0203001F
 10
0
 20
0
 30
0
  0
INSERT
  8
LAYER_2
  2
AIGNBL02030020
 10
0
 20
0
 30
0
  0
INSERT
  8
LAYER_2
  2
AIGNBL02030021
 10
0
 20
0
 30
0
  0
INSERT
  8
LAYER_2
  2
AIGNBL02030022
 10
0
 20
0
 30
0
  0
INSERT
  8
LAYER_2
  2
AIGNBL02030023
 10
0
 20
0
 30
0
  0
INSERT
  8
LAYER_2
  2
AIGNBL02030024
 10
0
 20
0
 30
0
  0
INSERT
  8
LAYER_2
  2
AIGNBL02030025
 10
0
 20
0
 30
0
  0
INSERT
  8
LAYER_2
  2
AIGNBL02030026
 10
0
 20
0
 30
0
  0
INSERT
  8
LAYER_2
  2
AIGNBL02030027
 10
0
 20
0
 30
0
  0
ENDBLK
  0
BLOCK
  8
LAYER_2
  2
AIGNBL02010002
 70
64
 10
0
 20
0
 30
0
  3
AIGNBL02010002
  0
POLYLINE
  8
LAYER_2
 40
0.7056
 41
0.7056
 66
1
 10
0
 20
0
 30
0
 70
1
  0
VERTEX
  8
LAYER_2
 10
251.6749
 20
230.337
  0
VERTEX
  8
LAYER_2
 10
251.6749
 20
33.3285
  0
VERTEX
  8
LAYER_2
 10
-30.3177
 20
33.3285
  0
VERTEX
  8
LAYER_2
 10
-30.3177
 20
230.337
  0
SEQEND
  0
ENDBLK
  0
BLOCK
  8
LAYER_2
  2
AIGNBL02010003
 70
64
 10
0
 20
0
 30
0
  3
AIGNBL02010003
  0
INSERT
  8
LAYER_2
  2
AIGNBL02020004
 10
0
 20
0
 30
0
  0
POLYLINE
  8
LAYER_2
 40
0.05
 41
0.05
 66
1
 10
0
 20
0
 30
0
  0
VERTEX
  8
LAYER_2
 10
-6.457
 20
223.2684
  0
VERTEX
  8
LAYER_2
 10
-8.0924
 20
223.2684
  0
VERTEX
  8
LAYER_2
 10
-8.0924
 20
216.1939
 42
0.1050424825
  0
VERTEX
  8
LAYER_2
 10
-7.9127
 20
215.3316
 42
0.1079536646
  0
VERTEX
  8
LAYER_2
 10
-7.4796
 20
214.75
 42
0.105678841
  0
VERTEX
  8
LAYER_2
 10
-6.8587
 20
214.4154
 42
0.04706827067
  0
VERTEX
  8
LAYER_2
 10
-6.4597
 20
214.3359
  0
VERTEX
  8
LAYER_2
 10
-6.457
 20
223.2684
  0
SEQEND
  0
INSERT
  8
LAYER_2
  2
AIGNBL02020005
 10
0
 20
0
 30
0
  0
ENDBLK
  0
BLOCK
  8
LAYER_2
  2
AIGNBL02010006
 70
64
 10
0
 20
0
 30
0
  3
AIGNBL02010006
  0
INSERT
  8
LAYER_2
  2
AIGNBL02020007
 10
0
 20
0
 30
0
  0
INSERT
  8
LAYER_2
  2
AIGNBL02020010
 10
0
 20
0
 30
0
  0
ENDBLK
  0
BLOCK
  8
LAYER_2
  2
AIGNBL02010028
 70
64
 10
0
 20
0
 30
0
  3
AIGNBL02010028
  0
POLYLINE
  8
LAYER_2
  6
AIGENLINE001
 40
0.1305
 41
0.1305
 66
1
 10
0
 20
0
 30
0
 70
129
  0
VERTEX
  8
LAYER_2
 10
148.751
 20
97.5129
  0
VERTEX
  8
LAYER_2
 10
147.7508
 20
97.5129
 42
-0.4142122503
  0
VERTEX
  8
LAYER_2
 10
146.7506
 20
98.5135
 42
-0.4142328909
  0
VERTEX
  8
LAYER_2
 10
147.7508
 20
99.5133
  0
VERTEX
  8
LAYER_2
 10
148.751
 20
99.5133
 42
-0.4142182544
  0
VERTEX
  8
LAYER_2
 10
149.7512
 20
98.5135
 42
-0.4141976281
  0
SEQEND
  0
POLYLINE
  8
LAYER_2
  6
AIGENLINE001
 40
0.1305
 41
0.1305
 66
1
 10
0
 20
0
 30
0
 70
129
  0
VERTEX
  8
LAYER_2
 10
120.7511
 20
97.5129
  0
VERTEX
  8
LAYER_2
 10
119.7509
 20
97.5129
 42
-0.4142078164
  0
VERTEX
  8
LAYER_2
 10
118.7507
 20
98.5135
 42
-0.4142284527
  0
VERTEX
  8
LAYER_2
 10
119.7509
 20
99.5133
  0
VERTEX
  8
LAYER_2
 10
120.7511
 20
99.5133
 42
-0.4142226926
  0
VERTEX
  8
LAYER_2
 10
121.7513
 20
98.5135
 42
-0.414202062
  0
SEQEND
  0
ENDBLK
  0
BLOCK
  8
LAYER_2
  2
AIGNBL02010029
 70
64
 10
0
 20
0
 30
0
  3
AIGNBL02010029
  0
POLYLINE
  8
LAYER_2
  6
AIGENLINE002
 40
0.1305
 41
0.1305
 66
1
 10
0
 20
0
 30
0
 70
128
  0
VERTEX
  8
LAYER_2
 10
22.4624
 20
102.8173
  0
VERTEX
  8
LAYER_2
 10
22.4638
 20
102.8253
  0
SEQEND
  0
POLYLINE
  8
LAYER_2
  6
AIGENLINE002
 40
0.1305
 41
0.1305
 66
1
 10
0
 20
0
 30
0
 70
128
  0
VERTEX
  8
LAYER_2
 10
22.461
 20
102.8093
  0
VERTEX
  8
LAYER_2
 10
22.4624
 20
102.8173
  0
SEQEND
  0
ENDBLK
  0
BLOCK
  8
LAYER_2
  2
AIGNBL0201002A
 70
64
 10
0
 20
0
 30
0
  3
AIGNBL0201002A
  0
POLYLINE
  8
LAYER_2
  6
AIGENLINE002
 40
0.1305
 41
0.1305
 66
1
 10
0
 20
0
 30
0
 70
128
  0
VERTEX
  8
LAYER_2
 10
22.4793
 20
102.8745
  0
VERTEX
  8
LAYER_2
 10
22.483
 20
102.882
  0
SEQEND
  0
POLYLINE
  8
LAYER_2
  6
AIGENLINE002
 40
0.1305
 41
0.1305
 66
1
 10
0
 20
0
 30
0
 70
128
  0
VERTEX
  8
LAYER_2
 10
22.476
 20
102.8666
  0
VERTEX
  8
LAYER_2
 10
22.4793
 20
102.8745
  0
SEQEND
  0
POLYLINE
  8
LAYER_2
  6
AIGENLINE002
 40
0.1305
 41
0.1305
 66
1
 10
0
 20
0
 30
0
 70
128
  0
VERTEX
  8
LAYER_2
 10
22.4732
 20
102.8591
  0
VERTEX
  8
LAYER_2
 10
22.476
 20
102.8666
  0
SEQEND
  0
ENDBLK
  0
BLOCK
  8
LAYER_2
  2
AIGNBL0201002B
 70
64
 10
0
 20
0
 30
0
  3
AIGNBL0201002B
  0
POLYLINE
  8
LAYER_2
  6
AIGENLINE002
 40
0.1305
 41
0.1305
 66
1
 10
0
 20
0
 30
0
 70
128
  0
VERTEX
  8
LAYER_2
 10
22.6251
 20
103.0105
  0
VERTEX
  8
LAYER_2
 10
22.6331
 20
103.0133
  0
SEQEND
  0
POLYLINE
  8
LAYER_2
  6
AIGENLINE002
 40
0.1305
 41
0.1305
 66
1
 10
0
 20
0
 30
0
 70
128
  0
VERTEX
  8
LAYER_2
 10
22.6172
 20
103.0077
  0
VERTEX
  8
LAYER_2
 10
22.6251
 20
103.0105
  0
SEQEND
  0
POLYLINE
  8
LAYER_2
  6
AIGENLINE002
 40
0.1305
 41
0.1305
 66
1
 10
0
 20
0
 30
0
 70
128
  0
VERTEX
  8
LAYER_2
 10
22.6092
 20
103.0044
  0
VERTEX
  8
LAYER_2
 10
22.6172
 20
103.0082
  0
SEQEND
  0
POLYLINE
  8
LAYER_2
  6
AIGENLINE002
 40
0.1305
 41
0.1305
 66
1
 10
0
 20
0
 30
0
 70
128
  0
VERTEX
  8
LAYER_2
 10
22.6012
 20
103.0007
  0
VERTEX
  8
LAYER_2
 10
22.6092
 20
103.0044
  0
SEQEND
  0
POLYLINE
  8
LAYER_2
  6
AIGENLINE002
 40
0.1305
 41
0.1305
 66
1
 10
0
 20
0
 30
0
 70
128
  0
VERTEX
  8
LAYER_2
 10
22.5937
 20
102.9969
  0
VERTEX
  8
LAYER_2
 10
22.6012
 20
103.0007
  0
SEQEND
  0
POLYLINE
  8
LAYER_2
  6
AIGENLINE002
 40
0.1305
 41
0.1305
 66
1
 10
0
 20
0
 30
0
 70
128
  0
VERTEX
  8
LAYER_2
 10
22.5862
 20
102.9927
  0
VERTEX
  8
LAYER_2
 10
22.5937
 20
102.9969
  0
SEQEND
  0
POLYLINE
  8
LAYER_2
  6
AIGENLINE002
 40
0.1305
 41
0.1305
 66
1
 10
0
 20
0
 30
0
 70
128
  0
VERTEX
  8
LAYER_2
 10
22.5787
 20
102.9885
  0
VERTEX
  8
LAYER_2
 10
22.5862
 20
102.9932
  0
SEQEND
  0
POLYLINE
  8
LAYER_2
  6
AIGENLINE002
 40
0.1305
 41
0.1305
 66
1
 10
0
 20
0
 30
0
 70
128
  0
VERTEX
  8
LAYER_2
 10
22.5717
 20
102.9843
  0
VERTEX
  8
LAYER_2
 10
22.5792
 20
102.9889
  0
SEQEND
  0
POLYLINE
  8
LAYER_2
  6
AIGENLINE002
 40
0.1305
 41
0.1305
 66
1
 10
0
 20
0
 30
0
 70
128
  0
VERTEX
  8
LAYER_2
 10
22.5646
 20
102.9796
  0
VERTEX
  8
LAYER_2
 10
22.5717
 20
102.9843
  0
SEQEND
  0
POLYLINE
  8
LAYER_2
  6
AIGENLINE002
 40
0.1305
 41
0.1305
 66
1
 10
0
 20
0
 30
0
 70
128
  0
VERTEX
  8
LAYER_2
 10
22.5576
 20
102.9744
  0
VERTEX
  8
LAYER_2
 10
22.5646
 20
102.9796
  0
SEQEND
  0
POLYLINE
  8
LAYER_2
  6
AIGENLINE002
 40
0.1305
 41
0.1305
 66
1
 10
0
 20
0
 30
0
 70
128
  0
VERTEX
  8
LAYER_2
 10
22.551
 20
102.9693
  0
VERTEX
  8
LAYER_2
 10
22.5576
 20
102.9744
  0
SEQEND
  0
POLYLINE
  8
LAYER_2
  6
AIGENLINE002
 40
0.1305
 41
0.1305
 66
1
 10
0
 20
0
 30
0
 70
128
  0
VERTEX
  8
LAYER_2
 10
22.5445
 20
102.9636
  0
VERTEX
  8
LAYER_2
 10
22.551
 20
102.9693
  0
SEQEND
  0
POLYLINE
  8
LAYER_2
  6
AIGENLINE002
 40
0.1305
 41
0.1305
 66
1
 10
0
 20
0
 30
0
 70
128
  0
VERTEX
  8
LAYER_2
 10
22.5384
 20
102.9575
  0
VERTEX
  8
LAYER_2
 10
22.5449
 20
102.9636
  0
SEQEND
  0
POLYLINE
  8
LAYER_2
  6
AIGENLINE002
 40
0.1305
 41
0.1305
 66
1
 10
0
 20
0
 30
0
 70
128
  0
VERTEX
  8
LAYER_2
 10
22.5318
 20
102.9519
  0
VERTEX
  8
LAYER_2
 10
22.5384
 20
102.958
  0
SEQEND
  0
POLYLINE
  8
LAYER_2
  6
AIGENLINE002
 40
0.1305
 41
0.1305
 66
1
 10
0
 20
0
 30
0
 70
128
  0
VERTEX
  8
LAYER_2
 10
22.5262
 20
102.9458
  0
VERTEX
  8
LAYER_2
 10
22.5323
 20
102.9524
  0
SEQEND
  0
POLYLINE
  8
LAYER_2
  6
AIGENLINE002
 40
0.1305
 41
0.1305
 66
1
 10
0
 20
0
 30
0
 70
128
  0
VERTEX
  8
LAYER_2
 10
22.5201
 20
102.9392
  0
VERTEX
  8
LAYER_2
 10
22.5262
 20
102.9458
  0
SEQEND
  0
POLYLINE
  8
LAYER_2
  6
AIGENLINE002
 40
0.1305
 41
0.1305
 66
1
 10
0
 20
0
 30
0
 70
128
  0
VERTEX
  8
LAYER_2
 10
22.5149
 20
102.9331
  0
VERTEX
  8
LAYER_2
 10
22.5206
 20
102.9392
  0
SEQEND
  0
POLYLINE
  8
LAYER_2
  6
AIGENLINE002
 40
0.1305
 41
0.1305
 66
1
 10
0
 20
0
 30
0
 70
128
  0
VERTEX
  8
LAYER_2
 10
22.5098
 20
102.9261
  0
VERTEX
  8
LAYER_2
 10
22.5149
 20
102.9331
  0
SEQEND
  0
POLYLINE
  8
LAYER_2
  6
AIGENLINE002
 40
0.1305
 41
0.1305
 66
1
 10
0
 20
0
 30
0
 70
128
  0
VERTEX
  8
LAYER_2
 10
22.5046
 20
102.9191
  0
VERTEX
  8
LAYER_2
 10
22.5098
 20
102.9261
  0
SEQEND
  0
POLYLINE
  8
LAYER_2
  6
AIGENLINE002
 40
0.1305
 41
0.1305
 66
1
 10
0
 20
0
 30
0
 70
128
  0
VERTEX
  8
LAYER_2
 10
22.4999
 20
102.912
  0
VERTEX
  8
LAYER_2
 10
22.5051
 20
102.9191
  0
SEQEND
  0
POLYLINE
  8
LAYER_2
  6
AIGENLINE002
 40
0.1305
 41
0.1305
 66
1
 10
0
 20
0
 30
0
 70
128
  0
VERTEX
  8
LAYER_2
 10
22.4952
 20
102.905
  0
VERTEX
  8
LAYER_2
 10
22.4999
 20
102.9125
  0
SEQEND
  0
ENDBLK
  0
BLOCK
  8
LAYER_2
  2
AIGNBL0201002C
 70
64
 10
0
 20
0
 30
0
  3
AIGNBL0201002C
  0
POLYLINE
  8
LAYER_2
  6
AIGENLINE002
 40
0.1305
 41
0.1305
 66
1
 10
0
 20
0
 30
0
 70
128
  0
VERTEX
  8
LAYER_2
 10
22.7002
 20
103.025
  0
VERTEX
  8
LAYER_2
 10
22.7086
 20
103.025
  0
SEQEND
  0
POLYLINE
  8
LAYER_2
  6
AIGENLINE002
 40
0.1305
 41
0.1305
 66
1
 10
0
 20
0
 30
0
 70
128
  0
VERTEX
  8
LAYER_2
 10
22.6917
 20
103.0246
  0
VERTEX
  8
LAYER_2
 10
22.7002
 20
103.025
  0
SEQEND
  0
POLYLINE
  8
LAYER_2
  6
AIGENLINE002
 40
0.1305
 41
0.1305
 66
1
 10
0
 20
0
 30
0
 70
128
  0
VERTEX
  8
LAYER_2
 10
22.6833
 20
103.0236
  0
VERTEX
  8
LAYER_2
 10
22.6917
 20
103.0241
  0
SEQEND
  0
POLYLINE
  8
LAYER_2
  6
AIGENLINE002
 40
0.1305
 41
0.1305
 66
1
 10
0
 20
0
 30
0
 70
128
  0
VERTEX
  8
LAYER_2
 10
22.6748
 20
103.0227
  0
VERTEX
  8
LAYER_2
 10
22.6833
 20
103.0236
  0
SEQEND
  0
POLYLINE
  8
LAYER_2
  6
AIGENLINE002
 40
0.1305
 41
0.1305
 66
1
 10
0
 20
0
 30
0
 70
128
  0
VERTEX
  8
LAYER_2
 10
22.6664
 20
103.0213
  0
VERTEX
  8
LAYER_2
 10
22.6748
 20
103.0227
  0
SEQEND
  0
POLYLINE
  8
LAYER_2
  6
AIGENLINE002
 40
0.1305
 41
0.1305
 66
1
 10
0
 20
0
 30
0
 70
128
  0
VERTEX
  8
LAYER_2
 10
22.658
 20
103.0199
  0
VERTEX
  8
LAYER_2
 10
22.6664
 20
103.0218
  0
SEQEND
  0
POLYLINE
  8
LAYER_2
  6
AIGENLINE002
 40
0.1305
 41
0.1305
 66
1
 10
0
 20
0
 30
0
 70
128
  0
VERTEX
  8
LAYER_2
 10
22.6495
 20
103.018
  0
VERTEX
  8
LAYER_2
 10
22.6575
 20
103.0199
  0
SEQEND
  0
POLYLINE
  8
LAYER_2
  6
AIGENLINE002
 40
0.1305
 41
0.1305
 66
1
 10
0
 20
0
 30
0
 70
128
  0
VERTEX
  8
LAYER_2
 10
22.6415
 20
103.0161
  0
VERTEX
  8
LAYER_2
 10
22.6495
 20
103.018
  0
SEQEND
  0
ENDBLK
  0
BLOCK
  8
LAYER_2
  2
AIGNBL0201002D
 70
64
 10
0
 20
0
 30
0
  3
AIGNBL0201002D
  0
POLYLINE
  8
LAYER_2
  6
AIGENLINE002
 40
0.1305
 41
0.1305
 66
1
 10
0
 20
0
 30
0
 70
128
  0
VERTEX
  8
LAYER_2
 10
22.9553
 20
102.9969
  0
VERTEX
  8
LAYER_2
 10
22.9627
 20
102.9927
  0
SEQEND
  0
POLYLINE
  8
LAYER_2
  6
AIGENLINE002
 40
0.1305
 41
0.1305
 66
1
 10
0
 20
0
 30
0
 70
128
  0
VERTEX
  8
LAYER_2
 10
22.9477
 20
103.0007
  0
VERTEX
  8
LAYER_2
 10
22.9553
 20
102.9969
  0
SEQEND
  0
POLYLINE
  8
LAYER_2
  6
AIGENLINE002
 40
0.1305
 41
0.1305
 66
1
 10
0
 20
0
 30
0
 70
128
  0
VERTEX
  8
LAYER_2
 10
22.9398
 20
103.0044
  0
VERTEX
  8
LAYER_2
 10
22.9477
 20
103.0007
  0
SEQEND
  0
POLYLINE
  8
LAYER_2
  6
AIGENLINE002
 40
0.1305
 41
0.1305
 66
1
 10
0
 20
0
 30
0
 70
128
  0
VERTEX
  8
LAYER_2
 10
22.9318
 20
103.0077
  0
VERTEX
  8
LAYER_2
 10
22.9398
 20
103.004
  0
SEQEND
  0
POLYLINE
  8
LAYER_2
  6
AIGENLINE002
 40
0.1305
 41
0.1305
 66
1
 10
0
 20
0
 30
0
 70
128
  0
VERTEX
  8
LAYER_2
 10
22.9238
 20
103.0105
  0
VERTEX
  8
LAYER_2
 10
22.9318
 20
103.0077
  0
SEQEND
  0
POLYLINE
  8
LAYER_2
  6
AIGENLINE002
 40
0.1305
 41
0.1305
 66
1
 10
0
 20
0
 30
0
 70
128
  0
VERTEX
  8
LAYER_2
 10
22.9159
 20
103.0133
  0
VERTEX
  8
LAYER_2
 10
22.9238
 20
103.0105
  0
SEQEND
  0
POLYLINE
  8
LAYER_2
  6
AIGENLINE002
 40
0.1305
 41
0.1305
 66
1
 10
0
 20
0
 30
0
 70
128
  0
VERTEX
  8
LAYER_2
 10
22.9074
 20
103.0157
  0
VERTEX
  8
LAYER_2
 10
22.9154
 20
103.0133
  0
SEQEND
  0
POLYLINE
  8
LAYER_2
  6
AIGENLINE002
 40
0.1305
 41
0.1305
 66
1
 10
0
 20
0
 30
0
 70
128
  0
VERTEX
  8
LAYER_2
 10
22.8994
 20
103.018
  0
VERTEX
  8
LAYER_2
 10
22.9074
 20
103.0157
  0
SEQEND
  0
POLYLINE
  8
LAYER_2
  6
AIGENLINE002
 40
0.1305
 41
0.1305
 66
1
 10
0
 20
0
 30
0
 70
128
  0
VERTEX
  8
LAYER_2
 10
22.891
 20
103.0199
  0
VERTEX
  8
LAYER_2
 10
22.899
 20
103.018
  0
SEQEND
  0
POLYLINE
  8
LAYER_2
  6
AIGENLINE002
 40
0.1305
 41
0.1305
 66
1
 10
0
 20
0
 30
0
 70
128
  0
VERTEX
  8
LAYER_2
 10
22.8826
 20
103.0213
  0
VERTEX
  8
LAYER_2
 10
22.891
 20
103.0194
  0
SEQEND
  0
POLYLINE
  8
LAYER_2
  6
AIGENLINE002
 40
0.1305
 41
0.1305
 66
1
 10
0
 20
0
 30
0
 70
128
  0
VERTEX
  8
LAYER_2
 10
22.8741
 20
103.0227
  0
VERTEX
  8
LAYER_2
 10
22.8826
 20
103.0213
  0
SEQEND
  0
POLYLINE
  8
LAYER_2
  6
AIGENLINE002
 40
0.1305
 41
0.1305
 66
1
 10
0
 20
0
 30
0
 70
128
  0
VERTEX
  8
LAYER_2
 10
22.8657
 20
103.0236
  0
VERTEX
  8
LAYER_2
 10
22.8741
 20
103.0227
  0
SEQEND
  0
POLYLINE
  8
LAYER_2
  6
AIGENLINE002
 40
0.1305
 41
0.1305
 66
1
 10
0
 20
0
 30
0
 70
128
  0
VERTEX
  8
LAYER_2
 10
22.8572
 20
103.0246
  0
VERTEX
  8
LAYER_2
 10
22.8657
 20
103.0236
  0
SEQEND
  0
POLYLINE
  8
LAYER_2
  6
AIGENLINE002
 40
0.1305
 41
0.1305
 66
1
 10
0
 20
0
 30
0
 70
128
  0
VERTEX
  8
LAYER_2
 10
22.8483
 20
103.025
  0
VERTEX
  8
LAYER_2
 10
22.8568
 20
103.0246
  0
SEQEND
  0
POLYLINE
  8
LAYER_2
  6
AIGENLINE002
 40
0.1305
 41
0.1305
 66
1
 10
0
 20
0
 30
0
 70
128
  0
VERTEX
  8
LAYER_2
 10
22.8399
 20
103.025
  0
VERTEX
  8
LAYER_2
 10
22.8483
 20
103.025
  0
SEQEND
  0
ENDBLK
  0
BLOCK
  8
LAYER_2
  2
AIGNBL0201002E
 70
64
 10
0
 20
0
 30
0
  3
AIGNBL0201002E
  0
POLYLINE
  8
LAYER_2
  6
AIGENLINE002
 40
0.1305
 41
0.1305
 66
1
 10
0
 20
0
 30
0
 70
128
  0
VERTEX
  8
LAYER_2
 10
22.9979
 20
102.9688
  0
VERTEX
  8
LAYER_2
 10
23.0045
 20
102.9632
  0
SEQEND
  0
POLYLINE
  8
LAYER_2
  6
AIGENLINE002
 40
0.1305
 41
0.1305
 66
1
 10
0
 20
0
 30
0
 70
128
  0
VERTEX
  8
LAYER_2
 10
22.9914
 20
102.9739
  0
VERTEX
  8
LAYER_2
 10
22.9979
 20
102.9688
  0
SEQEND
  0
POLYLINE
  8
LAYER_2
  6
AIGENLINE002
 40
0.1305
 41
0.1305
 66
1
 10
0
 20
0
 30
0
 70
128
  0
VERTEX
  8
LAYER_2
 10
22.9843
 20
102.9791
  0
VERTEX
  8
LAYER_2
 10
22.9914
 20
102.9739
  0
SEQEND
  0
POLYLINE
  8
LAYER_2
  6
AIGENLINE002
 40
0.1305
 41
0.1305
 66
1
 10
0
 20
0
 30
0
 70
128
  0
VERTEX
  8
LAYER_2
 10
22.9773
 20
102.9838
  0
VERTEX
  8
LAYER_2
 10
22.9843
 20
102.9786
  0
SEQEND
  0
POLYLINE
  8
LAYER_2
  6
AIGENLINE002
 40
0.1305
 41
0.1305
 66
1
 10
0
 20
0
 30
0
 70
128
  0
VERTEX
  8
LAYER_2
 10
22.9703
 20
102.9885
  0
VERTEX
  8
LAYER_2
 10
22.9778
 20
102.9838
  0
SEQEND
  0
ENDBLK
  0
BLOCK
  8
LAYER_2
  2
AIGNBL0201002F
 70
64
 10
0
 20
0
 30
0
  3
AIGNBL0201002F
  0
POLYLINE
  8
LAYER_2
  6
AIGENLINE003
 40
0.1305
 41
0.1305
 66
1
 10
0
 20
0
 30
0
 70
128
  0
VERTEX
  8
LAYER_2
 10
23.0232
 20
102.9453
  0
VERTEX
  8
LAYER_2
 10
23.0289
 20
102.9388
  0
SEQEND
  0
POLYLINE
  8
LAYER_2
  6
AIGENLINE003
 40
0.1305
 41
0.1305
 66
1
 10
0
 20
0
 30
0
 70
128
  0
VERTEX
  8
LAYER_2
 10
23.0171
 20
102.9514
  0
VERTEX
  8
LAYER_2
 10
23.0232
 20
102.9449
  0
SEQEND
  0
ENDBLK
  0
BLOCK
  8
LAYER_2
  2
AIGNBL02010030
 70
64
 10
0
 20
0
 30
0
  3
AIGNBL02010030
  0
POLYLINE
  8
LAYER_2
  6
AIGENLINE002
 40
0.1305
 41
0.1305
 66
1
 10
0
 20
0
 30
0
 70
128
  0
VERTEX
  8
LAYER_2
 10
23.0584
 20
102.897
  0
VERTEX
  8
LAYER_2
 10
23.0622
 20
102.8895
  0
SEQEND
  0
POLYLINE
  8
LAYER_2
  6
AIGENLINE002
 40
0.1305
 41
0.1305
 66
1
 10
0
 20
0
 30
0
 70
128
  0
VERTEX
  8
LAYER_2
 10
23.0537
 20
102.9041
  0
VERTEX
  8
LAYER_2
 10
23.0579
 20
102.8966
  0
SEQEND
  0
POLYLINE
  8
LAYER_2
  6
AIGENLINE002
 40
0.1305
 41
0.1305
 66
1
 10
0
 20
0
 30
0
 70
128
  0
VERTEX
  8
LAYER_2
 10
23.049
 20
102.9116
  0
VERTEX
  8
LAYER_2
 10
23.0537
 20
102.9041
  0
SEQEND
  0
POLYLINE
  8
LAYER_2
  6
AIGENLINE002
 40
0.1305
 41
0.1305
 66
1
 10
0
 20
0
 30
0
 70
128
  0
VERTEX
  8
LAYER_2
 10
23.0448
 20
102.9186
  0
VERTEX
  8
LAYER_2
 10
23.0495
 20
102.9111
  0
SEQEND
  0
POLYLINE
  8
LAYER_2
  6
AIGENLINE002
 40
0.1305
 41
0.1305
 66
1
 10
0
 20
0
 30
0
 70
128
  0
VERTEX
  8
LAYER_2
 10
23.0392
 20
102.9256
  0
VERTEX
  8
LAYER_2
 10
23.0443
 20
102.9186
  0
SEQEND
  0
POLYLINE
  8
LAYER_2
  6
AIGENLINE002
 40
0.1305
 41
0.1305
 66
1
 10
0
 20
0
 30
0
 70
128
  0
VERTEX
  8
LAYER_2
 10
23.034
 20
102.9322
  0
VERTEX
  8
LAYER_2
 10
23.0392
 20
102.9256
  0
SEQEND
  0
POLYLINE
  8
LAYER_2
  6
AIGENLINE002
 40
0.1305
 41
0.1305
 66
1
 10
0
 20
0
 30
0
 70
128
  0
VERTEX
  8
LAYER_2
 10
23.0289
 20
102.9388
  0
VERTEX
  8
LAYER_2
 10
23.0345
 20
102.9322
  0
SEQEND
  0
ENDBLK
  0
BLOCK
  8
LAYER_2
  2
AIGNBL02010031
 70
64
 10
0
 20
0
 30
0
  3
AIGNBL02010031
  0
POLYLINE
  8
LAYER_2
  6
AIGENLINE002
 40
0.1305
 41
0.1305
 66
1
 10
0
 20
0
 30
0
 70
128
  0
VERTEX
  8
LAYER_2
 10
23.0729
 20
102.8661
  0
VERTEX
  8
LAYER_2
 10
23.0758
 20
102.8581
  0
SEQEND
  0
POLYLINE
  8
LAYER_2
  6
AIGENLINE002
 40
0.1305
 41
0.1305
 66
1
 10
0
 20
0
 30
0
 70
128
  0
VERTEX
  8
LAYER_2
 10
23.0697
 20
102.8741
  0
VERTEX
  8
LAYER_2
 10
23.0729
 20
102.8661
  0
SEQEND
  0
POLYLINE
  8
LAYER_2
  6
AIGENLINE002
 40
0.1305
 41
0.1305
 66
1
 10
0
 20
0
 30
0
 70
128
  0
VERTEX
  8
LAYER_2
 10
23.0659
 20
102.8816
  0
VERTEX
  8
LAYER_2
 10
23.0697
 20
102.8741
  0
SEQEND
  0
ENDBLK
  0
BLOCK
  8
LAYER_2
  2
AIGNBL02010032
 70
64
 10
0
 20
0
 30
0
  3
AIGNBL02010032
  0
POLYLINE
  8
LAYER_2
  6
AIGENLINE002
 40
0.1305
 41
0.1305
 66
1
 10
0
 20
0
 30
0
 70
128
  0
VERTEX
  8
LAYER_2
 10
23.0828
 20
102.8333
  0
VERTEX
  8
LAYER_2
 10
23.0847
 20
102.8253
  0
SEQEND
  0
POLYLINE
  8
LAYER_2
  6
AIGENLINE002
 40
0.1305
 41
0.1305
 66
1
 10
0
 20
0
 30
0
 70
128
  0
VERTEX
  8
LAYER_2
 10
23.0809
 20
102.8417
  0
VERTEX
  8
LAYER_2
 10
23.0833
 20
102.8337
  0
SEQEND
  0
POLYLINE
  8
LAYER_2
  6
AIGENLINE002
 40
0.1305
 41
0.1305
 66
1
 10
0
 20
0
 30
0
 70
128
  0
VERTEX
  8
LAYER_2
 10
23.0786
 20
102.8497
  0
VERTEX
  8
LAYER_2
 10
23.0809
 20
102.8417
  0
SEQEND
  0
ENDBLK
  0
BLOCK
  8
LAYER_2
  2
AIGNBL02010033
 70
64
 10
0
 20
0
 30
0
  3
AIGNBL02010033
  0
POLYLINE
  8
LAYER_2
  6
AIGENLINE004
 40
0.1305
 41
0.1305
 66
1
 10
0
 20
0
 30
0
 70
128
  0
VERTEX
  8
LAYER_2
 10
23.1719
 20
102.2255
  0
VERTEX
  8
LAYER_2
 10
23.1756
 20
102.2162
  0
SEQEND
  0
POLYLINE
  8
LAYER_2
  6
AIGENLINE004
 40
0.1305
 41
0.1305
 66
1
 10
0
 20
0
 30
0
 70
128
  0
VERTEX
  8
LAYER_2
 10
23.1686
 20
102.2354
  0
VERTEX
  8
LAYER_2
 10
23.1719
 20
102.226
  0
SEQEND
  0
POLYLINE
  8
LAYER_2
  6
AIGENLINE004
 40
0.1305
 41
0.1305
 66
1
 10
0
 20
0
 30
0
 70
128
  0
VERTEX
  8
LAYER_2
 10
23.1658
 20
102.2448
  0
VERTEX
  8
LAYER_2
 10
23.1686
 20
102.2354
  0
SEQEND
  0
POLYLINE
  8
LAYER_2
  6
AIGENLINE004
 40
0.1305
 41
0.1305
 66
1
 10
0
 20
0
 30
0
 70
128
  0
VERTEX
  8
LAYER_2
 10
23.1635
 20
102.2551
  0
VERTEX
  8
LAYER_2
 10
23.1658
 20
102.2452
  0
SEQEND
  0
POLYLINE
  8
LAYER_2
  6
AIGENLINE004
 40
0.1305
 41
0.1305
 66
1
 10
0
 20
0
 30
0
 70
128
  0
VERTEX
  8
LAYER_2
 10
23.1611
 20
102.2649
  0
VERTEX
  8
LAYER_2
 10
23.1635
 20
102.2551
  0
SEQEND
  0
ENDBLK
  0
BLOCK
  8
LAYER_2
  2
AIGNBL02010034
 70
64
 10
0
 20
0
 30
0
  3
AIGNBL02010034
  0
POLYLINE
  8
LAYER_2
  6
AIGENLINE004
 40
0.1305
 41
0.1305
 66
1
 10
0
 20
0
 30
0
 70
128
  0
VERTEX
  8
LAYER_2
 10
23.4448
 20
102.0253
  0
VERTEX
  8
LAYER_2
 10
23.4551
 20
102.0253
  0
SEQEND
  0
POLYLINE
  8
LAYER_2
  6
AIGENLINE004
 40
0.1305
 41
0.1305
 66
1
 10
0
 20
0
 30
0
 70
128
  0
VERTEX
  8
LAYER_2
 10
23.4345
 20
102.0258
  0
VERTEX
  8
LAYER_2
 10
23.4448
 20
102.0253
  0
SEQEND
  0
POLYLINE
  8
LAYER_2
  6
AIGENLINE004
 40
0.1305
 41
0.1305
 66
1
 10
0
 20
0
 30
0
 70
128
  0
VERTEX
  8
LAYER_2
 10
23.4242
 20
102.0263
  0
VERTEX
  8
LAYER_2
 10
23.4345
 20
102.0253
  0
SEQEND
  0
POLYLINE
  8
LAYER_2
  6
AIGENLINE004
 40
0.1305
 41
0.1305
 66
1
 10
0
 20
0
 30
0
 70
128
  0
VERTEX
  8
LAYER_2
 10
23.4143
 20
102.0281
  0
VERTEX
  8
LAYER_2
 10
23.4246
 20
102.0263
  0
SEQEND
  0
POLYLINE
  8
LAYER_2
  6
AIGENLINE004
 40
0.1305
 41
0.1305
 66
1
 10
0
 20
0
 30
0
 70
128
  0
VERTEX
  8
LAYER_2
 10
23.404
 20
102.0291
  0
VERTEX
  8
LAYER_2
 10
23.4143
 20
102.0277
  0
SEQEND
  0
POLYLINE
  8
LAYER_2
  6
AIGENLINE004
 40
0.1305
 41
0.1305
 66
1
 10
0
 20
0
 30
0
 70
128
  0
VERTEX
  8
LAYER_2
 10
23.3937
 20
102.0314
  0
VERTEX
  8
LAYER_2
 10
23.404
 20
102.0291
  0
SEQEND
  0
POLYLINE
  8
LAYER_2
  6
AIGENLINE004
 40
0.1305
 41
0.1305
 66
1
 10
0
 20
0
 30
0
 70
128
  0
VERTEX
  8
LAYER_2
 10
23.3838
 20
102.0338
  0
VERTEX
  8
LAYER_2
 10
23.3937
 20
102.0314
  0
SEQEND
  0
POLYLINE
  8
LAYER_2
  6
AIGENLINE004
 40
0.1305
 41
0.1305
 66
1
 10
0
 20
0
 30
0
 70
128
  0
VERTEX
  8
LAYER_2
 10
23.374
 20
102.0361
  0
VERTEX
  8
LAYER_2
 10
23.3838
 20
102.0338
  0
SEQEND
  0
POLYLINE
  8
LAYER_2
  6
AIGENLINE004
 40
0.1305
 41
0.1305
 66
1
 10
0
 20
0
 30
0
 70
128
  0
VERTEX
  8
LAYER_2
 10
23.3641
 20
102.0394
  0
VERTEX
  8
LAYER_2
 10
23.374
 20
102.0361
  0
SEQEND
  0
POLYLINE
  8
LAYER_2
  6
AIGENLINE004
 40
0.1305
 41
0.1305
 66
1
 10
0
 20
0
 30
0
 70
128
  0
VERTEX
  8
LAYER_2
 10
23.3543
 20
102.0422
  0
VERTEX
  8
LAYER_2
 10
23.3637
 20
102.0389
  0
SEQEND
  0
POLYLINE
  8
LAYER_2
  6
AIGENLINE004
 40
0.1305
 41
0.1305
 66
1
 10
0
 20
0
 30
0
 70
128
  0
VERTEX
  8
LAYER_2
 10
23.3449
 20
102.0459
  0
VERTEX
  8
LAYER_2
 10
23.3538
 20
102.0422
  0
SEQEND
  0
POLYLINE
  8
LAYER_2
  6
AIGENLINE004
 40
0.1305
 41
0.1305
 66
1
 10
0
 20
0
 30
0
 70
128
  0
VERTEX
  8
LAYER_2
 10
23.3351
 20
102.0502
  0
VERTEX
  8
LAYER_2
 10
23.3445
 20
102.0464
  0
SEQEND
  0
POLYLINE
  8
LAYER_2
  6
AIGENLINE004
 40
0.1305
 41
0.1305
 66
1
 10
0
 20
0
 30
0
 70
128
  0
VERTEX
  8
LAYER_2
 10
23.3257
 20
102.0544
  0
VERTEX
  8
LAYER_2
 10
23.3351
 20
102.0497
  0
SEQEND
  0
POLYLINE
  8
LAYER_2
  6
AIGENLINE004
 40
0.1305
 41
0.1305
 66
1
 10
0
 20
0
 30
0
 70
128
  0
VERTEX
  8
LAYER_2
 10
23.3168
 20
102.0591
  0
VERTEX
  8
LAYER_2
 10
23.3262
 20
102.0544
  0
SEQEND
  0
POLYLINE
  8
LAYER_2
  6
AIGENLINE004
 40
0.1305
 41
0.1305
 66
1
 10
0
 20
0
 30
0
 70
128
  0
VERTEX
  8
LAYER_2
 10
23.3074
 20
102.0638
  0
VERTEX
  8
LAYER_2
 10
23.3163
 20
102.0586
  0
SEQEND
  0
POLYLINE
  8
LAYER_2
  6
AIGENLINE004
 40
0.1305
 41
0.1305
 66
1
 10
0
 20
0
 30
0
 70
128
  0
VERTEX
  8
LAYER_2
 10
23.2985
 20
102.0689
  0
VERTEX
  8
LAYER_2
 10
23.3074
 20
102.0638
  0
SEQEND
  0
POLYLINE
  8
LAYER_2
  6
AIGENLINE004
 40
0.1305
 41
0.1305
 66
1
 10
0
 20
0
 30
0
 70
128
  0
VERTEX
  8
LAYER_2
 10
23.2901
 20
102.0746
  0
VERTEX
  8
LAYER_2
 10
23.2985
 20
102.0689
  0
SEQEND
  0
POLYLINE
  8
LAYER_2
  6
AIGENLINE004
 40
0.1305
 41
0.1305
 66
1
 10
0
 20
0
 30
0
 70
128
  0
VERTEX
  8
LAYER_2
 10
23.2816
 20
102.0802
  0
VERTEX
  8
LAYER_2
 10
23.2901
 20
102.0741
  0
SEQEND
  0
POLYLINE
  8
LAYER_2
  6
AIGENLINE004
 40
0.1305
 41
0.1305
 66
1
 10
0
 20
0
 30
0
 70
128
  0
VERTEX
  8
LAYER_2
 10
23.2732
 20
102.0863
  0
VERTEX
  8
LAYER_2
 10
23.2811
 20
102.0797
  0
SEQEND
  0
POLYLINE
  8
LAYER_2
  6
AIGENLINE004
 40
0.1305
 41
0.1305
 66
1
 10
0
 20
0
 30
0
 70
128
  0
VERTEX
  8
LAYER_2
 10
23.2652
 20
102.0928
  0
VERTEX
  8
LAYER_2
 10
23.2732
 20
102.0863
  0
SEQEND
  0
POLYLINE
  8
LAYER_2
  6
AIGENLINE004
 40
0.1305
 41
0.1305
 66
1
 10
0
 20
0
 30
0
 70
128
  0
VERTEX
  8
LAYER_2
 10
23.2572
 20
102.0994
  0
VERTEX
  8
LAYER_2
 10
23.2652
 20
102.0928
  0
SEQEND
  0
POLYLINE
  8
LAYER_2
  6
AIGENLINE004
 40
0.1305
 41
0.1305
 66
1
 10
0
 20
0
 30
0
 70
128
  0
VERTEX
  8
LAYER_2
 10
23.2497
 20
102.106
  0
VERTEX
  8
LAYER_2
 10
23.2572
 20
102.0989
  0
SEQEND
  0
POLYLINE
  8
LAYER_2
  6
AIGENLINE004
 40
0.1305
 41
0.1305
 66
1
 10
0
 20
0
 30
0
 70
128
  0
VERTEX
  8
LAYER_2
 10
23.2422
 20
102.1135
  0
VERTEX
  8
LAYER_2
 10
23.2497
 20
102.106
  0
SEQEND
  0
POLYLINE
  8
LAYER_2
  6
AIGENLINE004
 40
0.1305
 41
0.1305
 66
1
 10
0
 20
0
 30
0
 70
128
  0
VERTEX
  8
LAYER_2
 10
23.2352
 20
102.121
  0
VERTEX
  8
LAYER_2
 10
23.2422
 20
102.1135
  0
SEQEND
  0
POLYLINE
  8
LAYER_2
  6
AIGENLINE004
 40
0.1305
 41
0.1305
 66
1
 10
0
 20
0
 30
0
 70
128
  0
VERTEX
  8
LAYER_2
 10
23.2286
 20
102.1285
  0
VERTEX
  8
LAYER_2
 10
23.2357
 20
102.121
  0
SEQEND
  0
POLYLINE
  8
LAYER_2
  6
AIGENLINE004
 40
0.1305
 41
0.1305
 66
1
 10
0
 20
0
 30
0
 70
128
  0
VERTEX
  8
LAYER_2
 10
23.2221
 20
102.1364
  0
VERTEX
  8
LAYER_2
 10
23.2286
 20
102.1285
  0
SEQEND
  0
POLYLINE
  8
LAYER_2
  6
AIGENLINE004
 40
0.1305
 41
0.1305
 66
1
 10
0
 20
0
 30
0
 70
128
  0
VERTEX
  8
LAYER_2
 10
23.2155
 20
102.1444
  0
VERTEX
  8
LAYER_2
 10
23.2221
 20
102.1364
  0
SEQEND
  0
POLYLINE
  8
LAYER_2
  6
AIGENLINE004
 40
0.1305
 41
0.1305
 66
1
 10
0
 20
0
 30
0
 70
128
  0
VERTEX
  8
LAYER_2
 10
23.2094
 20
102.1524
  0
VERTEX
  8
LAYER_2
 10
23.2155
 20
102.1444
  0
SEQEND
  0
POLYLINE
  8
LAYER_2
  6
AIGENLINE004
 40
0.1305
 41
0.1305
 66
1
 10
0
 20
0
 30
0
 70
128
  0
VERTEX
  8
LAYER_2
 10
23.2038
 20
102.1613
  0
VERTEX
  8
LAYER_2
 10
23.2094
 20
102.1529
  0
SEQEND
  0
POLYLINE
  8
LAYER_2
  6
AIGENLINE004
 40
0.1305
 41
0.1305
 66
1
 10
0
 20
0
 30
0
 70
128
  0
VERTEX
  8
LAYER_2
 10
23.1981
 20
102.1697
  0
VERTEX
  8
LAYER_2
 10
23.2038
 20
102.1613
  0
SEQEND
  0
POLYLINE
  8
LAYER_2
  6
AIGENLINE004
 40
0.1305
 41
0.1305
 66
1
 10
0
 20
0
 30
0
 70
128
  0
VERTEX
  8
LAYER_2
 10
23.193
 20
102.1786
  0
VERTEX
  8
LAYER_2
 10
23.1981
 20
102.1697
  0
SEQEND
  0
POLYLINE
  8
LAYER_2
  6
AIGENLINE004
 40
0.1305
 41
0.1305
 66
1
 10
0
 20
0
 30
0
 70
128
  0
VERTEX
  8
LAYER_2
 10
23.1883
 20
102.1876
  0
VERTEX
  8
LAYER_2
 10
23.1935
 20
102.1786
  0
SEQEND
  0
POLYLINE
  8
LAYER_2
  6
AIGENLINE004
 40
0.1305
 41
0.1305
 66
1
 10
0
 20
0
 30
0
 70
128
  0
VERTEX
  8
LAYER_2
 10
23.1836
 20
102.1969
  0
VERTEX
  8
LAYER_2
 10
23.1883
 20
102.1876
  0
SEQEND
  0
POLYLINE
  8
LAYER_2
  6
AIGENLINE004
 40
0.1305
 41
0.1305
 66
1
 10
0
 20
0
 30
0
 70
128
  0
VERTEX
  8
LAYER_2
 10
23.1794
 20
102.2063
  0
VERTEX
  8
LAYER_2
 10
23.1836
 20
102.1969
  0
SEQEND
  0
ENDBLK
  0
BLOCK
  8
LAYER_2
  2
AIGNBL02010035
 70
64
 10
0
 20
0
 30
0
  3
AIGNBL02010035
  0
POLYLINE
  8
LAYER_2
  6
AIGENLINE005
 40
0.1305
 41
0.1305
 66
1
 10
0
 20
0
 30
0
 70
128
  0
VERTEX
  8
LAYER_2
 10
35.4075
 20
93.0154
  0
VERTEX
  8
LAYER_2
 10
35.4094
 20
93.0032
  0
SEQEND
  0
POLYLINE
  8
LAYER_2
  6
AIGENLINE005
 40
0.1305
 41
0.1305
 66
1
 10
0
 20
0
 30
0
 70
128
  0
VERTEX
  8
LAYER_2
 10
35.4061
 20
93.0281
  0
VERTEX
  8
LAYER_2
 10
35.408
 20
93.0159
  0
SEQEND
  0
ENDBLK
  0
BLOCK
  8
LAYER_2
  2
AIGNBL02010036
 70
64
 10
0
 20
0
 30
0
  3
AIGNBL02010036
  0
POLYLINE
  8
LAYER_2
  6
AIGENLINE006
 40
0.1305
 41
0.1305
 66
1
 10
0
 20
0
 30
0
 70
128
  0
VERTEX
  8
LAYER_2
 10
35.4141
 20
92.9784
  0
VERTEX
  8
LAYER_2
 10
35.4169
 20
92.9662
  0
SEQEND
  0
POLYLINE
  8
LAYER_2
  6
AIGENLINE006
 40
0.1305
 41
0.1305
 66
1
 10
0
 20
0
 30
0
 70
128
  0
VERTEX
  8
LAYER_2
 10
35.4117
 20
92.991
  0
VERTEX
  8
LAYER_2
 10
35.4141
 20
92.9788
  0
SEQEND
  0
POLYLINE
  8
LAYER_2
  6
AIGENLINE006
 40
0.1305
 41
0.1305
 66
1
 10
0
 20
0
 30
0
 70
128
  0
VERTEX
  8
LAYER_2
 10
35.4094
 20
93.0032
  0
VERTEX
  8
LAYER_2
 10
35.4117
 20
92.991
  0
SEQEND
  0
ENDBLK
  0
BLOCK
  8
LAYER_2
  2
AIGNBL02010037
 70
64
 10
0
 20
0
 30
0
  3
AIGNBL02010037
  0
POLYLINE
  8
LAYER_2
  6
AIGENLINE007
 40
0.1305
 41
0.1305
 66
1
 10
0
 20
0
 30
0
 70
128
  0
VERTEX
  8
LAYER_2
 10
35.4352
 20
92.9038
  0
VERTEX
  8
LAYER_2
 10
35.4399
 20
92.8916
  0
SEQEND
  0
POLYLINE
  8
LAYER_2
  6
AIGENLINE007
 40
0.1305
 41
0.1305
 66
1
 10
0
 20
0
 30
0
 70
128
  0
VERTEX
  8
LAYER_2
 10
35.431
 20
92.9165
  0
VERTEX
  8
LAYER_2
 10
35.4352
 20
92.9043
  0
SEQEND
  0
POLYLINE
  8
LAYER_2
  6
AIGENLINE007
 40
0.1305
 41
0.1305
 66
1
 10
0
 20
0
 30
0
 70
128
  0
VERTEX
  8
LAYER_2
 10
35.4272
 20
92.9287
  0
VERTEX
  8
LAYER_2
 10
35.431
 20
92.9165
  0
SEQEND
  0
POLYLINE
  8
LAYER_2
  6
AIGENLINE007
 40
0.1305
 41
0.1305
 66
1
 10
0
 20
0
 30
0
 70
128
  0
VERTEX
  8
LAYER_2
 10
35.4234
 20
92.9409
  0
VERTEX
  8
LAYER_2
 10
35.4272
 20
92.9287
  0
SEQEND
  0
ENDBLK
  0
BLOCK
  8
LAYER_2
  2
AIGNBL02010038
 70
64
 10
0
 20
0
 30
0
  3
AIGNBL02010038
  0
POLYLINE
  8
LAYER_2
  6
AIGENLINE008
 40
0.1305
 41
0.1305
 66
1
 10
0
 20
0
 30
0
 70
128
  0
VERTEX
  8
LAYER_2
 10
35.4446
 20
92.879
  0
VERTEX
  8
LAYER_2
 10
35.4497
 20
92.8668
  0
SEQEND
  0
POLYLINE
  8
LAYER_2
  6
AIGENLINE008
 40
0.1305
 41
0.1305
 66
1
 10
0
 20
0
 30
0
 70
128
  0
VERTEX
  8
LAYER_2
 10
35.4399
 20
92.8916
  0
VERTEX
  8
LAYER_2
 10
35.445
 20
92.8794
  0
SEQEND
  0
ENDBLK
  0
BLOCK
  8
LAYER_2
  2
AIGNBL02010039
 70
64
 10
0
 20
0
 30
0
  3
AIGNBL02010039
  0
POLYLINE
  8
LAYER_2
  6
AIGENLINE008
 40
0.1305
 41
0.1305
 66
1
 10
0
 20
0
 30
0
 70
128
  0
VERTEX
  8
LAYER_2
 10
35.5088
 20
92.7599
  0
VERTEX
  8
LAYER_2
 10
35.5168
 20
92.7491
  0
SEQEND
  0
POLYLINE
  8
LAYER_2
  6
AIGENLINE008
 40
0.1305
 41
0.1305
 66
1
 10
0
 20
0
 30
0
 70
128
  0
VERTEX
  8
LAYER_2
 10
35.5013
 20
92.7711
  0
VERTEX
  8
LAYER_2
 10
35.5093
 20
92.7599
  0
SEQEND
  0
POLYLINE
  8
LAYER_2
  6
AIGENLINE008
 40
0.1305
 41
0.1305
 66
1
 10
0
 20
0
 30
0
 70
128
  0
VERTEX
  8
LAYER_2
 10
35.4938
 20
92.7828
  0
VERTEX
  8
LAYER_2
 10
35.5013
 20
92.7711
  0
SEQEND
  0
POLYLINE
  8
LAYER_2
  6
AIGENLINE008
 40
0.1305
 41
0.1305
 66
1
 10
0
 20
0
 30
0
 70
128
  0
VERTEX
  8
LAYER_2
 10
35.4868
 20
92.7946
  0
VERTEX
  8
LAYER_2
 10
35.4943
 20
92.7828
  0
SEQEND
  0
POLYLINE
  8
LAYER_2
  6
AIGENLINE008
 40
0.1305
 41
0.1305
 66
1
 10
0
 20
0
 30
0
 70
128
  0
VERTEX
  8
LAYER_2
 10
35.4797
 20
92.8063
  0
VERTEX
  8
LAYER_2
 10
35.4868
 20
92.7946
  0
SEQEND
  0
POLYLINE
  8
LAYER_2
  6
AIGENLINE008
 40
0.1305
 41
0.1305
 66
1
 10
0
 20
0
 30
0
 70
128
  0
VERTEX
  8
LAYER_2
 10
35.4732
 20
92.818
  0
VERTEX
  8
LAYER_2
 10
35.4797
 20
92.8063
  0
SEQEND
  0
POLYLINE
  8
LAYER_2
  6
AIGENLINE008
 40
0.1305
 41
0.1305
 66
1
 10
0
 20
0
 30
0
 70
128
  0
VERTEX
  8
LAYER_2
 10
35.4666
 20
92.8302
  0
VERTEX
  8
LAYER_2
 10
35.4732
 20
92.818
  0
SEQEND
  0
POLYLINE
  8
LAYER_2
  6
AIGENLINE008
 40
0.1305
 41
0.1305
 66
1
 10
0
 20
0
 30
0
 70
128
  0
VERTEX
  8
LAYER_2
 10
35.461
 20
92.8424
  0
VERTEX
  8
LAYER_2
 10
35.4671
 20
92.8302
  0
SEQEND
  0
POLYLINE
  8
LAYER_2
  6
AIGENLINE008
 40
0.1305
 41
0.1305
 66
1
 10
0
 20
0
 30
0
 70
128
  0
VERTEX
  8
LAYER_2
 10
35.4549
 20
92.8546
  0
VERTEX
  8
LAYER_2
 10
35.4605
 20
92.8424
  0
SEQEND
  0
ENDBLK
  0
BLOCK
  8
LAYER_2
  2
AIGNBL0201003A
 70
64
 10
0
 20
0
 30
0
  3
AIGNBL0201003A
  0
POLYLINE
  8
LAYER_2
  6
AIGENLINE009
 40
0.1305
 41
0.1305
 66
1
 10
0
 20
0
 30
0
 70
128
  0
VERTEX
  8
LAYER_2
 10
35.5426
 20
92.7162
  0
VERTEX
  8
LAYER_2
 10
35.5519
 20
92.7055
  0
SEQEND
  0
POLYLINE
  8
LAYER_2
  6
AIGENLINE009
 40
0.1305
 41
0.1305
 66
1
 10
0
 20
0
 30
0
 70
128
  0
VERTEX
  8
LAYER_2
 10
35.5336
 20
92.7266
  0
VERTEX
  8
LAYER_2
 10
35.5426
 20
92.7158
  0
SEQEND
  0
ENDBLK
  0
BLOCK
  8
LAYER_2
  2
AIGNBL0201003B
 70
64
 10
0
 20
0
 30
0
  3
AIGNBL0201003B
  0
POLYLINE
  8
LAYER_2
  6
AIGENLINE008
 40
0.1305
 41
0.1305
 66
1
 10
0
 20
0
 30
0
 70
128
  0
VERTEX
  8
LAYER_2
 10
35.5613
 20
92.6951
  0
VERTEX
  8
LAYER_2
 10
35.5707
 20
92.6853
  0
SEQEND
  0
POLYLINE
  8
LAYER_2
  6
AIGENLINE008
 40
0.1305
 41
0.1305
 66
1
 10
0
 20
0
 30
0
 70
128
  0
VERTEX
  8
LAYER_2
 10
35.5519
 20
92.7055
  0
VERTEX
  8
LAYER_2
 10
35.5613
 20
92.6951
  0
SEQEND
  0
ENDBLK
  0
BLOCK
  8
LAYER_2
  2
AIGNBL0201003C
 70
64
 10
0
 20
0
 30
0
  3
AIGNBL0201003C
  0
POLYLINE
  8
LAYER_2
  6
AIGENLINE009
 40
0.1305
 41
0.1305
 66
1
 10
0
 20
0
 30
0
 70
128
  0
VERTEX
  8
LAYER_2
 10
35.5805
 20
92.675
  0
VERTEX
  8
LAYER_2
 10
35.5909
 20
92.6656
  0
SEQEND
  0
POLYLINE
  8
LAYER_2
  6
AIGENLINE009
 40
0.1305
 41
0.1305
 66
1
 10
0
 20
0
 30
0
 70
128
  0
VERTEX
  8
LAYER_2
 10
35.5707
 20
92.6853
  0
VERTEX
  8
LAYER_2
 10
35.5805
 20
92.6754
  0
SEQEND
  0
ENDBLK
  0
BLOCK
  8
LAYER_2
  2
AIGNBL0201003D
 70
64
 10
0
 20
0
 30
0
  3
AIGNBL0201003D
  0
POLYLINE
  8
LAYER_2
  6
AIGENLINE008
 40
0.1305
 41
0.1305
 66
1
 10
0
 20
0
 30
0
 70
128
  0
VERTEX
  8
LAYER_2
 10
35.6012
 20
92.6562
  0
VERTEX
  8
LAYER_2
 10
35.6115
 20
92.6468
  0
SEQEND
  0
POLYLINE
  8
LAYER_2
  6
AIGENLINE008
 40
0.1305
 41
0.1305
 66
1
 10
0
 20
0
 30
0
 70
128
  0
VERTEX
  8
LAYER_2
 10
35.5909
 20
92.6656
  0
VERTEX
  8
LAYER_2
 10
35.6012
 20
92.6562
  0
SEQEND
  0
ENDBLK
  0
BLOCK
  8
LAYER_2
  2
AIGNBL0201003E
 70
64
 10
0
 20
0
 30
0
  3
AIGNBL0201003E
  0
POLYLINE
  8
LAYER_2
  6
AIGENLINE008
 40
0.1305
 41
0.1305
 66
1
 10
0
 20
0
 30
0
 70
128
  0
VERTEX
  8
LAYER_2
 10
35.8131
 20
92.5334
  0
VERTEX
  8
LAYER_2
 10
35.8258
 20
92.5291
  0
SEQEND
  0
POLYLINE
  8
LAYER_2
  6
AIGENLINE008
 40
0.1305
 41
0.1305
 66
1
 10
0
 20
0
 30
0
 70
128
  0
VERTEX
  8
LAYER_2
 10
35.8005
 20
92.5376
  0
VERTEX
  8
LAYER_2
 10
35.8131
 20
92.5329
  0
SEQEND
  0
POLYLINE
  8
LAYER_2
  6
AIGENLINE008
 40
0.1305
 41
0.1305
 66
1
 10
0
 20
0
 30
0
 70
128
  0
VERTEX
  8
LAYER_2
 10
35.7878
 20
92.5423
  0
VERTEX
  8
LAYER_2
 10
35.8005
 20
92.5376
  0
SEQEND
  0
POLYLINE
  8
LAYER_2
  6
AIGENLINE008
 40
0.1305
 41
0.1305
 66
1
 10
0
 20
0
 30
0
 70
128
  0
VERTEX
  8
LAYER_2
 10
35.7751
 20
92.547
  0
VERTEX
  8
LAYER_2
 10
35.7878
 20
92.5418
  0
SEQEND
  0
POLYLINE
  8
LAYER_2
  6
AIGENLINE008
 40
0.1305
 41
0.1305
 66
1
 10
0
 20
0
 30
0
 70
128
  0
VERTEX
  8
LAYER_2
 10
35.763
 20
92.5526
  0
VERTEX
  8
LAYER_2
 10
35.7751
 20
92.547
  0
SEQEND
  0
POLYLINE
  8
LAYER_2
  6
AIGENLINE008
 40
0.1305
 41
0.1305
 66
1
 10
0
 20
0
 30
0
 70
128
  0
VERTEX
  8
LAYER_2
 10
35.7503
 20
92.5577
  0
VERTEX
  8
LAYER_2
 10
35.7625
 20
92.5521
  0
SEQEND
  0
POLYLINE
  8
LAYER_2
  6
AIGENLINE008
 40
0.1305
 41
0.1305
 66
1
 10
0
 20
0
 30
0
 70
128
  0
VERTEX
  8
LAYER_2
 10
35.7381
 20
92.5638
  0
VERTEX
  8
LAYER_2
 10
35.7503
 20
92.5577
  0
SEQEND
  0
POLYLINE
  8
LAYER_2
  6
AIGENLINE008
 40
0.1305
 41
0.1305
 66
1
 10
0
 20
0
 30
0
 70
128
  0
VERTEX
  8
LAYER_2
 10
35.7259
 20
92.5695
  0
VERTEX
  8
LAYER_2
 10
35.7381
 20
92.5634
  0
SEQEND
  0
POLYLINE
  8
LAYER_2
  6
AIGENLINE008
 40
0.1305
 41
0.1305
 66
1
 10
0
 20
0
 30
0
 70
128
  0
VERTEX
  8
LAYER_2
 10
35.7137
 20
92.576
  0
VERTEX
  8
LAYER_2
 10
35.7259
 20
92.5695
  0
SEQEND
  0
POLYLINE
  8
LAYER_2
  6
AIGENLINE008
 40
0.1305
 41
0.1305
 66
1
 10
0
 20
0
 30
0
 70
128
  0
VERTEX
  8
LAYER_2
 10
35.702
 20
92.5826
  0
VERTEX
  8
LAYER_2
 10
35.7142
 20
92.576
  0
SEQEND
  0
POLYLINE
  8
LAYER_2
  6
AIGENLINE008
 40
0.1305
 41
0.1305
 66
1
 10
0
 20
0
 30
0
 70
128
  0
VERTEX
  8
LAYER_2
 10
35.6898
 20
92.5901
  0
VERTEX
  8
LAYER_2
 10
35.702
 20
92.5826
  0
SEQEND
  0
POLYLINE
  8
LAYER_2
  6
AIGENLINE008
 40
0.1305
 41
0.1305
 66
1
 10
0
 20
0
 30
0
 70
128
  0
VERTEX
  8
LAYER_2
 10
35.6785
 20
92.5971
  0
VERTEX
  8
LAYER_2
 10
35.6903
 20
92.5896
  0
SEQEND
  0
POLYLINE
  8
LAYER_2
  6
AIGENLINE008
 40
0.1305
 41
0.1305
 66
1
 10
0
 20
0
 30
0
 70
128
  0
VERTEX
  8
LAYER_2
 10
35.6668
 20
92.6046
  0
VERTEX
  8
LAYER_2
 10
35.6785
 20
92.5971
  0
SEQEND
  0
ENDBLK
  0
BLOCK
  8
LAYER_2
  2
AIGNBL0201003F
 70
64
 10
0
 20
0
 30
0
  3
AIGNBL0201003F
  0
POLYLINE
  8
LAYER_2
  6
AIGENLINE007
 40
0.1305
 41
0.1305
 66
1
 10
0
 20
0
 30
0
 70
128
  0
VERTEX
  8
LAYER_2
 10
35.8638
 20
92.5188
  0
VERTEX
  8
LAYER_2
 10
35.8764
 20
92.5155
  0
SEQEND
  0
POLYLINE
  8
LAYER_2
  6
AIGENLINE007
 40
0.1305
 41
0.1305
 66
1
 10
0
 20
0
 30
0
 70
128
  0
VERTEX
  8
LAYER_2
 10
35.8511
 20
92.5221
  0
VERTEX
  8
LAYER_2
 10
35.8638
 20
92.5188
  0
SEQEND
  0
POLYLINE
  8
LAYER_2
  6
AIGENLINE007
 40
0.1305
 41
0.1305
 66
1
 10
0
 20
0
 30
0
 70
128
  0
VERTEX
  8
LAYER_2
 10
35.8385
 20
92.5254
  0
VERTEX
  8
LAYER_2
 10
35.8511
 20
92.5216
  0
SEQEND
  0
POLYLINE
  8
LAYER_2
  6
AIGENLINE007
 40
0.1305
 41
0.1305
 66
1
 10
0
 20
0
 30
0
 70
128
  0
VERTEX
  8
LAYER_2
 10
35.8258
 20
92.5291
  0
VERTEX
  8
LAYER_2
 10
35.8385
 20
92.5254
  0
SEQEND
  0
ENDBLK
  0
BLOCK
  8
LAYER_2
  2
AIGNBL02010040
 70
64
 10
0
 20
0
 30
0
  3
AIGNBL02010040
  0
POLYLINE
  8
LAYER_2
  6
AIGENLINE006
 40
0.1305
 41
0.1305
 66
1
 10
0
 20
0
 30
0
 70
128
  0
VERTEX
  8
LAYER_2
 10
35.9266
 20
92.5076
  0
VERTEX
  8
LAYER_2
 10
35.9393
 20
92.5062
  0
SEQEND
  0
POLYLINE
  8
LAYER_2
  6
AIGENLINE006
 40
0.1305
 41
0.1305
 66
1
 10
0
 20
0
 30
0
 70
128
  0
VERTEX
  8
LAYER_2
 10
35.9139
 20
92.5094
  0
VERTEX
  8
LAYER_2
 10
35.9266
 20
92.5076
  0
SEQEND
  0
POLYLINE
  8
LAYER_2
  6
AIGENLINE006
 40
0.1305
 41
0.1305
 66
1
 10
0
 20
0
 30
0
 70
128
  0
VERTEX
  8
LAYER_2
 10
35.9018
 20
92.5108
  0
VERTEX
  8
LAYER_2
 10
35.9144
 20
92.5094
  0
SEQEND
  0
POLYLINE
  8
LAYER_2
  6
AIGENLINE006
 40
0.1305
 41
0.1305
 66
1
 10
0
 20
0
 30
0
 70
128
  0
VERTEX
  8
LAYER_2
 10
35.8891
 20
92.5137
  0
VERTEX
  8
LAYER_2
 10
35.9018
 20
92.5113
  0
SEQEND
  0
POLYLINE
  8
LAYER_2
  6
AIGENLINE006
 40
0.1305
 41
0.1305
 66
1
 10
0
 20
0
 30
0
 70
128
  0
VERTEX
  8
LAYER_2
 10
35.8764
 20
92.516
  0
VERTEX
  8
LAYER_2
 10
35.8891
 20
92.5137
  0
SEQEND
  0
ENDBLK
  0
BLOCK
  8
LAYER_2
  2
AIGNBL02010041
 70
64
 10
0
 20
0
 30
0
  3
AIGNBL02010041
  0
POLYLINE
  8
LAYER_2
  6
AIGENLINE005
 40
0.1305
 41
0.1305
 66
1
 10
0
 20
0
 30
0
 70
128
  0
VERTEX
  8
LAYER_2
 10
35.9641
 20
92.5043
  0
VERTEX
  8
LAYER_2
 10
35.9763
 20
92.5038
  0
SEQEND
  0
POLYLINE
  8
LAYER_2
  6
AIGENLINE005
 40
0.1305
 41
0.1305
 66
1
 10
0
 20
0
 30
0
 70
128
  0
VERTEX
  8
LAYER_2
 10
35.9519
 20
92.5048
  0
VERTEX
  8
LAYER_2
 10
35.9641
 20
92.5038
  0
SEQEND
  0
POLYLINE
  8
LAYER_2
  6
AIGENLINE005
 40
0.1305
 41
0.1305
 66
1
 10
0
 20
0
 30
0
 70
128
  0
VERTEX
  8
LAYER_2
 10
35.9393
 20
92.5062
  0
VERTEX
  8
LAYER_2
 10
35.9515
 20
92.5048
  0
SEQEND
  0
ENDBLK
  0
BLOCK
  8
LAYER_2
  2
AIGNBL02010042
 70
64
 10
0
 20
0
 30
0
  3
AIGNBL02010042
  0
POLYLINE
  8
LAYER_2
  6
AIGENLINE010
 40
0.1305
 41
0.1305
 66
1
 10
0
 20
0
 30
0
 70
128
  0
VERTEX
  8
LAYER_2
 10
64.711
 20
92.0114
  0
VERTEX
  8
LAYER_2
 10
64.7176
 20
92.0091
  0
SEQEND
  0
POLYLINE
  8
LAYER_2
  6
AIGENLINE010
 40
0.1305
 41
0.1305
 66
1
 10
0
 20
0
 30
0
 70
128
  0
VERTEX
  8
LAYER_2
 10
64.7044
 20
92.0138
  0
VERTEX
  8
LAYER_2
 10
64.711
 20
92.0114
  0
SEQEND
  0
POLYLINE
  8
LAYER_2
  6
AIGENLINE010
 40
0.1305
 41
0.1305
 66
1
 10
0
 20
0
 30
0
 70
128
  0
VERTEX
  8
LAYER_2
 10
64.6979
 20
92.0157
  0
VERTEX
  8
LAYER_2
 10
64.7044
 20
92.0133
  0
SEQEND
  0
POLYLINE
  8
LAYER_2
  6
AIGENLINE010
 40
0.1305
 41
0.1305
 66
1
 10
0
 20
0
 30
0
 70
128
  0
VERTEX
  8
LAYER_2
 10
64.6913
 20
92.0175
  0
VERTEX
  8
LAYER_2
 10
64.6979
 20
92.0157
  0
SEQEND
  0
POLYLINE
  8
LAYER_2
  6
AIGENLINE010
 40
0.1305
 41
0.1305
 66
1
 10
0
 20
0
 30
0
 70
128
  0
VERTEX
  8
LAYER_2
 10
64.6847
 20
92.019
  0
VERTEX
  8
LAYER_2
 10
64.6913
 20
92.0175
  0
SEQEND
  0
POLYLINE
  8
LAYER_2
  6
AIGENLINE010
 40
0.1305
 41
0.1305
 66
1
 10
0
 20
0
 30
0
 70
128
  0
VERTEX
  8
LAYER_2
 10
64.6782
 20
92.0199
  0
VERTEX
  8
LAYER_2
 10
64.6847
 20
92.019
  0
SEQEND
  0
POLYLINE
  8
LAYER_2
  6
AIGENLINE010
 40
0.1305
 41
0.1305
 66
1
 10
0
 20
0
 30
0
 70
128
  0
VERTEX
  8
LAYER_2
 10
64.6711
 20
92.0208
  0
VERTEX
  8
LAYER_2
 10
64.6777
 20
92.0199
  0
SEQEND
  0
POLYLINE
  8
LAYER_2
  6
AIGENLINE010
 40
0.1305
 41
0.1305
 66
1
 10
0
 20
0
 30
0
 70
128
  0
VERTEX
  8
LAYER_2
 10
64.6646
 20
92.0218
  0
VERTEX
  8
LAYER_2
 10
64.6711
 20
92.0208
  0
SEQEND
  0
ENDBLK
  0
BLOCK
  8
LAYER_2
  2
AIGNBL02010043
 70
64
 10
0
 20
0
 30
0
  3
AIGNBL02010043
  0
POLYLINE
  8
LAYER_2
  6
AIGENLINE010
 40
0.1305
 41
0.1305
 66
1
 10
0
 20
0
 30
0
 70
128
  0
VERTEX
  8
LAYER_2
 10
64.7298
 20
92.0035
  0
VERTEX
  8
LAYER_2
 10
64.7359
 20
92.0007
  0
SEQEND
  0
POLYLINE
  8
LAYER_2
  6
AIGENLINE010
 40
0.1305
 41
0.1305
 66
1
 10
0
 20
0
 30
0
 70
128
  0
VERTEX
  8
LAYER_2
 10
64.7237
 20
92.0063
  0
VERTEX
  8
LAYER_2
 10
64.7302
 20
92.0035
  0
SEQEND
  0
ENDBLK
  0
BLOCK
  8
LAYER_2
  2
AIGNBL02010044
 70
64
 10
0
 20
0
 30
0
  3
AIGNBL02010044
  0
POLYLINE
  8
LAYER_2
  6
AIGENLINE010
 40
0.1305
 41
0.1305
 66
1
 10
0
 20
0
 30
0
 70
128
  0
VERTEX
  8
LAYER_2
 10
64.7537
 20
91.9904
  0
VERTEX
  8
LAYER_2
 10
64.7593
 20
91.9866
  0
SEQEND
  0
POLYLINE
  8
LAYER_2
  6
AIGENLINE010
 40
0.1305
 41
0.1305
 66
1
 10
0
 20
0
 30
0
 70
128
  0
VERTEX
  8
LAYER_2
 10
64.748
 20
91.9941
  0
VERTEX
  8
LAYER_2
 10
64.7541
 20
91.9904
  0
SEQEND
  0
POLYLINE
  8
LAYER_2
  6
AIGENLINE010
 40
0.1305
 41
0.1305
 66
1
 10
0
 20
0
 30
0
 70
128
  0
VERTEX
  8
LAYER_2
 10
64.742
 20
91.9974
  0
VERTEX
  8
LAYER_2
 10
64.748
 20
91.9936
  0
SEQEND
  0
ENDBLK
  0
BLOCK
  8
LAYER_2
  2
AIGNBL02010045
 70
64
 10
0
 20
0
 30
0
  3
AIGNBL02010045
  0
POLYLINE
  8
LAYER_2
  6
AIGENLINE010
 40
0.1305
 41
0.1305
 66
1
 10
0
 20
0
 30
0
 70
128
  0
VERTEX
  8
LAYER_2
 10
64.7701
 20
91.9786
  0
VERTEX
  8
LAYER_2
 10
64.7752
 20
91.9744
  0
SEQEND
  0
POLYLINE
  8
LAYER_2
  6
AIGENLINE010
 40
0.1305
 41
0.1305
 66
1
 10
0
 20
0
 30
0
 70
128
  0
VERTEX
  8
LAYER_2
 10
64.7649
 20
91.9829
  0
VERTEX
  8
LAYER_2
 10
64.7701
 20
91.9782
  0
SEQEND
  0
ENDBLK
  0
BLOCK
  8
LAYER_2
  2
AIGNBL02010046
 70
64
 10
0
 20
0
 30
0
  3
AIGNBL02010046
  0
POLYLINE
  8
LAYER_2
  6
AIGENLINE010
 40
0.1305
 41
0.1305
 66
1
 10
0
 20
0
 30
0
 70
128
  0
VERTEX
  8
LAYER_2
 10
64.7945
 20
91.9552
  0
VERTEX
  8
LAYER_2
 10
64.7992
 20
91.95
  0
SEQEND
  0
POLYLINE
  8
LAYER_2
  6
AIGENLINE010
 40
0.1305
 41
0.1305
 66
1
 10
0
 20
0
 30
0
 70
128
  0
VERTEX
  8
LAYER_2
 10
64.7903
 20
91.9603
  0
VERTEX
  8
LAYER_2
 10
64.7949
 20
91.9552
  0
SEQEND
  0
POLYLINE
  8
LAYER_2
  6
AIGENLINE010
 40
0.1305
 41
0.1305
 66
1
 10
0
 20
0
 30
0
 70
128
  0
VERTEX
  8
LAYER_2
 10
64.7856
 20
91.965
  0
VERTEX
  8
LAYER_2
 10
64.7907
 20
91.9599
  0
SEQEND
  0
POLYLINE
  8
LAYER_2
  6
AIGENLINE010
 40
0.1305
 41
0.1305
 66
1
 10
0
 20
0
 30
0
 70
128
  0
VERTEX
  8
LAYER_2
 10
64.7804
 20
91.9697
  0
VERTEX
  8
LAYER_2
 10
64.7856
 20
91.965
  0
SEQEND
  0
ENDBLK
  0
BLOCK
  8
LAYER_2
  2
AIGNBL02010047
 70
64
 10
0
 20
0
 30
0
  3
AIGNBL02010047
  0
POLYLINE
  8
LAYER_2
  6
AIGENLINE010
 40
0.1305
 41
0.1305
 66
1
 10
0
 20
0
 30
0
 70
128
  0
VERTEX
  8
LAYER_2
 10
64.8151
 20
91.928
  0
VERTEX
  8
LAYER_2
 10
64.8189
 20
91.9219
  0
SEQEND
  0
POLYLINE
  8
LAYER_2
  6
AIGENLINE010
 40
0.1305
 41
0.1305
 66
1
 10
0
 20
0
 30
0
 70
128
  0
VERTEX
  8
LAYER_2
 10
64.8114
 20
91.9331
  0
VERTEX
  8
LAYER_2
 10
64.8151
 20
91.9275
  0
SEQEND
  0
ENDBLK
  0
BLOCK
  8
LAYER_2
  2
AIGNBL02010048
 70
64
 10
0
 20
0
 30
0
  3
AIGNBL02010048
  0
POLYLINE
  8
LAYER_2
  6
AIGENLINE010
 40
0.1305
 41
0.1305
 66
1
 10
0
 20
0
 30
0
 70
128
  0
VERTEX
  8
LAYER_2
 10
64.825
 20
91.9102
  0
VERTEX
  8
LAYER_2
 10
64.8278
 20
91.9031
  0
SEQEND
  0
POLYLINE
  8
LAYER_2
  6
AIGENLINE010
 40
0.1305
 41
0.1305
 66
1
 10
0
 20
0
 30
0
 70
128
  0
VERTEX
  8
LAYER_2
 10
64.8217
 20
91.9158
  0
VERTEX
  8
LAYER_2
 10
64.825
 20
91.9097
  0
SEQEND
  0
ENDBLK
  0
BLOCK
  8
LAYER_2
  2
AIGNBL02010049
 70
64
 10
0
 20
0
 30
0
  3
AIGNBL02010049
  0
POLYLINE
  8
LAYER_2
  6
AIGENLINE003
 40
0.1305
 41
0.1305
 66
1
 10
0
 20
0
 30
0
 70
128
  0
VERTEX
  8
LAYER_2
 10
70.4577
 20
102.8004
  0
VERTEX
  8
LAYER_2
 10
70.4567
 20
102.8089
  0
SEQEND
  0
POLYLINE
  8
LAYER_2
  6
AIGENLINE003
 40
0.1305
 41
0.1305
 66
1
 10
0
 20
0
 30
0
 70
128
  0
VERTEX
  8
LAYER_2
 10
70.4586
 20
102.792
  0
VERTEX
  8
LAYER_2
 10
70.4577
 20
102.8004
  0
SEQEND
  0
ENDBLK
  0
BLOCK
  8
LAYER_2
  2
AIGNBL0201004A
 70
64
 10
0
 20
0
 30
0
  3
AIGNBL0201004A
  0
POLYLINE
  8
LAYER_2
  6
AIGENLINE002
 40
0.1305
 41
0.1305
 66
1
 10
0
 20
0
 30
0
 70
128
  0
VERTEX
  8
LAYER_2
 10
70.4553
 20
102.8173
  0
VERTEX
  8
LAYER_2
 10
70.4539
 20
102.8253
  0
SEQEND
  0
POLYLINE
  8
LAYER_2
  6
AIGENLINE002
 40
0.1305
 41
0.1305
 66
1
 10
0
 20
0
 30
0
 70
128
  0
VERTEX
  8
LAYER_2
 10
70.4567
 20
102.8093
  0
VERTEX
  8
LAYER_2
 10
70.4558
 20
102.8173
  0
SEQEND
  0
ENDBLK
  0
BLOCK
  8
LAYER_2
  2
AIGNBL0201004B
 70
64
 10
0
 20
0
 30
0
  3
AIGNBL0201004B
  0
POLYLINE
  8
LAYER_2
  6
AIGENLINE002
 40
0.1305
 41
0.1305
 66
1
 10
0
 20
0
 30
0
 70
128
  0
VERTEX
  8
LAYER_2
 10
70.4384
 20
102.8745
  0
VERTEX
  8
LAYER_2
 10
70.4347
 20
102.882
  0
SEQEND
  0
POLYLINE
  8
LAYER_2
  6
AIGENLINE002
 40
0.1305
 41
0.1305
 66
1
 10
0
 20
0
 30
0
 70
128
  0
VERTEX
  8
LAYER_2
 10
70.4417
 20
102.8666
  0
VERTEX
  8
LAYER_2
 10
70.4384
 20
102.8745
  0
SEQEND
  0
POLYLINE
  8
LAYER_2
  6
AIGENLINE002
 40
0.1305
 41
0.1305
 66
1
 10
0
 20
0
 30
0
 70
128
  0
VERTEX
  8
LAYER_2
 10
70.4445
 20
102.8591
  0
VERTEX
  8
LAYER_2
 10
70.4417
 20
102.8666
  0
SEQEND
  0
ENDBLK
  0
BLOCK
  8
LAYER_2
  2
AIGNBL0201004C
 70
64
 10
0
 20
0
 30
0
  3
AIGNBL0201004C
  0
POLYLINE
  8
LAYER_2
  6
AIGENLINE002
 40
0.1305
 41
0.1305
 66
1
 10
0
 20
0
 30
0
 70
128
  0
VERTEX
  8
LAYER_2
 10
70.4131
 20
102.9191
  0
VERTEX
  8
LAYER_2
 10
70.408
 20
102.9261
  0
SEQEND
  0
POLYLINE
  8
LAYER_2
  6
AIGENLINE002
 40
0.1305
 41
0.1305
 66
1
 10
0
 20
0
 30
0
 70
128
  0
VERTEX
  8
LAYER_2
 10
70.4178
 20
102.912
  0
VERTEX
  8
LAYER_2
 10
70.4126
 20
102.9191
  0
SEQEND
  0
POLYLINE
  8
LAYER_2
  6
AIGENLINE002
 40
0.1305
 41
0.1305
 66
1
 10
0
 20
0
 30
0
 70
128
  0
VERTEX
  8
LAYER_2
 10
70.4225
 20
102.905
  0
VERTEX
  8
LAYER_2
 10
70.4178
 20
102.9125
  0
SEQEND
  0
ENDBLK
  0
BLOCK
  8
LAYER_2
  2
AIGNBL0201004D
 70
64
 10
0
 20
0
 30
0
  3
AIGNBL0201004D
  0
POLYLINE
  8
LAYER_2
  6
AIGENLINE002
 40
0.1305
 41
0.1305
 66
1
 10
0
 20
0
 30
0
 70
128
  0
VERTEX
  8
LAYER_2
 10
70.3859
 20
102.9519
  0
VERTEX
  8
LAYER_2
 10
70.3793
 20
102.958
  0
SEQEND
  0
POLYLINE
  8
LAYER_2
  6
AIGENLINE002
 40
0.1305
 41
0.1305
 66
1
 10
0
 20
0
 30
0
 70
128
  0
VERTEX
  8
LAYER_2
 10
70.3915
 20
102.9458
  0
VERTEX
  8
LAYER_2
 10
70.3854
 20
102.9524
  0
SEQEND
  0
POLYLINE
  8
LAYER_2
  6
AIGENLINE002
 40
0.1305
 41
0.1305
 66
1
 10
0
 20
0
 30
0
 70
128
  0
VERTEX
  8
LAYER_2
 10
70.3972
 20
102.9392
  0
VERTEX
  8
LAYER_2
 10
70.3915
 20
102.9458
  0
SEQEND
  0
POLYLINE
  8
LAYER_2
  6
AIGENLINE002
 40
0.1305
 41
0.1305
 66
1
 10
0
 20
0
 30
0
 70
128
  0
VERTEX
  8
LAYER_2
 10
70.4028
 20
102.9331
  0
VERTEX
  8
LAYER_2
 10
70.3972
 20
102.9392
  0
SEQEND
  0
ENDBLK
  0
BLOCK
  8
LAYER_2
  2
AIGNBL0201004E
 70
64
 10
0
 20
0
 30
0
  3
AIGNBL0201004E
  0
POLYLINE
  8
LAYER_2
  6
AIGENLINE002
 40
0.1305
 41
0.1305
 66
1
 10
0
 20
0
 30
0
 70
128
  0
VERTEX
  8
LAYER_2
 10
70.2926
 20
103.0105
  0
VERTEX
  8
LAYER_2
 10
70.2846
 20
103.0133
  0
SEQEND
  0
POLYLINE
  8
LAYER_2
  6
AIGENLINE002
 40
0.1305
 41
0.1305
 66
1
 10
0
 20
0
 30
0
 70
128
  0
VERTEX
  8
LAYER_2
 10
70.3006
 20
103.0077
  0
VERTEX
  8
LAYER_2
 10
70.2926
 20
103.0105
  0
SEQEND
  0
POLYLINE
  8
LAYER_2
  6
AIGENLINE002
 40
0.1305
 41
0.1305
 66
1
 10
0
 20
0
 30
0
 70
128
  0
VERTEX
  8
LAYER_2
 10
70.3085
 20
103.0044
  0
VERTEX
  8
LAYER_2
 10
70.3006
 20
103.0082
  0
SEQEND
  0
POLYLINE
  8
LAYER_2
  6
AIGENLINE002
 40
0.1305
 41
0.1305
 66
1
 10
0
 20
0
 30
0
 70
128
  0
VERTEX
  8
LAYER_2
 10
70.3165
 20
103.0007
  0
VERTEX
  8
LAYER_2
 10
70.3085
 20
103.0044
  0
SEQEND
  0
POLYLINE
  8
LAYER_2
  6
AIGENLINE002
 40
0.1305
 41
0.1305
 66
1
 10
0
 20
0
 30
0
 70
128
  0
VERTEX
  8
LAYER_2
 10
70.324
 20
102.9969
  0
VERTEX
  8
LAYER_2
 10
70.3165
 20
103.0007
  0
SEQEND
  0
POLYLINE
  8
LAYER_2
  6
AIGENLINE002
 40
0.1305
 41
0.1305
 66
1
 10
0
 20
0
 30
0
 70
128
  0
VERTEX
  8
LAYER_2
 10
70.3315
 20
102.9927
  0
VERTEX
  8
LAYER_2
 10
70.324
 20
102.9969
  0
SEQEND
  0
POLYLINE
  8
LAYER_2
  6
AIGENLINE002
 40
0.1305
 41
0.1305
 66
1
 10
0
 20
0
 30
0
 70
128
  0
VERTEX
  8
LAYER_2
 10
70.339
 20
102.9885
  0
VERTEX
  8
LAYER_2
 10
70.3315
 20
102.9932
  0
SEQEND
  0
POLYLINE
  8
LAYER_2
  6
AIGENLINE002
 40
0.1305
 41
0.1305
 66
1
 10
0
 20
0
 30
0
 70
128
  0
VERTEX
  8
LAYER_2
 10
70.3461
 20
102.9843
  0
VERTEX
  8
LAYER_2
 10
70.3386
 20
102.9889
  0
SEQEND
  0
POLYLINE
  8
LAYER_2
  6
AIGENLINE002
 40
0.1305
 41
0.1305
 66
1
 10
0
 20
0
 30
0
 70
128
  0
VERTEX
  8
LAYER_2
 10
70.3531
 20
102.9796
  0
VERTEX
  8
LAYER_2
 10
70.3461
 20
102.9843
  0
SEQEND
  0
POLYLINE
  8
LAYER_2
  6
AIGENLINE002
 40
0.1305
 41
0.1305
 66
1
 10
0
 20
0
 30
0
 70
128
  0
VERTEX
  8
LAYER_2
 10
70.3601
 20
102.9744
  0
VERTEX
  8
LAYER_2
 10
70.3531
 20
102.9796
  0
SEQEND
  0
POLYLINE
  8
LAYER_2
  6
AIGENLINE002
 40
0.1305
 41
0.1305
 66
1
 10
0
 20
0
 30
0
 70
128
  0
VERTEX
  8
LAYER_2
 10
70.3667
 20
102.9693
  0
VERTEX
  8
LAYER_2
 10
70.3601
 20
102.9744
  0
SEQEND
  0
POLYLINE
  8
LAYER_2
  6
AIGENLINE002
 40
0.1305
 41
0.1305
 66
1
 10
0
 20
0
 30
0
 70
128
  0
VERTEX
  8
LAYER_2
 10
70.3733
 20
102.9636
  0
VERTEX
  8
LAYER_2
 10
70.3667
 20
102.9693
  0
SEQEND
  0
ENDBLK
  0
BLOCK
  8
LAYER_2
  2
AIGNBL0201004F
 70
64
 10
0
 20
0
 30
0
  3
AIGNBL0201004F
  0
POLYLINE
  8
LAYER_2
  6
AIGENLINE002
 40
0.1305
 41
0.1305
 66
1
 10
0
 20
0
 30
0
 70
128
  0
VERTEX
  8
LAYER_2
 10
70.2176
 20
103.025
  0
VERTEX
  8
LAYER_2
 10
70.2091
 20
103.025
  0
SEQEND
  0
POLYLINE
  8
LAYER_2
  6
AIGENLINE002
 40
0.1305
 41
0.1305
 66
1
 10
0
 20
0
 30
0
 70
128
  0
VERTEX
  8
LAYER_2
 10
70.226
 20
103.0246
  0
VERTEX
  8
LAYER_2
 10
70.2176
 20
103.025
  0
SEQEND
  0
POLYLINE
  8
LAYER_2
  6
AIGENLINE002
 40
0.1305
 41
0.1305
 66
1
 10
0
 20
0
 30
0
 70
128
  0
VERTEX
  8
LAYER_2
 10
70.2345
 20
103.0236
  0
VERTEX
  8
LAYER_2
 10
70.226
 20
103.0241
  0
SEQEND
  0
POLYLINE
  8
LAYER_2
  6
AIGENLINE002
 40
0.1305
 41
0.1305
 66
1
 10
0
 20
0
 30
0
 70
128
  0
VERTEX
  8
LAYER_2
 10
70.2429
 20
103.0227
  0
VERTEX
  8
LAYER_2
 10
70.2345
 20
103.0236
  0
SEQEND
  0
POLYLINE
  8
LAYER_2
  6
AIGENLINE002
 40
0.1305
 41
0.1305
 66
1
 10
0
 20
0
 30
0
 70
128
  0
VERTEX
  8
LAYER_2
 10
70.2513
 20
103.0213
  0
VERTEX
  8
LAYER_2
 10
70.2429
 20
103.0227
  0
SEQEND
  0
POLYLINE
  8
LAYER_2
  6
AIGENLINE002
 40
0.1305
 41
0.1305
 66
1
 10
0
 20
0
 30
0
 70
128
  0
VERTEX
  8
LAYER_2
 10
70.2598
 20
103.0199
  0
VERTEX
  8
LAYER_2
 10
70.2513
 20
103.0218
  0
SEQEND
  0
POLYLINE
  8
LAYER_2
  6
AIGENLINE002
 40
0.1305
 41
0.1305
 66
1
 10
0
 20
0
 30
0
 70
128
  0
VERTEX
  8
LAYER_2
 10
70.2682
 20
103.018
  0
VERTEX
  8
LAYER_2
 10
70.2602
 20
103.0199
  0
SEQEND
  0
POLYLINE
  8
LAYER_2
  6
AIGENLINE002
 40
0.1305
 41
0.1305
 66
1
 10
0
 20
0
 30
0
 70
128
  0
VERTEX
  8
LAYER_2
 10
70.2762
 20
103.0161
  0
VERTEX
  8
LAYER_2
 10
70.2682
 20
103.018
  0
SEQEND
  0
ENDBLK
  0
BLOCK
  8
LAYER_2
  2
AIGNBL02010050
 70
64
 10
0
 20
0
 30
0
  3
AIGNBL02010050
  0
POLYLINE
  8
LAYER_2
  6
AIGENLINE002
 40
0.1305
 41
0.1305
 66
1
 10
0
 20
0
 30
0
 70
128
  0
VERTEX
  8
LAYER_2
 10
69.9625
 20
102.9969
  0
VERTEX
  8
LAYER_2
 10
69.955
 20
102.9927
  0
SEQEND
  0
POLYLINE
  8
LAYER_2
  6
AIGENLINE002
 40
0.1305
 41
0.1305
 66
1
 10
0
 20
0
 30
0
 70
128
  0
VERTEX
  8
LAYER_2
 10
69.97
 20
103.0007
  0
VERTEX
  8
LAYER_2
 10
69.9625
 20
102.9969
  0
SEQEND
  0
POLYLINE
  8
LAYER_2
  6
AIGENLINE002
 40
0.1305
 41
0.1305
 66
1
 10
0
 20
0
 30
0
 70
128
  0
VERTEX
  8
LAYER_2
 10
69.978
 20
103.0044
  0
VERTEX
  8
LAYER_2
 10
69.97
 20
103.0007
  0
SEQEND
  0
POLYLINE
  8
LAYER_2
  6
AIGENLINE002
 40
0.1305
 41
0.1305
 66
1
 10
0
 20
0
 30
0
 70
128
  0
VERTEX
  8
LAYER_2
 10
69.9859
 20
103.0077
  0
VERTEX
  8
LAYER_2
 10
69.978
 20
103.004
  0
SEQEND
  0
POLYLINE
  8
LAYER_2
  6
AIGENLINE002
 40
0.1305
 41
0.1305
 66
1
 10
0
 20
0
 30
0
 70
128
  0
VERTEX
  8
LAYER_2
 10
69.9939
 20
103.0105
  0
VERTEX
  8
LAYER_2
 10
69.9859
 20
103.0077
  0
SEQEND
  0
POLYLINE
  8
LAYER_2
  6
AIGENLINE002
 40
0.1305
 41
0.1305
 66
1
 10
0
 20
0
 30
0
 70
128
  0
VERTEX
  8
LAYER_2
 10
70.0019
 20
103.0133
  0
VERTEX
  8
LAYER_2
 10
69.9939
 20
103.0105
  0
SEQEND
  0
POLYLINE
  8
LAYER_2
  6
AIGENLINE002
 40
0.1305
 41
0.1305
 66
1
 10
0
 20
0
 30
0
 70
128
  0
VERTEX
  8
LAYER_2
 10
70.0098
 20
103.0157
  0
VERTEX
  8
LAYER_2
 10
70.0023
 20
103.0133
  0
SEQEND
  0
POLYLINE
  8
LAYER_2
  6
AIGENLINE002
 40
0.1305
 41
0.1305
 66
1
 10
0
 20
0
 30
0
 70
128
  0
VERTEX
  8
LAYER_2
 10
70.0183
 20
103.018
  0
VERTEX
  8
LAYER_2
 10
70.0103
 20
103.0157
  0
SEQEND
  0
POLYLINE
  8
LAYER_2
  6
AIGENLINE002
 40
0.1305
 41
0.1305
 66
1
 10
0
 20
0
 30
0
 70
128
  0
VERTEX
  8
LAYER_2
 10
70.0267
 20
103.0199
  0
VERTEX
  8
LAYER_2
 10
70.0183
 20
103.018
  0
SEQEND
  0
POLYLINE
  8
LAYER_2
  6
AIGENLINE002
 40
0.1305
 41
0.1305
 66
1
 10
0
 20
0
 30
0
 70
128
  0
VERTEX
  8
LAYER_2
 10
70.0352
 20
103.0213
  0
VERTEX
  8
LAYER_2
 10
70.0267
 20
103.0194
  0
SEQEND
  0
POLYLINE
  8
LAYER_2
  6
AIGENLINE002
 40
0.1305
 41
0.1305
 66
1
 10
0
 20
0
 30
0
 70
128
  0
VERTEX
  8
LAYER_2
 10
70.0436
 20
103.0227
  0
VERTEX
  8
LAYER_2
 10
70.0352
 20
103.0213
  0
SEQEND
  0
POLYLINE
  8
LAYER_2
  6
AIGENLINE002
 40
0.1305
 41
0.1305
 66
1
 10
0
 20
0
 30
0
 70
128
  0
VERTEX
  8
LAYER_2
 10
70.052
 20
103.0236
  0
VERTEX
  8
LAYER_2
 10
70.0436
 20
103.0227
  0
SEQEND
  0
POLYLINE
  8
LAYER_2
  6
AIGENLINE002
 40
0.1305
 41
0.1305
 66
1
 10
0
 20
0
 30
0
 70
128
  0
VERTEX
  8
LAYER_2
 10
70.0605
 20
103.0246
  0
VERTEX
  8
LAYER_2
 10
70.052
 20
103.0236
  0
SEQEND
  0
POLYLINE
  8
LAYER_2
  6
AIGENLINE002
 40
0.1305
 41
0.1305
 66
1
 10
0
 20
0
 30
0
 70
128
  0
VERTEX
  8
LAYER_2
 10
70.0694
 20
103.025
  0
VERTEX
  8
LAYER_2
 10
70.061
 20
103.0246
  0
SEQEND
  0
POLYLINE
  8
LAYER_2
  6
AIGENLINE002
 40
0.1305
 41
0.1305
 66
1
 10
0
 20
0
 30
0
 70
128
  0
VERTEX
  8
LAYER_2
 10
70.0778
 20
103.025
  0
VERTEX
  8
LAYER_2
 10
70.0694
 20
103.025
  0
SEQEND
  0
ENDBLK
  0
BLOCK
  8
LAYER_2
  2
AIGNBL02010051
 70
64
 10
0
 20
0
 30
0
  3
AIGNBL02010051
  0
POLYLINE
  8
LAYER_2
  6
AIGENLINE002
 40
0.1305
 41
0.1305
 66
1
 10
0
 20
0
 30
0
 70
128
  0
VERTEX
  8
LAYER_2
 10
69.9198
 20
102.9688
  0
VERTEX
  8
LAYER_2
 10
69.9132
 20
102.9632
  0
SEQEND
  0
POLYLINE
  8
LAYER_2
  6
AIGENLINE002
 40
0.1305
 41
0.1305
 66
1
 10
0
 20
0
 30
0
 70
128
  0
VERTEX
  8
LAYER_2
 10
69.9264
 20
102.9739
  0
VERTEX
  8
LAYER_2
 10
69.9198
 20
102.9688
  0
SEQEND
  0
POLYLINE
  8
LAYER_2
  6
AIGENLINE002
 40
0.1305
 41
0.1305
 66
1
 10
0
 20
0
 30
0
 70
128
  0
VERTEX
  8
LAYER_2
 10
69.9334
 20
102.9791
  0
VERTEX
  8
LAYER_2
 10
69.9264
 20
102.9739
  0
SEQEND
  0
POLYLINE
  8
LAYER_2
  6
AIGENLINE002
 40
0.1305
 41
0.1305
 66
1
 10
0
 20
0
 30
0
 70
128
  0
VERTEX
  8
LAYER_2
 10
69.9404
 20
102.9838
  0
VERTEX
  8
LAYER_2
 10
69.9334
 20
102.9786
  0
SEQEND
  0
POLYLINE
  8
LAYER_2
  6
AIGENLINE002
 40
0.1305
 41
0.1305
 66
1
 10
0
 20
0
 30
0
 70
128
  0
VERTEX
  8
LAYER_2
 10
69.9475
 20
102.9885
  0
VERTEX
  8
LAYER_2
 10
69.94
 20
102.9838
  0
SEQEND
  0
ENDBLK
  0
BLOCK
  8
LAYER_2
  2
AIGNBL02010052
 70
64
 10
0
 20
0
 30
0
  3
AIGNBL02010052
  0
POLYLINE
  8
LAYER_2
  6
AIGENLINE003
 40
0.1305
 41
0.1305
 66
1
 10
0
 20
0
 30
0
 70
128
  0
VERTEX
  8
LAYER_2
 10
69.8945
 20
102.9453
  0
VERTEX
  8
LAYER_2
 10
69.8889
 20
102.9388
  0
SEQEND
  0
POLYLINE
  8
LAYER_2
  6
AIGENLINE003
 40
0.1305
 41
0.1305
 66
1
 10
0
 20
0
 30
0
 70
128
  0
VERTEX
  8
LAYER_2
 10
69.9006
 20
102.9514
  0
VERTEX
  8
LAYER_2
 10
69.8945
 20
102.9449
  0
SEQEND
  0
ENDBLK
  0
BLOCK
  8
LAYER_2
  2
AIGNBL02010053
 70
64
 10
0
 20
0
 30
0
  3
AIGNBL02010053
  0
POLYLINE
  8
LAYER_2
  6
AIGENLINE002
 40
0.1305
 41
0.1305
 66
1
 10
0
 20
0
 30
0
 70
128
  0
VERTEX
  8
LAYER_2
 10
69.8781
 20
102.9256
  0
VERTEX
  8
LAYER_2
 10
69.8729
 20
102.9186
  0
SEQEND
  0
POLYLINE
  8
LAYER_2
  6
AIGENLINE002
 40
0.1305
 41
0.1305
 66
1
 10
0
 20
0
 30
0
 70
128
  0
VERTEX
  8
LAYER_2
 10
69.8832
 20
102.9322
  0
VERTEX
  8
LAYER_2
 10
69.8781
 20
102.9256
  0
SEQEND
  0
POLYLINE
  8
LAYER_2
  6
AIGENLINE002
 40
0.1305
 41
0.1305
 66
1
 10
0
 20
0
 30
0
 70
128
  0
VERTEX
  8
LAYER_2
 10
69.8889
 20
102.9388
  0
VERTEX
  8
LAYER_2
 10
69.8832
 20
102.9322
  0
SEQEND
  0
ENDBLK
  0
BLOCK
  8
LAYER_2
  2
AIGNBL02010054
 70
64
 10
0
 20
0
 30
0
  3
AIGNBL02010054
  0
POLYLINE
  8
LAYER_2
  6
AIGENLINE002
 40
0.1305
 41
0.1305
 66
1
 10
0
 20
0
 30
0
 70
128
  0
VERTEX
  8
LAYER_2
 10
69.8593
 20
102.897
  0
VERTEX
  8
LAYER_2
 10
69.8551
 20
102.8895
  0
SEQEND
  0
POLYLINE
  8
LAYER_2
  6
AIGENLINE002
 40
0.1305
 41
0.1305
 66
1
 10
0
 20
0
 30
0
 70
128
  0
VERTEX
  8
LAYER_2
 10
69.864
 20
102.9041
  0
VERTEX
  8
LAYER_2
 10
69.8598
 20
102.8966
  0
SEQEND
  0
POLYLINE
  8
LAYER_2
  6
AIGENLINE002
 40
0.1305
 41
0.1305
 66
1
 10
0
 20
0
 30
0
 70
128
  0
VERTEX
  8
LAYER_2
 10
69.8682
 20
102.9116
  0
VERTEX
  8
LAYER_2
 10
69.8635
 20
102.9041
  0
SEQEND
  0
ENDBLK
  0
BLOCK
  8
LAYER_2
  2
AIGNBL02010055
 70
64
 10
0
 20
0
 30
0
  3
AIGNBL02010055
  0
POLYLINE
  8
LAYER_2
  6
AIGENLINE002
 40
0.1305
 41
0.1305
 66
1
 10
0
 20
0
 30
0
 70
128
  0
VERTEX
  8
LAYER_2
 10
69.8448
 20
102.8661
  0
VERTEX
  8
LAYER_2
 10
69.842
 20
102.8581
  0
SEQEND
  0
POLYLINE
  8
LAYER_2
  6
AIGENLINE002
 40
0.1305
 41
0.1305
 66
1
 10
0
 20
0
 30
0
 70
128
  0
VERTEX
  8
LAYER_2
 10
69.8481
 20
102.8741
  0
VERTEX
  8
LAYER_2
 10
69.8448
 20
102.8661
  0
SEQEND
  0
POLYLINE
  8
LAYER_2
  6
AIGENLINE002
 40
0.1305
 41
0.1305
 66
1
 10
0
 20
0
 30
0
 70
128
  0
VERTEX
  8
LAYER_2
 10
69.8518
 20
102.8816
  0
VERTEX
  8
LAYER_2
 10
69.8481
 20
102.8741
  0
SEQEND
  0
ENDBLK
  0
BLOCK
  8
LAYER_2
  2
AIGNBL02010056
 70
64
 10
0
 20
0
 30
0
  3
AIGNBL02010056
  0
POLYLINE
  8
LAYER_2
  6
AIGENLINE002
 40
0.1305
 41
0.1305
 66
1
 10
0
 20
0
 30
0
 70
128
  0
VERTEX
  8
LAYER_2
 10
69.8345
 20
102.8333
  0
VERTEX
  8
LAYER_2
 10
69.8326
 20
102.8253
  0
SEQEND
  0
POLYLINE
  8
LAYER_2
  6
AIGENLINE002
 40
0.1305
 41
0.1305
 66
1
 10
0
 20
0
 30
0
 70
128
  0
VERTEX
  8
LAYER_2
 10
69.8368
 20
102.8417
  0
VERTEX
  8
LAYER_2
 10
69.8345
 20
102.8337
  0
SEQEND
  0
POLYLINE
  8
LAYER_2
  6
AIGENLINE002
 40
0.1305
 41
0.1305
 66
1
 10
0
 20
0
 30
0
 70
128
  0
VERTEX
  8
LAYER_2
 10
69.8391
 20
102.8497
  0
VERTEX
  8
LAYER_2
 10
69.8368
 20
102.8417
  0
SEQEND
  0
ENDBLK
  0
BLOCK
  8
LAYER_2
  2
AIGNBL02010057
 70
64
 10
0
 20
0
 30
0
  3
AIGNBL02010057
  0
POLYLINE
  8
LAYER_2
  6
AIGENLINE006
 40
0.1305
 41
0.1305
 66
1
 10
0
 20
0
 30
0
 70
128
  0
VERTEX
  8
LAYER_2
 10
68.9219
 20
93.7497
  0
VERTEX
  8
LAYER_2
 10
68.9196
 20
93.7376
  0
SEQEND
  0
POLYLINE
  8
LAYER_2
  6
AIGENLINE006
 40
0.1305
 41
0.1305
 66
1
 10
0
 20
0
 30
0
 70
128
  0
VERTEX
  8
LAYER_2
 10
68.9243
 20
93.7624
  0
VERTEX
  8
LAYER_2
 10
68.9219
 20
93.7502
  0
SEQEND
  0
POLYLINE
  8
LAYER_2
  6
AIGENLINE006
 40
0.1305
 41
0.1305
 66
1
 10
0
 20
0
 30
0
 70
128
  0
VERTEX
  8
LAYER_2
 10
68.9262
 20
93.7746
  0
VERTEX
  8
LAYER_2
 10
68.9243
 20
93.7624
  0
SEQEND
  0
ENDBLK
  0
BLOCK
  8
LAYER_2
  2
AIGNBL02010058
 70
64
 10
0
 20
0
 30
0
  3
AIGNBL02010058
  0
POLYLINE
  8
LAYER_2
  6
AIGENLINE007
 40
0.1305
 41
0.1305
 66
1
 10
0
 20
0
 30
0
 70
128
  0
VERTEX
  8
LAYER_2
 10
68.9069
 20
93.6874
  0
VERTEX
  8
LAYER_2
 10
68.9032
 20
93.6752
  0
SEQEND
  0
POLYLINE
  8
LAYER_2
  6
AIGENLINE007
 40
0.1305
 41
0.1305
 66
1
 10
0
 20
0
 30
0
 70
128
  0
VERTEX
  8
LAYER_2
 10
68.9107
 20
93.6996
  0
VERTEX
  8
LAYER_2
 10
68.9069
 20
93.6874
  0
SEQEND
  0
POLYLINE
  8
LAYER_2
  6
AIGENLINE007
 40
0.1305
 41
0.1305
 66
1
 10
0
 20
0
 30
0
 70
128
  0
VERTEX
  8
LAYER_2
 10
68.914
 20
93.7122
  0
VERTEX
  8
LAYER_2
 10
68.9107
 20
93.6996
  0
SEQEND
  0
ENDBLK
  0
BLOCK
  8
LAYER_2
  2
AIGNBL02010059
 70
64
 10
0
 20
0
 30
0
  3
AIGNBL02010059
  0
POLYLINE
  8
LAYER_2
  6
AIGENLINE008
 40
0.1305
 41
0.1305
 66
1
 10
0
 20
0
 30
0
 70
128
  0
VERTEX
  8
LAYER_2
 10
68.861
 20
93.5758
  0
VERTEX
  8
LAYER_2
 10
68.8544
 20
93.5636
  0
SEQEND
  0
POLYLINE
  8
LAYER_2
  6
AIGENLINE008
 40
0.1305
 41
0.1305
 66
1
 10
0
 20
0
 30
0
 70
128
  0
VERTEX
  8
LAYER_2
 10
68.8675
 20
93.588
  0
VERTEX
  8
LAYER_2
 10
68.861
 20
93.5758
  0
SEQEND
  0
POLYLINE
  8
LAYER_2
  6
AIGENLINE008
 40
0.1305
 41
0.1305
 66
1
 10
0
 20
0
 30
0
 70
128
  0
VERTEX
  8
LAYER_2
 10
68.8732
 20
93.6002
  0
VERTEX
  8
LAYER_2
 10
68.8671
 20
93.588
  0
SEQEND
  0
POLYLINE
  8
LAYER_2
  6
AIGENLINE008
 40
0.1305
 41
0.1305
 66
1
 10
0
 20
0
 30
0
 70
128
  0
VERTEX
  8
LAYER_2
 10
68.8788
 20
93.6123
  0
VERTEX
  8
LAYER_2
 10
68.8732
 20
93.6002
  0
SEQEND
  0
POLYLINE
  8
LAYER_2
  6
AIGENLINE008
 40
0.1305
 41
0.1305
 66
1
 10
0
 20
0
 30
0
 70
128
  0
VERTEX
  8
LAYER_2
 10
68.8844
 20
93.625
  0
VERTEX
  8
LAYER_2
 10
68.8793
 20
93.6128
  0
SEQEND
  0
POLYLINE
  8
LAYER_2
  6
AIGENLINE008
 40
0.1305
 41
0.1305
 66
1
 10
0
 20
0
 30
0
 70
128
  0
VERTEX
  8
LAYER_2
 10
68.8896
 20
93.6372
  0
VERTEX
  8
LAYER_2
 10
68.8844
 20
93.625
  0
SEQEND
  0
POLYLINE
  8
LAYER_2
  6
AIGENLINE008
 40
0.1305
 41
0.1305
 66
1
 10
0
 20
0
 30
0
 70
128
  0
VERTEX
  8
LAYER_2
 10
68.8943
 20
93.6499
  0
VERTEX
  8
LAYER_2
 10
68.8891
 20
93.6377
  0
SEQEND
  0
ENDBLK
  0
BLOCK
  8
LAYER_2
  2
AIGNBL0201005A
 70
64
 10
0
 20
0
 30
0
  3
AIGNBL0201005A
  0
POLYLINE
  8
LAYER_2
  6
AIGENLINE009
 40
0.1305
 41
0.1305
 66
1
 10
0
 20
0
 30
0
 70
128
  0
VERTEX
  8
LAYER_2
 10
68.7724
 20
93.4515
  0
VERTEX
  8
LAYER_2
 10
68.763
 20
93.4412
  0
SEQEND
  0
POLYLINE
  8
LAYER_2
  6
AIGENLINE009
 40
0.1305
 41
0.1305
 66
1
 10
0
 20
0
 30
0
 70
128
  0
VERTEX
  8
LAYER_2
 10
68.7817
 20
93.4618
  0
VERTEX
  8
LAYER_2
 10
68.7724
 20
93.4515
  0
SEQEND
  0
POLYLINE
  8
LAYER_2
  6
AIGENLINE009
 40
0.1305
 41
0.1305
 66
1
 10
0
 20
0
 30
0
 70
128
  0
VERTEX
  8
LAYER_2
 10
68.7911
 20
93.4726
  0
VERTEX
  8
LAYER_2
 10
68.7817
 20
93.4618
  0
SEQEND
  0
POLYLINE
  8
LAYER_2
  6
AIGENLINE009
 40
0.1305
 41
0.1305
 66
1
 10
0
 20
0
 30
0
 70
128
  0
VERTEX
  8
LAYER_2
 10
68.8
 20
93.4834
  0
VERTEX
  8
LAYER_2
 10
68.7911
 20
93.4726
  0
SEQEND
  0
POLYLINE
  8
LAYER_2
  6
AIGENLINE009
 40
0.1305
 41
0.1305
 66
1
 10
0
 20
0
 30
0
 70
128
  0
VERTEX
  8
LAYER_2
 10
68.8085
 20
93.4942
  0
VERTEX
  8
LAYER_2
 10
68.8
 20
93.4834
  0
SEQEND
  0
POLYLINE
  8
LAYER_2
  6
AIGENLINE009
 40
0.1305
 41
0.1305
 66
1
 10
0
 20
0
 30
0
 70
128
  0
VERTEX
  8
LAYER_2
 10
68.8169
 20
93.5059
  0
VERTEX
  8
LAYER_2
 10
68.8089
 20
93.4947
  0
SEQEND
  0
POLYLINE
  8
LAYER_2
  6
AIGENLINE009
 40
0.1305
 41
0.1305
 66
1
 10
0
 20
0
 30
0
 70
128
  0
VERTEX
  8
LAYER_2
 10
68.8249
 20
93.5172
  0
VERTEX
  8
LAYER_2
 10
68.8169
 20
93.5059
  0
SEQEND
  0
ENDBLK
  0
BLOCK
  8
LAYER_2
  2
AIGNBL0201005B
 70
64
 10
0
 20
0
 30
0
  3
AIGNBL0201005B
  0
POLYLINE
  8
LAYER_2
  6
AIGENLINE009
 40
0.1305
 41
0.1305
 66
1
 10
0
 20
0
 30
0
 70
128
  0
VERTEX
  8
LAYER_2
 10
68.7109
 20
93.3938
  0
VERTEX
  8
LAYER_2
 10
68.7001
 20
93.3849
  0
SEQEND
  0
POLYLINE
  8
LAYER_2
  6
AIGENLINE009
 40
0.1305
 41
0.1305
 66
1
 10
0
 20
0
 30
0
 70
128
  0
VERTEX
  8
LAYER_2
 10
68.7217
 20
93.4032
  0
VERTEX
  8
LAYER_2
 10
68.7109
 20
93.3943
  0
SEQEND
  0
POLYLINE
  8
LAYER_2
  6
AIGENLINE009
 40
0.1305
 41
0.1305
 66
1
 10
0
 20
0
 30
0
 70
128
  0
VERTEX
  8
LAYER_2
 10
68.7325
 20
93.4121
  0
VERTEX
  8
LAYER_2
 10
68.7217
 20
93.4027
  0
SEQEND
  0
ENDBLK
  0
BLOCK
  8
LAYER_2
  2
AIGNBL0201005C
 70
64
 10
0
 20
0
 30
0
  3
AIGNBL0201005C
  0
POLYLINE
  8
LAYER_2
  6
AIGENLINE009
 40
0.1305
 41
0.1305
 66
1
 10
0
 20
0
 30
0
 70
128
  0
VERTEX
  8
LAYER_2
 10
68.6659
 20
93.3605
  0
VERTEX
  8
LAYER_2
 10
68.6542
 20
93.353
  0
SEQEND
  0
POLYLINE
  8
LAYER_2
  6
AIGENLINE009
 40
0.1305
 41
0.1305
 66
1
 10
0
 20
0
 30
0
 70
128
  0
VERTEX
  8
LAYER_2
 10
68.6776
 20
93.3685
  0
VERTEX
  8
LAYER_2
 10
68.6659
 20
93.3605
  0
SEQEND
  0
POLYLINE
  8
LAYER_2
  6
AIGENLINE009
 40
0.1305
 41
0.1305
 66
1
 10
0
 20
0
 30
0
 70
128
  0
VERTEX
  8
LAYER_2
 10
68.6889
 20
93.377
  0
VERTEX
  8
LAYER_2
 10
68.6776
 20
93.369
  0
SEQEND
  0
ENDBLK
  0
BLOCK
  8
LAYER_2
  2
AIGNBL0201005D
 70
64
 10
0
 20
0
 30
0
  3
AIGNBL0201005D
  0
POLYLINE
  8
LAYER_2
  6
AIGENLINE008
 40
0.1305
 41
0.1305
 66
1
 10
0
 20
0
 30
0
 70
128
  0
VERTEX
  8
LAYER_2
 10
68.5055
 20
93.285
  0
VERTEX
  8
LAYER_2
 10
68.4929
 20
93.2813
  0
SEQEND
  0
POLYLINE
  8
LAYER_2
  6
AIGENLINE008
 40
0.1305
 41
0.1305
 66
1
 10
0
 20
0
 30
0
 70
128
  0
VERTEX
  8
LAYER_2
 10
68.5187
 20
93.2888
  0
VERTEX
  8
LAYER_2
 10
68.506
 20
93.285
  0
SEQEND
  0
POLYLINE
  8
LAYER_2
  6
AIGENLINE008
 40
0.1305
 41
0.1305
 66
1
 10
0
 20
0
 30
0
 70
128
  0
VERTEX
  8
LAYER_2
 10
68.5313
 20
93.293
  0
VERTEX
  8
LAYER_2
 10
68.5187
 20
93.2888
  0
SEQEND
  0
POLYLINE
  8
LAYER_2
  6
AIGENLINE008
 40
0.1305
 41
0.1305
 66
1
 10
0
 20
0
 30
0
 70
128
  0
VERTEX
  8
LAYER_2
 10
68.544
 20
93.2982
  0
VERTEX
  8
LAYER_2
 10
68.5313
 20
93.293
  0
SEQEND
  0
POLYLINE
  8
LAYER_2
  6
AIGENLINE008
 40
0.1305
 41
0.1305
 66
1
 10
0
 20
0
 30
0
 70
128
  0
VERTEX
  8
LAYER_2
 10
68.5566
 20
93.3029
  0
VERTEX
  8
LAYER_2
 10
68.544
 20
93.2977
  0
SEQEND
  0
POLYLINE
  8
LAYER_2
  6
AIGENLINE008
 40
0.1305
 41
0.1305
 66
1
 10
0
 20
0
 30
0
 70
128
  0
VERTEX
  8
LAYER_2
 10
68.5688
 20
93.308
  0
VERTEX
  8
LAYER_2
 10
68.5562
 20
93.3029
  0
SEQEND
  0
POLYLINE
  8
LAYER_2
  6
AIGENLINE008
 40
0.1305
 41
0.1305
 66
1
 10
0
 20
0
 30
0
 70
128
  0
VERTEX
  8
LAYER_2
 10
68.5815
 20
93.3136
  0
VERTEX
  8
LAYER_2
 10
68.5688
 20
93.308
  0
SEQEND
  0
POLYLINE
  8
LAYER_2
  6
AIGENLINE008
 40
0.1305
 41
0.1305
 66
1
 10
0
 20
0
 30
0
 70
128
  0
VERTEX
  8
LAYER_2
 10
68.5937
 20
93.3193
  0
VERTEX
  8
LAYER_2
 10
68.5815
 20
93.3132
  0
SEQEND
  0
POLYLINE
  8
LAYER_2
  6
AIGENLINE008
 40
0.1305
 41
0.1305
 66
1
 10
0
 20
0
 30
0
 70
128
  0
VERTEX
  8
LAYER_2
 10
68.6063
 20
93.3254
  0
VERTEX
  8
LAYER_2
 10
68.5942
 20
93.3188
  0
SEQEND
  0
POLYLINE
  8
LAYER_2
  6
AIGENLINE008
 40
0.1305
 41
0.1305
 66
1
 10
0
 20
0
 30
0
 70
128
  0
VERTEX
  8
LAYER_2
 10
68.6185
 20
93.3319
  0
VERTEX
  8
LAYER_2
 10
68.6063
 20
93.3254
  0
SEQEND
  0
POLYLINE
  8
LAYER_2
  6
AIGENLINE008
 40
0.1305
 41
0.1305
 66
1
 10
0
 20
0
 30
0
 70
128
  0
VERTEX
  8
LAYER_2
 10
68.6303
 20
93.3385
  0
VERTEX
  8
LAYER_2
 10
68.6181
 20
93.3319
  0
SEQEND
  0
ENDBLK
  0
BLOCK
  8
LAYER_2
  2
AIGNBL0201005E
 70
64
 10
0
 20
0
 30
0
  3
AIGNBL0201005E
  0
POLYLINE
  8
LAYER_2
  6
AIGENLINE007
 40
0.1305
 41
0.1305
 66
1
 10
0
 20
0
 30
0
 70
128
  0
VERTEX
  8
LAYER_2
 10
68.4544
 20
93.2719
  0
VERTEX
  8
LAYER_2
 10
68.4418
 20
93.2696
  0
SEQEND
  0
POLYLINE
  8
LAYER_2
  6
AIGENLINE007
 40
0.1305
 41
0.1305
 66
1
 10
0
 20
0
 30
0
 70
128
  0
VERTEX
  8
LAYER_2
 10
68.4671
 20
93.2747
  0
VERTEX
  8
LAYER_2
 10
68.4549
 20
93.2719
  0
SEQEND
  0
ENDBLK
  0
BLOCK
  8
LAYER_2
  2
AIGNBL0201005F
 70
64
 10
0
 20
0
 30
0
  3
AIGNBL0201005F
  0
POLYLINE
  8
LAYER_2
  6
AIGENLINE006
 40
0.1305
 41
0.1305
 66
1
 10
0
 20
0
 30
0
 70
128
  0
VERTEX
  8
LAYER_2
 10
68.3916
 20
93.2621
  0
VERTEX
  8
LAYER_2
 10
68.3789
 20
93.2611
  0
SEQEND
  0
POLYLINE
  8
LAYER_2
  6
AIGENLINE006
 40
0.1305
 41
0.1305
 66
1
 10
0
 20
0
 30
0
 70
128
  0
VERTEX
  8
LAYER_2
 10
68.4038
 20
93.2635
  0
VERTEX
  8
LAYER_2
 10
68.3911
 20
93.2621
  0
SEQEND
  0
POLYLINE
  8
LAYER_2
  6
AIGENLINE006
 40
0.1305
 41
0.1305
 66
1
 10
0
 20
0
 30
0
 70
128
  0
VERTEX
  8
LAYER_2
 10
68.4164
 20
93.2654
  0
VERTEX
  8
LAYER_2
 10
68.4038
 20
93.2635
  0
SEQEND
  0
POLYLINE
  8
LAYER_2
  6
AIGENLINE006
 40
0.1305
 41
0.1305
 66
1
 10
0
 20
0
 30
0
 70
128
  0
VERTEX
  8
LAYER_2
 10
68.4291
 20
93.2668
  0
VERTEX
  8
LAYER_2
 10
68.4164
 20
93.2649
  0
SEQEND
  0
POLYLINE
  8
LAYER_2
  6
AIGENLINE006
 40
0.1305
 41
0.1305
 66
1
 10
0
 20
0
 30
0
 70
128
  0
VERTEX
  8
LAYER_2
 10
68.4418
 20
93.2696
  0
VERTEX
  8
LAYER_2
 10
68.4291
 20
93.2672
  0
SEQEND
  0
ENDBLK
  0
BLOCK
  8
LAYER_2
  2
AIGNBL02010060
 70
64
 10
0
 20
0
 30
0
  3
AIGNBL02010060
  0
POLYLINE
  8
LAYER_2
  6
AIGENLINE005
 40
0.1305
 41
0.1305
 66
1
 10
0
 20
0
 30
0
 70
128
  0
VERTEX
  8
LAYER_2
 10
68.3663
 20
93.2602
  0
VERTEX
  8
LAYER_2
 10
68.3541
 20
93.2597
  0
SEQEND
  0
POLYLINE
  8
LAYER_2
  6
AIGENLINE005
 40
0.1305
 41
0.1305
 66
1
 10
0
 20
0
 30
0
 70
128
  0
VERTEX
  8
LAYER_2
 10
68.3789
 20
93.2611
  0
VERTEX
  8
LAYER_2
 10
68.3667
 20
93.2602
  0
SEQEND
  0
ENDBLK
  0
BLOCK
  8
LAYER_2
  2
AIGNBL02010061
 70
64
 10
0
 20
0
 30
0
  3
AIGNBL02010061
  0
POLYLINE
  8
LAYER_2
  6
AIGENLINE008
 40
0.1305
 41
0.1305
 66
1
 10
0
 20
0
 30
0
 70
128
  0
VERTEX
  8
LAYER_2
 10
51.0245
 20
91.0272
  0
VERTEX
  8
LAYER_2
 10
51.0269
 20
91.0408
  0
SEQEND
  0
POLYLINE
  8
LAYER_2
  6
AIGENLINE008
 40
0.1305
 41
0.1305
 66
1
 10
0
 20
0
 30
0
 70
128
  0
VERTEX
  8
LAYER_2
 10
51.0227
 20
91.0136
  0
VERTEX
  8
LAYER_2
 10
51.0241
 20
91.0272
  0
SEQEND
  0
POLYLINE
  8
LAYER_2
  6
AIGENLINE008
 40
0.1305
 41
0.1305
 66
1
 10
0
 20
0
 30
0
 70
128
  0
VERTEX
  8
LAYER_2
 10
51.0217
 20
91
  0
VERTEX
  8
LAYER_2
 10
51.0231
 20
91.0136
  0
SEQEND
  0
POLYLINE
  8
LAYER_2
  6
AIGENLINE008
 40
0.1305
 41
0.1305
 66
1
 10
0
 20
0
 30
0
 70
128
  0
VERTEX
  8
LAYER_2
 10
51.0203
 20
90.9868
  0
VERTEX
  8
LAYER_2
 10
51.0212
 20
91
  0
SEQEND
  0
POLYLINE
  8
LAYER_2
  6
AIGENLINE008
 40
0.1305
 41
0.1305
 66
1
 10
0
 20
0
 30
0
 70
128
  0
VERTEX
  8
LAYER_2
 10
51.0198
 20
90.9733
  0
VERTEX
  8
LAYER_2
 10
51.0203
 20
90.9868
  0
SEQEND
  0
ENDBLK
  0
BLOCK
  8
LAYER_2
  2
AIGNBL02010062
 70
64
 10
0
 20
0
 30
0
  3
AIGNBL02010062
  0
POLYLINE
  8
LAYER_2
  6
AIGENLINE009
 40
0.1305
 41
0.1305
 66
1
 10
0
 20
0
 30
0
 70
128
  0
VERTEX
  8
LAYER_2
 10
51.0377
 20
91.0952
  0
VERTEX
  8
LAYER_2
 10
51.0414
 20
91.1088
  0
SEQEND
  0
POLYLINE
  8
LAYER_2
  6
AIGENLINE009
 40
0.1305
 41
0.1305
 66
1
 10
0
 20
0
 30
0
 70
128
  0
VERTEX
  8
LAYER_2
 10
51.0344
 20
91.0816
  0
VERTEX
  8
LAYER_2
 10
51.0377
 20
91.0952
  0
SEQEND
  0
POLYLINE
  8
LAYER_2
  6
AIGENLINE009
 40
0.1305
 41
0.1305
 66
1
 10
0
 20
0
 30
0
 70
128
  0
VERTEX
  8
LAYER_2
 10
51.0316
 20
91.0675
  0
VERTEX
  8
LAYER_2
 10
51.0344
 20
91.0811
  0
SEQEND
  0
ENDBLK
  0
BLOCK
  8
LAYER_2
  2
AIGNBL02010063
 70
64
 10
0
 20
0
 30
0
  3
AIGNBL02010063
  0
POLYLINE
  8
LAYER_2
  6
AIGENLINE011
 40
0.1305
 41
0.1305
 66
1
 10
0
 20
0
 30
0
 70
128
  0
VERTEX
  8
LAYER_2
 10
51.0545
 20
91.15
  0
VERTEX
  8
LAYER_2
 10
51.0597
 20
91.1636
  0
SEQEND
  0
POLYLINE
  8
LAYER_2
  6
AIGENLINE011
 40
0.1305
 41
0.1305
 66
1
 10
0
 20
0
 30
0
 70
128
  0
VERTEX
  8
LAYER_2
 10
51.0499
 20
91.136
  0
VERTEX
  8
LAYER_2
 10
51.0545
 20
91.1496
  0
SEQEND
  0
ENDBLK
  0
BLOCK
  8
LAYER_2
  2
AIGNBL02010064
 70
64
 10
0
 20
0
 30
0
  3
AIGNBL02010064
  0
POLYLINE
  8
LAYER_2
  6
AIGENLINE012
 40
0.1305
 41
0.1305
 66
1
 10
0
 20
0
 30
0
 70
128
  0
VERTEX
  8
LAYER_2
 10
51.0649
 20
91.1772
  0
VERTEX
  8
LAYER_2
 10
51.071
 20
91.1908
  0
SEQEND
  0
POLYLINE
  8
LAYER_2
  6
AIGENLINE012
 40
0.1305
 41
0.1305
 66
1
 10
0
 20
0
 30
0
 70
128
  0
VERTEX
  8
LAYER_2
 10
51.0597
 20
91.1632
  0
VERTEX
  8
LAYER_2
 10
51.0649
 20
91.1768
  0
SEQEND
  0
ENDBLK
  0
BLOCK
  8
LAYER_2
  2
AIGNBL02010065
 70
64
 10
0
 20
0
 30
0
  3
AIGNBL02010065
  0
POLYLINE
  8
LAYER_2
  6
AIGENLINE012
 40
0.1305
 41
0.1305
 66
1
 10
0
 20
0
 30
0
 70
128
  0
VERTEX
  8
LAYER_2
 10
51.3298
 20
91.4727
  0
VERTEX
  8
LAYER_2
 10
51.3429
 20
91.4797
  0
SEQEND
  0
POLYLINE
  8
LAYER_2
  6
AIGENLINE012
 40
0.1305
 41
0.1305
 66
1
 10
0
 20
0
 30
0
 70
128
  0
VERTEX
  8
LAYER_2
 10
51.3167
 20
91.4656
  0
VERTEX
  8
LAYER_2
 10
51.3298
 20
91.4731
  0
SEQEND
  0
POLYLINE
  8
LAYER_2
  6
AIGENLINE012
 40
0.1305
 41
0.1305
 66
1
 10
0
 20
0
 30
0
 70
128
  0
VERTEX
  8
LAYER_2
 10
51.304
 20
91.4576
  0
VERTEX
  8
LAYER_2
 10
51.3167
 20
91.4656
  0
SEQEND
  0
POLYLINE
  8
LAYER_2
  6
AIGENLINE012
 40
0.1305
 41
0.1305
 66
1
 10
0
 20
0
 30
0
 70
128
  0
VERTEX
  8
LAYER_2
 10
51.2914
 20
91.4497
  0
VERTEX
  8
LAYER_2
 10
51.304
 20
91.4576
  0
SEQEND
  0
POLYLINE
  8
LAYER_2
  6
AIGENLINE012
 40
0.1305
 41
0.1305
 66
1
 10
0
 20
0
 30
0
 70
128
  0
VERTEX
  8
LAYER_2
 10
51.2792
 20
91.4412
  0
VERTEX
  8
LAYER_2
 10
51.2918
 20
91.4492
  0
SEQEND
  0
POLYLINE
  8
LAYER_2
  6
AIGENLINE012
 40
0.1305
 41
0.1305
 66
1
 10
0
 20
0
 30
0
 70
128
  0
VERTEX
  8
LAYER_2
 10
51.267
 20
91.4328
  0
VERTEX
  8
LAYER_2
 10
51.2792
 20
91.4412
  0
SEQEND
  0
POLYLINE
  8
LAYER_2
  6
AIGENLINE012
 40
0.1305
 41
0.1305
 66
1
 10
0
 20
0
 30
0
 70
128
  0
VERTEX
  8
LAYER_2
 10
51.2548
 20
91.4239
  0
VERTEX
  8
LAYER_2
 10
51.267
 20
91.4328
  0
SEQEND
  0
POLYLINE
  8
LAYER_2
  6
AIGENLINE012
 40
0.1305
 41
0.1305
 66
1
 10
0
 20
0
 30
0
 70
128
  0
VERTEX
  8
LAYER_2
 10
51.2431
 20
91.4145
  0
VERTEX
  8
LAYER_2
 10
51.2548
 20
91.4239
  0
SEQEND
  0
POLYLINE
  8
LAYER_2
  6
AIGENLINE012
 40
0.1305
 41
0.1305
 66
1
 10
0
 20
0
 30
0
 70
128
  0
VERTEX
  8
LAYER_2
 10
51.2313
 20
91.4047
  0
VERTEX
  8
LAYER_2
 10
51.2431
 20
91.414
  0
SEQEND
  0
POLYLINE
  8
LAYER_2
  6
AIGENLINE012
 40
0.1305
 41
0.1305
 66
1
 10
0
 20
0
 30
0
 70
128
  0
VERTEX
  8
LAYER_2
 10
51.2201
 20
91.3948
  0
VERTEX
  8
LAYER_2
 10
51.2313
 20
91.4047
  0
SEQEND
  0
POLYLINE
  8
LAYER_2
  6
AIGENLINE012
 40
0.1305
 41
0.1305
 66
1
 10
0
 20
0
 30
0
 70
128
  0
VERTEX
  8
LAYER_2
 10
51.2088
 20
91.385
  0
VERTEX
  8
LAYER_2
 10
51.2201
 20
91.3948
  0
SEQEND
  0
POLYLINE
  8
LAYER_2
  6
AIGENLINE012
 40
0.1305
 41
0.1305
 66
1
 10
0
 20
0
 30
0
 70
128
  0
VERTEX
  8
LAYER_2
 10
51.198
 20
91.3742
  0
VERTEX
  8
LAYER_2
 10
51.2088
 20
91.385
  0
SEQEND
  0
POLYLINE
  8
LAYER_2
  6
AIGENLINE012
 40
0.1305
 41
0.1305
 66
1
 10
0
 20
0
 30
0
 70
128
  0
VERTEX
  8
LAYER_2
 10
51.1873
 20
91.3634
  0
VERTEX
  8
LAYER_2
 10
51.198
 20
91.3742
  0
SEQEND
  0
POLYLINE
  8
LAYER_2
  6
AIGENLINE012
 40
0.1305
 41
0.1305
 66
1
 10
0
 20
0
 30
0
 70
128
  0
VERTEX
  8
LAYER_2
 10
51.1769
 20
91.3526
  0
VERTEX
  8
LAYER_2
 10
51.1873
 20
91.3634
  0
SEQEND
  0
POLYLINE
  8
LAYER_2
  6
AIGENLINE012
 40
0.1305
 41
0.1305
 66
1
 10
0
 20
0
 30
0
 70
128
  0
VERTEX
  8
LAYER_2
 10
51.1666
 20
91.3414
  0
VERTEX
  8
LAYER_2
 10
51.1769
 20
91.3526
  0
SEQEND
  0
POLYLINE
  8
LAYER_2
  6
AIGENLINE012
 40
0.1305
 41
0.1305
 66
1
 10
0
 20
0
 30
0
 70
128
  0
VERTEX
  8
LAYER_2
 10
51.1568
 20
91.3296
  0
VERTEX
  8
LAYER_2
 10
51.1666
 20
91.3409
  0
SEQEND
  0
POLYLINE
  8
LAYER_2
  6
AIGENLINE012
 40
0.1305
 41
0.1305
 66
1
 10
0
 20
0
 30
0
 70
128
  0
VERTEX
  8
LAYER_2
 10
51.1474
 20
91.3179
  0
VERTEX
  8
LAYER_2
 10
51.1568
 20
91.3296
  0
SEQEND
  0
POLYLINE
  8
LAYER_2
  6
AIGENLINE012
 40
0.1305
 41
0.1305
 66
1
 10
0
 20
0
 30
0
 70
128
  0
VERTEX
  8
LAYER_2
 10
51.1385
 20
91.3062
  0
VERTEX
  8
LAYER_2
 10
51.1479
 20
91.3184
  0
SEQEND
  0
POLYLINE
  8
LAYER_2
  6
AIGENLINE012
 40
0.1305
 41
0.1305
 66
1
 10
0
 20
0
 30
0
 70
128
  0
VERTEX
  8
LAYER_2
 10
51.1296
 20
91.294
  0
VERTEX
  8
LAYER_2
 10
51.1385
 20
91.3062
  0
SEQEND
  0
POLYLINE
  8
LAYER_2
  6
AIGENLINE012
 40
0.1305
 41
0.1305
 66
1
 10
0
 20
0
 30
0
 70
128
  0
VERTEX
  8
LAYER_2
 10
51.1207
 20
91.2813
  0
VERTEX
  8
LAYER_2
 10
51.1291
 20
91.2935
  0
SEQEND
  0
POLYLINE
  8
LAYER_2
  6
AIGENLINE012
 40
0.1305
 41
0.1305
 66
1
 10
0
 20
0
 30
0
 70
128
  0
VERTEX
  8
LAYER_2
 10
51.1127
 20
91.2687
  0
VERTEX
  8
LAYER_2
 10
51.1207
 20
91.2813
  0
SEQEND
  0
POLYLINE
  8
LAYER_2
  6
AIGENLINE012
 40
0.1305
 41
0.1305
 66
1
 10
0
 20
0
 30
0
 70
128
  0
VERTEX
  8
LAYER_2
 10
51.1047
 20
91.256
  0
VERTEX
  8
LAYER_2
 10
51.1127
 20
91.2687
  0
SEQEND
  0
POLYLINE
  8
LAYER_2
  6
AIGENLINE012
 40
0.1305
 41
0.1305
 66
1
 10
0
 20
0
 30
0
 70
128
  0
VERTEX
  8
LAYER_2
 10
51.0972
 20
91.2433
  0
VERTEX
  8
LAYER_2
 10
51.1047
 20
91.256
  0
SEQEND
  0
POLYLINE
  8
LAYER_2
  6
AIGENLINE012
 40
0.1305
 41
0.1305
 66
1
 10
0
 20
0
 30
0
 70
128
  0
VERTEX
  8
LAYER_2
 10
51.0902
 20
91.2302
  0
VERTEX
  8
LAYER_2
 10
51.0972
 20
91.2433
  0
SEQEND
  0
POLYLINE
  8
LAYER_2
  6
AIGENLINE012
 40
0.1305
 41
0.1305
 66
1
 10
0
 20
0
 30
0
 70
128
  0
VERTEX
  8
LAYER_2
 10
51.0831
 20
91.2171
  0
VERTEX
  8
LAYER_2
 10
51.0902
 20
91.2302
  0
SEQEND
  0
POLYLINE
  8
LAYER_2
  6
AIGENLINE012
 40
0.1305
 41
0.1305
 66
1
 10
0
 20
0
 30
0
 70
128
  0
VERTEX
  8
LAYER_2
 10
51.0766
 20
91.2035
  0
VERTEX
  8
LAYER_2
 10
51.0831
 20
91.2171
  0
SEQEND
  0
ENDBLK
  0
BLOCK
  8
LAYER_2
  2
AIGNBL02010066
 70
64
 10
0
 20
0
 30
0
  3
AIGNBL02010066
  0
POLYLINE
  8
LAYER_2
  6
AIGENLINE012
 40
0.1305
 41
0.1305
 66
1
 10
0
 20
0
 30
0
 70
128
  0
VERTEX
  8
LAYER_2
 10
51.3692
 20
91.4923
  0
VERTEX
  8
LAYER_2
 10
51.3828
 20
91.4989
  0
SEQEND
  0
POLYLINE
  8
LAYER_2
  6
AIGENLINE012
 40
0.1305
 41
0.1305
 66
1
 10
0
 20
0
 30
0
 70
128
  0
VERTEX
  8
LAYER_2
 10
51.3556
 20
91.4863
  0
VERTEX
  8
LAYER_2
 10
51.3692
 20
91.4928
  0
SEQEND
  0
ENDBLK
  0
BLOCK
  8
LAYER_2
  2
AIGNBL02010067
 70
64
 10
0
 20
0
 30
0
  3
AIGNBL02010067
  0
POLYLINE
  8
LAYER_2
  6
AIGENLINE011
 40
0.1305
 41
0.1305
 66
1
 10
0
 20
0
 30
0
 70
128
  0
VERTEX
  8
LAYER_2
 10
51.4091
 20
91.5092
  0
VERTEX
  8
LAYER_2
 10
51.4226
 20
91.5144
  0
SEQEND
  0
POLYLINE
  8
LAYER_2
  6
AIGENLINE011
 40
0.1305
 41
0.1305
 66
1
 10
0
 20
0
 30
0
 70
128
  0
VERTEX
  8
LAYER_2
 10
51.3959
 20
91.5041
  0
VERTEX
  8
LAYER_2
 10
51.4095
 20
91.5092
  0
SEQEND
  0
POLYLINE
  8
LAYER_2
  6
AIGENLINE011
 40
0.1305
 41
0.1305
 66
1
 10
0
 20
0
 30
0
 70
128
  0
VERTEX
  8
LAYER_2
 10
51.3823
 20
91.4984
  0
VERTEX
  8
LAYER_2
 10
51.3959
 20
91.5041
  0
SEQEND
  0
ENDBLK
  0
BLOCK
  8
LAYER_2
  2
AIGNBL02010068
 70
64
 10
0
 20
0
 30
0
  3
AIGNBL02010068
  0
POLYLINE
  8
LAYER_2
  6
AIGENLINE009
 40
0.1305
 41
0.1305
 66
1
 10
0
 20
0
 30
0
 70
128
  0
VERTEX
  8
LAYER_2
 10
51.4634
 20
91.5266
  0
VERTEX
  8
LAYER_2
 10
51.477
 20
91.5303
  0
SEQEND
  0
POLYLINE
  8
LAYER_2
  6
AIGENLINE009
 40
0.1305
 41
0.1305
 66
1
 10
0
 20
0
 30
0
 70
128
  0
VERTEX
  8
LAYER_2
 10
51.4498
 20
91.5228
  0
VERTEX
  8
LAYER_2
 10
51.4634
 20
91.5266
  0
SEQEND
  0
POLYLINE
  8
LAYER_2
  6
AIGENLINE009
 40
0.1305
 41
0.1305
 66
1
 10
0
 20
0
 30
0
 70
128
  0
VERTEX
  8
LAYER_2
 10
51.4363
 20
91.5186
  0
VERTEX
  8
LAYER_2
 10
51.4498
 20
91.5228
  0
SEQEND
  0
POLYLINE
  8
LAYER_2
  6
AIGENLINE009
 40
0.1305
 41
0.1305
 66
1
 10
0
 20
0
 30
0
 70
128
  0
VERTEX
  8
LAYER_2
 10
51.4226
 20
91.5139
  0
VERTEX
  8
LAYER_2
 10
51.4363
 20
91.5186
  0
SEQEND
  0
ENDBLK
  0
BLOCK
  8
LAYER_2
  2
AIGNBL02010069
 70
64
 10
0
 20
0
 30
0
  3
AIGNBL02010069
  0
POLYLINE
  8
LAYER_2
  6
AIGENLINE008
 40
0.1305
 41
0.1305
 66
1
 10
0
 20
0
 30
0
 70
128
  0
VERTEX
  8
LAYER_2
 10
51.5577
 20
91.5439
  0
VERTEX
  8
LAYER_2
 10
51.5713
 20
91.5449
  0
SEQEND
  0
POLYLINE
  8
LAYER_2
  6
AIGENLINE008
 40
0.1305
 41
0.1305
 66
1
 10
0
 20
0
 30
0
 70
128
  0
VERTEX
  8
LAYER_2
 10
51.5446
 20
91.5425
  0
VERTEX
  8
LAYER_2
 10
51.5582
 20
91.5444
  0
SEQEND
  0
POLYLINE
  8
LAYER_2
  6
AIGENLINE008
 40
0.1305
 41
0.1305
 66
1
 10
0
 20
0
 30
0
 70
128
  0
VERTEX
  8
LAYER_2
 10
51.531
 20
91.5406
  0
VERTEX
  8
LAYER_2
 10
51.5446
 20
91.5425
  0
SEQEND
  0
POLYLINE
  8
LAYER_2
  6
AIGENLINE008
 40
0.1305
 41
0.1305
 66
1
 10
0
 20
0
 30
0
 70
128
  0
VERTEX
  8
LAYER_2
 10
51.5174
 20
91.5388
  0
VERTEX
  8
LAYER_2
 10
51.531
 20
91.5406
  0
SEQEND
  0
POLYLINE
  8
LAYER_2
  6
AIGENLINE008
 40
0.1305
 41
0.1305
 66
1
 10
0
 20
0
 30
0
 70
128
  0
VERTEX
  8
LAYER_2
 10
51.5042
 20
91.536
  0
VERTEX
  8
LAYER_2
 10
51.5178
 20
91.5383
  0
SEQEND
  0
ENDBLK
  0
BLOCK
  8
LAYER_2
  2
AIGNBL0201006A
 70
64
 10
0
 20
0
 30
0
  3
AIGNBL0201006A
  0
POLYLINE
  8
LAYER_2
  6
AIGENLINE007
 40
0.1305
 41
0.1305
 66
1
 10
0
 20
0
 30
0
 70
128
  0
VERTEX
  8
LAYER_2
 10
51.584
 20
91.5463
  0
VERTEX
  8
LAYER_2
 10
51.5971
 20
91.5467
  0
SEQEND
  0
POLYLINE
  8
LAYER_2
  6
AIGENLINE007
 40
0.1305
 41
0.1305
 66
1
 10
0
 20
0
 30
0
 70
128
  0
VERTEX
  8
LAYER_2
 10
51.5708
 20
91.5449
  0
VERTEX
  8
LAYER_2
 10
51.584
 20
91.5463
  0
SEQEND
  0
ENDBLK
  0
BLOCK
  8
LAYER_2
  2
AIGNBL0201006B
 70
64
 10
0
 20
0
 30
0
  3
AIGNBL0201006B
  0
CIRCLE
  8
LAYER_2
  6
AIGENLINE013
 10
134.0507
 20
187.089
 40
1.75
  0
ENDBLK
  0
BLOCK
  8
LAYER_2
  2
AIGNBL0201006C
 70
64
 10
0
 20
0
 30
0
  3
AIGNBL0201006C
  0
POLYLINE
  8
LAYER_2
  6
AIGENLINE002
 40
0.1305
 41
0.1305
 66
1
 10
0
 20
0
 30
0
 70
128
  0
VERTEX
  8
LAYER_2
 10
174.7233
 20
102.89
  0
VERTEX
  8
LAYER_2
 10
174.719
 20
102.8975
  0
SEQEND
  0
POLYLINE
  8
LAYER_2
  6
AIGENLINE002
 40
0.1305
 41
0.1305
 66
1
 10
0
 20
0
 30
0
 70
128
  0
VERTEX
  8
LAYER_2
 10
174.727
 20
102.882
  0
VERTEX
  8
LAYER_2
 10
174.7233
 20
102.8895
  0
SEQEND
  0
POLYLINE
  8
LAYER_2
  6
AIGENLINE002
 40
0.1305
 41
0.1305
 66
1
 10
0
 20
0
 30
0
 70
128
  0
VERTEX
  8
LAYER_2
 10
174.7303
 20
102.8745
  0
VERTEX
  8
LAYER_2
 10
174.7265
 20
102.8825
  0
SEQEND
  0
POLYLINE
  8
LAYER_2
  6
AIGENLINE002
 40
0.1305
 41
0.1305
 66
1
 10
0
 20
0
 30
0
 70
128
  0
VERTEX
  8
LAYER_2
 10
174.7336
 20
102.8666
  0
VERTEX
  8
LAYER_2
 10
174.7298
 20
102.8741
  0
SEQEND
  0
POLYLINE
  8
LAYER_2
  6
AIGENLINE002
 40
0.1305
 41
0.1305
 66
1
 10
0
 20
0
 30
0
 70
128
  0
VERTEX
  8
LAYER_2
 10
174.7364
 20
102.8586
  0
VERTEX
  8
LAYER_2
 10
174.7336
 20
102.8666
  0
SEQEND
  0
POLYLINE
  8
LAYER_2
  6
AIGENLINE002
 40
0.1305
 41
0.1305
 66
1
 10
0
 20
0
 30
0
 70
128
  0
VERTEX
  8
LAYER_2
 10
174.7392
 20
102.8506
  0
VERTEX
  8
LAYER_2
 10
174.7364
 20
102.8586
  0
SEQEND
  0
POLYLINE
  8
LAYER_2
  6
AIGENLINE002
 40
0.1305
 41
0.1305
 66
1
 10
0
 20
0
 30
0
 70
128
  0
VERTEX
  8
LAYER_2
 10
174.7415
 20
102.8422
  0
VERTEX
  8
LAYER_2
 10
174.7392
 20
102.8501
  0
SEQEND
  0
POLYLINE
  8
LAYER_2
  6
AIGENLINE002
 40
0.1305
 41
0.1305
 66
1
 10
0
 20
0
 30
0
 70
128
  0
VERTEX
  8
LAYER_2
 10
174.7439
 20
102.8342
  0
VERTEX
  8
LAYER_2
 10
174.7415
 20
102.8422
  0
SEQEND
  0
POLYLINE
  8
LAYER_2
  6
AIGENLINE002
 40
0.1305
 41
0.1305
 66
1
 10
0
 20
0
 30
0
 70
128
  0
VERTEX
  8
LAYER_2
 10
174.7457
 20
102.8258
  0
VERTEX
  8
LAYER_2
 10
174.7439
 20
102.8342
  0
SEQEND
  0
POLYLINE
  8
LAYER_2
  6
AIGENLINE002
 40
0.1305
 41
0.1305
 66
1
 10
0
 20
0
 30
0
 70
128
  0
VERTEX
  8
LAYER_2
 10
174.7476
 20
102.8173
  0
VERTEX
  8
LAYER_2
 10
174.7457
 20
102.8253
  0
SEQEND
  0
POLYLINE
  8
LAYER_2
  6
AIGENLINE002
 40
0.1305
 41
0.1305
 66
1
 10
0
 20
0
 30
0
 70
128
  0
VERTEX
  8
LAYER_2
 10
174.7486
 20
102.8089
  0
VERTEX
  8
LAYER_2
 10
174.7476
 20
102.8173
  0
SEQEND
  0
POLYLINE
  8
LAYER_2
  6
AIGENLINE002
 40
0.1305
 41
0.1305
 66
1
 10
0
 20
0
 30
0
 70
128
  0
VERTEX
  8
LAYER_2
 10
174.7495
 20
102.8004
  0
VERTEX
  8
LAYER_2
 10
174.7486
 20
102.8084
  0
SEQEND
  0
POLYLINE
  8
LAYER_2
  6
AIGENLINE002
 40
0.1305
 41
0.1305
 66
1
 10
0
 20
0
 30
0
 70
128
  0
VERTEX
  8
LAYER_2
 10
174.7504
 20
102.792
  0
VERTEX
  8
LAYER_2
 10
174.75
 20
102.8004
  0
SEQEND
  0
POLYLINE
  8
LAYER_2
  6
AIGENLINE002
 40
0.1305
 41
0.1305
 66
1
 10
0
 20
0
 30
0
 70
128
  0
VERTEX
  8
LAYER_2
 10
174.7509
 20
102.7836
  0
VERTEX
  8
LAYER_2
 10
174.75
 20
102.792
  0
SEQEND
  0
POLYLINE
  8
LAYER_2
  6
AIGENLINE002
 40
0.1305
 41
0.1305
 66
1
 10
0
 20
0
 30
0
 70
128
  0
VERTEX
  8
LAYER_2
 10
174.7509
 20
102.7746
  0
VERTEX
  8
LAYER_2
 10
174.7509
 20
102.7831
  0
SEQEND
  0
ENDBLK
  0
BLOCK
  8
LAYER_2
  2
AIGNBL0201006D
 70
64
 10
0
 20
0
 30
0
  3
AIGNBL0201006D
  0
POLYLINE
  8
LAYER_2
  6
AIGENLINE002
 40
0.1305
 41
0.1305
 66
1
 10
0
 20
0
 30
0
 70
128
  0
VERTEX
  8
LAYER_2
 10
174.705
 20
102.9191
  0
VERTEX
  8
LAYER_2
 10
174.6998
 20
102.9261
  0
SEQEND
  0
POLYLINE
  8
LAYER_2
  6
AIGENLINE002
 40
0.1305
 41
0.1305
 66
1
 10
0
 20
0
 30
0
 70
128
  0
VERTEX
  8
LAYER_2
 10
174.7101
 20
102.912
  0
VERTEX
  8
LAYER_2
 10
174.705
 20
102.9196
  0
SEQEND
  0
POLYLINE
  8
LAYER_2
  6
AIGENLINE002
 40
0.1305
 41
0.1305
 66
1
 10
0
 20
0
 30
0
 70
128
  0
VERTEX
  8
LAYER_2
 10
174.7143
 20
102.9045
  0
VERTEX
  8
LAYER_2
 10
174.7096
 20
102.912
  0
SEQEND
  0
ENDBLK
  0
BLOCK
  8
LAYER_2
  2
AIGNBL0201006E
 70
64
 10
0
 20
0
 30
0
  3
AIGNBL0201006E
  0
POLYLINE
  8
LAYER_2
  6
AIGENLINE002
 40
0.1305
 41
0.1305
 66
1
 10
0
 20
0
 30
0
 70
128
  0
VERTEX
  8
LAYER_2
 10
174.6778
 20
102.9519
  0
VERTEX
  8
LAYER_2
 10
174.6712
 20
102.958
  0
SEQEND
  0
POLYLINE
  8
LAYER_2
  6
AIGENLINE002
 40
0.1305
 41
0.1305
 66
1
 10
0
 20
0
 30
0
 70
128
  0
VERTEX
  8
LAYER_2
 10
174.6839
 20
102.9458
  0
VERTEX
  8
LAYER_2
 10
174.6778
 20
102.9524
  0
SEQEND
  0
POLYLINE
  8
LAYER_2
  6
AIGENLINE002
 40
0.1305
 41
0.1305
 66
1
 10
0
 20
0
 30
0
 70
128
  0
VERTEX
  8
LAYER_2
 10
174.6895
 20
102.9392
  0
VERTEX
  8
LAYER_2
 10
174.6839
 20
102.9458
  0
SEQEND
  0
POLYLINE
  8
LAYER_2
  6
AIGENLINE002
 40
0.1305
 41
0.1305
 66
1
 10
0
 20
0
 30
0
 70
128
  0
VERTEX
  8
LAYER_2
 10
174.6946
 20
102.9327
  0
VERTEX
  8
LAYER_2
 10
174.689
 20
102.9392
  0
SEQEND
  0
ENDBLK
  0
BLOCK
  8
LAYER_2
  2
AIGNBL0201006F
 70
64
 10
0
 20
0
 30
0
  3
AIGNBL0201006F
  0
POLYLINE
  8
LAYER_2
  6
AIGENLINE002
 40
0.1305
 41
0.1305
 66
1
 10
0
 20
0
 30
0
 70
128
  0
VERTEX
  8
LAYER_2
 10
174.652
 20
102.9744
  0
VERTEX
  8
LAYER_2
 10
174.6449
 20
102.9796
  0
SEQEND
  0
POLYLINE
  8
LAYER_2
  6
AIGENLINE002
 40
0.1305
 41
0.1305
 66
1
 10
0
 20
0
 30
0
 70
128
  0
VERTEX
  8
LAYER_2
 10
174.6585
 20
102.9688
  0
VERTEX
  8
LAYER_2
 10
174.652
 20
102.9744
  0
SEQEND
  0
POLYLINE
  8
LAYER_2
  6
AIGENLINE002
 40
0.1305
 41
0.1305
 66
1
 10
0
 20
0
 30
0
 70
128
  0
VERTEX
  8
LAYER_2
 10
174.6651
 20
102.9632
  0
VERTEX
  8
LAYER_2
 10
174.6585
 20
102.9688
  0
SEQEND
  0
ENDBLK
  0
BLOCK
  8
LAYER_2
  2
AIGNBL02010070
 70
64
 10
0
 20
0
 30
0
  3
AIGNBL02010070
  0
POLYLINE
  8
LAYER_2
  6
AIGENLINE002
 40
0.1305
 41
0.1305
 66
1
 10
0
 20
0
 30
0
 70
128
  0
VERTEX
  8
LAYER_2
 10
174.6009
 20
103.0044
  0
VERTEX
  8
LAYER_2
 10
174.5929
 20
103.0077
  0
SEQEND
  0
POLYLINE
  8
LAYER_2
  6
AIGENLINE002
 40
0.1305
 41
0.1305
 66
1
 10
0
 20
0
 30
0
 70
128
  0
VERTEX
  8
LAYER_2
 10
174.6084
 20
103.0007
  0
VERTEX
  8
LAYER_2
 10
174.6009
 20
103.0044
  0
SEQEND
  0
POLYLINE
  8
LAYER_2
  6
AIGENLINE002
 40
0.1305
 41
0.1305
 66
1
 10
0
 20
0
 30
0
 70
128
  0
VERTEX
  8
LAYER_2
 10
174.6159
 20
102.9969
  0
VERTEX
  8
LAYER_2
 10
174.6084
 20
103.0007
  0
SEQEND
  0
POLYLINE
  8
LAYER_2
  6
AIGENLINE002
 40
0.1305
 41
0.1305
 66
1
 10
0
 20
0
 30
0
 70
128
  0
VERTEX
  8
LAYER_2
 10
174.6234
 20
102.9927
  0
VERTEX
  8
LAYER_2
 10
174.6159
 20
102.9969
  0
SEQEND
  0
ENDBLK
  0
BLOCK
  8
LAYER_2
  2
AIGNBL02010071
 70
64
 10
0
 20
0
 30
0
  3
AIGNBL02010071
  0
POLYLINE
  8
LAYER_2
  6
AIGENLINE002
 40
0.1305
 41
0.1305
 66
1
 10
0
 20
0
 30
0
 70
128
  0
VERTEX
  8
LAYER_2
 10
174.5516
 20
103.0199
  0
VERTEX
  8
LAYER_2
 10
174.5436
 20
103.0218
  0
SEQEND
  0
POLYLINE
  8
LAYER_2
  6
AIGENLINE002
 40
0.1305
 41
0.1305
 66
1
 10
0
 20
0
 30
0
 70
128
  0
VERTEX
  8
LAYER_2
 10
174.5601
 20
103.0175
  0
VERTEX
  8
LAYER_2
 10
174.5521
 20
103.0199
  0
SEQEND
  0
POLYLINE
  8
LAYER_2
  6
AIGENLINE002
 40
0.1305
 41
0.1305
 66
1
 10
0
 20
0
 30
0
 70
128
  0
VERTEX
  8
LAYER_2
 10
174.5685
 20
103.0157
  0
VERTEX
  8
LAYER_2
 10
174.5605
 20
103.018
  0
SEQEND
  0
ENDBLK
  0
BLOCK
  8
LAYER_2
  2
AIGNBL02010072
 70
64
 10
0
 20
0
 30
0
  3
AIGNBL02010072
  0
POLYLINE
  8
LAYER_2
  6
AIGENLINE002
 40
0.1305
 41
0.1305
 66
1
 10
0
 20
0
 30
0
 70
128
  0
VERTEX
  8
LAYER_2
 10
174.5094
 20
103.025
  0
VERTEX
  8
LAYER_2
 10
174.501
 20
103.025
  0
SEQEND
  0
POLYLINE
  8
LAYER_2
  6
AIGENLINE002
 40
0.1305
 41
0.1305
 66
1
 10
0
 20
0
 30
0
 70
128
  0
VERTEX
  8
LAYER_2
 10
174.5179
 20
103.0241
  0
VERTEX
  8
LAYER_2
 10
174.5094
 20
103.0246
  0
SEQEND
  0
POLYLINE
  8
LAYER_2
  6
AIGENLINE002
 40
0.1305
 41
0.1305
 66
1
 10
0
 20
0
 30
0
 70
128
  0
VERTEX
  8
LAYER_2
 10
174.5268
 20
103.0236
  0
VERTEX
  8
LAYER_2
 10
174.5183
 20
103.0241
  0
SEQEND
  0
POLYLINE
  8
LAYER_2
  6
AIGENLINE002
 40
0.1305
 41
0.1305
 66
1
 10
0
 20
0
 30
0
 70
128
  0
VERTEX
  8
LAYER_2
 10
174.5347
 20
103.0227
  0
VERTEX
  8
LAYER_2
 10
174.5268
 20
103.0232
  0
SEQEND
  0
ENDBLK
  0
BLOCK
  8
LAYER_2
  2
AIGNBL02010073
 70
64
 10
0
 20
0
 30
0
  3
AIGNBL02010073
  0
POLYLINE
  8
LAYER_2
  6
AIGENLINE002
 40
0.1305
 41
0.1305
 66
1
 10
0
 20
0
 30
0
 70
128
  0
VERTEX
  8
LAYER_2
 10
174.3439
 20
103.0236
  0
VERTEX
  8
LAYER_2
 10
174.3359
 20
103.0232
  0
SEQEND
  0
POLYLINE
  8
LAYER_2
  6
AIGENLINE002
 40
0.1305
 41
0.1305
 66
1
 10
0
 20
0
 30
0
 70
128
  0
VERTEX
  8
LAYER_2
 10
174.3528
 20
103.0241
  0
VERTEX
  8
LAYER_2
 10
174.3444
 20
103.0232
  0
SEQEND
  0
POLYLINE
  8
LAYER_2
  6
AIGENLINE002
 40
0.1305
 41
0.1305
 66
1
 10
0
 20
0
 30
0
 70
128
  0
VERTEX
  8
LAYER_2
 10
174.3612
 20
103.025
  0
VERTEX
  8
LAYER_2
 10
174.3528
 20
103.0241
  0
SEQEND
  0
POLYLINE
  8
LAYER_2
  6
AIGENLINE002
 40
0.1305
 41
0.1305
 66
1
 10
0
 20
0
 30
0
 70
128
  0
VERTEX
  8
LAYER_2
 10
174.3701
 20
103.025
  0
VERTEX
  8
LAYER_2
 10
174.3617
 20
103.025
  0
SEQEND
  0
ENDBLK
  0
BLOCK
  8
LAYER_2
  2
AIGNBL02010074
 70
64
 10
0
 20
0
 30
0
  3
AIGNBL02010074
  0
POLYLINE
  8
LAYER_2
  6
AIGENLINE002
 40
0.1305
 41
0.1305
 66
1
 10
0
 20
0
 30
0
 70
128
  0
VERTEX
  8
LAYER_2
 10
174.2778
 20
103.0072
  0
VERTEX
  8
LAYER_2
 10
174.2698
 20
103.004
  0
SEQEND
  0
POLYLINE
  8
LAYER_2
  6
AIGENLINE002
 40
0.1305
 41
0.1305
 66
1
 10
0
 20
0
 30
0
 70
128
  0
VERTEX
  8
LAYER_2
 10
174.2857
 20
103.0105
  0
VERTEX
  8
LAYER_2
 10
174.2778
 20
103.0072
  0
SEQEND
  0
ENDBLK
  0
BLOCK
  8
LAYER_2
  2
AIGNBL02010075
 70
64
 10
0
 20
0
 30
0
  3
AIGNBL02010075
  0
POLYLINE
  8
LAYER_2
  6
AIGENLINE002
 40
0.1305
 41
0.1305
 66
1
 10
0
 20
0
 30
0
 70
128
  0
VERTEX
  8
LAYER_2
 10
174.2398
 20
102.9885
  0
VERTEX
  8
LAYER_2
 10
174.2323
 20
102.9838
  0
SEQEND
  0
POLYLINE
  8
LAYER_2
  6
AIGENLINE002
 40
0.1305
 41
0.1305
 66
1
 10
0
 20
0
 30
0
 70
128
  0
VERTEX
  8
LAYER_2
 10
174.2468
 20
102.9927
  0
VERTEX
  8
LAYER_2
 10
174.2393
 20
102.9885
  0
SEQEND
  0
POLYLINE
  8
LAYER_2
  6
AIGENLINE002
 40
0.1305
 41
0.1305
 66
1
 10
0
 20
0
 30
0
 70
128
  0
VERTEX
  8
LAYER_2
 10
174.2543
 20
102.9965
  0
VERTEX
  8
LAYER_2
 10
174.2468
 20
102.9922
  0
SEQEND
  0
POLYLINE
  8
LAYER_2
  6
AIGENLINE002
 40
0.1305
 41
0.1305
 66
1
 10
0
 20
0
 30
0
 70
128
  0
VERTEX
  8
LAYER_2
 10
174.2623
 20
103.0007
  0
VERTEX
  8
LAYER_2
 10
174.2548
 20
102.9965
  0
SEQEND
  0
ENDBLK
  0
BLOCK
  8
LAYER_2
  2
AIGNBL02010076
 70
64
 10
0
 20
0
 30
0
  3
AIGNBL02010076
  0
POLYLINE
  8
LAYER_2
  6
AIGENLINE002
 40
0.1305
 41
0.1305
 66
1
 10
0
 20
0
 30
0
 70
128
  0
VERTEX
  8
LAYER_2
 10
174.2117
 20
102.9683
  0
VERTEX
  8
LAYER_2
 10
174.2051
 20
102.9627
  0
SEQEND
  0
POLYLINE
  8
LAYER_2
  6
AIGENLINE002
 40
0.1305
 41
0.1305
 66
1
 10
0
 20
0
 30
0
 70
128
  0
VERTEX
  8
LAYER_2
 10
174.2182
 20
102.9739
  0
VERTEX
  8
LAYER_2
 10
174.2117
 20
102.9683
  0
SEQEND
  0
POLYLINE
  8
LAYER_2
  6
AIGENLINE002
 40
0.1305
 41
0.1305
 66
1
 10
0
 20
0
 30
0
 70
128
  0
VERTEX
  8
LAYER_2
 10
174.2253
 20
102.9791
  0
VERTEX
  8
LAYER_2
 10
174.2182
 20
102.9739
  0
SEQEND
  0
ENDBLK
  0
BLOCK
  8
LAYER_2
  2
AIGNBL02010077
 70
64
 10
0
 20
0
 30
0
  3
AIGNBL02010077
  0
POLYLINE
  8
LAYER_2
  6
AIGENLINE003
 40
0.1305
 41
0.1305
 66
1
 10
0
 20
0
 30
0
 70
128
  0
VERTEX
  8
LAYER_2
 10
174.1756
 20
102.9322
  0
VERTEX
  8
LAYER_2
 10
174.1699
 20
102.9256
  0
SEQEND
  0
POLYLINE
  8
LAYER_2
  6
AIGENLINE003
 40
0.1305
 41
0.1305
 66
1
 10
0
 20
0
 30
0
 70
128
  0
VERTEX
  8
LAYER_2
 10
174.1812
 20
102.9388
  0
VERTEX
  8
LAYER_2
 10
174.1756
 20
102.9322
  0
SEQEND
  0
ENDBLK
  0
BLOCK
  8
LAYER_2
  2
AIGNBL02010078
 70
64
 10
0
 20
0
 30
0
  3
AIGNBL02010078
  0
POLYLINE
  8
LAYER_2
  6
AIGENLINE002
 40
0.1305
 41
0.1305
 66
1
 10
0
 20
0
 30
0
 70
128
  0
VERTEX
  8
LAYER_2
 10
174.1605
 20
102.9116
  0
VERTEX
  8
LAYER_2
 10
174.1558
 20
102.9041
  0
SEQEND
  0
POLYLINE
  8
LAYER_2
  6
AIGENLINE002
 40
0.1305
 41
0.1305
 66
1
 10
0
 20
0
 30
0
 70
128
  0
VERTEX
  8
LAYER_2
 10
174.1652
 20
102.9186
  0
VERTEX
  8
LAYER_2
 10
174.1601
 20
102.9116
  0
SEQEND
  0
POLYLINE
  8
LAYER_2
  6
AIGENLINE002
 40
0.1305
 41
0.1305
 66
1
 10
0
 20
0
 30
0
 70
128
  0
VERTEX
  8
LAYER_2
 10
174.1704
 20
102.9256
  0
VERTEX
  8
LAYER_2
 10
174.1652
 20
102.9181
  0
SEQEND
  0
ENDBLK
  0
BLOCK
  8
LAYER_2
  2
AIGNBL02010079
 70
64
 10
0
 20
0
 30
0
  3
AIGNBL02010079
  0
POLYLINE
  8
LAYER_2
  6
AIGENLINE002
 40
0.1305
 41
0.1305
 66
1
 10
0
 20
0
 30
0
 70
128
  0
VERTEX
  8
LAYER_2
 10
174.1404
 20
102.8736
  0
VERTEX
  8
LAYER_2
 10
174.1371
 20
102.8661
  0
SEQEND
  0
POLYLINE
  8
LAYER_2
  6
AIGENLINE002
 40
0.1305
 41
0.1305
 66
1
 10
0
 20
0
 30
0
 70
128
  0
VERTEX
  8
LAYER_2
 10
174.1437
 20
102.8816
  0
VERTEX
  8
LAYER_2
 10
174.1399
 20
102.8736
  0
SEQEND
  0
POLYLINE
  8
LAYER_2
  6
AIGENLINE002
 40
0.1305
 41
0.1305
 66
1
 10
0
 20
0
 30
0
 70
128
  0
VERTEX
  8
LAYER_2
 10
174.1474
 20
102.8891
  0
VERTEX
  8
LAYER_2
 10
174.1437
 20
102.8816
  0
SEQEND
  0
POLYLINE
  8
LAYER_2
  6
AIGENLINE002
 40
0.1305
 41
0.1305
 66
1
 10
0
 20
0
 30
0
 70
128
  0
VERTEX
  8
LAYER_2
 10
174.1516
 20
102.8966
  0
VERTEX
  8
LAYER_2
 10
174.1474
 20
102.8891
  0
SEQEND
  0
ENDBLK
  0
BLOCK
  8
LAYER_2
  2
AIGNBL0201007A
 70
64
 10
0
 20
0
 30
0
  3
AIGNBL0201007A
  0
POLYLINE
  8
LAYER_2
  6
AIGENLINE002
 40
0.1305
 41
0.1305
 66
1
 10
0
 20
0
 30
0
 70
128
  0
VERTEX
  8
LAYER_2
 10
174.1235
 20
102.8164
  0
VERTEX
  8
LAYER_2
 10
174.1221
 20
102.8084
  0
SEQEND
  0
POLYLINE
  8
LAYER_2
  6
AIGENLINE002
 40
0.1305
 41
0.1305
 66
1
 10
0
 20
0
 30
0
 70
128
  0
VERTEX
  8
LAYER_2
 10
174.1249
 20
102.8253
  0
VERTEX
  8
LAYER_2
 10
174.123
 20
102.8168
  0
SEQEND
  0
POLYLINE
  8
LAYER_2
  6
AIGENLINE002
 40
0.1305
 41
0.1305
 66
1
 10
0
 20
0
 30
0
 70
128
  0
VERTEX
  8
LAYER_2
 10
174.1268
 20
102.8333
  0
VERTEX
  8
LAYER_2
 10
174.1249
 20
102.8253
  0
SEQEND
  0
POLYLINE
  8
LAYER_2
  6
AIGENLINE002
 40
0.1305
 41
0.1305
 66
1
 10
0
 20
0
 30
0
 70
128
  0
VERTEX
  8
LAYER_2
 10
174.1287
 20
102.8417
  0
VERTEX
  8
LAYER_2
 10
174.1263
 20
102.8337
  0
SEQEND
  0
POLYLINE
  8
LAYER_2
  6
AIGENLINE002
 40
0.1305
 41
0.1305
 66
1
 10
0
 20
0
 30
0
 70
128
  0
VERTEX
  8
LAYER_2
 10
174.131
 20
102.8497
  0
VERTEX
  8
LAYER_2
 10
174.1287
 20
102.8417
  0
SEQEND
  0
POLYLINE
  8
LAYER_2
  6
AIGENLINE002
 40
0.1305
 41
0.1305
 66
1
 10
0
 20
0
 30
0
 70
128
  0
VERTEX
  8
LAYER_2
 10
174.1338
 20
102.8581
  0
VERTEX
  8
LAYER_2
 10
174.131
 20
102.8501
  0
SEQEND
  0
ENDBLK
  0
BLOCK
  8
LAYER_2
  2
AIGNBL0201007B
 70
64
 10
0
 20
0
 30
0
  3
AIGNBL0201007B
  0
POLYLINE
  8
LAYER_2
  6
AIGENLINE004
 40
0.1305
 41
0.1305
 66
1
 10
0
 20
0
 30
0
 70
128
  0
VERTEX
  8
LAYER_2
 10
174.0002
 20
102.1524
  0
VERTEX
  8
LAYER_2
 10
173.9941
 20
102.1444
  0
SEQEND
  0
POLYLINE
  8
LAYER_2
  6
AIGENLINE004
 40
0.1305
 41
0.1305
 66
1
 10
0
 20
0
 30
0
 70
128
  0
VERTEX
  8
LAYER_2
 10
174.0063
 20
102.1608
  0
VERTEX
  8
LAYER_2
 10
174.0002
 20
102.1529
  0
SEQEND
  0
POLYLINE
  8
LAYER_2
  6
AIGENLINE004
 40
0.1305
 41
0.1305
 66
1
 10
0
 20
0
 30
0
 70
128
  0
VERTEX
  8
LAYER_2
 10
174.0119
 20
102.1697
  0
VERTEX
  8
LAYER_2
 10
174.0063
 20
102.1608
  0
SEQEND
  0
POLYLINE
  8
LAYER_2
  6
AIGENLINE004
 40
0.1305
 41
0.1305
 66
1
 10
0
 20
0
 30
0
 70
128
  0
VERTEX
  8
LAYER_2
 10
174.0166
 20
102.1786
  0
VERTEX
  8
LAYER_2
 10
174.0114
 20
102.1702
  0
SEQEND
  0
POLYLINE
  8
LAYER_2
  6
AIGENLINE004
 40
0.1305
 41
0.1305
 66
1
 10
0
 20
0
 30
0
 70
128
  0
VERTEX
  8
LAYER_2
 10
174.0217
 20
102.1876
  0
VERTEX
  8
LAYER_2
 10
174.017
 20
102.1782
  0
SEQEND
  0
POLYLINE
  8
LAYER_2
  6
AIGENLINE004
 40
0.1305
 41
0.1305
 66
1
 10
0
 20
0
 30
0
 70
128
  0
VERTEX
  8
LAYER_2
 10
174.026
 20
102.1969
  0
VERTEX
  8
LAYER_2
 10
174.0213
 20
102.188
  0
SEQEND
  0
POLYLINE
  8
LAYER_2
  6
AIGENLINE004
 40
0.1305
 41
0.1305
 66
1
 10
0
 20
0
 30
0
 70
128
  0
VERTEX
  8
LAYER_2
 10
174.0302
 20
102.2063
  0
VERTEX
  8
LAYER_2
 10
174.026
 20
102.1969
  0
SEQEND
  0
POLYLINE
  8
LAYER_2
  6
AIGENLINE004
 40
0.1305
 41
0.1305
 66
1
 10
0
 20
0
 30
0
 70
128
  0
VERTEX
  8
LAYER_2
 10
174.0339
 20
102.2157
  0
VERTEX
  8
LAYER_2
 10
174.0302
 20
102.2063
  0
SEQEND
  0
POLYLINE
  8
LAYER_2
  6
AIGENLINE004
 40
0.1305
 41
0.1305
 66
1
 10
0
 20
0
 30
0
 70
128
  0
VERTEX
  8
LAYER_2
 10
174.0377
 20
102.2251
  0
VERTEX
  8
LAYER_2
 10
174.0339
 20
102.2157
  0
SEQEND
  0
POLYLINE
  8
LAYER_2
  6
AIGENLINE004
 40
0.1305
 41
0.1305
 66
1
 10
0
 20
0
 30
0
 70
128
  0
VERTEX
  8
LAYER_2
 10
174.041
 20
102.2349
  0
VERTEX
  8
LAYER_2
 10
174.0377
 20
102.2255
  0
SEQEND
  0
POLYLINE
  8
LAYER_2
  6
AIGENLINE004
 40
0.1305
 41
0.1305
 66
1
 10
0
 20
0
 30
0
 70
128
  0
VERTEX
  8
LAYER_2
 10
174.0442
 20
102.2448
  0
VERTEX
  8
LAYER_2
 10
174.041
 20
102.2349
  0
SEQEND
  0
POLYLINE
  8
LAYER_2
  6
AIGENLINE004
 40
0.1305
 41
0.1305
 66
1
 10
0
 20
0
 30
0
 70
128
  0
VERTEX
  8
LAYER_2
 10
174.0466
 20
102.2551
  0
VERTEX
  8
LAYER_2
 10
174.0442
 20
102.2452
  0
SEQEND
  0
POLYLINE
  8
LAYER_2
  6
AIGENLINE004
 40
0.1305
 41
0.1305
 66
1
 10
0
 20
0
 30
0
 70
128
  0
VERTEX
  8
LAYER_2
 10
174.0489
 20
102.2649
  0
VERTEX
  8
LAYER_2
 10
174.0466
 20
102.2551
  0
SEQEND
  0
POLYLINE
  8
LAYER_2
  6
AIGENLINE004
 40
0.1305
 41
0.1305
 66
1
 10
0
 20
0
 30
0
 70
128
  0
VERTEX
  8
LAYER_2
 10
174.0503
 20
102.2748
  0
VERTEX
  8
LAYER_2
 10
174.0485
 20
102.2649
  0
SEQEND
  0
POLYLINE
  8
LAYER_2
  6
AIGENLINE004
 40
0.1305
 41
0.1305
 66
1
 10
0
 20
0
 30
0
 70
128
  0
VERTEX
  8
LAYER_2
 10
174.0522
 20
102.2851
  0
VERTEX
  8
LAYER_2
 10
174.0503
 20
102.2748
  0
SEQEND
  0
ENDBLK
  0
BLOCK
  8
LAYER_2
  2
AIGNBL0201007C
 70
64
 10
0
 20
0
 30
0
  3
AIGNBL0201007C
  0
POLYLINE
  8
LAYER_2
  6
AIGENLINE004
 40
0.1305
 41
0.1305
 66
1
 10
0
 20
0
 30
0
 70
128
  0
VERTEX
  8
LAYER_2
 10
173.9364
 20
102.0863
  0
VERTEX
  8
LAYER_2
 10
173.9284
 20
102.0797
  0
SEQEND
  0
POLYLINE
  8
LAYER_2
  6
AIGENLINE004
 40
0.1305
 41
0.1305
 66
1
 10
0
 20
0
 30
0
 70
128
  0
VERTEX
  8
LAYER_2
 10
173.9444
 20
102.0928
  0
VERTEX
  8
LAYER_2
 10
173.9364
 20
102.0863
  0
SEQEND
  0
POLYLINE
  8
LAYER_2
  6
AIGENLINE004
 40
0.1305
 41
0.1305
 66
1
 10
0
 20
0
 30
0
 70
128
  0
VERTEX
  8
LAYER_2
 10
173.9523
 20
102.0994
  0
VERTEX
  8
LAYER_2
 10
173.9444
 20
102.0928
  0
SEQEND
  0
POLYLINE
  8
LAYER_2
  6
AIGENLINE004
 40
0.1305
 41
0.1305
 66
1
 10
0
 20
0
 30
0
 70
128
  0
VERTEX
  8
LAYER_2
 10
173.9598
 20
102.106
  0
VERTEX
  8
LAYER_2
 10
173.9523
 20
102.0989
  0
SEQEND
  0
POLYLINE
  8
LAYER_2
  6
AIGENLINE004
 40
0.1305
 41
0.1305
 66
1
 10
0
 20
0
 30
0
 70
128
  0
VERTEX
  8
LAYER_2
 10
173.9673
 20
102.1135
  0
VERTEX
  8
LAYER_2
 10
173.9598
 20
102.106
  0
SEQEND
  0
POLYLINE
  8
LAYER_2
  6
AIGENLINE004
 40
0.1305
 41
0.1305
 66
1
 10
0
 20
0
 30
0
 70
128
  0
VERTEX
  8
LAYER_2
 10
173.9744
 20
102.1205
  0
VERTEX
  8
LAYER_2
 10
173.9669
 20
102.113
  0
SEQEND
  0
POLYLINE
  8
LAYER_2
  6
AIGENLINE004
 40
0.1305
 41
0.1305
 66
1
 10
0
 20
0
 30
0
 70
128
  0
VERTEX
  8
LAYER_2
 10
173.9814
 20
102.128
  0
VERTEX
  8
LAYER_2
 10
173.9744
 20
102.1205
  0
SEQEND
  0
POLYLINE
  8
LAYER_2
  6
AIGENLINE004
 40
0.1305
 41
0.1305
 66
1
 10
0
 20
0
 30
0
 70
128
  0
VERTEX
  8
LAYER_2
 10
173.988
 20
102.1364
  0
VERTEX
  8
LAYER_2
 10
173.9814
 20
102.1285
  0
SEQEND
  0
ENDBLK
  0
BLOCK
  8
LAYER_2
  2
AIGNBL0201007D
 70
64
 10
0
 20
0
 30
0
  3
AIGNBL0201007D
  0
POLYLINE
  8
LAYER_2
  6
AIGENLINE004
 40
0.1305
 41
0.1305
 66
1
 10
0
 20
0
 30
0
 70
128
  0
VERTEX
  8
LAYER_2
 10
173.8651
 20
102.0459
  0
VERTEX
  8
LAYER_2
 10
173.8557
 20
102.0422
  0
SEQEND
  0
POLYLINE
  8
LAYER_2
  6
AIGENLINE004
 40
0.1305
 41
0.1305
 66
1
 10
0
 20
0
 30
0
 70
128
  0
VERTEX
  8
LAYER_2
 10
173.8745
 20
102.0502
  0
VERTEX
  8
LAYER_2
 10
173.8651
 20
102.0459
  0
SEQEND
  0
POLYLINE
  8
LAYER_2
  6
AIGENLINE004
 40
0.1305
 41
0.1305
 66
1
 10
0
 20
0
 30
0
 70
128
  0
VERTEX
  8
LAYER_2
 10
173.8839
 20
102.0539
  0
VERTEX
  8
LAYER_2
 10
173.8745
 20
102.0497
  0
SEQEND
  0
POLYLINE
  8
LAYER_2
  6
AIGENLINE004
 40
0.1305
 41
0.1305
 66
1
 10
0
 20
0
 30
0
 70
128
  0
VERTEX
  8
LAYER_2
 10
173.8932
 20
102.0591
  0
VERTEX
  8
LAYER_2
 10
173.8839
 20
102.0539
  0
SEQEND
  0
POLYLINE
  8
LAYER_2
  6
AIGENLINE004
 40
0.1305
 41
0.1305
 66
1
 10
0
 20
0
 30
0
 70
128
  0
VERTEX
  8
LAYER_2
 10
173.9022
 20
102.0638
  0
VERTEX
  8
LAYER_2
 10
173.8932
 20
102.0586
  0
SEQEND
  0
POLYLINE
  8
LAYER_2
  6
AIGENLINE004
 40
0.1305
 41
0.1305
 66
1
 10
0
 20
0
 30
0
 70
128
  0
VERTEX
  8
LAYER_2
 10
173.9111
 20
102.0689
  0
VERTEX
  8
LAYER_2
 10
173.9022
 20
102.0638
  0
SEQEND
  0
POLYLINE
  8
LAYER_2
  6
AIGENLINE004
 40
0.1305
 41
0.1305
 66
1
 10
0
 20
0
 30
0
 70
128
  0
VERTEX
  8
LAYER_2
 10
173.9195
 20
102.0746
  0
VERTEX
  8
LAYER_2
 10
173.9111
 20
102.0689
  0
SEQEND
  0
ENDBLK
  0
BLOCK
  8
LAYER_2
  2
AIGNBL0201007E
 70
64
 10
0
 20
0
 30
0
  3
AIGNBL0201007E
  0
POLYLINE
  8
LAYER_2
  6
AIGENLINE004
 40
0.1305
 41
0.1305
 66
1
 10
0
 20
0
 30
0
 70
128
  0
VERTEX
  8
LAYER_2
 10
173.8159
 20
102.0314
  0
VERTEX
  8
LAYER_2
 10
173.806
 20
102.0291
  0
SEQEND
  0
POLYLINE
  8
LAYER_2
  6
AIGENLINE004
 40
0.1305
 41
0.1305
 66
1
 10
0
 20
0
 30
0
 70
128
  0
VERTEX
  8
LAYER_2
 10
173.8262
 20
102.0333
  0
VERTEX
  8
LAYER_2
 10
173.8163
 20
102.0309
  0
SEQEND
  0
POLYLINE
  8
LAYER_2
  6
AIGENLINE004
 40
0.1305
 41
0.1305
 66
1
 10
0
 20
0
 30
0
 70
128
  0
VERTEX
  8
LAYER_2
 10
173.8361
 20
102.0361
  0
VERTEX
  8
LAYER_2
 10
173.8262
 20
102.0333
  0
SEQEND
  0
POLYLINE
  8
LAYER_2
  6
AIGENLINE004
 40
0.1305
 41
0.1305
 66
1
 10
0
 20
0
 30
0
 70
128
  0
VERTEX
  8
LAYER_2
 10
173.8454
 20
102.0389
  0
VERTEX
  8
LAYER_2
 10
173.8361
 20
102.0361
  0
SEQEND
  0
ENDBLK
  0
BLOCK
  8
LAYER_2
  2
AIGNBL0201007F
 70
64
 10
0
 20
0
 30
0
  3
AIGNBL0201007F
  0
POLYLINE
  8
LAYER_2
  6
AIGENLINE004
 40
0.1305
 41
0.1305
 66
1
 10
0
 20
0
 30
0
 70
128
  0
VERTEX
  8
LAYER_2
 10
173.7648
 20
102.0253
  0
VERTEX
  8
LAYER_2
 10
173.7545
 20
102.0248
  0
SEQEND
  0
POLYLINE
  8
LAYER_2
  6
AIGENLINE004
 40
0.1305
 41
0.1305
 66
1
 10
0
 20
0
 30
0
 70
128
  0
VERTEX
  8
LAYER_2
 10
173.7751
 20
102.0258
  0
VERTEX
  8
LAYER_2
 10
173.7648
 20
102.0253
  0
SEQEND
  0
POLYLINE
  8
LAYER_2
  6
AIGENLINE004
 40
0.1305
 41
0.1305
 66
1
 10
0
 20
0
 30
0
 70
128
  0
VERTEX
  8
LAYER_2
 10
173.7859
 20
102.0263
  0
VERTEX
  8
LAYER_2
 10
173.7755
 20
102.0253
  0
SEQEND
  0
POLYLINE
  8
LAYER_2
  6
AIGENLINE004
 40
0.1305
 41
0.1305
 66
1
 10
0
 20
0
 30
0
 70
128
  0
VERTEX
  8
LAYER_2
 10
173.7957
 20
102.0281
  0
VERTEX
  8
LAYER_2
 10
173.7859
 20
102.0263
  0
SEQEND
  0
ENDBLK
  0
BLOCK
  8
LAYER_2
  2
AIGNBL02010080
 70
64
 10
0
 20
0
 30
0
  3
AIGNBL02010080
  0
POLYLINE
  8
LAYER_2
  6
AIGENLINE005
 40
0.1305
 41
0.1305
 66
1
 10
0
 20
0
 30
0
 70
128
  0
VERTEX
  8
LAYER_2
 10
161.8021
 20
93.0154
  0
VERTEX
  8
LAYER_2
 10
161.7997
 20
93.0032
  0
SEQEND
  0
POLYLINE
  8
LAYER_2
  6
AIGENLINE005
 40
0.1305
 41
0.1305
 66
1
 10
0
 20
0
 30
0
 70
128
  0
VERTEX
  8
LAYER_2
 10
161.8039
 20
93.0281
  0
VERTEX
  8
LAYER_2
 10
161.8021
 20
93.0159
  0
SEQEND
  0
ENDBLK
  0
BLOCK
  8
LAYER_2
  2
AIGNBL02010081
 70
64
 10
0
 20
0
 30
0
  3
AIGNBL02010081
  0
POLYLINE
  8
LAYER_2
  6
AIGENLINE006
 40
0.1305
 41
0.1305
 66
1
 10
0
 20
0
 30
0
 70
128
  0
VERTEX
  8
LAYER_2
 10
161.7927
 20
92.9657
  0
VERTEX
  8
LAYER_2
 10
161.7899
 20
92.9535
  0
SEQEND
  0
POLYLINE
  8
LAYER_2
  6
AIGENLINE006
 40
0.1305
 41
0.1305
 66
1
 10
0
 20
0
 30
0
 70
128
  0
VERTEX
  8
LAYER_2
 10
161.7955
 20
92.9784
  0
VERTEX
  8
LAYER_2
 10
161.7927
 20
92.9662
  0
SEQEND
  0
POLYLINE
  8
LAYER_2
  6
AIGENLINE006
 40
0.1305
 41
0.1305
 66
1
 10
0
 20
0
 30
0
 70
128
  0
VERTEX
  8
LAYER_2
 10
161.7978
 20
92.9906
  0
VERTEX
  8
LAYER_2
 10
161.795
 20
92.9784
  0
SEQEND
  0
POLYLINE
  8
LAYER_2
  6
AIGENLINE006
 40
0.1305
 41
0.1305
 66
1
 10
0
 20
0
 30
0
 70
128
  0
VERTEX
  8
LAYER_2
 10
161.8002
 20
93.0032
  0
VERTEX
  8
LAYER_2
 10
161.7978
 20
92.991
  0
SEQEND
  0
ENDBLK
  0
BLOCK
  8
LAYER_2
  2
AIGNBL02010082
 70
64
 10
0
 20
0
 30
0
  3
AIGNBL02010082
  0
POLYLINE
  8
LAYER_2
  6
AIGENLINE007
 40
0.1305
 41
0.1305
 66
1
 10
0
 20
0
 30
0
 70
128
  0
VERTEX
  8
LAYER_2
 10
161.7786
 20
92.9165
  0
VERTEX
  8
LAYER_2
 10
161.7744
 20
92.9043
  0
SEQEND
  0
POLYLINE
  8
LAYER_2
  6
AIGENLINE007
 40
0.1305
 41
0.1305
 66
1
 10
0
 20
0
 30
0
 70
128
  0
VERTEX
  8
LAYER_2
 10
161.7824
 20
92.9287
  0
VERTEX
  8
LAYER_2
 10
161.7786
 20
92.9165
  0
SEQEND
  0
POLYLINE
  8
LAYER_2
  6
AIGENLINE007
 40
0.1305
 41
0.1305
 66
1
 10
0
 20
0
 30
0
 70
128
  0
VERTEX
  8
LAYER_2
 10
161.7861
 20
92.9409
  0
VERTEX
  8
LAYER_2
 10
161.7824
 20
92.9287
  0
SEQEND
  0
POLYLINE
  8
LAYER_2
  6
AIGENLINE007
 40
0.1305
 41
0.1305
 66
1
 10
0
 20
0
 30
0
 70
128
  0
VERTEX
  8
LAYER_2
 10
161.7899
 20
92.954
  0
VERTEX
  8
LAYER_2
 10
161.7861
 20
92.9413
  0
SEQEND
  0
ENDBLK
  0
BLOCK
  8
LAYER_2
  2
AIGNBL02010083
 70
64
 10
0
 20
0
 30
0
  3
AIGNBL02010083
  0
POLYLINE
  8
LAYER_2
  6
AIGENLINE008
 40
0.1305
 41
0.1305
 66
1
 10
0
 20
0
 30
0
 70
128
  0
VERTEX
  8
LAYER_2
 10
161.6759
 20
92.7266
  0
VERTEX
  8
LAYER_2
 10
161.6675
 20
92.7158
  0
SEQEND
  0
POLYLINE
  8
LAYER_2
  6
AIGENLINE008
 40
0.1305
 41
0.1305
 66
1
 10
0
 20
0
 30
0
 70
128
  0
VERTEX
  8
LAYER_2
 10
161.6844
 20
92.7373
  0
VERTEX
  8
LAYER_2
 10
161.6759
 20
92.7266
  0
SEQEND
  0
POLYLINE
  8
LAYER_2
  6
AIGENLINE008
 40
0.1305
 41
0.1305
 66
1
 10
0
 20
0
 30
0
 70
128
  0
VERTEX
  8
LAYER_2
 10
161.6928
 20
92.7486
  0
VERTEX
  8
LAYER_2
 10
161.6848
 20
92.7378
  0
SEQEND
  0
POLYLINE
  8
LAYER_2
  6
AIGENLINE008
 40
0.1305
 41
0.1305
 66
1
 10
0
 20
0
 30
0
 70
128
  0
VERTEX
  8
LAYER_2
 10
161.7008
 20
92.7599
  0
VERTEX
  8
LAYER_2
 10
161.6928
 20
92.7486
  0
SEQEND
  0
POLYLINE
  8
LAYER_2
  6
AIGENLINE008
 40
0.1305
 41
0.1305
 66
1
 10
0
 20
0
 30
0
 70
128
  0
VERTEX
  8
LAYER_2
 10
161.7083
 20
92.7711
  0
VERTEX
  8
LAYER_2
 10
161.7008
 20
92.7599
  0
SEQEND
  0
POLYLINE
  8
LAYER_2
  6
AIGENLINE008
 40
0.1305
 41
0.1305
 66
1
 10
0
 20
0
 30
0
 70
128
  0
VERTEX
  8
LAYER_2
 10
161.7163
 20
92.7824
  0
VERTEX
  8
LAYER_2
 10
161.7087
 20
92.7711
  0
SEQEND
  0
POLYLINE
  8
LAYER_2
  6
AIGENLINE008
 40
0.1305
 41
0.1305
 66
1
 10
0
 20
0
 30
0
 70
128
  0
VERTEX
  8
LAYER_2
 10
161.7233
 20
92.7941
  0
VERTEX
  8
LAYER_2
 10
161.7158
 20
92.7824
  0
SEQEND
  0
POLYLINE
  8
LAYER_2
  6
AIGENLINE008
 40
0.1305
 41
0.1305
 66
1
 10
0
 20
0
 30
0
 70
128
  0
VERTEX
  8
LAYER_2
 10
161.7303
 20
92.8058
  0
VERTEX
  8
LAYER_2
 10
161.7233
 20
92.7941
  0
SEQEND
  0
POLYLINE
  8
LAYER_2
  6
AIGENLINE008
 40
0.1305
 41
0.1305
 66
1
 10
0
 20
0
 30
0
 70
128
  0
VERTEX
  8
LAYER_2
 10
161.7369
 20
92.818
  0
VERTEX
  8
LAYER_2
 10
161.7303
 20
92.8058
  0
SEQEND
  0
POLYLINE
  8
LAYER_2
  6
AIGENLINE008
 40
0.1305
 41
0.1305
 66
1
 10
0
 20
0
 30
0
 70
128
  0
VERTEX
  8
LAYER_2
 10
161.743
 20
92.8302
  0
VERTEX
  8
LAYER_2
 10
161.7364
 20
92.818
  0
SEQEND
  0
POLYLINE
  8
LAYER_2
  6
AIGENLINE008
 40
0.1305
 41
0.1305
 66
1
 10
0
 20
0
 30
0
 70
128
  0
VERTEX
  8
LAYER_2
 10
161.7486
 20
92.8424
  0
VERTEX
  8
LAYER_2
 10
161.7425
 20
92.8302
  0
SEQEND
  0
POLYLINE
  8
LAYER_2
  6
AIGENLINE008
 40
0.1305
 41
0.1305
 66
1
 10
0
 20
0
 30
0
 70
128
  0
VERTEX
  8
LAYER_2
 10
161.7547
 20
92.8541
  0
VERTEX
  8
LAYER_2
 10
161.7486
 20
92.8419
  0
SEQEND
  0
POLYLINE
  8
LAYER_2
  6
AIGENLINE008
 40
0.1305
 41
0.1305
 66
1
 10
0
 20
0
 30
0
 70
128
  0
VERTEX
  8
LAYER_2
 10
161.7603
 20
92.8668
  0
VERTEX
  8
LAYER_2
 10
161.7547
 20
92.8546
  0
SEQEND
  0
POLYLINE
  8
LAYER_2
  6
AIGENLINE008
 40
0.1305
 41
0.1305
 66
1
 10
0
 20
0
 30
0
 70
128
  0
VERTEX
  8
LAYER_2
 10
161.7655
 20
92.879
  0
VERTEX
  8
LAYER_2
 10
161.7603
 20
92.8668
  0
SEQEND
  0
ENDBLK
  0
BLOCK
  8
LAYER_2
  2
AIGNBL02010084
 70
64
 10
0
 20
0
 30
0
  3
AIGNBL02010084
  0
POLYLINE
  8
LAYER_2
  6
AIGENLINE008
 40
0.1305
 41
0.1305
 66
1
 10
0
 20
0
 30
0
 70
128
  0
VERTEX
  8
LAYER_2
 10
161.629
 20
92.675
  0
VERTEX
  8
LAYER_2
 10
161.6192
 20
92.6656
  0
SEQEND
  0
POLYLINE
  8
LAYER_2
  6
AIGENLINE008
 40
0.1305
 41
0.1305
 66
1
 10
0
 20
0
 30
0
 70
128
  0
VERTEX
  8
LAYER_2
 10
161.6389
 20
92.6848
  0
VERTEX
  8
LAYER_2
 10
161.6295
 20
92.6754
  0
SEQEND
  0
ENDBLK
  0
BLOCK
  8
LAYER_2
  2
AIGNBL02010085
 70
64
 10
0
 20
0
 30
0
  3
AIGNBL02010085
  0
POLYLINE
  8
LAYER_2
  6
AIGENLINE009
 40
0.1305
 41
0.1305
 66
1
 10
0
 20
0
 30
0
 70
128
  0
VERTEX
  8
LAYER_2
 10
161.5981
 20
92.6468
  0
VERTEX
  8
LAYER_2
 10
161.5873
 20
92.6379
  0
SEQEND
  0
POLYLINE
  8
LAYER_2
  6
AIGENLINE009
 40
0.1305
 41
0.1305
 66
1
 10
0
 20
0
 30
0
 70
128
  0
VERTEX
  8
LAYER_2
 10
161.6089
 20
92.6558
  0
VERTEX
  8
LAYER_2
 10
161.5981
 20
92.6468
  0
SEQEND
  0
POLYLINE
  8
LAYER_2
  6
AIGENLINE009
 40
0.1305
 41
0.1305
 66
1
 10
0
 20
0
 30
0
 70
128
  0
VERTEX
  8
LAYER_2
 10
161.6192
 20
92.6656
  0
VERTEX
  8
LAYER_2
 10
161.6089
 20
92.6562
  0
SEQEND
  0
ENDBLK
  0
BLOCK
  8
LAYER_2
  2
AIGNBL02010086
 70
64
 10
0
 20
0
 30
0
  3
AIGNBL02010086
  0
POLYLINE
  8
LAYER_2
  6
AIGENLINE008
 40
0.1305
 41
0.1305
 66
1
 10
0
 20
0
 30
0
 70
128
  0
VERTEX
  8
LAYER_2
 10
161.577
 20
92.6295
  0
VERTEX
  8
LAYER_2
 10
161.5662
 20
92.6211
  0
SEQEND
  0
POLYLINE
  8
LAYER_2
  6
AIGENLINE008
 40
0.1305
 41
0.1305
 66
1
 10
0
 20
0
 30
0
 70
128
  0
VERTEX
  8
LAYER_2
 10
161.5878
 20
92.6379
  0
VERTEX
  8
LAYER_2
 10
161.577
 20
92.6295
  0
SEQEND
  0
ENDBLK
  0
BLOCK
  8
LAYER_2
  2
AIGNBL02010087
 70
64
 10
0
 20
0
 30
0
  3
AIGNBL02010087
  0
POLYLINE
  8
LAYER_2
  6
AIGENLINE008
 40
0.1305
 41
0.1305
 66
1
 10
0
 20
0
 30
0
 70
128
  0
VERTEX
  8
LAYER_2
 10
161.3969
 20
92.5334
  0
VERTEX
  8
LAYER_2
 10
161.3843
 20
92.5291
  0
SEQEND
  0
POLYLINE
  8
LAYER_2
  6
AIGENLINE008
 40
0.1305
 41
0.1305
 66
1
 10
0
 20
0
 30
0
 70
128
  0
VERTEX
  8
LAYER_2
 10
161.4096
 20
92.5371
  0
VERTEX
  8
LAYER_2
 10
161.3969
 20
92.5329
  0
SEQEND
  0
POLYLINE
  8
LAYER_2
  6
AIGENLINE008
 40
0.1305
 41
0.1305
 66
1
 10
0
 20
0
 30
0
 70
128
  0
VERTEX
  8
LAYER_2
 10
161.4218
 20
92.5423
  0
VERTEX
  8
LAYER_2
 10
161.4096
 20
92.5371
  0
SEQEND
  0
POLYLINE
  8
LAYER_2
  6
AIGENLINE008
 40
0.1305
 41
0.1305
 66
1
 10
0
 20
0
 30
0
 70
128
  0
VERTEX
  8
LAYER_2
 10
161.4344
 20
92.547
  0
VERTEX
  8
LAYER_2
 10
161.4222
 20
92.5418
  0
SEQEND
  0
POLYLINE
  8
LAYER_2
  6
AIGENLINE008
 40
0.1305
 41
0.1305
 66
1
 10
0
 20
0
 30
0
 70
128
  0
VERTEX
  8
LAYER_2
 10
161.4471
 20
92.5526
  0
VERTEX
  8
LAYER_2
 10
161.4344
 20
92.547
  0
SEQEND
  0
POLYLINE
  8
LAYER_2
  6
AIGENLINE008
 40
0.1305
 41
0.1305
 66
1
 10
0
 20
0
 30
0
 70
128
  0
VERTEX
  8
LAYER_2
 10
161.4593
 20
92.5577
  0
VERTEX
  8
LAYER_2
 10
161.4471
 20
92.5526
  0
SEQEND
  0
POLYLINE
  8
LAYER_2
  6
AIGENLINE008
 40
0.1305
 41
0.1305
 66
1
 10
0
 20
0
 30
0
 70
128
  0
VERTEX
  8
LAYER_2
 10
161.4715
 20
92.5634
  0
VERTEX
  8
LAYER_2
 10
161.4593
 20
92.5573
  0
SEQEND
  0
POLYLINE
  8
LAYER_2
  6
AIGENLINE008
 40
0.1305
 41
0.1305
 66
1
 10
0
 20
0
 30
0
 70
128
  0
VERTEX
  8
LAYER_2
 10
161.4837
 20
92.5695
  0
VERTEX
  8
LAYER_2
 10
161.4715
 20
92.5629
  0
SEQEND
  0
POLYLINE
  8
LAYER_2
  6
AIGENLINE008
 40
0.1305
 41
0.1305
 66
1
 10
0
 20
0
 30
0
 70
128
  0
VERTEX
  8
LAYER_2
 10
161.4959
 20
92.576
  0
VERTEX
  8
LAYER_2
 10
161.4837
 20
92.5695
  0
SEQEND
  0
POLYLINE
  8
LAYER_2
  6
AIGENLINE008
 40
0.1305
 41
0.1305
 66
1
 10
0
 20
0
 30
0
 70
128
  0
VERTEX
  8
LAYER_2
 10
161.5081
 20
92.5826
  0
VERTEX
  8
LAYER_2
 10
161.4959
 20
92.576
  0
SEQEND
  0
POLYLINE
  8
LAYER_2
  6
AIGENLINE008
 40
0.1305
 41
0.1305
 66
1
 10
0
 20
0
 30
0
 70
128
  0
VERTEX
  8
LAYER_2
 10
161.5198
 20
92.5896
  0
VERTEX
  8
LAYER_2
 10
161.5081
 20
92.5826
  0
SEQEND
  0
POLYLINE
  8
LAYER_2
  6
AIGENLINE008
 40
0.1305
 41
0.1305
 66
1
 10
0
 20
0
 30
0
 70
128
  0
VERTEX
  8
LAYER_2
 10
161.5315
 20
92.5971
  0
VERTEX
  8
LAYER_2
 10
161.5198
 20
92.5896
  0
SEQEND
  0
ENDBLK
  0
BLOCK
  8
LAYER_2
  2
AIGNBL02010088
 70
64
 10
0
 20
0
 30
0
  3
AIGNBL02010088
  0
POLYLINE
  8
LAYER_2
  6
AIGENLINE007
 40
0.1305
 41
0.1305
 66
1
 10
0
 20
0
 30
0
 70
128
  0
VERTEX
  8
LAYER_2
 10
161.3458
 20
92.5188
  0
VERTEX
  8
LAYER_2
 10
161.3336
 20
92.516
  0
SEQEND
  0
POLYLINE
  8
LAYER_2
  6
AIGENLINE007
 40
0.1305
 41
0.1305
 66
1
 10
0
 20
0
 30
0
 70
128
  0
VERTEX
  8
LAYER_2
 10
161.3589
 20
92.5216
  0
VERTEX
  8
LAYER_2
 10
161.3463
 20
92.5184
  0
SEQEND
  0
POLYLINE
  8
LAYER_2
  6
AIGENLINE007
 40
0.1305
 41
0.1305
 66
1
 10
0
 20
0
 30
0
 70
128
  0
VERTEX
  8
LAYER_2
 10
161.3716
 20
92.5254
  0
VERTEX
  8
LAYER_2
 10
161.3589
 20
92.5216
  0
SEQEND
  0
POLYLINE
  8
LAYER_2
  6
AIGENLINE007
 40
0.1305
 41
0.1305
 66
1
 10
0
 20
0
 30
0
 70
128
  0
VERTEX
  8
LAYER_2
 10
161.3838
 20
92.5291
  0
VERTEX
  8
LAYER_2
 10
161.3716
 20
92.5254
  0
SEQEND
  0
ENDBLK
  0
BLOCK
  8
LAYER_2
  2
AIGNBL02010089
 70
64
 10
0
 20
0
 30
0
  3
AIGNBL02010089
  0
POLYLINE
  8
LAYER_2
  6
AIGENLINE007
 40
0.1305
 41
0.1305
 66
1
 10
0
 20
0
 30
0
 70
128
  0
VERTEX
  8
LAYER_2
 10
161.3083
 20
92.5108
  0
VERTEX
  8
LAYER_2
 10
161.2956
 20
92.5085
  0
SEQEND
  0
POLYLINE
  8
LAYER_2
  6
AIGENLINE007
 40
0.1305
 41
0.1305
 66
1
 10
0
 20
0
 30
0
 70
128
  0
VERTEX
  8
LAYER_2
 10
161.3209
 20
92.5137
  0
VERTEX
  8
LAYER_2
 10
161.3083
 20
92.5113
  0
SEQEND
  0
ENDBLK
  0
BLOCK
  8
LAYER_2
  2
AIGNBL0201008A
 70
64
 10
0
 20
0
 30
0
  3
AIGNBL0201008A
  0
POLYLINE
  8
LAYER_2
  6
AIGENLINE005
 40
0.1305
 41
0.1305
 66
1
 10
0
 20
0
 30
0
 70
128
  0
VERTEX
  8
LAYER_2
 10
161.2459
 20
92.5038
  0
VERTEX
  8
LAYER_2
 10
161.2337
 20
92.5034
  0
SEQEND
  0
POLYLINE
  8
LAYER_2
  6
AIGENLINE005
 40
0.1305
 41
0.1305
 66
1
 10
0
 20
0
 30
0
 70
128
  0
VERTEX
  8
LAYER_2
 10
161.2581
 20
92.5048
  0
VERTEX
  8
LAYER_2
 10
161.2459
 20
92.5038
  0
SEQEND
  0
POLYLINE
  8
LAYER_2
  6
AIGENLINE005
 40
0.1305
 41
0.1305
 66
1
 10
0
 20
0
 30
0
 70
128
  0
VERTEX
  8
LAYER_2
 10
161.2708
 20
92.5057
  0
VERTEX
  8
LAYER_2
 10
161.2586
 20
92.5048
  0
SEQEND
  0
POLYLINE
  8
LAYER_2
  6
AIGENLINE005
 40
0.1305
 41
0.1305
 66
1
 10
0
 20
0
 30
0
 70
128
  0
VERTEX
  8
LAYER_2
 10
161.283
 20
92.5071
  0
VERTEX
  8
LAYER_2
 10
161.2708
 20
92.5057
  0
SEQEND
  0
POLYLINE
  8
LAYER_2
  6
AIGENLINE005
 40
0.1305
 41
0.1305
 66
1
 10
0
 20
0
 30
0
 70
128
  0
VERTEX
  8
LAYER_2
 10
161.2956
 20
92.509
  0
VERTEX
  8
LAYER_2
 10
161.2834
 20
92.5071
  0
SEQEND
  0
ENDBLK
  0
BLOCK
  8
LAYER_2
  2
AIGNBL0201008B
 70
64
 10
0
 20
0
 30
0
  3
AIGNBL0201008B
  0
POLYLINE
  8
LAYER_2
  6
AIGENLINE014
 40
0.1305
 41
0.1305
 66
1
 10
0
 20
0
 30
0
 70
128
  0
VERTEX
  8
LAYER_2
 10
110.5586
 20
92.0227
  0
VERTEX
  8
LAYER_2
 10
110.5516
 20
92.0222
  0
SEQEND
  0
POLYLINE
  8
LAYER_2
  6
AIGENLINE014
 40
0.1305
 41
0.1305
 66
1
 10
0
 20
0
 30
0
 70
128
  0
VERTEX
  8
LAYER_2
 10
110.5656
 20
92.0227
  0
VERTEX
  8
LAYER_2
 10
110.5586
 20
92.0227
  0
SEQEND
  0
POLYLINE
  8
LAYER_2
  6
AIGENLINE014
 40
0.1305
 41
0.1305
 66
1
 10
0
 20
0
 30
0
 70
128
  0
VERTEX
  8
LAYER_2
 10
110.5722
 20
92.0227
  0
VERTEX
  8
LAYER_2
 10
110.5651
 20
92.0227
  0
SEQEND
  0
ENDBLK
  0
BLOCK
  8
LAYER_2
  2
AIGNBL0201008C
 70
64
 10
0
 20
0
 30
0
  3
AIGNBL0201008C
  0
POLYLINE
  8
LAYER_2
  6
AIGENLINE014
 40
0.1305
 41
0.1305
 66
1
 10
0
 20
0
 30
0
 70
128
  0
VERTEX
  8
LAYER_2
 10
110.5384
 20
92.0208
  0
VERTEX
  8
LAYER_2
 10
110.5314
 20
92.0199
  0
SEQEND
  0
POLYLINE
  8
LAYER_2
  6
AIGENLINE014
 40
0.1305
 41
0.1305
 66
1
 10
0
 20
0
 30
0
 70
128
  0
VERTEX
  8
LAYER_2
 10
110.545
 20
92.0218
  0
VERTEX
  8
LAYER_2
 10
110.5379
 20
92.0208
  0
SEQEND
  0
ENDBLK
  0
BLOCK
  8
LAYER_2
  2
AIGNBL0201008D
 70
64
 10
0
 20
0
 30
0
  3
AIGNBL0201008D
  0
POLYLINE
  8
LAYER_2
  6
AIGENLINE010
 40
0.1305
 41
0.1305
 66
1
 10
0
 20
0
 30
0
 70
128
  0
VERTEX
  8
LAYER_2
 10
110.5117
 20
92.0157
  0
VERTEX
  8
LAYER_2
 10
110.5051
 20
92.0133
  0
SEQEND
  0
POLYLINE
  8
LAYER_2
  6
AIGENLINE010
 40
0.1305
 41
0.1305
 66
1
 10
0
 20
0
 30
0
 70
128
  0
VERTEX
  8
LAYER_2
 10
110.5183
 20
92.0175
  0
VERTEX
  8
LAYER_2
 10
110.5117
 20
92.0157
  0
SEQEND
  0
POLYLINE
  8
LAYER_2
  6
AIGENLINE010
 40
0.1305
 41
0.1305
 66
1
 10
0
 20
0
 30
0
 70
128
  0
VERTEX
  8
LAYER_2
 10
110.5248
 20
92.0185
  0
VERTEX
  8
LAYER_2
 10
110.5183
 20
92.0175
  0
SEQEND
  0
POLYLINE
  8
LAYER_2
  6
AIGENLINE010
 40
0.1305
 41
0.1305
 66
1
 10
0
 20
0
 30
0
 70
128
  0
VERTEX
  8
LAYER_2
 10
110.5314
 20
92.0199
  0
VERTEX
  8
LAYER_2
 10
110.5248
 20
92.0185
  0
SEQEND
  0
ENDBLK
  0
BLOCK
  8
LAYER_2
  2
AIGNBL0201008E
 70
64
 10
0
 20
0
 30
0
  3
AIGNBL0201008E
  0
POLYLINE
  8
LAYER_2
  6
AIGENLINE014
 40
0.1305
 41
0.1305
 66
1
 10
0
 20
0
 30
0
 70
128
  0
VERTEX
  8
LAYER_2
 10
110.4986
 20
92.0114
  0
VERTEX
  8
LAYER_2
 10
110.492
 20
92.0091
  0
SEQEND
  0
POLYLINE
  8
LAYER_2
  6
AIGENLINE014
 40
0.1305
 41
0.1305
 66
1
 10
0
 20
0
 30
0
 70
128
  0
VERTEX
  8
LAYER_2
 10
110.5051
 20
92.0138
  0
VERTEX
  8
LAYER_2
 10
110.4986
 20
92.0114
  0
SEQEND
  0
ENDBLK
  0
BLOCK
  8
LAYER_2
  2
AIGNBL0201008F
 70
64
 10
0
 20
0
 30
0
  3
AIGNBL0201008F
  0
POLYLINE
  8
LAYER_2
  6
AIGENLINE010
 40
0.1305
 41
0.1305
 66
1
 10
0
 20
0
 30
0
 70
128
  0
VERTEX
  8
LAYER_2
 10
110.4559
 20
91.9904
  0
VERTEX
  8
LAYER_2
 10
110.4503
 20
91.9866
  0
SEQEND
  0
POLYLINE
  8
LAYER_2
  6
AIGENLINE010
 40
0.1305
 41
0.1305
 66
1
 10
0
 20
0
 30
0
 70
128
  0
VERTEX
  8
LAYER_2
 10
110.462
 20
91.9941
  0
VERTEX
  8
LAYER_2
 10
110.4559
 20
91.9904
  0
SEQEND
  0
POLYLINE
  8
LAYER_2
  6
AIGENLINE010
 40
0.1305
 41
0.1305
 66
1
 10
0
 20
0
 30
0
 70
128
  0
VERTEX
  8
LAYER_2
 10
110.4676
 20
91.9974
  0
VERTEX
  8
LAYER_2
 10
110.4615
 20
91.9936
  0
SEQEND
  0
POLYLINE
  8
LAYER_2
  6
AIGENLINE010
 40
0.1305
 41
0.1305
 66
1
 10
0
 20
0
 30
0
 70
128
  0
VERTEX
  8
LAYER_2
 10
110.4737
 20
92.0007
  0
VERTEX
  8
LAYER_2
 10
110.4676
 20
91.9974
  0
SEQEND
  0
POLYLINE
  8
LAYER_2
  6
AIGENLINE010
 40
0.1305
 41
0.1305
 66
1
 10
0
 20
0
 30
0
 70
128
  0
VERTEX
  8
LAYER_2
 10
110.4798
 20
92.0035
  0
VERTEX
  8
LAYER_2
 10
110.4732
 20
92.0002
  0
SEQEND
  0
POLYLINE
  8
LAYER_2
  6
AIGENLINE010
 40
0.1305
 41
0.1305
 66
1
 10
0
 20
0
 30
0
 70
128
  0
VERTEX
  8
LAYER_2
 10
110.4859
 20
92.0063
  0
VERTEX
  8
LAYER_2
 10
110.4793
 20
92.0035
  0
SEQEND
  0
POLYLINE
  8
LAYER_2
  6
AIGENLINE010
 40
0.1305
 41
0.1305
 66
1
 10
0
 20
0
 30
0
 70
128
  0
VERTEX
  8
LAYER_2
 10
110.492
 20
92.0091
  0
VERTEX
  8
LAYER_2
 10
110.4854
 20
92.0063
  0
SEQEND
  0
ENDBLK
  0
BLOCK
  8
LAYER_2
  2
AIGNBL02010090
 70
64
 10
0
 20
0
 30
0
  3
AIGNBL02010090
  0
POLYLINE
  8
LAYER_2
  6
AIGENLINE014
 40
0.1305
 41
0.1305
 66
1
 10
0
 20
0
 30
0
 70
128
  0
VERTEX
  8
LAYER_2
 10
110.4451
 20
91.9829
  0
VERTEX
  8
LAYER_2
 10
110.4395
 20
91.9782
  0
SEQEND
  0
POLYLINE
  8
LAYER_2
  6
AIGENLINE014
 40
0.1305
 41
0.1305
 66
1
 10
0
 20
0
 30
0
 70
128
  0
VERTEX
  8
LAYER_2
 10
110.4503
 20
91.9866
  0
VERTEX
  8
LAYER_2
 10
110.4446
 20
91.9824
  0
SEQEND
  0
ENDBLK
  0
BLOCK
  8
LAYER_2
  2
AIGNBL02010091
 70
64
 10
0
 20
0
 30
0
  3
AIGNBL02010091
  0
POLYLINE
  8
LAYER_2
  6
AIGENLINE010
 40
0.1305
 41
0.1305
 66
1
 10
0
 20
0
 30
0
 70
128
  0
VERTEX
  8
LAYER_2
 10
110.4104
 20
91.95
  0
VERTEX
  8
LAYER_2
 10
110.4062
 20
91.9444
  0
SEQEND
  0
POLYLINE
  8
LAYER_2
  6
AIGENLINE010
 40
0.1305
 41
0.1305
 66
1
 10
0
 20
0
 30
0
 70
128
  0
VERTEX
  8
LAYER_2
 10
110.4151
 20
91.9552
  0
VERTEX
  8
LAYER_2
 10
110.4104
 20
91.95
  0
SEQEND
  0
POLYLINE
  8
LAYER_2
  6
AIGENLINE010
 40
0.1305
 41
0.1305
 66
1
 10
0
 20
0
 30
0
 70
128
  0
VERTEX
  8
LAYER_2
 10
110.4193
 20
91.9603
  0
VERTEX
  8
LAYER_2
 10
110.4146
 20
91.9552
  0
SEQEND
  0
POLYLINE
  8
LAYER_2
  6
AIGENLINE010
 40
0.1305
 41
0.1305
 66
1
 10
0
 20
0
 30
0
 70
128
  0
VERTEX
  8
LAYER_2
 10
110.424
 20
91.9646
  0
VERTEX
  8
LAYER_2
 10
110.4193
 20
91.9599
  0
SEQEND
  0
POLYLINE
  8
LAYER_2
  6
AIGENLINE010
 40
0.1305
 41
0.1305
 66
1
 10
0
 20
0
 30
0
 70
128
  0
VERTEX
  8
LAYER_2
 10
110.4292
 20
91.9697
  0
VERTEX
  8
LAYER_2
 10
110.4245
 20
91.9646
  0
SEQEND
  0
ENDBLK
  0
BLOCK
  8
LAYER_2
  2
AIGNBL02010092
 70
64
 10
0
 20
0
 30
0
  3
AIGNBL02010092
  0
POLYLINE
  8
LAYER_2
  6
AIGENLINE010
 40
0.1305
 41
0.1305
 66
1
 10
0
 20
0
 30
0
 70
128
  0
VERTEX
  8
LAYER_2
 10
110.3879
 20
91.9158
  0
VERTEX
  8
LAYER_2
 10
110.3846
 20
91.9092
  0
SEQEND
  0
POLYLINE
  8
LAYER_2
  6
AIGENLINE010
 40
0.1305
 41
0.1305
 66
1
 10
0
 20
0
 30
0
 70
128
  0
VERTEX
  8
LAYER_2
 10
110.3912
 20
91.9219
  0
VERTEX
  8
LAYER_2
 10
110.3879
 20
91.9153
  0
SEQEND
  0
POLYLINE
  8
LAYER_2
  6
AIGENLINE010
 40
0.1305
 41
0.1305
 66
1
 10
0
 20
0
 30
0
 70
128
  0
VERTEX
  8
LAYER_2
 10
110.3945
 20
91.928
  0
VERTEX
  8
LAYER_2
 10
110.3907
 20
91.9219
  0
SEQEND
  0
POLYLINE
  8
LAYER_2
  6
AIGENLINE010
 40
0.1305
 41
0.1305
 66
1
 10
0
 20
0
 30
0
 70
128
  0
VERTEX
  8
LAYER_2
 10
110.3982
 20
91.9331
  0
VERTEX
  8
LAYER_2
 10
110.3945
 20
91.9275
  0
SEQEND
  0
POLYLINE
  8
LAYER_2
  6
AIGENLINE010
 40
0.1305
 41
0.1305
 66
1
 10
0
 20
0
 30
0
 70
128
  0
VERTEX
  8
LAYER_2
 10
110.4024
 20
91.9388
  0
VERTEX
  8
LAYER_2
 10
110.3987
 20
91.9331
  0
SEQEND
  0
ENDBLK
  0
BLOCK
  8
LAYER_2
  2
AIGNBL02010093
 70
64
 10
0
 20
0
 30
0
  3
AIGNBL02010093
  0
POLYLINE
  8
LAYER_2
  6
AIGENLINE002
 40
0.1305
 41
0.1305
 66
1
 10
0
 20
0
 30
0
 70
128
  0
VERTEX
  8
LAYER_2
 10
104.7627
 20
102.8506
  0
VERTEX
  8
LAYER_2
 10
104.765
 20
102.8586
  0
SEQEND
  0
POLYLINE
  8
LAYER_2
  6
AIGENLINE002
 40
0.1305
 41
0.1305
 66
1
 10
0
 20
0
 30
0
 70
128
  0
VERTEX
  8
LAYER_2
 10
104.7603
 20
102.8422
  0
VERTEX
  8
LAYER_2
 10
104.7627
 20
102.8501
  0
SEQEND
  0
POLYLINE
  8
LAYER_2
  6
AIGENLINE002
 40
0.1305
 41
0.1305
 66
1
 10
0
 20
0
 30
0
 70
128
  0
VERTEX
  8
LAYER_2
 10
104.7575
 20
102.8342
  0
VERTEX
  8
LAYER_2
 10
104.7599
 20
102.8422
  0
SEQEND
  0
POLYLINE
  8
LAYER_2
  6
AIGENLINE002
 40
0.1305
 41
0.1305
 66
1
 10
0
 20
0
 30
0
 70
128
  0
VERTEX
  8
LAYER_2
 10
104.7561
 20
102.8258
  0
VERTEX
  8
LAYER_2
 10
104.758
 20
102.8342
  0
SEQEND
  0
POLYLINE
  8
LAYER_2
  6
AIGENLINE002
 40
0.1305
 41
0.1305
 66
1
 10
0
 20
0
 30
0
 70
128
  0
VERTEX
  8
LAYER_2
 10
104.7543
 20
102.8173
  0
VERTEX
  8
LAYER_2
 10
104.7561
 20
102.8253
  0
SEQEND
  0
POLYLINE
  8
LAYER_2
  6
AIGENLINE002
 40
0.1305
 41
0.1305
 66
1
 10
0
 20
0
 30
0
 70
128
  0
VERTEX
  8
LAYER_2
 10
104.7528
 20
102.8089
  0
VERTEX
  8
LAYER_2
 10
104.7543
 20
102.8173
  0
SEQEND
  0
POLYLINE
  8
LAYER_2
  6
AIGENLINE002
 40
0.1305
 41
0.1305
 66
1
 10
0
 20
0
 30
0
 70
128
  0
VERTEX
  8
LAYER_2
 10
104.7519
 20
102.8004
  0
VERTEX
  8
LAYER_2
 10
104.7528
 20
102.8084
  0
SEQEND
  0
POLYLINE
  8
LAYER_2
  6
AIGENLINE002
 40
0.1305
 41
0.1305
 66
1
 10
0
 20
0
 30
0
 70
128
  0
VERTEX
  8
LAYER_2
 10
104.751
 20
102.792
  0
VERTEX
  8
LAYER_2
 10
104.7519
 20
102.8004
  0
SEQEND
  0
POLYLINE
  8
LAYER_2
  6
AIGENLINE002
 40
0.1305
 41
0.1305
 66
1
 10
0
 20
0
 30
0
 70
128
  0
VERTEX
  8
LAYER_2
 10
104.751
 20
102.7836
  0
VERTEX
  8
LAYER_2
 10
104.7514
 20
102.792
  0
SEQEND
  0
POLYLINE
  8
LAYER_2
  6
AIGENLINE002
 40
0.1305
 41
0.1305
 66
1
 10
0
 20
0
 30
0
 70
128
  0
VERTEX
  8
LAYER_2
 10
104.751
 20
102.7746
  0
VERTEX
  8
LAYER_2
 10
104.751
 20
102.7831
  0
SEQEND
  0
ENDBLK
  0
BLOCK
  8
LAYER_2
  2
AIGNBL02010094
 70
64
 10
0
 20
0
 30
0
  3
AIGNBL02010094
  0
POLYLINE
  8
LAYER_2
  6
AIGENLINE002
 40
0.1305
 41
0.1305
 66
1
 10
0
 20
0
 30
0
 70
128
  0
VERTEX
  8
LAYER_2
 10
104.7829
 20
102.8975
  0
VERTEX
  8
LAYER_2
 10
104.7871
 20
102.905
  0
SEQEND
  0
POLYLINE
  8
LAYER_2
  6
AIGENLINE002
 40
0.1305
 41
0.1305
 66
1
 10
0
 20
0
 30
0
 70
128
  0
VERTEX
  8
LAYER_2
 10
104.7786
 20
102.89
  0
VERTEX
  8
LAYER_2
 10
104.7829
 20
102.8975
  0
SEQEND
  0
POLYLINE
  8
LAYER_2
  6
AIGENLINE002
 40
0.1305
 41
0.1305
 66
1
 10
0
 20
0
 30
0
 70
128
  0
VERTEX
  8
LAYER_2
 10
104.7749
 20
102.882
  0
VERTEX
  8
LAYER_2
 10
104.7786
 20
102.8895
  0
SEQEND
  0
POLYLINE
  8
LAYER_2
  6
AIGENLINE002
 40
0.1305
 41
0.1305
 66
1
 10
0
 20
0
 30
0
 70
128
  0
VERTEX
  8
LAYER_2
 10
104.7716
 20
102.8745
  0
VERTEX
  8
LAYER_2
 10
104.7753
 20
102.8825
  0
SEQEND
  0
POLYLINE
  8
LAYER_2
  6
AIGENLINE002
 40
0.1305
 41
0.1305
 66
1
 10
0
 20
0
 30
0
 70
128
  0
VERTEX
  8
LAYER_2
 10
104.7678
 20
102.8666
  0
VERTEX
  8
LAYER_2
 10
104.7716
 20
102.8741
  0
SEQEND
  0
ENDBLK
  0
BLOCK
  8
LAYER_2
  2
AIGNBL02010095
 70
64
 10
0
 20
0
 30
0
  3
AIGNBL02010095
  0
POLYLINE
  8
LAYER_2
  6
AIGENLINE002
 40
0.1305
 41
0.1305
 66
1
 10
0
 20
0
 30
0
 70
128
  0
VERTEX
  8
LAYER_2
 10
104.8068
 20
102.9327
  0
VERTEX
  8
LAYER_2
 10
104.8124
 20
102.9392
  0
SEQEND
  0
POLYLINE
  8
LAYER_2
  6
AIGENLINE002
 40
0.1305
 41
0.1305
 66
1
 10
0
 20
0
 30
0
 70
128
  0
VERTEX
  8
LAYER_2
 10
104.8016
 20
102.9261
  0
VERTEX
  8
LAYER_2
 10
104.8068
 20
102.9327
  0
SEQEND
  0
POLYLINE
  8
LAYER_2
  6
AIGENLINE002
 40
0.1305
 41
0.1305
 66
1
 10
0
 20
0
 30
0
 70
128
  0
VERTEX
  8
LAYER_2
 10
104.7965
 20
102.9191
  0
VERTEX
  8
LAYER_2
 10
104.8016
 20
102.9261
  0
SEQEND
  0
POLYLINE
  8
LAYER_2
  6
AIGENLINE002
 40
0.1305
 41
0.1305
 66
1
 10
0
 20
0
 30
0
 70
128
  0
VERTEX
  8
LAYER_2
 10
104.7918
 20
102.912
  0
VERTEX
  8
LAYER_2
 10
104.7965
 20
102.9196
  0
SEQEND
  0
ENDBLK
  0
BLOCK
  8
LAYER_2
  2
AIGNBL02010096
 70
64
 10
0
 20
0
 30
0
  3
AIGNBL02010096
  0
POLYLINE
  8
LAYER_2
  6
AIGENLINE002
 40
0.1305
 41
0.1305
 66
1
 10
0
 20
0
 30
0
 70
128
  0
VERTEX
  8
LAYER_2
 10
104.8363
 20
102.9632
  0
VERTEX
  8
LAYER_2
 10
104.8429
 20
102.9688
  0
SEQEND
  0
POLYLINE
  8
LAYER_2
  6
AIGENLINE002
 40
0.1305
 41
0.1305
 66
1
 10
0
 20
0
 30
0
 70
128
  0
VERTEX
  8
LAYER_2
 10
104.8302
 20
102.9575
  0
VERTEX
  8
LAYER_2
 10
104.8368
 20
102.9632
  0
SEQEND
  0
POLYLINE
  8
LAYER_2
  6
AIGENLINE002
 40
0.1305
 41
0.1305
 66
1
 10
0
 20
0
 30
0
 70
128
  0
VERTEX
  8
LAYER_2
 10
104.8236
 20
102.9519
  0
VERTEX
  8
LAYER_2
 10
104.8302
 20
102.958
  0
SEQEND
  0
POLYLINE
  8
LAYER_2
  6
AIGENLINE002
 40
0.1305
 41
0.1305
 66
1
 10
0
 20
0
 30
0
 70
128
  0
VERTEX
  8
LAYER_2
 10
104.818
 20
102.9458
  0
VERTEX
  8
LAYER_2
 10
104.8241
 20
102.9524
  0
SEQEND
  0
ENDBLK
  0
BLOCK
  8
LAYER_2
  2
AIGNBL02010097
 70
64
 10
0
 20
0
 30
0
  3
AIGNBL02010097
  0
POLYLINE
  8
LAYER_2
  6
AIGENLINE002
 40
0.1305
 41
0.1305
 66
1
 10
0
 20
0
 30
0
 70
128
  0
VERTEX
  8
LAYER_2
 10
104.8635
 20
102.9838
  0
VERTEX
  8
LAYER_2
 10
104.871
 20
102.9885
  0
SEQEND
  0
POLYLINE
  8
LAYER_2
  6
AIGENLINE002
 40
0.1305
 41
0.1305
 66
1
 10
0
 20
0
 30
0
 70
128
  0
VERTEX
  8
LAYER_2
 10
104.8565
 20
102.9791
  0
VERTEX
  8
LAYER_2
 10
104.8635
 20
102.9838
  0
SEQEND
  0
POLYLINE
  8
LAYER_2
  6
AIGENLINE002
 40
0.1305
 41
0.1305
 66
1
 10
0
 20
0
 30
0
 70
128
  0
VERTEX
  8
LAYER_2
 10
104.8499
 20
102.9744
  0
VERTEX
  8
LAYER_2
 10
104.8569
 20
102.9796
  0
SEQEND
  0
ENDBLK
  0
BLOCK
  8
LAYER_2
  2
AIGNBL02010098
 70
64
 10
0
 20
0
 30
0
  3
AIGNBL02010098
  0
POLYLINE
  8
LAYER_2
  6
AIGENLINE002
 40
0.1305
 41
0.1305
 66
1
 10
0
 20
0
 30
0
 70
128
  0
VERTEX
  8
LAYER_2
 10
104.909
 20
103.0072
  0
VERTEX
  8
LAYER_2
 10
104.917
 20
103.011
  0
SEQEND
  0
POLYLINE
  8
LAYER_2
  6
AIGENLINE002
 40
0.1305
 41
0.1305
 66
1
 10
0
 20
0
 30
0
 70
128
  0
VERTEX
  8
LAYER_2
 10
104.901
 20
103.0044
  0
VERTEX
  8
LAYER_2
 10
104.909
 20
103.0077
  0
SEQEND
  0
POLYLINE
  8
LAYER_2
  6
AIGENLINE002
 40
0.1305
 41
0.1305
 66
1
 10
0
 20
0
 30
0
 70
128
  0
VERTEX
  8
LAYER_2
 10
104.8935
 20
103.0007
  0
VERTEX
  8
LAYER_2
 10
104.901
 20
103.0044
  0
SEQEND
  0
ENDBLK
  0
BLOCK
  8
LAYER_2
  2
AIGNBL02010099
 70
64
 10
0
 20
0
 30
0
  3
AIGNBL02010099
  0
POLYLINE
  8
LAYER_2
  6
AIGENLINE002
 40
0.1305
 41
0.1305
 66
1
 10
0
 20
0
 30
0
 70
128
  0
VERTEX
  8
LAYER_2
 10
104.9329
 20
103.0157
  0
VERTEX
  8
LAYER_2
 10
104.9409
 20
103.018
  0
SEQEND
  0
POLYLINE
  8
LAYER_2
  6
AIGENLINE002
 40
0.1305
 41
0.1305
 66
1
 10
0
 20
0
 30
0
 70
128
  0
VERTEX
  8
LAYER_2
 10
104.9249
 20
103.0133
  0
VERTEX
  8
LAYER_2
 10
104.9329
 20
103.0157
  0
SEQEND
  0
ENDBLK
  0
BLOCK
  8
LAYER_2
  2
AIGNBL0201009A
 70
64
 10
0
 20
0
 30
0
  3
AIGNBL0201009A
  0
POLYLINE
  8
LAYER_2
  6
AIGENLINE002
 40
0.1305
 41
0.1305
 66
1
 10
0
 20
0
 30
0
 70
128
  0
VERTEX
  8
LAYER_2
 10
104.9582
 20
103.0213
  0
VERTEX
  8
LAYER_2
 10
104.9662
 20
103.0227
  0
SEQEND
  0
POLYLINE
  8
LAYER_2
  6
AIGENLINE002
 40
0.1305
 41
0.1305
 66
1
 10
0
 20
0
 30
0
 70
128
  0
VERTEX
  8
LAYER_2
 10
104.9498
 20
103.0199
  0
VERTEX
  8
LAYER_2
 10
104.9578
 20
103.0218
  0
SEQEND
  0
ENDBLK
  0
BLOCK
  8
LAYER_2
  2
AIGNBL0201009B
 70
64
 10
0
 20
0
 30
0
  3
AIGNBL0201009B
  0
POLYLINE
  8
LAYER_2
  6
AIGENLINE002
 40
0.1305
 41
0.1305
 66
1
 10
0
 20
0
 30
0
 70
128
  0
VERTEX
  8
LAYER_2
 10
104.9835
 20
103.0241
  0
VERTEX
  8
LAYER_2
 10
104.992
 20
103.0246
  0
SEQEND
  0
POLYLINE
  8
LAYER_2
  6
AIGENLINE002
 40
0.1305
 41
0.1305
 66
1
 10
0
 20
0
 30
0
 70
128
  0
VERTEX
  8
LAYER_2
 10
104.9751
 20
103.0236
  0
VERTEX
  8
LAYER_2
 10
104.9835
 20
103.0241
  0
SEQEND
  0
ENDBLK
  0
BLOCK
  8
LAYER_2
  2
AIGNBL0201009C
 70
64
 10
0
 20
0
 30
0
  3
AIGNBL0201009C
  0
POLYLINE
  8
LAYER_2
  6
AIGENLINE002
 40
0.1305
 41
0.1305
 66
1
 10
0
 20
0
 30
0
 70
128
  0
VERTEX
  8
LAYER_2
 10
105.1575
 20
103.0236
  0
VERTEX
  8
LAYER_2
 10
105.1655
 20
103.0232
  0
SEQEND
  0
POLYLINE
  8
LAYER_2
  6
AIGENLINE002
 40
0.1305
 41
0.1305
 66
1
 10
0
 20
0
 30
0
 70
128
  0
VERTEX
  8
LAYER_2
 10
105.1491
 20
103.0241
  0
VERTEX
  8
LAYER_2
 10
105.1575
 20
103.0232
  0
SEQEND
  0
POLYLINE
  8
LAYER_2
  6
AIGENLINE002
 40
0.1305
 41
0.1305
 66
1
 10
0
 20
0
 30
0
 70
128
  0
VERTEX
  8
LAYER_2
 10
105.1406
 20
103.025
  0
VERTEX
  8
LAYER_2
 10
105.1491
 20
103.0241
  0
SEQEND
  0
POLYLINE
  8
LAYER_2
  6
AIGENLINE002
 40
0.1305
 41
0.1305
 66
1
 10
0
 20
0
 30
0
 70
128
  0
VERTEX
  8
LAYER_2
 10
105.1317
 20
103.025
  0
VERTEX
  8
LAYER_2
 10
105.1402
 20
103.025
  0
SEQEND
  0
ENDBLK
  0
BLOCK
  8
LAYER_2
  2
AIGNBL0201009D
 70
64
 10
0
 20
0
 30
0
  3
AIGNBL0201009D
  0
POLYLINE
  8
LAYER_2
  6
AIGENLINE002
 40
0.1305
 41
0.1305
 66
1
 10
0
 20
0
 30
0
 70
128
  0
VERTEX
  8
LAYER_2
 10
105.1993
 20
103.0157
  0
VERTEX
  8
LAYER_2
 10
105.2072
 20
103.0133
  0
SEQEND
  0
POLYLINE
  8
LAYER_2
  6
AIGENLINE002
 40
0.1305
 41
0.1305
 66
1
 10
0
 20
0
 30
0
 70
128
  0
VERTEX
  8
LAYER_2
 10
105.1913
 20
103.0175
  0
VERTEX
  8
LAYER_2
 10
105.1993
 20
103.0152
  0
SEQEND
  0
POLYLINE
  8
LAYER_2
  6
AIGENLINE002
 40
0.1305
 41
0.1305
 66
1
 10
0
 20
0
 30
0
 70
128
  0
VERTEX
  8
LAYER_2
 10
105.1828
 20
103.0199
  0
VERTEX
  8
LAYER_2
 10
105.1908
 20
103.0175
  0
SEQEND
  0
POLYLINE
  8
LAYER_2
  6
AIGENLINE002
 40
0.1305
 41
0.1305
 66
1
 10
0
 20
0
 30
0
 70
128
  0
VERTEX
  8
LAYER_2
 10
105.1744
 20
103.0213
  0
VERTEX
  8
LAYER_2
 10
105.1824
 20
103.0199
  0
SEQEND
  0
ENDBLK
  0
BLOCK
  8
LAYER_2
  2
AIGNBL0201009E
 70
64
 10
0
 20
0
 30
0
  3
AIGNBL0201009E
  0
POLYLINE
  8
LAYER_2
  6
AIGENLINE002
 40
0.1305
 41
0.1305
 66
1
 10
0
 20
0
 30
0
 70
128
  0
VERTEX
  8
LAYER_2
 10
105.2236
 20
103.0072
  0
VERTEX
  8
LAYER_2
 10
105.2316
 20
103.004
  0
SEQEND
  0
POLYLINE
  8
LAYER_2
  6
AIGENLINE002
 40
0.1305
 41
0.1305
 66
1
 10
0
 20
0
 30
0
 70
128
  0
VERTEX
  8
LAYER_2
 10
105.2157
 20
103.0105
  0
VERTEX
  8
LAYER_2
 10
105.2236
 20
103.0072
  0
SEQEND
  0
ENDBLK
  0
BLOCK
  8
LAYER_2
  2
AIGNBL0201009F
 70
64
 10
0
 20
0
 30
0
  3
AIGNBL0201009F
  0
POLYLINE
  8
LAYER_2
  6
AIGENLINE002
 40
0.1305
 41
0.1305
 66
1
 10
0
 20
0
 30
0
 70
128
  0
VERTEX
  8
LAYER_2
 10
105.2621
 20
102.9885
  0
VERTEX
  8
LAYER_2
 10
105.2696
 20
102.9838
  0
SEQEND
  0
POLYLINE
  8
LAYER_2
  6
AIGENLINE002
 40
0.1305
 41
0.1305
 66
1
 10
0
 20
0
 30
0
 70
128
  0
VERTEX
  8
LAYER_2
 10
105.2551
 20
102.9927
  0
VERTEX
  8
LAYER_2
 10
105.2626
 20
102.9885
  0
SEQEND
  0
POLYLINE
  8
LAYER_2
  6
AIGENLINE002
 40
0.1305
 41
0.1305
 66
1
 10
0
 20
0
 30
0
 70
128
  0
VERTEX
  8
LAYER_2
 10
105.2471
 20
102.9965
  0
VERTEX
  8
LAYER_2
 10
105.2546
 20
102.9922
  0
SEQEND
  0
POLYLINE
  8
LAYER_2
  6
AIGENLINE002
 40
0.1305
 41
0.1305
 66
1
 10
0
 20
0
 30
0
 70
128
  0
VERTEX
  8
LAYER_2
 10
105.2396
 20
103.0007
  0
VERTEX
  8
LAYER_2
 10
105.2471
 20
102.9965
  0
SEQEND
  0
ENDBLK
  0
BLOCK
  8
LAYER_2
  2
AIGNBL020100A0
 70
64
 10
0
 20
0
 30
0
  3
AIGNBL020100A0
  0
POLYLINE
  8
LAYER_2
  6
AIGENLINE002
 40
0.1305
 41
0.1305
 66
1
 10
0
 20
0
 30
0
 70
128
  0
VERTEX
  8
LAYER_2
 10
105.2963
 20
102.9627
  0
VERTEX
  8
LAYER_2
 10
105.3029
 20
102.9571
  0
SEQEND
  0
POLYLINE
  8
LAYER_2
  6
AIGENLINE002
 40
0.1305
 41
0.1305
 66
1
 10
0
 20
0
 30
0
 70
128
  0
VERTEX
  8
LAYER_2
 10
105.2902
 20
102.9683
  0
VERTEX
  8
LAYER_2
 10
105.2968
 20
102.9627
  0
SEQEND
  0
POLYLINE
  8
LAYER_2
  6
AIGENLINE002
 40
0.1305
 41
0.1305
 66
1
 10
0
 20
0
 30
0
 70
128
  0
VERTEX
  8
LAYER_2
 10
105.2837
 20
102.9739
  0
VERTEX
  8
LAYER_2
 10
105.2902
 20
102.9683
  0
SEQEND
  0
POLYLINE
  8
LAYER_2
  6
AIGENLINE002
 40
0.1305
 41
0.1305
 66
1
 10
0
 20
0
 30
0
 70
128
  0
VERTEX
  8
LAYER_2
 10
105.2766
 20
102.9791
  0
VERTEX
  8
LAYER_2
 10
105.2837
 20
102.9739
  0
SEQEND
  0
ENDBLK
  0
BLOCK
  8
LAYER_2
  2
AIGNBL020100A1
 70
64
 10
0
 20
0
 30
0
  3
AIGNBL020100A1
  0
POLYLINE
  8
LAYER_2
  6
AIGENLINE003
 40
0.1305
 41
0.1305
 66
1
 10
0
 20
0
 30
0
 70
128
  0
VERTEX
  8
LAYER_2
 10
105.3207
 20
102.9388
  0
VERTEX
  8
LAYER_2
 10
105.3263
 20
102.9322
  0
SEQEND
  0
POLYLINE
  8
LAYER_2
  6
AIGENLINE003
 40
0.1305
 41
0.1305
 66
1
 10
0
 20
0
 30
0
 70
128
  0
VERTEX
  8
LAYER_2
 10
105.3146
 20
102.9453
  0
VERTEX
  8
LAYER_2
 10
105.3207
 20
102.9388
  0
SEQEND
  0
ENDBLK
  0
BLOCK
  8
LAYER_2
  2
AIGNBL020100A2
 70
64
 10
0
 20
0
 30
0
  3
AIGNBL020100A2
  0
POLYLINE
  8
LAYER_2
  6
AIGENLINE002
 40
0.1305
 41
0.1305
 66
1
 10
0
 20
0
 30
0
 70
128
  0
VERTEX
  8
LAYER_2
 10
105.3413
 20
102.9116
  0
VERTEX
  8
LAYER_2
 10
105.346
 20
102.9041
  0
SEQEND
  0
POLYLINE
  8
LAYER_2
  6
AIGENLINE002
 40
0.1305
 41
0.1305
 66
1
 10
0
 20
0
 30
0
 70
128
  0
VERTEX
  8
LAYER_2
 10
105.3367
 20
102.9186
  0
VERTEX
  8
LAYER_2
 10
105.3418
 20
102.9116
  0
SEQEND
  0
POLYLINE
  8
LAYER_2
  6
AIGENLINE002
 40
0.1305
 41
0.1305
 66
1
 10
0
 20
0
 30
0
 70
128
  0
VERTEX
  8
LAYER_2
 10
105.3315
 20
102.9256
  0
VERTEX
  8
LAYER_2
 10
105.3367
 20
102.9181
  0
SEQEND
  0
POLYLINE
  8
LAYER_2
  6
AIGENLINE002
 40
0.1305
 41
0.1305
 66
1
 10
0
 20
0
 30
0
 70
128
  0
VERTEX
  8
LAYER_2
 10
105.3263
 20
102.9322
  0
VERTEX
  8
LAYER_2
 10
105.3315
 20
102.9256
  0
SEQEND
  0
ENDBLK
  0
BLOCK
  8
LAYER_2
  2
AIGNBL020100A3
 70
64
 10
0
 20
0
 30
0
  3
AIGNBL020100A3
  0
POLYLINE
  8
LAYER_2
  6
AIGENLINE002
 40
0.1305
 41
0.1305
 66
1
 10
0
 20
0
 30
0
 70
128
  0
VERTEX
  8
LAYER_2
 10
105.354
 20
102.8891
  0
VERTEX
  8
LAYER_2
 10
105.3577
 20
102.8816
  0
SEQEND
  0
POLYLINE
  8
LAYER_2
  6
AIGENLINE002
 40
0.1305
 41
0.1305
 66
1
 10
0
 20
0
 30
0
 70
128
  0
VERTEX
  8
LAYER_2
 10
105.3503
 20
102.8966
  0
VERTEX
  8
LAYER_2
 10
105.354
 20
102.8891
  0
SEQEND
  0
ENDBLK
  0
BLOCK
  8
LAYER_2
  2
AIGNBL020100A4
 70
64
 10
0
 20
0
 30
0
  3
AIGNBL020100A4
  0
POLYLINE
  8
LAYER_2
  6
AIGENLINE002
 40
0.1305
 41
0.1305
 66
1
 10
0
 20
0
 30
0
 70
128
  0
VERTEX
  8
LAYER_2
 10
105.3784
 20
102.8164
  0
VERTEX
  8
LAYER_2
 10
105.3793
 20
102.8084
  0
SEQEND
  0
POLYLINE
  8
LAYER_2
  6
AIGENLINE002
 40
0.1305
 41
0.1305
 66
1
 10
0
 20
0
 30
0
 70
128
  0
VERTEX
  8
LAYER_2
 10
105.377
 20
102.8253
  0
VERTEX
  8
LAYER_2
 10
105.3789
 20
102.8168
  0
SEQEND
  0
POLYLINE
  8
LAYER_2
  6
AIGENLINE002
 40
0.1305
 41
0.1305
 66
1
 10
0
 20
0
 30
0
 70
128
  0
VERTEX
  8
LAYER_2
 10
105.3751
 20
102.8333
  0
VERTEX
  8
LAYER_2
 10
105.377
 20
102.8253
  0
SEQEND
  0
POLYLINE
  8
LAYER_2
  6
AIGENLINE002
 40
0.1305
 41
0.1305
 66
1
 10
0
 20
0
 30
0
 70
128
  0
VERTEX
  8
LAYER_2
 10
105.3728
 20
102.8417
  0
VERTEX
  8
LAYER_2
 10
105.3751
 20
102.8337
  0
SEQEND
  0
POLYLINE
  8
LAYER_2
  6
AIGENLINE002
 40
0.1305
 41
0.1305
 66
1
 10
0
 20
0
 30
0
 70
128
  0
VERTEX
  8
LAYER_2
 10
105.3704
 20
102.8497
  0
VERTEX
  8
LAYER_2
 10
105.3728
 20
102.8417
  0
SEQEND
  0
POLYLINE
  8
LAYER_2
  6
AIGENLINE002
 40
0.1305
 41
0.1305
 66
1
 10
0
 20
0
 30
0
 70
128
  0
VERTEX
  8
LAYER_2
 10
105.3681
 20
102.8581
  0
VERTEX
  8
LAYER_2
 10
105.3704
 20
102.8501
  0
SEQEND
  0
ENDBLK
  0
BLOCK
  8
LAYER_2
  2
AIGNBL020100A5
 70
64
 10
0
 20
0
 30
0
  3
AIGNBL020100A5
  0
POLYLINE
  8
LAYER_2
  6
AIGENLINE005
 40
0.1305
 41
0.1305
 66
1
 10
0
 20
0
 30
0
 70
128
  0
VERTEX
  8
LAYER_2
 10
106.2834
 20
93.7746
  0
VERTEX
  8
LAYER_2
 10
106.2853
 20
93.7624
  0
SEQEND
  0
POLYLINE
  8
LAYER_2
  6
AIGENLINE005
 40
0.1305
 41
0.1305
 66
1
 10
0
 20
0
 30
0
 70
128
  0
VERTEX
  8
LAYER_2
 10
106.282
 20
93.7873
  0
VERTEX
  8
LAYER_2
 10
106.2839
 20
93.7751
  0
SEQEND
  0
ENDBLK
  0
BLOCK
  8
LAYER_2
  2
AIGNBL020100A6
 70
64
 10
0
 20
0
 30
0
  3
AIGNBL020100A6
  0
POLYLINE
  8
LAYER_2
  6
AIGENLINE006
 40
0.1305
 41
0.1305
 66
1
 10
0
 20
0
 30
0
 70
128
  0
VERTEX
  8
LAYER_2
 10
106.2928
 20
93.7249
  0
VERTEX
  8
LAYER_2
 10
106.2961
 20
93.7127
  0
SEQEND
  0
POLYLINE
  8
LAYER_2
  6
AIGENLINE006
 40
0.1305
 41
0.1305
 66
1
 10
0
 20
0
 30
0
 70
128
  0
VERTEX
  8
LAYER_2
 10
106.29
 20
93.7371
  0
VERTEX
  8
LAYER_2
 10
106.2928
 20
93.7249
  0
SEQEND
  0
POLYLINE
  8
LAYER_2
  6
AIGENLINE006
 40
0.1305
 41
0.1305
 66
1
 10
0
 20
0
 30
0
 70
128
  0
VERTEX
  8
LAYER_2
 10
106.2876
 20
93.7497
  0
VERTEX
  8
LAYER_2
 10
106.29
 20
93.7371
  0
SEQEND
  0
POLYLINE
  8
LAYER_2
  6
AIGENLINE006
 40
0.1305
 41
0.1305
 66
1
 10
0
 20
0
 30
0
 70
128
  0
VERTEX
  8
LAYER_2
 10
106.2853
 20
93.7624
  0
VERTEX
  8
LAYER_2
 10
106.2876
 20
93.7502
  0
SEQEND
  0
ENDBLK
  0
BLOCK
  8
LAYER_2
  2
AIGNBL020100A7
 70
64
 10
0
 20
0
 30
0
  3
AIGNBL020100A7
  0
POLYLINE
  8
LAYER_2
  6
AIGENLINE007
 40
0.1305
 41
0.1305
 66
1
 10
0
 20
0
 30
0
 70
128
  0
VERTEX
  8
LAYER_2
 10
106.3026
 20
93.6874
  0
VERTEX
  8
LAYER_2
 10
106.3064
 20
93.6747
  0
SEQEND
  0
POLYLINE
  8
LAYER_2
  6
AIGENLINE007
 40
0.1305
 41
0.1305
 66
1
 10
0
 20
0
 30
0
 70
128
  0
VERTEX
  8
LAYER_2
 10
106.2989
 20
93.6996
  0
VERTEX
  8
LAYER_2
 10
106.3026
 20
93.6874
  0
SEQEND
  0
POLYLINE
  8
LAYER_2
  6
AIGENLINE007
 40
0.1305
 41
0.1305
 66
1
 10
0
 20
0
 30
0
 70
128
  0
VERTEX
  8
LAYER_2
 10
106.2961
 20
93.7122
  0
VERTEX
  8
LAYER_2
 10
106.2993
 20
93.6996
  0
SEQEND
  0
ENDBLK
  0
BLOCK
  8
LAYER_2
  2
AIGNBL020100A8
 70
64
 10
0
 20
0
 30
0
  3
AIGNBL020100A8
  0
POLYLINE
  8
LAYER_2
  6
AIGENLINE008
 40
0.1305
 41
0.1305
 66
1
 10
0
 20
0
 30
0
 70
128
  0
VERTEX
  8
LAYER_2
 10
106.3622
 20
93.5519
  0
VERTEX
  8
LAYER_2
 10
106.3697
 20
93.5401
  0
SEQEND
  0
POLYLINE
  8
LAYER_2
  6
AIGENLINE008
 40
0.1305
 41
0.1305
 66
1
 10
0
 20
0
 30
0
 70
128
  0
VERTEX
  8
LAYER_2
 10
106.3552
 20
93.5641
  0
VERTEX
  8
LAYER_2
 10
106.3622
 20
93.5519
  0
SEQEND
  0
POLYLINE
  8
LAYER_2
  6
AIGENLINE008
 40
0.1305
 41
0.1305
 66
1
 10
0
 20
0
 30
0
 70
128
  0
VERTEX
  8
LAYER_2
 10
106.3486
 20
93.5758
  0
VERTEX
  8
LAYER_2
 10
106.3552
 20
93.5641
  0
SEQEND
  0
POLYLINE
  8
LAYER_2
  6
AIGENLINE008
 40
0.1305
 41
0.1305
 66
1
 10
0
 20
0
 30
0
 70
128
  0
VERTEX
  8
LAYER_2
 10
106.3425
 20
93.5875
  0
VERTEX
  8
LAYER_2
 10
106.3491
 20
93.5753
  0
SEQEND
  0
POLYLINE
  8
LAYER_2
  6
AIGENLINE008
 40
0.1305
 41
0.1305
 66
1
 10
0
 20
0
 30
0
 70
128
  0
VERTEX
  8
LAYER_2
 10
106.3364
 20
93.6002
  0
VERTEX
  8
LAYER_2
 10
106.343
 20
93.588
  0
SEQEND
  0
POLYLINE
  8
LAYER_2
  6
AIGENLINE008
 40
0.1305
 41
0.1305
 66
1
 10
0
 20
0
 30
0
 70
128
  0
VERTEX
  8
LAYER_2
 10
106.3308
 20
93.6123
  0
VERTEX
  8
LAYER_2
 10
106.3364
 20
93.6002
  0
SEQEND
  0
POLYLINE
  8
LAYER_2
  6
AIGENLINE008
 40
0.1305
 41
0.1305
 66
1
 10
0
 20
0
 30
0
 70
128
  0
VERTEX
  8
LAYER_2
 10
106.3251
 20
93.6245
  0
VERTEX
  8
LAYER_2
 10
106.3308
 20
93.6123
  0
SEQEND
  0
POLYLINE
  8
LAYER_2
  6
AIGENLINE008
 40
0.1305
 41
0.1305
 66
1
 10
0
 20
0
 30
0
 70
128
  0
VERTEX
  8
LAYER_2
 10
106.32
 20
93.6372
  0
VERTEX
  8
LAYER_2
 10
106.3251
 20
93.6245
  0
SEQEND
  0
POLYLINE
  8
LAYER_2
  6
AIGENLINE008
 40
0.1305
 41
0.1305
 66
1
 10
0
 20
0
 30
0
 70
128
  0
VERTEX
  8
LAYER_2
 10
106.3153
 20
93.6499
  0
VERTEX
  8
LAYER_2
 10
106.3205
 20
93.6377
  0
SEQEND
  0
ENDBLK
  0
BLOCK
  8
LAYER_2
  2
AIGNBL020100A9
 70
64
 10
0
 20
0
 30
0
  3
AIGNBL020100A9
  0
POLYLINE
  8
LAYER_2
  6
AIGENLINE009
 40
0.1305
 41
0.1305
 66
1
 10
0
 20
0
 30
0
 70
128
  0
VERTEX
  8
LAYER_2
 10
106.3767
 20
93.5284
  0
VERTEX
  8
LAYER_2
 10
106.3847
 20
93.5167
  0
SEQEND
  0
POLYLINE
  8
LAYER_2
  6
AIGENLINE009
 40
0.1305
 41
0.1305
 66
1
 10
0
 20
0
 30
0
 70
128
  0
VERTEX
  8
LAYER_2
 10
106.3692
 20
93.5401
  0
VERTEX
  8
LAYER_2
 10
106.3767
 20
93.5284
  0
SEQEND
  0
ENDBLK
  0
BLOCK
  8
LAYER_2
  2
AIGNBL020100AA
 70
64
 10
0
 20
0
 30
0
  3
AIGNBL020100AA
  0
POLYLINE
  8
LAYER_2
  6
AIGENLINE008
 40
0.1305
 41
0.1305
 66
1
 10
0
 20
0
 30
0
 70
128
  0
VERTEX
  8
LAYER_2
 10
106.3927
 20
93.5059
  0
VERTEX
  8
LAYER_2
 10
106.4006
 20
93.4951
  0
SEQEND
  0
POLYLINE
  8
LAYER_2
  6
AIGENLINE008
 40
0.1305
 41
0.1305
 66
1
 10
0
 20
0
 30
0
 70
128
  0
VERTEX
  8
LAYER_2
 10
106.3847
 20
93.5167
  0
VERTEX
  8
LAYER_2
 10
106.3927
 20
93.5059
  0
SEQEND
  0
ENDBLK
  0
BLOCK
  8
LAYER_2
  2
AIGNBL020100AB
 70
64
 10
0
 20
0
 30
0
  3
AIGNBL020100AB
  0
POLYLINE
  8
LAYER_2
  6
AIGENLINE009
 40
0.1305
 41
0.1305
 66
1
 10
0
 20
0
 30
0
 70
128
  0
VERTEX
  8
LAYER_2
 10
106.4185
 20
93.4726
  0
VERTEX
  8
LAYER_2
 10
106.4278
 20
93.4618
  0
SEQEND
  0
POLYLINE
  8
LAYER_2
  6
AIGENLINE009
 40
0.1305
 41
0.1305
 66
1
 10
0
 20
0
 30
0
 70
128
  0
VERTEX
  8
LAYER_2
 10
106.4095
 20
93.4834
  0
VERTEX
  8
LAYER_2
 10
106.4185
 20
93.4726
  0
SEQEND
  0
POLYLINE
  8
LAYER_2
  6
AIGENLINE009
 40
0.1305
 41
0.1305
 66
1
 10
0
 20
0
 30
0
 70
128
  0
VERTEX
  8
LAYER_2
 10
106.4011
 20
93.4947
  0
VERTEX
  8
LAYER_2
 10
106.4095
 20
93.4834
  0
SEQEND
  0
ENDBLK
  0
BLOCK
  8
LAYER_2
  2
AIGNBL020100AC
 70
64
 10
0
 20
0
 30
0
  3
AIGNBL020100AC
  0
POLYLINE
  8
LAYER_2
  6
AIGENLINE009
 40
0.1305
 41
0.1305
 66
1
 10
0
 20
0
 30
0
 70
128
  0
VERTEX
  8
LAYER_2
 10
106.5207
 20
93.3765
  0
VERTEX
  8
LAYER_2
 10
106.5319
 20
93.3685
  0
SEQEND
  0
POLYLINE
  8
LAYER_2
  6
AIGENLINE009
 40
0.1305
 41
0.1305
 66
1
 10
0
 20
0
 30
0
 70
128
  0
VERTEX
  8
LAYER_2
 10
106.5094
 20
93.3849
  0
VERTEX
  8
LAYER_2
 10
106.5207
 20
93.3765
  0
SEQEND
  0
POLYLINE
  8
LAYER_2
  6
AIGENLINE009
 40
0.1305
 41
0.1305
 66
1
 10
0
 20
0
 30
0
 70
128
  0
VERTEX
  8
LAYER_2
 10
106.4986
 20
93.3938
  0
VERTEX
  8
LAYER_2
 10
106.5094
 20
93.3854
  0
SEQEND
  0
POLYLINE
  8
LAYER_2
  6
AIGENLINE009
 40
0.1305
 41
0.1305
 66
1
 10
0
 20
0
 30
0
 70
128
  0
VERTEX
  8
LAYER_2
 10
106.4879
 20
93.4032
  0
VERTEX
  8
LAYER_2
 10
106.4986
 20
93.3938
  0
SEQEND
  0
POLYLINE
  8
LAYER_2
  6
AIGENLINE009
 40
0.1305
 41
0.1305
 66
1
 10
0
 20
0
 30
0
 70
128
  0
VERTEX
  8
LAYER_2
 10
106.4771
 20
93.4121
  0
VERTEX
  8
LAYER_2
 10
106.4879
 20
93.4027
  0
SEQEND
  0
POLYLINE
  8
LAYER_2
  6
AIGENLINE009
 40
0.1305
 41
0.1305
 66
1
 10
0
 20
0
 30
0
 70
128
  0
VERTEX
  8
LAYER_2
 10
106.4667
 20
93.4215
  0
VERTEX
  8
LAYER_2
 10
106.4771
 20
93.4121
  0
SEQEND
  0
POLYLINE
  8
LAYER_2
  6
AIGENLINE009
 40
0.1305
 41
0.1305
 66
1
 10
0
 20
0
 30
0
 70
128
  0
VERTEX
  8
LAYER_2
 10
106.4569
 20
93.4318
  0
VERTEX
  8
LAYER_2
 10
106.4667
 20
93.422
  0
SEQEND
  0
POLYLINE
  8
LAYER_2
  6
AIGENLINE009
 40
0.1305
 41
0.1305
 66
1
 10
0
 20
0
 30
0
 70
128
  0
VERTEX
  8
LAYER_2
 10
106.4471
 20
93.4417
  0
VERTEX
  8
LAYER_2
 10
106.4569
 20
93.4318
  0
SEQEND
  0
POLYLINE
  8
LAYER_2
  6
AIGENLINE009
 40
0.1305
 41
0.1305
 66
1
 10
0
 20
0
 30
0
 70
128
  0
VERTEX
  8
LAYER_2
 10
106.4372
 20
93.4515
  0
VERTEX
  8
LAYER_2
 10
106.4466
 20
93.4417
  0
SEQEND
  0
ENDBLK
  0
BLOCK
  8
LAYER_2
  2
AIGNBL020100AD
 70
64
 10
0
 20
0
 30
0
  3
AIGNBL020100AD
  0
POLYLINE
  8
LAYER_2
  6
AIGENLINE008
 40
0.1305
 41
0.1305
 66
1
 10
0
 20
0
 30
0
 70
128
  0
VERTEX
  8
LAYER_2
 10
106.704
 20
93.285
  0
VERTEX
  8
LAYER_2
 10
106.7167
 20
93.2813
  0
SEQEND
  0
POLYLINE
  8
LAYER_2
  6
AIGENLINE008
 40
0.1305
 41
0.1305
 66
1
 10
0
 20
0
 30
0
 70
128
  0
VERTEX
  8
LAYER_2
 10
106.6914
 20
93.2888
  0
VERTEX
  8
LAYER_2
 10
106.704
 20
93.285
  0
SEQEND
  0
POLYLINE
  8
LAYER_2
  6
AIGENLINE008
 40
0.1305
 41
0.1305
 66
1
 10
0
 20
0
 30
0
 70
128
  0
VERTEX
  8
LAYER_2
 10
106.6782
 20
93.293
  0
VERTEX
  8
LAYER_2
 10
106.6909
 20
93.2888
  0
SEQEND
  0
POLYLINE
  8
LAYER_2
  6
AIGENLINE008
 40
0.1305
 41
0.1305
 66
1
 10
0
 20
0
 30
0
 70
128
  0
VERTEX
  8
LAYER_2
 10
106.666
 20
93.2977
  0
VERTEX
  8
LAYER_2
 10
106.6782
 20
93.293
  0
SEQEND
  0
POLYLINE
  8
LAYER_2
  6
AIGENLINE008
 40
0.1305
 41
0.1305
 66
1
 10
0
 20
0
 30
0
 70
128
  0
VERTEX
  8
LAYER_2
 10
106.6534
 20
93.3024
  0
VERTEX
  8
LAYER_2
 10
106.666
 20
93.2972
  0
SEQEND
  0
POLYLINE
  8
LAYER_2
  6
AIGENLINE008
 40
0.1305
 41
0.1305
 66
1
 10
0
 20
0
 30
0
 70
128
  0
VERTEX
  8
LAYER_2
 10
106.6403
 20
93.308
  0
VERTEX
  8
LAYER_2
 10
106.6529
 20
93.3024
  0
SEQEND
  0
POLYLINE
  8
LAYER_2
  6
AIGENLINE008
 40
0.1305
 41
0.1305
 66
1
 10
0
 20
0
 30
0
 70
128
  0
VERTEX
  8
LAYER_2
 10
106.6281
 20
93.3136
  0
VERTEX
  8
LAYER_2
 10
106.6403
 20
93.308
  0
SEQEND
  0
POLYLINE
  8
LAYER_2
  6
AIGENLINE008
 40
0.1305
 41
0.1305
 66
1
 10
0
 20
0
 30
0
 70
128
  0
VERTEX
  8
LAYER_2
 10
106.6154
 20
93.3193
  0
VERTEX
  8
LAYER_2
 10
106.6276
 20
93.3132
  0
SEQEND
  0
POLYLINE
  8
LAYER_2
  6
AIGENLINE008
 40
0.1305
 41
0.1305
 66
1
 10
0
 20
0
 30
0
 70
128
  0
VERTEX
  8
LAYER_2
 10
106.6032
 20
93.3254
  0
VERTEX
  8
LAYER_2
 10
106.6154
 20
93.3188
  0
SEQEND
  0
POLYLINE
  8
LAYER_2
  6
AIGENLINE008
 40
0.1305
 41
0.1305
 66
1
 10
0
 20
0
 30
0
 70
128
  0
VERTEX
  8
LAYER_2
 10
106.591
 20
93.3319
  0
VERTEX
  8
LAYER_2
 10
106.6032
 20
93.3254
  0
SEQEND
  0
POLYLINE
  8
LAYER_2
  6
AIGENLINE008
 40
0.1305
 41
0.1305
 66
1
 10
0
 20
0
 30
0
 70
128
  0
VERTEX
  8
LAYER_2
 10
106.5793
 20
93.3385
  0
VERTEX
  8
LAYER_2
 10
106.5915
 20
93.3315
  0
SEQEND
  0
ENDBLK
  0
BLOCK
  8
LAYER_2
  2
AIGNBL020100AE
 70
64
 10
0
 20
0
 30
0
  3
AIGNBL020100AE
  0
POLYLINE
  8
LAYER_2
  6
AIGENLINE007
 40
0.1305
 41
0.1305
 66
1
 10
0
 20
0
 30
0
 70
128
  0
VERTEX
  8
LAYER_2
 10
106.7805
 20
93.2668
  0
VERTEX
  8
LAYER_2
 10
106.7931
 20
93.2649
  0
SEQEND
  0
POLYLINE
  8
LAYER_2
  6
AIGENLINE007
 40
0.1305
 41
0.1305
 66
1
 10
0
 20
0
 30
0
 70
128
  0
VERTEX
  8
LAYER_2
 10
106.7678
 20
93.2691
  0
VERTEX
  8
LAYER_2
 10
106.7805
 20
93.2668
  0
SEQEND
  0
POLYLINE
  8
LAYER_2
  6
AIGENLINE007
 40
0.1305
 41
0.1305
 66
1
 10
0
 20
0
 30
0
 70
128
  0
VERTEX
  8
LAYER_2
 10
106.7547
 20
93.2719
  0
VERTEX
  8
LAYER_2
 10
106.7673
 20
93.2691
  0
SEQEND
  0
POLYLINE
  8
LAYER_2
  6
AIGENLINE007
 40
0.1305
 41
0.1305
 66
1
 10
0
 20
0
 30
0
 70
128
  0
VERTEX
  8
LAYER_2
 10
106.742
 20
93.2747
  0
VERTEX
  8
LAYER_2
 10
106.7547
 20
93.2719
  0
SEQEND
  0
POLYLINE
  8
LAYER_2
  6
AIGENLINE007
 40
0.1305
 41
0.1305
 66
1
 10
0
 20
0
 30
0
 70
128
  0
VERTEX
  8
LAYER_2
 10
106.7294
 20
93.2775
  0
VERTEX
  8
LAYER_2
 10
106.742
 20
93.2743
  0
SEQEND
  0
POLYLINE
  8
LAYER_2
  6
AIGENLINE007
 40
0.1305
 41
0.1305
 66
1
 10
0
 20
0
 30
0
 70
128
  0
VERTEX
  8
LAYER_2
 10
106.7167
 20
93.2813
  0
VERTEX
  8
LAYER_2
 10
106.7294
 20
93.2775
  0
SEQEND
  0
ENDBLK
  0
BLOCK
  8
LAYER_2
  2
AIGNBL020100AF
 70
64
 10
0
 20
0
 30
0
  3
AIGNBL020100AF
  0
POLYLINE
  8
LAYER_2
  6
AIGENLINE005
 40
0.1305
 41
0.1305
 66
1
 10
0
 20
0
 30
0
 70
128
  0
VERTEX
  8
LAYER_2
 10
106.8184
 20
93.2621
  0
VERTEX
  8
LAYER_2
 10
106.8302
 20
93.2611
  0
SEQEND
  0
POLYLINE
  8
LAYER_2
  6
AIGENLINE005
 40
0.1305
 41
0.1305
 66
1
 10
0
 20
0
 30
0
 70
128
  0
VERTEX
  8
LAYER_2
 10
106.8058
 20
93.2635
  0
VERTEX
  8
LAYER_2
 10
106.818
 20
93.2621
  0
SEQEND
  0
ENDBLK
  0
BLOCK
  8
LAYER_2
  2
AIGNBL020100B0
 70
64
 10
0
 20
0
 30
0
  3
AIGNBL020100B0
  0
POLYLINE
  8
LAYER_2
  6
AIGENLINE008
 40
0.1305
 41
0.1305
 66
1
 10
0
 20
0
 30
0
 70
128
  0
VERTEX
  8
LAYER_2
 10
130.5352
 20
90.6788
  0
VERTEX
  8
LAYER_2
 10
130.5333
 20
90.6924
  0
SEQEND
  0
POLYLINE
  8
LAYER_2
  6
AIGENLINE008
 40
0.1305
 41
0.1305
 66
1
 10
0
 20
0
 30
0
 70
128
  0
VERTEX
  8
LAYER_2
 10
130.5371
 20
90.6652
  0
VERTEX
  8
LAYER_2
 10
130.5352
 20
90.6788
  0
SEQEND
  0
POLYLINE
  8
LAYER_2
  6
AIGENLINE008
 40
0.1305
 41
0.1305
 66
1
 10
0
 20
0
 30
0
 70
128
  0
VERTEX
  8
LAYER_2
 10
130.5385
 20
90.6516
  0
VERTEX
  8
LAYER_2
 10
130.5371
 20
90.6652
  0
SEQEND
  0
POLYLINE
  8
LAYER_2
  6
AIGENLINE008
 40
0.1305
 41
0.1305
 66
1
 10
0
 20
0
 30
0
 70
128
  0
VERTEX
  8
LAYER_2
 10
130.5394
 20
90.6384
  0
VERTEX
  8
LAYER_2
 10
130.5385
 20
90.6516
  0
SEQEND
  0
POLYLINE
  8
LAYER_2
  6
AIGENLINE008
 40
0.1305
 41
0.1305
 66
1
 10
0
 20
0
 30
0
 70
128
  0
VERTEX
  8
LAYER_2
 10
130.5403
 20
90.6248
  0
VERTEX
  8
LAYER_2
 10
130.5394
 20
90.6384
  0
SEQEND
  0
ENDBLK
  0
BLOCK
  8
LAYER_2
  2
AIGNBL020100B1
 70
64
 10
0
 20
0
 30
0
  3
AIGNBL020100B1
  0
POLYLINE
  8
LAYER_2
  6
AIGENLINE008
 40
0.1305
 41
0.1305
 66
1
 10
0
 20
0
 30
0
 70
128
  0
VERTEX
  8
LAYER_2
 10
130.5286
 20
90.7196
  0
VERTEX
  8
LAYER_2
 10
130.5258
 20
90.7332
  0
SEQEND
  0
POLYLINE
  8
LAYER_2
  6
AIGENLINE008
 40
0.1305
 41
0.1305
 66
1
 10
0
 20
0
 30
0
 70
128
  0
VERTEX
  8
LAYER_2
 10
130.5314
 20
90.706
  0
VERTEX
  8
LAYER_2
 10
130.5286
 20
90.7196
  0
SEQEND
  0
ENDBLK
  0
BLOCK
  8
LAYER_2
  2
AIGNBL020100B2
 70
64
 10
0
 20
0
 30
0
  3
AIGNBL020100B2
  0
POLYLINE
  8
LAYER_2
  6
AIGENLINE009
 40
0.1305
 41
0.1305
 66
1
 10
0
 20
0
 30
0
 70
128
  0
VERTEX
  8
LAYER_2
 10
130.5225
 20
90.7468
  0
VERTEX
  8
LAYER_2
 10
130.5188
 20
90.7604
  0
SEQEND
  0
POLYLINE
  8
LAYER_2
  6
AIGENLINE009
 40
0.1305
 41
0.1305
 66
1
 10
0
 20
0
 30
0
 70
128
  0
VERTEX
  8
LAYER_2
 10
130.5258
 20
90.7332
  0
VERTEX
  8
LAYER_2
 10
130.5221
 20
90.7468
  0
SEQEND
  0
ENDBLK
  0
BLOCK
  8
LAYER_2
  2
AIGNBL020100B3
 70
64
 10
0
 20
0
 30
0
  3
AIGNBL020100B3
  0
POLYLINE
  8
LAYER_2
  6
AIGENLINE011
 40
0.1305
 41
0.1305
 66
1
 10
0
 20
0
 30
0
 70
128
  0
VERTEX
  8
LAYER_2
 10
130.5052
 20
90.8012
  0
VERTEX
  8
LAYER_2
 10
130.5005
 20
90.8148
  0
SEQEND
  0
POLYLINE
  8
LAYER_2
  6
AIGENLINE011
 40
0.1305
 41
0.1305
 66
1
 10
0
 20
0
 30
0
 70
128
  0
VERTEX
  8
LAYER_2
 10
130.5103
 20
90.788
  0
VERTEX
  8
LAYER_2
 10
130.5052
 20
90.8016
  0
SEQEND
  0
POLYLINE
  8
LAYER_2
  6
AIGENLINE011
 40
0.1305
 41
0.1305
 66
1
 10
0
 20
0
 30
0
 70
128
  0
VERTEX
  8
LAYER_2
 10
130.5146
 20
90.774
  0
VERTEX
  8
LAYER_2
 10
130.5099
 20
90.7876
  0
SEQEND
  0
POLYLINE
  8
LAYER_2
  6
AIGENLINE011
 40
0.1305
 41
0.1305
 66
1
 10
0
 20
0
 30
0
 70
128
  0
VERTEX
  8
LAYER_2
 10
130.5183
 20
90.7608
  0
VERTEX
  8
LAYER_2
 10
130.5146
 20
90.7744
  0
SEQEND
  0
ENDBLK
  0
BLOCK
  8
LAYER_2
  2
AIGNBL020100B4
 70
64
 10
0
 20
0
 30
0
  3
AIGNBL020100B4
  0
POLYLINE
  8
LAYER_2
  6
AIGENLINE012
 40
0.1305
 41
0.1305
 66
1
 10
0
 20
0
 30
0
 70
128
  0
VERTEX
  8
LAYER_2
 10
130.2435
 20
91.1167
  0
VERTEX
  8
LAYER_2
 10
130.2304
 20
91.1242
  0
SEQEND
  0
POLYLINE
  8
LAYER_2
  6
AIGENLINE012
 40
0.1305
 41
0.1305
 66
1
 10
0
 20
0
 30
0
 70
128
  0
VERTEX
  8
LAYER_2
 10
130.2562
 20
91.1092
  0
VERTEX
  8
LAYER_2
 10
130.2435
 20
91.1167
  0
SEQEND
  0
POLYLINE
  8
LAYER_2
  6
AIGENLINE012
 40
0.1305
 41
0.1305
 66
1
 10
0
 20
0
 30
0
 70
128
  0
VERTEX
  8
LAYER_2
 10
130.2684
 20
91.1013
  0
VERTEX
  8
LAYER_2
 10
130.2562
 20
91.1092
  0
SEQEND
  0
POLYLINE
  8
LAYER_2
  6
AIGENLINE012
 40
0.1305
 41
0.1305
 66
1
 10
0
 20
0
 30
0
 70
128
  0
VERTEX
  8
LAYER_2
 10
130.281
 20
91.0933
  0
VERTEX
  8
LAYER_2
 10
130.2688
 20
91.1013
  0
SEQEND
  0
POLYLINE
  8
LAYER_2
  6
AIGENLINE012
 40
0.1305
 41
0.1305
 66
1
 10
0
 20
0
 30
0
 70
128
  0
VERTEX
  8
LAYER_2
 10
130.2932
 20
91.0844
  0
VERTEX
  8
LAYER_2
 10
130.281
 20
91.0928
  0
SEQEND
  0
POLYLINE
  8
LAYER_2
  6
AIGENLINE012
 40
0.1305
 41
0.1305
 66
1
 10
0
 20
0
 30
0
 70
128
  0
VERTEX
  8
LAYER_2
 10
130.3054
 20
91.0755
  0
VERTEX
  8
LAYER_2
 10
130.2932
 20
91.0844
  0
SEQEND
  0
POLYLINE
  8
LAYER_2
  6
AIGENLINE012
 40
0.1305
 41
0.1305
 66
1
 10
0
 20
0
 30
0
 70
128
  0
VERTEX
  8
LAYER_2
 10
130.3171
 20
91.0661
  0
VERTEX
  8
LAYER_2
 10
130.3054
 20
91.0755
  0
SEQEND
  0
POLYLINE
  8
LAYER_2
  6
AIGENLINE012
 40
0.1305
 41
0.1305
 66
1
 10
0
 20
0
 30
0
 70
128
  0
VERTEX
  8
LAYER_2
 10
130.3289
 20
91.0567
  0
VERTEX
  8
LAYER_2
 10
130.3171
 20
91.0661
  0
SEQEND
  0
POLYLINE
  8
LAYER_2
  6
AIGENLINE012
 40
0.1305
 41
0.1305
 66
1
 10
0
 20
0
 30
0
 70
128
  0
VERTEX
  8
LAYER_2
 10
130.3401
 20
91.0464
  0
VERTEX
  8
LAYER_2
 10
130.3289
 20
91.0563
  0
SEQEND
  0
POLYLINE
  8
LAYER_2
  6
AIGENLINE012
 40
0.1305
 41
0.1305
 66
1
 10
0
 20
0
 30
0
 70
128
  0
VERTEX
  8
LAYER_2
 10
130.3514
 20
91.0361
  0
VERTEX
  8
LAYER_2
 10
130.3401
 20
91.0464
  0
SEQEND
  0
POLYLINE
  8
LAYER_2
  6
AIGENLINE012
 40
0.1305
 41
0.1305
 66
1
 10
0
 20
0
 30
0
 70
128
  0
VERTEX
  8
LAYER_2
 10
130.3622
 20
91.0258
  0
VERTEX
  8
LAYER_2
 10
130.3514
 20
91.0361
  0
SEQEND
  0
POLYLINE
  8
LAYER_2
  6
AIGENLINE012
 40
0.1305
 41
0.1305
 66
1
 10
0
 20
0
 30
0
 70
128
  0
VERTEX
  8
LAYER_2
 10
130.3729
 20
91.0155
  0
VERTEX
  8
LAYER_2
 10
130.3622
 20
91.0262
  0
SEQEND
  0
POLYLINE
  8
LAYER_2
  6
AIGENLINE012
 40
0.1305
 41
0.1305
 66
1
 10
0
 20
0
 30
0
 70
128
  0
VERTEX
  8
LAYER_2
 10
130.3833
 20
91.0042
  0
VERTEX
  8
LAYER_2
 10
130.3729
 20
91.015
  0
SEQEND
  0
POLYLINE
  8
LAYER_2
  6
AIGENLINE012
 40
0.1305
 41
0.1305
 66
1
 10
0
 20
0
 30
0
 70
128
  0
VERTEX
  8
LAYER_2
 10
130.3931
 20
90.9929
  0
VERTEX
  8
LAYER_2
 10
130.3833
 20
91.0042
  0
SEQEND
  0
POLYLINE
  8
LAYER_2
  6
AIGENLINE012
 40
0.1305
 41
0.1305
 66
1
 10
0
 20
0
 30
0
 70
128
  0
VERTEX
  8
LAYER_2
 10
130.403
 20
90.9812
  0
VERTEX
  8
LAYER_2
 10
130.3931
 20
90.9929
  0
SEQEND
  0
POLYLINE
  8
LAYER_2
  6
AIGENLINE012
 40
0.1305
 41
0.1305
 66
1
 10
0
 20
0
 30
0
 70
128
  0
VERTEX
  8
LAYER_2
 10
130.4123
 20
90.9695
  0
VERTEX
  8
LAYER_2
 10
130.403
 20
90.9812
  0
SEQEND
  0
POLYLINE
  8
LAYER_2
  6
AIGENLINE012
 40
0.1305
 41
0.1305
 66
1
 10
0
 20
0
 30
0
 70
128
  0
VERTEX
  8
LAYER_2
 10
130.4217
 20
90.9578
  0
VERTEX
  8
LAYER_2
 10
130.4123
 20
90.9695
  0
SEQEND
  0
POLYLINE
  8
LAYER_2
  6
AIGENLINE012
 40
0.1305
 41
0.1305
 66
1
 10
0
 20
0
 30
0
 70
128
  0
VERTEX
  8
LAYER_2
 10
130.4306
 20
90.9451
  0
VERTEX
  8
LAYER_2
 10
130.4217
 20
90.9573
  0
SEQEND
  0
POLYLINE
  8
LAYER_2
  6
AIGENLINE012
 40
0.1305
 41
0.1305
 66
1
 10
0
 20
0
 30
0
 70
128
  0
VERTEX
  8
LAYER_2
 10
130.4391
 20
90.9329
  0
VERTEX
  8
LAYER_2
 10
130.4306
 20
90.9451
  0
SEQEND
  0
POLYLINE
  8
LAYER_2
  6
AIGENLINE012
 40
0.1305
 41
0.1305
 66
1
 10
0
 20
0
 30
0
 70
128
  0
VERTEX
  8
LAYER_2
 10
130.447
 20
90.9207
  0
VERTEX
  8
LAYER_2
 10
130.4391
 20
90.9325
  0
SEQEND
  0
POLYLINE
  8
LAYER_2
  6
AIGENLINE012
 40
0.1305
 41
0.1305
 66
1
 10
0
 20
0
 30
0
 70
128
  0
VERTEX
  8
LAYER_2
 10
130.455
 20
90.9076
  0
VERTEX
  8
LAYER_2
 10
130.447
 20
90.9203
  0
SEQEND
  0
POLYLINE
  8
LAYER_2
  6
AIGENLINE012
 40
0.1305
 41
0.1305
 66
1
 10
0
 20
0
 30
0
 70
128
  0
VERTEX
  8
LAYER_2
 10
130.4625
 20
90.8949
  0
VERTEX
  8
LAYER_2
 10
130.455
 20
90.9076
  0
SEQEND
  0
POLYLINE
  8
LAYER_2
  6
AIGENLINE012
 40
0.1305
 41
0.1305
 66
1
 10
0
 20
0
 30
0
 70
128
  0
VERTEX
  8
LAYER_2
 10
130.47
 20
90.8818
  0
VERTEX
  8
LAYER_2
 10
130.4625
 20
90.8949
  0
SEQEND
  0
POLYLINE
  8
LAYER_2
  6
AIGENLINE012
 40
0.1305
 41
0.1305
 66
1
 10
0
 20
0
 30
0
 70
128
  0
VERTEX
  8
LAYER_2
 10
130.477
 20
90.8687
  0
VERTEX
  8
LAYER_2
 10
130.47
 20
90.8818
  0
SEQEND
  0
POLYLINE
  8
LAYER_2
  6
AIGENLINE012
 40
0.1305
 41
0.1305
 66
1
 10
0
 20
0
 30
0
 70
128
  0
VERTEX
  8
LAYER_2
 10
130.4831
 20
90.8556
  0
VERTEX
  8
LAYER_2
 10
130.4766
 20
90.8692
  0
SEQEND
  0
POLYLINE
  8
LAYER_2
  6
AIGENLINE012
 40
0.1305
 41
0.1305
 66
1
 10
0
 20
0
 30
0
 70
128
  0
VERTEX
  8
LAYER_2
 10
130.4892
 20
90.842
  0
VERTEX
  8
LAYER_2
 10
130.4827
 20
90.8556
  0
SEQEND
  0
POLYLINE
  8
LAYER_2
  6
AIGENLINE012
 40
0.1305
 41
0.1305
 66
1
 10
0
 20
0
 30
0
 70
128
  0
VERTEX
  8
LAYER_2
 10
130.4949
 20
90.8284
  0
VERTEX
  8
LAYER_2
 10
130.4888
 20
90.842
  0
SEQEND
  0
POLYLINE
  8
LAYER_2
  6
AIGENLINE012
 40
0.1305
 41
0.1305
 66
1
 10
0
 20
0
 30
0
 70
128
  0
VERTEX
  8
LAYER_2
 10
130.5005
 20
90.8152
  0
VERTEX
  8
LAYER_2
 10
130.4949
 20
90.8288
  0
SEQEND
  0
ENDBLK
  0
BLOCK
  8
LAYER_2
  2
AIGNBL020100B5
 70
64
 10
0
 20
0
 30
0
  3
AIGNBL020100B5
  0
POLYLINE
  8
LAYER_2
  6
AIGENLINE009
 40
0.1305
 41
0.1305
 66
1
 10
0
 20
0
 30
0
 70
128
  0
VERTEX
  8
LAYER_2
 10
130.1239
 20
91.1702
  0
VERTEX
  8
LAYER_2
 10
130.1103
 20
91.1744
  0
SEQEND
  0
POLYLINE
  8
LAYER_2
  6
AIGENLINE009
 40
0.1305
 41
0.1305
 66
1
 10
0
 20
0
 30
0
 70
128
  0
VERTEX
  8
LAYER_2
 10
130.1371
 20
91.166
  0
VERTEX
  8
LAYER_2
 10
130.1235
 20
91.1707
  0
SEQEND
  0
ENDBLK
  0
BLOCK
  8
LAYER_2
  2
AIGNBL020100B6
 70
64
 10
0
 20
0
 30
0
  3
AIGNBL020100B6
  0
POLYLINE
  8
LAYER_2
  6
AIGENLINE008
 40
0.1305
 41
0.1305
 66
1
 10
0
 20
0
 30
0
 70
128
  0
VERTEX
  8
LAYER_2
 10
130.0292
 20
91.1922
  0
VERTEX
  8
LAYER_2
 10
130.0156
 20
91.1941
  0
SEQEND
  0
POLYLINE
  8
LAYER_2
  6
AIGENLINE008
 40
0.1305
 41
0.1305
 66
1
 10
0
 20
0
 30
0
 70
128
  0
VERTEX
  8
LAYER_2
 10
130.0423
 20
91.1899
  0
VERTEX
  8
LAYER_2
 10
130.0287
 20
91.1922
  0
SEQEND
  0
POLYLINE
  8
LAYER_2
  6
AIGENLINE008
 40
0.1305
 41
0.1305
 66
1
 10
0
 20
0
 30
0
 70
128
  0
VERTEX
  8
LAYER_2
 10
130.056
 20
91.1876
  0
VERTEX
  8
LAYER_2
 10
130.0423
 20
91.1899
  0
SEQEND
  0
POLYLINE
  8
LAYER_2
  6
AIGENLINE008
 40
0.1305
 41
0.1305
 66
1
 10
0
 20
0
 30
0
 70
128
  0
VERTEX
  8
LAYER_2
 10
130.0691
 20
91.1847
  0
VERTEX
  8
LAYER_2
 10
130.0555
 20
91.1876
  0
SEQEND
  0
ENDBLK
  0
BLOCK
  8
LAYER_2
  2
AIGNBL020100B7
 70
64
 10
0
 20
0
 30
0
  3
AIGNBL020100B7
  0
POLYLINE
  8
LAYER_2
  6
AIGENLINE007
 40
0.1305
 41
0.1305
 66
1
 10
0
 20
0
 30
0
 70
128
  0
VERTEX
  8
LAYER_2
 10
129.9758
 20
91.1979
  0
VERTEX
  8
LAYER_2
 10
129.9626
 20
91.1983
  0
SEQEND
  0
POLYLINE
  8
LAYER_2
  6
AIGENLINE007
 40
0.1305
 41
0.1305
 66
1
 10
0
 20
0
 30
0
 70
128
  0
VERTEX
  8
LAYER_2
 10
129.9889
 20
91.1969
  0
VERTEX
  8
LAYER_2
 10
129.9758
 20
91.1979
  0
SEQEND
  0
ENDBLK
  0
BLOCK
  8
LAYER_2
  2
AIGNBL020100B8
 70
64
 10
0
 20
0
 30
0
  3
AIGNBL020100B8
  0
POLYLINE
  8
LAYER_2
 40
0.1058
 41
0.1058
 66
1
 10
0
 20
0
 30
0
  0
VERTEX
  8
LAYER_2
 10
124.9751
 20
192.022
  0
VERTEX
  8
LAYER_2
 10
124.9751
 20
161.4883
  0
SEQEND
  0
POLYLINE
  8
LAYER_2
 40
0.05
 41
0.05
 66
1
 10
0
 20
0
 30
0
  0
VERTEX
  8
LAYER_2
 10
124.6417
 20
163.222
  0
VERTEX
  8
LAYER_2
 10
125.3086
 20
163.222
  0
VERTEX
  8
LAYER_2
 10
124.9765
 20
161.0888
  0
SEQEND
  0
POLYLINE
  8
LAYER_2
 40
0.05
 41
0.05
 66
1
 10
0
 20
0
 30
0
  0
VERTEX
  8
LAYER_2
 10
124.6244
 20
190.9556
  0
VERTEX
  8
LAYER_2
 10
124.9565
 20
193.0888
  0
VERTEX
  8
LAYER_2
 10
125.2914
 20
190.9556
  0
SEQEND
  0
ENDBLK
  0
ENDSEC
  0
SECTION
  2
ENTITIES
  0
TEXT
  8
LAYER_2
 10
-26.2556
 20
43.1712
 11
-26.2556
 21
43.1712
 40
3.2995
 41
0.5
  1
仕様
  0
POLYLINE
  8
LAYER_2
 40
0.3528
 41
0.3528
 66
1
 10
0
 20
0
 30
0
  0
VERTEX
  8
LAYER_2
 10
250.6748
 20
51.9507
  0
VERTEX
  8
LAYER_2
 10
-29.3178
 20
51.9507
  0
SEQEND
  0
INSERT
  8
LAYER_2
  2
AIGNBL02010002
 10
0
 20
0
 30
0
  0
POLYLINE
  8
LAYER_2
 40
0.3528
 41
0.3528
 66
1
 10
0
 20
0
 30
0
  0
VERTEX
  8
LAYER_2
 10
-29.3178
 20
229.3369
  0
VERTEX
  8
LAYER_2
 10
-29.3178
 20
34.3283
  0
VERTEX
  8
LAYER_2
 10
250.6748
 20
34.3283
  0
VERTEX
  8
LAYER_2
 10
250.6748
 20
229.3369
  0
VERTEX
  8
LAYER_2
 10
-29.3178
 20
229.3369
  0
SEQEND
  0
POLYLINE
  8
LAYER_2
 40
0.3528
 41
0.3528
 66
1
 10
0
 20
0
 30
0
  0
VERTEX
  8
LAYER_2
 10
250.6748
 20
60.4597
  0
VERTEX
  8
LAYER_2
 10
-29.3178
 20
60.4597
  0
SEQEND
  0
POLYLINE
  8
LAYER_2
 40
0.3528
 41
0.3528
 66
1
 10
0
 20
0
 30
0
  0
VERTEX
  8
LAYER_2
 10
250.6748
 20
43.4416
  0
VERTEX
  8
LAYER_2
 10
143.5341
 20
43.4416
  0
SEQEND
  0
TEXT
  8
LAYER_2
 10
188.1725
 20
45.7175
 11
188.1725
 21
45.7175
 40
3.7615
 41
0.5
  1
1/10
  0
TEXT
  8
LAYER_2
 10
182.8808
 20
49.4743
 11
182.8808
 21
49.4743
 40
2.1997
 41
0.5
  1
縮尺
  0
POLYLINE
  8
LAYER_2
 40
0.3528
 41
0.3528
 66
1
 10
0
 20
0
 30
0
  0
VERTEX
  8
LAYER_2
 10
181.3526
 20
43.4416
  0
VERTEX
  8
LAYER_2
 10
181.3526
 20
51.9507
  0
SEQEND
  0
TEXT
  8
LAYER_2
 10
144.2327
 20
57.9834
 11
144.2327
 21
57.9834
 40
2.1997
 41
0.5
  1
品番
  0
TEXT
  8
LAYER_2
 10
-28.1609
 20
57.9834
 11
-28.1609
 21
57.9834
 40
2.1997
 41
0.5
  1
品名
  0
TEXT
  8
LAYER_2
 10
144.2327
 20
49.4743
 11
144.2327
 21
49.4743
 40
2.1997
 41
0.5
  1
重量
  0
TEXT
  8
LAYER_2
 10
150.2547
 20
54.1514
 11
150.2547
 21
54.1514
 40
5.9385
 41
0.5
  1
CIE-EJLAN70/
  0
TEXT
  8
LAYER_2
 10
149.5454
 20
45.7175
 11
149.5454
 21
45.7175
 40
3.7615
 41
0.5
  1
18.85kg
  0
POLYLINE
  8
LAYER_2
 40
0.3528
 41
0.3528
 66
1
 10
0
 20
0
 30
0
  0
VERTEX
  8
LAYER_2
 10
143.5341
 20
34.9539
  0
VERTEX
  8
LAYER_2
 10
143.5341
 20
60.4597
  0
SEQEND
  0
TEXT
  8
LAYER_2
 10
-15.2849
 20
54.891
 11
-15.2849
 21
54.891
 40
4.1465
 41
0.5
  1
エンジョイ 壁付け・カウンター置き型洗面器700ｍｍ
  0
INSERT
  8
LAYER_2
  2
AIGNBL02010003
 10
0
 20
0
 30
0
  0
TEXT
  8
LAYER_2
 10
-15.6835
 20
45.3736
 11
-15.6835
 21
45.3736
 40
3.1177
 41
0.5
  1
●設置方法：壁付け・カウンター置き●水栓取付穴：１穴●オーバーフロー付き
  0
TEXT
  8
LAYER_2
 10
-15.6835
 20
40.6235
 11
-15.6835
 21
40.6235
 40
3.1177
 41
0.5
  1
●排水金具別途●背面釉薬なし
  0
TEXT
  8
LAYER_2
 10
237.263
 20
63.2582
 11
237.263
 21
63.2582
 40
2.9618
 41
0.5
  1
単位：mm
  0
TEXT
  8
LAYER_2
 10
6.5217
 20
219.7385
 11
6.5217
 21
219.7385
 40
2.5981
 41
0.5
  1
※陶器製品は寸法公差が発生します。カウンター切り込みの際は必ず現物を合わせてご確認ください。
  0
TEXT
  8
LAYER_2
 10
6.5217
 20
214.9886
 11
6.5217
 21
214.9886
 40
2.5981
 41
0.5
  1
※製品と接する部分には必ずコーキング処理を行ってください。
  0
TEXT
  8
LAYER_2
 10
176.0254
 20
39.5359
 11
176.0254
 21
39.5359
 40
3.3853
 41
0.5
  1
●TEL 0120-65-1232●FAX 06-6532-1580
  0
TEXT
  8
LAYER_2
 10
176.0254
 20
36.0212
 11
176.0254
 21
36.0212
 40
3.3853
 41
0.5
  1
hits@hiratatile.co.jp
  0
TEXT
  8
LAYER_2
 10
240.3591
 20
225.8432
 11
240.3591
 21
225.8432
 40
2.0732
 41
0.5
  1
190625RT
  0
INSERT
  8
LAYER_2
  2
AIGNBL02010006
 10
0
 20
0
 30
0
  0
POLYLINE
  8
LAYER_2
 40
0.0635
 41
0.0635
 66
1
 10
0
 20
0
 30
0
  0
VERTEX
  8
LAYER_2
 10
139.0536
 20
164.4911
  0
VERTEX
  8
LAYER_2
 10
138.0534
 20
164.4911
  0
VERTEX
  8
LAYER_2
 10
136.4647
 20
165.9485
  0
SEQEND
  0
TEXT
  8
LAYER_2
 10
139.3652
 20
164.0404
 11
139.3652
 21
164.0404
 40
2.6134
 41
0.5
  1
46
  0
TEXT
  8
LAYER_2
 10
136.9086
 20
186.0131
 11
136.9086
 21
186.0131
 40
2.6134
 41
0.5
  1
35
  0
POLYLINE
  8
LAYER_2
 40
0.05
 41
0.05
 66
1
 10
0
 20
0
 30
0
  0
VERTEX
  8
LAYER_2
 10
136.5773
 20
166.0713
  0
VERTEX
  8
LAYER_2
 10
136.3522
 20
165.8261
  0
VERTEX
  8
LAYER_2
 10
135.728
 20
166.6247
  0
SEQEND
  0
POLYLINE
  8
LAYER_2
 40
0.0635
 41
0.0635
 66
1
 10
0
 20
0
 30
0
  0
VERTEX
  8
LAYER_2
 10
134.024
 20
168.1796
  0
VERTEX
  8
LAYER_2
 10
134.0418
 20
168.1796
  0
SEQEND
  0
POLYLINE
  8
LAYER_2
 40
0.0635
 41
0.0635
 66
1
 10
0
 20
0
 30
0
  0
VERTEX
  8
LAYER_2
 10
134.0329
 20
168.1707
  0
VERTEX
  8
LAYER_2
 10
134.0329
 20
168.1885
  0
SEQEND
  0
POLYLINE
  8
LAYER_2
 40
0.0635
 41
0.0635
 66
1
 10
0
 20
0
 30
0
  0
VERTEX
  8
LAYER_2
 10
120.2512
 20
98.2974
  0
VERTEX
  8
LAYER_2
 10
120.2512
 20
112.3772
  0
SEQEND
  0
POLYLINE
  8
LAYER_2
 40
0.0635
 41
0.0635
 66
1
 10
0
 20
0
 30
0
  0
VERTEX
  8
LAYER_2
 10
148.2506
 20
98.5131
  0
VERTEX
  8
LAYER_2
 10
148.2506
 20
112.3777
  0
SEQEND
  0
POLYLINE
  8
LAYER_2
 40
0.0635
 41
0.0635
 66
1
 10
0
 20
0
 30
0
  0
VERTEX
  8
LAYER_2
 10
121.251
 20
112.3599
  0
VERTEX
  8
LAYER_2
 10
129.927
 20
112.3599
  0
SEQEND
  0
POLYLINE
  8
LAYER_2
 40
0.0635
 41
0.0635
 66
1
 10
0
 20
0
 30
0
  0
VERTEX
  8
LAYER_2
 10
147.2509
 20
112.3599
  0
VERTEX
  8
LAYER_2
 10
136.3315
 20
112.3599
  0
SEQEND
  0
POLYLINE
  8
LAYER_2
 40
0.05
 41
0.05
 66
1
 10
0
 20
0
 30
0
  0
VERTEX
  8
LAYER_2
 10
120.2508
 20
112.3594
  0
VERTEX
  8
LAYER_2
 10
121.251
 20
112.1934
  0
VERTEX
  8
LAYER_2
 10
121.251
 20
112.5259
  0
SEQEND
  0
POLYLINE
  8
LAYER_2
 40
0.05
 41
0.05
 66
1
 10
0
 20
0
 30
0
  0
VERTEX
  8
LAYER_2
 10
147.2509
 20
112.193
  0
VERTEX
  8
LAYER_2
 10
148.2506
 20
112.3594
  0
VERTEX
  8
LAYER_2
 10
147.2509
 20
112.5264
  0
SEQEND
  0
TEXT
  8
LAYER_2
 10
130.1781
 20
111.8927
 11
130.1781
 21
111.8927
 40
2.9256
 41
0.5
  1
 
  0
TEXT
  8
LAYER_2
 10
132.2876
 20
111.9006
 11
132.2876
 21
111.9006
 40
2.6134
 41
0.5
  1
280
  0
POLYLINE
  8
LAYER_2
 40
0.0635
 41
0.0635
 66
1
 10
0
 20
0
 30
0
  0
VERTEX
  8
LAYER_2
 10
104.751
 20
104.0225
  0
VERTEX
  8
LAYER_2
 10
104.751
 20
112.3782
  0
SEQEND
  0
POLYLINE
  8
LAYER_2
 40
0.0635
 41
0.0635
 66
1
 10
0
 20
0
 30
0
  0
VERTEX
  8
LAYER_2
 10
120.2512
 20
98.5131
  0
VERTEX
  8
LAYER_2
 10
120.2512
 20
112.3777
  0
SEQEND
  0
POLYLINE
  8
LAYER_2
 40
0.05
 41
0.05
 66
1
 10
0
 20
0
 30
0
  0
VERTEX
  8
LAYER_2
 10
104.751
 20
112.3594
  0
VERTEX
  8
LAYER_2
 10
105.7512
 20
112.1934
  0
VERTEX
  8
LAYER_2
 10
105.7512
 20
112.5259
  0
SEQEND
  0
POLYLINE
  8
LAYER_2
 40
0.05
 41
0.05
 66
1
 10
0
 20
0
 30
0
  0
VERTEX
  8
LAYER_2
 10
119.251
 20
112.193
  0
VERTEX
  8
LAYER_2
 10
120.2507
 20
112.3594
  0
VERTEX
  8
LAYER_2
 10
119.251
 20
112.5264
  0
SEQEND
  0
TEXT
  8
LAYER_2
 10
109.7505
 20
111.8927
 11
109.7505
 21
111.8927
 40
2.9256
 41
0.5
  1
 
  0
TEXT
  8
LAYER_2
 10
111.8595
 20
111.9006
 11
111.8595
 21
111.9006
 40
2.6134
 41
0.5
  1
155
  0
POLYLINE
  8
LAYER_2
 62
121
 66
1
 10
0
 20
0
 30
0
  0
VERTEX
  8
LAYER_2
 10
120.2512
 20
98.5131
  0
VERTEX
  8
LAYER_2
 10
120.2512
 20
108.5598
  0
SEQEND
  0
POLYLINE
  8
LAYER_2
 40
0.0635
 41
0.0635
 66
1
 10
0
 20
0
 30
0
  0
VERTEX
  8
LAYER_2
 10
105.7507
 20
112.3777
  0
VERTEX
  8
LAYER_2
 10
109.3694
 20
112.3777
  0
SEQEND
  0
POLYLINE
  8
LAYER_2
 40
0.0635
 41
0.0635
 66
1
 10
0
 20
0
 30
0
  0
VERTEX
  8
LAYER_2
 10
115.7247
 20
112.3777
  0
VERTEX
  8
LAYER_2
 10
119.251
 20
112.3777
  0
SEQEND
  0
POLYLINE
  8
LAYER_2
 40
0.0635
 41
0.0635
 66
1
 10
0
 20
0
 30
0
  0
VERTEX
  8
LAYER_2
 10
128.0255
 20
103.025
  0
VERTEX
  8
LAYER_2
 10
125.6804
 20
103.025
  0
SEQEND
  0
POLYLINE
  8
LAYER_2
 40
0.0635
 41
0.0635
 66
1
 10
0
 20
0
 30
0
  0
VERTEX
  8
LAYER_2
 10
125.6982
 20
98.5131
  0
VERTEX
  8
LAYER_2
 10
123.3536
 20
98.5131
  0
SEQEND
  0
POLYLINE
  8
LAYER_2
 40
0.0635
 41
0.0635
 66
1
 10
0
 20
0
 30
0
  0
VERTEX
  8
LAYER_2
 10
125.6982
 20
102.0248
  0
VERTEX
  8
LAYER_2
 10
125.6982
 20
101.3693
  0
SEQEND
  0
POLYLINE
  8
LAYER_2
 40
0.0282
 41
0.0282
 66
1
 10
0
 20
0
 30
0
  0
VERTEX
  8
LAYER_2
 10
125.6982
 20
99.5133
  0
VERTEX
  8
LAYER_2
 10
125.6982
 20
100.348
  0
SEQEND
  0
POLYLINE
  8
LAYER_2
 40
0.05
 41
0.05
 66
1
 10
0
 20
0
 30
0
  0
VERTEX
  8
LAYER_2
 10
125.5318
 20
102.0248
  0
VERTEX
  8
LAYER_2
 10
125.8647
 20
102.0248
  0
VERTEX
  8
LAYER_2
 10
125.6987
 20
103.025
  0
SEQEND
  0
POLYLINE
  8
LAYER_2
 40
0.05
 41
0.05
 66
1
 10
0
 20
0
 30
0
  0
VERTEX
  8
LAYER_2
 10
125.5318
 20
99.525
  0
VERTEX
  8
LAYER_2
 10
125.6987
 20
98.5248
  0
VERTEX
  8
LAYER_2
 10
125.8647
 20
99.525
  0
SEQEND
  0
TEXT
  8
LAYER_2
 10
125.8649
 20
99.4073
 11
125.8649
 21
99.4073
 40
2.9256
 41
0.5
  1
 
  0
TEXT
  8
LAYER_2
 10
127.9743
 20
99.4152
 11
127.9743
 21
99.4152
 40
2.6134
 41
0.5
  1
45
  0
INSERT
  8
LAYER_2
  2
AIGNBL02010028
 10
0
 20
0
 30
0
  0
POLYLINE
  8
LAYER_2
 40
0.0635
 41
0.0635
 66
1
 10
0
 20
0
 30
0
  0
VERTEX
  8
LAYER_2
 10
104.751
 20
194.089
  0
VERTEX
  8
LAYER_2
 10
104.751
 20
196.9063
  0
SEQEND
  0
POLYLINE
  8
LAYER_2
 40
0.0635
 41
0.0635
 66
1
 10
0
 20
0
 30
0
  0
VERTEX
  8
LAYER_2
 10
174.7509
 20
194.089
  0
VERTEX
  8
LAYER_2
 10
174.7509
 20
196.9063
  0
SEQEND
  0
POLYLINE
  8
LAYER_2
 40
0.0635
 41
0.0635
 66
1
 10
0
 20
0
 30
0
  0
VERTEX
  8
LAYER_2
 10
105.7507
 20
196.8881
  0
VERTEX
  8
LAYER_2
 10
132.5731
 20
196.8881
  0
SEQEND
  0
POLYLINE
  8
LAYER_2
 40
0.0635
 41
0.0635
 66
1
 10
0
 20
0
 30
0
  0
VERTEX
  8
LAYER_2
 10
173.7512
 20
196.8881
  0
VERTEX
  8
LAYER_2
 10
138.6517
 20
196.8881
  0
SEQEND
  0
POLYLINE
  8
LAYER_2
 40
0.05
 41
0.05
 66
1
 10
0
 20
0
 30
0
  0
VERTEX
  8
LAYER_2
 10
104.751
 20
196.8881
  0
VERTEX
  8
LAYER_2
 10
105.7512
 20
196.722
  0
VERTEX
  8
LAYER_2
 10
105.7512
 20
197.055
  0
SEQEND
  0
POLYLINE
  8
LAYER_2
 40
0.05
 41
0.05
 66
1
 10
0
 20
0
 30
0
  0
VERTEX
  8
LAYER_2
 10
173.7512
 20
196.7216
  0
VERTEX
  8
LAYER_2
 10
174.7509
 20
196.8885
  0
VERTEX
  8
LAYER_2
 10
173.7512
 20
197.055
  0
SEQEND
  0
TEXT
  8
LAYER_2
 10
134.0535
 20
196.076
 11
134.0535
 21
196.076
 40
2.6134
 41
0.5
  1
700
  0
POLYLINE
  8
LAYER_2
 40
0.0635
 41
0.0635
 66
1
 10
0
 20
0
 30
0
  0
VERTEX
  8
LAYER_2
 10
147.5318
 20
145.6882
  0
VERTEX
  8
LAYER_2
 10
147.8844
 20
145.6882
  0
SEQEND
  0
POLYLINE
  8
LAYER_2
 40
0.0635
 41
0.0635
 66
1
 10
0
 20
0
 30
0
  0
VERTEX
  8
LAYER_2
 10
147.5318
 20
181.1885
  0
VERTEX
  8
LAYER_2
 10
147.8844
 20
181.1885
  0
SEQEND
  0
POLYLINE
  8
LAYER_2
 40
0.0635
 41
0.0635
 66
1
 10
0
 20
0
 30
0
  0
VERTEX
  8
LAYER_2
 10
147.8666
 20
146.6884
  0
VERTEX
  8
LAYER_2
 10
147.8666
 20
165.2789
  0
SEQEND
  0
POLYLINE
  8
LAYER_2
 40
0.0635
 41
0.0635
 66
1
 10
0
 20
0
 30
0
  0
VERTEX
  8
LAYER_2
 10
147.8666
 20
180.1883
  0
VERTEX
  8
LAYER_2
 10
147.8666
 20
171.5214
  0
SEQEND
  0
POLYLINE
  8
LAYER_2
 40
0.05
 41
0.05
 66
1
 10
0
 20
0
 30
0
  0
VERTEX
  8
LAYER_2
 10
147.6997
 20
146.6884
  0
VERTEX
  8
LAYER_2
 10
147.8661
 20
145.6882
  0
VERTEX
  8
LAYER_2
 10
148.0326
 20
146.6884
  0
SEQEND
  0
POLYLINE
  8
LAYER_2
 40
0.05
 41
0.05
 66
1
 10
0
 20
0
 30
0
  0
VERTEX
  8
LAYER_2
 10
147.6997
 20
180.1888
  0
VERTEX
  8
LAYER_2
 10
148.0326
 20
180.1888
  0
VERTEX
  8
LAYER_2
 10
147.8661
 20
181.1885
  0
SEQEND
  0
TEXT
  8
LAYER_2
 10
149.0311
 20
166.2359
 11
149.0311
 21
166.2359
 40
2.6134
 41
0.5
 50
89.99999999
  1
355
  0
POLYLINE
  8
LAYER_2
 40
0.0635
 41
0.0635
 66
1
 10
0
 20
0
 30
0
  0
VERTEX
  8
LAYER_2
 10
105.3507
 20
160.7978
  0
VERTEX
  8
LAYER_2
 10
105.3507
 20
161.0609
  0
SEQEND
  0
POLYLINE
  8
LAYER_2
 40
0.0635
 41
0.0635
 66
1
 10
0
 20
0
 30
0
  0
VERTEX
  8
LAYER_2
 10
162.8511
 20
154.1265
  0
VERTEX
  8
LAYER_2
 10
162.8511
 20
154.3896
  0
SEQEND
  0
POLYLINE
  8
LAYER_2
 40
0.0635
 41
0.0635
 66
1
 10
0
 20
0
 30
0
  0
VERTEX
  8
LAYER_2
 10
106.3509
 20
154.3713
  0
VERTEX
  8
LAYER_2
 10
132.914
 20
154.3713
  0
SEQEND
  0
POLYLINE
  8
LAYER_2
 40
0.0635
 41
0.0635
 66
1
 10
0
 20
0
 30
0
  0
VERTEX
  8
LAYER_2
 10
161.8513
 20
154.3713
  0
VERTEX
  8
LAYER_2
 10
137.0509
 20
154.3713
  0
SEQEND
  0
POLYLINE
  8
LAYER_2
 40
0.05
 41
0.05
 66
1
 10
0
 20
0
 30
0
  0
VERTEX
  8
LAYER_2
 10
105.3503
 20
154.3713
  0
VERTEX
  8
LAYER_2
 10
106.3505
 20
154.2053
  0
VERTEX
  8
LAYER_2
 10
106.3505
 20
154.5378
  0
SEQEND
  0
POLYLINE
  8
LAYER_2
 40
0.05
 41
0.05
 66
1
 10
0
 20
0
 30
0
  0
VERTEX
  8
LAYER_2
 10
161.8513
 20
154.2049
  0
VERTEX
  8
LAYER_2
 10
162.851
 20
154.3713
  0
VERTEX
  8
LAYER_2
 10
161.8513
 20
154.5383
  0
SEQEND
  0
TEXT
  8
LAYER_2
 10
133.1664
 20
153.9119
 11
133.1664
 21
153.9119
 40
2.6134
 41
0.5
  1
575
  0
POLYLINE
  8
LAYER_2
 40
0.0635
 41
0.0635
 66
1
 10
0
 20
0
 30
0
  0
VERTEX
  8
LAYER_2
 10
162.851
 20
155.3894
  0
VERTEX
  8
LAYER_2
 10
162.851
 20
154.4074
  0
SEQEND
  0
POLYLINE
  8
LAYER_2
 40
0.0635
 41
0.0635
 66
1
 10
0
 20
0
 30
0
  0
VERTEX
  8
LAYER_2
 10
174.1512
 20
155.3894
  0
VERTEX
  8
LAYER_2
 10
174.1512
 20
154.4074
  0
SEQEND
  0
POLYLINE
  8
LAYER_2
 40
0.0635
 41
0.0635
 66
1
 10
0
 20
0
 30
0
  0
VERTEX
  8
LAYER_2
 10
163.8508
 20
154.3892
  0
VERTEX
  8
LAYER_2
 10
166.6493
 20
154.3892
  0
SEQEND
  0
POLYLINE
  8
LAYER_2
 40
0.0635
 41
0.0635
 66
1
 10
0
 20
0
 30
0
  0
VERTEX
  8
LAYER_2
 10
173.1509
 20
154.3892
  0
VERTEX
  8
LAYER_2
 10
170.7055
 20
154.3892
  0
SEQEND
  0
POLYLINE
  8
LAYER_2
 40
0.05
 41
0.05
 66
1
 10
0
 20
0
 30
0
  0
VERTEX
  8
LAYER_2
 10
162.851
 20
154.3891
  0
VERTEX
  8
LAYER_2
 10
163.8513
 20
154.2227
  0
VERTEX
  8
LAYER_2
 10
163.8513
 20
154.5556
  0
SEQEND
  0
POLYLINE
  8
LAYER_2
 40
0.05
 41
0.05
 66
1
 10
0
 20
0
 30
0
  0
VERTEX
  8
LAYER_2
 10
173.1509
 20
154.2231
  0
VERTEX
  8
LAYER_2
 10
174.1512
 20
154.3896
  0
VERTEX
  8
LAYER_2
 10
173.1509
 20
154.5561
  0
SEQEND
  0
TEXT
  8
LAYER_2
 10
166.8243
 20
153.9295
 11
166.8243
 21
153.9295
 40
2.6134
 41
0.5
  1
113
  0
POLYLINE
  8
LAYER_2
 40
0.0635
 41
0.0635
 66
1
 10
0
 20
0
 30
0
  0
VERTEX
  8
LAYER_2
 10
146.8842
 20
181.189
  0
VERTEX
  8
LAYER_2
 10
147.8661
 20
181.189
  0
SEQEND
  0
POLYLINE
  8
LAYER_2
 40
0.0635
 41
0.0635
 66
1
 10
0
 20
0
 30
0
  0
VERTEX
  8
LAYER_2
 10
146.8842
 20
192.4886
  0
VERTEX
  8
LAYER_2
 10
147.8661
 20
192.4886
  0
SEQEND
  0
POLYLINE
  8
LAYER_2
 40
0.0635
 41
0.0635
 66
1
 10
0
 20
0
 30
0
  0
VERTEX
  8
LAYER_2
 10
147.8844
 20
182.1887
  0
VERTEX
  8
LAYER_2
 10
147.8844
 20
185.6925
  0
SEQEND
  0
POLYLINE
  8
LAYER_2
 40
0.0635
 41
0.0635
 66
1
 10
0
 20
0
 30
0
  0
VERTEX
  8
LAYER_2
 10
147.8844
 20
191.4888
  0
VERTEX
  8
LAYER_2
 10
147.8844
 20
189.7491
  0
SEQEND
  0
POLYLINE
  8
LAYER_2
 40
0.05
 41
0.05
 66
1
 10
0
 20
0
 30
0
  0
VERTEX
  8
LAYER_2
 10
147.7175
 20
182.1887
  0
VERTEX
  8
LAYER_2
 10
147.8844
 20
181.1885
  0
VERTEX
  8
LAYER_2
 10
148.0509
 20
182.1887
  0
SEQEND
  0
POLYLINE
  8
LAYER_2
 40
0.05
 41
0.05
 66
1
 10
0
 20
0
 30
0
  0
VERTEX
  8
LAYER_2
 10
147.7175
 20
191.4888
  0
VERTEX
  8
LAYER_2
 10
148.0509
 20
191.4888
  0
VERTEX
  8
LAYER_2
 10
147.8844
 20
192.4886
  0
SEQEND
  0
TEXT
  8
LAYER_2
 10
148.6962
 20
185.8685
 11
148.6962
 21
185.8685
 40
2.6134
 41
0.5
 50
89.99999999
  1
113
  0
POLYLINE
  8
LAYER_2
 40
0.0635
 41
0.0635
 66
1
 10
0
 20
0
 30
0
  0
VERTEX
  8
LAYER_2
 10
103.7507
 20
103.025
  0
VERTEX
  8
LAYER_2
 10
97.9708
 20
103.025
  0
SEQEND
  0
POLYLINE
  8
LAYER_2
 40
0.0635
 41
0.0635
 66
1
 10
0
 20
0
 30
0
  0
VERTEX
  8
LAYER_2
 10
103.7507
 20
90.525
  0
VERTEX
  8
LAYER_2
 10
97.9708
 20
90.525
  0
SEQEND
  0
POLYLINE
  8
LAYER_2
 40
0.0635
 41
0.0635
 66
1
 10
0
 20
0
 30
0
  0
VERTEX
  8
LAYER_2
 10
97.9891
 20
102.0248
  0
VERTEX
  8
LAYER_2
 10
97.9891
 20
99.6868
  0
SEQEND
  0
POLYLINE
  8
LAYER_2
 40
0.0635
 41
0.0635
 66
1
 10
0
 20
0
 30
0
  0
VERTEX
  8
LAYER_2
 10
97.9891
 20
91.5252
  0
VERTEX
  8
LAYER_2
 10
97.9891
 20
95.6268
  0
SEQEND
  0
POLYLINE
  8
LAYER_2
 40
0.05
 41
0.05
 66
1
 10
0
 20
0
 30
0
  0
VERTEX
  8
LAYER_2
 10
97.8226
 20
102.0248
  0
VERTEX
  8
LAYER_2
 10
98.1551
 20
102.0248
  0
VERTEX
  8
LAYER_2
 10
97.9891
 20
103.025
  0
SEQEND
  0
POLYLINE
  8
LAYER_2
 40
0.05
 41
0.05
 66
1
 10
0
 20
0
 30
0
  0
VERTEX
  8
LAYER_2
 10
97.8226
 20
91.5247
  0
VERTEX
  8
LAYER_2
 10
97.9891
 20
90.5245
  0
VERTEX
  8
LAYER_2
 10
98.1551
 20
91.5247
  0
SEQEND
  0
TEXT
  8
LAYER_2
 10
98.4481
 20
95.8023
 11
98.4481
 21
95.8023
 40
2.6134
 41
0.5
 50
89.99999999
  1
125
  0
POLYLINE
  8
LAYER_2
 40
0.0635
 41
0.0635
 66
1
 10
0
 20
0
 30
0
  0
VERTEX
  8
LAYER_2
 10
103.7507
 20
90.525
  0
VERTEX
  8
LAYER_2
 10
97.9708
 20
90.525
  0
SEQEND
  0
POLYLINE
  8
LAYER_2
 40
0.0635
 41
0.0635
 66
1
 10
0
 20
0
 30
0
  0
VERTEX
  8
LAYER_2
 10
129.6006
 20
87.5248
  0
VERTEX
  8
LAYER_2
 10
97.9708
 20
87.5248
  0
SEQEND
  0
POLYLINE
  8
LAYER_2
 40
0.0635
 41
0.0635
 66
1
 10
0
 20
0
 30
0
  0
VERTEX
  8
LAYER_2
 10
97.9891
 20
89.5248
  0
VERTEX
  8
LAYER_2
 10
97.9891
 20
88.5245
  0
SEQEND
  0
POLYLINE
  8
LAYER_2
 40
0.0635
 41
0.0635
 66
1
 10
0
 20
0
 30
0
  0
VERTEX
  8
LAYER_2
 10
97.9891
 20
87.5248
  0
VERTEX
  8
LAYER_2
 10
97.9891
 20
86.5246
  0
SEQEND
  0
POLYLINE
  8
LAYER_2
 40
0.0635
 41
0.0635
 66
1
 10
0
 20
0
 30
0
  0
VERTEX
  8
LAYER_2
 10
97.9891
 20
86.525
  0
VERTEX
  8
LAYER_2
 10
96.9889
 20
86.525
  0
SEQEND
  0
POLYLINE
  8
LAYER_2
 40
0.05
 41
0.05
 66
1
 10
0
 20
0
 30
0
  0
VERTEX
  8
LAYER_2
 10
97.8226
 20
89.5248
  0
VERTEX
  8
LAYER_2
 10
98.1551
 20
89.5248
  0
VERTEX
  8
LAYER_2
 10
97.9891
 20
90.5245
  0
SEQEND
  0
POLYLINE
  8
LAYER_2
 40
0.05
 41
0.05
 66
1
 10
0
 20
0
 30
0
  0
VERTEX
  8
LAYER_2
 10
97.8226
 20
88.5245
  0
VERTEX
  8
LAYER_2
 10
97.9891
 20
87.5253
  0
VERTEX
  8
LAYER_2
 10
98.1551
 20
88.5245
  0
SEQEND
  0
TEXT
  8
LAYER_2
 10
94.4367
 20
85.7127
 11
94.4367
 21
85.7127
 40
2.6134
 41
0.5
  1
30
  0
POLYLINE
  8
LAYER_2
 40
0.0635
 41
0.0635
 66
1
 10
0
 20
0
 30
0
  0
VERTEX
  8
LAYER_2
 10
104.751
 20
104.0248
  0
VERTEX
  8
LAYER_2
 10
104.751
 20
106.896
  0
SEQEND
  0
POLYLINE
  8
LAYER_2
 40
0.0635
 41
0.0635
 66
1
 10
0
 20
0
 30
0
  0
VERTEX
  8
LAYER_2
 10
174.7509
 20
104.0248
  0
VERTEX
  8
LAYER_2
 10
174.7509
 20
106.896
  0
SEQEND
  0
POLYLINE
  8
LAYER_2
 40
0.0635
 41
0.0635
 66
1
 10
0
 20
0
 30
0
  0
VERTEX
  8
LAYER_2
 10
105.7507
 20
106.8777
  0
VERTEX
  8
LAYER_2
 10
136.8061
 20
106.8777
  0
SEQEND
  0
POLYLINE
  8
LAYER_2
 40
0.0635
 41
0.0635
 66
1
 10
0
 20
0
 30
0
  0
VERTEX
  8
LAYER_2
 10
173.7507
 20
106.8777
  0
VERTEX
  8
LAYER_2
 10
140.9312
 20
106.8777
  0
SEQEND
  0
POLYLINE
  8
LAYER_2
 40
0.05
 41
0.05
 66
1
 10
0
 20
0
 30
0
  0
VERTEX
  8
LAYER_2
 10
104.751
 20
106.8777
  0
VERTEX
  8
LAYER_2
 10
105.7507
 20
106.7108
  0
VERTEX
  8
LAYER_2
 10
105.7507
 20
107.0447
  0
SEQEND
  0
POLYLINE
  8
LAYER_2
 40
0.05
 41
0.05
 66
1
 10
0
 20
0
 30
0
  0
VERTEX
  8
LAYER_2
 10
173.7507
 20
106.7113
  0
VERTEX
  8
LAYER_2
 10
174.7509
 20
106.8777
  0
VERTEX
  8
LAYER_2
 10
173.7507
 20
107.0442
  0
SEQEND
  0
TEXT
  8
LAYER_2
 10
137.0518
 20
106.4184
 11
137.0518
 21
106.4184
 40
2.6134
 41
0.5
  1
700
  0
POLYLINE
  8
LAYER_2
 40
0.0635
 41
0.0635
 66
1
 10
0
 20
0
 30
0
  0
VERTEX
  8
LAYER_2
 10
175.7511
 20
193.0888
  0
VERTEX
  8
LAYER_2
 10
181.0757
 20
193.0888
  0
SEQEND
  0
POLYLINE
  8
LAYER_2
 40
0.0635
 41
0.0635
 66
1
 10
0
 20
0
 30
0
  0
VERTEX
  8
LAYER_2
 10
175.7511
 20
145.0889
  0
VERTEX
  8
LAYER_2
 10
181.0757
 20
145.0889
  0
SEQEND
  0
POLYLINE
  8
LAYER_2
 40
0.0635
 41
0.0635
 66
1
 10
0
 20
0
 30
0
  0
VERTEX
  8
LAYER_2
 10
181.0575
 20
192.0886
  0
VERTEX
  8
LAYER_2
 10
181.0575
 20
174.52
  0
SEQEND
  0
POLYLINE
  8
LAYER_2
 40
0.0635
 41
0.0635
 66
1
 10
0
 20
0
 30
0
  0
VERTEX
  8
LAYER_2
 10
181.0575
 20
146.0887
  0
VERTEX
  8
LAYER_2
 10
181.0575
 20
167.8898
  0
SEQEND
  0
POLYLINE
  8
LAYER_2
 40
0.05
 41
0.05
 66
1
 10
0
 20
0
 30
0
  0
VERTEX
  8
LAYER_2
 10
180.8905
 20
192.0886
  0
VERTEX
  8
LAYER_2
 10
181.2239
 20
192.0886
  0
VERTEX
  8
LAYER_2
 10
181.057
 20
193.0888
  0
SEQEND
  0
POLYLINE
  8
LAYER_2
 40
0.05
 41
0.05
 66
1
 10
0
 20
0
 30
0
  0
VERTEX
  8
LAYER_2
 10
180.8905
 20
146.0882
  0
VERTEX
  8
LAYER_2
 10
181.057
 20
145.0884
  0
VERTEX
  8
LAYER_2
 10
181.2239
 20
146.0882
  0
SEQEND
  0
TEXT
  8
LAYER_2
 10
181.6927
 20
169.4082
 11
181.6927
 21
169.4082
 40
2.6134
 41
0.5
 50
89.99999999
  1
480
  0
POLYLINE
  8
LAYER_2
 40
0.0635
 41
0.0635
 66
1
 10
0
 20
0
 30
0
  0
VERTEX
  8
LAYER_2
 10
71.1432
 20
103.025
  0
VERTEX
  8
LAYER_2
 10
74.7638
 20
103.025
  0
SEQEND
  0
POLYLINE
  8
LAYER_2
 40
0.0635
 41
0.0635
 66
1
 10
0
 20
0
 30
0
  0
VERTEX
  8
LAYER_2
 10
71.1432
 20
90.525
  0
VERTEX
  8
LAYER_2
 10
74.7638
 20
90.525
  0
SEQEND
  0
POLYLINE
  8
LAYER_2
 40
0.0635
 41
0.0635
 66
1
 10
0
 20
0
 30
0
  0
VERTEX
  8
LAYER_2
 10
74.746
 20
102.0253
  0
VERTEX
  8
LAYER_2
 10
74.746
 20
99.6868
  0
SEQEND
  0
POLYLINE
  8
LAYER_2
 40
0.0635
 41
0.0635
 66
1
 10
0
 20
0
 30
0
  0
VERTEX
  8
LAYER_2
 10
74.746
 20
91.5252
  0
VERTEX
  8
LAYER_2
 10
74.746
 20
95.6268
  0
SEQEND
  0
POLYLINE
  8
LAYER_2
 40
0.05
 41
0.05
 66
1
 10
0
 20
0
 30
0
  0
VERTEX
  8
LAYER_2
 10
74.5795
 20
102.0253
  0
VERTEX
  8
LAYER_2
 10
74.9124
 20
102.0253
  0
VERTEX
  8
LAYER_2
 10
74.746
 20
103.025
  0
SEQEND
  0
POLYLINE
  8
LAYER_2
 40
0.05
 41
0.05
 66
1
 10
0
 20
0
 30
0
  0
VERTEX
  8
LAYER_2
 10
74.5795
 20
91.5247
  0
VERTEX
  8
LAYER_2
 10
74.746
 20
90.5245
  0
VERTEX
  8
LAYER_2
 10
74.9124
 20
91.5247
  0
SEQEND
  0
TEXT
  8
LAYER_2
 10
75.2055
 20
95.8023
 11
75.2055
 21
95.8023
 40
2.6134
 41
0.5
 50
89.99999999
  1
125
  0
POLYLINE
  8
LAYER_2
 40
0.0635
 41
0.0635
 66
1
 10
0
 20
0
 30
0
  0
VERTEX
  8
LAYER_2
 10
75.7457
 20
90.525
  0
VERTEX
  8
LAYER_2
 10
74.7821
 20
90.525
  0
SEQEND
  0
POLYLINE
  8
LAYER_2
 40
0.0635
 41
0.0635
 66
1
 10
0
 20
0
 30
0
  0
VERTEX
  8
LAYER_2
 10
52.0097
 20
87.5248
  0
VERTEX
  8
LAYER_2
 10
74.7821
 20
87.5248
  0
SEQEND
  0
POLYLINE
  8
LAYER_2
 40
0.0635
 41
0.0635
 66
1
 10
0
 20
0
 30
0
  0
VERTEX
  8
LAYER_2
 10
74.7638
 20
89.5248
  0
VERTEX
  8
LAYER_2
 10
74.7638
 20
88.525
  0
SEQEND
  0
POLYLINE
  8
LAYER_2
 40
0.05
 41
0.05
 66
1
 10
0
 20
0
 30
0
  0
VERTEX
  8
LAYER_2
 10
74.5968
 20
89.5248
  0
VERTEX
  8
LAYER_2
 10
74.9307
 20
89.5248
  0
VERTEX
  8
LAYER_2
 10
74.7633
 20
90.5245
  0
SEQEND
  0
POLYLINE
  8
LAYER_2
 40
0.05
 41
0.05
 66
1
 10
0
 20
0
 30
0
  0
VERTEX
  8
LAYER_2
 10
74.5968
 20
88.525
  0
VERTEX
  8
LAYER_2
 10
74.7633
 20
87.5248
  0
VERTEX
  8
LAYER_2
 10
74.9307
 20
88.525
  0
SEQEND
  0
TEXT
  8
LAYER_2
 10
75.264
 20
88.2844
 11
75.264
 21
88.2844
 40
2.6134
 41
0.5
  1
30
  0
POLYLINE
  8
LAYER_2
 40
0.0635
 41
0.0635
 66
1
 10
0
 20
0
 30
0
  0
VERTEX
  8
LAYER_2
 10
22.4587
 20
89.5248
  0
VERTEX
  8
LAYER_2
 10
22.4587
 20
84.5096
  0
SEQEND
  0
POLYLINE
  8
LAYER_2
 40
0.0635
 41
0.0635
 66
1
 10
0
 20
0
 30
0
  0
VERTEX
  8
LAYER_2
 10
47.4593
 20
86.525
  0
VERTEX
  8
LAYER_2
 10
47.4593
 20
84.5091
  0
SEQEND
  0
POLYLINE
  8
LAYER_2
 40
0.0635
 41
0.0635
 66
1
 10
0
 20
0
 30
0
  0
VERTEX
  8
LAYER_2
 10
23.4589
 20
84.5274
  0
VERTEX
  8
LAYER_2
 10
33.7691
 20
84.5274
  0
SEQEND
  0
POLYLINE
  8
LAYER_2
 40
0.0635
 41
0.0635
 66
1
 10
0
 20
0
 30
0
  0
VERTEX
  8
LAYER_2
 10
46.4591
 20
84.5274
  0
VERTEX
  8
LAYER_2
 10
37.913
 20
84.5274
  0
SEQEND
  0
POLYLINE
  8
LAYER_2
 40
0.05
 41
0.05
 66
1
 10
0
 20
0
 30
0
  0
VERTEX
  8
LAYER_2
 10
22.4587
 20
84.5274
  0
VERTEX
  8
LAYER_2
 10
23.4584
 20
84.3605
  0
VERTEX
  8
LAYER_2
 10
23.4584
 20
84.6939
  0
SEQEND
  0
POLYLINE
  8
LAYER_2
 40
0.05
 41
0.05
 66
1
 10
0
 20
0
 30
0
  0
VERTEX
  8
LAYER_2
 10
46.4591
 20
84.3605
  0
VERTEX
  8
LAYER_2
 10
47.4593
 20
84.527
  0
VERTEX
  8
LAYER_2
 10
46.4591
 20
84.6944
  0
SEQEND
  0
TEXT
  8
LAYER_2
 10
34.0338
 20
84.0677
 11
34.0338
 21
84.0677
 40
2.6134
 41
0.5
  1
250
  0
POLYLINE
  8
LAYER_2
 40
0.0635
 41
0.0635
 66
1
 10
0
 20
0
 30
0
  0
VERTEX
  8
LAYER_2
 10
23.7745
 20
103.025
  0
VERTEX
  8
LAYER_2
 10
26.4698
 20
103.025
  0
SEQEND
  0
POLYLINE
  8
LAYER_2
 40
0.0635
 41
0.0635
 66
1
 10
0
 20
0
 30
0
  0
VERTEX
  8
LAYER_2
 10
24.6959
 20
102.0253
  0
VERTEX
  8
LAYER_2
 10
26.4698
 20
102.0253
  0
SEQEND
  0
POLYLINE
  8
LAYER_2
 40
0.0635
 41
0.0635
 66
1
 10
0
 20
0
 30
0
  0
VERTEX
  8
LAYER_2
 10
26.452
 20
101.0251
  0
VERTEX
  8
LAYER_2
 10
26.452
 20
100.0249
  0
SEQEND
  0
POLYLINE
  8
LAYER_2
 40
0.0635
 41
0.0635
 66
1
 10
0
 20
0
 30
0
  0
VERTEX
  8
LAYER_2
 10
26.452
 20
104.0248
  0
VERTEX
  8
LAYER_2
 10
26.452
 20
105.025
  0
VERTEX
  8
LAYER_2
 10
27.4517
 20
105.025
  0
SEQEND
  0
POLYLINE
  8
LAYER_2
 40
0.05
 41
0.05
 66
1
 10
0
 20
0
 30
0
  0
VERTEX
  8
LAYER_2
 10
26.2851
 20
101.0251
  0
VERTEX
  8
LAYER_2
 10
26.6189
 20
101.0251
  0
VERTEX
  8
LAYER_2
 10
26.452
 20
102.0253
  0
SEQEND
  0
POLYLINE
  8
LAYER_2
 40
0.05
 41
0.05
 66
1
 10
0
 20
0
 30
0
  0
VERTEX
  8
LAYER_2
 10
26.2851
 20
104.0253
  0
VERTEX
  8
LAYER_2
 10
26.452
 20
103.025
  0
VERTEX
  8
LAYER_2
 10
26.6189
 20
104.0253
  0
SEQEND
  0
TEXT
  8
LAYER_2
 10
27.628
 20
104.2125
 11
27.628
 21
104.2125
 40
2.6134
 41
0.5
  1
10
  0
POLYLINE
  8
LAYER_2
 40
0.0635
 41
0.0635
 66
1
 10
0
 20
0
 30
0
  0
VERTEX
  8
LAYER_2
 10
23.0875
 20
103.7847
  0
VERTEX
  8
LAYER_2
 10
23.0875
 20
106.7718
  0
SEQEND
  0
POLYLINE
  8
LAYER_2
 40
0.0635
 41
0.0635
 66
1
 10
0
 20
0
 30
0
  0
VERTEX
  8
LAYER_2
 10
34.3529
 20
103.7847
  0
VERTEX
  8
LAYER_2
 10
34.3529
 20
106.7718
  0
SEQEND
  0
POLYLINE
  8
LAYER_2
 40
0.0635
 41
0.0635
 66
1
 10
0
 20
0
 30
0
  0
VERTEX
  8
LAYER_2
 10
24.0877
 20
106.7535
  0
VERTEX
  8
LAYER_2
 10
27.5741
 20
106.7535
  0
SEQEND
  0
POLYLINE
  8
LAYER_2
 40
0.0635
 41
0.0635
 66
1
 10
0
 20
0
 30
0
  0
VERTEX
  8
LAYER_2
 10
33.3532
 20
106.7535
  0
VERTEX
  8
LAYER_2
 10
31.2782
 20
106.7535
  0
SEQEND
  0
POLYLINE
  8
LAYER_2
 40
0.05
 41
0.05
 66
1
 10
0
 20
0
 30
0
  0
VERTEX
  8
LAYER_2
 10
23.0875
 20
106.7535
  0
VERTEX
  8
LAYER_2
 10
24.0877
 20
106.587
  0
VERTEX
  8
LAYER_2
 10
24.0877
 20
106.9199
  0
SEQEND
  0
POLYLINE
  8
LAYER_2
 40
0.05
 41
0.05
 66
1
 10
0
 20
0
 30
0
  0
VERTEX
  8
LAYER_2
 10
33.3532
 20
106.5865
  0
VERTEX
  8
LAYER_2
 10
34.3529
 20
106.7535
  0
VERTEX
  8
LAYER_2
 10
33.3532
 20
106.9204
  0
SEQEND
  0
TEXT
  8
LAYER_2
 10
27.3965
 20
106.2944
 11
27.3965
 21
106.2944
 40
2.6134
 41
0.5
  1
113
  0
POLYLINE
  8
LAYER_2
 40
0.0635
 41
0.0635
 66
1
 10
0
 20
0
 30
0
  0
VERTEX
  8
LAYER_2
 10
104.751
 20
89.5248
  0
VERTEX
  8
LAYER_2
 10
104.751
 20
82.1059
  0
SEQEND
  0
POLYLINE
  8
LAYER_2
 40
0.0635
 41
0.0635
 66
1
 10
0
 20
0
 30
0
  0
VERTEX
  8
LAYER_2
 10
134.1009
 20
86.525
  0
VERTEX
  8
LAYER_2
 10
134.1009
 20
82.1059
  0
SEQEND
  0
POLYLINE
  8
LAYER_2
 40
0.0635
 41
0.0635
 66
1
 10
0
 20
0
 30
0
  0
VERTEX
  8
LAYER_2
 10
105.7507
 20
82.1237
  0
VERTEX
  8
LAYER_2
 10
118.2367
 20
82.1237
  0
SEQEND
  0
POLYLINE
  8
LAYER_2
 40
0.0635
 41
0.0635
 66
1
 10
0
 20
0
 30
0
  0
VERTEX
  8
LAYER_2
 10
133.1011
 20
82.1237
  0
VERTEX
  8
LAYER_2
 10
122.3787
 20
82.1237
  0
SEQEND
  0
POLYLINE
  8
LAYER_2
 40
0.05
 41
0.05
 66
1
 10
0
 20
0
 30
0
  0
VERTEX
  8
LAYER_2
 10
104.751
 20
82.1242
  0
VERTEX
  8
LAYER_2
 10
105.7507
 20
81.9577
  0
VERTEX
  8
LAYER_2
 10
105.7507
 20
82.2902
  0
SEQEND
  0
POLYLINE
  8
LAYER_2
 40
0.05
 41
0.05
 66
1
 10
0
 20
0
 30
0
  0
VERTEX
  8
LAYER_2
 10
133.1011
 20
81.9573
  0
VERTEX
  8
LAYER_2
 10
134.1009
 20
82.1237
  0
VERTEX
  8
LAYER_2
 10
133.1011
 20
82.2907
  0
SEQEND
  0
TEXT
  8
LAYER_2
 10
118.501
 20
81.6644
 11
118.501
 21
81.6644
 40
2.6134
 41
0.5
  1
294
  0
POLYLINE
  8
LAYER_2
 40
0.0635
 41
0.0635
 66
1
 10
0
 20
0
 30
0
  0
VERTEX
  8
LAYER_2
 10
133.051
 20
168.1885
  0
VERTEX
  8
LAYER_2
 10
134.0329
 20
168.1885
  0
SEQEND
  0
POLYLINE
  8
LAYER_2
 40
0.0635
 41
0.0635
 66
1
 10
0
 20
0
 30
0
  0
VERTEX
  8
LAYER_2
 10
133.051
 20
181.189
  0
VERTEX
  8
LAYER_2
 10
134.0329
 20
181.189
  0
SEQEND
  0
POLYLINE
  8
LAYER_2
 40
0.0635
 41
0.0635
 66
1
 10
0
 20
0
 30
0
  0
VERTEX
  8
LAYER_2
 10
134.0507
 20
169.1887
  0
VERTEX
  8
LAYER_2
 10
134.0507
 20
173.5436
  0
SEQEND
  0
POLYLINE
  8
LAYER_2
 40
0.0635
 41
0.0635
 66
1
 10
0
 20
0
 30
0
  0
VERTEX
  8
LAYER_2
 10
134.0507
 20
180.1888
  0
VERTEX
  8
LAYER_2
 10
134.0507
 20
175.8339
  0
SEQEND
  0
POLYLINE
  8
LAYER_2
 40
0.05
 41
0.05
 66
1
 10
0
 20
0
 30
0
  0
VERTEX
  8
LAYER_2
 10
133.8842
 20
169.1887
  0
VERTEX
  8
LAYER_2
 10
134.0507
 20
168.1885
  0
VERTEX
  8
LAYER_2
 10
134.2176
 20
169.1887
  0
SEQEND
  0
POLYLINE
  8
LAYER_2
 40
0.05
 41
0.05
 66
1
 10
0
 20
0
 30
0
  0
VERTEX
  8
LAYER_2
 10
133.8842
 20
180.1888
  0
VERTEX
  8
LAYER_2
 10
134.2176
 20
180.1888
  0
VERTEX
  8
LAYER_2
 10
134.0507
 20
181.1885
  0
SEQEND
  0
TEXT
  8
LAYER_2
 10
134.5097
 20
173.718
 11
134.5097
 21
173.718
 40
2.6134
 41
0.5
 50
89.99999999
  1
130
  0
POLYLINE
  8
LAYER_2
 40
0.0635
 41
0.0635
 66
1
 10
0
 20
0
 30
0
  0
VERTEX
  8
LAYER_2
 10
42.1699
 20
92.5249
  0
VERTEX
  8
LAYER_2
 10
47.4987
 20
92.5249
  0
SEQEND
  0
POLYLINE
  8
LAYER_2
 40
0.0635
 41
0.0635
 66
1
 10
0
 20
0
 30
0
  0
VERTEX
  8
LAYER_2
 10
42.1699
 20
103.025
  0
VERTEX
  8
LAYER_2
 10
47.4987
 20
103.025
  0
SEQEND
  0
POLYLINE
  8
LAYER_2
 40
0.0635
 41
0.0635
 66
1
 10
0
 20
0
 30
0
  0
VERTEX
  8
LAYER_2
 10
47.4809
 20
93.5251
  0
VERTEX
  8
LAYER_2
 10
47.4809
 20
96.6271
  0
SEQEND
  0
POLYLINE
  8
LAYER_2
 40
0.0635
 41
0.0635
 66
1
 10
0
 20
0
 30
0
  0
VERTEX
  8
LAYER_2
 10
47.4809
 20
102.0253
  0
VERTEX
  8
LAYER_2
 10
47.4809
 20
100.3344
  0
SEQEND
  0
POLYLINE
  8
LAYER_2
 40
0.05
 41
0.05
 66
1
 10
0
 20
0
 30
0
  0
VERTEX
  8
LAYER_2
 10
47.3149
 20
93.5247
  0
VERTEX
  8
LAYER_2
 10
47.4813
 20
92.5244
  0
VERTEX
  8
LAYER_2
 10
47.6478
 20
93.5247
  0
SEQEND
  0
POLYLINE
  8
LAYER_2
 40
0.05
 41
0.05
 66
1
 10
0
 20
0
 30
0
  0
VERTEX
  8
LAYER_2
 10
47.3149
 20
102.0253
  0
VERTEX
  8
LAYER_2
 10
47.6478
 20
102.0253
  0
VERTEX
  8
LAYER_2
 10
47.4813
 20
103.025
  0
SEQEND
  0
TEXT
  8
LAYER_2
 10
47.9406
 20
96.8031
 11
47.9406
 21
96.8031
 40
2.6134
 41
0.5
 50
89.99999999
  1
105
  0
POLYLINE
  8
LAYER_2
 40
0.0635
 41
0.0635
 66
1
 10
0
 20
0
 30
0
  0
VERTEX
  8
LAYER_2
 10
134.9825
 20
193.0888
  0
VERTEX
  8
LAYER_2
 10
134.069
 20
193.0888
  0
SEQEND
  0
POLYLINE
  8
LAYER_2
 40
0.0635
 41
0.0635
 66
1
 10
0
 20
0
 30
0
  0
VERTEX
  8
LAYER_2
 10
135.0509
 20
187.089
  0
VERTEX
  8
LAYER_2
 10
134.069
 20
187.089
  0
SEQEND
  0
POLYLINE
  8
LAYER_2
 40
0.0635
 41
0.0635
 66
1
 10
0
 20
0
 30
0
  0
VERTEX
  8
LAYER_2
 10
134.0507
 20
192.0886
  0
VERTEX
  8
LAYER_2
 10
134.0507
 20
191.9953
  0
SEQEND
  0
POLYLINE
  8
LAYER_2
 40
0.0635
 41
0.0635
 66
1
 10
0
 20
0
 30
0
  0
VERTEX
  8
LAYER_2
 10
134.0507
 20
188.0887
  0
VERTEX
  8
LAYER_2
 10
134.0507
 20
190.249
  0
SEQEND
  0
POLYLINE
  8
LAYER_2
 40
0.05
 41
0.05
 66
1
 10
0
 20
0
 30
0
  0
VERTEX
  8
LAYER_2
 10
133.8842
 20
192.0886
  0
VERTEX
  8
LAYER_2
 10
134.2176
 20
192.0886
  0
VERTEX
  8
LAYER_2
 10
134.0507
 20
193.0888
  0
SEQEND
  0
POLYLINE
  8
LAYER_2
 40
0.05
 41
0.05
 66
1
 10
0
 20
0
 30
0
  0
VERTEX
  8
LAYER_2
 10
133.8842
 20
188.0887
  0
VERTEX
  8
LAYER_2
 10
134.0507
 20
187.0889
  0
VERTEX
  8
LAYER_2
 10
134.2176
 20
188.0887
  0
SEQEND
  0
TEXT
  8
LAYER_2
 10
132.9535
 20
190.1897
 11
132.9535
 21
190.1897
 40
2.6134
 41
0.5
  1
60
  0
POLYLINE
  8
LAYER_2
 40
0.0635
 41
0.0635
 66
1
 10
0
 20
0
 30
0
  0
VERTEX
  8
LAYER_2
 10
133.051
 20
187.089
  0
VERTEX
  8
LAYER_2
 10
134.0329
 20
187.089
  0
SEQEND
  0
POLYLINE
  8
LAYER_2
 40
0.0635
 41
0.0635
 66
1
 10
0
 20
0
 30
0
  0
VERTEX
  8
LAYER_2
 10
133.051
 20
181.189
  0
VERTEX
  8
LAYER_2
 10
134.0329
 20
181.189
  0
SEQEND
  0
POLYLINE
  8
LAYER_2
 40
0.0635
 41
0.0635
 66
1
 10
0
 20
0
 30
0
  0
VERTEX
  8
LAYER_2
 10
134.0507
 20
186.0887
  0
VERTEX
  8
LAYER_2
 10
134.0507
 20
185.0126
  0
SEQEND
  0
POLYLINE
  8
LAYER_2
 40
0.0635
 41
0.0635
 66
1
 10
0
 20
0
 30
0
  0
VERTEX
  8
LAYER_2
 10
134.0507
 20
182.1887
  0
VERTEX
  8
LAYER_2
 10
134.0507
 20
183.2649
  0
SEQEND
  0
POLYLINE
  8
LAYER_2
 40
0.05
 41
0.05
 66
1
 10
0
 20
0
 30
0
  0
VERTEX
  8
LAYER_2
 10
133.8842
 20
186.0887
  0
VERTEX
  8
LAYER_2
 10
134.2176
 20
186.0887
  0
VERTEX
  8
LAYER_2
 10
134.0507
 20
187.089
  0
SEQEND
  0
POLYLINE
  8
LAYER_2
 40
0.05
 41
0.05
 66
1
 10
0
 20
0
 30
0
  0
VERTEX
  8
LAYER_2
 10
133.8842
 20
182.1887
  0
VERTEX
  8
LAYER_2
 10
134.0507
 20
181.1885
  0
VERTEX
  8
LAYER_2
 10
134.2176
 20
182.1887
  0
SEQEND
  0
TEXT
  8
LAYER_2
 10
132.9535
 20
183.2054
 11
132.9535
 21
183.2054
 40
2.6134
 41
0.5
  1
59
  0
POLYLINE
  8
LAYER_2
 40
0.0635
 41
0.0635
 66
1
 10
0
 20
0
 30
0
  0
VERTEX
  8
LAYER_2
 10
134.0507
 20
188.0887
  0
VERTEX
  8
LAYER_2
 10
134.0507
 20
189.2779
  0
SEQEND
  0
POLYLINE
  8
LAYER_2
 40
0.0635
 41
0.0635
 66
1
 10
0
 20
0
 30
0
  0
VERTEX
  8
LAYER_2
 10
134.0507
 20
188.0887
  0
VERTEX
  8
LAYER_2
 10
134.0507
 20
189.2779
  0
SEQEND
  0
POLYLINE
  8
LAYER_2
 40
0.0635
 41
0.0635
 66
1
 10
0
 20
0
 30
0
  0
VERTEX
  8
LAYER_2
 10
174.7509
 20
169.1887
  0
VERTEX
  8
LAYER_2
 10
174.7509
 20
168.2068
  0
SEQEND
  0
POLYLINE
  8
LAYER_2
 40
0.0635
 41
0.0635
 66
1
 10
0
 20
0
 30
0
  0
VERTEX
  8
LAYER_2
 10
162.851
 20
169.1887
  0
VERTEX
  8
LAYER_2
 10
162.851
 20
168.2068
  0
SEQEND
  0
POLYLINE
  8
LAYER_2
 40
0.0635
 41
0.0635
 66
1
 10
0
 20
0
 30
0
  0
VERTEX
  8
LAYER_2
 10
166.7511
 20
192.4886
  0
VERTEX
  8
LAYER_2
 10
167.733
 20
192.4886
  0
SEQEND
  0
POLYLINE
  8
LAYER_2
 40
0.1305
 41
0.1305
 66
1
 10
0
 20
0
 30
0
  0
VERTEX
  8
LAYER_2
 10
33.8352
 20
98.266
  0
VERTEX
  8
LAYER_2
 10
34.1864
 20
98.2978
  0
SEQEND
  0
POLYLINE
  8
LAYER_2
 40
0.1305
 41
0.1305
 66
1
 10
0
 20
0
 30
0
  0
VERTEX
  8
LAYER_2
 10
34.4936
 20
98.3255
  0
VERTEX
  8
LAYER_2
 10
34.8453
 20
98.3574
  0
SEQEND
  0
POLYLINE
  8
LAYER_2
 40
0.1305
 41
0.1305
 66
1
 10
0
 20
0
 30
0
  0
VERTEX
  8
LAYER_2
 10
33.6551
 20
99.9072
  0
VERTEX
  8
LAYER_2
 10
34.0068
 20
99.9391
  0
SEQEND
  0
POLYLINE
  8
LAYER_2
 40
0.1305
 41
0.1305
 66
1
 10
0
 20
0
 30
0
  0
VERTEX
  8
LAYER_2
 10
34.3206
 20
99.9677
  0
VERTEX
  8
LAYER_2
 10
34.6722
 20
99.9996
  0
SEQEND
  0
POLYLINE
  8
LAYER_2
  6
AIGENLINE002
 40
0.1305
 41
0.1305
 66
1
 10
0
 20
0
 30
0
 70
128
  0
VERTEX
  8
LAYER_2
 10
22.4587
 20
102.7751
  0
VERTEX
  8
LAYER_2
 10
22.4587
 20
102.7836
  0
SEQEND
  0
POLYLINE
  8
LAYER_2
  6
AIGENLINE015
 40
0.1305
 41
0.1305
 66
1
 10
0
 20
0
 30
0
 70
128
  0
VERTEX
  8
LAYER_2
 10
22.4591
 20
102.7836
  0
VERTEX
  8
LAYER_2
 10
22.4596
 20
102.7915
  0
SEQEND
  0
POLYLINE
  8
LAYER_2
  6
AIGENLINE002
 40
0.1305
 41
0.1305
 66
1
 10
0
 20
0
 30
0
 70
128
  0
VERTEX
  8
LAYER_2
 10
22.4591
 20
102.792
  0
VERTEX
  8
LAYER_2
 10
22.4601
 20
102.8004
  0
SEQEND
  0
POLYLINE
  8
LAYER_2
  6
AIGENLINE003
 40
0.1305
 41
0.1305
 66
1
 10
0
 20
0
 30
0
 70
128
  0
VERTEX
  8
LAYER_2
 10
22.4601
 20
102.8004
  0
VERTEX
  8
LAYER_2
 10
22.461
 20
102.8089
  0
SEQEND
  0
INSERT
  8
LAYER_2
  2
AIGNBL02010029
 10
0
 20
0
 30
0
  0
POLYLINE
  8
LAYER_2
  6
AIGENLINE003
 40
0.1305
 41
0.1305
 66
1
 10
0
 20
0
 30
0
 70
128
  0
VERTEX
  8
LAYER_2
 10
22.4638
 20
102.8258
  0
VERTEX
  8
LAYER_2
 10
22.4657
 20
102.8342
  0
SEQEND
  0
POLYLINE
  8
LAYER_2
  6
AIGENLINE002
 40
0.1305
 41
0.1305
 66
1
 10
0
 20
0
 30
0
 70
128
  0
VERTEX
  8
LAYER_2
 10
22.4657
 20
102.8342
  0
VERTEX
  8
LAYER_2
 10
22.468
 20
102.8422
  0
SEQEND
  0
POLYLINE
  8
LAYER_2
  6
AIGENLINE015
 40
0.1305
 41
0.1305
 66
1
 10
0
 20
0
 30
0
 70
128
  0
VERTEX
  8
LAYER_2
 10
22.468
 20
102.8426
  0
VERTEX
  8
LAYER_2
 10
22.4704
 20
102.8506
  0
SEQEND
  0
POLYLINE
  8
LAYER_2
  6
AIGENLINE003
 40
0.1305
 41
0.1305
 66
1
 10
0
 20
0
 30
0
 70
128
  0
VERTEX
  8
LAYER_2
 10
22.4704
 20
102.8506
  0
VERTEX
  8
LAYER_2
 10
22.4732
 20
102.8586
  0
SEQEND
  0
INSERT
  8
LAYER_2
  2
AIGNBL0201002A
 10
0
 20
0
 30
0
  0
POLYLINE
  8
LAYER_2
  6
AIGENLINE003
 40
0.1305
 41
0.1305
 66
1
 10
0
 20
0
 30
0
 70
128
  0
VERTEX
  8
LAYER_2
 10
22.483
 20
102.882
  0
VERTEX
  8
LAYER_2
 10
22.4868
 20
102.8905
  0
SEQEND
  0
POLYLINE
  8
LAYER_2
  6
AIGENLINE015
 40
0.1305
 41
0.1305
 66
1
 10
0
 20
0
 30
0
 70
128
  0
VERTEX
  8
LAYER_2
 10
22.4868
 20
102.89
  0
VERTEX
  8
LAYER_2
 10
22.4905
 20
102.8975
  0
SEQEND
  0
POLYLINE
  8
LAYER_2
  6
AIGENLINE003
 40
0.1305
 41
0.1305
 66
1
 10
0
 20
0
 30
0
 70
128
  0
VERTEX
  8
LAYER_2
 10
22.491
 20
102.8975
  0
VERTEX
  8
LAYER_2
 10
22.4952
 20
102.905
  0
SEQEND
  0
INSERT
  8
LAYER_2
  2
AIGNBL0201002B
 10
0
 20
0
 30
0
  0
POLYLINE
  8
LAYER_2
  6
AIGENLINE003
 40
0.1305
 41
0.1305
 66
1
 10
0
 20
0
 30
0
 70
128
  0
VERTEX
  8
LAYER_2
 10
22.6331
 20
103.0133
  0
VERTEX
  8
LAYER_2
 10
22.6411
 20
103.0161
  0
SEQEND
  0
INSERT
  8
LAYER_2
  2
AIGNBL0201002C
 10
0
 20
0
 30
0
  0
POLYLINE
  8
LAYER_2
  6
AIGENLINE016
 40
0.1305
 41
0.1305
 66
1
 10
0
 20
0
 30
0
 70
128
  0
VERTEX
  8
LAYER_2
 10
22.7086
 20
103.025
  0
VERTEX
  8
LAYER_2
 10
22.8399
 20
103.025
  0
SEQEND
  0
INSERT
  8
LAYER_2
  2
AIGNBL0201002D
 10
0
 20
0
 30
0
  0
POLYLINE
  8
LAYER_2
  6
AIGENLINE003
 40
0.1305
 41
0.1305
 66
1
 10
0
 20
0
 30
0
 70
128
  0
VERTEX
  8
LAYER_2
 10
22.9627
 20
102.9927
  0
VERTEX
  8
LAYER_2
 10
22.9703
 20
102.988
  0
SEQEND
  0
INSERT
  8
LAYER_2
  2
AIGNBL0201002E
 10
0
 20
0
 30
0
  0
POLYLINE
  8
LAYER_2
  6
AIGENLINE003
 40
0.1305
 41
0.1305
 66
1
 10
0
 20
0
 30
0
 70
128
  0
VERTEX
  8
LAYER_2
 10
23.0045
 20
102.9632
  0
VERTEX
  8
LAYER_2
 10
23.011
 20
102.9571
  0
SEQEND
  0
POLYLINE
  8
LAYER_2
  6
AIGENLINE002
 40
0.1305
 41
0.1305
 66
1
 10
0
 20
0
 30
0
 70
128
  0
VERTEX
  8
LAYER_2
 10
23.011
 20
102.9575
  0
VERTEX
  8
LAYER_2
 10
23.0171
 20
102.9514
  0
SEQEND
  0
INSERT
  8
LAYER_2
  2
AIGNBL0201002F
 10
0
 20
0
 30
0
  0
INSERT
  8
LAYER_2
  2
AIGNBL02010030
 10
0
 20
0
 30
0
  0
POLYLINE
  8
LAYER_2
  6
AIGENLINE003
 40
0.1305
 41
0.1305
 66
1
 10
0
 20
0
 30
0
 70
128
  0
VERTEX
  8
LAYER_2
 10
23.0622
 20
102.8895
  0
VERTEX
  8
LAYER_2
 10
23.0659
 20
102.8816
  0
SEQEND
  0
INSERT
  8
LAYER_2
  2
AIGNBL02010031
 10
0
 20
0
 30
0
  0
POLYLINE
  8
LAYER_2
  6
AIGENLINE003
 40
0.1305
 41
0.1305
 66
1
 10
0
 20
0
 30
0
 70
128
  0
VERTEX
  8
LAYER_2
 10
23.0758
 20
102.8581
  0
VERTEX
  8
LAYER_2
 10
23.0786
 20
102.8501
  0
SEQEND
  0
INSERT
  8
LAYER_2
  2
AIGNBL02010032
 10
0
 20
0
 30
0
  0
POLYLINE
  8
LAYER_2
  6
AIGENLINE003
 40
0.1305
 41
0.1305
 66
1
 10
0
 20
0
 30
0
 70
128
  0
VERTEX
  8
LAYER_2
 10
23.0851
 20
102.8253
  0
VERTEX
  8
LAYER_2
 10
23.0865
 20
102.8168
  0
SEQEND
  0
POLYLINE
  8
LAYER_2
  6
AIGENLINE002
 40
0.1305
 41
0.1305
 66
1
 10
0
 20
0
 30
0
 70
128
  0
VERTEX
  8
LAYER_2
 10
23.0865
 20
102.8164
  0
VERTEX
  8
LAYER_2
 10
23.0875
 20
102.8084
  0
SEQEND
  0
POLYLINE
  8
LAYER_2
  6
AIGENLINE017
 40
0.1305
 41
0.1305
 66
1
 10
0
 20
0
 30
0
 70
128
  0
VERTEX
  8
LAYER_2
 10
23.0875
 20
102.8084
  0
VERTEX
  8
LAYER_2
 10
23.1574
 20
102.2856
  0
SEQEND
  0
POLYLINE
  8
LAYER_2
  6
AIGENLINE004
 40
0.1305
 41
0.1305
 66
1
 10
0
 20
0
 30
0
 70
128
  0
VERTEX
  8
LAYER_2
 10
23.1574
 20
102.2851
  0
VERTEX
  8
LAYER_2
 10
23.1588
 20
102.2752
  0
SEQEND
  0
POLYLINE
  8
LAYER_2
  6
AIGENLINE018
 40
0.1305
 41
0.1305
 66
1
 10
0
 20
0
 30
0
 70
128
  0
VERTEX
  8
LAYER_2
 10
23.1592
 20
102.2752
  0
VERTEX
  8
LAYER_2
 10
23.1611
 20
102.2649
  0
SEQEND
  0
INSERT
  8
LAYER_2
  2
AIGNBL02010033
 10
0
 20
0
 30
0
  0
POLYLINE
  8
LAYER_2
  6
AIGENLINE018
 40
0.1305
 41
0.1305
 66
1
 10
0
 20
0
 30
0
 70
128
  0
VERTEX
  8
LAYER_2
 10
23.1756
 20
102.2162
  0
VERTEX
  8
LAYER_2
 10
23.1794
 20
102.2068
  0
SEQEND
  0
INSERT
  8
LAYER_2
  2
AIGNBL02010034
 10
0
 20
0
 30
0
  0
POLYLINE
  8
LAYER_2
 40
0.1305
 41
0.1305
 66
1
 10
0
 20
0
 30
0
  0
VERTEX
  8
LAYER_2
 10
34.487
 20
101.7566
  0
VERTEX
  8
LAYER_2
 10
34.5236
 20
101.4059
  0
SEQEND
  0
POLYLINE
  8
LAYER_2
  6
AIGENLINE019
 40
0.1305
 41
0.1305
 66
1
 10
0
 20
0
 30
0
 70
128
  0
VERTEX
  8
LAYER_2
 10
34.6005
 20
100.6758
  0
VERTEX
  8
LAYER_2
 10
35.3306
 20
93.7436
  0
SEQEND
  0
POLYLINE
  8
LAYER_2
 40
0.1305
 41
0.1305
 66
1
 10
0
 20
0
 30
0
  0
VERTEX
  8
LAYER_2
 10
35.3691
 20
93.3788
  0
VERTEX
  8
LAYER_2
 10
35.4056
 20
93.0281
  0
SEQEND
  0
INSERT
  8
LAYER_2
  2
AIGNBL02010035
 10
0
 20
0
 30
0
  0
INSERT
  8
LAYER_2
  2
AIGNBL02010036
 10
0
 20
0
 30
0
  0
POLYLINE
  8
LAYER_2
  6
AIGENLINE007
 40
0.1305
 41
0.1305
 66
1
 10
0
 20
0
 30
0
 70
128
  0
VERTEX
  8
LAYER_2
 10
35.4169
 20
92.9662
  0
VERTEX
  8
LAYER_2
 10
35.4202
 20
92.9535
  0
SEQEND
  0
POLYLINE
  8
LAYER_2
  6
AIGENLINE006
 40
0.1305
 41
0.1305
 66
1
 10
0
 20
0
 30
0
 70
128
  0
VERTEX
  8
LAYER_2
 10
35.4202
 20
92.9535
  0
VERTEX
  8
LAYER_2
 10
35.4239
 20
92.9413
  0
SEQEND
  0
INSERT
  8
LAYER_2
  2
AIGNBL02010037
 10
0
 20
0
 30
0
  0
INSERT
  8
LAYER_2
  2
AIGNBL02010038
 10
0
 20
0
 30
0
  0
POLYLINE
  8
LAYER_2
  6
AIGENLINE007
 40
0.1305
 41
0.1305
 66
1
 10
0
 20
0
 30
0
 70
128
  0
VERTEX
  8
LAYER_2
 10
35.4497
 20
92.8668
  0
VERTEX
  8
LAYER_2
 10
35.4549
 20
92.8546
  0
SEQEND
  0
INSERT
  8
LAYER_2
  2
AIGNBL02010039
 10
0
 20
0
 30
0
  0
POLYLINE
  8
LAYER_2
  6
AIGENLINE009
 40
0.1305
 41
0.1305
 66
1
 10
0
 20
0
 30
0
 70
128
  0
VERTEX
  8
LAYER_2
 10
35.5172
 20
92.7486
  0
VERTEX
  8
LAYER_2
 10
35.5252
 20
92.7373
  0
SEQEND
  0
POLYLINE
  8
LAYER_2
  6
AIGENLINE008
 40
0.1305
 41
0.1305
 66
1
 10
0
 20
0
 30
0
 70
128
  0
VERTEX
  8
LAYER_2
 10
35.5252
 20
92.7373
  0
VERTEX
  8
LAYER_2
 10
35.5336
 20
92.7266
  0
SEQEND
  0
INSERT
  8
LAYER_2
  2
AIGNBL0201003A
 10
0
 20
0
 30
0
  0
INSERT
  8
LAYER_2
  2
AIGNBL0201003B
 10
0
 20
0
 30
0
  0
INSERT
  8
LAYER_2
  2
AIGNBL0201003C
 10
0
 20
0
 30
0
  0
INSERT
  8
LAYER_2
  2
AIGNBL0201003D
 10
0
 20
0
 30
0
  0
POLYLINE
  8
LAYER_2
  6
AIGENLINE009
 40
0.1305
 41
0.1305
 66
1
 10
0
 20
0
 30
0
 70
128
  0
VERTEX
  8
LAYER_2
 10
35.6115
 20
92.6468
  0
VERTEX
  8
LAYER_2
 10
35.6223
 20
92.6379
  0
SEQEND
  0
POLYLINE
  8
LAYER_2
  6
AIGENLINE008
 40
0.1305
 41
0.1305
 66
1
 10
0
 20
0
 30
0
 70
128
  0
VERTEX
  8
LAYER_2
 10
35.6223
 20
92.6379
  0
VERTEX
  8
LAYER_2
 10
35.6331
 20
92.6295
  0
SEQEND
  0
POLYLINE
  8
LAYER_2
  6
AIGENLINE009
 40
0.1305
 41
0.1305
 66
1
 10
0
 20
0
 30
0
 70
128
  0
VERTEX
  8
LAYER_2
 10
35.6331
 20
92.6295
  0
VERTEX
  8
LAYER_2
 10
35.6438
 20
92.6211
  0
SEQEND
  0
POLYLINE
  8
LAYER_2
  6
AIGENLINE008
 40
0.1305
 41
0.1305
 66
1
 10
0
 20
0
 30
0
 70
128
  0
VERTEX
  8
LAYER_2
 10
35.6438
 20
92.6206
  0
VERTEX
  8
LAYER_2
 10
35.6551
 20
92.6126
  0
SEQEND
  0
POLYLINE
  8
LAYER_2
  6
AIGENLINE009
 40
0.1305
 41
0.1305
 66
1
 10
0
 20
0
 30
0
 70
128
  0
VERTEX
  8
LAYER_2
 10
35.6551
 20
92.6126
  0
VERTEX
  8
LAYER_2
 10
35.6668
 20
92.6046
  0
SEQEND
  0
INSERT
  8
LAYER_2
  2
AIGNBL0201003E
 10
0
 20
0
 30
0
  0
INSERT
  8
LAYER_2
  2
AIGNBL0201003F
 10
0
 20
0
 30
0
  0
INSERT
  8
LAYER_2
  2
AIGNBL02010040
 10
0
 20
0
 30
0
  0
INSERT
  8
LAYER_2
  2
AIGNBL02010041
 10
0
 20
0
 30
0
  0
POLYLINE
  8
LAYER_2
 40
0.1305
 41
0.1305
 66
1
 10
0
 20
0
 30
0
  0
VERTEX
  8
LAYER_2
 10
35.9763
 20
92.5034
  0
VERTEX
  8
LAYER_2
 10
36.3294
 20
92.5043
  0
SEQEND
  0
POLYLINE
  8
LAYER_2
  6
AIGENLINE020
 40
0.1305
 41
0.1305
 66
1
 10
0
 20
0
 30
0
 70
128
  0
VERTEX
  8
LAYER_2
 10
36.9779
 20
92.5062
  0
VERTEX
  8
LAYER_2
 10
43.141
 20
92.523
  0
SEQEND
  0
POLYLINE
  8
LAYER_2
 40
0.1305
 41
0.1305
 66
1
 10
0
 20
0
 30
0
  0
VERTEX
  8
LAYER_2
 10
43.465
 20
92.524
  0
VERTEX
  8
LAYER_2
 10
43.8181
 20
92.5249
  0
SEQEND
  0
POLYLINE
  8
LAYER_2
  6
AIGENLINE021
 40
0.1305
 41
0.1305
 66
1
 10
0
 20
0
 30
0
 70
128
  0
VERTEX
  8
LAYER_2
 10
34.487
 20
101.7566
 42
0.36741455
  0
VERTEX
  8
LAYER_2
 10
34.1883
 20
102.0248
  0
SEQEND
  0
POLYLINE
  8
LAYER_2
 40
0.1305
 41
0.1305
 66
1
 10
0
 20
0
 30
0
  0
VERTEX
  8
LAYER_2
 10
23.4551
 20
102.0253
  0
VERTEX
  8
LAYER_2
 10
23.8078
 20
102.0253
  0
SEQEND
  0
POLYLINE
  8
LAYER_2
  6
AIGENLINE022
 40
0.1305
 41
0.1305
 66
1
 10
0
 20
0
 30
0
 70
128
  0
VERTEX
  8
LAYER_2
 10
24.4764
 20
102.0253
  0
VERTEX
  8
LAYER_2
 10
33.5013
 20
102.0253
  0
SEQEND
  0
POLYLINE
  8
LAYER_2
 40
0.1305
 41
0.1305
 66
1
 10
0
 20
0
 30
0
  0
VERTEX
  8
LAYER_2
 10
33.8357
 20
102.0253
  0
VERTEX
  8
LAYER_2
 10
34.1888
 20
102.0253
  0
SEQEND
  0
POLYLINE
  8
LAYER_2
 40
0.1305
 41
0.1305
 66
1
 10
0
 20
0
 30
0
  0
VERTEX
  8
LAYER_2
 10
51.5971
 20
91.5467
  0
VERTEX
  8
LAYER_2
 10
51.9502
 20
91.5594
  0
SEQEND
  0
POLYLINE
  8
LAYER_2
  6
AIGENLINE023
 40
0.1305
 41
0.1305
 66
1
 10
0
 20
0
 30
0
 70
128
  0
VERTEX
  8
LAYER_2
 10
52.6751
 20
91.5861
  0
VERTEX
  8
LAYER_2
 10
63.9218
 20
91.996
  0
SEQEND
  0
POLYLINE
  8
LAYER_2
 40
0.1305
 41
0.1305
 66
1
 10
0
 20
0
 30
0
  0
VERTEX
  8
LAYER_2
 10
64.2847
 20
92.01
  0
VERTEX
  8
LAYER_2
 10
64.6378
 20
92.0227
  0
SEQEND
  0
POLYLINE
  8
LAYER_2
  6
AIGENLINE010
 40
0.1305
 41
0.1305
 66
1
 10
0
 20
0
 30
0
 70
128
  0
VERTEX
  8
LAYER_2
 10
64.6374
 20
92.0227
  0
VERTEX
  8
LAYER_2
 10
64.6439
 20
92.0232
  0
SEQEND
  0
POLYLINE
  8
LAYER_2
  6
AIGENLINE014
 40
0.1305
 41
0.1305
 66
1
 10
0
 20
0
 30
0
 70
128
  0
VERTEX
  8
LAYER_2
 10
64.6439
 20
92.0227
  0
VERTEX
  8
LAYER_2
 10
64.651
 20
92.0222
  0
SEQEND
  0
POLYLINE
  8
LAYER_2
  6
AIGENLINE010
 40
0.1305
 41
0.1305
 66
1
 10
0
 20
0
 30
0
 70
128
  0
VERTEX
  8
LAYER_2
 10
64.651
 20
92.0227
  0
VERTEX
  8
LAYER_2
 10
64.6575
 20
92.0222
  0
SEQEND
  0
POLYLINE
  8
LAYER_2
  6
AIGENLINE014
 40
0.1305
 41
0.1305
 66
1
 10
0
 20
0
 30
0
 70
128
  0
VERTEX
  8
LAYER_2
 10
64.6575
 20
92.0222
  0
VERTEX
  8
LAYER_2
 10
64.6646
 20
92.0218
  0
SEQEND
  0
INSERT
  8
LAYER_2
  2
AIGNBL02010042
 10
0
 20
0
 30
0
  0
POLYLINE
  8
LAYER_2
  6
AIGENLINE014
 40
0.1305
 41
0.1305
 66
1
 10
0
 20
0
 30
0
 70
128
  0
VERTEX
  8
LAYER_2
 10
64.7176
 20
92.0091
  0
VERTEX
  8
LAYER_2
 10
64.7241
 20
92.0063
  0
SEQEND
  0
INSERT
  8
LAYER_2
  2
AIGNBL02010043
 10
0
 20
0
 30
0
  0
POLYLINE
  8
LAYER_2
  6
AIGENLINE014
 40
0.1305
 41
0.1305
 66
1
 10
0
 20
0
 30
0
 70
128
  0
VERTEX
  8
LAYER_2
 10
64.7359
 20
92.0007
  0
VERTEX
  8
LAYER_2
 10
64.742
 20
91.9969
  0
SEQEND
  0
INSERT
  8
LAYER_2
  2
AIGNBL02010044
 10
0
 20
0
 30
0
  0
POLYLINE
  8
LAYER_2
  6
AIGENLINE014
 40
0.1305
 41
0.1305
 66
1
 10
0
 20
0
 30
0
 70
128
  0
VERTEX
  8
LAYER_2
 10
64.7593
 20
91.9866
  0
VERTEX
  8
LAYER_2
 10
64.7649
 20
91.9824
  0
SEQEND
  0
INSERT
  8
LAYER_2
  2
AIGNBL02010045
 10
0
 20
0
 30
0
  0
POLYLINE
  8
LAYER_2
  6
AIGENLINE014
 40
0.1305
 41
0.1305
 66
1
 10
0
 20
0
 30
0
 70
128
  0
VERTEX
  8
LAYER_2
 10
64.7752
 20
91.9744
  0
VERTEX
  8
LAYER_2
 10
64.7804
 20
91.9692
  0
SEQEND
  0
INSERT
  8
LAYER_2
  2
AIGNBL02010046
 10
0
 20
0
 30
0
  0
POLYLINE
  8
LAYER_2
  6
AIGENLINE014
 40
0.1305
 41
0.1305
 66
1
 10
0
 20
0
 30
0
 70
128
  0
VERTEX
  8
LAYER_2
 10
64.7992
 20
91.95
  0
VERTEX
  8
LAYER_2
 10
64.8034
 20
91.9444
  0
SEQEND
  0
POLYLINE
  8
LAYER_2
  6
AIGENLINE010
 40
0.1305
 41
0.1305
 66
1
 10
0
 20
0
 30
0
 70
128
  0
VERTEX
  8
LAYER_2
 10
64.8034
 20
91.9444
  0
VERTEX
  8
LAYER_2
 10
64.8071
 20
91.9392
  0
SEQEND
  0
POLYLINE
  8
LAYER_2
  6
AIGENLINE014
 40
0.1305
 41
0.1305
 66
1
 10
0
 20
0
 30
0
 70
128
  0
VERTEX
  8
LAYER_2
 10
64.8076
 20
91.9392
  0
VERTEX
  8
LAYER_2
 10
64.8114
 20
91.9331
  0
SEQEND
  0
INSERT
  8
LAYER_2
  2
AIGNBL02010047
 10
0
 20
0
 30
0
  0
POLYLINE
  8
LAYER_2
  6
AIGENLINE014
 40
0.1305
 41
0.1305
 66
1
 10
0
 20
0
 30
0
 70
128
  0
VERTEX
  8
LAYER_2
 10
64.8184
 20
91.9219
  0
VERTEX
  8
LAYER_2
 10
64.8217
 20
91.9153
  0
SEQEND
  0
INSERT
  8
LAYER_2
  2
AIGNBL02010048
 10
0
 20
0
 30
0
  0
POLYLINE
  8
LAYER_2
 40
0.1305
 41
0.1305
 66
1
 10
0
 20
0
 30
0
  0
VERTEX
  8
LAYER_2
 10
64.8278
 20
91.9036
  0
VERTEX
  8
LAYER_2
 10
64.9778
 20
91.5847
  0
SEQEND
  0
POLYLINE
  8
LAYER_2
 40
0.1305
 41
0.1305
 66
1
 10
0
 20
0
 30
0
  0
VERTEX
  8
LAYER_2
 10
64.9999
 20
91.5364
  0
VERTEX
  8
LAYER_2
 10
65.1499
 20
91.2171
  0
SEQEND
  0
POLYLINE
  8
LAYER_2
 40
0.1305
 41
0.1305
 66
1
 10
0
 20
0
 30
0
  0
VERTEX
  8
LAYER_2
 10
65.1494
 20
91.2171
  0
VERTEX
  8
LAYER_2
 10
65.2934
 20
90.8949
  0
SEQEND
  0
POLYLINE
  8
LAYER_2
 40
0.1305
 41
0.1305
 66
1
 10
0
 20
0
 30
0
  0
VERTEX
  8
LAYER_2
 10
65.315
 20
90.8471
  0
VERTEX
  8
LAYER_2
 10
65.4589
 20
90.525
  0
VERTEX
  8
LAYER_2
 10
65.812
 20
90.525
  0
SEQEND
  0
POLYLINE
  8
LAYER_2
  6
AIGENLINE024
 40
0.1305
 41
0.1305
 66
1
 10
0
 20
0
 30
0
 70
128
  0
VERTEX
  8
LAYER_2
 10
66.4254
 20
90.525
  0
VERTEX
  8
LAYER_2
 10
69.7993
 20
90.525
  0
SEQEND
  0
POLYLINE
  8
LAYER_2
 40
0.1305
 41
0.1305
 66
1
 10
0
 20
0
 30
0
  0
VERTEX
  8
LAYER_2
 10
70.106
 20
90.525
  0
VERTEX
  8
LAYER_2
 10
70.4591
 20
90.525
  0
VERTEX
  8
LAYER_2
 10
70.4591
 20
90.8781
  0
SEQEND
  0
POLYLINE
  8
LAYER_2
  6
AIGENLINE025
 40
0.1305
 41
0.1305
 66
1
 10
0
 20
0
 30
0
 70
128
  0
VERTEX
  8
LAYER_2
 10
70.4591
 20
91.5571
  0
VERTEX
  8
LAYER_2
 10
70.4591
 20
102.0872
  0
SEQEND
  0
POLYLINE
  8
LAYER_2
 40
0.1305
 41
0.1305
 66
1
 10
0
 20
0
 30
0
  0
VERTEX
  8
LAYER_2
 10
70.4586
 20
102.4267
  0
VERTEX
  8
LAYER_2
 10
70.4586
 20
102.7793
  0
SEQEND
  0
POLYLINE
  8
LAYER_2
  6
AIGENLINE002
 40
0.1305
 41
0.1305
 66
1
 10
0
 20
0
 30
0
 70
128
  0
VERTEX
  8
LAYER_2
 10
70.4591
 20
102.7751
  0
VERTEX
  8
LAYER_2
 10
70.4591
 20
102.7836
  0
SEQEND
  0
POLYLINE
  8
LAYER_2
  6
AIGENLINE015
 40
0.1305
 41
0.1305
 66
1
 10
0
 20
0
 30
0
 70
128
  0
VERTEX
  8
LAYER_2
 10
70.4586
 20
102.7836
  0
VERTEX
  8
LAYER_2
 10
70.4581
 20
102.7915
  0
SEQEND
  0
INSERT
  8
LAYER_2
  2
AIGNBL02010049
 10
0
 20
0
 30
0
  0
INSERT
  8
LAYER_2
  2
AIGNBL0201004A
 10
0
 20
0
 30
0
  0
POLYLINE
  8
LAYER_2
  6
AIGENLINE003
 40
0.1305
 41
0.1305
 66
1
 10
0
 20
0
 30
0
 70
128
  0
VERTEX
  8
LAYER_2
 10
70.4539
 20
102.8258
  0
VERTEX
  8
LAYER_2
 10
70.452
 20
102.8342
  0
SEQEND
  0
POLYLINE
  8
LAYER_2
  6
AIGENLINE002
 40
0.1305
 41
0.1305
 66
1
 10
0
 20
0
 30
0
 70
128
  0
VERTEX
  8
LAYER_2
 10
70.452
 20
102.8342
  0
VERTEX
  8
LAYER_2
 10
70.4497
 20
102.8422
  0
SEQEND
  0
POLYLINE
  8
LAYER_2
  6
AIGENLINE015
 40
0.1305
 41
0.1305
 66
1
 10
0
 20
0
 30
0
 70
128
  0
VERTEX
  8
LAYER_2
 10
70.4497
 20
102.8426
  0
VERTEX
  8
LAYER_2
 10
70.4473
 20
102.8506
  0
SEQEND
  0
POLYLINE
  8
LAYER_2
  6
AIGENLINE003
 40
0.1305
 41
0.1305
 66
1
 10
0
 20
0
 30
0
 70
128
  0
VERTEX
  8
LAYER_2
 10
70.4473
 20
102.8506
  0
VERTEX
  8
LAYER_2
 10
70.4445
 20
102.8586
  0
SEQEND
  0
INSERT
  8
LAYER_2
  2
AIGNBL0201004B
 10
0
 20
0
 30
0
  0
POLYLINE
  8
LAYER_2
  6
AIGENLINE003
 40
0.1305
 41
0.1305
 66
1
 10
0
 20
0
 30
0
 70
128
  0
VERTEX
  8
LAYER_2
 10
70.4347
 20
102.882
  0
VERTEX
  8
LAYER_2
 10
70.4309
 20
102.8905
  0
SEQEND
  0
POLYLINE
  8
LAYER_2
  6
AIGENLINE015
 40
0.1305
 41
0.1305
 66
1
 10
0
 20
0
 30
0
 70
128
  0
VERTEX
  8
LAYER_2
 10
70.4309
 20
102.89
  0
VERTEX
  8
LAYER_2
 10
70.4272
 20
102.8975
  0
SEQEND
  0
POLYLINE
  8
LAYER_2
  6
AIGENLINE003
 40
0.1305
 41
0.1305
 66
1
 10
0
 20
0
 30
0
 70
128
  0
VERTEX
  8
LAYER_2
 10
70.4267
 20
102.8975
  0
VERTEX
  8
LAYER_2
 10
70.4225
 20
102.905
  0
SEQEND
  0
INSERT
  8
LAYER_2
  2
AIGNBL0201004C
 10
0
 20
0
 30
0
  0
POLYLINE
  8
LAYER_2
  6
AIGENLINE003
 40
0.1305
 41
0.1305
 66
1
 10
0
 20
0
 30
0
 70
128
  0
VERTEX
  8
LAYER_2
 10
70.408
 20
102.9261
  0
VERTEX
  8
LAYER_2
 10
70.4028
 20
102.9331
  0
SEQEND
  0
INSERT
  8
LAYER_2
  2
AIGNBL0201004D
 10
0
 20
0
 30
0
  0
POLYLINE
  8
LAYER_2
  6
AIGENLINE003
 40
0.1305
 41
0.1305
 66
1
 10
0
 20
0
 30
0
 70
128
  0
VERTEX
  8
LAYER_2
 10
70.3793
 20
102.9575
  0
VERTEX
  8
LAYER_2
 10
70.3728
 20
102.9636
  0
SEQEND
  0
INSERT
  8
LAYER_2
  2
AIGNBL0201004E
 10
0
 20
0
 30
0
  0
POLYLINE
  8
LAYER_2
  6
AIGENLINE003
 40
0.1305
 41
0.1305
 66
1
 10
0
 20
0
 30
0
 70
128
  0
VERTEX
  8
LAYER_2
 10
70.2846
 20
103.0133
  0
VERTEX
  8
LAYER_2
 10
70.2767
 20
103.0161
  0
SEQEND
  0
INSERT
  8
LAYER_2
  2
AIGNBL0201004F
 10
0
 20
0
 30
0
  0
POLYLINE
  8
LAYER_2
  6
AIGENLINE016
 40
0.1305
 41
0.1305
 66
1
 10
0
 20
0
 30
0
 70
128
  0
VERTEX
  8
LAYER_2
 10
70.2091
 20
103.025
  0
VERTEX
  8
LAYER_2
 10
70.0778
 20
103.025
  0
SEQEND
  0
INSERT
  8
LAYER_2
  2
AIGNBL02010050
 10
0
 20
0
 30
0
  0
POLYLINE
  8
LAYER_2
  6
AIGENLINE003
 40
0.1305
 41
0.1305
 66
1
 10
0
 20
0
 30
0
 70
128
  0
VERTEX
  8
LAYER_2
 10
69.955
 20
102.9927
  0
VERTEX
  8
LAYER_2
 10
69.9475
 20
102.988
  0
SEQEND
  0
INSERT
  8
LAYER_2
  2
AIGNBL02010051
 10
0
 20
0
 30
0
  0
POLYLINE
  8
LAYER_2
  6
AIGENLINE003
 40
0.1305
 41
0.1305
 66
1
 10
0
 20
0
 30
0
 70
128
  0
VERTEX
  8
LAYER_2
 10
69.9132
 20
102.9632
  0
VERTEX
  8
LAYER_2
 10
69.9067
 20
102.9571
  0
SEQEND
  0
POLYLINE
  8
LAYER_2
  6
AIGENLINE002
 40
0.1305
 41
0.1305
 66
1
 10
0
 20
0
 30
0
 70
128
  0
VERTEX
  8
LAYER_2
 10
69.9067
 20
102.9575
  0
VERTEX
  8
LAYER_2
 10
69.9006
 20
102.9514
  0
SEQEND
  0
INSERT
  8
LAYER_2
  2
AIGNBL02010052
 10
0
 20
0
 30
0
  0
INSERT
  8
LAYER_2
  2
AIGNBL02010053
 10
0
 20
0
 30
0
  0
POLYLINE
  8
LAYER_2
  6
AIGENLINE003
 40
0.1305
 41
0.1305
 66
1
 10
0
 20
0
 30
0
 70
128
  0
VERTEX
  8
LAYER_2
 10
69.8729
 20
102.9186
  0
VERTEX
  8
LAYER_2
 10
69.8678
 20
102.9111
  0
SEQEND
  0
INSERT
  8
LAYER_2
  2
AIGNBL02010054
 10
0
 20
0
 30
0
  0
POLYLINE
  8
LAYER_2
  6
AIGENLINE003
 40
0.1305
 41
0.1305
 66
1
 10
0
 20
0
 30
0
 70
128
  0
VERTEX
  8
LAYER_2
 10
69.8556
 20
102.8895
  0
VERTEX
  8
LAYER_2
 10
69.8518
 20
102.8816
  0
SEQEND
  0
INSERT
  8
LAYER_2
  2
AIGNBL02010055
 10
0
 20
0
 30
0
  0
POLYLINE
  8
LAYER_2
  6
AIGENLINE003
 40
0.1305
 41
0.1305
 66
1
 10
0
 20
0
 30
0
 70
128
  0
VERTEX
  8
LAYER_2
 10
69.842
 20
102.8581
  0
VERTEX
  8
LAYER_2
 10
69.8391
 20
102.8501
  0
SEQEND
  0
INSERT
  8
LAYER_2
  2
AIGNBL02010056
 10
0
 20
0
 30
0
  0
POLYLINE
  8
LAYER_2
  6
AIGENLINE003
 40
0.1305
 41
0.1305
 66
1
 10
0
 20
0
 30
0
 70
128
  0
VERTEX
  8
LAYER_2
 10
69.8326
 20
102.8253
  0
VERTEX
  8
LAYER_2
 10
69.8312
 20
102.8168
  0
SEQEND
  0
POLYLINE
  8
LAYER_2
  6
AIGENLINE002
 40
0.1305
 41
0.1305
 66
1
 10
0
 20
0
 30
0
 70
128
  0
VERTEX
  8
LAYER_2
 10
69.8312
 20
102.8164
  0
VERTEX
  8
LAYER_2
 10
69.8298
 20
102.8084
  0
SEQEND
  0
POLYLINE
  8
LAYER_2
 40
0.1305
 41
0.1305
 66
1
 10
0
 20
0
 30
0
  0
VERTEX
  8
LAYER_2
 10
69.8298
 20
102.8084
  0
VERTEX
  8
LAYER_2
 10
69.7946
 20
102.4572
  0
SEQEND
  0
POLYLINE
  8
LAYER_2
  6
AIGENLINE026
 40
0.1305
 41
0.1305
 66
1
 10
0
 20
0
 30
0
 70
128
  0
VERTEX
  8
LAYER_2
 10
69.7191
 20
101.7008
  0
VERTEX
  8
LAYER_2
 10
69.0007
 20
94.5164
  0
SEQEND
  0
POLYLINE
  8
LAYER_2
 40
0.1305
 41
0.1305
 66
1
 10
0
 20
0
 30
0
  0
VERTEX
  8
LAYER_2
 10
68.9627
 20
94.138
  0
VERTEX
  8
LAYER_2
 10
68.9276
 20
93.7873
  0
SEQEND
  0
POLYLINE
  8
LAYER_2
  6
AIGENLINE005
 40
0.1305
 41
0.1305
 66
1
 10
0
 20
0
 30
0
 70
128
  0
VERTEX
  8
LAYER_2
 10
68.9276
 20
93.7873
  0
VERTEX
  8
LAYER_2
 10
68.9257
 20
93.7751
  0
SEQEND
  0
INSERT
  8
LAYER_2
  2
AIGNBL02010057
 10
0
 20
0
 30
0
  0
POLYLINE
  8
LAYER_2
  6
AIGENLINE007
 40
0.1305
 41
0.1305
 66
1
 10
0
 20
0
 30
0
 70
128
  0
VERTEX
  8
LAYER_2
 10
68.9196
 20
93.7376
  0
VERTEX
  8
LAYER_2
 10
68.9172
 20
93.7249
  0
SEQEND
  0
POLYLINE
  8
LAYER_2
  6
AIGENLINE006
 40
0.1305
 41
0.1305
 66
1
 10
0
 20
0
 30
0
 70
128
  0
VERTEX
  8
LAYER_2
 10
68.9168
 20
93.7249
  0
VERTEX
  8
LAYER_2
 10
68.9135
 20
93.7127
  0
SEQEND
  0
INSERT
  8
LAYER_2
  2
AIGNBL02010058
 10
0
 20
0
 30
0
  0
POLYLINE
  8
LAYER_2
  6
AIGENLINE008
 40
0.1305
 41
0.1305
 66
1
 10
0
 20
0
 30
0
 70
128
  0
VERTEX
  8
LAYER_2
 10
68.9032
 20
93.6747
  0
VERTEX
  8
LAYER_2
 10
68.899
 20
93.6621
  0
SEQEND
  0
POLYLINE
  8
LAYER_2
  6
AIGENLINE007
 40
0.1305
 41
0.1305
 66
1
 10
0
 20
0
 30
0
 70
128
  0
VERTEX
  8
LAYER_2
 10
68.899
 20
93.6621
  0
VERTEX
  8
LAYER_2
 10
68.8943
 20
93.6499
  0
SEQEND
  0
INSERT
  8
LAYER_2
  2
AIGNBL02010059
 10
0
 20
0
 30
0
  0
POLYLINE
  8
LAYER_2
  6
AIGENLINE009
 40
0.1305
 41
0.1305
 66
1
 10
0
 20
0
 30
0
 70
128
  0
VERTEX
  8
LAYER_2
 10
68.8544
 20
93.5641
  0
VERTEX
  8
LAYER_2
 10
68.8474
 20
93.5519
  0
SEQEND
  0
POLYLINE
  8
LAYER_2
  6
AIGENLINE008
 40
0.1305
 41
0.1305
 66
1
 10
0
 20
0
 30
0
 70
128
  0
VERTEX
  8
LAYER_2
 10
68.8474
 20
93.5519
  0
VERTEX
  8
LAYER_2
 10
68.8403
 20
93.5401
  0
SEQEND
  0
POLYLINE
  8
LAYER_2
  6
AIGENLINE009
 40
0.1305
 41
0.1305
 66
1
 10
0
 20
0
 30
0
 70
128
  0
VERTEX
  8
LAYER_2
 10
68.8403
 20
93.5401
  0
VERTEX
  8
LAYER_2
 10
68.8328
 20
93.5284
  0
SEQEND
  0
POLYLINE
  8
LAYER_2
  6
AIGENLINE008
 40
0.1305
 41
0.1305
 66
1
 10
0
 20
0
 30
0
 70
128
  0
VERTEX
  8
LAYER_2
 10
68.8328
 20
93.5284
  0
VERTEX
  8
LAYER_2
 10
68.8249
 20
93.5172
  0
SEQEND
  0
INSERT
  8
LAYER_2
  2
AIGNBL0201005A
 10
0
 20
0
 30
0
  0
POLYLINE
  8
LAYER_2
  6
AIGENLINE008
 40
0.1305
 41
0.1305
 66
1
 10
0
 20
0
 30
0
 70
128
  0
VERTEX
  8
LAYER_2
 10
68.763
 20
93.4412
  0
VERTEX
  8
LAYER_2
 10
68.7531
 20
93.4318
  0
SEQEND
  0
POLYLINE
  8
LAYER_2
  6
AIGENLINE009
 40
0.1305
 41
0.1305
 66
1
 10
0
 20
0
 30
0
 70
128
  0
VERTEX
  8
LAYER_2
 10
68.7531
 20
93.4318
  0
VERTEX
  8
LAYER_2
 10
68.7428
 20
93.422
  0
SEQEND
  0
POLYLINE
  8
LAYER_2
  6
AIGENLINE008
 40
0.1305
 41
0.1305
 66
1
 10
0
 20
0
 30
0
 70
128
  0
VERTEX
  8
LAYER_2
 10
68.7428
 20
93.4215
  0
VERTEX
  8
LAYER_2
 10
68.7325
 20
93.4121
  0
SEQEND
  0
INSERT
  8
LAYER_2
  2
AIGNBL0201005B
 10
0
 20
0
 30
0
  0
POLYLINE
  8
LAYER_2
  6
AIGENLINE008
 40
0.1305
 41
0.1305
 66
1
 10
0
 20
0
 30
0
 70
128
  0
VERTEX
  8
LAYER_2
 10
68.7001
 20
93.3849
  0
VERTEX
  8
LAYER_2
 10
68.6889
 20
93.377
  0
SEQEND
  0
INSERT
  8
LAYER_2
  2
AIGNBL0201005C
 10
0
 20
0
 30
0
  0
POLYLINE
  8
LAYER_2
  6
AIGENLINE008
 40
0.1305
 41
0.1305
 66
1
 10
0
 20
0
 30
0
 70
128
  0
VERTEX
  8
LAYER_2
 10
68.6542
 20
93.353
  0
VERTEX
  8
LAYER_2
 10
68.6425
 20
93.3455
  0
SEQEND
  0
POLYLINE
  8
LAYER_2
  6
AIGENLINE009
 40
0.1305
 41
0.1305
 66
1
 10
0
 20
0
 30
0
 70
128
  0
VERTEX
  8
LAYER_2
 10
68.6425
 20
93.346
  0
VERTEX
  8
LAYER_2
 10
68.6303
 20
93.3385
  0
SEQEND
  0
INSERT
  8
LAYER_2
  2
AIGNBL0201005D
 10
0
 20
0
 30
0
  0
POLYLINE
  8
LAYER_2
  6
AIGENLINE007
 40
0.1305
 41
0.1305
 66
1
 10
0
 20
0
 30
0
 70
128
  0
VERTEX
  8
LAYER_2
 10
68.4929
 20
93.2813
  0
VERTEX
  8
LAYER_2
 10
68.4802
 20
93.2775
  0
SEQEND
  0
POLYLINE
  8
LAYER_2
  6
AIGENLINE008
 40
0.1305
 41
0.1305
 66
1
 10
0
 20
0
 30
0
 70
128
  0
VERTEX
  8
LAYER_2
 10
68.4802
 20
93.2775
  0
VERTEX
  8
LAYER_2
 10
68.4671
 20
93.2743
  0
SEQEND
  0
INSERT
  8
LAYER_2
  2
AIGNBL0201005E
 10
0
 20
0
 30
0
  0
INSERT
  8
LAYER_2
  2
AIGNBL0201005F
 10
0
 20
0
 30
0
  0
INSERT
  8
LAYER_2
  2
AIGNBL02010060
 10
0
 20
0
 30
0
  0
POLYLINE
  8
LAYER_2
 40
0.1305
 41
0.1305
 66
1
 10
0
 20
0
 30
0
  0
VERTEX
  8
LAYER_2
 10
68.3541
 20
93.2597
  0
VERTEX
  8
LAYER_2
 10
68.0014
 20
93.2442
  0
SEQEND
  0
POLYLINE
  8
LAYER_2
  6
AIGENLINE027
 40
0.1305
 41
0.1305
 66
1
 10
0
 20
0
 30
0
 70
128
  0
VERTEX
  8
LAYER_2
 10
67.2812
 20
93.2128
  0
VERTEX
  8
LAYER_2
 10
51.7922
 20
92.5371
  0
SEQEND
  0
POLYLINE
  8
LAYER_2
 40
0.1305
 41
0.1305
 66
1
 10
0
 20
0
 30
0
  0
VERTEX
  8
LAYER_2
 10
51.4325
 20
92.5216
  0
VERTEX
  8
LAYER_2
 10
51.0799
 20
92.5062
  0
SEQEND
  0
POLYLINE
  8
LAYER_2
 40
0.1305
 41
0.1305
 66
1
 10
0
 20
0
 30
0
  0
VERTEX
  8
LAYER_2
 10
22.4587
 20
90.525
  0
VERTEX
  8
LAYER_2
 10
22.4587
 20
90.8781
  0
SEQEND
  0
POLYLINE
  8
LAYER_2
  6
AIGENLINE028
 40
0.1305
 41
0.1305
 66
1
 10
0
 20
0
 30
0
 70
128
  0
VERTEX
  8
LAYER_2
 10
22.4587
 20
91.5566
  0
VERTEX
  8
LAYER_2
 10
22.4587
 20
102.083
  0
SEQEND
  0
POLYLINE
  8
LAYER_2
 40
0.1305
 41
0.1305
 66
1
 10
0
 20
0
 30
0
  0
VERTEX
  8
LAYER_2
 10
22.4587
 20
102.4225
  0
VERTEX
  8
LAYER_2
 10
22.4587
 20
102.7751
  0
SEQEND
  0
POLYLINE
  8
LAYER_2
 40
0.1305
 41
0.1305
 66
1
 10
0
 20
0
 30
0
  0
VERTEX
  8
LAYER_2
 10
22.7086
 20
103.0251
  0
VERTEX
  8
LAYER_2
 10
23.0617
 20
103.0251
  0
SEQEND
  0
POLYLINE
  8
LAYER_2
  6
AIGENLINE029
 40
0.1305
 41
0.1305
 66
1
 10
0
 20
0
 30
0
 70
128
  0
VERTEX
  8
LAYER_2
 10
23.759
 20
103.025
  0
VERTEX
  8
LAYER_2
 10
69.442
 20
103.025
  0
SEQEND
  0
POLYLINE
  8
LAYER_2
 40
0.1305
 41
0.1305
 66
1
 10
0
 20
0
 30
0
  0
VERTEX
  8
LAYER_2
 10
69.7904
 20
103.025
  0
VERTEX
  8
LAYER_2
 10
70.1435
 20
103.025
  0
SEQEND
  0
POLYLINE
  8
LAYER_2
 40
0.1305
 41
0.1305
 66
1
 10
0
 20
0
 30
0
  0
VERTEX
  8
LAYER_2
 10
25.4316
 20
90.525
  0
VERTEX
  8
LAYER_2
 10
25.4316
 20
90.878
  0
SEQEND
  0
POLYLINE
  8
LAYER_2
  6
AIGENLINE030
 40
0.1305
 41
0.1305
 66
1
 10
0
 20
0
 30
0
 70
128
  0
VERTEX
  8
LAYER_2
 10
25.4316
 20
91.6157
  0
VERTEX
  8
LAYER_2
 10
25.4316
 20
100.1037
  0
SEQEND
  0
POLYLINE
  8
LAYER_2
 40
0.1305
 41
0.1305
 66
1
 10
0
 20
0
 30
0
  0
VERTEX
  8
LAYER_2
 10
25.4316
 20
100.4722
  0
VERTEX
  8
LAYER_2
 10
25.4316
 20
100.8253
  0
SEQEND
  0
POLYLINE
  8
LAYER_2
  6
AIGENLINE031
 40
0.1305
 41
0.1305
 66
1
 10
0
 20
0
 30
0
 70
128
  0
VERTEX
  8
LAYER_2
 10
65.8406
 20
92.0987
  0
VERTEX
  8
LAYER_2
 10
65.993
 20
91.7704
  0
SEQEND
  0
POLYLINE
  8
LAYER_2
  6
AIGENLINE032
 40
0.1305
 41
0.1305
 66
1
 10
0
 20
0
 30
0
 70
128
  0
VERTEX
  8
LAYER_2
 10
65.993
 20
91.7709
  0
VERTEX
  8
LAYER_2
 10
66.1065
 20
91.5252
  0
SEQEND
  0
POLYLINE
  8
LAYER_2
 40
0.1305
 41
0.1305
 66
1
 10
0
 20
0
 30
0
  0
VERTEX
  8
LAYER_2
 10
66.107
 20
91.5252
  0
VERTEX
  8
LAYER_2
 10
66.4601
 20
91.5252
  0
SEQEND
  0
POLYLINE
  8
LAYER_2
  6
AIGENLINE033
 40
0.1305
 41
0.1305
 66
1
 10
0
 20
0
 30
0
 70
128
  0
VERTEX
  8
LAYER_2
 10
67.3417
 20
91.5252
  0
VERTEX
  8
LAYER_2
 10
68.665
 20
91.5252
  0
SEQEND
  0
POLYLINE
  8
LAYER_2
 40
0.1305
 41
0.1305
 66
1
 10
0
 20
0
 30
0
  0
VERTEX
  8
LAYER_2
 10
69.1062
 20
91.5252
  0
VERTEX
  8
LAYER_2
 10
69.4593
 20
91.5252
  0
SEQEND
  0
POLYLINE
  8
LAYER_2
 40
0.1305
 41
0.1305
 66
1
 10
0
 20
0
 30
0
  0
VERTEX
  8
LAYER_2
 10
69.4588
 20
91.5252
  0
VERTEX
  8
LAYER_2
 10
69.4588
 20
91.8783
  0
SEQEND
  0
POLYLINE
  8
LAYER_2
 40
0.1305
 41
0.1305
 66
1
 10
0
 20
0
 30
0
  0
VERTEX
  8
LAYER_2
 10
69.4588
 20
92.3707
  0
VERTEX
  8
LAYER_2
 10
69.4588
 20
92.7233
  0
SEQEND
  0
POLYLINE
  8
LAYER_2
 40
0.1305
 41
0.1305
 66
1
 10
0
 20
0
 30
0
  0
VERTEX
  8
LAYER_2
 10
68.4071
 20
92.2609
 42
0.05495383449
  0
VERTEX
  8
LAYER_2
 10
68.7564
 20
92.3162
  0
SEQEND
  0
POLYLINE
  8
LAYER_2
 40
0.1305
 41
0.1305
 66
1
 10
0
 20
0
 30
0
  0
VERTEX
  8
LAYER_2
 10
69.1822
 20
92.5034
 42
0.05496400663
  0
VERTEX
  8
LAYER_2
 10
69.4588
 20
92.7233
  0
SEQEND
  0
POLYLINE
  8
LAYER_2
 40
0.1305
 41
0.1305
 66
1
 10
0
 20
0
 30
0
  0
VERTEX
  8
LAYER_2
 10
68.4071
 20
92.2609
  0
VERTEX
  8
LAYER_2
 10
68.0549
 20
92.2389
  0
SEQEND
  0
POLYLINE
  8
LAYER_2
  6
AIGENLINE034
 40
0.1305
 41
0.1305
 66
1
 10
0
 20
0
 30
0
 70
128
  0
VERTEX
  8
LAYER_2
 10
67.434
 20
92.1995
  0
VERTEX
  8
LAYER_2
 10
66.5028
 20
92.1409
  0
SEQEND
  0
POLYLINE
  8
LAYER_2
 40
0.1305
 41
0.1305
 66
1
 10
0
 20
0
 30
0
  0
VERTEX
  8
LAYER_2
 10
66.1923
 20
92.1212
  0
VERTEX
  8
LAYER_2
 10
65.8406
 20
92.0991
  0
SEQEND
  0
POLYLINE
  8
LAYER_2
 40
0.1305
 41
0.1305
 66
1
 10
0
 20
0
 30
0
  0
VERTEX
  8
LAYER_2
 10
51.0095
 20
87.5248
  0
VERTEX
  8
LAYER_2
 10
51.0105
 20
87.8779
  0
SEQEND
  0
POLYLINE
  8
LAYER_2
  6
AIGENLINE035
 40
0.1305
 41
0.1305
 66
1
 10
0
 20
0
 30
0
 70
128
  0
VERTEX
  8
LAYER_2
 10
51.0133
 20
88.7876
  0
VERTEX
  8
LAYER_2
 10
51.017
 20
90.1526
  0
SEQEND
  0
POLYLINE
  8
LAYER_2
 40
0.1305
 41
0.1305
 66
1
 10
0
 20
0
 30
0
  0
VERTEX
  8
LAYER_2
 10
51.0184
 20
90.6075
  0
VERTEX
  8
LAYER_2
 10
51.0194
 20
90.9601
  0
SEQEND
  0
POLYLINE
  8
LAYER_2
  6
AIGENLINE007
 40
0.1305
 41
0.1305
 66
1
 10
0
 20
0
 30
0
 70
128
  0
VERTEX
  8
LAYER_2
 10
51.0194
 20
90.9601
  0
VERTEX
  8
LAYER_2
 10
51.0198
 20
90.9733
  0
SEQEND
  0
INSERT
  8
LAYER_2
  2
AIGNBL02010061
 10
0
 20
0
 30
0
  0
POLYLINE
  8
LAYER_2
  6
AIGENLINE009
 40
0.1305
 41
0.1305
 66
1
 10
0
 20
0
 30
0
 70
128
  0
VERTEX
  8
LAYER_2
 10
51.0264
 20
91.0403
  0
VERTEX
  8
LAYER_2
 10
51.0288
 20
91.0539
  0
SEQEND
  0
POLYLINE
  8
LAYER_2
  6
AIGENLINE008
 40
0.1305
 41
0.1305
 66
1
 10
0
 20
0
 30
0
 70
128
  0
VERTEX
  8
LAYER_2
 10
51.0288
 20
91.0544
  0
VERTEX
  8
LAYER_2
 10
51.0316
 20
91.0675
  0
SEQEND
  0
INSERT
  8
LAYER_2
  2
AIGNBL02010062
 10
0
 20
0
 30
0
  0
POLYLINE
  8
LAYER_2
  6
AIGENLINE011
 40
0.1305
 41
0.1305
 66
1
 10
0
 20
0
 30
0
 70
128
  0
VERTEX
  8
LAYER_2
 10
51.0414
 20
91.1088
  0
VERTEX
  8
LAYER_2
 10
51.0456
 20
91.1224
  0
SEQEND
  0
POLYLINE
  8
LAYER_2
  6
AIGENLINE009
 40
0.1305
 41
0.1305
 66
1
 10
0
 20
0
 30
0
 70
128
  0
VERTEX
  8
LAYER_2
 10
51.0452
 20
91.1228
  0
VERTEX
  8
LAYER_2
 10
51.0494
 20
91.1364
  0
SEQEND
  0
INSERT
  8
LAYER_2
  2
AIGNBL02010063
 10
0
 20
0
 30
0
  0
INSERT
  8
LAYER_2
  2
AIGNBL02010064
 10
0
 20
0
 30
0
  0
POLYLINE
  8
LAYER_2
  6
AIGENLINE011
 40
0.1305
 41
0.1305
 66
1
 10
0
 20
0
 30
0
 70
128
  0
VERTEX
  8
LAYER_2
 10
51.0705
 20
91.1904
  0
VERTEX
  8
LAYER_2
 10
51.0766
 20
91.2035
  0
SEQEND
  0
INSERT
  8
LAYER_2
  2
AIGNBL02010065
 10
0
 20
0
 30
0
  0
POLYLINE
  8
LAYER_2
  6
AIGENLINE011
 40
0.1305
 41
0.1305
 66
1
 10
0
 20
0
 30
0
 70
128
  0
VERTEX
  8
LAYER_2
 10
51.3429
 20
91.4797
  0
VERTEX
  8
LAYER_2
 10
51.3556
 20
91.4863
  0
SEQEND
  0
INSERT
  8
LAYER_2
  2
AIGNBL02010066
 10
0
 20
0
 30
0
  0
INSERT
  8
LAYER_2
  2
AIGNBL02010067
 10
0
 20
0
 30
0
  0
INSERT
  8
LAYER_2
  2
AIGNBL02010068
 10
0
 20
0
 30
0
  0
POLYLINE
  8
LAYER_2
  6
AIGENLINE008
 40
0.1305
 41
0.1305
 66
1
 10
0
 20
0
 30
0
 70
128
  0
VERTEX
  8
LAYER_2
 10
51.477
 20
91.5299
  0
VERTEX
  8
LAYER_2
 10
51.4906
 20
91.5331
  0
SEQEND
  0
POLYLINE
  8
LAYER_2
  6
AIGENLINE009
 40
0.1305
 41
0.1305
 66
1
 10
0
 20
0
 30
0
 70
128
  0
VERTEX
  8
LAYER_2
 10
51.4906
 20
91.5331
  0
VERTEX
  8
LAYER_2
 10
51.5042
 20
91.5364
  0
SEQEND
  0
INSERT
  8
LAYER_2
  2
AIGNBL02010069
 10
0
 20
0
 30
0
  0
INSERT
  8
LAYER_2
  2
AIGNBL0201006A
 10
0
 20
0
 30
0
  0
POLYLINE
  8
LAYER_2
 40
0.1305
 41
0.1305
 66
1
 10
0
 20
0
 30
0
  0
VERTEX
  8
LAYER_2
 10
65.4589
 20
90.525
  0
VERTEX
  8
LAYER_2
 10
65.1058
 20
90.525
  0
SEQEND
  0
POLYLINE
  8
LAYER_2
  6
AIGENLINE036
 40
0.1305
 41
0.1305
 66
1
 10
0
 20
0
 30
0
 70
128
  0
VERTEX
  8
LAYER_2
 10
64.3837
 20
90.525
  0
VERTEX
  8
LAYER_2
 10
51.742
 20
90.525
  0
SEQEND
  0
POLYLINE
  8
LAYER_2
 40
0.1305
 41
0.1305
 66
1
 10
0
 20
0
 30
0
  0
VERTEX
  8
LAYER_2
 10
51.3804
 20
90.525
  0
VERTEX
  8
LAYER_2
 10
51.0273
 20
90.525
  0
SEQEND
  0
POLYLINE
  8
LAYER_2
 40
0.1305
 41
0.1305
 66
1
 10
0
 20
0
 30
0
  0
VERTEX
  8
LAYER_2
 10
23.4589
 20
90.525
  0
VERTEX
  8
LAYER_2
 10
23.8115
 20
90.525
  0
SEQEND
  0
POLYLINE
  8
LAYER_2
  6
AIGENLINE037
 40
0.1305
 41
0.1305
 66
1
 10
0
 20
0
 30
0
 70
128
  0
VERTEX
  8
LAYER_2
 10
24.4741
 20
90.525
  0
VERTEX
  8
LAYER_2
 10
32.0969
 20
90.525
  0
SEQEND
  0
POLYLINE
  8
LAYER_2
 40
0.1305
 41
0.1305
 66
1
 10
0
 20
0
 30
0
  0
VERTEX
  8
LAYER_2
 10
32.4284
 20
90.525
  0
VERTEX
  8
LAYER_2
 10
32.7815
 20
90.525
  0
SEQEND
  0
POLYLINE
  8
LAYER_2
 40
0.1305
 41
0.1305
 66
1
 10
0
 20
0
 30
0
  0
VERTEX
  8
LAYER_2
 10
43.9091
 20
89.3531
  0
VERTEX
  8
LAYER_2
 10
43.5569
 20
89.3752
  0
SEQEND
  0
POLYLINE
  8
LAYER_2
  6
AIGENLINE038
 40
0.1305
 41
0.1305
 66
1
 10
0
 20
0
 30
0
 70
128
  0
VERTEX
  8
LAYER_2
 10
42.8756
 20
89.4169
  0
VERTEX
  8
LAYER_2
 10
35.0427
 20
89.8966
  0
SEQEND
  0
POLYLINE
  8
LAYER_2
 40
0.1305
 41
0.1305
 66
1
 10
0
 20
0
 30
0
  0
VERTEX
  8
LAYER_2
 10
34.7027
 20
89.9177
  0
VERTEX
  8
LAYER_2
 10
34.3506
 20
89.9397
  0
SEQEND
  0
POLYLINE
  8
LAYER_2
 40
0.1305
 41
0.1305
 66
1
 10
0
 20
0
 30
0
  0
VERTEX
  8
LAYER_2
 10
33.7897
 20
90.4823
 42
0.1484625529
  0
VERTEX
  8
LAYER_2
 10
33.922
 20
90.1587
  0
SEQEND
  0
POLYLINE
  8
LAYER_2
 40
0.1305
 41
0.1305
 66
1
 10
0
 20
0
 30
0
  0
VERTEX
  8
LAYER_2
 10
34.0232
 20
90.0612
 42
0.1480901438
  0
VERTEX
  8
LAYER_2
 10
34.3501
 20
89.9393
  0
SEQEND
  0
POLYLINE
  8
LAYER_2
 40
0.1305
 41
0.1305
 66
1
 10
0
 20
0
 30
0
  0
VERTEX
  8
LAYER_2
 10
33.7897
 20
90.4823
  0
VERTEX
  8
LAYER_2
 10
33.756
 20
90.8335
  0
SEQEND
  0
POLYLINE
  8
LAYER_2
  6
AIGENLINE039
 40
0.1305
 41
0.1305
 66
1
 10
0
 20
0
 30
0
 70
128
  0
VERTEX
  8
LAYER_2
 10
33.687
 20
91.558
  0
VERTEX
  8
LAYER_2
 10
32.8903
 20
99.8931
  0
SEQEND
  0
POLYLINE
  8
LAYER_2
 40
0.1305
 41
0.1305
 66
1
 10
0
 20
0
 30
0
  0
VERTEX
  8
LAYER_2
 10
32.8561
 20
100.2556
  0
VERTEX
  8
LAYER_2
 10
32.8223
 20
100.6063
  0
SEQEND
  0
POLYLINE
  8
LAYER_2
 40
0.1305
 41
0.1305
 66
1
 10
0
 20
0
 30
0
  0
VERTEX
  8
LAYER_2
 10
43.9091
 20
88.3506
  0
VERTEX
  8
LAYER_2
 10
43.5569
 20
88.3726
  0
SEQEND
  0
POLYLINE
  8
LAYER_2
  6
AIGENLINE040
 40
0.1305
 41
0.1305
 66
1
 10
0
 20
0
 30
0
 70
128
  0
VERTEX
  8
LAYER_2
 10
42.8052
 20
88.4186
  0
VERTEX
  8
LAYER_2
 10
34.1625
 20
88.9489
  0
SEQEND
  0
POLYLINE
  8
LAYER_2
 40
0.1305
 41
0.1305
 66
1
 10
0
 20
0
 30
0
  0
VERTEX
  8
LAYER_2
 10
33.7864
 20
88.9719
  0
VERTEX
  8
LAYER_2
 10
33.4347
 20
88.9939
  0
SEQEND
  0
POLYLINE
  8
LAYER_2
 40
0.1305
 41
0.1305
 66
1
 10
0
 20
0
 30
0
  0
VERTEX
  8
LAYER_2
 10
32.8739
 20
89.536
 42
0.1477004254
  0
VERTEX
  8
LAYER_2
 10
33.0062
 20
89.2134
  0
SEQEND
  0
POLYLINE
  8
LAYER_2
 40
0.1305
 41
0.1305
 66
1
 10
0
 20
0
 30
0
  0
VERTEX
  8
LAYER_2
 10
33.107
 20
89.1154
 42
0.1485198192
  0
VERTEX
  8
LAYER_2
 10
33.4343
 20
88.9939
  0
SEQEND
  0
POLYLINE
  8
LAYER_2
 40
0.1305
 41
0.1305
 66
1
 10
0
 20
0
 30
0
  0
VERTEX
  8
LAYER_2
 10
32.8739
 20
89.536
  0
VERTEX
  8
LAYER_2
 10
32.8401
 20
89.8872
  0
SEQEND
  0
POLYLINE
  8
LAYER_2
  6
AIGENLINE041
 40
0.1305
 41
0.1305
 66
1
 10
0
 20
0
 30
0
 70
128
  0
VERTEX
  8
LAYER_2
 10
32.7731
 20
90.5934
  0
VERTEX
  8
LAYER_2
 10
31.8643
 20
100.121
  0
SEQEND
  0
POLYLINE
  8
LAYER_2
 40
0.1305
 41
0.1305
 66
1
 10
0
 20
0
 30
0
  0
VERTEX
  8
LAYER_2
 10
31.831
 20
100.4741
  0
VERTEX
  8
LAYER_2
 10
31.7973
 20
100.8253
  0
SEQEND
  0
POLYLINE
  8
LAYER_2
 40
0.1305
 41
0.1305
 66
1
 10
0
 20
0
 30
0
  0
VERTEX
  8
LAYER_2
 10
45.1588
 20
91.4684
  0
VERTEX
  8
LAYER_2
 10
45.5119
 20
91.4684
  0
SEQEND
  0
POLYLINE
  8
LAYER_2
  6
AIGENLINE042
 40
0.1305
 41
0.1305
 66
1
 10
0
 20
0
 30
0
 70
128
  0
VERTEX
  8
LAYER_2
 10
46.2903
 20
91.4684
  0
VERTEX
  8
LAYER_2
 10
49.0166
 20
91.4684
  0
SEQEND
  0
POLYLINE
  8
LAYER_2
 40
0.1305
 41
0.1305
 66
1
 10
0
 20
0
 30
0
  0
VERTEX
  8
LAYER_2
 10
49.4058
 20
91.4684
  0
VERTEX
  8
LAYER_2
 10
49.7589
 20
91.4684
  0
SEQEND
  0
POLYLINE
  8
LAYER_2
 40
0.1305
 41
0.1305
 66
1
 10
0
 20
0
 30
0
  0
VERTEX
  8
LAYER_2
 10
43.8181
 20
92.5249
  0
VERTEX
  8
LAYER_2
 10
44.1708
 20
92.5249
  0
SEQEND
  0
POLYLINE
  8
LAYER_2
  6
AIGENLINE043
 40
0.1305
 41
0.1305
 66
1
 10
0
 20
0
 30
0
 70
128
  0
VERTEX
  8
LAYER_2
 10
44.9149
 20
92.5249
  0
VERTEX
  8
LAYER_2
 10
50.497
 20
92.5249
  0
SEQEND
  0
POLYLINE
  8
LAYER_2
 40
0.1305
 41
0.1305
 66
1
 10
0
 20
0
 30
0
  0
VERTEX
  8
LAYER_2
 10
50.8693
 20
92.5249
  0
VERTEX
  8
LAYER_2
 10
51.222
 20
92.5249
  0
SEQEND
  0
POLYLINE
  8
LAYER_2
  6
AIGENLINE044
 40
0.1305
 41
0.1305
 66
1
 10
0
 20
0
 30
0
 70
128
  0
VERTEX
  8
LAYER_2
 10
44.0648
 20
92.4264
 42
0.1705147326
  0
VERTEX
  8
LAYER_2
 10
43.8181
 20
92.5249
  0
SEQEND
  0
POLYLINE
  8
LAYER_2
 40
0.1305
 41
0.1305
 66
1
 10
0
 20
0
 30
0
  0
VERTEX
  8
LAYER_2
 10
44.0648
 20
92.4264
  0
VERTEX
  8
LAYER_2
 10
44.3302
 20
92.1939
  0
SEQEND
  0
POLYLINE
  8
LAYER_2
 40
0.1305
 41
0.1305
 66
1
 10
0
 20
0
 30
0
  0
VERTEX
  8
LAYER_2
 10
44.8934
 20
91.701
  0
VERTEX
  8
LAYER_2
 10
45.1588
 20
91.4684
  0
VERTEX
  8
LAYER_2
 10
45.1588
 20
91.1153
  0
SEQEND
  0
POLYLINE
  8
LAYER_2
  6
AIGENLINE045
 40
0.1305
 41
0.1305
 66
1
 10
0
 20
0
 30
0
 70
128
  0
VERTEX
  8
LAYER_2
 10
45.1588
 20
90.4678
  0
VERTEX
  8
LAYER_2
 10
45.1588
 20
88.2014
  0
SEQEND
  0
POLYLINE
  8
LAYER_2
 40
0.1305
 41
0.1305
 66
1
 10
0
 20
0
 30
0
  0
VERTEX
  8
LAYER_2
 10
45.1588
 20
87.8779
  0
VERTEX
  8
LAYER_2
 10
45.1588
 20
87.5248
  0
SEQEND
  0
POLYLINE
  8
LAYER_2
  6
AIGENLINE046
 40
0.1305
 41
0.1305
 66
1
 10
0
 20
0
 30
0
 70
128
  0
VERTEX
  8
LAYER_2
 10
51.0799
 20
92.5057
 42
0.1716894285
  0
VERTEX
  8
LAYER_2
 10
50.8309
 20
92.4072
  0
SEQEND
  0
POLYLINE
  8
LAYER_2
 40
0.1305
 41
0.1305
 66
1
 10
0
 20
0
 30
0
  0
VERTEX
  8
LAYER_2
 10
50.8309
 20
92.4072
  0
VERTEX
  8
LAYER_2
 10
50.5655
 20
92.1746
  0
SEQEND
  0
POLYLINE
  8
LAYER_2
 40
0.1305
 41
0.1305
 66
1
 10
0
 20
0
 30
0
  0
VERTEX
  8
LAYER_2
 10
50.0243
 20
91.701
  0
VERTEX
  8
LAYER_2
 10
49.7589
 20
91.4684
  0
VERTEX
  8
LAYER_2
 10
49.7589
 20
91.1153
  0
SEQEND
  0
POLYLINE
  8
LAYER_2
  6
AIGENLINE045
 40
0.1305
 41
0.1305
 66
1
 10
0
 20
0
 30
0
 70
128
  0
VERTEX
  8
LAYER_2
 10
49.7589
 20
90.4678
  0
VERTEX
  8
LAYER_2
 10
49.7589
 20
88.2014
  0
SEQEND
  0
POLYLINE
  8
LAYER_2
 40
0.1305
 41
0.1305
 66
1
 10
0
 20
0
 30
0
  0
VERTEX
  8
LAYER_2
 10
49.7589
 20
87.8779
  0
VERTEX
  8
LAYER_2
 10
49.7589
 20
87.5248
  0
SEQEND
  0
POLYLINE
  8
LAYER_2
 40
0.1305
 41
0.1305
 66
1
 10
0
 20
0
 30
0
  0
VERTEX
  8
LAYER_2
 10
23.6586
 20
100.8253
  0
VERTEX
  8
LAYER_2
 10
24.0117
 20
100.8253
  0
SEQEND
  0
POLYLINE
  8
LAYER_2
  6
AIGENLINE047
 40
0.1305
 41
0.1305
 66
1
 10
0
 20
0
 30
0
 70
128
  0
VERTEX
  8
LAYER_2
 10
24.687
 20
100.8253
  0
VERTEX
  8
LAYER_2
 10
31.107
 20
100.8253
  0
SEQEND
  0
POLYLINE
  8
LAYER_2
 40
0.1305
 41
0.1305
 66
1
 10
0
 20
0
 30
0
  0
VERTEX
  8
LAYER_2
 10
31.4446
 20
100.8253
  0
VERTEX
  8
LAYER_2
 10
31.7977
 20
100.8253
  0
SEQEND
  0
POLYLINE
  8
LAYER_2
  6
AIGENLINE048
 40
0.1305
 41
0.1305
 66
1
 10
0
 20
0
 30
0
 70
128
  0
VERTEX
  8
LAYER_2
 10
33.0216
 20
100.8253
 42
0.4141846002
  0
VERTEX
  8
LAYER_2
 10
32.8214
 20
100.6251
  0
VERTEX
  8
LAYER_2
 10
32.8228
 20
100.6063
  0
SEQEND
  0
POLYLINE
  8
LAYER_2
  6
AIGENLINE049
 40
0.1305
 41
0.1305
 66
1
 10
0
 20
0
 30
0
 70
128
  0
VERTEX
  8
LAYER_2
 10
33.0216
 20
100.8253
  0
VERTEX
  8
LAYER_2
 10
33.3785
 20
100.8253
  0
SEQEND
  0
POLYLINE
  8
LAYER_2
  6
AIGENLINE050
 40
0.1305
 41
0.1305
 66
1
 10
0
 20
0
 30
0
 70
128
  0
VERTEX
  8
LAYER_2
 10
33.5773
 20
100.6462
 42
0.3674082274
  0
VERTEX
  8
LAYER_2
 10
33.3785
 20
100.8249
  0
SEQEND
  0
POLYLINE
  8
LAYER_2
 40
0.1305
 41
0.1305
 66
1
 10
0
 20
0
 30
0
  0
VERTEX
  8
LAYER_2
 10
33.5773
 20
100.6542
  0
VERTEX
  8
LAYER_2
 10
33.6153
 20
100.3039
  0
SEQEND
  0
POLYLINE
  8
LAYER_2
  6
AIGENLINE051
 40
0.1305
 41
0.1305
 66
1
 10
0
 20
0
 30
0
 70
128
  0
VERTEX
  8
LAYER_2
 10
33.6837
 20
99.6657
  0
VERTEX
  8
LAYER_2
 10
34.3379
 20
93.6049
  0
SEQEND
  0
POLYLINE
  8
LAYER_2
 40
0.1305
 41
0.1305
 66
1
 10
0
 20
0
 30
0
  0
VERTEX
  8
LAYER_2
 10
34.3721
 20
93.2865
  0
VERTEX
  8
LAYER_2
 10
34.4101
 20
92.9357
 42
0.05478965093
  0
VERTEX
  8
LAYER_2
 10
34.4851
 20
92.5906
  0
SEQEND
  0
POLYLINE
  8
LAYER_2
  6
AIGENLINE052
 40
0.1305
 41
0.1305
 66
1
 10
0
 20
0
 30
0
 70
128
  0
VERTEX
  8
LAYER_2
 10
34.7299
 20
92.1315
 42
0.1232220783
  0
VERTEX
  8
LAYER_2
 10
35.3395
 20
91.6457
  0
SEQEND
  0
POLYLINE
  8
LAYER_2
 40
0.1305
 41
0.1305
 66
1
 10
0
 20
0
 30
0
  0
VERTEX
  8
LAYER_2
 10
35.5857
 20
91.5575
 42
0.05574693062
  0
VERTEX
  8
LAYER_2
 10
35.9346
 20
91.5045
  0
VERTEX
  8
LAYER_2
 10
36.2877
 20
91.5069
  0
SEQEND
  0
POLYLINE
  8
LAYER_2
  6
AIGENLINE053
 40
0.1305
 41
0.1305
 66
1
 10
0
 20
0
 30
0
 70
128
  0
VERTEX
  8
LAYER_2
 10
37.0136
 20
91.5111
  0
VERTEX
  8
LAYER_2
 10
42.4596
 20
91.5463
  0
SEQEND
  0
POLYLINE
  8
LAYER_2
 40
0.1305
 41
0.1305
 66
1
 10
0
 20
0
 30
0
  0
VERTEX
  8
LAYER_2
 10
42.8231
 20
91.5486
  0
VERTEX
  8
LAYER_2
 10
43.1762
 20
91.5509
  0
SEQEND
  0
POLYLINE
  8
LAYER_2
  6
AIGENLINE054
 40
0.1305
 41
0.1305
 66
1
 10
0
 20
0
 30
0
 70
128
  0
VERTEX
  8
LAYER_2
 10
43.9091
 20
90.8771
 42
0.2111603735
  0
VERTEX
  8
LAYER_2
 10
43.8411
 20
91.0276
  0
SEQEND
  0
POLYLINE
  8
LAYER_2
 40
0.1305
 41
0.1305
 66
1
 10
0
 20
0
 30
0
  0
VERTEX
  8
LAYER_2
 10
43.9091
 20
89.3531
  0
VERTEX
  8
LAYER_2
 10
43.9091
 20
89.7062
  0
SEQEND
  0
POLYLINE
  8
LAYER_2
 40
0.1305
 41
0.1305
 66
1
 10
0
 20
0
 30
0
  0
VERTEX
  8
LAYER_2
 10
43.9091
 20
90.5245
  0
VERTEX
  8
LAYER_2
 10
43.9091
 20
90.8771
  0
SEQEND
  0
POLYLINE
  8
LAYER_2
 40
0.1305
 41
0.1305
 66
1
 10
0
 20
0
 30
0
  0
VERTEX
  8
LAYER_2
 10
43.8406
 20
91.0276
  0
VERTEX
  8
LAYER_2
 10
43.5752
 20
91.2598
  0
SEQEND
  0
POLYLINE
  8
LAYER_2
 40
0.1305
 41
0.1305
 66
1
 10
0
 20
0
 30
0
  0
VERTEX
  8
LAYER_2
 10
43.5649
 20
91.2691
  0
VERTEX
  8
LAYER_2
 10
43.2995
 20
91.5013
  0
SEQEND
  0
POLYLINE
  8
LAYER_2
  6
AIGENLINE055
 40
0.1305
 41
0.1305
 66
1
 10
0
 20
0
 30
0
 70
128
  0
VERTEX
  8
LAYER_2
 10
43.2995
 20
91.5013
 42
0.1708963517
  0
VERTEX
  8
LAYER_2
 10
43.1762
 20
91.551
  0
SEQEND
  0
POLYLINE
  8
LAYER_2
 40
0.1305
 41
0.1305
 66
1
 10
0
 20
0
 30
0
  0
VERTEX
  8
LAYER_2
 10
43.9091
 20
87.5248
  0
VERTEX
  8
LAYER_2
 10
43.9091
 20
87.8779
  0
SEQEND
  0
POLYLINE
  8
LAYER_2
 40
0.1305
 41
0.1305
 66
1
 10
0
 20
0
 30
0
  0
VERTEX
  8
LAYER_2
 10
43.9091
 20
87.9979
  0
VERTEX
  8
LAYER_2
 10
43.9091
 20
88.351
  0
SEQEND
  0
POLYLINE
  8
LAYER_2
 40
0.1305
 41
0.1305
 66
1
 10
0
 20
0
 30
0
  0
VERTEX
  8
LAYER_2
 10
22.4587
 20
90.525
  0
VERTEX
  8
LAYER_2
 10
22.8118
 20
90.525
  0
SEQEND
  0
POLYLINE
  8
LAYER_2
 40
0.1305
 41
0.1305
 66
1
 10
0
 20
0
 30
0
  0
VERTEX
  8
LAYER_2
 10
23.1058
 20
90.525
  0
VERTEX
  8
LAYER_2
 10
23.4589
 20
90.525
  0
SEQEND
  0
POLYLINE
  8
LAYER_2
  6
AIGENLINE056
 40
0.1305
 41
0.1305
 66
1
 10
0
 20
0
 30
0
 70
128
  0
VERTEX
  8
LAYER_2
 10
23.6586
 20
100.8253
 42
0.4141720609
  0
VERTEX
  8
LAYER_2
 10
23.4584
 20
100.6251
  0
SEQEND
  0
POLYLINE
  8
LAYER_2
 40
0.1305
 41
0.1305
 66
1
 10
0
 20
0
 30
0
  0
VERTEX
  8
LAYER_2
 10
23.4589
 20
90.525
  0
VERTEX
  8
LAYER_2
 10
23.4589
 20
90.8781
  0
SEQEND
  0
POLYLINE
  8
LAYER_2
  6
AIGENLINE036
 40
0.1305
 41
0.1305
 66
1
 10
0
 20
0
 30
0
 70
128
  0
VERTEX
  8
LAYER_2
 10
23.4589
 20
91.6007
  0
VERTEX
  8
LAYER_2
 10
23.4589
 20
99.9109
  0
SEQEND
  0
POLYLINE
  8
LAYER_2
 40
0.1305
 41
0.1305
 66
1
 10
0
 20
0
 30
0
  0
VERTEX
  8
LAYER_2
 10
23.4589
 20
100.2725
  0
VERTEX
  8
LAYER_2
 10
23.4589
 20
100.6251
  0
SEQEND
  0
POLYLINE
  8
LAYER_2
 40
0.1305
 41
0.1305
 66
1
 10
0
 20
0
 30
0
  0
VERTEX
  8
LAYER_2
 10
51.0095
 20
87.5248
  0
VERTEX
  8
LAYER_2
 10
50.6564
 20
87.5248
  0
SEQEND
  0
POLYLINE
  8
LAYER_2
  6
AIGENLINE057
 40
0.1305
 41
0.1305
 66
1
 10
0
 20
0
 30
0
 70
128
  0
VERTEX
  8
LAYER_2
 10
49.946
 20
87.5248
  0
VERTEX
  8
LAYER_2
 10
44.6172
 20
87.5248
  0
SEQEND
  0
POLYLINE
  8
LAYER_2
 40
0.1305
 41
0.1305
 66
1
 10
0
 20
0
 30
0
  0
VERTEX
  8
LAYER_2
 10
44.2617
 20
87.5248
  0
VERTEX
  8
LAYER_2
 10
43.9086
 20
87.5248
  0
SEQEND
  0
INSERT
  8
LAYER_2
  2
AIGNBL0201006B
 10
0
 20
0
 30
0
  0
INSERT
  8
LAYER_2
  2
AIGNBL0201006C
 10
0
 20
0
 30
0
  0
POLYLINE
  8
LAYER_2
  6
AIGENLINE003
 40
0.1305
 41
0.1305
 66
1
 10
0
 20
0
 30
0
 70
128
  0
VERTEX
  8
LAYER_2
 10
174.719
 20
102.8975
  0
VERTEX
  8
LAYER_2
 10
174.7143
 20
102.905
  0
SEQEND
  0
INSERT
  8
LAYER_2
  2
AIGNBL0201006D
 10
0
 20
0
 30
0
  0
POLYLINE
  8
LAYER_2
  6
AIGENLINE003
 40
0.1305
 41
0.1305
 66
1
 10
0
 20
0
 30
0
 70
128
  0
VERTEX
  8
LAYER_2
 10
174.7003
 20
102.9261
  0
VERTEX
  8
LAYER_2
 10
174.6946
 20
102.9327
  0
SEQEND
  0
INSERT
  8
LAYER_2
  2
AIGNBL0201006E
 10
0
 20
0
 30
0
  0
POLYLINE
  8
LAYER_2
  6
AIGENLINE003
 40
0.1305
 41
0.1305
 66
1
 10
0
 20
0
 30
0
 70
128
  0
VERTEX
  8
LAYER_2
 10
174.6717
 20
102.9575
  0
VERTEX
  8
LAYER_2
 10
174.6651
 20
102.9632
  0
SEQEND
  0
INSERT
  8
LAYER_2
  2
AIGNBL0201006F
 10
0
 20
0
 30
0
  0
POLYLINE
  8
LAYER_2
  6
AIGENLINE003
 40
0.1305
 41
0.1305
 66
1
 10
0
 20
0
 30
0
 70
128
  0
VERTEX
  8
LAYER_2
 10
174.6454
 20
102.9791
  0
VERTEX
  8
LAYER_2
 10
174.6379
 20
102.9838
  0
SEQEND
  0
POLYLINE
  8
LAYER_2
  6
AIGENLINE015
 40
0.1305
 41
0.1305
 66
1
 10
0
 20
0
 30
0
 70
128
  0
VERTEX
  8
LAYER_2
 10
174.6379
 20
102.9838
  0
VERTEX
  8
LAYER_2
 10
174.6309
 20
102.9885
  0
SEQEND
  0
POLYLINE
  8
LAYER_2
  6
AIGENLINE003
 40
0.1305
 41
0.1305
 66
1
 10
0
 20
0
 30
0
 70
128
  0
VERTEX
  8
LAYER_2
 10
174.6309
 20
102.9885
  0
VERTEX
  8
LAYER_2
 10
174.6234
 20
102.9932
  0
SEQEND
  0
INSERT
  8
LAYER_2
  2
AIGNBL02010070
 10
0
 20
0
 30
0
  0
POLYLINE
  8
LAYER_2
  6
AIGENLINE003
 40
0.1305
 41
0.1305
 66
1
 10
0
 20
0
 30
0
 70
128
  0
VERTEX
  8
LAYER_2
 10
174.5929
 20
103.0072
  0
VERTEX
  8
LAYER_2
 10
174.5849
 20
103.011
  0
SEQEND
  0
POLYLINE
  8
LAYER_2
  6
AIGENLINE002
 40
0.1305
 41
0.1305
 66
1
 10
0
 20
0
 30
0
 70
128
  0
VERTEX
  8
LAYER_2
 10
174.5844
 20
103.0105
  0
VERTEX
  8
LAYER_2
 10
174.5765
 20
103.0129
  0
SEQEND
  0
POLYLINE
  8
LAYER_2
  6
AIGENLINE003
 40
0.1305
 41
0.1305
 66
1
 10
0
 20
0
 30
0
 70
128
  0
VERTEX
  8
LAYER_2
 10
174.5765
 20
103.0133
  0
VERTEX
  8
LAYER_2
 10
174.5685
 20
103.0157
  0
SEQEND
  0
INSERT
  8
LAYER_2
  2
AIGNBL02010071
 10
0
 20
0
 30
0
  0
POLYLINE
  8
LAYER_2
  6
AIGENLINE003
 40
0.1305
 41
0.1305
 66
1
 10
0
 20
0
 30
0
 70
128
  0
VERTEX
  8
LAYER_2
 10
174.5436
 20
103.0213
  0
VERTEX
  8
LAYER_2
 10
174.5352
 20
103.0227
  0
SEQEND
  0
INSERT
  8
LAYER_2
  2
AIGNBL02010072
 10
0
 20
0
 30
0
  0
POLYLINE
  8
LAYER_2
  6
AIGENLINE058
 40
0.1305
 41
0.1305
 66
1
 10
0
 20
0
 30
0
 70
128
  0
VERTEX
  8
LAYER_2
 10
174.501
 20
103.025
  0
VERTEX
  8
LAYER_2
 10
174.3701
 20
103.025
  0
SEQEND
  0
INSERT
  8
LAYER_2
  2
AIGNBL02010073
 10
0
 20
0
 30
0
  0
POLYLINE
  8
LAYER_2
  6
AIGENLINE003
 40
0.1305
 41
0.1305
 66
1
 10
0
 20
0
 30
0
 70
128
  0
VERTEX
  8
LAYER_2
 10
174.3359
 20
103.0227
  0
VERTEX
  8
LAYER_2
 10
174.3275
 20
103.0208
  0
SEQEND
  0
POLYLINE
  8
LAYER_2
  6
AIGENLINE002
 40
0.1305
 41
0.1305
 66
1
 10
0
 20
0
 30
0
 70
128
  0
VERTEX
  8
LAYER_2
 10
174.327
 20
103.0213
  0
VERTEX
  8
LAYER_2
 10
174.319
 20
103.0199
  0
SEQEND
  0
POLYLINE
  8
LAYER_2
  6
AIGENLINE003
 40
0.1305
 41
0.1305
 66
1
 10
0
 20
0
 30
0
 70
128
  0
VERTEX
  8
LAYER_2
 10
174.319
 20
103.0199
  0
VERTEX
  8
LAYER_2
 10
174.3106
 20
103.0175
  0
SEQEND
  0
POLYLINE
  8
LAYER_2
  6
AIGENLINE002
 40
0.1305
 41
0.1305
 66
1
 10
0
 20
0
 30
0
 70
128
  0
VERTEX
  8
LAYER_2
 10
174.3101
 20
103.0175
  0
VERTEX
  8
LAYER_2
 10
174.3022
 20
103.0152
  0
SEQEND
  0
POLYLINE
  8
LAYER_2
  6
AIGENLINE015
 40
0.1305
 41
0.1305
 66
1
 10
0
 20
0
 30
0
 70
128
  0
VERTEX
  8
LAYER_2
 10
174.3022
 20
103.0157
  0
VERTEX
  8
LAYER_2
 10
174.2942
 20
103.0133
  0
SEQEND
  0
POLYLINE
  8
LAYER_2
  6
AIGENLINE003
 40
0.1305
 41
0.1305
 66
1
 10
0
 20
0
 30
0
 70
128
  0
VERTEX
  8
LAYER_2
 10
174.2942
 20
103.0133
  0
VERTEX
  8
LAYER_2
 10
174.2862
 20
103.0105
  0
SEQEND
  0
INSERT
  8
LAYER_2
  2
AIGNBL02010074
 10
0
 20
0
 30
0
  0
POLYLINE
  8
LAYER_2
  6
AIGENLINE003
 40
0.1305
 41
0.1305
 66
1
 10
0
 20
0
 30
0
 70
128
  0
VERTEX
  8
LAYER_2
 10
174.2703
 20
103.0044
  0
VERTEX
  8
LAYER_2
 10
174.2623
 20
103.0007
  0
SEQEND
  0
INSERT
  8
LAYER_2
  2
AIGNBL02010075
 10
0
 20
0
 30
0
  0
POLYLINE
  8
LAYER_2
  6
AIGENLINE003
 40
0.1305
 41
0.1305
 66
1
 10
0
 20
0
 30
0
 70
128
  0
VERTEX
  8
LAYER_2
 10
174.2323
 20
102.9838
  0
VERTEX
  8
LAYER_2
 10
174.2248
 20
102.9786
  0
SEQEND
  0
INSERT
  8
LAYER_2
  2
AIGNBL02010076
 10
0
 20
0
 30
0
  0
POLYLINE
  8
LAYER_2
  6
AIGENLINE003
 40
0.1305
 41
0.1305
 66
1
 10
0
 20
0
 30
0
 70
128
  0
VERTEX
  8
LAYER_2
 10
174.2051
 20
102.9627
  0
VERTEX
  8
LAYER_2
 10
174.1985
 20
102.9571
  0
SEQEND
  0
POLYLINE
  8
LAYER_2
  6
AIGENLINE002
 40
0.1305
 41
0.1305
 66
1
 10
0
 20
0
 30
0
 70
128
  0
VERTEX
  8
LAYER_2
 10
174.1985
 20
102.9575
  0
VERTEX
  8
LAYER_2
 10
174.1924
 20
102.951
  0
SEQEND
  0
POLYLINE
  8
LAYER_2
  6
AIGENLINE003
 40
0.1305
 41
0.1305
 66
1
 10
0
 20
0
 30
0
 70
128
  0
VERTEX
  8
LAYER_2
 10
174.1929
 20
102.951
  0
VERTEX
  8
LAYER_2
 10
174.1863
 20
102.9449
  0
SEQEND
  0
POLYLINE
  8
LAYER_2
  6
AIGENLINE002
 40
0.1305
 41
0.1305
 66
1
 10
0
 20
0
 30
0
 70
128
  0
VERTEX
  8
LAYER_2
 10
174.1868
 20
102.9453
  0
VERTEX
  8
LAYER_2
 10
174.1812
 20
102.9388
  0
SEQEND
  0
INSERT
  8
LAYER_2
  2
AIGNBL02010077
 10
0
 20
0
 30
0
  0
INSERT
  8
LAYER_2
  2
AIGNBL02010078
 10
0
 20
0
 30
0
  0
POLYLINE
  8
LAYER_2
  6
AIGENLINE003
 40
0.1305
 41
0.1305
 66
1
 10
0
 20
0
 30
0
 70
128
  0
VERTEX
  8
LAYER_2
 10
174.1558
 20
102.9041
  0
VERTEX
  8
LAYER_2
 10
174.1512
 20
102.8966
  0
SEQEND
  0
INSERT
  8
LAYER_2
  2
AIGNBL02010079
 10
0
 20
0
 30
0
  0
POLYLINE
  8
LAYER_2
  6
AIGENLINE003
 40
0.1305
 41
0.1305
 66
1
 10
0
 20
0
 30
0
 70
128
  0
VERTEX
  8
LAYER_2
 10
174.1371
 20
102.8661
  0
VERTEX
  8
LAYER_2
 10
174.1338
 20
102.8581
  0
SEQEND
  0
INSERT
  8
LAYER_2
  2
AIGNBL0201007A
 10
0
 20
0
 30
0
  0
POLYLINE
  8
LAYER_2
  6
AIGENLINE059
 40
0.1305
 41
0.1305
 66
1
 10
0
 20
0
 30
0
 70
128
  0
VERTEX
  8
LAYER_2
 10
174.1221
 20
102.8084
  0
VERTEX
  8
LAYER_2
 10
174.0527
 20
102.2856
  0
SEQEND
  0
INSERT
  8
LAYER_2
  2
AIGNBL0201007B
 10
0
 20
0
 30
0
  0
POLYLINE
  8
LAYER_2
  6
AIGENLINE018
 40
0.1305
 41
0.1305
 66
1
 10
0
 20
0
 30
0
 70
128
  0
VERTEX
  8
LAYER_2
 10
173.9945
 20
102.1444
  0
VERTEX
  8
LAYER_2
 10
173.988
 20
102.1364
  0
SEQEND
  0
INSERT
  8
LAYER_2
  2
AIGNBL0201007C
 10
0
 20
0
 30
0
  0
POLYLINE
  8
LAYER_2
  6
AIGENLINE018
 40
0.1305
 41
0.1305
 66
1
 10
0
 20
0
 30
0
 70
128
  0
VERTEX
  8
LAYER_2
 10
173.9284
 20
102.0802
  0
VERTEX
  8
LAYER_2
 10
173.92
 20
102.0741
  0
SEQEND
  0
INSERT
  8
LAYER_2
  2
AIGNBL0201007D
 10
0
 20
0
 30
0
  0
POLYLINE
  8
LAYER_2
  6
AIGENLINE018
 40
0.1305
 41
0.1305
 66
1
 10
0
 20
0
 30
0
 70
128
  0
VERTEX
  8
LAYER_2
 10
173.8557
 20
102.0422
  0
VERTEX
  8
LAYER_2
 10
173.8459
 20
102.0384
  0
SEQEND
  0
INSERT
  8
LAYER_2
  2
AIGNBL0201007E
 10
0
 20
0
 30
0
  0
POLYLINE
  8
LAYER_2
  6
AIGENLINE018
 40
0.1305
 41
0.1305
 66
1
 10
0
 20
0
 30
0
 70
128
  0
VERTEX
  8
LAYER_2
 10
173.806
 20
102.0291
  0
VERTEX
  8
LAYER_2
 10
173.7957
 20
102.0277
  0
SEQEND
  0
INSERT
  8
LAYER_2
  2
AIGNBL0201007F
 10
0
 20
0
 30
0
  0
POLYLINE
  8
LAYER_2
 40
0.1305
 41
0.1305
 66
1
 10
0
 20
0
 30
0
  0
VERTEX
  8
LAYER_2
 10
162.7226
 20
101.7566
  0
VERTEX
  8
LAYER_2
 10
162.686
 20
101.4054
  0
SEQEND
  0
POLYLINE
  8
LAYER_2
  6
AIGENLINE019
 40
0.1305
 41
0.1305
 66
1
 10
0
 20
0
 30
0
 70
128
  0
VERTEX
  8
LAYER_2
 10
162.6091
 20
100.6758
  0
VERTEX
  8
LAYER_2
 10
161.8799
 20
93.7436
  0
SEQEND
  0
POLYLINE
  8
LAYER_2
 40
0.1305
 41
0.1305
 66
1
 10
0
 20
0
 30
0
  0
VERTEX
  8
LAYER_2
 10
161.841
 20
93.3788
  0
VERTEX
  8
LAYER_2
 10
161.8044
 20
93.0281
  0
SEQEND
  0
INSERT
  8
LAYER_2
  2
AIGNBL02010080
 10
0
 20
0
 30
0
  0
INSERT
  8
LAYER_2
  2
AIGNBL02010081
 10
0
 20
0
 30
0
  0
INSERT
  8
LAYER_2
  2
AIGNBL02010082
 10
0
 20
0
 30
0
  0
POLYLINE
  8
LAYER_2
  6
AIGENLINE008
 40
0.1305
 41
0.1305
 66
1
 10
0
 20
0
 30
0
 70
128
  0
VERTEX
  8
LAYER_2
 10
161.7744
 20
92.9038
  0
VERTEX
  8
LAYER_2
 10
161.7697
 20
92.8916
  0
SEQEND
  0
POLYLINE
  8
LAYER_2
  6
AIGENLINE007
 40
0.1305
 41
0.1305
 66
1
 10
0
 20
0
 30
0
 70
128
  0
VERTEX
  8
LAYER_2
 10
161.7697
 20
92.8916
  0
VERTEX
  8
LAYER_2
 10
161.765
 20
92.8794
  0
SEQEND
  0
INSERT
  8
LAYER_2
  2
AIGNBL02010083
 10
0
 20
0
 30
0
  0
POLYLINE
  8
LAYER_2
  6
AIGENLINE009
 40
0.1305
 41
0.1305
 66
1
 10
0
 20
0
 30
0
 70
128
  0
VERTEX
  8
LAYER_2
 10
161.667
 20
92.7158
  0
VERTEX
  8
LAYER_2
 10
161.6576
 20
92.7055
  0
SEQEND
  0
POLYLINE
  8
LAYER_2
  6
AIGENLINE008
 40
0.1305
 41
0.1305
 66
1
 10
0
 20
0
 30
0
 70
128
  0
VERTEX
  8
LAYER_2
 10
161.6576
 20
92.7055
  0
VERTEX
  8
LAYER_2
 10
161.6482
 20
92.6951
  0
SEQEND
  0
POLYLINE
  8
LAYER_2
  6
AIGENLINE009
 40
0.1305
 41
0.1305
 66
1
 10
0
 20
0
 30
0
 70
128
  0
VERTEX
  8
LAYER_2
 10
161.6487
 20
92.6951
  0
VERTEX
  8
LAYER_2
 10
161.6393
 20
92.6848
  0
SEQEND
  0
INSERT
  8
LAYER_2
  2
AIGNBL02010084
 10
0
 20
0
 30
0
  0
INSERT
  8
LAYER_2
  2
AIGNBL02010085
 10
0
 20
0
 30
0
  0
INSERT
  8
LAYER_2
  2
AIGNBL02010086
 10
0
 20
0
 30
0
  0
POLYLINE
  8
LAYER_2
  6
AIGENLINE009
 40
0.1305
 41
0.1305
 66
1
 10
0
 20
0
 30
0
 70
128
  0
VERTEX
  8
LAYER_2
 10
161.5657
 20
92.6206
  0
VERTEX
  8
LAYER_2
 10
161.5545
 20
92.6126
  0
SEQEND
  0
POLYLINE
  8
LAYER_2
  6
AIGENLINE008
 40
0.1305
 41
0.1305
 66
1
 10
0
 20
0
 30
0
 70
128
  0
VERTEX
  8
LAYER_2
 10
161.5545
 20
92.6126
  0
VERTEX
  8
LAYER_2
 10
161.5432
 20
92.6046
  0
SEQEND
  0
POLYLINE
  8
LAYER_2
  6
AIGENLINE009
 40
0.1305
 41
0.1305
 66
1
 10
0
 20
0
 30
0
 70
128
  0
VERTEX
  8
LAYER_2
 10
161.5432
 20
92.6046
  0
VERTEX
  8
LAYER_2
 10
161.5315
 20
92.5971
  0
SEQEND
  0
INSERT
  8
LAYER_2
  2
AIGNBL02010087
 10
0
 20
0
 30
0
  0
INSERT
  8
LAYER_2
  2
AIGNBL02010088
 10
0
 20
0
 30
0
  0
POLYLINE
  8
LAYER_2
  6
AIGENLINE006
 40
0.1305
 41
0.1305
 66
1
 10
0
 20
0
 30
0
 70
128
  0
VERTEX
  8
LAYER_2
 10
161.3331
 20
92.516
  0
VERTEX
  8
LAYER_2
 10
161.3209
 20
92.5137
  0
SEQEND
  0
INSERT
  8
LAYER_2
  2
AIGNBL02010089
 10
0
 20
0
 30
0
  0
INSERT
  8
LAYER_2
  2
AIGNBL0201008A
 10
0
 20
0
 30
0
  0
POLYLINE
  8
LAYER_2
 40
0.1305
 41
0.1305
 66
1
 10
0
 20
0
 30
0
  0
VERTEX
  8
LAYER_2
 10
161.2333
 20
92.5034
  0
VERTEX
  8
LAYER_2
 10
160.8806
 20
92.4982
  0
SEQEND
  0
POLYLINE
  8
LAYER_2
  6
AIGENLINE060
 40
0.1305
 41
0.1305
 66
1
 10
0
 20
0
 30
0
 70
128
  0
VERTEX
  8
LAYER_2
 10
160.1904
 20
92.4888
  0
VERTEX
  8
LAYER_2
 10
138.4403
 20
92.1864
  0
SEQEND
  0
POLYLINE
  8
LAYER_2
 40
0.1305
 41
0.1305
 66
1
 10
0
 20
0
 30
0
  0
VERTEX
  8
LAYER_2
 10
138.0947
 20
92.1812
  0
VERTEX
  8
LAYER_2
 10
137.7416
 20
92.176
  0
SEQEND
  0
POLYLINE
  8
LAYER_2
  6
AIGENLINE021
 40
0.1305
 41
0.1305
 66
1
 10
0
 20
0
 30
0
 70
128
  0
VERTEX
  8
LAYER_2
 10
163.0213
 20
102.0248
 42
0.3667696888
  0
VERTEX
  8
LAYER_2
 10
162.7226
 20
101.7561
  0
SEQEND
  0
POLYLINE
  8
LAYER_2
 40
0.1305
 41
0.1305
 66
1
 10
0
 20
0
 30
0
  0
VERTEX
  8
LAYER_2
 10
173.7545
 20
102.0248
  0
VERTEX
  8
LAYER_2
 10
173.4018
 20
102.0248
  0
SEQEND
  0
POLYLINE
  8
LAYER_2
  6
AIGENLINE022
 40
0.1305
 41
0.1305
 66
1
 10
0
 20
0
 30
0
 70
128
  0
VERTEX
  8
LAYER_2
 10
172.7331
 20
102.0248
  0
VERTEX
  8
LAYER_2
 10
163.7078
 20
102.0248
  0
SEQEND
  0
POLYLINE
  8
LAYER_2
 40
0.1305
 41
0.1305
 66
1
 10
0
 20
0
 30
0
  0
VERTEX
  8
LAYER_2
 10
163.3739
 20
102.0248
  0
VERTEX
  8
LAYER_2
 10
163.0208
 20
102.0248
  0
SEQEND
  0
POLYLINE
  8
LAYER_2
 40
0.1305
 41
0.1305
 66
1
 10
0
 20
0
 30
0
  0
VERTEX
  8
LAYER_2
 10
129.9945
 20
91.196
  0
VERTEX
  8
LAYER_2
 10
129.6419
 20
91.211
  0
SEQEND
  0
POLYLINE
  8
LAYER_2
  6
AIGENLINE061
 40
0.1305
 41
0.1305
 66
1
 10
0
 20
0
 30
0
 70
128
  0
VERTEX
  8
LAYER_2
 10
128.9488
 20
91.2405
  0
VERTEX
  8
LAYER_2
 10
111.2713
 20
91.9927
  0
SEQEND
  0
POLYLINE
  8
LAYER_2
 40
0.1305
 41
0.1305
 66
1
 10
0
 20
0
 30
0
  0
VERTEX
  8
LAYER_2
 10
110.9248
 20
92.0077
  0
VERTEX
  8
LAYER_2
 10
110.5722
 20
92.0222
  0
SEQEND
  0
INSERT
  8
LAYER_2
  2
AIGNBL0201008B
 10
0
 20
0
 30
0
  0
POLYLINE
  8
LAYER_2
  6
AIGENLINE010
 40
0.1305
 41
0.1305
 66
1
 10
0
 20
0
 30
0
 70
128
  0
VERTEX
  8
LAYER_2
 10
110.5516
 20
92.0222
  0
VERTEX
  8
LAYER_2
 10
110.545
 20
92.0218
  0
SEQEND
  0
INSERT
  8
LAYER_2
  2
AIGNBL0201008C
 10
0
 20
0
 30
0
  0
INSERT
  8
LAYER_2
  2
AIGNBL0201008D
 10
0
 20
0
 30
0
  0
INSERT
  8
LAYER_2
  2
AIGNBL0201008E
 10
0
 20
0
 30
0
  0
INSERT
  8
LAYER_2
  2
AIGNBL0201008F
 10
0
 20
0
 30
0
  0
INSERT
  8
LAYER_2
  2
AIGNBL02010090
 10
0
 20
0
 30
0
  0
POLYLINE
  8
LAYER_2
  6
AIGENLINE010
 40
0.1305
 41
0.1305
 66
1
 10
0
 20
0
 30
0
 70
128
  0
VERTEX
  8
LAYER_2
 10
110.4395
 20
91.9786
  0
VERTEX
  8
LAYER_2
 10
110.4343
 20
91.9739
  0
SEQEND
  0
POLYLINE
  8
LAYER_2
  6
AIGENLINE014
 40
0.1305
 41
0.1305
 66
1
 10
0
 20
0
 30
0
 70
128
  0
VERTEX
  8
LAYER_2
 10
110.4343
 20
91.9739
  0
VERTEX
  8
LAYER_2
 10
110.4292
 20
91.9692
  0
SEQEND
  0
INSERT
  8
LAYER_2
  2
AIGNBL02010091
 10
0
 20
0
 30
0
  0
POLYLINE
  8
LAYER_2
  6
AIGENLINE014
 40
0.1305
 41
0.1305
 66
1
 10
0
 20
0
 30
0
 70
128
  0
VERTEX
  8
LAYER_2
 10
110.4062
 20
91.9444
  0
VERTEX
  8
LAYER_2
 10
110.402
 20
91.9388
  0
SEQEND
  0
INSERT
  8
LAYER_2
  2
AIGNBL02010092
 10
0
 20
0
 30
0
  0
POLYLINE
  8
LAYER_2
  6
AIGENLINE014
 40
0.1305
 41
0.1305
 66
1
 10
0
 20
0
 30
0
 70
128
  0
VERTEX
  8
LAYER_2
 10
110.3851
 20
91.9097
  0
VERTEX
  8
LAYER_2
 10
110.3818
 20
91.9031
  0
SEQEND
  0
POLYLINE
  8
LAYER_2
 40
0.1305
 41
0.1305
 66
1
 10
0
 20
0
 30
0
  0
VERTEX
  8
LAYER_2
 10
110.3818
 20
91.9036
  0
VERTEX
  8
LAYER_2
 10
110.2317
 20
91.5843
  0
SEQEND
  0
POLYLINE
  8
LAYER_2
 40
0.1305
 41
0.1305
 66
1
 10
0
 20
0
 30
0
  0
VERTEX
  8
LAYER_2
 10
110.2102
 20
91.5364
  0
VERTEX
  8
LAYER_2
 10
110.0601
 20
91.2171
  0
VERTEX
  8
LAYER_2
 10
109.9162
 20
90.8949
  0
SEQEND
  0
POLYLINE
  8
LAYER_2
 40
0.1305
 41
0.1305
 66
1
 10
0
 20
0
 30
0
  0
VERTEX
  8
LAYER_2
 10
109.8946
 20
90.8471
  0
VERTEX
  8
LAYER_2
 10
109.7506
 20
90.525
  0
VERTEX
  8
LAYER_2
 10
109.398
 20
90.525
  0
SEQEND
  0
POLYLINE
  8
LAYER_2
  6
AIGENLINE024
 40
0.1305
 41
0.1305
 66
1
 10
0
 20
0
 30
0
 70
128
  0
VERTEX
  8
LAYER_2
 10
108.7842
 20
90.525
  0
VERTEX
  8
LAYER_2
 10
105.4103
 20
90.525
  0
SEQEND
  0
POLYLINE
  8
LAYER_2
 40
0.1305
 41
0.1305
 66
1
 10
0
 20
0
 30
0
  0
VERTEX
  8
LAYER_2
 10
105.1036
 20
90.525
  0
VERTEX
  8
LAYER_2
 10
104.7505
 20
90.525
  0
SEQEND
  0
POLYLINE
  8
LAYER_2
 40
0.1305
 41
0.1305
 66
1
 10
0
 20
0
 30
0
  0
VERTEX
  8
LAYER_2
 10
104.751
 20
90.525
  0
VERTEX
  8
LAYER_2
 10
104.751
 20
90.8781
  0
SEQEND
  0
POLYLINE
  8
LAYER_2
  6
AIGENLINE025
 40
0.1305
 41
0.1305
 66
1
 10
0
 20
0
 30
0
 70
128
  0
VERTEX
  8
LAYER_2
 10
104.751
 20
91.5571
  0
VERTEX
  8
LAYER_2
 10
104.751
 20
102.0872
  0
SEQEND
  0
POLYLINE
  8
LAYER_2
 40
0.1305
 41
0.1305
 66
1
 10
0
 20
0
 30
0
  0
VERTEX
  8
LAYER_2
 10
104.751
 20
102.4267
  0
VERTEX
  8
LAYER_2
 10
104.751
 20
102.7793
  0
SEQEND
  0
INSERT
  8
LAYER_2
  2
AIGNBL02010093
 10
0
 20
0
 30
0
  0
POLYLINE
  8
LAYER_2
  6
AIGENLINE003
 40
0.1305
 41
0.1305
 66
1
 10
0
 20
0
 30
0
 70
128
  0
VERTEX
  8
LAYER_2
 10
104.765
 20
102.8586
  0
VERTEX
  8
LAYER_2
 10
104.7683
 20
102.8666
  0
SEQEND
  0
INSERT
  8
LAYER_2
  2
AIGNBL02010094
 10
0
 20
0
 30
0
  0
POLYLINE
  8
LAYER_2
  6
AIGENLINE003
 40
0.1305
 41
0.1305
 66
1
 10
0
 20
0
 30
0
 70
128
  0
VERTEX
  8
LAYER_2
 10
104.7871
 20
102.9045
  0
VERTEX
  8
LAYER_2
 10
104.7918
 20
102.912
  0
SEQEND
  0
INSERT
  8
LAYER_2
  2
AIGNBL02010095
 10
0
 20
0
 30
0
  0
POLYLINE
  8
LAYER_2
  6
AIGENLINE003
 40
0.1305
 41
0.1305
 66
1
 10
0
 20
0
 30
0
 70
128
  0
VERTEX
  8
LAYER_2
 10
104.8124
 20
102.9392
  0
VERTEX
  8
LAYER_2
 10
104.8185
 20
102.9458
  0
SEQEND
  0
INSERT
  8
LAYER_2
  2
AIGNBL02010096
 10
0
 20
0
 30
0
  0
POLYLINE
  8
LAYER_2
  6
AIGENLINE003
 40
0.1305
 41
0.1305
 66
1
 10
0
 20
0
 30
0
 70
128
  0
VERTEX
  8
LAYER_2
 10
104.8429
 20
102.9688
  0
VERTEX
  8
LAYER_2
 10
104.8499
 20
102.9744
  0
SEQEND
  0
INSERT
  8
LAYER_2
  2
AIGNBL02010097
 10
0
 20
0
 30
0
  0
POLYLINE
  8
LAYER_2
  6
AIGENLINE003
 40
0.1305
 41
0.1305
 66
1
 10
0
 20
0
 30
0
 70
128
  0
VERTEX
  8
LAYER_2
 10
104.8705
 20
102.9885
  0
VERTEX
  8
LAYER_2
 10
104.878
 20
102.9932
  0
SEQEND
  0
POLYLINE
  8
LAYER_2
  6
AIGENLINE002
 40
0.1305
 41
0.1305
 66
1
 10
0
 20
0
 30
0
 70
128
  0
VERTEX
  8
LAYER_2
 10
104.8785
 20
102.9927
  0
VERTEX
  8
LAYER_2
 10
104.886
 20
102.9969
  0
SEQEND
  0
POLYLINE
  8
LAYER_2
  6
AIGENLINE003
 40
0.1305
 41
0.1305
 66
1
 10
0
 20
0
 30
0
 70
128
  0
VERTEX
  8
LAYER_2
 10
104.8855
 20
102.9969
  0
VERTEX
  8
LAYER_2
 10
104.8935
 20
103.0007
  0
SEQEND
  0
INSERT
  8
LAYER_2
  2
AIGNBL02010098
 10
0
 20
0
 30
0
  0
POLYLINE
  8
LAYER_2
  6
AIGENLINE003
 40
0.1305
 41
0.1305
 66
1
 10
0
 20
0
 30
0
 70
128
  0
VERTEX
  8
LAYER_2
 10
104.917
 20
103.0105
  0
VERTEX
  8
LAYER_2
 10
104.9249
 20
103.0129
  0
SEQEND
  0
INSERT
  8
LAYER_2
  2
AIGNBL02010099
 10
0
 20
0
 30
0
  0
POLYLINE
  8
LAYER_2
  6
AIGENLINE003
 40
0.1305
 41
0.1305
 66
1
 10
0
 20
0
 30
0
 70
128
  0
VERTEX
  8
LAYER_2
 10
104.9413
 20
103.0175
  0
VERTEX
  8
LAYER_2
 10
104.9498
 20
103.0199
  0
SEQEND
  0
INSERT
  8
LAYER_2
  2
AIGNBL0201009A
 10
0
 20
0
 30
0
  0
POLYLINE
  8
LAYER_2
  6
AIGENLINE003
 40
0.1305
 41
0.1305
 66
1
 10
0
 20
0
 30
0
 70
128
  0
VERTEX
  8
LAYER_2
 10
104.9667
 20
103.0227
  0
VERTEX
  8
LAYER_2
 10
104.9751
 20
103.0232
  0
SEQEND
  0
INSERT
  8
LAYER_2
  2
AIGNBL0201009B
 10
0
 20
0
 30
0
  0
POLYLINE
  8
LAYER_2
  6
AIGENLINE015
 40
0.1305
 41
0.1305
 66
1
 10
0
 20
0
 30
0
 70
128
  0
VERTEX
  8
LAYER_2
 10
104.9925
 20
103.025
  0
VERTEX
  8
LAYER_2
 10
105.0004
 20
103.025
  0
SEQEND
  0
POLYLINE
  8
LAYER_2
  6
AIGENLINE016
 40
0.1305
 41
0.1305
 66
1
 10
0
 20
0
 30
0
 70
128
  0
VERTEX
  8
LAYER_2
 10
105.0004
 20
103.025
  0
VERTEX
  8
LAYER_2
 10
105.1317
 20
103.025
  0
SEQEND
  0
INSERT
  8
LAYER_2
  2
AIGNBL0201009C
 10
0
 20
0
 30
0
  0
POLYLINE
  8
LAYER_2
  6
AIGENLINE003
 40
0.1305
 41
0.1305
 66
1
 10
0
 20
0
 30
0
 70
128
  0
VERTEX
  8
LAYER_2
 10
105.166
 20
103.0227
  0
VERTEX
  8
LAYER_2
 10
105.1744
 20
103.0208
  0
SEQEND
  0
INSERT
  8
LAYER_2
  2
AIGNBL0201009D
 10
0
 20
0
 30
0
  0
POLYLINE
  8
LAYER_2
  6
AIGENLINE003
 40
0.1305
 41
0.1305
 66
1
 10
0
 20
0
 30
0
 70
128
  0
VERTEX
  8
LAYER_2
 10
105.2077
 20
103.0133
  0
VERTEX
  8
LAYER_2
 10
105.2157
 20
103.0105
  0
SEQEND
  0
INSERT
  8
LAYER_2
  2
AIGNBL0201009E
 10
0
 20
0
 30
0
  0
POLYLINE
  8
LAYER_2
  6
AIGENLINE003
 40
0.1305
 41
0.1305
 66
1
 10
0
 20
0
 30
0
 70
128
  0
VERTEX
  8
LAYER_2
 10
105.2316
 20
103.0044
  0
VERTEX
  8
LAYER_2
 10
105.2396
 20
103.0007
  0
SEQEND
  0
INSERT
  8
LAYER_2
  2
AIGNBL0201009F
 10
0
 20
0
 30
0
  0
POLYLINE
  8
LAYER_2
  6
AIGENLINE003
 40
0.1305
 41
0.1305
 66
1
 10
0
 20
0
 30
0
 70
128
  0
VERTEX
  8
LAYER_2
 10
105.2691
 20
102.9838
  0
VERTEX
  8
LAYER_2
 10
105.2766
 20
102.9786
  0
SEQEND
  0
INSERT
  8
LAYER_2
  2
AIGNBL020100A0
 10
0
 20
0
 30
0
  0
POLYLINE
  8
LAYER_2
  6
AIGENLINE003
 40
0.1305
 41
0.1305
 66
1
 10
0
 20
0
 30
0
 70
128
  0
VERTEX
  8
LAYER_2
 10
105.3029
 20
102.9575
  0
VERTEX
  8
LAYER_2
 10
105.3095
 20
102.951
  0
SEQEND
  0
POLYLINE
  8
LAYER_2
  6
AIGENLINE002
 40
0.1305
 41
0.1305
 66
1
 10
0
 20
0
 30
0
 70
128
  0
VERTEX
  8
LAYER_2
 10
105.309
 20
102.951
  0
VERTEX
  8
LAYER_2
 10
105.3151
 20
102.9449
  0
SEQEND
  0
INSERT
  8
LAYER_2
  2
AIGNBL020100A1
 10
0
 20
0
 30
0
  0
INSERT
  8
LAYER_2
  2
AIGNBL020100A2
 10
0
 20
0
 30
0
  0
POLYLINE
  8
LAYER_2
  6
AIGENLINE003
 40
0.1305
 41
0.1305
 66
1
 10
0
 20
0
 30
0
 70
128
  0
VERTEX
  8
LAYER_2
 10
105.346
 20
102.9041
  0
VERTEX
  8
LAYER_2
 10
105.3507
 20
102.8966
  0
SEQEND
  0
INSERT
  8
LAYER_2
  2
AIGNBL020100A3
 10
0
 20
0
 30
0
  0
POLYLINE
  8
LAYER_2
  6
AIGENLINE003
 40
0.1305
 41
0.1305
 66
1
 10
0
 20
0
 30
0
 70
128
  0
VERTEX
  8
LAYER_2
 10
105.3577
 20
102.8816
  0
VERTEX
  8
LAYER_2
 10
105.3615
 20
102.8736
  0
SEQEND
  0
POLYLINE
  8
LAYER_2
  6
AIGENLINE002
 40
0.1305
 41
0.1305
 66
1
 10
0
 20
0
 30
0
 70
128
  0
VERTEX
  8
LAYER_2
 10
105.3615
 20
102.8736
  0
VERTEX
  8
LAYER_2
 10
105.3648
 20
102.8661
  0
SEQEND
  0
POLYLINE
  8
LAYER_2
  6
AIGENLINE003
 40
0.1305
 41
0.1305
 66
1
 10
0
 20
0
 30
0
 70
128
  0
VERTEX
  8
LAYER_2
 10
105.3648
 20
102.8661
  0
VERTEX
  8
LAYER_2
 10
105.3681
 20
102.8581
  0
SEQEND
  0
INSERT
  8
LAYER_2
  2
AIGNBL020100A4
 10
0
 20
0
 30
0
  0
POLYLINE
  8
LAYER_2
 40
0.1305
 41
0.1305
 66
1
 10
0
 20
0
 30
0
  0
VERTEX
  8
LAYER_2
 10
105.3798
 20
102.8084
  0
VERTEX
  8
LAYER_2
 10
105.4149
 20
102.4572
  0
SEQEND
  0
POLYLINE
  8
LAYER_2
  6
AIGENLINE026
 40
0.1305
 41
0.1305
 66
1
 10
0
 20
0
 30
0
 70
128
  0
VERTEX
  8
LAYER_2
 10
105.49
 20
101.7008
  0
VERTEX
  8
LAYER_2
 10
106.2088
 20
94.5164
  0
SEQEND
  0
POLYLINE
  8
LAYER_2
 40
0.1305
 41
0.1305
 66
1
 10
0
 20
0
 30
0
  0
VERTEX
  8
LAYER_2
 10
106.2468
 20
94.138
  0
VERTEX
  8
LAYER_2
 10
106.282
 20
93.7873
  0
SEQEND
  0
INSERT
  8
LAYER_2
  2
AIGNBL020100A5
 10
0
 20
0
 30
0
  0
INSERT
  8
LAYER_2
  2
AIGNBL020100A6
 10
0
 20
0
 30
0
  0
INSERT
  8
LAYER_2
  2
AIGNBL020100A7
 10
0
 20
0
 30
0
  0
POLYLINE
  8
LAYER_2
  6
AIGENLINE008
 40
0.1305
 41
0.1305
 66
1
 10
0
 20
0
 30
0
 70
128
  0
VERTEX
  8
LAYER_2
 10
106.3064
 20
93.6747
  0
VERTEX
  8
LAYER_2
 10
106.3106
 20
93.6625
  0
SEQEND
  0
POLYLINE
  8
LAYER_2
  6
AIGENLINE007
 40
0.1305
 41
0.1305
 66
1
 10
0
 20
0
 30
0
 70
128
  0
VERTEX
  8
LAYER_2
 10
106.3106
 20
93.6621
  0
VERTEX
  8
LAYER_2
 10
106.3153
 20
93.6499
  0
SEQEND
  0
INSERT
  8
LAYER_2
  2
AIGNBL020100A8
 10
0
 20
0
 30
0
  0
INSERT
  8
LAYER_2
  2
AIGNBL020100A9
 10
0
 20
0
 30
0
  0
INSERT
  8
LAYER_2
  2
AIGNBL020100AA
 10
0
 20
0
 30
0
  0
INSERT
  8
LAYER_2
  2
AIGNBL020100AB
 10
0
 20
0
 30
0
  0
POLYLINE
  8
LAYER_2
  6
AIGENLINE008
 40
0.1305
 41
0.1305
 66
1
 10
0
 20
0
 30
0
 70
128
  0
VERTEX
  8
LAYER_2
 10
106.4278
 20
93.4618
  0
VERTEX
  8
LAYER_2
 10
106.4372
 20
93.4515
  0
SEQEND
  0
INSERT
  8
LAYER_2
  2
AIGNBL020100AC
 10
0
 20
0
 30
0
  0
POLYLINE
  8
LAYER_2
  6
AIGENLINE008
 40
0.1305
 41
0.1305
 66
1
 10
0
 20
0
 30
0
 70
128
  0
VERTEX
  8
LAYER_2
 10
106.5324
 20
93.3685
  0
VERTEX
  8
LAYER_2
 10
106.5437
 20
93.3605
  0
SEQEND
  0
POLYLINE
  8
LAYER_2
  6
AIGENLINE009
 40
0.1305
 41
0.1305
 66
1
 10
0
 20
0
 30
0
 70
128
  0
VERTEX
  8
LAYER_2
 10
106.5437
 20
93.3605
  0
VERTEX
  8
LAYER_2
 10
106.5554
 20
93.353
  0
SEQEND
  0
POLYLINE
  8
LAYER_2
  6
AIGENLINE008
 40
0.1305
 41
0.1305
 66
1
 10
0
 20
0
 30
0
 70
128
  0
VERTEX
  8
LAYER_2
 10
106.5554
 20
93.353
  0
VERTEX
  8
LAYER_2
 10
106.5671
 20
93.3455
  0
SEQEND
  0
POLYLINE
  8
LAYER_2
  6
AIGENLINE009
 40
0.1305
 41
0.1305
 66
1
 10
0
 20
0
 30
0
 70
128
  0
VERTEX
  8
LAYER_2
 10
106.5671
 20
93.3455
  0
VERTEX
  8
LAYER_2
 10
106.5793
 20
93.3385
  0
SEQEND
  0
INSERT
  8
LAYER_2
  2
AIGNBL020100AD
 10
0
 20
0
 30
0
  0
INSERT
  8
LAYER_2
  2
AIGNBL020100AE
 10
0
 20
0
 30
0
  0
POLYLINE
  8
LAYER_2
  6
AIGENLINE006
 40
0.1305
 41
0.1305
 66
1
 10
0
 20
0
 30
0
 70
128
  0
VERTEX
  8
LAYER_2
 10
106.7931
 20
93.2654
  0
VERTEX
  8
LAYER_2
 10
106.8058
 20
93.2635
  0
SEQEND
  0
INSERT
  8
LAYER_2
  2
AIGNBL020100AF
 10
0
 20
0
 30
0
  0
POLYLINE
  8
LAYER_2
  6
AIGENLINE006
 40
0.1305
 41
0.1305
 66
1
 10
0
 20
0
 30
0
 70
128
  0
VERTEX
  8
LAYER_2
 10
106.8306
 20
93.2611
  0
VERTEX
  8
LAYER_2
 10
106.8433
 20
93.2602
  0
SEQEND
  0
POLYLINE
  8
LAYER_2
  6
AIGENLINE005
 40
0.1305
 41
0.1305
 66
1
 10
0
 20
0
 30
0
 70
128
  0
VERTEX
  8
LAYER_2
 10
106.8433
 20
93.2602
  0
VERTEX
  8
LAYER_2
 10
106.8555
 20
93.2597
  0
SEQEND
  0
POLYLINE
  8
LAYER_2
 40
0.1305
 41
0.1305
 66
1
 10
0
 20
0
 30
0
  0
VERTEX
  8
LAYER_2
 10
106.8555
 20
93.2593
  0
VERTEX
  8
LAYER_2
 10
107.2081
 20
93.2428
  0
SEQEND
  0
POLYLINE
  8
LAYER_2
  6
AIGENLINE062
 40
0.1305
 41
0.1305
 66
1
 10
0
 20
0
 30
0
 70
128
  0
VERTEX
  8
LAYER_2
 10
107.8979
 20
93.2114
  0
VERTEX
  8
LAYER_2
 10
129.6405
 20
92.2084
  0
SEQEND
  0
POLYLINE
  8
LAYER_2
 40
0.1305
 41
0.1305
 66
1
 10
0
 20
0
 30
0
  0
VERTEX
  8
LAYER_2
 10
129.9856
 20
92.1929
  0
VERTEX
  8
LAYER_2
 10
130.3382
 20
92.1765
  0
SEQEND
  0
POLYLINE
  8
LAYER_2
 40
0.1305
 41
0.1305
 66
1
 10
0
 20
0
 30
0
  0
VERTEX
  8
LAYER_2
 10
174.7509
 20
90.525
  0
VERTEX
  8
LAYER_2
 10
174.7509
 20
90.8781
  0
SEQEND
  0
POLYLINE
  8
LAYER_2
  6
AIGENLINE028
 40
0.1305
 41
0.1305
 66
1
 10
0
 20
0
 30
0
 70
128
  0
VERTEX
  8
LAYER_2
 10
174.7509
 20
91.5566
  0
VERTEX
  8
LAYER_2
 10
174.7509
 20
102.083
  0
SEQEND
  0
POLYLINE
  8
LAYER_2
 40
0.1305
 41
0.1305
 66
1
 10
0
 20
0
 30
0
  0
VERTEX
  8
LAYER_2
 10
174.7509
 20
102.422
  0
VERTEX
  8
LAYER_2
 10
174.7509
 20
102.7751
  0
SEQEND
  0
POLYLINE
  8
LAYER_2
 40
0.1305
 41
0.1305
 66
1
 10
0
 20
0
 30
0
  0
VERTEX
  8
LAYER_2
 10
174.501
 20
103.0251
  0
VERTEX
  8
LAYER_2
 10
174.1479
 20
103.0251
  0
SEQEND
  0
POLYLINE
  8
LAYER_2
  6
AIGENLINE063
 40
0.1305
 41
0.1305
 66
1
 10
0
 20
0
 30
0
 70
128
  0
VERTEX
  8
LAYER_2
 10
173.4412
 20
103.0246
  0
VERTEX
  8
LAYER_2
 10
105.9303
 20
103.0077
  0
SEQEND
  0
POLYLINE
  8
LAYER_2
 40
0.1305
 41
0.1305
 66
1
 10
0
 20
0
 30
0
  0
VERTEX
  8
LAYER_2
 10
105.5767
 20
103.0077
  0
VERTEX
  8
LAYER_2
 10
105.2236
 20
103.0072
  0
SEQEND
  0
POLYLINE
  8
LAYER_2
 40
0.1305
 41
0.1305
 66
1
 10
0
 20
0
 30
0
  0
VERTEX
  8
LAYER_2
 10
171.7784
 20
90.525
  0
VERTEX
  8
LAYER_2
 10
171.7784
 20
90.8781
  0
SEQEND
  0
POLYLINE
  8
LAYER_2
  6
AIGENLINE030
 40
0.1305
 41
0.1305
 66
1
 10
0
 20
0
 30
0
 70
128
  0
VERTEX
  8
LAYER_2
 10
171.7784
 20
91.6157
  0
VERTEX
  8
LAYER_2
 10
171.7784
 20
100.1037
  0
SEQEND
  0
POLYLINE
  8
LAYER_2
 40
0.1305
 41
0.1305
 66
1
 10
0
 20
0
 30
0
  0
VERTEX
  8
LAYER_2
 10
171.7784
 20
100.4722
  0
VERTEX
  8
LAYER_2
 10
171.7784
 20
100.8253
  0
SEQEND
  0
POLYLINE
  8
LAYER_2
  6
AIGENLINE031
 40
0.1305
 41
0.1305
 66
1
 10
0
 20
0
 30
0
 70
128
  0
VERTEX
  8
LAYER_2
 10
109.3694
 20
92.0987
  0
VERTEX
  8
LAYER_2
 10
109.216
 20
91.77
  0
SEQEND
  0
POLYLINE
  8
LAYER_2
  6
AIGENLINE032
 40
0.1305
 41
0.1305
 66
1
 10
0
 20
0
 30
0
 70
128
  0
VERTEX
  8
LAYER_2
 10
109.2165
 20
91.7704
  0
VERTEX
  8
LAYER_2
 10
109.103
 20
91.5252
  0
SEQEND
  0
POLYLINE
  8
LAYER_2
 40
0.1305
 41
0.1305
 66
1
 10
0
 20
0
 30
0
  0
VERTEX
  8
LAYER_2
 10
109.1026
 20
91.5252
  0
VERTEX
  8
LAYER_2
 10
108.7499
 20
91.5252
  0
SEQEND
  0
POLYLINE
  8
LAYER_2
  6
AIGENLINE033
 40
0.1305
 41
0.1305
 66
1
 10
0
 20
0
 30
0
 70
128
  0
VERTEX
  8
LAYER_2
 10
107.8674
 20
91.5252
  0
VERTEX
  8
LAYER_2
 10
106.5446
 20
91.5252
  0
SEQEND
  0
POLYLINE
  8
LAYER_2
 40
0.1305
 41
0.1305
 66
1
 10
0
 20
0
 30
0
  0
VERTEX
  8
LAYER_2
 10
106.1033
 20
91.5252
  0
VERTEX
  8
LAYER_2
 10
105.7502
 20
91.5252
  0
SEQEND
  0
POLYLINE
  8
LAYER_2
 40
0.1305
 41
0.1305
 66
1
 10
0
 20
0
 30
0
  0
VERTEX
  8
LAYER_2
 10
105.7507
 20
91.5252
  0
VERTEX
  8
LAYER_2
 10
105.7507
 20
91.8783
  0
SEQEND
  0
POLYLINE
  8
LAYER_2
 40
0.1305
 41
0.1305
 66
1
 10
0
 20
0
 30
0
  0
VERTEX
  8
LAYER_2
 10
105.7507
 20
92.3707
  0
VERTEX
  8
LAYER_2
 10
105.7507
 20
92.7233
 42
0.05527019129
  0
VERTEX
  8
LAYER_2
 10
106.0278
 20
92.5034
  0
SEQEND
  0
POLYLINE
  8
LAYER_2
 40
0.1305
 41
0.1305
 66
1
 10
0
 20
0
 30
0
  0
VERTEX
  8
LAYER_2
 10
106.4536
 20
92.3163
 42
0.05524848057
  0
VERTEX
  8
LAYER_2
 10
106.8025
 20
92.2609
  0
SEQEND
  0
POLYLINE
  8
LAYER_2
 40
0.1305
 41
0.1305
 66
1
 10
0
 20
0
 30
0
  0
VERTEX
  8
LAYER_2
 10
106.803
 20
92.2605
  0
VERTEX
  8
LAYER_2
 10
107.1546
 20
92.2384
  0
SEQEND
  0
POLYLINE
  8
LAYER_2
  6
AIGENLINE034
 40
0.1305
 41
0.1305
 66
1
 10
0
 20
0
 30
0
 70
128
  0
VERTEX
  8
LAYER_2
 10
107.7755
 20
92.1995
  0
VERTEX
  8
LAYER_2
 10
108.7068
 20
92.1404
  0
SEQEND
  0
POLYLINE
  8
LAYER_2
 40
0.1305
 41
0.1305
 66
1
 10
0
 20
0
 30
0
  0
VERTEX
  8
LAYER_2
 10
109.0172
 20
92.1207
  0
VERTEX
  8
LAYER_2
 10
109.3694
 20
92.0987
  0
SEQEND
  0
POLYLINE
  8
LAYER_2
 40
0.1305
 41
0.1305
 66
1
 10
0
 20
0
 30
0
  0
VERTEX
  8
LAYER_2
 10
130.5507
 20
87.5248
  0
VERTEX
  8
LAYER_2
 10
130.5497
 20
87.8779
  0
SEQEND
  0
POLYLINE
  8
LAYER_2
  6
AIGENLINE064
 40
0.1305
 41
0.1305
 66
1
 10
0
 20
0
 30
0
 70
128
  0
VERTEX
  8
LAYER_2
 10
130.5469
 20
88.6713
  0
VERTEX
  8
LAYER_2
 10
130.5432
 20
89.8619
  0
SEQEND
  0
POLYLINE
  8
LAYER_2
 40
0.1305
 41
0.1305
 66
1
 10
0
 20
0
 30
0
  0
VERTEX
  8
LAYER_2
 10
130.5417
 20
90.2591
  0
VERTEX
  8
LAYER_2
 10
130.5408
 20
90.6122
  0
SEQEND
  0
POLYLINE
  8
LAYER_2
  6
AIGENLINE007
 40
0.1305
 41
0.1305
 66
1
 10
0
 20
0
 30
0
 70
128
  0
VERTEX
  8
LAYER_2
 10
130.5403
 20
90.6117
  0
VERTEX
  8
LAYER_2
 10
130.5399
 20
90.6248
  0
SEQEND
  0
INSERT
  8
LAYER_2
  2
AIGNBL020100B0
 10
0
 20
0
 30
0
  0
POLYLINE
  8
LAYER_2
  6
AIGENLINE009
 40
0.1305
 41
0.1305
 66
1
 10
0
 20
0
 30
0
 70
128
  0
VERTEX
  8
LAYER_2
 10
130.5338
 20
90.6919
  0
VERTEX
  8
LAYER_2
 10
130.5314
 20
90.7055
  0
SEQEND
  0
INSERT
  8
LAYER_2
  2
AIGNBL020100B1
 10
0
 20
0
 30
0
  0
INSERT
  8
LAYER_2
  2
AIGNBL020100B2
 10
0
 20
0
 30
0
  0
INSERT
  8
LAYER_2
  2
AIGNBL020100B3
 10
0
 20
0
 30
0
  0
INSERT
  8
LAYER_2
  2
AIGNBL020100B4
 10
0
 20
0
 30
0
  0
POLYLINE
  8
LAYER_2
  6
AIGENLINE011
 40
0.1305
 41
0.1305
 66
1
 10
0
 20
0
 30
0
 70
128
  0
VERTEX
  8
LAYER_2
 10
130.2304
 20
91.1242
  0
VERTEX
  8
LAYER_2
 10
130.2177
 20
91.1318
  0
SEQEND
  0
POLYLINE
  8
LAYER_2
  6
AIGENLINE012
 40
0.1305
 41
0.1305
 66
1
 10
0
 20
0
 30
0
 70
128
  0
VERTEX
  8
LAYER_2
 10
130.2173
 20
91.1313
  0
VERTEX
  8
LAYER_2
 10
130.2037
 20
91.1379
  0
SEQEND
  0
POLYLINE
  8
LAYER_2
  6
AIGENLINE011
 40
0.1305
 41
0.1305
 66
1
 10
0
 20
0
 30
0
 70
128
  0
VERTEX
  8
LAYER_2
 10
130.2041
 20
91.1379
  0
VERTEX
  8
LAYER_2
 10
130.191
 20
91.1444
  0
SEQEND
  0
POLYLINE
  8
LAYER_2
  6
AIGENLINE012
 40
0.1305
 41
0.1305
 66
1
 10
0
 20
0
 30
0
 70
128
  0
VERTEX
  8
LAYER_2
 10
130.191
 20
91.1444
  0
VERTEX
  8
LAYER_2
 10
130.1774
 20
91.1505
  0
SEQEND
  0
POLYLINE
  8
LAYER_2
  6
AIGENLINE009
 40
0.1305
 41
0.1305
 66
1
 10
0
 20
0
 30
0
 70
128
  0
VERTEX
  8
LAYER_2
 10
130.1774
 20
91.1505
  0
VERTEX
  8
LAYER_2
 10
130.1643
 20
91.1552
  0
SEQEND
  0
POLYLINE
  8
LAYER_2
  6
AIGENLINE012
 40
0.1305
 41
0.1305
 66
1
 10
0
 20
0
 30
0
 70
128
  0
VERTEX
  8
LAYER_2
 10
130.1643
 20
91.1552
  0
VERTEX
  8
LAYER_2
 10
130.1507
 20
91.1603
  0
SEQEND
  0
POLYLINE
  8
LAYER_2
  6
AIGENLINE011
 40
0.1305
 41
0.1305
 66
1
 10
0
 20
0
 30
0
 70
128
  0
VERTEX
  8
LAYER_2
 10
130.1507
 20
91.1608
  0
VERTEX
  8
LAYER_2
 10
130.1371
 20
91.166
  0
SEQEND
  0
INSERT
  8
LAYER_2
  2
AIGNBL020100B5
 10
0
 20
0
 30
0
  0
POLYLINE
  8
LAYER_2
  6
AIGENLINE011
 40
0.1305
 41
0.1305
 66
1
 10
0
 20
0
 30
0
 70
128
  0
VERTEX
  8
LAYER_2
 10
130.1103
 20
91.1744
  0
VERTEX
  8
LAYER_2
 10
130.0968
 20
91.1782
  0
SEQEND
  0
POLYLINE
  8
LAYER_2
  6
AIGENLINE008
 40
0.1305
 41
0.1305
 66
1
 10
0
 20
0
 30
0
 70
128
  0
VERTEX
  8
LAYER_2
 10
130.0968
 20
91.1782
  0
VERTEX
  8
LAYER_2
 10
130.0831
 20
91.1819
  0
SEQEND
  0
POLYLINE
  8
LAYER_2
  6
AIGENLINE009
 40
0.1305
 41
0.1305
 66
1
 10
0
 20
0
 30
0
 70
128
  0
VERTEX
  8
LAYER_2
 10
130.0831
 20
91.1815
  0
VERTEX
  8
LAYER_2
 10
130.0695
 20
91.1847
  0
SEQEND
  0
INSERT
  8
LAYER_2
  2
AIGNBL020100B6
 10
0
 20
0
 30
0
  0
POLYLINE
  8
LAYER_2
  6
AIGENLINE007
 40
0.1305
 41
0.1305
 66
1
 10
0
 20
0
 30
0
 70
128
  0
VERTEX
  8
LAYER_2
 10
130.0156
 20
91.1941
  0
VERTEX
  8
LAYER_2
 10
130.0025
 20
91.196
  0
SEQEND
  0
POLYLINE
  8
LAYER_2
  6
AIGENLINE008
 40
0.1305
 41
0.1305
 66
1
 10
0
 20
0
 30
0
 70
128
  0
VERTEX
  8
LAYER_2
 10
130.0025
 20
91.1955
  0
VERTEX
  8
LAYER_2
 10
129.9889
 20
91.1969
  0
SEQEND
  0
INSERT
  8
LAYER_2
  2
AIGNBL020100B7
 10
0
 20
0
 30
0
  0
POLYLINE
  8
LAYER_2
 40
0.1305
 41
0.1305
 66
1
 10
0
 20
0
 30
0
  0
VERTEX
  8
LAYER_2
 10
109.7506
 20
90.525
  0
VERTEX
  8
LAYER_2
 10
110.1037
 20
90.525
  0
SEQEND
  0
POLYLINE
  8
LAYER_2
  6
AIGENLINE065
 40
0.1305
 41
0.1305
 66
1
 10
0
 20
0
 30
0
 70
128
  0
VERTEX
  8
LAYER_2
 10
110.7954
 20
90.525
  0
VERTEX
  8
LAYER_2
 10
129.8332
 20
90.525
  0
SEQEND
  0
POLYLINE
  8
LAYER_2
 40
0.1305
 41
0.1305
 66
1
 10
0
 20
0
 30
0
  0
VERTEX
  8
LAYER_2
 10
130.1793
 20
90.525
  0
VERTEX
  8
LAYER_2
 10
130.5324
 20
90.525
  0
SEQEND
  0
POLYLINE
  8
LAYER_2
 40
0.1305
 41
0.1305
 66
1
 10
0
 20
0
 30
0
  0
VERTEX
  8
LAYER_2
 10
173.7507
 20
90.525
  0
VERTEX
  8
LAYER_2
 10
173.3981
 20
90.525
  0
SEQEND
  0
POLYLINE
  8
LAYER_2
  6
AIGENLINE061
 40
0.1305
 41
0.1305
 66
1
 10
0
 20
0
 30
0
 70
128
  0
VERTEX
  8
LAYER_2
 10
172.7041
 20
90.525
  0
VERTEX
  8
LAYER_2
 10
138.3512
 20
90.525
  0
SEQEND
  0
POLYLINE
  8
LAYER_2
 40
0.1305
 41
0.1305
 66
1
 10
0
 20
0
 30
0
  0
VERTEX
  8
LAYER_2
 10
138.0042
 20
90.525
  0
VERTEX
  8
LAYER_2
 10
137.6511
 20
90.525
  0
SEQEND
  0
POLYLINE
  8
LAYER_2
 40
0.1305
 41
0.1305
 66
1
 10
0
 20
0
 30
0
  0
VERTEX
  8
LAYER_2
 10
136.4009
 20
91.12
  0
VERTEX
  8
LAYER_2
 10
136.0483
 20
91.12
  0
SEQEND
  0
POLYLINE
  8
LAYER_2
  6
AIGENLINE042
 40
0.1305
 41
0.1305
 66
1
 10
0
 20
0
 30
0
 70
128
  0
VERTEX
  8
LAYER_2
 10
135.2694
 20
91.12
  0
VERTEX
  8
LAYER_2
 10
132.5431
 20
91.12
  0
SEQEND
  0
POLYLINE
  8
LAYER_2
 40
0.1305
 41
0.1305
 66
1
 10
0
 20
0
 30
0
  0
VERTEX
  8
LAYER_2
 10
132.1539
 20
91.12
  0
VERTEX
  8
LAYER_2
 10
131.8008
 20
91.12
  0
SEQEND
  0
POLYLINE
  8
LAYER_2
 40
0.1305
 41
0.1305
 66
1
 10
0
 20
0
 30
0
  0
VERTEX
  8
LAYER_2
 10
137.7421
 20
92.1765
  0
VERTEX
  8
LAYER_2
 10
137.389
 20
92.1765
  0
SEQEND
  0
POLYLINE
  8
LAYER_2
  6
AIGENLINE043
 40
0.1305
 41
0.1305
 66
1
 10
0
 20
0
 30
0
 70
128
  0
VERTEX
  8
LAYER_2
 10
136.6448
 20
92.1765
  0
VERTEX
  8
LAYER_2
 10
131.0632
 20
92.1765
  0
SEQEND
  0
POLYLINE
  8
LAYER_2
 40
0.1305
 41
0.1305
 66
1
 10
0
 20
0
 30
0
  0
VERTEX
  8
LAYER_2
 10
130.6909
 20
92.1765
  0
VERTEX
  8
LAYER_2
 10
130.3378
 20
92.1765
  0
SEQEND
  0
POLYLINE
  8
LAYER_2
  6
AIGENLINE066
 40
0.1305
 41
0.1305
 66
1
 10
0
 20
0
 30
0
 70
128
  0
VERTEX
  8
LAYER_2
 10
137.7421
 20
92.1765
 42
0.1723081465
  0
VERTEX
  8
LAYER_2
 10
137.4954
 20
92.0776
  0
SEQEND
  0
POLYLINE
  8
LAYER_2
 40
0.1305
 41
0.1305
 66
1
 10
0
 20
0
 30
0
  0
VERTEX
  8
LAYER_2
 10
137.4954
 20
92.0776
  0
VERTEX
  8
LAYER_2
 10
137.23
 20
91.8459
  0
SEQEND
  0
POLYLINE
  8
LAYER_2
 40
0.1305
 41
0.1305
 66
1
 10
0
 20
0
 30
0
  0
VERTEX
  8
LAYER_2
 10
136.6664
 20
91.3521
  0
VERTEX
  8
LAYER_2
 10
136.4009
 20
91.12
  0
VERTEX
  8
LAYER_2
 10
136.4009
 20
90.7669
  0
SEQEND
  0
POLYLINE
  8
LAYER_2
  6
AIGENLINE067
 40
0.1305
 41
0.1305
 66
1
 10
0
 20
0
 30
0
 70
128
  0
VERTEX
  8
LAYER_2
 10
136.401
 20
90.1892
  0
VERTEX
  8
LAYER_2
 10
136.401
 20
88.1668
  0
SEQEND
  0
POLYLINE
  8
LAYER_2
 40
0.1305
 41
0.1305
 66
1
 10
0
 20
0
 30
0
  0
VERTEX
  8
LAYER_2
 10
136.401
 20
87.8779
  0
VERTEX
  8
LAYER_2
 10
136.401
 20
87.5248
  0
SEQEND
  0
POLYLINE
  8
LAYER_2
  6
AIGENLINE046
 40
0.1305
 41
0.1305
 66
1
 10
0
 20
0
 30
0
 70
128
  0
VERTEX
  8
LAYER_2
 10
130.7289
 20
92.0588
 42
0.1704053912
  0
VERTEX
  8
LAYER_2
 10
130.4803
 20
92.1578
  0
SEQEND
  0
POLYLINE
  8
LAYER_2
 40
0.1305
 41
0.1305
 66
1
 10
0
 20
0
 30
0
  0
VERTEX
  8
LAYER_2
 10
130.7289
 20
92.0588
  0
VERTEX
  8
LAYER_2
 10
130.9943
 20
91.8262
  0
SEQEND
  0
POLYLINE
  8
LAYER_2
 40
0.1305
 41
0.1305
 66
1
 10
0
 20
0
 30
0
  0
VERTEX
  8
LAYER_2
 10
131.5359
 20
91.3521
  0
VERTEX
  8
LAYER_2
 10
131.8013
 20
91.12
  0
VERTEX
  8
LAYER_2
 10
131.8013
 20
90.7669
  0
SEQEND
  0
POLYLINE
  8
LAYER_2
  6
AIGENLINE067
 40
0.1305
 41
0.1305
 66
1
 10
0
 20
0
 30
0
 70
128
  0
VERTEX
  8
LAYER_2
 10
131.8013
 20
90.1892
  0
VERTEX
  8
LAYER_2
 10
131.8013
 20
88.1668
  0
SEQEND
  0
POLYLINE
  8
LAYER_2
 40
0.1305
 41
0.1305
 66
1
 10
0
 20
0
 30
0
  0
VERTEX
  8
LAYER_2
 10
131.8013
 20
87.8779
  0
VERTEX
  8
LAYER_2
 10
131.8013
 20
87.5248
  0
SEQEND
  0
POLYLINE
  8
LAYER_2
 40
0.1305
 41
0.1305
 66
1
 10
0
 20
0
 30
0
  0
VERTEX
  8
LAYER_2
 10
173.5509
 20
100.8253
  0
VERTEX
  8
LAYER_2
 10
173.1983
 20
100.8253
  0
SEQEND
  0
POLYLINE
  8
LAYER_2
  6
AIGENLINE061
 40
0.1305
 41
0.1305
 66
1
 10
0
 20
0
 30
0
 70
128
  0
VERTEX
  8
LAYER_2
 10
172.5048
 20
100.8253
  0
VERTEX
  8
LAYER_2
 10
164.5303
 20
100.8253
  0
SEQEND
  0
POLYLINE
  8
LAYER_2
 40
0.1305
 41
0.1305
 66
1
 10
0
 20
0
 30
0
  0
VERTEX
  8
LAYER_2
 10
164.1842
 20
100.8253
  0
VERTEX
  8
LAYER_2
 10
163.8311
 20
100.8253
  0
SEQEND
  0
POLYLINE
  8
LAYER_2
  6
AIGENLINE050
 40
0.1305
 41
0.1305
 66
1
 10
0
 20
0
 30
0
 70
128
  0
VERTEX
  8
LAYER_2
 10
163.8316
 20
100.8253
 42
0.3665362495
  0
VERTEX
  8
LAYER_2
 10
163.6327
 20
100.6457
  0
SEQEND
  0
POLYLINE
  8
LAYER_2
 40
0.1305
 41
0.1305
 66
1
 10
0
 20
0
 30
0
  0
VERTEX
  8
LAYER_2
 10
163.6323
 20
100.6542
  0
VERTEX
  8
LAYER_2
 10
163.5943
 20
100.3039
  0
SEQEND
  0
POLYLINE
  8
LAYER_2
  6
AIGENLINE051
 40
0.1305
 41
0.1305
 66
1
 10
0
 20
0
 30
0
 70
128
  0
VERTEX
  8
LAYER_2
 10
163.5254
 20
99.6657
  0
VERTEX
  8
LAYER_2
 10
162.8717
 20
93.6049
  0
SEQEND
  0
POLYLINE
  8
LAYER_2
 40
0.1305
 41
0.1305
 66
1
 10
0
 20
0
 30
0
  0
VERTEX
  8
LAYER_2
 10
162.8374
 20
93.286
  0
VERTEX
  8
LAYER_2
 10
162.7994
 20
92.9352
  0
SEQEND
  0
POLYLINE
  8
LAYER_2
 40
0.1305
 41
0.1305
 66
1
 10
0
 20
0
 30
0
  0
VERTEX
  8
LAYER_2
 10
161.275
 20
91.5045
 42
0.0553736489
  0
VERTEX
  8
LAYER_2
 10
161.6239
 20
91.5575
  0
SEQEND
  0
POLYLINE
  8
LAYER_2
  6
AIGENLINE052
 40
0.1305
 41
0.1305
 66
1
 10
0
 20
0
 30
0
 70
128
  0
VERTEX
  8
LAYER_2
 10
162.098
 20
91.7723
 42
0.122610963
  0
VERTEX
  8
LAYER_2
 10
162.6203
 20
92.35
  0
SEQEND
  0
POLYLINE
  8
LAYER_2
 40
0.1305
 41
0.1305
 66
1
 10
0
 20
0
 30
0
  0
VERTEX
  8
LAYER_2
 10
162.7244
 20
92.5906
 42
0.05448503283
  0
VERTEX
  8
LAYER_2
 10
162.7994
 20
92.9352
  0
SEQEND
  0
POLYLINE
  8
LAYER_2
 40
0.1305
 41
0.1305
 66
1
 10
0
 20
0
 30
0
  0
VERTEX
  8
LAYER_2
 10
161.275
 20
91.5045
  0
VERTEX
  8
LAYER_2
 10
160.9219
 20
91.4994
  0
SEQEND
  0
POLYLINE
  8
LAYER_2
  6
AIGENLINE068
 40
0.1305
 41
0.1305
 66
1
 10
0
 20
0
 30
0
 70
128
  0
VERTEX
  8
LAYER_2
 10
160.2068
 20
91.49
  0
VERTEX
  8
LAYER_2
 10
139.0944
 20
91.2119
  0
SEQEND
  0
POLYLINE
  8
LAYER_2
 40
0.1305
 41
0.1305
 66
1
 10
0
 20
0
 30
0
  0
VERTEX
  8
LAYER_2
 10
138.7367
 20
91.2072
  0
VERTEX
  8
LAYER_2
 10
138.384
 20
91.2021
  0
SEQEND
  0
POLYLINE
  8
LAYER_2
  6
AIGENLINE054
 40
0.1305
 41
0.1305
 66
1
 10
0
 20
0
 30
0
 70
128
  0
VERTEX
  8
LAYER_2
 10
137.7196
 20
90.6792
 42
0.2140460803
  0
VERTEX
  8
LAYER_2
 10
137.6516
 20
90.5287
  0
SEQEND
  0
POLYLINE
  8
LAYER_2
 40
0.1305
 41
0.1305
 66
1
 10
0
 20
0
 30
0
  0
VERTEX
  8
LAYER_2
 10
137.7196
 20
90.6792
  0
VERTEX
  8
LAYER_2
 10
137.985
 20
90.9113
  0
SEQEND
  0
POLYLINE
  8
LAYER_2
 40
0.1305
 41
0.1305
 66
1
 10
0
 20
0
 30
0
  0
VERTEX
  8
LAYER_2
 10
137.9953
 20
90.9207
  0
VERTEX
  8
LAYER_2
 10
138.2607
 20
91.1528
  0
SEQEND
  0
POLYLINE
  8
LAYER_2
  6
AIGENLINE055
 40
0.1305
 41
0.1305
 66
1
 10
0
 20
0
 30
0
 70
128
  0
VERTEX
  8
LAYER_2
 10
138.384
 20
91.2021
 42
0.1701750566
  0
VERTEX
  8
LAYER_2
 10
138.2607
 20
91.1528
  0
SEQEND
  0
POLYLINE
  8
LAYER_2
 40
0.1305
 41
0.1305
 66
1
 10
0
 20
0
 30
0
  0
VERTEX
  8
LAYER_2
 10
137.6511
 20
87.5248
  0
VERTEX
  8
LAYER_2
 10
137.6511
 20
87.8779
  0
SEQEND
  0
POLYLINE
  8
LAYER_2
  6
AIGENLINE069
 40
0.1305
 41
0.1305
 66
1
 10
0
 20
0
 30
0
 70
128
  0
VERTEX
  8
LAYER_2
 10
137.6511
 20
88.6427
  0
VERTEX
  8
LAYER_2
 10
137.6511
 20
89.7902
  0
SEQEND
  0
POLYLINE
  8
LAYER_2
 40
0.1305
 41
0.1305
 66
1
 10
0
 20
0
 30
0
  0
VERTEX
  8
LAYER_2
 10
137.6511
 20
90.1723
  0
VERTEX
  8
LAYER_2
 10
137.6511
 20
90.525
  0
SEQEND
  0
POLYLINE
  8
LAYER_2
 40
0.1305
 41
0.1305
 66
1
 10
0
 20
0
 30
0
  0
VERTEX
  8
LAYER_2
 10
174.7509
 20
90.525
  0
VERTEX
  8
LAYER_2
 10
174.3983
 20
90.525
  0
SEQEND
  0
POLYLINE
  8
LAYER_2
 40
0.1305
 41
0.1305
 66
1
 10
0
 20
0
 30
0
  0
VERTEX
  8
LAYER_2
 10
174.1038
 20
90.525
  0
VERTEX
  8
LAYER_2
 10
173.7507
 20
90.525
  0
SEQEND
  0
POLYLINE
  8
LAYER_2
  6
AIGENLINE056
 40
0.1305
 41
0.1305
 66
1
 10
0
 20
0
 30
0
 70
128
  0
VERTEX
  8
LAYER_2
 10
173.7507
 20
100.6251
 42
0.3928489368
  0
VERTEX
  8
LAYER_2
 10
173.5514
 20
100.8253
  0
SEQEND
  0
POLYLINE
  8
LAYER_2
 40
0.1305
 41
0.1305
 66
1
 10
0
 20
0
 30
0
  0
VERTEX
  8
LAYER_2
 10
173.7507
 20
90.525
  0
VERTEX
  8
LAYER_2
 10
173.7507
 20
90.8781
  0
SEQEND
  0
POLYLINE
  8
LAYER_2
  6
AIGENLINE036
 40
0.1305
 41
0.1305
 66
1
 10
0
 20
0
 30
0
 70
128
  0
VERTEX
  8
LAYER_2
 10
173.7507
 20
91.6002
  0
VERTEX
  8
LAYER_2
 10
173.7507
 20
99.9109
  0
SEQEND
  0
POLYLINE
  8
LAYER_2
 40
0.1305
 41
0.1305
 66
1
 10
0
 20
0
 30
0
  0
VERTEX
  8
LAYER_2
 10
173.7507
 20
100.2725
  0
VERTEX
  8
LAYER_2
 10
173.7507
 20
100.6251
  0
SEQEND
  0
POLYLINE
  8
LAYER_2
 40
0.1305
 41
0.1305
 66
1
 10
0
 20
0
 30
0
  0
VERTEX
  8
LAYER_2
 10
130.5507
 20
87.5248
  0
VERTEX
  8
LAYER_2
 10
130.9033
 20
87.5248
  0
SEQEND
  0
POLYLINE
  8
LAYER_2
  6
AIGENLINE057
 40
0.1305
 41
0.1305
 66
1
 10
0
 20
0
 30
0
 70
128
  0
VERTEX
  8
LAYER_2
 10
131.6142
 20
87.5248
  0
VERTEX
  8
LAYER_2
 10
136.943
 20
87.5248
  0
SEQEND
  0
POLYLINE
  8
LAYER_2
 40
0.1305
 41
0.1305
 66
1
 10
0
 20
0
 30
0
  0
VERTEX
  8
LAYER_2
 10
137.2985
 20
87.5248
  0
VERTEX
  8
LAYER_2
 10
137.6516
 20
87.5248
  0
SEQEND
  0
CIRCLE
  8
LAYER_2
  6
AIGENLINE070
 10
134.1004
 20
100.0249
 40
1.0002
  0
POLYLINE
  8
LAYER_2
 40
0.1305
 41
0.1305
 66
1
 10
0
 20
0
 30
0
  0
VERTEX
  8
LAYER_2
 10
163.0213
 20
102.0248
  0
VERTEX
  8
LAYER_2
 10
162.6682
 20
102.0248
  0
SEQEND
  0
POLYLINE
  8
LAYER_2
  6
AIGENLINE071
 40
0.1305
 41
0.1305
 66
1
 10
0
 20
0
 30
0
 70
128
  0
VERTEX
  8
LAYER_2
 10
161.9662
 20
102.0248
  0
VERTEX
  8
LAYER_2
 10
106.1615
 20
102.0248
  0
SEQEND
  0
POLYLINE
  8
LAYER_2
 40
0.1305
 41
0.1305
 66
1
 10
0
 20
0
 30
0
  0
VERTEX
  8
LAYER_2
 10
105.8107
 20
102.0248
  0
VERTEX
  8
LAYER_2
 10
105.4581
 20
102.0248
  0
SEQEND
  0
CIRCLE
  8
LAYER_2
 10
134.0741
 20
168.1885
 40
3.55
  0
CIRCLE
  8
LAYER_2
 10
134.0507
 20
168.1885
 40
2.3001
  0
POLYLINE
  8
LAYER_2
 40
0.2646
 41
0.2646
 66
1
 10
0
 20
0
 30
0
  0
VERTEX
  8
LAYER_2
 10
105.3507
 20
181.189
  0
VERTEX
  8
LAYER_2
 10
162.7507
 20
181.189
  0
SEQEND
  0
POLYLINE
  8
LAYER_2
 40
0.2646
 41
0.2646
 66
1
 10
0
 20
0
 30
0
  0
VERTEX
  8
LAYER_2
 10
162.851
 20
181.0886
  0
VERTEX
  8
LAYER_2
 10
162.851
 20
145.6886
  0
SEQEND
  0
POLYLINE
  8
LAYER_2
 40
0.2646
 41
0.2646
 66
1
 10
0
 20
0
 30
0
  0
VERTEX
  8
LAYER_2
 10
174.7509
 20
193.0888
  0
VERTEX
  8
LAYER_2
 10
174.7509
 20
145.0889
  0
SEQEND
  0
POLYLINE
  8
LAYER_2
 40
0.2646
 41
0.2646
 66
1
 10
0
 20
0
 30
0
  0
VERTEX
  8
LAYER_2
 10
104.751
 20
193.0888
  0
VERTEX
  8
LAYER_2
 10
174.7509
 20
193.0888
  0
SEQEND
  0
POLYLINE
  8
LAYER_2
 40
0.2646
 41
0.2646
 66
1
 10
0
 20
0
 30
0
  0
VERTEX
  8
LAYER_2
 10
104.751
 20
145.0889
  0
VERTEX
  8
LAYER_2
 10
104.751
 20
193.0888
  0
SEQEND
  0
POLYLINE
  8
LAYER_2
 40
0.2646
 41
0.2646
 66
1
 10
0
 20
0
 30
0
  0
VERTEX
  8
LAYER_2
 10
174.7509
 20
145.0889
  0
VERTEX
  8
LAYER_2
 10
104.7505
 20
145.0889
  0
SEQEND
  0
POLYLINE
  8
LAYER_2
 40
0.2646
 41
0.2646
 66
1
 10
0
 20
0
 30
0
  0
VERTEX
  8
LAYER_2
 10
174.1512
 20
145.6886
  0
VERTEX
  8
LAYER_2
 10
105.3507
 20
145.6886
  0
VERTEX
  8
LAYER_2
 10
105.3507
 20
192.4886
  0
VERTEX
  8
LAYER_2
 10
174.1512
 20
192.4886
  0
VERTEX
  8
LAYER_2
 10
174.1512
 20
145.6886
  0
SEQEND
  0
POLYLINE
  8
LAYER_2
 40
0.2646
 41
0.2646
 66
1
 10
0
 20
0
 30
0
  0
VERTEX
  8
LAYER_2
 10
137.6009
 20
87.5253
  0
VERTEX
  8
LAYER_2
 10
130.6008
 20
87.5253
  0
SEQEND
  0
POLYLINE
  8
LAYER_2
 40
0.2646
 41
0.2646
 66
1
 10
0
 20
0
 30
0
  0
VERTEX
  8
LAYER_2
 10
130.5455
 20
90.525
  0
VERTEX
  8
LAYER_2
 10
130.5455
 20
87.5253
  0
SEQEND
  0
POLYLINE
  8
LAYER_2
 40
0.2646
 41
0.2646
 66
1
 10
0
 20
0
 30
0
  0
VERTEX
  8
LAYER_2
 10
137.6511
 20
90.5254
  0
VERTEX
  8
LAYER_2
 10
137.6511
 20
87.5257
  0
SEQEND
  0
POLYLINE
  8
LAYER_2
 40
0.2646
 41
0.2646
 66
1
 10
0
 20
0
 30
0
  0
VERTEX
  8
LAYER_2
 10
174.7509
 20
90.5254
  0
VERTEX
  8
LAYER_2
 10
104.7505
 20
90.5254
  0
SEQEND
  0
POLYLINE
  8
LAYER_2
 40
0.2646
 41
0.2646
 66
1
 10
0
 20
0
 30
0
  0
VERTEX
  8
LAYER_2
 10
104.751
 20
90.5254
  0
VERTEX
  8
LAYER_2
 10
104.751
 20
103.0255
  0
VERTEX
  8
LAYER_2
 10
174.7509
 20
103.0255
  0
VERTEX
  8
LAYER_2
 10
174.7509
 20
90.5254
  0
SEQEND
  0
POLYLINE
  8
LAYER_2
 40
0.2646
 41
0.2646
 66
1
 10
0
 20
0
 30
0
  0
VERTEX
  8
LAYER_2
 10
22.4591
 20
90.5254
  0
VERTEX
  8
LAYER_2
 10
70.4595
 20
90.5254
  0
VERTEX
  8
LAYER_2
 10
70.4595
 20
102.7798
  0
SEQEND
  0
POLYLINE
  8
LAYER_2
 40
0.2646
 41
0.2646
 66
1
 10
0
 20
0
 30
0
  0
VERTEX
  8
LAYER_2
 10
22.4591
 20
90.5254
  0
VERTEX
  8
LAYER_2
 10
22.4591
 20
102.7756
  0
SEQEND
  0
POLYLINE
  8
LAYER_2
 40
0.2646
 41
0.2646
 66
1
 10
0
 20
0
 30
0
  0
VERTEX
  8
LAYER_2
 10
22.7091
 20
103.0255
  0
VERTEX
  8
LAYER_2
 10
70.1439
 20
103.0255
  0
SEQEND
  0
POLYLINE
  8
LAYER_2
 40
0.2646
 41
0.2646
 66
1
 10
0
 20
0
 30
0
  0
VERTEX
  8
LAYER_2
 10
51.01
 20
87.5253
  0
VERTEX
  8
LAYER_2
 10
51.009
 20
90.5254
  0
SEQEND
  0
POLYLINE
  8
LAYER_2
 40
0.2646
 41
0.2646
 66
1
 10
0
 20
0
 30
0
  0
VERTEX
  8
LAYER_2
 10
43.9096
 20
88.351
  0
VERTEX
  8
LAYER_2
 10
33.4347
 20
88.9939
  0
SEQEND
  0
POLYLINE
  8
LAYER_2
 40
0.2646
 41
0.2646
 66
1
 10
0
 20
0
 30
0
  0
VERTEX
  8
LAYER_2
 10
32.8744
 20
89.5365
 42
0.36933036
  0
VERTEX
  8
LAYER_2
 10
33.4352
 20
88.9939
  0
SEQEND
  0
POLYLINE
  8
LAYER_2
 40
0.2646
 41
0.2646
 66
1
 10
0
 20
0
 30
0
  0
VERTEX
  8
LAYER_2
 10
43.9096
 20
87.5253
  0
VERTEX
  8
LAYER_2
 10
43.9096
 20
90.5254
  0
SEQEND
  0
POLYLINE
  8
LAYER_2
 40
0.2646
 41
0.2646
 66
1
 10
0
 20
0
 30
0
  0
VERTEX
  8
LAYER_2
 10
51.01
 20
87.5253
  0
VERTEX
  8
LAYER_2
 10
43.9095
 20
87.5253
  0
SEQEND
  0
POLYLINE
  8
LAYER_2
 40
0.2646
 41
0.2646
 66
1
 10
0
 20
0
 30
0
  0
VERTEX
  8
LAYER_2
 10
32.8744
 20
89.5365
  0
VERTEX
  8
LAYER_2
 10
32.7815
 20
90.5259
  0
SEQEND
  0
POLYLINE
  8
LAYER_2
 40
0.2646
 41
0.2646
 66
1
 10
0
 20
0
 30
0
  0
VERTEX
  8
LAYER_2
 10
22.7091
 20
103.0255
 42
0.4142462436
  0
VERTEX
  8
LAYER_2
 10
22.4591
 20
102.7756
  0
SEQEND
  0
POLYLINE
  8
LAYER_2
 40
0.2646
 41
0.2646
 66
1
 10
0
 20
0
 30
0
  0
VERTEX
  8
LAYER_2
 10
70.4595
 20
102.7756
 42
0.4141731141
  0
VERTEX
  8
LAYER_2
 10
70.2026
 20
103.0326
  0
VERTEX
  8
LAYER_2
 10
70.1435
 20
103.0255
  0
SEQEND
  0
TEXT
  8
LAYER_2
 10
121.3504
 20
177.512
 11
121.3504
 21
177.512
 40
2.3694
 41
0.5
 50
270
 62
1
  1
320
  0
INSERT
  8
LAYER_2
  2
AIGNBL020100B8
 10
0
 20
0
 30
0
  0
POLYLINE
  8
LAYER_2
 40
0.1058
 41
0.1058
 66
1
 10
0
 20
0
 30
0
  0
VERTEX
  8
LAYER_2
 10
127.8272
 20
159.645
  0
VERTEX
  8
LAYER_2
 10
140.2857
 20
159.645
  0
SEQEND
  0
POLYLINE
  8
LAYER_2
 40
0.05
 41
0.05
 66
1
 10
0
 20
0
 30
0
  0
VERTEX
  8
LAYER_2
 10
139.6453
 20
159.3115
  0
VERTEX
  8
LAYER_2
 10
139.6453
 20
159.9785
  0
VERTEX
  8
LAYER_2
 10
140.4331
 20
159.6457
  0
SEQEND
  0
TEXT
  8
LAYER_2
 10
132.4563
 20
157.4487
 11
132.4563
 21
157.4487
 40
2.3694
 41
0.5
 62
1
  1
130
  0
POLYLINE
  8
LAYER_2
 40
0.05
 41
0.05
 66
1
 10
0
 20
0
 30
0
  0
VERTEX
  8
LAYER_2
 10
128.2212
 20
159.2939
  0
VERTEX
  8
LAYER_2
 10
127.4334
 20
159.6268
  0
VERTEX
  8
LAYER_2
 10
128.2212
 20
159.9609
  0
SEQEND
  0
POLYLINE
  8
LAYER_2
  6
AIGENLINE072
 40
0.0882
 41
0.0882
 62
1
 66
1
 10
0
 20
0
 30
0
 70
129
  0
VERTEX
  8
LAYER_2
 10
127.4331
 20
193.0888
  0
VERTEX
  8
LAYER_2
 10
140.4328
 20
193.0888
  0
VERTEX
  8
LAYER_2
 10
140.4328
 20
161.0888
  0
VERTEX
  8
LAYER_2
 10
127.4331
 20
161.0888
  0
SEQEND
  0
TEXT
  8
LAYER_2
 10
121.6971
 20
138.1507
 11
121.6971
 21
138.1507
 40
2.517
 41
0.5
  1
カウンター開口寸法：130×320
  0
ENDSEC
  0
EOF
