  0
SECTION
  2
HEADER
  9
$ACADVER
  1
AC1009
  9
$LUNITS
 70
2
  9
$LUPREC
 70
4
  9
$LTSCALE
 40
1.0
  9
$EXTMIN
 10
-30.3177
 20
33.3285
 30
0
  9
$EXTMAX
 10
251.6749
 20
230.337
 30
0
  0
ENDSEC
  0
SECTION
  2
TABLES
  0
TABLE
  2
LTYPE
 70
256
  0
LTYPE
  2
AIGENLINE001
 70
64
  3
generate AI->DXF Converter
 72
65
 73
2
 40
1.103
 49
0.5515
 49
-0.5515
  0
LTYPE
  2
AIGENLINE002
 70
64
  3
generate AI->DXF Converter
 72
65
 73
2
 40
1.1023
 49
0.5511
 49
-0.5511
  0
LTYPE
  2
AIGENLINE003
 70
64
  3
generate AI->DXF Converter
 72
65
 73
2
 40
1.6609
 49
0.8304
 49
-0.8304
  0
LTYPE
  2
AIGENLINE004
 70
64
  3
generate AI->DXF Converter
 72
65
 73
2
 40
1.6813
 49
0.8407
 49
-0.8407
  0
LTYPE
  2
AIGENLINE005
 70
64
  3
generate AI->DXF Converter
 72
65
 73
2
 40
1.4323
 49
0.7162
 49
-0.7162
  0
LTYPE
  2
AIGENLINE006
 70
64
  3
generate AI->DXF Converter
 72
65
 73
2
 40
0.6876
 49
0.3438
 49
-0.3438
  0
LTYPE
  2
AIGENLINE007
 70
64
  3
generate AI->DXF Converter
 72
65
 73
2
 40
1.6461
 49
0.823
 49
-0.823
  0
LTYPE
  2
AIGENLINE008
 70
64
  3
generate AI->DXF Converter
 72
65
 73
2
 40
1.6348
 49
0.8174
 49
-0.8174
  0
LTYPE
  2
AIGENLINE009
 70
64
  3
generate AI->DXF Converter
 72
65
 73
2
 40
1.1467
 49
0.5734
 49
-0.5734
  0
LTYPE
  2
AIGENLINE010
 70
64
  3
generate AI->DXF Converter
 72
65
 73
2
 40
1.4246
 49
0.7123
 49
-0.7123
  0
LTYPE
  2
AIGENLINE011
 70
64
  3
generate AI->DXF Converter
 72
65
 73
2
 40
2.1263
 49
1.0632
 49
-1.0632
  0
LTYPE
  2
AIGENLINE012
 70
64
  3
generate AI->DXF Converter
 72
65
 73
2
 40
1.1277
 49
0.5638
 49
-0.5638
  0
LTYPE
  2
AIGENLINE013
 70
64
  3
generate AI->DXF Converter
 72
65
 73
2
 40
1.8012
 49
0.9006
 49
-0.9006
  0
LTYPE
  2
AIGENLINE014
 70
64
  3
generate AI->DXF Converter
 72
65
 73
2
 40
1.4098
 49
0.7049
 49
-0.7049
  0
LTYPE
  2
AIGENLINE015
 70
64
  3
generate AI->DXF Converter
 72
65
 73
2
 40
1.5769
 49
0.7885
 49
-0.7885
  0
LTYPE
  2
AIGENLINE016
 70
64
  3
generate AI->DXF Converter
 72
65
 73
2
 40
1.627
 49
0.8135
 49
-0.8135
  0
LTYPE
  2
AIGENLINE017
 70
64
  3
generate AI->DXF Converter
 72
65
 73
2
 40
1.8577
 49
0.9288
 49
-0.9288
  0
LTYPE
  2
AIGENLINE018
 70
64
  3
generate AI->DXF Converter
 72
65
 73
2
 40
1.6729
 49
0.8364
 49
-0.8364
  0
LTYPE
  2
AIGENLINE019
 70
64
  3
generate AI->DXF Converter
 72
65
 73
2
 40
1.7194
 49
0.8597
 49
-0.8597
  0
LTYPE
  2
AIGENLINE020
 70
64
  3
generate AI->DXF Converter
 72
65
 73
2
 40
1.7702
 49
0.8851
 49
-0.8851
  0
LTYPE
  2
AIGENLINE021
 70
64
  3
generate AI->DXF Converter
 72
65
 73
2
 40
1.5347
 49
0.7673
 49
-0.7673
  0
LTYPE
  2
AIGENLINE022
 70
64
  3
generate AI->DXF Converter
 72
65
 73
2
 40
1.8189
 49
0.9094
 49
-0.9094
  0
LTYPE
  2
AIGENLINE023
 70
64
  3
generate AI->DXF Converter
 72
65
 73
2
 40
1.651
 49
0.8255
 49
-0.8255
  0
LTYPE
  2
AIGENLINE024
 70
64
  3
generate AI->DXF Converter
 72
65
 73
2
 40
1.6849
 49
0.8424
 49
-0.8424
  0
LTYPE
  2
AIGENLINE025
 70
64
  3
generate AI->DXF Converter
 72
65
 73
2
 40
1.5854
 49
0.7927
 49
-0.7927
  0
LTYPE
  2
AIGENLINE026
 70
64
  3
generate AI->DXF Converter
 72
65
 73
2
 40
1.6404
 49
0.8202
 49
-0.8202
  0
LTYPE
  2
AIGENLINE027
 70
64
  3
generate AI->DXF Converter
 72
65
 73
2
 40
1.833
 49
0.9165
 49
-0.9165
  0
LTYPE
  2
AIGENLINE028
 70
64
  3
generate AI->DXF Converter
 72
65
 73
2
 40
1.7772
 49
0.8886
 49
-0.8886
  0
LTYPE
  2
AIGENLINE029
 70
64
  3
generate AI->DXF Converter
 72
65
 73
2
 40
1.7659
 49
0.883
 49
-0.883
  0
LTYPE
  2
AIGENLINE030
 70
64
  3
generate AI->DXF Converter
 72
65
 73
2
 40
1.7293
 49
0.8647
 49
-0.8647
  0
LTYPE
  2
AIGENLINE031
 70
64
  3
generate AI->DXF Converter
 72
65
 73
2
 40
1.8047
 49
0.9024
 49
-0.9024
  0
LTYPE
  2
AIGENLINE032
 70
64
  3
generate AI->DXF Converter
 72
65
 73
2
 40
1.4443
 49
0.7222
 49
-0.7222
  0
LTYPE
  2
AIGENLINE033
 70
64
  3
generate AI->DXF Converter
 72
65
 73
2
 40
0.7434
 49
0.3717
 49
-0.3717
  0
LTYPE
  2
AIGENLINE034
 70
64
  3
generate AI->DXF Converter
 72
65
 73
2
 40
1.5241
 49
0.762
 49
-0.762
  0
LTYPE
  2
AIGENLINE035
 70
64
  3
generate AI->DXF Converter
 72
65
 73
2
 40
1.3181
 49
0.6591
 49
-0.6591
  0
LTYPE
  2
AIGENLINE036
 70
64
  3
generate AI->DXF Converter
 72
65
 73
2
 40
1.4126
 49
0.7063
 49
-0.7063
  0
LTYPE
  2
AIGENLINE037
 70
64
  3
generate AI->DXF Converter
 72
65
 73
2
 40
0.4718
 49
0.2359
 49
-0.2359
  0
LTYPE
  2
AIGENLINE038
 70
64
  3
generate AI->DXF Converter
 72
65
 73
2
 40
0.469
 49
0.2345
 49
-0.2345
  0
LTYPE
  2
AIGENLINE039
 70
64
  3
generate AI->DXF Converter
 72
65
 73
2
 40
1.0396
 49
0.5198
 49
-0.5198
  0
LTYPE
  2
AIGENLINE040
 70
64
  3
generate AI->DXF Converter
 72
65
 73
2
 40
0.7056
 49
0.3528
 49
-0.3528
  0
LTYPE
  2
AIGENLINE041
 70
64
  3
generate AI->DXF Converter
 72
65
 73
2
 40
1.0001
 49
0.5
 49
-0.5
  0
LTYPE
  2
AIGENLINE042
 70
64
  3
generate AI->DXF Converter
 72
65
 73
2
 40
1.6178
 49
0.8089
 49
-0.8089
  0
LTYPE
  2
AIGENLINE043
 70
64
  3
generate AI->DXF Converter
 72
65
 73
2
 40
1.7173
 49
0.8587
 49
-0.8587
  0
LTYPE
  2
AIGENLINE044
 70
64
  3
generate AI->DXF Converter
 72
65
 73
2
 40
0.4711
 49
0.2356
 49
-0.2356
  0
LTYPE
  2
AIGENLINE045
 70
64
  3
generate AI->DXF Converter
 72
65
 73
2
 40
1.7187
 49
0.8594
 49
-0.8594
  0
LTYPE
  2
AIGENLINE046
 70
64
  3
generate AI->DXF Converter
 72
65
 73
2
 40
0.4704
 49
0.2352
 49
-0.2352
  0
LTYPE
  2
AIGENLINE047
 70
64
  3
generate AI->DXF Converter
 72
65
 73
2
 40
0.9866
 49
0.4933
 49
-0.4933
  0
LTYPE
  2
AIGENLINE048
 70
64
  3
generate AI->DXF Converter
 72
65
 73
2
 40
0.9874
 49
0.4937
 49
-0.4937
  0
LTYPE
  2
AIGENLINE049
 70
64
  3
generate AI->DXF Converter
 72
65
 73
2
 40
1.4803
 49
0.7402
 49
-0.7402
  0
LTYPE
  2
AIGENLINE050
 70
64
  3
generate AI->DXF Converter
 72
65
 73
2
 40
1.4486
 49
0.7243
 49
-0.7243
  0
ENDTAB
  0
TABLE
  2
LAYER
 70
2
  0
LAYER
  2
LAYER_1
 70
64
 62
7
  6
CONTINUOUS
  0
LAYER
  2
LAYER_2
 70
64
 62
7
  6
CONTINUOUS
  0
ENDTAB
  0
TABLE
  2
STYLE
 70
6
  0
STYLE
  2
STANDARD
 70
0
 40
0
 50
0
 71
0
 41
0
 42
0
  3
TXT
  4
BIGFONT
  0
ENDTAB
  0
ENDSEC
  0
SECTION
  2
BLOCKS
  0
BLOCK
  8
LAYER_2
  2
AIGNBL02040009
 70
64
 10
0
 20
0
 30
0
  3
AIGNBL02040009
  0
POLYLINE
  8
LAYER_2
 40
0.05
 41
0.05
 66
1
 10
0
 20
0
 30
0
 70
1
  0
VERTEX
  8
LAYER_2
 10
146.7545
 20
39.1418
  0
VERTEX
  8
LAYER_2
 10
146.2657
 20
37.9567
  0
VERTEX
  8
LAYER_2
 10
145.6376
 20
37.9567
  0
VERTEX
  8
LAYER_2
 10
147.2372
 20
41.7225
  0
VERTEX
  8
LAYER_2
 10
147.9703
 20
41.7225
  0
VERTEX
  8
LAYER_2
 10
149.5767
 20
37.9567
  0
VERTEX
  8
LAYER_2
 10
148.9267
 20
37.9567
  0
VERTEX
  8
LAYER_2
 10
148.424
 20
39.1418
  0
SEQEND
  0
POLYLINE
  8
LAYER_2
 40
0.05
 41
0.05
 66
1
 10
0
 20
0
 30
0
 70
1
  0
VERTEX
  8
LAYER_2
 10
148.2983
 20
39.5208
  0
VERTEX
  8
LAYER_2
 10
147.8373
 20
40.6056
 42
-0.02317247198
  0
VERTEX
  8
LAYER_2
 10
147.5927
 20
41.2926
  0
VERTEX
  8
LAYER_2
 10
147.5789
 20
41.2926
 42
-0.02064481114
  0
VERTEX
  8
LAYER_2
 10
147.3412
 20
40.6101
  0
VERTEX
  8
LAYER_2
 10
146.8806
 20
39.5208
  0
SEQEND
  0
ENDBLK
  0
BLOCK
  8
LAYER_2
  2
AIGNBL0204000A
 70
64
 10
0
 20
0
 30
0
  3
AIGNBL0204000A
  0
POLYLINE
  8
LAYER_2
 40
0.05
 41
0.05
 66
1
 10
0
 20
0
 30
0
 70
1
  0
VERTEX
  8
LAYER_2
 10
153.942
 20
37.4034
 42
-0.01525137561
  0
VERTEX
  8
LAYER_2
 10
152.1399
 20
37.8396
 42
0.09192818596
  0
VERTEX
  8
LAYER_2
 10
151.8533
 20
37.895
 42
-0.09256808484
  0
VERTEX
  8
LAYER_2
 10
150.8994
 20
38.0977
 42
-0.09799469934
  0
VERTEX
  8
LAYER_2
 10
150.2621
 20
38.5324
 42
-0.1630918382
  0
VERTEX
  8
LAYER_2
 10
149.7964
 20
39.5259
 42
-0.0316951694
  0
VERTEX
  8
LAYER_2
 10
149.7793
 20
39.7998
 42
-0.1055313794
  0
VERTEX
  8
LAYER_2
 10
149.9533
 20
40.6417
 42
-0.1619874109
  0
VERTEX
  8
LAYER_2
 10
150.7418
 20
41.4867
 42
-0.09224146328
  0
VERTEX
  8
LAYER_2
 10
151.5409
 20
41.7524
 42
-0.03717154931
  0
VERTEX
  8
LAYER_2
 10
151.9725
 20
41.7838
 42
-0.09530535683
  0
VERTEX
  8
LAYER_2
 10
152.9361
 20
41.6062
 42
-0.1001834594
  0
VERTEX
  8
LAYER_2
 10
153.5732
 20
41.1834
 42
-0.1611157059
  0
VERTEX
  8
LAYER_2
 10
154.06
 20
40.1825
 42
-0.03590950521
  0
VERTEX
  8
LAYER_2
 10
154.0816
 20
39.8784
 42
-0.1066899695
  0
VERTEX
  8
LAYER_2
 10
153.9052
 20
39.0236
 42
-0.2183856259
  0
VERTEX
  8
LAYER_2
 10
152.7953
 20
38.0897
 42
-0.006706171784
  0
VERTEX
  8
LAYER_2
 10
152.7407
 20
38.0738
  0
VERTEX
  8
LAYER_2
 10
152.7407
 20
38.0514
 42
0.01533555045
  0
VERTEX
  8
LAYER_2
 10
154.117
 20
37.8113
  0
SEQEND
  0
POLYLINE
  8
LAYER_2
 40
0.05
 41
0.05
 66
1
 10
0
 20
0
 30
0
 70
1
  0
VERTEX
  8
LAYER_2
 10
153.4394
 20
39.857
 42
0.1175610784
  0
VERTEX
  8
LAYER_2
 10
153.257
 20
40.6254
 42
0.1170135141
  0
VERTEX
  8
LAYER_2
 10
152.8315
 20
41.1234
 42
0.1200044572
  0
VERTEX
  8
LAYER_2
 10
152.2186
 20
41.3675
 42
0.03774262044
  0
VERTEX
  8
LAYER_2
 10
151.9511
 20
41.3873
 42
0.1153139376
  0
VERTEX
  8
LAYER_2
 10
151.2089
 20
41.2226
 42
0.1853550912
  0
VERTEX
  8
LAYER_2
 10
150.5507
 20
40.4882
 42
0.09859892291
  0
VERTEX
  8
LAYER_2
 10
150.4287
 20
39.8122
 42
0.1178359247
  0
VERTEX
  8
LAYER_2
 10
150.5964
 20
39.0734
 42
0.2866694251
  0
VERTEX
  8
LAYER_2
 10
151.9232
 20
38.2912
 42
0.1188197759
  0
VERTEX
  8
LAYER_2
 10
152.6722
 20
38.4633
 42
0.1796740134
  0
VERTEX
  8
LAYER_2
 10
153.3126
 20
39.18
 42
0.09850052237
  0
SEQEND
  0
ENDBLK
  0
BLOCK
  8
LAYER_2
  2
AIGNBL0204000B
 70
64
 10
0
 20
0
 30
0
  3
AIGNBL0204000B
  0
POLYLINE
  8
LAYER_2
 40
0.05
 41
0.05
 66
1
 10
0
 20
0
 30
0
 70
1
  0
VERTEX
  8
LAYER_2
 10
155.4089
 20
41.7225
  0
VERTEX
  8
LAYER_2
 10
155.4089
 20
39.4932
 42
0.1220213404
  0
VERTEX
  8
LAYER_2
 10
155.569
 20
38.7775
 42
0.2218709818
  0
VERTEX
  8
LAYER_2
 10
156.2104
 20
38.3206
 42
0.05223876895
  0
VERTEX
  8
LAYER_2
 10
156.5055
 20
38.2912
 42
0.1302821267
  0
VERTEX
  8
LAYER_2
 10
157.1748
 20
38.452
 42
0.1509367336
  0
VERTEX
  8
LAYER_2
 10
157.526
 20
38.8454
 42
0.1174732039
  0
VERTEX
  8
LAYER_2
 10
157.651
 20
39.4932
  0
VERTEX
  8
LAYER_2
 10
157.651
 20
41.7225
  0
VERTEX
  8
LAYER_2
 10
158.2656
 20
41.7225
  0
VERTEX
  8
LAYER_2
 10
158.2656
 20
39.5266
 42
-0.1106199636
  0
VERTEX
  8
LAYER_2
 10
158.0961
 20
38.708
 42
-0.1822316276
  0
VERTEX
  8
LAYER_2
 10
157.4057
 20
38.0637
 42
-0.09768689614
  0
VERTEX
  8
LAYER_2
 10
156.6028
 20
37.8972
 42
-0.01000776787
  0
VERTEX
  8
LAYER_2
 10
156.4845
 20
37.895
 42
-0.09899827608
  0
VERTEX
  8
LAYER_2
 10
155.612
 20
38.0554
 42
-0.1209605854
  0
VERTEX
  8
LAYER_2
 10
155.1093
 20
38.4366
 42
-0.1192983303
  0
VERTEX
  8
LAYER_2
 10
154.8407
 20
39.0317
 42
-0.05319533763
  0
VERTEX
  8
LAYER_2
 10
154.7943
 20
39.5046
  0
VERTEX
  8
LAYER_2
 10
154.7943
 20
41.7225
  0
SEQEND
  0
ENDBLK
  0
BLOCK
  8
LAYER_2
  2
AIGNBL0204000C
 70
64
 10
0
 20
0
 30
0
  3
AIGNBL0204000C
  0
POLYLINE
  8
LAYER_2
 40
0.05
 41
0.05
 66
1
 10
0
 20
0
 30
0
 70
1
  0
VERTEX
  8
LAYER_2
 10
160.0119
 20
39.1418
  0
VERTEX
  8
LAYER_2
 10
159.5227
 20
37.9567
  0
VERTEX
  8
LAYER_2
 10
158.8947
 20
37.9567
  0
VERTEX
  8
LAYER_2
 10
160.4939
 20
41.7225
  0
VERTEX
  8
LAYER_2
 10
161.227
 20
41.7225
  0
VERTEX
  8
LAYER_2
 10
162.8335
 20
37.9567
  0
VERTEX
  8
LAYER_2
 10
162.1841
 20
37.9567
  0
VERTEX
  8
LAYER_2
 10
161.6814
 20
39.1418
  0
SEQEND
  0
POLYLINE
  8
LAYER_2
 40
0.05
 41
0.05
 66
1
 10
0
 20
0
 30
0
 70
1
  0
VERTEX
  8
LAYER_2
 10
161.5553
 20
39.5208
  0
VERTEX
  8
LAYER_2
 10
161.094
 20
40.6056
 42
-0.02227599701
  0
VERTEX
  8
LAYER_2
 10
160.8494
 20
41.2926
  0
VERTEX
  8
LAYER_2
 10
160.8357
 20
41.2926
 42
-0.0206476565
  0
VERTEX
  8
LAYER_2
 10
160.5983
 20
40.6101
  0
VERTEX
  8
LAYER_2
 10
160.1373
 20
39.5208
  0
SEQEND
  0
ENDBLK
  0
BLOCK
  8
LAYER_2
  2
AIGNBL0204000D
 70
64
 10
0
 20
0
 30
0
  3
AIGNBL0204000D
  0
POLYLINE
  8
LAYER_2
 40
0.05
 41
0.05
 66
1
 10
0
 20
0
 30
0
 70
1
  0
VERTEX
  8
LAYER_2
 10
163.8742
 20
41.6777
 42
-0.03334485223
  0
VERTEX
  8
LAYER_2
 10
165.0411
 20
41.7508
 42
-0.08841555942
  0
VERTEX
  8
LAYER_2
 10
166.0872
 20
41.5858
 42
-0.06038484967
  0
VERTEX
  8
LAYER_2
 10
166.3609
 20
41.438
 42
-0.2471651456
  0
VERTEX
  8
LAYER_2
 10
166.7726
 20
40.6497
 42
-0.1483298328
  0
VERTEX
  8
LAYER_2
 10
166.6029
 20
40.0554
 42
-0.07223194904
  0
VERTEX
  8
LAYER_2
 10
166.4095
 20
39.8456
 42
-0.1209372404
  0
VERTEX
  8
LAYER_2
 10
165.7228
 20
39.517
 42
-0.06224269186
  0
VERTEX
  8
LAYER_2
 10
164.9708
 20
39.4319
 42
-0.05738783264
  0
VERTEX
  8
LAYER_2
 10
164.4823
 20
39.4653
  0
VERTEX
  8
LAYER_2
 10
164.4823
 20
37.9567
  0
VERTEX
  8
LAYER_2
 10
163.8742
 20
37.9567
  0
SEQEND
  0
POLYLINE
  8
LAYER_2
 40
0.05
 41
0.05
 66
1
 10
0
 20
0
 30
0
 70
1
  0
VERTEX
  8
LAYER_2
 10
164.4823
 20
39.8622
 42
0.05012782438
  0
VERTEX
  8
LAYER_2
 10
164.9846
 20
39.8229
 42
0.1135463519
  0
VERTEX
  8
LAYER_2
 10
165.7697
 20
39.9822
 42
0.1653329065
  0
VERTEX
  8
LAYER_2
 10
166.1074
 20
40.3302
 42
0.1044639943
  0
VERTEX
  8
LAYER_2
 10
166.1656
 20
40.6273
 42
0.2826437488
  0
VERTEX
  8
LAYER_2
 10
165.8147
 20
41.2103
 42
0.0629694601
  0
VERTEX
  8
LAYER_2
 10
165.549
 20
41.3107
 42
0.06259589917
  0
VERTEX
  8
LAYER_2
 10
165.0552
 20
41.3649
 42
0.05214717704
  0
VERTEX
  8
LAYER_2
 10
164.4823
 20
41.3256
  0
SEQEND
  0
ENDBLK
  0
BLOCK
  8
LAYER_2
  2
AIGNBL0204000E
 70
64
 10
0
 20
0
 30
0
  3
AIGNBL0204000E
  0
POLYLINE
  8
LAYER_2
 40
0.05
 41
0.05
 66
1
 10
0
 20
0
 30
0
 70
1
  0
VERTEX
  8
LAYER_2
 10
168.3246
 20
41.4207
 42
-0.3048675751
  0
VERTEX
  8
LAYER_2
 10
168.1582
 20
41.1661
 42
-0.1151020929
  0
VERTEX
  8
LAYER_2
 10
167.9329
 20
41.1189
 42
-0.2442513348
  0
VERTEX
  8
LAYER_2
 10
167.6028
 20
41.2794
 42
-0.1394546152
  0
VERTEX
  8
LAYER_2
 10
167.5626
 20
41.4207
 42
-0.287439772
  0
VERTEX
  8
LAYER_2
 10
167.7346
 20
41.6803
 42
-0.1179404017
  0
VERTEX
  8
LAYER_2
 10
167.9467
 20
41.7277
 42
-0.2416274379
  0
VERTEX
  8
LAYER_2
 10
168.2814
 20
41.5719
 42
-0.1426378456
  0
SEQEND
  0
POLYLINE
  8
LAYER_2
 40
0.05
 41
0.05
 66
1
 10
0
 20
0
 30
0
 70
1
  0
VERTEX
  8
LAYER_2
 10
167.639
 20
37.9567
  0
VERTEX
  8
LAYER_2
 10
167.639
 20
40.6607
  0
VERTEX
  8
LAYER_2
 10
168.2536
 20
40.6607
  0
VERTEX
  8
LAYER_2
 10
168.2536
 20
37.9567
  0
SEQEND
  0
ENDBLK
  0
BLOCK
  8
LAYER_2
  2
AIGNBL0204000F
 70
64
 10
0
 20
0
 30
0
  3
AIGNBL0204000F
  0
POLYLINE
  8
LAYER_2
 40
0.05
 41
0.05
 66
1
 10
0
 20
0
 30
0
 70
1
  0
VERTEX
  8
LAYER_2
 10
170.1254
 20
39.1418
  0
VERTEX
  8
LAYER_2
 10
169.6372
 20
37.9567
  0
VERTEX
  8
LAYER_2
 10
169.0081
 20
37.9567
  0
VERTEX
  8
LAYER_2
 10
170.6077
 20
41.7225
  0
VERTEX
  8
LAYER_2
 10
171.3415
 20
41.7225
  0
VERTEX
  8
LAYER_2
 10
172.9479
 20
37.9567
  0
VERTEX
  8
LAYER_2
 10
172.2982
 20
37.9567
  0
VERTEX
  8
LAYER_2
 10
171.7955
 20
39.1418
  0
SEQEND
  0
POLYLINE
  8
LAYER_2
 40
0.05
 41
0.05
 66
1
 10
0
 20
0
 30
0
 70
1
  0
VERTEX
  8
LAYER_2
 10
171.6695
 20
39.5208
  0
VERTEX
  8
LAYER_2
 10
171.2085
 20
40.6056
 42
-0.02430767271
  0
VERTEX
  8
LAYER_2
 10
170.9646
 20
41.2926
  0
VERTEX
  8
LAYER_2
 10
170.9498
 20
41.2926
 42
-0.02046602706
  0
VERTEX
  8
LAYER_2
 10
170.7127
 20
40.6101
  0
VERTEX
  8
LAYER_2
 10
170.2518
 20
39.5208
  0
SEQEND
  0
ENDBLK
  0
BLOCK
  8
LAYER_2
  2
AIGNBL02030008
 70
64
 10
0
 20
0
 30
0
  3
AIGNBL02030008
  0
INSERT
  8
LAYER_2
  2
AIGNBL02040009
 10
0
 20
0
 30
0
  0
INSERT
  8
LAYER_2
  2
AIGNBL0204000A
 10
0
 20
0
 30
0
  0
INSERT
  8
LAYER_2
  2
AIGNBL0204000B
 10
0
 20
0
 30
0
  0
INSERT
  8
LAYER_2
  2
AIGNBL0204000C
 10
0
 20
0
 30
0
  0
INSERT
  8
LAYER_2
  2
AIGNBL0204000D
 10
0
 20
0
 30
0
  0
INSERT
  8
LAYER_2
  2
AIGNBL0204000E
 10
0
 20
0
 30
0
  0
INSERT
  8
LAYER_2
  2
AIGNBL0204000F
 10
0
 20
0
 30
0
  0
ENDBLK
  0
BLOCK
  8
LAYER_2
  2
AIGNBL02030011
 70
64
 10
0
 20
0
 30
0
  3
AIGNBL02030011
  0
POLYLINE
  8
LAYER_2
 40
0.05
 41
0.05
 66
1
 10
0
 20
0
 30
0
 70
1
  0
VERTEX
  8
LAYER_2
 10
145.7475
 20
36.0574
  0
VERTEX
  8
LAYER_2
 10
146.3008
 20
36.0574
  0
VERTEX
  8
LAYER_2
 10
146.3008
 20
35.9637
  0
VERTEX
  8
LAYER_2
 10
145.6424
 20
35.9637
  0
VERTEX
  8
LAYER_2
 10
145.6424
 20
36.9969
  0
VERTEX
  8
LAYER_2
 10
146.2832
 20
36.9969
  0
VERTEX
  8
LAYER_2
 10
146.2832
 20
36.9035
  0
VERTEX
  8
LAYER_2
 10
145.7475
 20
36.9035
  0
VERTEX
  8
LAYER_2
 10
145.7475
 20
36.549
  0
VERTEX
  8
LAYER_2
 10
146.2481
 20
36.549
  0
VERTEX
  8
LAYER_2
 10
146.2481
 20
36.4557
  0
VERTEX
  8
LAYER_2
 10
145.7475
 20
36.4557
  0
SEQEND
  0
ENDBLK
  0
BLOCK
  8
LAYER_2
  2
AIGNBL02030012
 70
64
 10
0
 20
0
 30
0
  3
AIGNBL02030012
  0
POLYLINE
  8
LAYER_2
 40
0.05
 41
0.05
 66
1
 10
0
 20
0
 30
0
 70
1
  0
VERTEX
  8
LAYER_2
 10
147.4404
 20
36.117
  0
VERTEX
  8
LAYER_2
 10
147.4432
 20
36.117
  0
VERTEX
  8
LAYER_2
 10
147.4432
 20
36.9969
  0
VERTEX
  8
LAYER_2
 10
147.5483
 20
36.9969
  0
VERTEX
  8
LAYER_2
 10
147.5483
 20
35.9637
  0
VERTEX
  8
LAYER_2
 10
147.4174
 20
35.9637
  0
VERTEX
  8
LAYER_2
 10
146.8162
 20
36.8525
  0
VERTEX
  8
LAYER_2
 10
146.8127
 20
36.8525
  0
VERTEX
  8
LAYER_2
 10
146.8127
 20
35.9637
  0
VERTEX
  8
LAYER_2
 10
146.708
 20
35.9637
  0
VERTEX
  8
LAYER_2
 10
146.708
 20
36.9969
  0
VERTEX
  8
LAYER_2
 10
146.8393
 20
36.9969
  0
SEQEND
  0
ENDBLK
  0
BLOCK
  8
LAYER_2
  2
AIGNBL02030013
 70
64
 10
0
 20
0
 30
0
  3
AIGNBL02030013
  0
POLYLINE
  8
LAYER_2
 40
0.05
 41
0.05
 66
1
 10
0
 20
0
 30
0
 70
1
  0
VERTEX
  8
LAYER_2
 10
148.0213
 20
36.1756
 42
0.1563325367
  0
VERTEX
  8
LAYER_2
 10
148.0757
 20
36.0726
 42
0.1919271311
  0
VERTEX
  8
LAYER_2
 10
148.1891
 20
36.0309
  0
VERTEX
  8
LAYER_2
 10
148.2783
 20
36.0505
  0
VERTEX
  8
LAYER_2
 10
148.3344
 20
36.1039
  0
VERTEX
  8
LAYER_2
 10
148.3634
 20
36.1804
  0
VERTEX
  8
LAYER_2
 10
148.3716
 20
36.27
  0
VERTEX
  8
LAYER_2
 10
148.3716
 20
36.9969
  0
VERTEX
  8
LAYER_2
 10
148.4767
 20
36.9969
  0
VERTEX
  8
LAYER_2
 10
148.4767
 20
36.2614
  0
VERTEX
  8
LAYER_2
 10
148.4654
 20
36.1535
 42
-0.09689434064
  0
VERTEX
  8
LAYER_2
 10
148.424
 20
36.0484
 42
-0.1145812533
  0
VERTEX
  8
LAYER_2
 10
148.3393
 20
35.9689
 42
-0.1249341208
  0
VERTEX
  8
LAYER_2
 10
148.2004
 20
35.9375
 42
-0.1797266639
  0
VERTEX
  8
LAYER_2
 10
148.0158
 20
35.9975
 42
-0.1772027805
  0
VERTEX
  8
LAYER_2
 10
147.9234
 20
36.149
  0
SEQEND
  0
ENDBLK
  0
BLOCK
  8
LAYER_2
  2
AIGNBL02030014
 70
64
 10
0
 20
0
 30
0
  3
AIGNBL02030014
  0
POLYLINE
  8
LAYER_2
 40
0.05
 41
0.05
 66
1
 10
0
 20
0
 30
0
 70
1
  0
VERTEX
  8
LAYER_2
 10
149.965
 20
36.4805
 42
-0.1019307791
  0
VERTEX
  8
LAYER_2
 10
149.924
 20
36.2631
 42
-0.09962254273
  0
VERTEX
  8
LAYER_2
 10
149.8114
 20
36.0915
 42
-0.09627361929
  0
VERTEX
  8
LAYER_2
 10
149.6405
 20
35.9785
 42
-0.09758594962
  0
VERTEX
  8
LAYER_2
 10
149.4265
 20
35.9375
 42
-0.1000844711
  0
VERTEX
  8
LAYER_2
 10
149.2129
 20
35.9785
 42
-0.09985105323
  0
VERTEX
  8
LAYER_2
 10
149.0421
 20
36.0915
 42
-0.09735230618
  0
VERTEX
  8
LAYER_2
 10
148.9287
 20
36.2631
 42
-0.09653980076
  0
VERTEX
  8
LAYER_2
 10
148.8881
 20
36.4805
 42
-0.1004594477
  0
VERTEX
  8
LAYER_2
 10
148.9287
 20
36.6978
 42
-0.1001669327
  0
VERTEX
  8
LAYER_2
 10
149.0421
 20
36.8694
 42
-0.09871200056
  0
VERTEX
  8
LAYER_2
 10
149.2129
 20
36.9824
 42
-0.09768823248
  0
VERTEX
  8
LAYER_2
 10
149.4265
 20
37.0234
 42
-0.1000514256
  0
VERTEX
  8
LAYER_2
 10
149.6405
 20
36.9824
 42
-0.0983303992
  0
VERTEX
  8
LAYER_2
 10
149.8114
 20
36.8694
 42
-0.09762598086
  0
VERTEX
  8
LAYER_2
 10
149.924
 20
36.6978
 42
-0.09788199595
  0
SEQEND
  0
POLYLINE
  8
LAYER_2
 40
0.05
 41
0.05
 66
1
 10
0
 20
0
 30
0
 70
1
  0
VERTEX
  8
LAYER_2
 10
149.8541
 20
36.4798
 42
0.08634913196
  0
VERTEX
  8
LAYER_2
 10
149.8251
 20
36.6517
 42
0.09663020944
  0
VERTEX
  8
LAYER_2
 10
149.7404
 20
36.795
 42
0.1032857511
  0
VERTEX
  8
LAYER_2
 10
149.6053
 20
36.8932
 42
0.1061320656
  0
VERTEX
  8
LAYER_2
 10
149.4265
 20
36.93
 42
0.1113757871
  0
VERTEX
  8
LAYER_2
 10
149.2477
 20
36.8932
 42
0.1056595975
  0
VERTEX
  8
LAYER_2
 10
149.113
 20
36.795
 42
0.09787799956
  0
VERTEX
  8
LAYER_2
 10
149.0283
 20
36.6517
 42
0.08491464556
  0
VERTEX
  8
LAYER_2
 10
148.999
 20
36.4798
 42
0.08693146424
  0
VERTEX
  8
LAYER_2
 10
149.0283
 20
36.3079
 42
0.1009797617
  0
VERTEX
  8
LAYER_2
 10
149.113
 20
36.1649
 42
0.09920321622
  0
VERTEX
  8
LAYER_2
 10
149.2477
 20
36.0674
 42
0.1060640085
  0
VERTEX
  8
LAYER_2
 10
149.4265
 20
36.0309
 42
0.1126980581
  0
VERTEX
  8
LAYER_2
 10
149.6053
 20
36.0674
 42
0.1035582302
  0
VERTEX
  8
LAYER_2
 10
149.7404
 20
36.1649
 42
0.09432567525
  0
VERTEX
  8
LAYER_2
 10
149.8251
 20
36.3079
 42
0.08466662837
  0
SEQEND
  0
ENDBLK
  0
BLOCK
  8
LAYER_2
  2
AIGNBL02030015
 70
64
 10
0
 20
0
 30
0
  3
AIGNBL02030015
  0
POLYLINE
  8
LAYER_2
 40
0.05
 41
0.05
 66
1
 10
0
 20
0
 30
0
 70
1
  0
VERTEX
  8
LAYER_2
 10
150.7398
 20
35.9637
  0
VERTEX
  8
LAYER_2
 10
150.6351
 20
35.9637
  0
VERTEX
  8
LAYER_2
 10
150.6351
 20
36.4091
  0
VERTEX
  8
LAYER_2
 10
150.2482
 20
36.9969
  0
VERTEX
  8
LAYER_2
 10
150.3795
 20
36.9969
  0
VERTEX
  8
LAYER_2
 10
150.6905
 20
36.4967
  0
VERTEX
  8
LAYER_2
 10
151.004
 20
36.9969
  0
VERTEX
  8
LAYER_2
 10
151.1263
 20
36.9969
  0
VERTEX
  8
LAYER_2
 10
150.7398
 20
36.4091
  0
SEQEND
  0
ENDBLK
  0
BLOCK
  8
LAYER_2
  2
AIGNBL02030016
 70
64
 10
0
 20
0
 30
0
  3
AIGNBL02030016
  0
POLYLINE
  8
LAYER_2
 40
0.05
 41
0.05
 66
1
 10
0
 20
0
 30
0
 70
1
  0
VERTEX
  8
LAYER_2
 10
152.0314
 20
36.9969
  0
VERTEX
  8
LAYER_2
 10
152.339
 20
36.9969
  0
VERTEX
  8
LAYER_2
 10
152.4575
 20
36.9845
  0
VERTEX
  8
LAYER_2
 10
152.5643
 20
36.9421
 42
-0.1168262011
  0
VERTEX
  8
LAYER_2
 10
152.6422
 20
36.8611
 42
-0.1230288266
  0
VERTEX
  8
LAYER_2
 10
152.6718
 20
36.733
 42
-0.1795449175
  0
VERTEX
  8
LAYER_2
 10
152.6219
 20
36.5907
 42
-0.1695619646
  0
VERTEX
  8
LAYER_2
 10
152.4885
 20
36.5111
  0
VERTEX
  8
LAYER_2
 10
152.4885
 20
36.5084
 42
-0.1719890535
  0
VERTEX
  8
LAYER_2
 10
152.6553
 20
36.4302
 42
-0.2018462152
  0
VERTEX
  8
LAYER_2
 10
152.7214
 20
36.2496
 42
-0.1251382371
  0
VERTEX
  8
LAYER_2
 10
152.6942
 20
36.1325
 42
-0.1153486961
  0
VERTEX
  8
LAYER_2
 10
152.6181
 20
36.0419
 42
-0.08656795839
  0
VERTEX
  8
LAYER_2
 10
152.4972
 20
35.9844
 42
-0.06557363107
  0
VERTEX
  8
LAYER_2
 10
152.3373
 20
35.9637
  0
VERTEX
  8
LAYER_2
 10
152.0314
 20
35.9637
  0
SEQEND
  0
POLYLINE
  8
LAYER_2
 40
0.05
 41
0.05
 66
1
 10
0
 20
0
 30
0
 70
1
  0
VERTEX
  8
LAYER_2
 10
152.1365
 20
36.5445
  0
VERTEX
  8
LAYER_2
 10
152.348
 20
36.5445
  0
VERTEX
  8
LAYER_2
 10
152.4248
 20
36.5535
  0
VERTEX
  8
LAYER_2
 10
152.4951
 20
36.5831
  0
VERTEX
  8
LAYER_2
 10
152.5471
 20
36.6396
 42
0.1157679243
  0
VERTEX
  8
LAYER_2
 10
152.5667
 20
36.7258
  0
VERTEX
  8
LAYER_2
 10
152.5471
 20
36.8095
  0
VERTEX
  8
LAYER_2
 10
152.4941
 20
36.8656
  0
VERTEX
  8
LAYER_2
 10
152.4152
 20
36.897
  0
VERTEX
  8
LAYER_2
 10
152.3187
 20
36.9066
  0
VERTEX
  8
LAYER_2
 10
152.1365
 20
36.9066
  0
SEQEND
  0
POLYLINE
  8
LAYER_2
 40
0.05
 41
0.05
 66
1
 10
0
 20
0
 30
0
 70
1
  0
VERTEX
  8
LAYER_2
 10
152.1365
 20
36.0543
  0
VERTEX
  8
LAYER_2
 10
152.3321
 20
36.0543
  0
VERTEX
  8
LAYER_2
 10
152.4407
 20
36.0653
  0
VERTEX
  8
LAYER_2
 10
152.5313
 20
36.1001
 42
0.1172546835
  0
VERTEX
  8
LAYER_2
 10
152.5929
 20
36.1632
 42
0.1286909246
  0
VERTEX
  8
LAYER_2
 10
152.6164
 20
36.2558
 42
0.2499212344
  0
VERTEX
  8
LAYER_2
 10
152.5471
 20
36.4081
 42
0.1538083763
  0
VERTEX
  8
LAYER_2
 10
152.3511
 20
36.4584
  0
VERTEX
  8
LAYER_2
 10
152.1365
 20
36.4584
  0
SEQEND
  0
ENDBLK
  0
BLOCK
  8
LAYER_2
  2
AIGNBL02030017
 70
64
 10
0
 20
0
 30
0
  3
AIGNBL02030017
  0
POLYLINE
  8
LAYER_2
 40
0.05
 41
0.05
 66
1
 10
0
 20
0
 30
0
 70
1
  0
VERTEX
  8
LAYER_2
 10
153.1534
 20
35.9637
  0
VERTEX
  8
LAYER_2
 10
153.038
 20
35.9637
  0
VERTEX
  8
LAYER_2
 10
153.4849
 20
36.9969
  0
VERTEX
  8
LAYER_2
 10
153.5872
 20
36.9969
  0
VERTEX
  8
LAYER_2
 10
154.0306
 20
35.9637
  0
VERTEX
  8
LAYER_2
 10
153.9138
 20
35.9637
  0
VERTEX
  8
LAYER_2
 10
153.7997
 20
36.2352
  0
VERTEX
  8
LAYER_2
 10
153.2658
 20
36.2352
  0
SEQEND
  0
POLYLINE
  8
LAYER_2
 40
0.05
 41
0.05
 66
1
 10
0
 20
0
 30
0
 70
1
  0
VERTEX
  8
LAYER_2
 10
153.305
 20
36.3316
  0
VERTEX
  8
LAYER_2
 10
153.7605
 20
36.3316
  0
VERTEX
  8
LAYER_2
 10
153.5327
 20
36.8804
  0
SEQEND
  0
ENDBLK
  0
BLOCK
  8
LAYER_2
  2
AIGNBL02030018
 70
64
 10
0
 20
0
 30
0
  3
AIGNBL02030018
  0
POLYLINE
  8
LAYER_2
 40
0.05
 41
0.05
 66
1
 10
0
 20
0
 30
0
 70
1
  0
VERTEX
  8
LAYER_2
 10
154.7151
 20
35.9637
  0
VERTEX
  8
LAYER_2
 10
154.61
 20
35.9637
  0
VERTEX
  8
LAYER_2
 10
154.61
 20
36.9035
  0
VERTEX
  8
LAYER_2
 10
154.2638
 20
36.9035
  0
VERTEX
  8
LAYER_2
 10
154.2638
 20
36.9969
  0
VERTEX
  8
LAYER_2
 10
155.0606
 20
36.9969
  0
VERTEX
  8
LAYER_2
 10
155.0606
 20
36.9035
  0
VERTEX
  8
LAYER_2
 10
154.7151
 20
36.9035
  0
SEQEND
  0
ENDBLK
  0
BLOCK
  8
LAYER_2
  2
AIGNBL02030019
 70
64
 10
0
 20
0
 30
0
  3
AIGNBL02030019
  0
POLYLINE
  8
LAYER_2
 40
0.05
 41
0.05
 66
1
 10
0
 20
0
 30
0
 70
1
  0
VERTEX
  8
LAYER_2
 10
155.4169
 20
36.9969
  0
VERTEX
  8
LAYER_2
 10
155.5216
 20
36.9969
  0
VERTEX
  8
LAYER_2
 10
155.5216
 20
36.549
  0
VERTEX
  8
LAYER_2
 10
156.0852
 20
36.549
  0
VERTEX
  8
LAYER_2
 10
156.0852
 20
36.9969
  0
VERTEX
  8
LAYER_2
 10
156.1903
 20
36.9969
  0
VERTEX
  8
LAYER_2
 10
156.1903
 20
35.9637
  0
VERTEX
  8
LAYER_2
 10
156.0852
 20
35.9637
  0
VERTEX
  8
LAYER_2
 10
156.0852
 20
36.4529
  0
VERTEX
  8
LAYER_2
 10
155.5216
 20
36.4529
  0
VERTEX
  8
LAYER_2
 10
155.5216
 20
35.9637
  0
VERTEX
  8
LAYER_2
 10
155.4169
 20
35.9637
  0
SEQEND
  0
ENDBLK
  0
BLOCK
  8
LAYER_2
  2
AIGNBL0203001A
 70
64
 10
0
 20
0
 30
0
  3
AIGNBL0203001A
  0
POLYLINE
  8
LAYER_2
 40
0.05
 41
0.05
 66
1
 10
0
 20
0
 30
0
 70
1
  0
VERTEX
  8
LAYER_2
 10
156.7708
 20
35.9637
  0
VERTEX
  8
LAYER_2
 10
156.6657
 20
35.9637
  0
VERTEX
  8
LAYER_2
 10
156.6657
 20
36.9969
  0
VERTEX
  8
LAYER_2
 10
156.9696
 20
36.9969
  0
VERTEX
  8
LAYER_2
 10
157.1101
 20
36.9824
 42
-0.1032885834
  0
VERTEX
  8
LAYER_2
 10
157.2228
 20
36.9349
 42
-0.1281738609
  0
VERTEX
  8
LAYER_2
 10
157.2962
 20
36.8494
 42
-0.1081125707
  0
VERTEX
  8
LAYER_2
 10
157.3224
 20
36.7213
  0
VERTEX
  8
LAYER_2
 10
157.3024
 20
36.6176
  0
VERTEX
  8
LAYER_2
 10
157.2469
 20
36.5366
  0
VERTEX
  8
LAYER_2
 10
157.1635
 20
36.4818
  0
VERTEX
  8
LAYER_2
 10
157.0585
 20
36.4557
  0
VERTEX
  8
LAYER_2
 10
157.3606
 20
35.9637
  0
VERTEX
  8
LAYER_2
 10
157.2321
 20
35.9637
  0
VERTEX
  8
LAYER_2
 10
156.9461
 20
36.4467
  0
VERTEX
  8
LAYER_2
 10
156.7708
 20
36.4467
  0
SEQEND
  0
POLYLINE
  8
LAYER_2
 40
0.05
 41
0.05
 66
1
 10
0
 20
0
 30
0
 70
1
  0
VERTEX
  8
LAYER_2
 10
156.7708
 20
36.5373
  0
VERTEX
  8
LAYER_2
 10
156.9534
 20
36.5373
 42
0.153451873
  0
VERTEX
  8
LAYER_2
 10
157.1491
 20
36.5831
 42
0.2580279849
  0
VERTEX
  8
LAYER_2
 10
157.2176
 20
36.7213
  0
VERTEX
  8
LAYER_2
 10
157.1983
 20
36.8071
  0
VERTEX
  8
LAYER_2
 10
157.146
 20
36.8642
  0
VERTEX
  8
LAYER_2
 10
157.0643
 20
36.8963
  0
VERTEX
  8
LAYER_2
 10
156.9579
 20
36.9066
  0
VERTEX
  8
LAYER_2
 10
156.7708
 20
36.9066
  0
SEQEND
  0
ENDBLK
  0
BLOCK
  8
LAYER_2
  2
AIGNBL0203001B
 70
64
 10
0
 20
0
 30
0
  3
AIGNBL0203001B
  0
POLYLINE
  8
LAYER_2
 40
0.05
 41
0.05
 66
1
 10
0
 20
0
 30
0
 70
1
  0
VERTEX
  8
LAYER_2
 10
158.7627
 20
36.4805
 42
-0.09904480664
  0
VERTEX
  8
LAYER_2
 10
158.7221
 20
36.2631
 42
-0.0998654539
  0
VERTEX
  8
LAYER_2
 10
158.6088
 20
36.0915
 42
-0.09816046092
  0
VERTEX
  8
LAYER_2
 10
158.4382
 20
35.9785
 42
-0.09758412454
  0
VERTEX
  8
LAYER_2
 10
158.2243
 20
35.9375
 42
-0.09999517154
  0
VERTEX
  8
LAYER_2
 10
158.0103
 20
35.9785
 42
-0.09953435427
  0
VERTEX
  8
LAYER_2
 10
157.8398
 20
36.0915
 42
-0.09864299929
  0
VERTEX
  8
LAYER_2
 10
157.7268
 20
36.2631
 42
-0.09653980076
  0
VERTEX
  8
LAYER_2
 10
157.6862
 20
36.4805
 42
-0.1004594477
  0
VERTEX
  8
LAYER_2
 10
157.7268
 20
36.6978
 42
-0.1008040346
  0
VERTEX
  8
LAYER_2
 10
157.8398
 20
36.8694
 42
-0.09763764092
  0
VERTEX
  8
LAYER_2
 10
158.0103
 20
36.9824
 42
-0.09752919603
  0
VERTEX
  8
LAYER_2
 10
158.2243
 20
37.0234
 42
-0.1000174927
  0
VERTEX
  8
LAYER_2
 10
158.4382
 20
36.9824
 42
-0.1006724022
  0
VERTEX
  8
LAYER_2
 10
158.6088
 20
36.8694
 42
-0.09709867792
  0
VERTEX
  8
LAYER_2
 10
158.7221
 20
36.6978
 42
-0.09585658013
  0
SEQEND
  0
POLYLINE
  8
LAYER_2
 40
0.05
 41
0.05
 66
1
 10
0
 20
0
 30
0
 70
1
  0
VERTEX
  8
LAYER_2
 10
158.6518
 20
36.4798
 42
0.08852014676
  0
VERTEX
  8
LAYER_2
 10
158.6225
 20
36.6517
 42
0.09973444611
  0
VERTEX
  8
LAYER_2
 10
158.5378
 20
36.795
 42
0.1024799068
  0
VERTEX
  8
LAYER_2
 10
158.4031
 20
36.8932
 42
0.1060321998
  0
VERTEX
  8
LAYER_2
 10
158.2243
 20
36.93
 42
0.1116325688
  0
VERTEX
  8
LAYER_2
 10
158.0455
 20
36.8932
 42
0.1060506217
  0
VERTEX
  8
LAYER_2
 10
157.9104
 20
36.795
 42
0.09526104957
  0
VERTEX
  8
LAYER_2
 10
157.8257
 20
36.6517
 42
0.08440311357
  0
VERTEX
  8
LAYER_2
 10
157.7967
 20
36.4798
 42
0.08751084222
  0
VERTEX
  8
LAYER_2
 10
157.8257
 20
36.3079
 42
0.09826867926
  0
VERTEX
  8
LAYER_2
 10
157.9104
 20
36.1649
 42
0.09908422267
  0
VERTEX
  8
LAYER_2
 10
158.0455
 20
36.0674
 42
0.1061654103
  0
VERTEX
  8
LAYER_2
 10
158.2243
 20
36.0309
 42
0.1124388132
  0
VERTEX
  8
LAYER_2
 10
158.4031
 20
36.0674
 42
0.1028204009
  0
VERTEX
  8
LAYER_2
 10
158.5378
 20
36.1649
 42
0.09882210045
  0
VERTEX
  8
LAYER_2
 10
158.6225
 20
36.3079
 42
0.08589740831
  0
SEQEND
  0
ENDBLK
  0
BLOCK
  8
LAYER_2
  2
AIGNBL0203001C
 70
64
 10
0
 20
0
 30
0
  3
AIGNBL0203001C
  0
POLYLINE
  8
LAYER_2
 40
0.05
 41
0.05
 66
1
 10
0
 20
0
 30
0
 70
1
  0
VERTEX
  8
LAYER_2
 10
160.2045
 20
36.4805
 42
-0.1019307791
  0
VERTEX
  8
LAYER_2
 10
160.1635
 20
36.2631
 42
-0.1000344077
  0
VERTEX
  8
LAYER_2
 10
160.0509
 20
36.0915
 42
-0.09685913213
  0
VERTEX
  8
LAYER_2
 10
159.88
 20
35.9785
 42
-0.09758412454
  0
VERTEX
  8
LAYER_2
 10
159.6661
 20
35.9375
 42
-0.1006569764
  0
VERTEX
  8
LAYER_2
 10
159.4525
 20
35.9785
 42
-0.1011318925
  0
VERTEX
  8
LAYER_2
 10
159.2816
 20
36.0915
 42
-0.09735230618
  0
VERTEX
  8
LAYER_2
 10
159.1682
 20
36.2631
 42
-0.09653980076
  0
VERTEX
  8
LAYER_2
 10
159.1276
 20
36.4805
 42
-0.1004594477
  0
VERTEX
  8
LAYER_2
 10
159.1682
 20
36.6978
 42
-0.1001669327
  0
VERTEX
  8
LAYER_2
 10
159.2816
 20
36.8694
 42
-0.09867928162
  0
VERTEX
  8
LAYER_2
 10
159.4525
 20
36.9824
 42
-0.09791748865
  0
VERTEX
  8
LAYER_2
 10
159.6661
 20
37.0234
 42
-0.1000174927
  0
VERTEX
  8
LAYER_2
 10
159.88
 20
36.9824
 42
-0.0983303992
  0
VERTEX
  8
LAYER_2
 10
160.0509
 20
36.8694
 42
-0.09781653482
  0
VERTEX
  8
LAYER_2
 10
160.1635
 20
36.6978
 42
-0.09788199595
  0
SEQEND
  0
POLYLINE
  8
LAYER_2
 40
0.05
 41
0.05
 66
1
 10
0
 20
0
 30
0
 70
1
  0
VERTEX
  8
LAYER_2
 10
160.0936
 20
36.4798
 42
0.08634913196
  0
VERTEX
  8
LAYER_2
 10
160.0646
 20
36.6517
 42
0.09721101768
  0
VERTEX
  8
LAYER_2
 10
159.9799
 20
36.795
 42
0.1030853098
  0
VERTEX
  8
LAYER_2
 10
159.8449
 20
36.8932
 42
0.1060321998
  0
VERTEX
  8
LAYER_2
 10
159.6661
 20
36.93
 42
0.1116325688
  0
VERTEX
  8
LAYER_2
 10
159.4873
 20
36.8932
 42
0.1058584166
  0
VERTEX
  8
LAYER_2
 10
159.3525
 20
36.795
 42
0.09787799956
  0
VERTEX
  8
LAYER_2
 10
159.2678
 20
36.6517
 42
0.08491464556
  0
VERTEX
  8
LAYER_2
 10
159.2385
 20
36.4798
 42
0.08693146424
  0
VERTEX
  8
LAYER_2
 10
159.2678
 20
36.3079
 42
0.1009797617
  0
VERTEX
  8
LAYER_2
 10
159.3525
 20
36.1649
 42
0.09947922476
  0
VERTEX
  8
LAYER_2
 10
159.4873
 20
36.0674
 42
0.1061654103
  0
VERTEX
  8
LAYER_2
 10
159.6661
 20
36.0309
 42
0.1124388132
  0
VERTEX
  8
LAYER_2
 10
159.8449
 20
36.0674
 42
0.103362111
  0
VERTEX
  8
LAYER_2
 10
159.9799
 20
36.1649
 42
0.09450022685
  0
VERTEX
  8
LAYER_2
 10
160.0646
 20
36.3079
 42
0.08466662837
  0
SEQEND
  0
ENDBLK
  0
BLOCK
  8
LAYER_2
  2
AIGNBL0203001D
 70
64
 10
0
 20
0
 30
0
  3
AIGNBL0203001D
  0
POLYLINE
  8
LAYER_2
 40
0.05
 41
0.05
 66
1
 10
0
 20
0
 30
0
 70
1
  0
VERTEX
  8
LAYER_2
 10
161.1354
 20
36.1418
  0
VERTEX
  8
LAYER_2
 10
161.1371
 20
36.1418
  0
VERTEX
  8
LAYER_2
 10
161.4826
 20
36.9969
  0
VERTEX
  8
LAYER_2
 10
161.6435
 20
36.9969
  0
VERTEX
  8
LAYER_2
 10
161.6435
 20
35.9637
  0
VERTEX
  8
LAYER_2
 10
161.5381
 20
35.9637
  0
VERTEX
  8
LAYER_2
 10
161.5381
 20
36.8611
  0
VERTEX
  8
LAYER_2
 10
161.5354
 20
36.8611
  0
VERTEX
  8
LAYER_2
 10
161.1619
 20
35.9637
  0
VERTEX
  8
LAYER_2
 10
161.1064
 20
35.9637
  0
VERTEX
  8
LAYER_2
 10
160.7327
 20
36.8611
  0
VERTEX
  8
LAYER_2
 10
160.7299
 20
36.8611
  0
VERTEX
  8
LAYER_2
 10
160.7299
 20
35.9637
  0
VERTEX
  8
LAYER_2
 10
160.6248
 20
35.9637
  0
VERTEX
  8
LAYER_2
 10
160.6248
 20
36.9969
  0
VERTEX
  8
LAYER_2
 10
160.7854
 20
36.9969
  0
SEQEND
  0
ENDBLK
  0
BLOCK
  8
LAYER_2
  2
AIGNBL0203001E
 70
64
 10
0
 20
0
 30
0
  3
AIGNBL0203001E
  0
POLYLINE
  8
LAYER_2
 40
0.05
 41
0.05
 66
1
 10
0
 20
0
 30
0
 70
1
  0
VERTEX
  8
LAYER_2
 10
162.7901
 20
36.0574
  0
VERTEX
  8
LAYER_2
 10
163.3433
 20
36.0574
  0
VERTEX
  8
LAYER_2
 10
163.3433
 20
35.9637
  0
VERTEX
  8
LAYER_2
 10
162.685
 20
35.9637
  0
VERTEX
  8
LAYER_2
 10
162.685
 20
36.9969
  0
VERTEX
  8
LAYER_2
 10
163.3258
 20
36.9969
  0
VERTEX
  8
LAYER_2
 10
163.3258
 20
36.9035
  0
VERTEX
  8
LAYER_2
 10
162.7901
 20
36.9035
  0
VERTEX
  8
LAYER_2
 10
162.7901
 20
36.549
  0
VERTEX
  8
LAYER_2
 10
163.2906
 20
36.549
  0
VERTEX
  8
LAYER_2
 10
163.2906
 20
36.4557
  0
VERTEX
  8
LAYER_2
 10
162.7901
 20
36.4557
  0
SEQEND
  0
ENDBLK
  0
BLOCK
  8
LAYER_2
  2
AIGNBL0203001F
 70
64
 10
0
 20
0
 30
0
  3
AIGNBL0203001F
  0
POLYLINE
  8
LAYER_2
 40
0.05
 41
0.05
 66
1
 10
0
 20
0
 30
0
 70
1
  0
VERTEX
  8
LAYER_2
 10
164.0885
 20
36.5797
  0
VERTEX
  8
LAYER_2
 10
164.3707
 20
36.9969
  0
VERTEX
  8
LAYER_2
 10
164.4957
 20
36.9969
  0
VERTEX
  8
LAYER_2
 10
164.1533
 20
36.5053
  0
VERTEX
  8
LAYER_2
 10
164.5326
 20
35.9637
  0
VERTEX
  8
LAYER_2
 10
164.4013
 20
35.9637
  0
VERTEX
  8
LAYER_2
 10
164.0858
 20
36.4295
  0
VERTEX
  8
LAYER_2
 10
163.7723
 20
35.9637
  0
VERTEX
  8
LAYER_2
 10
163.6407
 20
35.9637
  0
VERTEX
  8
LAYER_2
 10
164.0203
 20
36.5066
  0
VERTEX
  8
LAYER_2
 10
163.6744
 20
36.9969
  0
VERTEX
  8
LAYER_2
 10
163.806
 20
36.9969
  0
SEQEND
  0
ENDBLK
  0
BLOCK
  8
LAYER_2
  2
AIGNBL02030020
 70
64
 10
0
 20
0
 30
0
  3
AIGNBL02030020
  0
POLYLINE
  8
LAYER_2
 40
0.05
 41
0.05
 66
1
 10
0
 20
0
 30
0
 70
1
  0
VERTEX
  8
LAYER_2
 10
164.8988
 20
36.9969
  0
VERTEX
  8
LAYER_2
 10
165.191
 20
36.9969
  0
VERTEX
  8
LAYER_2
 10
165.3339
 20
36.9803
 42
-0.104442724
  0
VERTEX
  8
LAYER_2
 10
165.4438
 20
36.929
 42
-0.1219459081
  0
VERTEX
  8
LAYER_2
 10
165.5148
 20
36.8429
 42
-0.1032545831
  0
VERTEX
  8
LAYER_2
 10
165.5392
 20
36.7213
 42
-0.1239274235
  0
VERTEX
  8
LAYER_2
 10
165.5141
 20
36.5993
 42
-0.1163667494
  0
VERTEX
  8
LAYER_2
 10
165.4424
 20
36.5132
 42
-0.08715194998
  0
VERTEX
  8
LAYER_2
 10
165.3315
 20
36.4615
 42
-0.06108707382
  0
VERTEX
  8
LAYER_2
 10
165.1878
 20
36.4439
  0
VERTEX
  8
LAYER_2
 10
165.0039
 20
36.4439
  0
VERTEX
  8
LAYER_2
 10
165.0039
 20
35.9637
  0
VERTEX
  8
LAYER_2
 10
164.8988
 20
35.9637
  0
SEQEND
  0
POLYLINE
  8
LAYER_2
 40
0.05
 41
0.05
 66
1
 10
0
 20
0
 30
0
 70
1
  0
VERTEX
  8
LAYER_2
 10
165.0039
 20
36.5328
  0
VERTEX
  8
LAYER_2
 10
165.1816
 20
36.5328
 42
0.1698628217
  0
VERTEX
  8
LAYER_2
 10
165.3701
 20
36.5811
 42
0.2445965084
  0
VERTEX
  8
LAYER_2
 10
165.4345
 20
36.7213
 42
0.2593003012
  0
VERTEX
  8
LAYER_2
 10
165.368
 20
36.8622
 42
0.143072224
  0
VERTEX
  8
LAYER_2
 10
165.1816
 20
36.9066
  0
VERTEX
  8
LAYER_2
 10
165.0039
 20
36.9066
  0
SEQEND
  0
ENDBLK
  0
BLOCK
  8
LAYER_2
  2
AIGNBL02030021
 70
64
 10
0
 20
0
 30
0
  3
AIGNBL02030021
  0
POLYLINE
  8
LAYER_2
 40
0.05
 41
0.05
 66
1
 10
0
 20
0
 30
0
 70
1
  0
VERTEX
  8
LAYER_2
 10
166.0515
 20
36.0574
  0
VERTEX
  8
LAYER_2
 10
166.6048
 20
36.0574
  0
VERTEX
  8
LAYER_2
 10
166.6048
 20
35.9637
  0
VERTEX
  8
LAYER_2
 10
165.9465
 20
35.9637
  0
VERTEX
  8
LAYER_2
 10
165.9465
 20
36.9969
  0
VERTEX
  8
LAYER_2
 10
166.5872
 20
36.9969
  0
VERTEX
  8
LAYER_2
 10
166.5872
 20
36.9035
  0
VERTEX
  8
LAYER_2
 10
166.0515
 20
36.9035
  0
VERTEX
  8
LAYER_2
 10
166.0515
 20
36.549
  0
VERTEX
  8
LAYER_2
 10
166.5521
 20
36.549
  0
VERTEX
  8
LAYER_2
 10
166.5521
 20
36.4557
  0
VERTEX
  8
LAYER_2
 10
166.0515
 20
36.4557
  0
SEQEND
  0
ENDBLK
  0
BLOCK
  8
LAYER_2
  2
AIGNBL02030022
 70
64
 10
0
 20
0
 30
0
  3
AIGNBL02030022
  0
POLYLINE
  8
LAYER_2
 40
0.05
 41
0.05
 66
1
 10
0
 20
0
 30
0
 70
1
  0
VERTEX
  8
LAYER_2
 10
167.1168
 20
35.9637
  0
VERTEX
  8
LAYER_2
 10
167.0117
 20
35.9637
  0
VERTEX
  8
LAYER_2
 10
167.0117
 20
36.9969
  0
VERTEX
  8
LAYER_2
 10
167.3155
 20
36.9969
  0
VERTEX
  8
LAYER_2
 10
167.4561
 20
36.9824
 42
-0.1033890198
  0
VERTEX
  8
LAYER_2
 10
167.5688
 20
36.9349
 42
-0.1259996581
  0
VERTEX
  8
LAYER_2
 10
167.6425
 20
36.8494
 42
-0.1064650891
  0
VERTEX
  8
LAYER_2
 10
167.6683
 20
36.7213
  0
VERTEX
  8
LAYER_2
 10
167.6483
 20
36.6176
  0
VERTEX
  8
LAYER_2
 10
167.5929
 20
36.5366
  0
VERTEX
  8
LAYER_2
 10
167.5095
 20
36.4818
  0
VERTEX
  8
LAYER_2
 10
167.4044
 20
36.4557
  0
VERTEX
  8
LAYER_2
 10
167.7066
 20
35.9637
  0
VERTEX
  8
LAYER_2
 10
167.5781
 20
35.9637
  0
VERTEX
  8
LAYER_2
 10
167.2921
 20
36.4467
  0
VERTEX
  8
LAYER_2
 10
167.1168
 20
36.4467
  0
SEQEND
  0
POLYLINE
  8
LAYER_2
 40
0.05
 41
0.05
 66
1
 10
0
 20
0
 30
0
 70
1
  0
VERTEX
  8
LAYER_2
 10
167.1168
 20
36.5373
  0
VERTEX
  8
LAYER_2
 10
167.2993
 20
36.5373
 42
0.1542719415
  0
VERTEX
  8
LAYER_2
 10
167.495
 20
36.5831
 42
0.2583775622
  0
VERTEX
  8
LAYER_2
 10
167.5636
 20
36.7213
  0
VERTEX
  8
LAYER_2
 10
167.5446
 20
36.8071
  0
VERTEX
  8
LAYER_2
 10
167.4919
 20
36.8642
  0
VERTEX
  8
LAYER_2
 10
167.4103
 20
36.8963
  0
VERTEX
  8
LAYER_2
 10
167.3038
 20
36.9066
  0
VERTEX
  8
LAYER_2
 10
167.1168
 20
36.9066
  0
SEQEND
  0
ENDBLK
  0
BLOCK
  8
LAYER_2
  2
AIGNBL02030023
 70
64
 10
0
 20
0
 30
0
  3
AIGNBL02030023
  0
POLYLINE
  8
LAYER_2
 40
0.05
 41
0.05
 66
1
 10
0
 20
0
 30
0
 70
1
  0
VERTEX
  8
LAYER_2
 10
168.1923
 20
35.9637
  0
VERTEX
  8
LAYER_2
 10
168.0876
 20
35.9637
  0
VERTEX
  8
LAYER_2
 10
168.0876
 20
36.9969
  0
VERTEX
  8
LAYER_2
 10
168.1923
 20
36.9969
  0
SEQEND
  0
ENDBLK
  0
BLOCK
  8
LAYER_2
  2
AIGNBL02030024
 70
64
 10
0
 20
0
 30
0
  3
AIGNBL02030024
  0
POLYLINE
  8
LAYER_2
 40
0.05
 41
0.05
 66
1
 10
0
 20
0
 30
0
 70
1
  0
VERTEX
  8
LAYER_2
 10
168.7732
 20
36.0574
  0
VERTEX
  8
LAYER_2
 10
169.3261
 20
36.0574
  0
VERTEX
  8
LAYER_2
 10
169.3261
 20
35.9637
  0
VERTEX
  8
LAYER_2
 10
168.6681
 20
35.9637
  0
VERTEX
  8
LAYER_2
 10
168.6681
 20
36.9969
  0
VERTEX
  8
LAYER_2
 10
169.3089
 20
36.9969
  0
VERTEX
  8
LAYER_2
 10
169.3089
 20
36.9035
  0
VERTEX
  8
LAYER_2
 10
168.7732
 20
36.9035
  0
VERTEX
  8
LAYER_2
 10
168.7732
 20
36.549
  0
VERTEX
  8
LAYER_2
 10
169.2737
 20
36.549
  0
VERTEX
  8
LAYER_2
 10
169.2737
 20
36.4557
  0
VERTEX
  8
LAYER_2
 10
168.7732
 20
36.4557
  0
SEQEND
  0
ENDBLK
  0
BLOCK
  8
LAYER_2
  2
AIGNBL02030025
 70
64
 10
0
 20
0
 30
0
  3
AIGNBL02030025
  0
POLYLINE
  8
LAYER_2
 40
0.05
 41
0.05
 66
1
 10
0
 20
0
 30
0
 70
1
  0
VERTEX
  8
LAYER_2
 10
170.4661
 20
36.117
  0
VERTEX
  8
LAYER_2
 10
170.4688
 20
36.117
  0
VERTEX
  8
LAYER_2
 10
170.4688
 20
36.9969
  0
VERTEX
  8
LAYER_2
 10
170.5739
 20
36.9969
  0
VERTEX
  8
LAYER_2
 10
170.5739
 20
35.9637
  0
VERTEX
  8
LAYER_2
 10
170.4427
 20
35.9637
  0
VERTEX
  8
LAYER_2
 10
169.8415
 20
36.8525
  0
VERTEX
  8
LAYER_2
 10
169.8384
 20
36.8525
  0
VERTEX
  8
LAYER_2
 10
169.8384
 20
35.9637
  0
VERTEX
  8
LAYER_2
 10
169.7333
 20
35.9637
  0
VERTEX
  8
LAYER_2
 10
169.7333
 20
36.9969
  0
VERTEX
  8
LAYER_2
 10
169.8649
 20
36.9969
  0
SEQEND
  0
ENDBLK
  0
BLOCK
  8
LAYER_2
  2
AIGNBL02030026
 70
64
 10
0
 20
0
 30
0
  3
AIGNBL02030026
  0
POLYLINE
  8
LAYER_2
 40
0.05
 41
0.05
 66
1
 10
0
 20
0
 30
0
 70
1
  0
VERTEX
  8
LAYER_2
 10
171.9196
 20
36.1315
  0
VERTEX
  8
LAYER_2
 10
171.8558
 20
36.0571
  0
VERTEX
  8
LAYER_2
 10
171.7697
 20
35.9954
  0
VERTEX
  8
LAYER_2
 10
171.6615
 20
35.953
  0
VERTEX
  8
LAYER_2
 10
171.5327
 20
35.9375
 42
-0.0997799169
  0
VERTEX
  8
LAYER_2
 10
171.3167
 20
35.9785
 42
-0.102530266
  0
VERTEX
  8
LAYER_2
 10
171.1461
 20
36.0915
 42
-0.1000387679
  0
VERTEX
  8
LAYER_2
 10
171.0345
 20
36.2631
 42
-0.09630702324
  0
VERTEX
  8
LAYER_2
 10
170.9942
 20
36.4805
 42
-0.1019529564
  0
VERTEX
  8
LAYER_2
 10
171.0352
 20
36.6978
 42
-0.09989904409
  0
VERTEX
  8
LAYER_2
 10
171.1479
 20
36.8694
 42
-0.09705342834
  0
VERTEX
  8
LAYER_2
 10
171.3187
 20
36.9824
 42
-0.09752919603
  0
VERTEX
  8
LAYER_2
 10
171.5327
 20
37.0234
  0
VERTEX
  8
LAYER_2
 10
171.6443
 20
37.0113
  0
VERTEX
  8
LAYER_2
 10
171.7473
 20
36.9779
  0
VERTEX
  8
LAYER_2
 10
171.8348
 20
36.9263
  0
VERTEX
  8
LAYER_2
 10
171.9006
 20
36.8584
  0
VERTEX
  8
LAYER_2
 10
171.8131
 20
36.794
  0
VERTEX
  8
LAYER_2
 10
171.7697
 20
36.8439
  0
VERTEX
  8
LAYER_2
 10
171.7063
 20
36.8877
  0
VERTEX
  8
LAYER_2
 10
171.6267
 20
36.9183
  0
VERTEX
  8
LAYER_2
 10
171.5341
 20
36.93
 42
0.1106055686
  0
VERTEX
  8
LAYER_2
 10
171.3539
 20
36.8935
 42
0.1040964846
  0
VERTEX
  8
LAYER_2
 10
171.2188
 20
36.7953
 42
0.09554708239
  0
VERTEX
  8
LAYER_2
 10
171.1341
 20
36.652
 42
0.08465136707
  0
VERTEX
  8
LAYER_2
 10
171.1051
 20
36.4805
 42
0.09018441759
  0
VERTEX
  8
LAYER_2
 10
171.1351
 20
36.3089
 42
0.09834905538
  0
VERTEX
  8
LAYER_2
 10
171.2206
 20
36.1656
 42
0.1037153981
  0
VERTEX
  8
LAYER_2
 10
171.3556
 20
36.0674
 42
0.1064777274
  0
VERTEX
  8
LAYER_2
 10
171.5341
 20
36.0309
 42
0.1093190709
  0
VERTEX
  8
LAYER_2
 10
171.7032
 20
36.0674
 42
0.1366622766
  0
VERTEX
  8
LAYER_2
 10
171.8376
 20
36.1842
  0
SEQEND
  0
ENDBLK
  0
BLOCK
  8
LAYER_2
  2
AIGNBL02030027
 70
64
 10
0
 20
0
 30
0
  3
AIGNBL02030027
  0
POLYLINE
  8
LAYER_2
 40
0.05
 41
0.05
 66
1
 10
0
 20
0
 30
0
 70
1
  0
VERTEX
  8
LAYER_2
 10
172.4067
 20
36.0574
  0
VERTEX
  8
LAYER_2
 10
172.96
 20
36.0574
  0
VERTEX
  8
LAYER_2
 10
172.96
 20
35.9637
  0
VERTEX
  8
LAYER_2
 10
172.3016
 20
35.9637
  0
VERTEX
  8
LAYER_2
 10
172.3016
 20
36.9969
  0
VERTEX
  8
LAYER_2
 10
172.9424
 20
36.9969
  0
VERTEX
  8
LAYER_2
 10
172.9424
 20
36.9035
  0
VERTEX
  8
LAYER_2
 10
172.4067
 20
36.9035
  0
VERTEX
  8
LAYER_2
 10
172.4067
 20
36.549
  0
VERTEX
  8
LAYER_2
 10
172.9073
 20
36.549
  0
VERTEX
  8
LAYER_2
 10
172.9073
 20
36.4557
  0
VERTEX
  8
LAYER_2
 10
172.4067
 20
36.4557
  0
SEQEND
  0
ENDBLK
  0
BLOCK
  8
LAYER_2
  2
AIGNBL02020004
 70
64
 10
0
 20
0
 30
0
  3
AIGNBL02020004
  0
POLYLINE
  8
LAYER_2
 40
0.05
 41
0.05
 66
1
 10
0
 20
0
 30
0
  0
VERTEX
  8
LAYER_2
 10
-1.196
 20
217.6012
 42
-0.04245719054
  0
VERTEX
  8
LAYER_2
 10
-1.2437
 20
216.7495
 42
-0.1145799327
  0
VERTEX
  8
LAYER_2
 10
-1.4854
 20
216.1042
 42
-0.03657724702
  0
VERTEX
  8
LAYER_2
 10
-1.5732
 20
216.0054
 42
-0.1577844027
  0
VERTEX
  8
LAYER_2
 10
-2.1025
 20
215.7362
 42
-0.04286355862
  0
VERTEX
  8
LAYER_2
 10
-2.3408
 20
215.7164
 42
-0.1461347274
  0
VERTEX
  8
LAYER_2
 10
-2.9525
 20
215.8874
 42
-0.04825720136
  0
VERTEX
  8
LAYER_2
 10
-3.0956
 20
216.0054
 42
-0.1514389093
  0
VERTEX
  8
LAYER_2
 10
-3.3903
 20
216.5711
 42
-0.04033585951
  0
VERTEX
  8
LAYER_2
 10
-3.4563
 20
217.0249
 42
-0.01781626242
  0
VERTEX
  8
LAYER_2
 10
-3.4732
 20
217.6012
 42
-0.04130006014
  0
VERTEX
  8
LAYER_2
 10
-3.4273
 20
218.4296
 42
-0.1151149684
  0
VERTEX
  8
LAYER_2
 10
-3.1834
 20
219.0859
 42
-0.03654153753
  0
VERTEX
  8
LAYER_2
 10
-3.0956
 20
219.1846
 42
-0.2075936136
  0
VERTEX
  8
LAYER_2
 10
-2.3408
 20
219.4733
 42
-0.1450929454
  0
VERTEX
  8
LAYER_2
 10
-1.7165
 20
219.3023
 42
-0.04835174358
  0
VERTEX
  8
LAYER_2
 10
-1.5732
 20
219.1846
 42
-0.1513451311
  0
VERTEX
  8
LAYER_2
 10
-1.2787
 20
218.6202
 42
-0.04039310281
  0
VERTEX
  8
LAYER_2
 10
-1.2128
 20
218.1697
 42
-0.01794217025
  0
VERTEX
  8
LAYER_2
 10
-1.196
 20
217.6012
  0
SEQEND
  0
POLYLINE
  8
LAYER_2
 40
0.05
 41
0.05
 66
1
 10
0
 20
0
 30
0
  0
VERTEX
  8
LAYER_2
 10
0.4394
 20
217.6012
 42
0.03175065208
  0
VERTEX
  8
LAYER_2
 10
0.3919
 20
218.5427
 42
0.07858555415
  0
VERTEX
  8
LAYER_2
 10
0.123
 20
219.5272
 42
0.07786217308
  0
VERTEX
  8
LAYER_2
 10
-0.303
 20
220.1395
 42
0.1422741765
  0
VERTEX
  8
LAYER_2
 10
-1.5044
 20
220.8409
 42
0.06575783118
  0
VERTEX
  8
LAYER_2
 10
-2.3408
 20
220.9436
 42
0.08626276489
  0
VERTEX
  8
LAYER_2
 10
-3.3995
 20
220.7669
 42
0.1130938839
  0
VERTEX
  8
LAYER_2
 10
-4.3661
 20
220.1395
 42
0.09874851938
  0
VERTEX
  8
LAYER_2
 10
-4.8748
 20
219.3361
 42
0.04046642204
  0
VERTEX
  8
LAYER_2
 10
-5.006
 20
218.8809
 42
0.03221243423
  0
VERTEX
  8
LAYER_2
 10
-5.0854
 20
218.2915
 42
0.01857787638
  0
VERTEX
  8
LAYER_2
 10
-5.1082
 20
217.6012
 42
0.0314952959
  0
VERTEX
  8
LAYER_2
 10
-5.0608
 20
216.6571
 42
0.07798081448
  0
VERTEX
  8
LAYER_2
 10
-4.7922
 20
215.6655
 42
0.07854437857
  0
VERTEX
  8
LAYER_2
 10
-4.3661
 20
215.0504
 42
0.1827570447
  0
VERTEX
  8
LAYER_2
 10
-2.668
 20
214.2614
 42
0.02310613048
  0
VERTEX
  8
LAYER_2
 10
-2.3408
 20
214.2464
 42
0.08562149542
  0
VERTEX
  8
LAYER_2
 10
-1.2772
 20
214.4231
 42
0.11295963
  0
VERTEX
  8
LAYER_2
 10
-0.303
 20
215.0504
 42
0.1497181056
  0
VERTEX
  8
LAYER_2
 10
0.3325
 20
216.2722
 42
0.03273812963
  0
VERTEX
  8
LAYER_2
 10
0.4143
 20
216.8609
 42
0.01955851524
  0
VERTEX
  8
LAYER_2
 10
0.4394
 20
217.6012
  0
SEQEND
  0
POLYLINE
  8
LAYER_2
 40
0.05
 41
0.05
 66
1
 10
0
 20
0
 30
0
  0
VERTEX
  8
LAYER_2
 10
-11.3166
 20
218.2044
  0
VERTEX
  8
LAYER_2
 10
-13.8074
 20
218.2044
 42
-0.1126267973
  0
VERTEX
  8
LAYER_2
 10
-13.6562
 20
218.9079
 42
-0.1394755972
  0
VERTEX
  8
LAYER_2
 10
-13.2507
 20
219.3934
 42
-0.1317755903
  0
VERTEX
  8
LAYER_2
 10
-12.676
 20
219.5824
 42
-0.01996342929
  0
VERTEX
  8
LAYER_2
 10
-12.562
 20
219.5866
 42
-0.137467943
  0
VERTEX
  8
LAYER_2
 10
-11.8991
 20
219.4101
 42
-0.150691583
  0
VERTEX
  8
LAYER_2
 10
-11.4672
 20
218.9079
 42
-0.1174358853
  0
VERTEX
  8
LAYER_2
 10
-11.3166
 20
218.2044
  0
SEQEND
  0
POLYLINE
  8
LAYER_2
 40
0.05
 41
0.05
 66
1
 10
0
 20
0
 30
0
 70
1
  0
VERTEX
  8
LAYER_2
 10
-9.7064
 20
217.0861
  0
VERTEX
  8
LAYER_2
 10
-9.7064
 20
217.7772
 42
0.07162688635
  0
VERTEX
  8
LAYER_2
 10
-9.8733
 20
218.9838
 42
0.08028639799
  0
VERTEX
  8
LAYER_2
 10
-10.2989
 20
219.866
 42
0.08656554483
  0
VERTEX
  8
LAYER_2
 10
-10.9135
 20
220.4722
 42
0.08455920349
  0
VERTEX
  8
LAYER_2
 10
-11.6929
 20
220.8316
 42
0.0690272402
  0
VERTEX
  8
LAYER_2
 10
-12.562
 20
220.9436
 42
0.08516353756
  0
VERTEX
  8
LAYER_2
 10
-13.5923
 20
220.7733
 42
0.2152031234
  0
VERTEX
  8
LAYER_2
 10
-15.1128
 20
219.2869
 42
0.07250104967
  0
VERTEX
  8
LAYER_2
 10
-15.3825
 20
218.2229
 42
0.02934729607
  0
VERTEX
  8
LAYER_2
 10
-15.4177
 20
217.6012
 42
0.06683108421
  0
VERTEX
  8
LAYER_2
 10
-15.2459
 20
216.2162
 42
0.08313278328
  0
VERTEX
  8
LAYER_2
 10
-14.8229
 20
215.3116
 42
0.1842921907
  0
VERTEX
  8
LAYER_2
 10
-13.3775
 20
214.3604
 42
0.06412633437
  0
VERTEX
  8
LAYER_2
 10
-12.386
 20
214.2464
 42
0.07682422262
  0
VERTEX
  8
LAYER_2
 10
-11.1942
 20
214.4123
 42
0.08470351081
  0
VERTEX
  8
LAYER_2
 10
-10.383
 20
214.8416
 42
0.03764758722
  0
VERTEX
  8
LAYER_2
 10
-9.8948
 20
215.2768
  0
VERTEX
  8
LAYER_2
 10
-10.8887
 20
216.2442
 42
-0.1072414833
  0
VERTEX
  8
LAYER_2
 10
-11.6397
 20
215.7366
 42
-0.09138316631
  0
VERTEX
  8
LAYER_2
 10
-12.3732
 20
215.6285
 42
-0.1206829104
  0
VERTEX
  8
LAYER_2
 10
-13.1336
 20
215.8026
 42
-0.1906913474
  0
VERTEX
  8
LAYER_2
 10
-13.7142
 20
216.4979
 42
-0.08636576904
  0
VERTEX
  8
LAYER_2
 10
-13.8074
 20
217.0861
  0
SEQEND
  0
POLYLINE
  8
LAYER_2
 40
0.05
 41
0.05
 66
1
 10
0
 20
0
 30
0
 70
1
  0
VERTEX
  8
LAYER_2
 10
-16.9018
 20
223.2773
  0
VERTEX
  8
LAYER_2
 10
-18.5517
 20
223.2773
  0
VERTEX
  8
LAYER_2
 10
-18.5517
 20
221.9455
  0
VERTEX
  8
LAYER_2
 10
-16.9018
 20
221.9455
  0
SEQEND
  0
POLYLINE
  8
LAYER_2
 40
0.05
 41
0.05
 66
1
 10
0
 20
0
 30
0
 70
1
  0
VERTEX
  8
LAYER_2
 10
-16.9146
 20
220.79
  0
VERTEX
  8
LAYER_2
 10
-18.5499
 20
220.79
  0
VERTEX
  8
LAYER_2
 10
-18.5499
 20
214.3218
  0
VERTEX
  8
LAYER_2
 10
-16.9146
 20
214.3218
  0
SEQEND
  0
POLYLINE
  8
LAYER_2
 40
0.05
 41
0.05
 66
1
 10
0
 20
0
 30
0
  0
VERTEX
  8
LAYER_2
 10
-19.8205
 20
215.1386
  0
VERTEX
  8
LAYER_2
 10
-20.9274
 20
216.2318
 42
-0.124077159
  0
VERTEX
  8
LAYER_2
 10
-21.5761
 20
215.7751
 42
-0.08032586337
  0
VERTEX
  8
LAYER_2
 10
-21.984
 20
215.7164
 42
-0.1386946894
  0
VERTEX
  8
LAYER_2
 10
-22.625
 20
215.8856
 42
-0.08219094685
  0
VERTEX
  8
LAYER_2
 10
-22.9149
 20
216.1436
 42
-0.1253393202
  0
VERTEX
  8
LAYER_2
 10
-23.215
 20
216.8347
 42
-0.05211869655
  0
VERTEX
  8
LAYER_2
 10
-23.2797
 20
217.6012
 42
-0.0435450793
  0
VERTEX
  8
LAYER_2
 10
-23.2306
 20
218.2793
 42
-0.1072750387
  0
VERTEX
  8
LAYER_2
 10
-22.9604
 20
218.9857
 42
-0.01439054395
  0
VERTEX
  8
LAYER_2
 10
-22.9149
 20
219.0461
 42
-0.143045989
  0
VERTEX
  8
LAYER_2
 10
-22.387
 20
219.4143
 42
-0.07949646803
  0
VERTEX
  8
LAYER_2
 10
-21.984
 20
219.4733
 42
-0.1421227284
  0
VERTEX
  8
LAYER_2
 10
-21.3214
 20
219.2962
 42
-0.06971561642
  0
VERTEX
  8
LAYER_2
 10
-20.9274
 20
218.9586
  0
VERTEX
  8
LAYER_2
 10
-19.8205
 20
220.0637
 42
0.08882909472
  0
VERTEX
  8
LAYER_2
 10
-20.632
 20
220.6645
 42
0.08605806955
  0
VERTEX
  8
LAYER_2
 10
-21.5364
 20
220.9189
 42
0.02865290108
  0
VERTEX
  8
LAYER_2
 10
-21.984
 20
220.9436
 42
0.0806713287
  0
VERTEX
  8
LAYER_2
 10
-23.0569
 20
220.7735
 42
0.08357777431
  0
VERTEX
  8
LAYER_2
 10
-23.8317
 20
220.3573
 42
0.09024198391
  0
VERTEX
  8
LAYER_2
 10
-24.4186
 20
219.692
 42
0.07835989587
  0
VERTEX
  8
LAYER_2
 10
-24.7811
 20
218.801
 42
0.06322906838
  0
VERTEX
  8
LAYER_2
 10
-24.9151
 20
217.6012
 42
0.06782520219
  0
VERTEX
  8
LAYER_2
 10
-24.7438
 20
216.2613
 42
0.08255819328
  0
VERTEX
  8
LAYER_2
 10
-24.3104
 20
215.3428
 42
0.1768050018
  0
VERTEX
  8
LAYER_2
 10
-22.8675
 20
214.3604
 42
0.06691738143
  0
VERTEX
  8
LAYER_2
 10
-21.984
 20
214.2464
 42
0.08460493823
  0
VERTEX
  8
LAYER_2
 10
-20.8976
 20
214.4205
 42
0.08609823032
  0
VERTEX
  8
LAYER_2
 10
-20.1139
 20
214.8669
 42
0.0305516797
  0
VERTEX
  8
LAYER_2
 10
-19.8205
 20
215.1386
  0
SEQEND
  0
ENDBLK
  0
BLOCK
  8
LAYER_2
  2
AIGNBL02020005
 70
64
 10
0
 20
0
 30
0
  3
AIGNBL02020005
  0
POLYLINE
  8
LAYER_2
 40
0.05
 41
0.05
 66
1
 10
0
 20
0
 30
0
 70
1
  0
VERTEX
  8
LAYER_2
 10
0.3288
 20
212.6806
  0
VERTEX
  8
LAYER_2
 10
0.0009
 20
212.6806
  0
VERTEX
  8
LAYER_2
 10
-0.2479
 20
211.9109
  0
VERTEX
  8
LAYER_2
 10
-0.5066
 20
212.6806
  0
VERTEX
  8
LAYER_2
 10
-0.8342
 20
212.6806
  0
VERTEX
  8
LAYER_2
 10
-0.4084
 20
211.5234
  0
VERTEX
  8
LAYER_2
 10
-0.4611
 20
211.3704
 42
-0.3961336399
  0
VERTEX
  8
LAYER_2
 10
-0.6165
 20
211.2581
  0
VERTEX
  8
LAYER_2
 10
-0.6882
 20
211.2581
  0
VERTEX
  8
LAYER_2
 10
-0.6882
 20
210.9783
  0
VERTEX
  8
LAYER_2
 10
-0.5662
 20
210.9783
 42
0.2034440672
  0
VERTEX
  8
LAYER_2
 10
-0.2985
 20
211.0741
 42
0.1004639661
  0
VERTEX
  8
LAYER_2
 10
-0.2048
 20
211.2343
  0
SEQEND
  0
POLYLINE
  8
LAYER_2
 40
0.05
 41
0.05
 66
1
 10
0
 20
0
 30
0
 70
1
  0
VERTEX
  8
LAYER_2
 10
-0.8704
 20
211.4352
  0
VERTEX
  8
LAYER_2
 10
-0.8704
 20
211.6977
  0
VERTEX
  8
LAYER_2
 10
-0.9899
 20
211.6977
 42
-0.4751531158
  0
VERTEX
  8
LAYER_2
 10
-1.0998
 20
211.8103
  0
VERTEX
  8
LAYER_2
 10
-1.0998
 20
213.137
  0
VERTEX
  8
LAYER_2
 10
-1.4109
 20
213.137
  0
VERTEX
  8
LAYER_2
 10
-1.4109
 20
211.7914
 42
0.2572712742
  0
VERTEX
  8
LAYER_2
 10
-1.2491
 20
211.4844
 42
0.1351549622
  0
VERTEX
  8
LAYER_2
 10
-1.0475
 20
211.4352
  0
SEQEND
  0
POLYLINE
  8
LAYER_2
 40
0.05
 41
0.05
 66
1
 10
0
 20
0
 30
0
 70
1
  0
VERTEX
  8
LAYER_2
 10
-1.9739
 20
211.894
 42
-0.2469446344
  0
VERTEX
  8
LAYER_2
 10
-2.0214
 20
211.7363
 42
-0.2123665607
  0
VERTEX
  8
LAYER_2
 10
-2.2057
 20
211.6763
 42
-0.2053891319
  0
VERTEX
  8
LAYER_2
 10
-2.3584
 20
211.7231
 42
-0.2060051203
  0
VERTEX
  8
LAYER_2
 10
-2.3949
 20
211.8176
 42
-0.4725599787
  0
VERTEX
  8
LAYER_2
 10
-2.2105
 20
211.9609
  0
VERTEX
  8
LAYER_2
 10
-1.9739
 20
211.9609
  0
SEQEND
  0
POLYLINE
  8
LAYER_2
 40
0.05
 41
0.05
 66
1
 10
0
 20
0
 30
0
 70
1
  0
VERTEX
  8
LAYER_2
 10
-1.6624
 20
211.4352
  0
VERTEX
  8
LAYER_2
 10
-1.6624
 20
212.2551
 42
0.2451162416
  0
VERTEX
  8
LAYER_2
 10
-1.8225
 20
212.6039
 42
0.1630344424
  0
VERTEX
  8
LAYER_2
 10
-2.194
 20
212.6947
 42
0.223003002
  0
VERTEX
  8
LAYER_2
 10
-2.6298
 20
212.5302
 42
0.006267388191
  0
VERTEX
  8
LAYER_2
 10
-2.6412
 20
212.5179
  0
VERTEX
  8
LAYER_2
 10
-2.4452
 20
212.3243
 42
-0.2474228759
  0
VERTEX
  8
LAYER_2
 10
-2.2057
 20
212.4322
 42
-0.1875116517
  0
VERTEX
  8
LAYER_2
 10
-2.0297
 20
212.3865
 42
-0.2385471677
  0
VERTEX
  8
LAYER_2
 10
-1.9739
 20
212.2358
  0
VERTEX
  8
LAYER_2
 10
-1.9739
 20
212.1738
  0
VERTEX
  8
LAYER_2
 10
-2.2633
 20
212.1738
 42
0.2343493414
  0
VERTEX
  8
LAYER_2
 10
-2.6354
 20
212.0142
 42
0.1534284984
  0
VERTEX
  8
LAYER_2
 10
-2.6942
 20
211.8127
 42
0.1895201048
  0
VERTEX
  8
LAYER_2
 10
-2.5912
 20
211.533
 42
0.2074502918
  0
VERTEX
  8
LAYER_2
 10
-2.2729
 20
211.4228
 42
0.2214267061
  0
VERTEX
  8
LAYER_2
 10
-1.9663
 20
211.5426
  0
VERTEX
  8
LAYER_2
 10
-1.9663
 20
211.4352
  0
SEQEND
  0
POLYLINE
  8
LAYER_2
 40
0.05
 41
0.05
 66
1
 10
0
 20
0
 30
0
 70
1
  0
VERTEX
  8
LAYER_2
 10
-2.8758
 20
211.4352
  0
VERTEX
  8
LAYER_2
 10
-2.8758
 20
211.6977
  0
VERTEX
  8
LAYER_2
 10
-2.9884
 20
211.6977
 42
-0.4616084329
  0
VERTEX
  8
LAYER_2
 10
-3.0963
 20
211.8103
  0
VERTEX
  8
LAYER_2
 10
-3.0963
 20
212.4081
  0
VERTEX
  8
LAYER_2
 10
-2.8758
 20
212.4081
  0
VERTEX
  8
LAYER_2
 10
-2.8758
 20
212.6444
  0
VERTEX
  8
LAYER_2
 10
-3.0963
 20
212.6444
  0
VERTEX
  8
LAYER_2
 10
-3.0963
 20
213.0127
  0
VERTEX
  8
LAYER_2
 10
-3.407
 20
213.0127
  0
VERTEX
  8
LAYER_2
 10
-3.407
 20
212.6444
  0
VERTEX
  8
LAYER_2
 10
-3.539
 20
212.6444
  0
VERTEX
  8
LAYER_2
 10
-3.539
 20
212.4081
  0
VERTEX
  8
LAYER_2
 10
-3.407
 20
212.4081
  0
VERTEX
  8
LAYER_2
 10
-3.407
 20
211.7914
 42
0.2563568817
  0
VERTEX
  8
LAYER_2
 10
-3.2458
 20
211.4844
 42
0.1357760723
  0
VERTEX
  8
LAYER_2
 10
-3.0456
 20
211.4352
  0
SEQEND
  0
POLYLINE
  8
LAYER_2
 40
0.05
 41
0.05
 66
1
 10
0
 20
0
 30
0
 70
1
  0
VERTEX
  8
LAYER_2
 10
-3.8091
 20
213.137
  0
VERTEX
  8
LAYER_2
 10
-4.1419
 20
213.137
  0
VERTEX
  8
LAYER_2
 10
-4.1419
 20
211.4352
  0
VERTEX
  8
LAYER_2
 10
-3.8091
 20
211.4352
  0
SEQEND
  0
POLYLINE
  8
LAYER_2
 40
0.05
 41
0.05
 66
1
 10
0
 20
0
 30
0
 70
1
  0
VERTEX
  8
LAYER_2
 10
-5.0562
 20
211.4352
  0
VERTEX
  8
LAYER_2
 10
-5.0562
 20
212.231
 42
0.2072987281
  0
VERTEX
  8
LAYER_2
 10
-5.183
 20
212.5844
 42
0.2031043538
  0
VERTEX
  8
LAYER_2
 10
-5.4775
 20
212.6947
 42
0.201378382
  0
VERTEX
  8
LAYER_2
 10
-5.7886
 20
212.5658
  0
VERTEX
  8
LAYER_2
 10
-5.7886
 20
212.6806
  0
VERTEX
  8
LAYER_2
 10
-6.0925
 20
212.6806
  0
VERTEX
  8
LAYER_2
 10
-6.0925
 20
211.4352
  0
VERTEX
  8
LAYER_2
 10
-5.7814
 20
211.4352
  0
VERTEX
  8
LAYER_2
 10
-5.7814
 20
212.1883
 42
-0.4179621604
  0
VERTEX
  8
LAYER_2
 10
-5.573
 20
212.4149
 42
-0.4342829929
  0
VERTEX
  8
LAYER_2
 10
-5.3673
 20
212.1883
  0
VERTEX
  8
LAYER_2
 10
-5.3673
 20
211.4352
  0
SEQEND
  0
POLYLINE
  8
LAYER_2
 40
0.05
 41
0.05
 66
1
 10
0
 20
0
 30
0
 70
1
  0
VERTEX
  8
LAYER_2
 10
-6.437
 20
213.1467
  0
VERTEX
  8
LAYER_2
 10
-6.7553
 20
213.1467
  0
VERTEX
  8
LAYER_2
 10
-6.7553
 20
212.8931
  0
VERTEX
  8
LAYER_2
 10
-6.437
 20
212.8931
  0
SEQEND
  0
POLYLINE
  8
LAYER_2
 40
0.05
 41
0.05
 66
1
 10
0
 20
0
 30
0
 70
1
  0
VERTEX
  8
LAYER_2
 10
-6.4394
 20
212.6444
  0
VERTEX
  8
LAYER_2
 10
-6.7508
 20
212.6444
  0
VERTEX
  8
LAYER_2
 10
-6.7508
 20
211.4352
  0
VERTEX
  8
LAYER_2
 10
-6.4394
 20
211.4352
  0
SEQEND
  0
POLYLINE
  8
LAYER_2
 40
0.05
 41
0.05
 66
1
 10
0
 20
0
 30
0
  0
VERTEX
  8
LAYER_2
 10
-7.8994
 20
212.1738
  0
VERTEX
  8
LAYER_2
 10
-8.3735
 20
212.1738
 42
-0.1146919506
  0
VERTEX
  8
LAYER_2
 10
-8.3445
 20
212.3075
 42
-0.3018991672
  0
VERTEX
  8
LAYER_2
 10
-8.1365
 20
212.4363
 42
-0.2970494637
  0
VERTEX
  8
LAYER_2
 10
-7.9284
 20
212.3075
 42
-0.09886844151
  0
VERTEX
  8
LAYER_2
 10
-7.8994
 20
212.1738
  0
SEQEND
  0
POLYLINE
  8
LAYER_2
 40
0.05
 41
0.05
 66
1
 10
0
 20
0
 30
0
 70
1
  0
VERTEX
  8
LAYER_2
 10
-7.5932
 20
211.9609
  0
VERTEX
  8
LAYER_2
 10
-7.5932
 20
212.0925
 42
0.1891963687
  0
VERTEX
  8
LAYER_2
 10
-7.7571
 20
212.5502
 42
0.2074768028
  0
VERTEX
  8
LAYER_2
 10
-8.1365
 20
212.6947
 42
0.212635805
  0
VERTEX
  8
LAYER_2
 10
-8.5293
 20
212.5292
 42
0.1815550622
  0
VERTEX
  8
LAYER_2
 10
-8.6787
 20
212.1059
 42
0.01190200981
  0
VERTEX
  8
LAYER_2
 10
-8.6797
 20
212.0591
 42
0.1802869298
  0
VERTEX
  8
LAYER_2
 10
-8.5263
 20
211.5744
 42
0.2020040623
  0
VERTEX
  8
LAYER_2
 10
-8.158
 20
211.4223
 42
0.01696202641
  0
VERTEX
  8
LAYER_2
 10
-8.103
 20
211.4207
 42
0.2069028033
  0
VERTEX
  8
LAYER_2
 10
-7.6557
 20
211.5904
 42
0.01111068861
  0
VERTEX
  8
LAYER_2
 10
-7.629
 20
211.6167
  0
VERTEX
  8
LAYER_2
 10
-7.8181
 20
211.801
 42
-0.224324849
  0
VERTEX
  8
LAYER_2
 10
-8.1003
 20
211.6839
 42
-0.4264622019
  0
VERTEX
  8
LAYER_2
 10
-8.3735
 20
211.9609
  0
SEQEND
  0
POLYLINE
  8
LAYER_2
 40
0.05
 41
0.05
 66
1
 10
0
 20
0
 30
0
  0
VERTEX
  8
LAYER_2
 10
-9.2778
 20
212.0591
 42
-0.1438386142
  0
VERTEX
  8
LAYER_2
 10
-9.3235
 20
211.7869
 42
-0.2886460427
  0
VERTEX
  8
LAYER_2
 10
-9.4911
 20
211.7004
 42
-0.3841580528
  0
VERTEX
  8
LAYER_2
 10
-9.6851
 20
211.8609
 42
-0.05455021257
  0
VERTEX
  8
LAYER_2
 10
-9.7016
 20
212.0591
 42
-0.1483049254
  0
VERTEX
  8
LAYER_2
 10
-9.6559
 20
212.3323
 42
-0.2855556046
  0
VERTEX
  8
LAYER_2
 10
-9.4911
 20
212.4149
 42
-0.3794480357
  0
VERTEX
  8
LAYER_2
 10
-9.2951
 20
212.2564
 42
-0.05697683845
  0
VERTEX
  8
LAYER_2
 10
-9.2778
 20
212.0591
  0
SEQEND
  0
POLYLINE
  8
LAYER_2
 40
0.05
 41
0.05
 66
1
 10
0
 20
0
 30
0
 70
1
  0
VERTEX
  8
LAYER_2
 10
-8.9667
 20
211.4352
  0
VERTEX
  8
LAYER_2
 10
-8.9667
 20
213.137
  0
VERTEX
  8
LAYER_2
 10
-9.2778
 20
213.137
  0
VERTEX
  8
LAYER_2
 10
-9.2778
 20
212.5707
 42
0.2300395261
  0
VERTEX
  8
LAYER_2
 10
-9.582
 20
212.6947
 42
0.1954770263
  0
VERTEX
  8
LAYER_2
 10
-9.8835
 20
212.5824
 42
0.1230294745
  0
VERTEX
  8
LAYER_2
 10
-9.9795
 20
212.4101
 42
0.0747779445
  0
VERTEX
  8
LAYER_2
 10
-10.013
 20
212.0591
 42
0.0994778514
  0
VERTEX
  8
LAYER_2
 10
-9.9681
 20
211.6705
 42
0.1088456143
  0
VERTEX
  8
LAYER_2
 10
-9.8835
 20
211.533
 42
0.2047870903
  0
VERTEX
  8
LAYER_2
 10
-9.5796
 20
211.4207
 42
0.2301062358
  0
VERTEX
  8
LAYER_2
 10
-9.2709
 20
211.5523
  0
VERTEX
  8
LAYER_2
 10
-9.2709
 20
211.4352
  0
SEQEND
  0
POLYLINE
  8
LAYER_2
 40
0.05
 41
0.05
 66
1
 10
0
 20
0
 30
0
 70
1
  0
VERTEX
  8
LAYER_2
 10
-10.6062
 20
211.894
 42
-0.2466163696
  0
VERTEX
  8
LAYER_2
 10
-10.6541
 20
211.7363
 42
-0.212724989
  0
VERTEX
  8
LAYER_2
 10
-10.8384
 20
211.6763
 42
-0.2059659062
  0
VERTEX
  8
LAYER_2
 10
-10.9909
 20
211.7231
 42
-0.2055032453
  0
VERTEX
  8
LAYER_2
 10
-11.0272
 20
211.8176
 42
-0.4727797621
  0
VERTEX
  8
LAYER_2
 10
-10.8433
 20
211.9609
  0
VERTEX
  8
LAYER_2
 10
-10.6062
 20
211.9609
  0
SEQEND
  0
POLYLINE
  8
LAYER_2
 40
0.05
 41
0.05
 66
1
 10
0
 20
0
 30
0
 70
1
  0
VERTEX
  8
LAYER_2
 10
-10.2952
 20
211.4352
  0
VERTEX
  8
LAYER_2
 10
-10.2952
 20
212.2551
 42
0.2449717567
  0
VERTEX
  8
LAYER_2
 10
-10.4551
 20
212.6039
 42
0.1631604865
  0
VERTEX
  8
LAYER_2
 10
-10.8267
 20
212.6947
 42
0.223003002
  0
VERTEX
  8
LAYER_2
 10
-11.2625
 20
212.5302
 42
0.006267388191
  0
VERTEX
  8
LAYER_2
 10
-11.2739
 20
212.5179
  0
VERTEX
  8
LAYER_2
 10
-11.0779
 20
212.3243
 42
-0.2470834876
  0
VERTEX
  8
LAYER_2
 10
-10.8384
 20
212.4322
 42
-0.1872740545
  0
VERTEX
  8
LAYER_2
 10
-10.6621
 20
212.3865
 42
-0.238797369
  0
VERTEX
  8
LAYER_2
 10
-10.6062
 20
212.2358
  0
VERTEX
  8
LAYER_2
 10
-10.6062
 20
212.1738
  0
VERTEX
  8
LAYER_2
 10
-10.896
 20
212.1738
 42
0.2346153399
  0
VERTEX
  8
LAYER_2
 10
-11.268
 20
212.0142
 42
0.1531846975
  0
VERTEX
  8
LAYER_2
 10
-11.3266
 20
211.8127
 42
0.1894880782
  0
VERTEX
  8
LAYER_2
 10
-11.2239
 20
211.533
 42
0.2078362131
  0
VERTEX
  8
LAYER_2
 10
-10.9053
 20
211.4228
 42
0.2218282602
  0
VERTEX
  8
LAYER_2
 10
-10.599
 20
211.5426
  0
VERTEX
  8
LAYER_2
 10
-10.599
 20
211.4352
  0
SEQEND
  0
POLYLINE
  8
LAYER_2
 40
0.05
 41
0.05
 66
1
 10
0
 20
0
 30
0
 70
1
  0
VERTEX
  8
LAYER_2
 10
-11.5733
 20
211.4352
  0
VERTEX
  8
LAYER_2
 10
-11.5733
 20
212.231
 42
0.205542241
  0
VERTEX
  8
LAYER_2
 10
-11.7097
 20
212.5844
 42
0.1987814349
  0
VERTEX
  8
LAYER_2
 10
-12.016
 20
212.6947
 42
0.2182066523
  0
VERTEX
  8
LAYER_2
 10
-12.3894
 20
212.5369
 42
0.2491445422
  0
VERTEX
  8
LAYER_2
 10
-12.7198
 20
212.6947
 42
0.1964079247
  0
VERTEX
  8
LAYER_2
 10
-13.0309
 20
212.5658
  0
VERTEX
  8
LAYER_2
 10
-13.0309
 20
212.6806
  0
VERTEX
  8
LAYER_2
 10
-13.3348
 20
212.6806
  0
VERTEX
  8
LAYER_2
 10
-13.3348
 20
211.4352
  0
VERTEX
  8
LAYER_2
 10
-13.0233
 20
211.4352
  0
VERTEX
  8
LAYER_2
 10
-13.0233
 20
212.1883
 42
-0.4179659679
  0
VERTEX
  8
LAYER_2
 10
-12.8152
 20
212.4149
 42
-0.4342681599
  0
VERTEX
  8
LAYER_2
 10
-12.6096
 20
212.1883
  0
VERTEX
  8
LAYER_2
 10
-12.6096
 20
211.4352
  0
VERTEX
  8
LAYER_2
 10
-12.2985
 20
211.4352
  0
VERTEX
  8
LAYER_2
 10
-12.2985
 20
212.1951
 42
-0.4176164983
  0
VERTEX
  8
LAYER_2
 10
-12.0904
 20
212.4149
 42
-0.4347166888
  0
VERTEX
  8
LAYER_2
 10
-11.8844
 20
212.1883
  0
VERTEX
  8
LAYER_2
 10
-11.8844
 20
211.4352
  0
SEQEND
  0
POLYLINE
  8
LAYER_2
 40
0.05
 41
0.05
 66
1
 10
0
 20
0
 30
0
  0
VERTEX
  8
LAYER_2
 10
-13.8973
 20
212.0229
 42
-0.1159545013
  0
VERTEX
  8
LAYER_2
 10
-13.9445
 20
211.7201
 42
-0.3130236509
  0
VERTEX
  8
LAYER_2
 10
-14.1916
 20
211.5736
 42
-0.3150185863
  0
VERTEX
  8
LAYER_2
 10
-14.446
 20
211.7323
 42
-0.1052799031
  0
VERTEX
  8
LAYER_2
 10
-14.4882
 20
212.0229
 42
-0.113922501
  0
VERTEX
  8
LAYER_2
 10
-14.4424
 20
212.3219
 42
-0.3163703602
  0
VERTEX
  8
LAYER_2
 10
-14.1916
 20
212.4725
 42
-0.3164274474
  0
VERTEX
  8
LAYER_2
 10
-13.9391
 20
212.3138
 42
-0.1034386904
  0
VERTEX
  8
LAYER_2
 10
-13.8973
 20
212.0229
  0
SEQEND
  0
POLYLINE
  8
LAYER_2
 40
0.05
 41
0.05
 66
1
 10
0
 20
0
 30
0
 70
1
  0
VERTEX
  8
LAYER_2
 10
-13.7247
 20
211.4352
  0
VERTEX
  8
LAYER_2
 10
-13.7247
 20
213.137
  0
VERTEX
  8
LAYER_2
 10
-13.8973
 20
213.137
  0
VERTEX
  8
LAYER_2
 10
-13.8973
 20
212.4749
 42
0.2525818121
  0
VERTEX
  8
LAYER_2
 10
-14.2298
 20
212.6258
 42
0.1886393528
  0
VERTEX
  8
LAYER_2
 10
-14.5171
 20
212.5224
 42
0.1172978386
  0
VERTEX
  8
LAYER_2
 10
-14.6205
 20
212.3434
 42
0.07876818405
  0
VERTEX
  8
LAYER_2
 10
-14.6608
 20
212.0229
 42
0.09207329595
  0
VERTEX
  8
LAYER_2
 10
-14.6127
 20
211.6805
 42
0.1077667615
  0
VERTEX
  8
LAYER_2
 10
-14.5171
 20
211.5234
 42
0.198210181
  0
VERTEX
  8
LAYER_2
 10
-14.2298
 20
211.4207
 42
0.2515984765
  0
VERTEX
  8
LAYER_2
 10
-13.8949
 20
211.5761
  0
VERTEX
  8
LAYER_2
 10
-13.8949
 20
211.4352
  0
SEQEND
  0
POLYLINE
  8
LAYER_2
 40
0.05
 41
0.05
 66
1
 10
0
 20
0
 30
0
 70
1
  0
VERTEX
  8
LAYER_2
 10
-15.0173
 20
211.4352
  0
VERTEX
  8
LAYER_2
 10
-15.0173
 20
212.1883
 42
0.202703885
  0
VERTEX
  8
LAYER_2
 10
-15.1393
 20
212.5155
 42
0.2046678658
  0
VERTEX
  8
LAYER_2
 10
-15.4411
 20
212.6258
 42
0.2165707378
  0
VERTEX
  8
LAYER_2
 10
-15.7711
 20
212.4818
  0
VERTEX
  8
LAYER_2
 10
-15.7711
 20
212.6113
  0
VERTEX
  8
LAYER_2
 10
-15.9434
 20
212.6113
  0
VERTEX
  8
LAYER_2
 10
-15.9434
 20
211.4352
  0
VERTEX
  8
LAYER_2
 10
-15.7711
 20
211.4352
  0
VERTEX
  8
LAYER_2
 10
-15.7711
 20
212.1593
 42
-0.2837547598
  0
VERTEX
  8
LAYER_2
 10
-15.6189
 20
212.4442
 42
-0.1086336204
  0
VERTEX
  8
LAYER_2
 10
-15.479
 20
212.4725
 42
-0.442304779
  0
VERTEX
  8
LAYER_2
 10
-15.1896
 20
212.1593
  0
VERTEX
  8
LAYER_2
 10
-15.1896
 20
211.4352
  0
SEQEND
  0
POLYLINE
  8
LAYER_2
 40
0.05
 41
0.05
 66
1
 10
0
 20
0
 30
0
 70
1
  0
VERTEX
  8
LAYER_2
 10
-16.5346
 20
211.8506
 42
-0.2101171453
  0
VERTEX
  8
LAYER_2
 10
-16.5945
 20
211.6477
 42
-0.2061049303
  0
VERTEX
  8
LAYER_2
 10
-16.8553
 20
211.5688
 42
-0.1622506966
  0
VERTEX
  8
LAYER_2
 10
-17.0584
 20
211.615
 42
-0.2627350918
  0
VERTEX
  8
LAYER_2
 10
-17.1282
 20
211.77
 42
-0.376646919
  0
VERTEX
  8
LAYER_2
 10
-16.9692
 20
211.9668
 42
-0.05118405332
  0
VERTEX
  8
LAYER_2
 10
-16.8625
 20
211.9774
  0
VERTEX
  8
LAYER_2
 10
-16.5346
 20
211.9774
  0
SEQEND
  0
POLYLINE
  8
LAYER_2
 40
0.05
 41
0.05
 66
1
 10
0
 20
0
 30
0
 70
1
  0
VERTEX
  8
LAYER_2
 10
-16.362
 20
211.4352
  0
VERTEX
  8
LAYER_2
 10
-16.362
 20
212.233
 42
0.2623610217
  0
VERTEX
  8
LAYER_2
 10
-16.5224
 20
212.5561
 42
0.1450933816
  0
VERTEX
  8
LAYER_2
 10
-16.8336
 20
212.6258
 42
0.2362276322
  0
VERTEX
  8
LAYER_2
 10
-17.2355
 20
212.4672
 42
0.01170794038
  0
VERTEX
  8
LAYER_2
 10
-17.2501
 20
212.4487
  0
VERTEX
  8
LAYER_2
 10
-17.133
 20
212.3409
 42
-0.2755800686
  0
VERTEX
  8
LAYER_2
 10
-16.8364
 20
212.4776
 42
-0.1517468402
  0
VERTEX
  8
LAYER_2
 10
-16.6283
 20
212.4308
 42
-0.2800643637
  0
VERTEX
  8
LAYER_2
 10
-16.5346
 20
212.2193
  0
VERTEX
  8
LAYER_2
 10
-16.5346
 20
212.1066
  0
VERTEX
  8
LAYER_2
 10
-16.8863
 20
212.1066
 42
0.2378691362
  0
VERTEX
  8
LAYER_2
 10
-17.2451
 20
211.9523
 42
0.1477379502
  0
VERTEX
  8
LAYER_2
 10
-17.2956
 20
211.7673
 42
0.1985438552
  0
VERTEX
  8
LAYER_2
 10
-17.207
 20
211.5282
 42
0.2224112685
  0
VERTEX
  8
LAYER_2
 10
-16.8742
 20
211.4207
 42
0.21971579
  0
VERTEX
  8
LAYER_2
 10
-16.5346
 20
211.5471
  0
VERTEX
  8
LAYER_2
 10
-16.5346
 20
211.4352
  0
SEQEND
  0
POLYLINE
  8
LAYER_2
 40
0.05
 41
0.05
 66
1
 10
0
 20
0
 30
0
 70
1
  0
VERTEX
  8
LAYER_2
 10
-17.6211
 20
211.4352
  0
VERTEX
  8
LAYER_2
 10
-17.6211
 20
212.1903
 42
0.2366048602
  0
VERTEX
  8
LAYER_2
 10
-17.7848
 20
212.5524
 42
0.1585996094
  0
VERTEX
  8
LAYER_2
 10
-18.0449
 20
212.6258
 42
0.2174282511
  0
VERTEX
  8
LAYER_2
 10
-18.3749
 20
212.4818
  0
VERTEX
  8
LAYER_2
 10
-18.3749
 20
213.137
  0
VERTEX
  8
LAYER_2
 10
-18.5475
 20
213.137
  0
VERTEX
  8
LAYER_2
 10
-18.5475
 20
211.4352
  0
VERTEX
  8
LAYER_2
 10
-18.3749
 20
211.4352
  0
VERTEX
  8
LAYER_2
 10
-18.3749
 20
212.1617
 42
-0.2889308341
  0
VERTEX
  8
LAYER_2
 10
-18.2221
 20
212.4453
 42
-0.1047577161
  0
VERTEX
  8
LAYER_2
 10
-18.0807
 20
212.4725
 42
-0.4463558923
  0
VERTEX
  8
LAYER_2
 10
-17.7934
 20
212.1617
  0
VERTEX
  8
LAYER_2
 10
-17.7934
 20
211.4352
  0
SEQEND
  0
ENDBLK
  0
BLOCK
  8
LAYER_2
  2
AIGNBL02020007
 70
64
 10
0
 20
0
 30
0
  3
AIGNBL02020007
  0
INSERT
  8
LAYER_2
  2
AIGNBL02030008
 10
0
 20
0
 30
0
  0
ENDBLK
  0
BLOCK
  8
LAYER_2
  2
AIGNBL02020010
 70
64
 10
0
 20
0
 30
0
  3
AIGNBL02020010
  0
INSERT
  8
LAYER_2
  2
AIGNBL02030011
 10
0
 20
0
 30
0
  0
INSERT
  8
LAYER_2
  2
AIGNBL02030012
 10
0
 20
0
 30
0
  0
INSERT
  8
LAYER_2
  2
AIGNBL02030013
 10
0
 20
0
 30
0
  0
INSERT
  8
LAYER_2
  2
AIGNBL02030014
 10
0
 20
0
 30
0
  0
INSERT
  8
LAYER_2
  2
AIGNBL02030015
 10
0
 20
0
 30
0
  0
INSERT
  8
LAYER_2
  2
AIGNBL02030016
 10
0
 20
0
 30
0
  0
INSERT
  8
LAYER_2
  2
AIGNBL02030017
 10
0
 20
0
 30
0
  0
INSERT
  8
LAYER_2
  2
AIGNBL02030018
 10
0
 20
0
 30
0
  0
INSERT
  8
LAYER_2
  2
AIGNBL02030019
 10
0
 20
0
 30
0
  0
INSERT
  8
LAYER_2
  2
AIGNBL0203001A
 10
0
 20
0
 30
0
  0
INSERT
  8
LAYER_2
  2
AIGNBL0203001B
 10
0
 20
0
 30
0
  0
INSERT
  8
LAYER_2
  2
AIGNBL0203001C
 10
0
 20
0
 30
0
  0
INSERT
  8
LAYER_2
  2
AIGNBL0203001D
 10
0
 20
0
 30
0
  0
INSERT
  8
LAYER_2
  2
AIGNBL0203001E
 10
0
 20
0
 30
0
  0
INSERT
  8
LAYER_2
  2
AIGNBL0203001F
 10
0
 20
0
 30
0
  0
INSERT
  8
LAYER_2
  2
AIGNBL02030020
 10
0
 20
0
 30
0
  0
INSERT
  8
LAYER_2
  2
AIGNBL02030021
 10
0
 20
0
 30
0
  0
INSERT
  8
LAYER_2
  2
AIGNBL02030022
 10
0
 20
0
 30
0
  0
INSERT
  8
LAYER_2
  2
AIGNBL02030023
 10
0
 20
0
 30
0
  0
INSERT
  8
LAYER_2
  2
AIGNBL02030024
 10
0
 20
0
 30
0
  0
INSERT
  8
LAYER_2
  2
AIGNBL02030025
 10
0
 20
0
 30
0
  0
INSERT
  8
LAYER_2
  2
AIGNBL02030026
 10
0
 20
0
 30
0
  0
INSERT
  8
LAYER_2
  2
AIGNBL02030027
 10
0
 20
0
 30
0
  0
ENDBLK
  0
BLOCK
  8
LAYER_2
  2
AIGNBL02010002
 70
64
 10
0
 20
0
 30
0
  3
AIGNBL02010002
  0
POLYLINE
  8
LAYER_2
 40
0.7056
 41
0.7056
 66
1
 10
0
 20
0
 30
0
 70
1
  0
VERTEX
  8
LAYER_2
 10
251.6749
 20
230.337
  0
VERTEX
  8
LAYER_2
 10
251.6749
 20
33.3285
  0
VERTEX
  8
LAYER_2
 10
-30.3177
 20
33.3285
  0
VERTEX
  8
LAYER_2
 10
-30.3177
 20
230.337
  0
SEQEND
  0
ENDBLK
  0
BLOCK
  8
LAYER_2
  2
AIGNBL02010003
 70
64
 10
0
 20
0
 30
0
  3
AIGNBL02010003
  0
INSERT
  8
LAYER_2
  2
AIGNBL02020004
 10
0
 20
0
 30
0
  0
POLYLINE
  8
LAYER_2
 40
0.05
 41
0.05
 66
1
 10
0
 20
0
 30
0
  0
VERTEX
  8
LAYER_2
 10
-6.457
 20
223.2684
  0
VERTEX
  8
LAYER_2
 10
-8.0924
 20
223.2684
  0
VERTEX
  8
LAYER_2
 10
-8.0924
 20
216.1939
 42
0.1050424825
  0
VERTEX
  8
LAYER_2
 10
-7.9127
 20
215.3316
 42
0.1079536646
  0
VERTEX
  8
LAYER_2
 10
-7.4796
 20
214.75
 42
0.105678841
  0
VERTEX
  8
LAYER_2
 10
-6.8587
 20
214.4154
 42
0.04706827067
  0
VERTEX
  8
LAYER_2
 10
-6.4597
 20
214.3359
  0
VERTEX
  8
LAYER_2
 10
-6.457
 20
223.2684
  0
SEQEND
  0
INSERT
  8
LAYER_2
  2
AIGNBL02020005
 10
0
 20
0
 30
0
  0
ENDBLK
  0
BLOCK
  8
LAYER_2
  2
AIGNBL02010006
 70
64
 10
0
 20
0
 30
0
  3
AIGNBL02010006
  0
INSERT
  8
LAYER_2
  2
AIGNBL02020007
 10
0
 20
0
 30
0
  0
INSERT
  8
LAYER_2
  2
AIGNBL02020010
 10
0
 20
0
 30
0
  0
ENDBLK
  0
BLOCK
  8
LAYER_2
  2
AIGNBL02010028
 70
64
 10
0
 20
0
 30
0
  3
AIGNBL02010028
  0
POLYLINE
  8
LAYER_2
  6
AIGENLINE001
 40
0.2046
 41
0.2046
 66
1
 10
0
 20
0
 30
0
 70
128
  0
VERTEX
  8
LAYER_2
 10
69.0886
 20
83.0351
 42
0.4142102822
  0
VERTEX
  8
LAYER_2
 10
69.3887
 20
83.3351
  0
SEQEND
  0
POLYLINE
  8
LAYER_2
  6
AIGENLINE001
 40
0.2046
 41
0.2046
 66
1
 10
0
 20
0
 30
0
 70
128
  0
VERTEX
  8
LAYER_2
 10
68.1836
 20
83.3351
 42
0.3928797223
  0
VERTEX
  8
LAYER_2
 10
68.4837
 20
83.0347
  0
SEQEND
  0
ENDBLK
  0
BLOCK
  8
LAYER_2
  2
AIGNBL02010029
 70
64
 10
0
 20
0
 30
0
  3
AIGNBL02010029
  0
POLYLINE
  8
LAYER_2
  6
AIGENLINE001
 40
0.2046
 41
0.2046
 66
1
 10
0
 20
0
 30
0
 70
128
  0
VERTEX
  8
LAYER_2
 10
74.9577
 20
83.0351
 42
0.393140941
  0
VERTEX
  8
LAYER_2
 10
75.2581
 20
83.3351
  0
SEQEND
  0
POLYLINE
  8
LAYER_2
  6
AIGENLINE001
 40
0.2046
 41
0.2046
 66
1
 10
0
 20
0
 30
0
 70
128
  0
VERTEX
  8
LAYER_2
 10
73.9876
 20
83.3351
 42
0.4142045207
  0
VERTEX
  8
LAYER_2
 10
74.288
 20
83.0347
  0
SEQEND
  0
ENDBLK
  0
BLOCK
  8
LAYER_2
  2
AIGNBL0201002A
 70
64
 10
0
 20
0
 30
0
  3
AIGNBL0201002A
  0
POLYLINE
  8
LAYER_2
  6
AIGENLINE002
 40
0.2046
 41
0.2046
 66
1
 10
0
 20
0
 30
0
 70
128
  0
VERTEX
  8
LAYER_2
 10
146.2526
 20
83.2356
 42
0.4141884512
  0
VERTEX
  8
LAYER_2
 10
146.5523
 20
83.5353
  0
SEQEND
  0
POLYLINE
  8
LAYER_2
  6
AIGENLINE002
 40
0.2046
 41
0.2046
 66
1
 10
0
 20
0
 30
0
 70
128
  0
VERTEX
  8
LAYER_2
 10
145.352
 20
83.5353
 42
0.414224513
  0
VERTEX
  8
LAYER_2
 10
145.6521
 20
83.2352
  0
SEQEND
  0
ENDBLK
  0
BLOCK
  8
LAYER_2
  2
AIGNBL0201002B
 70
64
 10
0
 20
0
 30
0
  3
AIGNBL0201002B
  0
POLYLINE
  8
LAYER_2
  6
AIGENLINE002
 40
0.2046
 41
0.2046
 66
1
 10
0
 20
0
 30
0
 70
128
  0
VERTEX
  8
LAYER_2
 10
152.041
 20
83.2356
 42
0.414236765
  0
VERTEX
  8
LAYER_2
 10
152.3407
 20
83.5353
  0
SEQEND
  0
POLYLINE
  8
LAYER_2
  6
AIGENLINE002
 40
0.2046
 41
0.2046
 66
1
 10
0
 20
0
 30
0
 70
128
  0
VERTEX
  8
LAYER_2
 10
151.1405
 20
83.5353
 42
0.3931517194
  0
VERTEX
  8
LAYER_2
 10
151.4409
 20
83.2352
  0
SEQEND
  0
ENDBLK
  0
BLOCK
  8
LAYER_2
  2
AIGNBL0201002C
 70
64
 10
0
 20
0
 30
0
  3
AIGNBL0201002C
  0
POLYLINE
  8
LAYER_2
  6
AIGENLINE002
 40
0.2046
 41
0.2046
 66
1
 10
0
 20
0
 30
0
 70
128
  0
VERTEX
  8
LAYER_2
 10
122.8493
 20
100.4352
 42
0.3926254523
  0
VERTEX
  8
LAYER_2
 10
123.1491
 20
100.1351
  0
SEQEND
  0
POLYLINE
  8
LAYER_2
  6
AIGENLINE002
 40
0.2046
 41
0.2046
 66
1
 10
0
 20
0
 30
0
 70
128
  0
VERTEX
  8
LAYER_2
 10
123.1491
 20
101.7354
 42
0.414210322
  0
VERTEX
  8
LAYER_2
 10
122.8493
 20
101.4357
  0
SEQEND
  0
ENDBLK
  0
BLOCK
  8
LAYER_2
  2
AIGNBL0201002D
 70
64
 10
0
 20
0
 30
0
  3
AIGNBL0201002D
  0
POLYLINE
  8
LAYER_2
  6
AIGENLINE001
 40
0.2046
 41
0.2046
 66
1
 10
0
 20
0
 30
0
 70
128
  0
VERTEX
  8
LAYER_2
 10
174.5492
 20
100.1355
 42
0.3931921971
  0
VERTEX
  8
LAYER_2
 10
174.8493
 20
100.4352
  0
SEQEND
  0
POLYLINE
  8
LAYER_2
  6
AIGENLINE001
 40
0.2046
 41
0.2046
 66
1
 10
0
 20
0
 30
0
 70
128
  0
VERTEX
  8
LAYER_2
 10
174.8493
 20
101.4357
 42
0.3929579999
  0
VERTEX
  8
LAYER_2
 10
174.5492
 20
101.7354
  0
SEQEND
  0
ENDBLK
  0
BLOCK
  8
LAYER_2
  2
AIGNBL0201002E
 70
64
 10
0
 20
0
 30
0
  3
AIGNBL0201002E
  0
POLYLINE
  8
LAYER_2
  6
AIGENLINE002
 40
0.2046
 41
0.2046
 66
1
 10
0
 20
0
 30
0
 70
128
  0
VERTEX
  8
LAYER_2
 10
92.3795
 20
99.935
 42
0.3928153267
  0
VERTEX
  8
LAYER_2
 10
92.68
 20
100.2347
  0
SEQEND
  0
POLYLINE
  8
LAYER_2
  6
AIGENLINE002
 40
0.2046
 41
0.2046
 66
1
 10
0
 20
0
 30
0
 70
128
  0
VERTEX
  8
LAYER_2
 10
92.68
 20
101.2352
 42
0.3931757024
  0
VERTEX
  8
LAYER_2
 10
92.3795
 20
101.5352
  0
SEQEND
  0
ENDBLK
  0
ENDSEC
  0
SECTION
  2
ENTITIES
  0
TEXT
  8
LAYER_2
 10
-26.2556
 20
43.1712
 11
-26.2556
 21
43.1712
 40
3.2995
 41
0.5
  1
仕様
  0
POLYLINE
  8
LAYER_2
 40
0.3528
 41
0.3528
 66
1
 10
0
 20
0
 30
0
  0
VERTEX
  8
LAYER_2
 10
250.6748
 20
51.9507
  0
VERTEX
  8
LAYER_2
 10
-29.3178
 20
51.9507
  0
SEQEND
  0
INSERT
  8
LAYER_2
  2
AIGNBL02010002
 10
0
 20
0
 30
0
  0
POLYLINE
  8
LAYER_2
 40
0.3528
 41
0.3528
 66
1
 10
0
 20
0
 30
0
  0
VERTEX
  8
LAYER_2
 10
-29.3178
 20
229.3369
  0
VERTEX
  8
LAYER_2
 10
-29.3178
 20
34.3283
  0
VERTEX
  8
LAYER_2
 10
250.6748
 20
34.3283
  0
VERTEX
  8
LAYER_2
 10
250.6748
 20
229.3369
  0
VERTEX
  8
LAYER_2
 10
-29.3178
 20
229.3369
  0
SEQEND
  0
POLYLINE
  8
LAYER_2
 40
0.3528
 41
0.3528
 66
1
 10
0
 20
0
 30
0
  0
VERTEX
  8
LAYER_2
 10
250.6748
 20
60.4597
  0
VERTEX
  8
LAYER_2
 10
-29.3178
 20
60.4597
  0
SEQEND
  0
POLYLINE
  8
LAYER_2
 40
0.3528
 41
0.3528
 66
1
 10
0
 20
0
 30
0
  0
VERTEX
  8
LAYER_2
 10
250.6748
 20
43.4416
  0
VERTEX
  8
LAYER_2
 10
143.534
 20
43.4416
  0
SEQEND
  0
TEXT
  8
LAYER_2
 10
188.1725
 20
45.7175
 11
188.1725
 21
45.7175
 40
3.7615
 41
0.5
  1
1/10
  0
TEXT
  8
LAYER_2
 10
182.8808
 20
49.4743
 11
182.8808
 21
49.4743
 40
2.1997
 41
0.5
  1
縮尺
  0
POLYLINE
  8
LAYER_2
 40
0.3528
 41
0.3528
 66
1
 10
0
 20
0
 30
0
  0
VERTEX
  8
LAYER_2
 10
181.3526
 20
43.4416
  0
VERTEX
  8
LAYER_2
 10
181.3526
 20
51.9507
  0
SEQEND
  0
TEXT
  8
LAYER_2
 10
144.2327
 20
57.9834
 11
144.2327
 21
57.9834
 40
2.1997
 41
0.5
  1
品番
  0
TEXT
  8
LAYER_2
 10
-28.1609
 20
57.9834
 11
-28.1609
 21
57.9834
 40
2.1997
 41
0.5
  1
品名
  0
TEXT
  8
LAYER_2
 10
144.2327
 20
49.4743
 11
144.2327
 21
49.4743
 40
2.1997
 41
0.5
  1
重量
  0
TEXT
  8
LAYER_2
 10
150.2547
 20
54.1514
 11
150.2547
 21
54.1514
 40
5.9385
 41
0.5
  1
CIE-EJLASPO/
  0
TEXT
  8
LAYER_2
 10
149.5454
 20
45.7175
 11
149.5454
 21
45.7175
 40
3.7615
 41
0.5
  1
7.45kg
  0
POLYLINE
  8
LAYER_2
 40
0.3528
 41
0.3528
 66
1
 10
0
 20
0
 30
0
  0
VERTEX
  8
LAYER_2
 10
143.534
 20
34.9539
  0
VERTEX
  8
LAYER_2
 10
143.534
 20
60.4597
  0
SEQEND
  0
TEXT
  8
LAYER_2
 10
-15.2849
 20
54.8911
 11
-15.2849
 21
54.8911
 40
4.1465
 41
0.5
  1
エンジョイアンダーカウンター型洗面器520ｍｍ
  0
INSERT
  8
LAYER_2
  2
AIGNBL02010003
 10
0
 20
0
 30
0
  0
TEXT
  8
LAYER_2
 10
-15.6835
 20
45.3736
 11
-15.6835
 21
45.3736
 40
3.1177
 41
0.5
  1
●設置方法：アンダーカウンター●水栓取付穴：なし●オーバーフロー：あり
  0
TEXT
  8
LAYER_2
 10
-15.6835
 20
40.6235
 11
-15.6835
 21
40.6235
 40
3.1177
 41
0.5
  1
●排水金具別途
  0
TEXT
  8
LAYER_2
 10
237.263
 20
63.2582
 11
237.263
 21
63.2582
 40
2.9618
 41
0.5
  1
単位：mm
  0
TEXT
  8
LAYER_2
 10
6.5217
 20
219.7385
 11
6.5217
 21
219.7385
 40
2.5981
 41
0.5
  1
※陶器製品は寸法公差が発生します。カウンター切り込みの際は必ず現物を合わせてご確認ください。
  0
TEXT
  8
LAYER_2
 10
6.5217
 20
214.9886
 11
6.5217
 21
214.9886
 40
2.5981
 41
0.5
  1
※製品と接する部分には必ずコーキング処理を行ってください。
  0
TEXT
  8
LAYER_2
 10
176.0254
 20
39.5359
 11
176.0254
 21
39.5359
 40
3.3853
 41
0.5
  1
●TEL 0120-65-1232●FAX 06-6532-1580
  0
TEXT
  8
LAYER_2
 10
176.0254
 20
36.0212
 11
176.0254
 21
36.0212
 40
3.3853
 41
0.5
  1
hits@hiratatile.co.jp
  0
TEXT
  8
LAYER_2
 10
240.3591
 20
225.8432
 11
240.3591
 21
225.8432
 40
2.0732
 41
0.5
  1
180604RT
  0
INSERT
  8
LAYER_2
  2
AIGNBL02010006
 10
0
 20
0
 30
0
  0
TEXT
  8
LAYER_2
 10
126.1808
 20
133.7968
 11
126.1808
 21
133.7968
 40
3.5541
 41
0.5
  1
カウンター開口寸法：460×360mm
  0
CIRCLE
  8
LAYER_2
 10
71.6886
 20
160.8219
 40
2.3001
  0
CIRCLE
  8
LAYER_2
 10
71.6979
 20
160.8219
 40
3.5386
  0
POLYLINE
  8
LAYER_2
 40
0.4127
 41
0.4127
 66
1
 10
0
 20
0
 30
0
  0
VERTEX
  8
LAYER_2
 10
123.1487
 20
101.7354
  0
VERTEX
  8
LAYER_2
 10
174.5492
 20
101.7354
  0
SEQEND
  0
POLYLINE
  8
LAYER_2
 40
0.4127
 41
0.4127
 66
1
 10
0
 20
0
 30
0
  0
VERTEX
  8
LAYER_2
 10
123.1487
 20
101.7354
 42
0.4141560941
  0
VERTEX
  8
LAYER_2
 10
122.849
 20
101.4357
  0
SEQEND
  0
POLYLINE
  8
LAYER_2
 40
0.4127
 41
0.4127
 66
1
 10
0
 20
0
 30
0
  0
VERTEX
  8
LAYER_2
 10
145.352
 20
83.5356
  0
VERTEX
  8
LAYER_2
 10
145.352
 20
86.5411
 42
0.4142363468
  0
VERTEX
  8
LAYER_2
 10
144.8518
 20
87.0414
  0
SEQEND
  0
POLYLINE
  8
LAYER_2
 40
0.4127
 41
0.4127
 66
1
 10
0
 20
0
 30
0
  0
VERTEX
  8
LAYER_2
 10
174.5492
 20
100.1355
 42
0.3935280276
  0
VERTEX
  8
LAYER_2
 10
174.8489
 20
100.4359
  0
SEQEND
  0
POLYLINE
  8
LAYER_2
 40
0.4127
 41
0.4127
 66
1
 10
0
 20
0
 30
0
  0
VERTEX
  8
LAYER_2
 10
174.8489
 20
101.4357
  0
VERTEX
  8
LAYER_2
 10
174.8489
 20
100.4359
  0
SEQEND
  0
POLYLINE
  8
LAYER_2
 40
0.4127
 41
0.4127
 66
1
 10
0
 20
0
 30
0
  0
VERTEX
  8
LAYER_2
 10
174.8489
 20
101.4357
 42
0.4141475093
  0
VERTEX
  8
LAYER_2
 10
174.5489
 20
101.7357
  0
SEQEND
  0
POLYLINE
  8
LAYER_2
 40
0.4127
 41
0.4127
 66
1
 10
0
 20
0
 30
0
  0
VERTEX
  8
LAYER_2
 10
152.3407
 20
83.5356
  0
VERTEX
  8
LAYER_2
 10
152.3407
 20
86.5411
  0
SEQEND
  0
POLYLINE
  8
LAYER_2
 40
0.4127
 41
0.4127
 66
1
 10
0
 20
0
 30
0
  0
VERTEX
  8
LAYER_2
 10
152.0407
 20
83.2359
 42
0.3925594458
  0
VERTEX
  8
LAYER_2
 10
152.3407
 20
83.5356
  0
SEQEND
  0
POLYLINE
  8
LAYER_2
 40
0.4127
 41
0.4127
 66
1
 10
0
 20
0
 30
0
  0
VERTEX
  8
LAYER_2
 10
152.841
 20
87.0414
 42
0.3932475473
  0
VERTEX
  8
LAYER_2
 10
152.3407
 20
86.5418
  0
SEQEND
  0
POLYLINE
  8
LAYER_2
 40
0.4127
 41
0.4127
 66
1
 10
0
 20
0
 30
0
  0
VERTEX
  8
LAYER_2
 10
174.5492
 20
100.1355
 42
0.3093122765
  0
VERTEX
  8
LAYER_2
 10
174.0442
 20
99.534
  0
SEQEND
  0
POLYLINE
  8
LAYER_2
 40
0.4127
 41
0.4127
 66
1
 10
0
 20
0
 30
0
  0
VERTEX
  8
LAYER_2
 10
122.849
 20
100.4359
 42
0.3929625026
  0
VERTEX
  8
LAYER_2
 10
123.1491
 20
100.1355
  0
SEQEND
  0
POLYLINE
  8
LAYER_2
 40
0.4127
 41
0.4127
 66
1
 10
0
 20
0
 30
0
  0
VERTEX
  8
LAYER_2
 10
123.6534
 20
99.5343
 42
0.3093996629
  0
VERTEX
  8
LAYER_2
 10
123.1487
 20
100.1355
  0
SEQEND
  0
POLYLINE
  8
LAYER_2
 40
0.4127
 41
0.4127
 66
1
 10
0
 20
0
 30
0
  0
VERTEX
  8
LAYER_2
 10
75.6887
 20
182.3317
  0
VERTEX
  8
LAYER_2
 10
75.6887
 20
183.831
  0
SEQEND
  0
POLYLINE
  8
LAYER_2
 40
0.4127
 41
0.4127
 66
1
 10
0
 20
0
 30
0
  0
VERTEX
  8
LAYER_2
 10
75.6887
 20
183.8313
 42
0.4142420481
  0
VERTEX
  8
LAYER_2
 10
75.1885
 20
184.3312
  0
SEQEND
  0
POLYLINE
  8
LAYER_2
 40
0.4127
 41
0.4127
 66
1
 10
0
 20
0
 30
0
  0
VERTEX
  8
LAYER_2
 10
67.6885
 20
182.3317
  0
VERTEX
  8
LAYER_2
 10
67.6885
 20
183.831
  0
SEQEND
  0
POLYLINE
  8
LAYER_2
 40
0.4127
 41
0.4127
 66
1
 10
0
 20
0
 30
0
  0
VERTEX
  8
LAYER_2
 10
67.1887
 20
181.8315
 42
0.4141984023
  0
VERTEX
  8
LAYER_2
 10
67.6885
 20
182.331
  0
SEQEND
  0
POLYLINE
  8
LAYER_2
 40
0.4127
 41
0.4127
 66
1
 10
0
 20
0
 30
0
  0
VERTEX
  8
LAYER_2
 10
75.1885
 20
184.3312
  0
VERTEX
  8
LAYER_2
 10
68.1888
 20
184.3312
  0
SEQEND
  0
POLYLINE
  8
LAYER_2
 40
0.4127
 41
0.4127
 66
1
 10
0
 20
0
 30
0
  0
VERTEX
  8
LAYER_2
 10
68.1884
 20
184.3312
 42
0.4142125179
  0
VERTEX
  8
LAYER_2
 10
67.6885
 20
183.8313
  0
SEQEND
  0
POLYLINE
  8
LAYER_2
 40
0.4127
 41
0.4127
 66
1
 10
0
 20
0
 30
0
  0
VERTEX
  8
LAYER_2
 10
70.6885
 20
178.921
 42
0.1606565455
  0
VERTEX
  8
LAYER_2
 10
70.741
 20
178.777
 42
0.09496709904
  0
VERTEX
  8
LAYER_2
 10
70.8871
 20
178.6525
 42
0.06418874308
  0
VERTEX
  8
LAYER_2
 10
71.1495
 20
178.5431
 42
0.07042922474
  0
VERTEX
  8
LAYER_2
 10
71.6886
 20
178.4725
 42
0.1143290037
  0
VERTEX
  8
LAYER_2
 10
72.468
 20
178.6398
 42
0.1030856109
  0
VERTEX
  8
LAYER_2
 10
72.6362
 20
178.777
 42
0.1629917174
  0
VERTEX
  8
LAYER_2
 10
72.6888
 20
178.921
 42
0.1606850168
  0
VERTEX
  8
LAYER_2
 10
72.6362
 20
179.065
 42
0.09495559109
  0
VERTEX
  8
LAYER_2
 10
72.4901
 20
179.1896
 42
0.06417119854
  0
VERTEX
  8
LAYER_2
 10
72.2277
 20
179.299
 42
0.07042286564
  0
VERTEX
  8
LAYER_2
 10
71.6886
 20
179.3696
 42
0.1143703097
  0
VERTEX
  8
LAYER_2
 10
70.9092
 20
179.2023
 42
0.1031327445
  0
VERTEX
  8
LAYER_2
 10
70.741
 20
179.065
 42
0.1628976316
  0
VERTEX
  8
LAYER_2
 10
70.6885
 20
178.921
  0
SEQEND
  0
POLYLINE
  8
LAYER_2
 40
0.4127
 41
0.4127
 66
1
 10
0
 20
0
 30
0
  0
VERTEX
  8
LAYER_2
 10
76.1883
 20
181.8315
  0
VERTEX
  8
LAYER_2
 10
79.6885
 20
181.8315
  0
SEQEND
  0
POLYLINE
  8
LAYER_2
 40
0.4127
 41
0.4127
 66
1
 10
0
 20
0
 30
0
  0
VERTEX
  8
LAYER_2
 10
75.6887
 20
182.3317
 42
0.4142403231
  0
VERTEX
  8
LAYER_2
 10
76.189
 20
181.8315
  0
SEQEND
  0
POLYLINE
  8
LAYER_2
 40
0.4127
 41
0.4127
 66
1
 10
0
 20
0
 30
0
  0
VERTEX
  8
LAYER_2
 10
97.6888
 20
163.8312
 42
0.4142138802
  0
VERTEX
  8
LAYER_2
 10
79.6888
 20
181.8315
  0
SEQEND
  0
POLYLINE
  8
LAYER_2
 40
0.4127
 41
0.4127
 66
1
 10
0
 20
0
 30
0
  0
VERTEX
  8
LAYER_2
 10
63.6888
 20
139.8313
  0
VERTEX
  8
LAYER_2
 10
79.6888
 20
139.8313
  0
SEQEND
  0
POLYLINE
  8
LAYER_2
 40
0.4127
 41
0.4127
 66
1
 10
0
 20
0
 30
0
  0
VERTEX
  8
LAYER_2
 10
79.6885
 20
139.8313
 42
0.4142137358
  0
VERTEX
  8
LAYER_2
 10
97.6884
 20
157.8312
  0
SEQEND
  0
POLYLINE
  8
LAYER_2
 40
0.4127
 41
0.4127
 66
1
 10
0
 20
0
 30
0
  0
VERTEX
  8
LAYER_2
 10
67.1887
 20
181.8315
  0
VERTEX
  8
LAYER_2
 10
63.6891
 20
181.8315
  0
SEQEND
  0
POLYLINE
  8
LAYER_2
 40
0.4127
 41
0.4127
 66
1
 10
0
 20
0
 30
0
  0
VERTEX
  8
LAYER_2
 10
63.6888
 20
181.8315
 42
0.4142139631
  0
VERTEX
  8
LAYER_2
 10
45.6889
 20
163.8315
  0
SEQEND
  0
POLYLINE
  8
LAYER_2
 40
0.4127
 41
0.4127
 66
1
 10
0
 20
0
 30
0
  0
VERTEX
  8
LAYER_2
 10
45.6889
 20
157.8312
 42
0.4142138186
  0
VERTEX
  8
LAYER_2
 10
63.6888
 20
139.8313
  0
SEQEND
  0
POLYLINE
  8
LAYER_2
 40
0.4127
 41
0.4127
 66
1
 10
0
 20
0
 30
0
  0
VERTEX
  8
LAYER_2
 10
47.6884
 20
160.8315
 42
0.08279777811
  0
VERTEX
  8
LAYER_2
 10
48.5197
 20
155.8559
 42
0.0297108906
  0
VERTEX
  8
LAYER_2
 10
49.2473
 20
154.0809
 42
0.0283601555
  0
VERTEX
  8
LAYER_2
 10
50.183
 20
152.3871
 42
0.03355547372
  0
VERTEX
  8
LAYER_2
 10
51.6269
 20
150.3985
 42
0.03144290659
  0
VERTEX
  8
LAYER_2
 10
53.3536
 20
148.5704
 42
0.02958857348
  0
VERTEX
  8
LAYER_2
 10
55.3395
 20
146.9214
 42
0.028071938
  0
VERTEX
  8
LAYER_2
 10
57.561
 20
145.4701
 42
0.02691076541
  0
VERTEX
  8
LAYER_2
 10
59.9947
 20
144.2352
 42
0.02608508679
  0
VERTEX
  8
LAYER_2
 10
62.6168
 20
143.2354
 42
0.02555348229
  0
VERTEX
  8
LAYER_2
 10
65.4039
 20
142.4892
 42
0.02526243299
  0
VERTEX
  8
LAYER_2
 10
68.3324
 20
142.0154
 42
0.0251511139
  0
VERTEX
  8
LAYER_2
 10
71.3788
 20
141.8327
 42
0.002515274125
  0
VERTEX
  8
LAYER_2
 10
71.689
 20
141.8311
 42
0.0275412946
  0
VERTEX
  8
LAYER_2
 10
75.0454
 20
142.0154
 42
0.02511636696
  0
VERTEX
  8
LAYER_2
 10
77.9738
 20
142.4892
 42
0.02537275532
  0
VERTEX
  8
LAYER_2
 10
80.7608
 20
143.2354
 42
0.02585733294
  0
VERTEX
  8
LAYER_2
 10
83.3829
 20
144.2352
 42
0.0266259377
  0
VERTEX
  8
LAYER_2
 10
85.8164
 20
145.4701
 42
0.02772391247
  0
VERTEX
  8
LAYER_2
 10
88.0379
 20
146.9214
 42
0.02917806428
  0
VERTEX
  8
LAYER_2
 10
90.0237
 20
148.5704
 42
0.03098216384
  0
VERTEX
  8
LAYER_2
 10
91.7504
 20
150.3985
 42
0.03307455179
  0
VERTEX
  8
LAYER_2
 10
93.1943
 20
152.3871
 42
0.02806837233
  0
VERTEX
  8
LAYER_2
 10
94.13
 20
154.0809
 42
0.02946601224
  0
VERTEX
  8
LAYER_2
 10
94.8576
 20
155.8559
 42
0.03069301154
  0
VERTEX
  8
LAYER_2
 10
95.365
 20
157.7025
 42
0.0516212226
  0
VERTEX
  8
LAYER_2
 10
95.6889
 20
160.8315
 42
0.08279997272
  0
VERTEX
  8
LAYER_2
 10
94.8576
 20
165.807
 42
0.02971139877
  0
VERTEX
  8
LAYER_2
 10
94.13
 20
167.5819
 42
0.02836044663
  0
VERTEX
  8
LAYER_2
 10
93.1943
 20
169.2757
 42
0.03355555609
  0
VERTEX
  8
LAYER_2
 10
91.7504
 20
171.2641
 42
0.03144271234
  0
VERTEX
  8
LAYER_2
 10
90.0237
 20
173.0922
 42
0.02958817638
  0
VERTEX
  8
LAYER_2
 10
88.0379
 20
174.7411
 42
0.02807141706
  0
VERTEX
  8
LAYER_2
 10
85.8164
 20
176.1924
 42
0.02691019745
  0
VERTEX
  8
LAYER_2
 10
83.3829
 20
177.4272
 42
0.02608454465
  0
VERTEX
  8
LAYER_2
 10
80.7608
 20
178.427
 42
0.02555303536
  0
VERTEX
  8
LAYER_2
 10
77.9738
 20
179.1731
 42
0.02526214776
  0
VERTEX
  8
LAYER_2
 10
75.0454
 20
179.6469
 42
0.02515105295
  0
VERTEX
  8
LAYER_2
 10
71.9992
 20
179.8296
 42
0.002515281971
  0
VERTEX
  8
LAYER_2
 10
71.689
 20
179.8312
 42
0.0275387511
  0
VERTEX
  8
LAYER_2
 10
68.3324
 20
179.6469
 42
0.02511448193
  0
VERTEX
  8
LAYER_2
 10
65.4039
 20
179.1731
 42
0.02537130369
  0
VERTEX
  8
LAYER_2
 10
62.6168
 20
178.427
 42
0.0258563195
  0
VERTEX
  8
LAYER_2
 10
59.9947
 20
177.4272
 42
0.02662536045
  0
VERTEX
  8
LAYER_2
 10
57.561
 20
176.1924
 42
0.02772376639
  0
VERTEX
  8
LAYER_2
 10
55.3395
 20
174.7411
 42
0.0291783412
  0
VERTEX
  8
LAYER_2
 10
53.3536
 20
173.0922
 42
0.03098284703
  0
VERTEX
  8
LAYER_2
 10
51.6269
 20
171.2641
 42
0.03307560392
  0
VERTEX
  8
LAYER_2
 10
50.183
 20
169.2757
 42
0.02806942947
  0
VERTEX
  8
LAYER_2
 10
49.2473
 20
167.5819
 42
0.02946719398
  0
VERTEX
  8
LAYER_2
 10
48.5197
 20
165.807
 42
0.0306942297
  0
VERTEX
  8
LAYER_2
 10
48.0123
 20
163.9604
 42
0.05162304451
  0
VERTEX
  8
LAYER_2
 10
47.6884
 20
160.8315
  0
SEQEND
  0
POLYLINE
  8
LAYER_2
  6
AIGENLINE003
 40
0.2046
 41
0.2046
 66
1
 10
0
 20
0
 30
0
 70
128
  0
VERTEX
  8
LAYER_2
 10
125.8486
 20
160.8308
 42
0.08372861275
  0
VERTEX
  8
LAYER_2
 10
126.6453
 20
156.117
 42
0.02996152387
  0
VERTEX
  8
LAYER_2
 10
127.3425
 20
154.4354
 42
0.03544625379
  0
VERTEX
  8
LAYER_2
 10
128.4932
 20
152.4427
 42
0.03312934656
  0
VERTEX
  8
LAYER_2
 10
129.933
 20
150.5878
 42
0.03096632372
  0
VERTEX
  8
LAYER_2
 10
131.6392
 20
148.8885
 42
0.02910533447
  0
VERTEX
  8
LAYER_2
 10
133.5893
 20
147.3623
 42
0.02760761581
  0
VERTEX
  8
LAYER_2
 10
135.7607
 20
146.027
 42
0.02647745238
  0
VERTEX
  8
LAYER_2
 10
138.1308
 20
144.9003
 42
0.02568606677
  0
VERTEX
  8
LAYER_2
 10
140.6771
 20
143.9997
 42
0.02518679546
  0
VERTEX
  8
LAYER_2
 10
143.3769
 20
143.3431
 42
0.02492330201
  0
VERTEX
  8
LAYER_2
 10
146.2077
 20
142.948
 42
0.02233965165
  0
VERTEX
  8
LAYER_2
 10
148.8488
 20
142.8306
 42
0.02722607371
  0
VERTEX
  8
LAYER_2
 10
152.0654
 20
143.0052
 42
0.02484052681
  0
VERTEX
  8
LAYER_2
 10
154.8719
 20
143.4541
 42
0.02511694079
  0
VERTEX
  8
LAYER_2
 10
157.5428
 20
144.1609
 42
0.02563095613
  0
VERTEX
  8
LAYER_2
 10
160.0557
 20
145.1081
 42
0.02643907069
  0
VERTEX
  8
LAYER_2
 10
162.3879
 20
146.278
 42
0.02758817694
  0
VERTEX
  8
LAYER_2
 10
164.5169
 20
147.6528
 42
0.02910729448
  0
VERTEX
  8
LAYER_2
 10
166.4201
 20
149.215
 42
0.03099228518
  0
VERTEX
  8
LAYER_2
 10
168.0748
 20
150.9469
 42
0.03318177859
  0
VERTEX
  8
LAYER_2
 10
169.4586
 20
152.8308
 42
0.03552695284
  0
VERTEX
  8
LAYER_2
 10
170.5488
 20
154.849
 42
0.03004671074
  0
VERTEX
  8
LAYER_2
 10
171.1944
 20
156.5484
 42
0.03126864293
  0
VERTEX
  8
LAYER_2
 10
171.6262
 20
158.3134
 42
0.04428382023
  0
VERTEX
  8
LAYER_2
 10
171.8493
 20
160.8308
 42
0.08372900288
  0
VERTEX
  8
LAYER_2
 10
171.0526
 20
165.5447
 42
0.02996256063
  0
VERTEX
  8
LAYER_2
 10
170.3553
 20
167.2263
 42
0.03544766909
  0
VERTEX
  8
LAYER_2
 10
169.2046
 20
169.219
 42
0.03313060938
  0
VERTEX
  8
LAYER_2
 10
167.7648
 20
171.0739
 42
0.03096723628
  0
VERTEX
  8
LAYER_2
 10
166.0586
 20
172.7732
 42
0.02910579536
  0
VERTEX
  8
LAYER_2
 10
164.1085
 20
174.2993
 42
0.02760759274
  0
VERTEX
  8
LAYER_2
 10
161.937
 20
175.6345
 42
0.02647695729
  0
VERTEX
  8
LAYER_2
 10
159.5669
 20
176.7612
 42
0.0256851396
  0
VERTEX
  8
LAYER_2
 10
157.0206
 20
177.6617
 42
0.02518549599
  0
VERTEX
  8
LAYER_2
 10
154.3207
 20
178.3183
 42
0.0249217072
  0
VERTEX
  8
LAYER_2
 10
151.4899
 20
178.7134
 42
0.02233804116
  0
VERTEX
  8
LAYER_2
 10
148.8488
 20
178.8308
 42
0.0272243015
  0
VERTEX
  8
LAYER_2
 10
145.6322
 20
178.6562
 42
0.02483943632
  0
VERTEX
  8
LAYER_2
 10
142.8257
 20
178.2074
 42
0.02511637814
  0
VERTEX
  8
LAYER_2
 10
140.1548
 20
177.5006
 42
0.02563091871
  0
VERTEX
  8
LAYER_2
 10
137.6419
 20
176.5534
 42
0.02643953033
  0
VERTEX
  8
LAYER_2
 10
135.3098
 20
175.3836
 42
0.02758907425
  0
VERTEX
  8
LAYER_2
 10
133.1808
 20
174.0088
 42
0.02910852641
  0
VERTEX
  8
LAYER_2
 10
131.2777
 20
172.4466
 42
0.03099368621
  0
VERTEX
  8
LAYER_2
 10
129.623
 20
170.7148
 42
0.03318310075
  0
VERTEX
  8
LAYER_2
 10
128.2392
 20
168.8309
 42
0.03552785897
  0
VERTEX
  8
LAYER_2
 10
127.1491
 20
166.8128
 42
0.03004686772
  0
VERTEX
  8
LAYER_2
 10
126.5035
 20
165.1133
 42
0.03126809008
  0
VERTEX
  8
LAYER_2
 10
126.0717
 20
163.3483
 42
0.0442817874
  0
VERTEX
  8
LAYER_2
 10
125.8486
 20
160.8308
  0
SEQEND
  0
POLYLINE
  8
LAYER_2
 40
0.4127
 41
0.4127
 66
1
 10
0
 20
0
 30
0
  0
VERTEX
  8
LAYER_2
 10
45.6889
 20
157.8305
  0
VERTEX
  8
LAYER_2
 10
45.6889
 20
163.8308
  0
SEQEND
  0
POLYLINE
  8
LAYER_2
 40
0.4127
 41
0.4127
 66
1
 10
0
 20
0
 30
0
  0
VERTEX
  8
LAYER_2
 10
97.6891
 20
157.8305
  0
VERTEX
  8
LAYER_2
 10
97.6891
 20
163.8308
  0
SEQEND
  0
POLYLINE
  8
LAYER_2
 40
0.4127
 41
0.4127
 66
1
 10
0
 20
0
 30
0
  0
VERTEX
  8
LAYER_2
 10
144.6485
 20
87.0414
  0
VERTEX
  8
LAYER_2
 10
153.0484
 20
87.0414
  0
SEQEND
  0
POLYLINE
  8
LAYER_2
 40
0.4127
 41
0.4127
 66
1
 10
0
 20
0
 30
0
  0
VERTEX
  8
LAYER_2
 10
145.4492
 20
83.2356
  0
VERTEX
  8
LAYER_2
 10
152.2488
 20
83.2356
  0
SEQEND
  0
POLYLINE
  8
LAYER_2
 40
0.4127
 41
0.4127
 66
1
 10
0
 20
0
 30
0
  0
VERTEX
  8
LAYER_2
 10
145.352
 20
83.5353
 42
0.414224513
  0
VERTEX
  8
LAYER_2
 10
145.6521
 20
83.2352
  0
SEQEND
  0
POLYLINE
  8
LAYER_2
 40
0.4127
 41
0.4127
 66
1
 10
0
 20
0
 30
0
  0
VERTEX
  8
LAYER_2
 10
163.2955
 20
87.4655
  0
VERTEX
  8
LAYER_2
 10
153.0501
 20
87.0414
  0
SEQEND
  0
POLYLINE
  8
LAYER_2
 40
0.4127
 41
0.4127
 66
1
 10
0
 20
0
 30
0
  0
VERTEX
  8
LAYER_2
 10
134.4021
 20
87.4631
  0
VERTEX
  8
LAYER_2
 10
144.6478
 20
87.04
  0
SEQEND
  0
POLYLINE
  8
LAYER_2
 40
0.4127
 41
0.4127
 66
1
 10
0
 20
0
 30
0
  0
VERTEX
  8
LAYER_2
 10
123.6534
 20
99.534
 42
0.4069890029
  0
VERTEX
  8
LAYER_2
 10
134.4021
 20
87.4631
  0
SEQEND
  0
POLYLINE
  8
LAYER_2
 40
0.4127
 41
0.4127
 66
1
 10
0
 20
0
 30
0
  0
VERTEX
  8
LAYER_2
 10
163.2965
 20
87.4631
 42
0.4069885926
  0
VERTEX
  8
LAYER_2
 10
174.0448
 20
99.534
  0
SEQEND
  0
POLYLINE
  8
LAYER_2
 40
0.4127
 41
0.4127
 66
1
 10
0
 20
0
 30
0
  0
VERTEX
  8
LAYER_2
 10
122.8493
 20
100.4352
  0
VERTEX
  8
LAYER_2
 10
122.8493
 20
101.4357
  0
SEQEND
  0
POLYLINE
  8
LAYER_2
 40
0.4127
 41
0.4127
 66
1
 10
0
 20
0
 30
0
  0
VERTEX
  8
LAYER_2
 10
174.5492
 20
100.1355
  0
VERTEX
  8
LAYER_2
 10
123.1491
 20
100.1355
  0
SEQEND
  0
POLYLINE
  8
LAYER_2
 40
0.4127
 41
0.4127
 66
1
 10
0
 20
0
 30
0
  0
VERTEX
  8
LAYER_2
 10
51.9045
 20
101.5349
  0
VERTEX
  8
LAYER_2
 10
92.3795
 20
101.5349
  0
SEQEND
  0
POLYLINE
  8
LAYER_2
 40
0.4127
 41
0.4127
 66
1
 10
0
 20
0
 30
0
  0
VERTEX
  8
LAYER_2
 10
48.4797
 20
101.5349
 42
0.3928911526
  0
VERTEX
  8
LAYER_2
 10
48.1797
 20
101.2352
  0
SEQEND
  0
POLYLINE
  8
LAYER_2
 40
0.4127
 41
0.4127
 66
1
 10
0
 20
0
 30
0
  0
VERTEX
  8
LAYER_2
 10
68.184
 20
83.6273
 42
0.4014256281
  0
VERTEX
  8
LAYER_2
 10
67.7051
 20
84.1275
  0
SEQEND
  0
POLYLINE
  8
LAYER_2
 40
0.4127
 41
0.4127
 66
1
 10
0
 20
0
 30
0
  0
VERTEX
  8
LAYER_2
 10
68.4837
 20
83.0351
  0
VERTEX
  8
LAYER_2
 10
74.958
 20
83.0351
  0
SEQEND
  0
POLYLINE
  8
LAYER_2
 40
0.4127
 41
0.4127
 66
1
 10
0
 20
0
 30
0
  0
VERTEX
  8
LAYER_2
 10
68.184
 20
83.3351
 42
0.3928267851
  0
VERTEX
  8
LAYER_2
 10
68.4837
 20
83.0347
  0
SEQEND
  0
POLYLINE
  8
LAYER_2
 40
0.4127
 41
0.4127
 66
1
 10
0
 20
0
 30
0
  0
VERTEX
  8
LAYER_2
 10
48.4797
 20
101.5349
  0
VERTEX
  8
LAYER_2
 10
51.8949
 20
101.5349
  0
SEQEND
  0
POLYLINE
  8
LAYER_2
 40
0.4127
 41
0.4127
 66
1
 10
0
 20
0
 30
0
  0
VERTEX
  8
LAYER_2
 10
75.2581
 20
83.3351
  0
VERTEX
  8
LAYER_2
 10
75.2581
 20
86.3365
  0
SEQEND
  0
POLYLINE
  8
LAYER_2
 40
0.4127
 41
0.4127
 66
1
 10
0
 20
0
 30
0
  0
VERTEX
  8
LAYER_2
 10
75.759
 20
86.836
 42
0.4141935428
  0
VERTEX
  8
LAYER_2
 10
75.2581
 20
86.3372
  0
SEQEND
  0
POLYLINE
  8
LAYER_2
 40
0.4127
 41
0.4127
 66
1
 10
0
 20
0
 30
0
  0
VERTEX
  8
LAYER_2
 10
74.958
 20
83.0351
 42
0.4142192423
  0
VERTEX
  8
LAYER_2
 10
75.2581
 20
83.3351
  0
SEQEND
  0
POLYLINE
  8
LAYER_2
 40
0.4127
 41
0.4127
 66
1
 10
0
 20
0
 30
0
  0
VERTEX
  8
LAYER_2
 10
48.1797
 20
101.2352
  0
VERTEX
  8
LAYER_2
 10
48.1797
 20
98.4557
  0
SEQEND
  0
POLYLINE
  8
LAYER_2
 40
0.4127
 41
0.4127
 66
1
 10
0
 20
0
 30
0
  0
VERTEX
  8
LAYER_2
 10
61.5625
 20
84.359
  0
VERTEX
  8
LAYER_2
 10
67.7044
 20
84.1275
  0
SEQEND
  0
POLYLINE
  8
LAYER_2
 40
0.4127
 41
0.4127
 66
1
 10
0
 20
0
 30
0
  0
VERTEX
  8
LAYER_2
 10
48.1797
 20
98.4557
 42
0.4015789365
  0
VERTEX
  8
LAYER_2
 10
61.5625
 20
84.359
  0
SEQEND
  0
POLYLINE
  8
LAYER_2
 40
0.4127
 41
0.4127
 66
1
 10
0
 20
0
 30
0
  0
VERTEX
  8
LAYER_2
 10
81.1272
 20
87.2625
  0
VERTEX
  8
LAYER_2
 10
75.9147
 20
86.836
  0
SEQEND
  0
POLYLINE
  8
LAYER_2
 40
0.4127
 41
0.4127
 66
1
 10
0
 20
0
 30
0
  0
VERTEX
  8
LAYER_2
 10
81.1272
 20
87.2625
 42
0.4070054711
  0
VERTEX
  8
LAYER_2
 10
91.8752
 20
99.3335
  0
SEQEND
  0
POLYLINE
  8
LAYER_2
 40
0.4127
 41
0.4127
 66
1
 10
0
 20
0
 30
0
  0
VERTEX
  8
LAYER_2
 10
92.3802
 20
99.935
 42
0.4142397559
  0
VERTEX
  8
LAYER_2
 10
92.68
 20
100.2347
  0
SEQEND
  0
POLYLINE
  8
LAYER_2
 40
0.4127
 41
0.4127
 66
1
 10
0
 20
0
 30
0
  0
VERTEX
  8
LAYER_2
 10
92.68
 20
101.2352
  0
VERTEX
  8
LAYER_2
 10
92.68
 20
100.2347
  0
SEQEND
  0
POLYLINE
  8
LAYER_2
 40
0.4127
 41
0.4127
 66
1
 10
0
 20
0
 30
0
  0
VERTEX
  8
LAYER_2
 10
92.68
 20
101.2352
 42
0.3926366154
  0
VERTEX
  8
LAYER_2
 10
92.3802
 20
101.5352
  0
SEQEND
  0
POLYLINE
  8
LAYER_2
 40
0.4127
 41
0.4127
 66
1
 10
0
 20
0
 30
0
  0
VERTEX
  8
LAYER_2
 10
92.3802
 20
99.935
 42
0.3092368583
  0
VERTEX
  8
LAYER_2
 10
91.8752
 20
99.3335
  0
SEQEND
  0
POLYLINE
  8
LAYER_2
 40
0.4127
 41
0.4127
 66
1
 10
0
 20
0
 30
0
  0
VERTEX
  8
LAYER_2
 10
50.6798
 20
98.4557
  0
VERTEX
  8
LAYER_2
 10
50.6798
 20
101.5352
  0
SEQEND
  0
POLYLINE
  8
LAYER_2
 40
0.4127
 41
0.4127
 66
1
 10
0
 20
0
 30
0
  0
VERTEX
  8
LAYER_2
 10
68.184
 20
83.3351
  0
VERTEX
  8
LAYER_2
 10
68.184
 20
83.6273
  0
SEQEND
  0
POLYLINE
  8
LAYER_2
 40
0.4127
 41
0.4127
 66
1
 10
0
 20
0
 30
0
  0
VERTEX
  8
LAYER_2
 10
68.184
 20
83.6273
  0
VERTEX
  8
LAYER_2
 10
68.184
 20
86.3575
  0
SEQEND
  0
POLYLINE
  8
LAYER_2
 40
0.4127
 41
0.4127
 66
1
 10
0
 20
0
 30
0
  0
VERTEX
  8
LAYER_2
 10
61.6858
 20
87.0896
  0
VERTEX
  8
LAYER_2
 10
67.5356
 20
86.836
  0
SEQEND
  0
POLYLINE
  8
LAYER_2
 40
0.4127
 41
0.4127
 66
1
 10
0
 20
0
 30
0
  0
VERTEX
  8
LAYER_2
 10
68.184
 20
86.3575
 42
0.2964991231
  0
VERTEX
  8
LAYER_2
 10
67.7037
 20
86.836
  0
SEQEND
  0
POLYLINE
  8
LAYER_2
 40
0.4127
 41
0.4127
 66
1
 10
0
 20
0
 30
0
  0
VERTEX
  8
LAYER_2
 10
50.6798
 20
98.4557
 42
0.3829994525
  0
VERTEX
  8
LAYER_2
 10
61.6858
 20
87.0896
  0
SEQEND
  0
POLYLINE
  8
LAYER_2
 40
0.4127
 41
0.4127
 66
1
 10
0
 20
0
 30
0
  0
VERTEX
  8
LAYER_2
 10
75.9147
 20
86.836
  0
VERTEX
  8
LAYER_2
 10
67.5356
 20
86.836
  0
SEQEND
  0
POLYLINE
  8
LAYER_2
 40
0.4127
 41
0.4127
 66
1
 10
0
 20
0
 30
0
  0
VERTEX
  8
LAYER_2
 10
92.3802
 20
99.935
  0
VERTEX
  8
LAYER_2
 10
50.6798
 20
99.9956
  0
SEQEND
  0
POLYLINE
  8
LAYER_2
 40
0.1023
 41
0.1023
 66
1
 10
0
 20
0
 30
0
  0
VERTEX
  8
LAYER_2
 10
76.7002
 20
157.1418
  0
VERTEX
  8
LAYER_2
 10
75.7005
 20
157.1418
  0
VERTEX
  8
LAYER_2
 10
74.1116
 20
158.5994
  0
SEQEND
  0
TEXT
  8
LAYER_2
 10
77.0122
 20
156.6685
 11
77.0122
 21
156.6685
 40
3.5541
 41
0.5
  1
46
  0
POLYLINE
  8
LAYER_2
 40
0.05
 41
0.05
 66
1
 10
0
 20
0
 30
0
  0
VERTEX
  8
LAYER_2
 10
74.2239
 20
158.7228
  0
VERTEX
  8
LAYER_2
 10
73.9986
 20
158.4768
  0
VERTEX
  8
LAYER_2
 10
73.3743
 20
159.2757
  0
SEQEND
  0
POLYLINE
  8
LAYER_2
 40
0.1023
 41
0.1023
 66
1
 10
0
 20
0
 30
0
  0
VERTEX
  8
LAYER_2
 10
71.6707
 20
160.8308
  0
VERTEX
  8
LAYER_2
 10
71.6886
 20
160.8308
  0
SEQEND
  0
POLYLINE
  8
LAYER_2
 40
0.1023
 41
0.1023
 66
1
 10
0
 20
0
 30
0
  0
VERTEX
  8
LAYER_2
 10
71.6797
 20
160.8215
  0
VERTEX
  8
LAYER_2
 10
71.6797
 20
160.8391
  0
SEQEND
  0
POLYLINE
  8
LAYER_2
 40
0.1023
 41
0.1023
 66
1
 10
0
 20
0
 30
0
  0
VERTEX
  8
LAYER_2
 10
62.6797
 20
139.8395
  0
VERTEX
  8
LAYER_2
 10
42.7082
 20
139.8395
  0
SEQEND
  0
POLYLINE
  8
LAYER_2
 40
0.1023
 41
0.1023
 66
1
 10
0
 20
0
 30
0
  0
VERTEX
  8
LAYER_2
 10
62.6797
 20
181.8397
  0
VERTEX
  8
LAYER_2
 10
42.7082
 20
181.8397
  0
SEQEND
  0
POLYLINE
  8
LAYER_2
 40
0.1023
 41
0.1023
 66
1
 10
0
 20
0
 30
0
  0
VERTEX
  8
LAYER_2
 10
42.7264
 20
180.8396
  0
VERTEX
  8
LAYER_2
 10
42.7264
 20
140.5819
  0
SEQEND
  0
POLYLINE
  8
LAYER_2
 40
0.05
 41
0.05
 66
1
 10
0
 20
0
 30
0
  0
VERTEX
  8
LAYER_2
 10
42.5597
 20
140.84
  0
VERTEX
  8
LAYER_2
 10
42.7268
 20
139.8395
  0
VERTEX
  8
LAYER_2
 10
42.8932
 20
140.84
  0
SEQEND
  0
POLYLINE
  8
LAYER_2
 40
0.05
 41
0.05
 66
1
 10
0
 20
0
 30
0
  0
VERTEX
  8
LAYER_2
 10
42.5597
 20
180.8403
  0
VERTEX
  8
LAYER_2
 10
42.8932
 20
180.8403
  0
VERTEX
  8
LAYER_2
 10
42.7268
 20
181.8397
  0
SEQEND
  0
TEXT
  8
LAYER_2
 10
40.5353
 20
159.7756
 11
40.5353
 21
159.7756
 40
3.5541
 41
0.5
 50
89.99999999
  1
420
  0
POLYLINE
  8
LAYER_2
 40
0.1023
 41
0.1023
 66
1
 10
0
 20
0
 30
0
  0
VERTEX
  8
LAYER_2
 10
62.6797
 20
181.8397
  0
VERTEX
  8
LAYER_2
 10
42.6902
 20
181.8397
  0
SEQEND
  0
POLYLINE
  8
LAYER_2
 40
0.1023
 41
0.1023
 66
1
 10
0
 20
0
 30
0
  0
VERTEX
  8
LAYER_2
 10
67.1794
 20
184.3398
  0
VERTEX
  8
LAYER_2
 10
42.6902
 20
184.3398
  0
SEQEND
  0
POLYLINE
  8
LAYER_2
 40
0.1023
 41
0.1023
 66
1
 10
0
 20
0
 30
0
  0
VERTEX
  8
LAYER_2
 10
42.7085
 20
180.84
  0
VERTEX
  8
LAYER_2
 10
42.7085
 20
179.8402
  0
SEQEND
  0
POLYLINE
  8
LAYER_2
 40
0.1023
 41
0.1023
 66
1
 10
0
 20
0
 30
0
  0
VERTEX
  8
LAYER_2
 10
42.7085
 20
185.3399
  0
VERTEX
  8
LAYER_2
 10
42.7085
 20
186.3404
  0
SEQEND
  0
POLYLINE
  8
LAYER_2
 40
0.05
 41
0.05
 66
1
 10
0
 20
0
 30
0
  0
VERTEX
  8
LAYER_2
 10
42.5414
 20
180.8403
  0
VERTEX
  8
LAYER_2
 10
42.8749
 20
180.8403
  0
VERTEX
  8
LAYER_2
 10
42.7085
 20
181.8397
  0
SEQEND
  0
POLYLINE
  8
LAYER_2
 40
0.05
 41
0.05
 66
1
 10
0
 20
0
 30
0
  0
VERTEX
  8
LAYER_2
 10
42.5414
 20
185.3399
  0
VERTEX
  8
LAYER_2
 10
42.7085
 20
184.3398
  0
VERTEX
  8
LAYER_2
 10
42.8749
 20
185.3399
  0
SEQEND
  0
TEXT
  8
LAYER_2
 10
41.4554
 20
181.6625
 11
41.4554
 21
181.6625
 40
3.5541
 41
0.5
 50
89.99999999
  1
25
  0
POLYLINE
  8
LAYER_2
 40
0.1023
 41
0.1023
 66
1
 10
0
 20
0
 30
0
  0
VERTEX
  8
LAYER_2
 10
45.6799
 20
159.8397
  0
VERTEX
  8
LAYER_2
 10
45.6799
 20
135.8629
  0
SEQEND
  0
POLYLINE
  8
LAYER_2
 40
0.1023
 41
0.1023
 66
1
 10
0
 20
0
 30
0
  0
VERTEX
  8
LAYER_2
 10
97.6802
 20
159.8397
  0
VERTEX
  8
LAYER_2
 10
97.6802
 20
135.8629
  0
SEQEND
  0
POLYLINE
  8
LAYER_2
 40
0.1023
 41
0.1023
 66
1
 10
0
 20
0
 30
0
  0
VERTEX
  8
LAYER_2
 10
46.6797
 20
135.8811
  0
VERTEX
  8
LAYER_2
 10
96.6611
 20
135.8811
  0
SEQEND
  0
POLYLINE
  8
LAYER_2
 40
0.05
 41
0.05
 66
1
 10
0
 20
0
 30
0
  0
VERTEX
  8
LAYER_2
 10
45.6799
 20
135.8808
  0
VERTEX
  8
LAYER_2
 10
46.6797
 20
135.7144
  0
VERTEX
  8
LAYER_2
 10
46.6797
 20
136.0475
  0
SEQEND
  0
POLYLINE
  8
LAYER_2
 40
0.05
 41
0.05
 66
1
 10
0
 20
0
 30
0
  0
VERTEX
  8
LAYER_2
 10
96.6797
 20
135.7144
  0
VERTEX
  8
LAYER_2
 10
97.6802
 20
135.8811
  0
VERTEX
  8
LAYER_2
 10
96.6797
 20
136.0475
  0
SEQEND
  0
TEXT
  8
LAYER_2
 10
70.5165
 20
132.7075
 11
70.5165
 21
132.7075
 40
3.5541
 41
0.5
  1
520
  0
POLYLINE
  8
LAYER_2
 40
0.1023
 41
0.1023
 66
1
 10
0
 20
0
 30
0
  0
VERTEX
  8
LAYER_2
 10
70.529
 20
141.8311
  0
VERTEX
  8
LAYER_2
 10
70.1911
 20
141.8311
  0
SEQEND
  0
POLYLINE
  8
LAYER_2
 40
0.1023
 41
0.1023
 66
1
 10
0
 20
0
 30
0
  0
VERTEX
  8
LAYER_2
 10
70.632
 20
179.8305
  0
VERTEX
  8
LAYER_2
 10
70.1918
 20
179.8305
  0
SEQEND
  0
POLYLINE
  8
LAYER_2
 40
0.1023
 41
0.1023
 66
1
 10
0
 20
0
 30
0
  0
VERTEX
  8
LAYER_2
 10
70.209
 20
178.8308
  0
VERTEX
  8
LAYER_2
 10
70.209
 20
143.0514
  0
SEQEND
  0
POLYLINE
  8
LAYER_2
 40
0.05
 41
0.05
 66
1
 10
0
 20
0
 30
0
  0
VERTEX
  8
LAYER_2
 10
70.0426
 20
142.8312
  0
VERTEX
  8
LAYER_2
 10
70.2093
 20
141.8311
  0
VERTEX
  8
LAYER_2
 10
70.3761
 20
142.8312
  0
SEQEND
  0
POLYLINE
  8
LAYER_2
 40
0.05
 41
0.05
 66
1
 10
0
 20
0
 30
0
  0
VERTEX
  8
LAYER_2
 10
70.0426
 20
178.8308
  0
VERTEX
  8
LAYER_2
 10
70.3761
 20
178.8308
  0
VERTEX
  8
LAYER_2
 10
70.2093
 20
179.8309
  0
SEQEND
  0
TEXT
  8
LAYER_2
 10
68.2053
 20
151.8622
 11
68.2053
 21
151.8622
 40
3.5541
 41
0.5
 50
89.99999999
  1
380
  0
POLYLINE
  8
LAYER_2
 40
0.1023
 41
0.1023
 66
1
 10
0
 20
0
 30
0
  0
VERTEX
  8
LAYER_2
 10
47.6884
 20
161.8306
  0
VERTEX
  8
LAYER_2
 10
47.6884
 20
160.8494
  0
SEQEND
  0
POLYLINE
  8
LAYER_2
 40
0.1023
 41
0.1023
 66
1
 10
0
 20
0
 30
0
  0
VERTEX
  8
LAYER_2
 10
95.6889
 20
161.8313
  0
VERTEX
  8
LAYER_2
 10
95.6889
 20
160.8488
  0
SEQEND
  0
POLYLINE
  8
LAYER_2
 40
0.1023
 41
0.1023
 66
1
 10
0
 20
0
 30
0
  0
VERTEX
  8
LAYER_2
 10
48.6882
 20
160.8308
  0
VERTEX
  8
LAYER_2
 10
94.8972
 20
160.8308
  0
SEQEND
  0
POLYLINE
  8
LAYER_2
 40
0.05
 41
0.05
 66
1
 10
0
 20
0
 30
0
  0
VERTEX
  8
LAYER_2
 10
47.6884
 20
160.8308
  0
VERTEX
  8
LAYER_2
 10
48.6882
 20
160.6641
  0
VERTEX
  8
LAYER_2
 10
48.6882
 20
160.9976
  0
SEQEND
  0
POLYLINE
  8
LAYER_2
 40
0.05
 41
0.05
 66
1
 10
0
 20
0
 30
0
  0
VERTEX
  8
LAYER_2
 10
94.6884
 20
160.6641
  0
VERTEX
  8
LAYER_2
 10
95.6889
 20
160.8308
  0
VERTEX
  8
LAYER_2
 10
94.6884
 20
160.9976
  0
SEQEND
  0
TEXT
  8
LAYER_2
 10
76.8341
 20
161.9355
 11
76.8341
 21
161.9355
 40
3.5541
 41
0.5
  1
480
  0
POLYLINE
  8
LAYER_2
 40
0.1023
 41
0.1023
 66
1
 10
0
 20
0
 30
0
  0
VERTEX
  8
LAYER_2
 10
148.6896
 20
142.8306
  0
VERTEX
  8
LAYER_2
 10
148.352
 20
142.8306
  0
SEQEND
  0
POLYLINE
  8
LAYER_2
 40
0.1023
 41
0.1023
 66
1
 10
0
 20
0
 30
0
  0
VERTEX
  8
LAYER_2
 10
148.793
 20
178.8308
  0
VERTEX
  8
LAYER_2
 10
148.352
 20
178.8308
  0
SEQEND
  0
POLYLINE
  8
LAYER_2
 40
0.1023
 41
0.1023
 66
1
 10
0
 20
0
 30
0
  0
VERTEX
  8
LAYER_2
 10
148.3699
 20
177.831
  0
VERTEX
  8
LAYER_2
 10
148.3699
 20
143.8276
  0
SEQEND
  0
POLYLINE
  8
LAYER_2
 40
0.05
 41
0.05
 66
1
 10
0
 20
0
 30
0
  0
VERTEX
  8
LAYER_2
 10
148.2032
 20
143.8307
  0
VERTEX
  8
LAYER_2
 10
148.3699
 20
142.8306
  0
VERTEX
  8
LAYER_2
 10
148.5367
 20
143.8307
  0
SEQEND
  0
POLYLINE
  8
LAYER_2
 40
0.05
 41
0.05
 66
1
 10
0
 20
0
 30
0
  0
VERTEX
  8
LAYER_2
 10
148.2032
 20
177.831
  0
VERTEX
  8
LAYER_2
 10
148.5367
 20
177.831
  0
VERTEX
  8
LAYER_2
 10
148.3699
 20
178.8308
  0
SEQEND
  0
TEXT
  8
LAYER_2
 10
147.6017
 20
154.1122
 11
147.6017
 21
154.1122
 40
3.5541
 41
0.5
 50
89.99999999
  1
360
  0
POLYLINE
  8
LAYER_2
 40
0.1023
 41
0.1023
 66
1
 10
0
 20
0
 30
0
  0
VERTEX
  8
LAYER_2
 10
125.8493
 20
161.8306
  0
VERTEX
  8
LAYER_2
 10
125.8493
 20
160.8494
  0
SEQEND
  0
POLYLINE
  8
LAYER_2
 40
0.1023
 41
0.1023
 66
1
 10
0
 20
0
 30
0
  0
VERTEX
  8
LAYER_2
 10
171.8489
 20
161.8313
  0
VERTEX
  8
LAYER_2
 10
171.8489
 20
160.8488
  0
SEQEND
  0
POLYLINE
  8
LAYER_2
 40
0.1023
 41
0.1023
 66
1
 10
0
 20
0
 30
0
  0
VERTEX
  8
LAYER_2
 10
126.8491
 20
160.8308
  0
VERTEX
  8
LAYER_2
 10
170.8406
 20
160.8308
  0
SEQEND
  0
POLYLINE
  8
LAYER_2
 40
0.05
 41
0.05
 66
1
 10
0
 20
0
 30
0
  0
VERTEX
  8
LAYER_2
 10
125.8493
 20
160.8308
  0
VERTEX
  8
LAYER_2
 10
126.8488
 20
160.6641
  0
VERTEX
  8
LAYER_2
 10
126.8488
 20
160.9976
  0
SEQEND
  0
POLYLINE
  8
LAYER_2
 40
0.05
 41
0.05
 66
1
 10
0
 20
0
 30
0
  0
VERTEX
  8
LAYER_2
 10
170.8492
 20
160.6641
  0
VERTEX
  8
LAYER_2
 10
171.8489
 20
160.8308
  0
VERTEX
  8
LAYER_2
 10
170.8492
 20
160.9976
  0
SEQEND
  0
TEXT
  8
LAYER_2
 10
149.8052
 20
161.6919
 11
149.8052
 21
161.6919
 40
3.5541
 41
0.5
  1
460
  0
POLYLINE
  8
LAYER_2
 40
0.1023
 41
0.1023
 66
1
 10
0
 20
0
 30
0
  0
VERTEX
  8
LAYER_2
 10
149.8493
 20
101.7354
  0
VERTEX
  8
LAYER_2
 10
150.9469
 20
101.7354
  0
SEQEND
  0
POLYLINE
  8
LAYER_2
 40
0.1023
 41
0.1023
 66
1
 10
0
 20
0
 30
0
  0
VERTEX
  8
LAYER_2
 10
149.8493
 20
88.242
  0
VERTEX
  8
LAYER_2
 10
150.9469
 20
88.242
  0
SEQEND
  0
POLYLINE
  8
LAYER_2
 40
0.1023
 41
0.1023
 66
1
 10
0
 20
0
 30
0
  0
VERTEX
  8
LAYER_2
 10
150.9289
 20
89.2414
  0
VERTEX
  8
LAYER_2
 10
150.9289
 20
100.7356
  0
SEQEND
  0
POLYLINE
  8
LAYER_2
 40
0.05
 41
0.05
 66
1
 10
0
 20
0
 30
0
  0
VERTEX
  8
LAYER_2
 10
150.7615
 20
100.7356
  0
VERTEX
  8
LAYER_2
 10
151.095
 20
100.7356
  0
VERTEX
  8
LAYER_2
 10
150.9283
 20
101.7357
  0
SEQEND
  0
POLYLINE
  8
LAYER_2
 40
0.05
 41
0.05
 66
1
 10
0
 20
0
 30
0
  0
VERTEX
  8
LAYER_2
 10
150.7615
 20
89.2421
  0
VERTEX
  8
LAYER_2
 10
150.9283
 20
88.242
  0
VERTEX
  8
LAYER_2
 10
151.095
 20
89.2421
  0
SEQEND
  0
TEXT
  8
LAYER_2
 10
154.9101
 20
92.4581
 11
154.9101
 21
92.4581
 40
3.5541
 41
0.5
 50
89.99999999
  1
135
  0
POLYLINE
  8
LAYER_2
 40
0.1023
 41
0.1023
 66
1
 10
0
 20
0
 30
0
  0
VERTEX
  8
LAYER_2
 10
156.131
 20
83.2356
  0
VERTEX
  8
LAYER_2
 10
177.5864
 20
83.2356
  0
SEQEND
  0
POLYLINE
  8
LAYER_2
 40
0.1023
 41
0.1023
 66
1
 10
0
 20
0
 30
0
  0
VERTEX
  8
LAYER_2
 10
175.1542
 20
101.7354
  0
VERTEX
  8
LAYER_2
 10
177.5864
 20
101.7354
  0
SEQEND
  0
POLYLINE
  8
LAYER_2
 40
0.1023
 41
0.1023
 66
1
 10
0
 20
0
 30
0
  0
VERTEX
  8
LAYER_2
 10
177.5688
 20
100.7356
  0
VERTEX
  8
LAYER_2
 10
177.5688
 20
84.1375
  0
SEQEND
  0
POLYLINE
  8
LAYER_2
 40
0.05
 41
0.05
 66
1
 10
0
 20
0
 30
0
  0
VERTEX
  8
LAYER_2
 10
177.4024
 20
100.7356
  0
VERTEX
  8
LAYER_2
 10
177.7352
 20
100.7356
  0
VERTEX
  8
LAYER_2
 10
177.5688
 20
101.7354
  0
SEQEND
  0
POLYLINE
  8
LAYER_2
 40
0.05
 41
0.05
 66
1
 10
0
 20
0
 30
0
  0
VERTEX
  8
LAYER_2
 10
177.4024
 20
84.235
  0
VERTEX
  8
LAYER_2
 10
177.5688
 20
83.2352
  0
VERTEX
  8
LAYER_2
 10
177.7352
 20
84.235
  0
SEQEND
  0
TEXT
  8
LAYER_2
 10
181.9028
 20
91.5414
 11
181.9028
 21
91.5414
 40
3.5541
 41
0.5
 50
89.99999999
  1
185
  0
POLYLINE
  8
LAYER_2
 40
0.1023
 41
0.1023
 66
1
 10
0
 20
0
 30
0
  0
VERTEX
  8
LAYER_2
 10
122.8493
 20
102.4354
  0
VERTEX
  8
LAYER_2
 10
122.8493
 20
106.4245
  0
SEQEND
  0
POLYLINE
  8
LAYER_2
 40
0.1023
 41
0.1023
 66
1
 10
0
 20
0
 30
0
  0
VERTEX
  8
LAYER_2
 10
174.8493
 20
102.4354
  0
VERTEX
  8
LAYER_2
 10
174.8493
 20
106.4245
  0
SEQEND
  0
POLYLINE
  8
LAYER_2
 40
0.1023
 41
0.1023
 66
1
 10
0
 20
0
 30
0
  0
VERTEX
  8
LAYER_2
 10
123.8491
 20
106.4063
  0
VERTEX
  8
LAYER_2
 10
173.9194
 20
106.4063
  0
SEQEND
  0
POLYLINE
  8
LAYER_2
 40
0.05
 41
0.05
 66
1
 10
0
 20
0
 30
0
  0
VERTEX
  8
LAYER_2
 10
122.8493
 20
106.4063
  0
VERTEX
  8
LAYER_2
 10
123.8491
 20
106.2399
  0
VERTEX
  8
LAYER_2
 10
123.8491
 20
106.573
  0
SEQEND
  0
POLYLINE
  8
LAYER_2
 40
0.05
 41
0.05
 66
1
 10
0
 20
0
 30
0
  0
VERTEX
  8
LAYER_2
 10
173.8492
 20
106.2402
  0
VERTEX
  8
LAYER_2
 10
174.8493
 20
106.4066
  0
VERTEX
  8
LAYER_2
 10
173.8492
 20
106.573
  0
SEQEND
  0
TEXT
  8
LAYER_2
 10
147.7409
 20
108.0403
 11
147.7409
 21
108.0403
 40
3.5541
 41
0.5
  1
520
  0
POLYLINE
  8
LAYER_2
 40
0.1023
 41
0.1023
 66
1
 10
0
 20
0
 30
0
  0
VERTEX
  8
LAYER_2
 10
48.1797
 20
102.2349
  0
VERTEX
  8
LAYER_2
 10
48.1797
 20
107.7426
  0
SEQEND
  0
POLYLINE
  8
LAYER_2
 40
0.1023
 41
0.1023
 66
1
 10
0
 20
0
 30
0
  0
VERTEX
  8
LAYER_2
 10
92.68
 20
102.2349
  0
VERTEX
  8
LAYER_2
 10
92.68
 20
107.7426
  0
SEQEND
  0
POLYLINE
  8
LAYER_2
 40
0.1023
 41
0.1023
 66
1
 10
0
 20
0
 30
0
  0
VERTEX
  8
LAYER_2
 10
49.1794
 20
107.7243
  0
VERTEX
  8
LAYER_2
 10
91.7205
 20
107.7243
  0
SEQEND
  0
POLYLINE
  8
LAYER_2
 40
0.05
 41
0.05
 66
1
 10
0
 20
0
 30
0
  0
VERTEX
  8
LAYER_2
 10
48.1797
 20
107.7243
  0
VERTEX
  8
LAYER_2
 10
49.1798
 20
107.5576
  0
VERTEX
  8
LAYER_2
 10
49.1798
 20
107.8911
  0
SEQEND
  0
POLYLINE
  8
LAYER_2
 40
0.05
 41
0.05
 66
1
 10
0
 20
0
 30
0
  0
VERTEX
  8
LAYER_2
 10
91.6795
 20
107.5579
  0
VERTEX
  8
LAYER_2
 10
92.68
 20
107.725
  0
VERTEX
  8
LAYER_2
 10
91.6795
 20
107.8911
  0
SEQEND
  0
TEXT
  8
LAYER_2
 10
69.5103
 20
108.627
 11
69.5103
 21
108.627
 40
3.5541
 41
0.5
  1
445
  0
POLYLINE
  8
LAYER_2
 40
0.1023
 41
0.1023
 66
1
 10
0
 20
0
 30
0
  0
VERTEX
  8
LAYER_2
 10
70.7127
 20
101.5349
  0
VERTEX
  8
LAYER_2
 10
45.0811
 20
101.5349
  0
SEQEND
  0
POLYLINE
  8
LAYER_2
 40
0.1023
 41
0.1023
 66
1
 10
0
 20
0
 30
0
  0
VERTEX
  8
LAYER_2
 10
62.2236
 20
83.0351
  0
VERTEX
  8
LAYER_2
 10
45.0811
 20
83.0351
  0
SEQEND
  0
POLYLINE
  8
LAYER_2
 40
0.1023
 41
0.1023
 66
1
 10
0
 20
0
 30
0
  0
VERTEX
  8
LAYER_2
 10
45.0994
 20
84.0348
  0
VERTEX
  8
LAYER_2
 10
45.0994
 20
100.5017
  0
SEQEND
  0
POLYLINE
  8
LAYER_2
 40
0.05
 41
0.05
 66
1
 10
0
 20
0
 30
0
  0
VERTEX
  8
LAYER_2
 10
44.9327
 20
100.5351
  0
VERTEX
  8
LAYER_2
 10
45.2658
 20
100.5351
  0
VERTEX
  8
LAYER_2
 10
45.0994
 20
101.5349
  0
SEQEND
  0
POLYLINE
  8
LAYER_2
 40
0.05
 41
0.05
 66
1
 10
0
 20
0
 30
0
  0
VERTEX
  8
LAYER_2
 10
44.9327
 20
84.0348
  0
VERTEX
  8
LAYER_2
 10
45.0994
 20
83.0347
  0
VERTEX
  8
LAYER_2
 10
45.2658
 20
84.0348
  0
SEQEND
  0
TEXT
  8
LAYER_2
 10
44.1685
 20
89.6789
 11
44.1685
 21
89.6789
 40
3.5541
 41
0.5
 50
89.99999999
  1
185
  0
POLYLINE
  8
LAYER_2
 40
0.1023
 41
0.1023
 66
1
 10
0
 20
0
 30
0
  0
VERTEX
  8
LAYER_2
 10
72.7136
 20
88.0349
  0
VERTEX
  8
LAYER_2
 10
73.1942
 20
88.0349
  0
SEQEND
  0
POLYLINE
  8
LAYER_2
 40
0.1023
 41
0.1023
 66
1
 10
0
 20
0
 30
0
  0
VERTEX
  8
LAYER_2
 10
72.7129
 20
101.5349
  0
VERTEX
  8
LAYER_2
 10
73.1938
 20
101.5349
  0
SEQEND
  0
POLYLINE
  8
LAYER_2
 40
0.1023
 41
0.1023
 66
1
 10
0
 20
0
 30
0
  0
VERTEX
  8
LAYER_2
 10
73.1759
 20
89.035
  0
VERTEX
  8
LAYER_2
 10
73.1759
 20
100.5351
  0
SEQEND
  0
POLYLINE
  8
LAYER_2
 40
0.05
 41
0.05
 66
1
 10
0
 20
0
 30
0
  0
VERTEX
  8
LAYER_2
 10
73.0098
 20
89.0354
  0
VERTEX
  8
LAYER_2
 10
73.1766
 20
88.0349
  0
VERTEX
  8
LAYER_2
 10
73.3426
 20
89.0354
  0
SEQEND
  0
POLYLINE
  8
LAYER_2
 40
0.05
 41
0.05
 66
1
 10
0
 20
0
 30
0
  0
VERTEX
  8
LAYER_2
 10
73.0098
 20
100.5351
  0
VERTEX
  8
LAYER_2
 10
73.3426
 20
100.5351
  0
VERTEX
  8
LAYER_2
 10
73.1766
 20
101.5349
  0
SEQEND
  0
TEXT
  8
LAYER_2
 10
71.8297
 20
93.2873
 11
71.8297
 21
93.2873
 40
3.5541
 41
0.5
 50
89.99999999
  1
135
  0
POLYLINE
  8
LAYER_2
 40
0.1023
 41
0.1023
 66
1
 10
0
 20
0
 30
0
  0
VERTEX
  8
LAYER_2
 10
122.3495
 20
101.7354
  0
VERTEX
  8
LAYER_2
 10
121.2946
 20
101.7354
  0
SEQEND
  0
POLYLINE
  8
LAYER_2
 40
0.1023
 41
0.1023
 66
1
 10
0
 20
0
 30
0
  0
VERTEX
  8
LAYER_2
 10
122.1031
 20
100.1386
  0
VERTEX
  8
LAYER_2
 10
121.2946
 20
100.1386
  0
SEQEND
  0
POLYLINE
  8
LAYER_2
 40
0.1023
 41
0.1023
 66
1
 10
0
 20
0
 30
0
  0
VERTEX
  8
LAYER_2
 10
121.3128
 20
102.7352
  0
VERTEX
  8
LAYER_2
 10
121.3128
 20
103.7356
  0
SEQEND
  0
POLYLINE
  8
LAYER_2
 40
0.1023
 41
0.1023
 66
1
 10
0
 20
0
 30
0
  0
VERTEX
  8
LAYER_2
 10
121.3128
 20
99.1392
  0
VERTEX
  8
LAYER_2
 10
121.3128
 20
98.1387
  0
SEQEND
  0
POLYLINE
  8
LAYER_2
 40
0.05
 41
0.05
 66
1
 10
0
 20
0
 30
0
  0
VERTEX
  8
LAYER_2
 10
121.1461
 20
102.7355
  0
VERTEX
  8
LAYER_2
 10
121.3128
 20
101.7354
  0
VERTEX
  8
LAYER_2
 10
121.4789
 20
102.7355
  0
SEQEND
  0
POLYLINE
  8
LAYER_2
 40
0.05
 41
0.05
 66
1
 10
0
 20
0
 30
0
  0
VERTEX
  8
LAYER_2
 10
121.1461
 20
99.1392
  0
VERTEX
  8
LAYER_2
 10
121.4789
 20
99.1392
  0
VERTEX
  8
LAYER_2
 10
121.3128
 20
100.1382
  0
SEQEND
  0
TEXT
  8
LAYER_2
 10
120.7082
 20
98.5425
 11
120.7082
 21
98.5425
 40
3.5541
 41
0.5
 50
89.99999999
  1
16
  0
POLYLINE
  8
LAYER_2
 40
0.1023
 41
0.1023
 66
1
 10
0
 20
0
 30
0
  0
VERTEX
  8
LAYER_2
 10
93.1795
 20
101.5349
  0
VERTEX
  8
LAYER_2
 10
94.6051
 20
101.5349
  0
SEQEND
  0
POLYLINE
  8
LAYER_2
 40
0.1023
 41
0.1023
 66
1
 10
0
 20
0
 30
0
  0
VERTEX
  8
LAYER_2
 10
93.38
 20
99.935
  0
VERTEX
  8
LAYER_2
 10
94.6051
 20
99.935
  0
SEQEND
  0
POLYLINE
  8
LAYER_2
 40
0.1023
 41
0.1023
 66
1
 10
0
 20
0
 30
0
  0
VERTEX
  8
LAYER_2
 10
94.5872
 20
102.5347
  0
VERTEX
  8
LAYER_2
 10
94.5872
 20
103.5351
  0
SEQEND
  0
POLYLINE
  8
LAYER_2
 40
0.1023
 41
0.1023
 66
1
 10
0
 20
0
 30
0
  0
VERTEX
  8
LAYER_2
 10
94.5872
 20
98.9349
  0
VERTEX
  8
LAYER_2
 10
94.5872
 20
97.9348
  0
SEQEND
  0
POLYLINE
  8
LAYER_2
 40
0.05
 41
0.05
 66
1
 10
0
 20
0
 30
0
  0
VERTEX
  8
LAYER_2
 10
94.4204
 20
102.5347
  0
VERTEX
  8
LAYER_2
 10
94.5872
 20
101.5349
  0
VERTEX
  8
LAYER_2
 10
94.7543
 20
102.5347
  0
SEQEND
  0
POLYLINE
  8
LAYER_2
 40
0.05
 41
0.05
 66
1
 10
0
 20
0
 30
0
  0
VERTEX
  8
LAYER_2
 10
94.4204
 20
98.9349
  0
VERTEX
  8
LAYER_2
 10
94.7543
 20
98.9349
  0
VERTEX
  8
LAYER_2
 10
94.5872
 20
99.9346
  0
SEQEND
  0
TEXT
  8
LAYER_2
 10
97.9137
 20
98.4784
 11
97.9137
 21
98.4784
 40
3.5541
 41
0.5
 50
89.99999999
  1
16
  0
POLYLINE
  8
LAYER_2
 40
0.2046
 41
0.2046
 66
1
 10
0
 20
0
 30
0
  0
VERTEX
  8
LAYER_2
 10
52.4385
 20
101.5349
  0
VERTEX
  8
LAYER_2
 10
52.7913
 20
101.5349
  0
SEQEND
  0
POLYLINE
  8
LAYER_2
  6
AIGENLINE004
 40
0.2046
 41
0.2046
 66
1
 10
0
 20
0
 30
0
 70
128
  0
VERTEX
  8
LAYER_2
 10
53.5051
 20
101.5349
  0
VERTEX
  8
LAYER_2
 10
90.2773
 20
101.5349
  0
SEQEND
  0
POLYLINE
  8
LAYER_2
 40
0.2046
 41
0.2046
 66
1
 10
0
 20
0
 30
0
  0
VERTEX
  8
LAYER_2
 10
90.6343
 20
101.5349
  0
VERTEX
  8
LAYER_2
 10
90.9874
 20
101.5349
  0
SEQEND
  0
POLYLINE
  8
LAYER_2
  6
AIGENLINE005
 40
0.2046
 41
0.2046
 66
1
 10
0
 20
0
 30
0
 70
128
  0
VERTEX
  8
LAYER_2
 10
51.3522
 20
97.5351
  0
VERTEX
  8
LAYER_2
 10
51.9607
 20
97.5351
  0
SEQEND
  0
POLYLINE
  8
LAYER_2
  6
AIGENLINE001
 40
0.2046
 41
0.2046
 66
1
 10
0
 20
0
 30
0
 70
128
  0
VERTEX
  8
LAYER_2
 10
48.4797
 20
101.5349
 42
0.3928911526
  0
VERTEX
  8
LAYER_2
 10
48.1797
 20
101.2352
  0
SEQEND
  0
POLYLINE
  8
LAYER_2
  6
AIGENLINE006
 40
0.2046
 41
0.2046
 66
1
 10
0
 20
0
 30
0
 70
128
  0
VERTEX
  8
LAYER_2
 10
68.1836
 20
83.3351
  0
VERTEX
  8
LAYER_2
 10
68.1836
 20
83.6273
  0
SEQEND
  0
POLYLINE
  8
LAYER_2
 40
0.2046
 41
0.2046
 66
1
 10
0
 20
0
 30
0
  0
VERTEX
  8
LAYER_2
 10
68.1836
 20
83.6273
 42
0.1778433815
  0
VERTEX
  8
LAYER_2
 10
68.0637
 20
83.9525
  0
SEQEND
  0
POLYLINE
  8
LAYER_2
 40
0.2046
 41
0.2046
 66
1
 10
0
 20
0
 30
0
  0
VERTEX
  8
LAYER_2
 10
68.0244
 20
83.9938
 42
0.1768863843
  0
VERTEX
  8
LAYER_2
 10
67.7044
 20
84.1275
  0
SEQEND
  0
POLYLINE
  8
LAYER_2
 40
0.2046
 41
0.2046
 66
1
 10
0
 20
0
 30
0
  0
VERTEX
  8
LAYER_2
 10
68.1836
 20
86.3406
 42
0.1581098946
  0
VERTEX
  8
LAYER_2
 10
68.0393
 20
86.6583
  0
SEQEND
  0
POLYLINE
  8
LAYER_2
 40
0.2046
 41
0.2046
 66
1
 10
0
 20
0
 30
0
  0
VERTEX
  8
LAYER_2
 10
67.9752
 20
86.7182
 42
0.1564985917
  0
VERTEX
  8
LAYER_2
 10
67.6493
 20
86.8409
  0
SEQEND
  0
POLYLINE
  8
LAYER_2
 40
0.2046
 41
0.2046
 66
1
 10
0
 20
0
 30
0
  0
VERTEX
  8
LAYER_2
 10
68.9133
 20
83.0351
  0
VERTEX
  8
LAYER_2
 10
69.2664
 20
83.0351
  0
SEQEND
  0
POLYLINE
  8
LAYER_2
  6
AIGENLINE007
 40
0.2046
 41
0.2046
 66
1
 10
0
 20
0
 30
0
 70
128
  0
VERTEX
  8
LAYER_2
 10
69.9651
 20
83.0351
  0
VERTEX
  8
LAYER_2
 10
73.8112
 20
83.0351
  0
SEQEND
  0
POLYLINE
  8
LAYER_2
 40
0.2046
 41
0.2046
 66
1
 10
0
 20
0
 30
0
  0
VERTEX
  8
LAYER_2
 10
74.1605
 20
83.0351
  0
VERTEX
  8
LAYER_2
 10
74.5136
 20
83.0351
  0
SEQEND
  0
POLYLINE
  8
LAYER_2
  6
AIGENLINE008
 40
0.2046
 41
0.2046
 66
1
 10
0
 20
0
 30
0
 70
128
  0
VERTEX
  8
LAYER_2
 10
69.3887
 20
87.0352
  0
VERTEX
  8
LAYER_2
 10
69.3887
 20
86.3406
  0
SEQEND
  0
POLYLINE
  8
LAYER_2
 40
0.2046
 41
0.2046
 66
1
 10
0
 20
0
 30
0
  0
VERTEX
  8
LAYER_2
 10
69.3887
 20
85.5021
  0
VERTEX
  8
LAYER_2
 10
69.3887
 20
85.1493
  0
SEQEND
  0
POLYLINE
  8
LAYER_2
  6
AIGENLINE009
 40
0.2046
 41
0.2046
 66
1
 10
0
 20
0
 30
0
 70
128
  0
VERTEX
  8
LAYER_2
 10
69.3887
 20
84.6622
  0
VERTEX
  8
LAYER_2
 10
69.3887
 20
83.9318
  0
SEQEND
  0
POLYLINE
  8
LAYER_2
 40
0.2046
 41
0.2046
 66
1
 10
0
 20
0
 30
0
  0
VERTEX
  8
LAYER_2
 10
69.3887
 20
83.6879
  0
VERTEX
  8
LAYER_2
 10
69.3887
 20
83.3351
  0
SEQEND
  0
POLYLINE
  8
LAYER_2
  6
AIGENLINE010
 40
0.2046
 41
0.2046
 66
1
 10
0
 20
0
 30
0
 70
128
  0
VERTEX
  8
LAYER_2
 10
68.4837
 20
83.0351
  0
VERTEX
  8
LAYER_2
 10
69.0886
 20
83.0351
  0
SEQEND
  0
INSERT
  8
LAYER_2
  2
AIGNBL02010028
 10
0
 20
0
 30
0
  0
POLYLINE
  8
LAYER_2
 40
0.2046
 41
0.2046
 66
1
 10
0
 20
0
 30
0
  0
VERTEX
  8
LAYER_2
 10
48.4797
 20
101.5349
  0
VERTEX
  8
LAYER_2
 10
48.8329
 20
101.5349
  0
SEQEND
  0
POLYLINE
  8
LAYER_2
  6
AIGENLINE011
 40
0.2046
 41
0.2046
 66
1
 10
0
 20
0
 30
0
 70
128
  0
VERTEX
  8
LAYER_2
 10
49.7355
 20
101.5349
  0
VERTEX
  8
LAYER_2
 10
51.0901
 20
101.5349
  0
SEQEND
  0
POLYLINE
  8
LAYER_2
 40
0.2046
 41
0.2046
 66
1
 10
0
 20
0
 30
0
  0
VERTEX
  8
LAYER_2
 10
51.5417
 20
101.5349
  0
VERTEX
  8
LAYER_2
 10
51.8942
 20
101.5349
  0
SEQEND
  0
POLYLINE
  8
LAYER_2
  6
AIGENLINE012
 40
0.2046
 41
0.2046
 66
1
 10
0
 20
0
 30
0
 70
128
  0
VERTEX
  8
LAYER_2
 10
52.178
 20
101.2214
 42
0.392538351
  0
VERTEX
  8
LAYER_2
 10
51.9424
 20
101.5328
  0
VERTEX
  8
LAYER_2
 10
51.8942
 20
101.5352
  0
SEQEND
  0
POLYLINE
  8
LAYER_2
 40
0.2046
 41
0.2046
 66
1
 10
0
 20
0
 30
0
  0
VERTEX
  8
LAYER_2
 10
75.2581
 20
83.3351
  0
VERTEX
  8
LAYER_2
 10
75.2581
 20
83.6879
  0
SEQEND
  0
POLYLINE
  8
LAYER_2
  6
AIGENLINE013
 40
0.2046
 41
0.2046
 66
1
 10
0
 20
0
 30
0
 70
128
  0
VERTEX
  8
LAYER_2
 10
75.2581
 20
84.4531
  0
VERTEX
  8
LAYER_2
 10
75.2581
 20
85.601
  0
SEQEND
  0
POLYLINE
  8
LAYER_2
 40
0.2046
 41
0.2046
 66
1
 10
0
 20
0
 30
0
  0
VERTEX
  8
LAYER_2
 10
75.2581
 20
85.9837
  0
VERTEX
  8
LAYER_2
 10
75.2581
 20
86.3365
  0
SEQEND
  0
POLYLINE
  8
LAYER_2
 40
0.2046
 41
0.2046
 66
1
 10
0
 20
0
 30
0
  0
VERTEX
  8
LAYER_2
 10
75.7246
 20
86.836
 42
0.1778719645
  0
VERTEX
  8
LAYER_2
 10
75.4087
 20
86.6941
  0
SEQEND
  0
POLYLINE
  8
LAYER_2
 40
0.2046
 41
0.2046
 66
1
 10
0
 20
0
 30
0
  0
VERTEX
  8
LAYER_2
 10
75.378
 20
86.661
 42
0.1781663566
  0
VERTEX
  8
LAYER_2
 10
75.2581
 20
86.3362
  0
SEQEND
  0
POLYLINE
  8
LAYER_2
 40
0.2046
 41
0.2046
 66
1
 10
0
 20
0
 30
0
  0
VERTEX
  8
LAYER_2
 10
73.9876
 20
87.0352
  0
VERTEX
  8
LAYER_2
 10
73.9876
 20
86.682
  0
SEQEND
  0
POLYLINE
  8
LAYER_2
  6
AIGENLINE014
 40
0.2046
 41
0.2046
 66
1
 10
0
 20
0
 30
0
 70
128
  0
VERTEX
  8
LAYER_2
 10
73.9876
 20
86.0833
  0
VERTEX
  8
LAYER_2
 10
73.9876
 20
83.9876
  0
SEQEND
  0
POLYLINE
  8
LAYER_2
 40
0.2046
 41
0.2046
 66
1
 10
0
 20
0
 30
0
  0
VERTEX
  8
LAYER_2
 10
73.9876
 20
83.6879
  0
VERTEX
  8
LAYER_2
 10
73.9876
 20
83.3351
  0
SEQEND
  0
POLYLINE
  8
LAYER_2
  6
AIGENLINE015
 40
0.2046
 41
0.2046
 66
1
 10
0
 20
0
 30
0
 70
128
  0
VERTEX
  8
LAYER_2
 10
74.9577
 20
83.0351
  0
VERTEX
  8
LAYER_2
 10
74.288
 20
83.0351
  0
SEQEND
  0
INSERT
  8
LAYER_2
  2
AIGNBL02010029
 10
0
 20
0
 30
0
  0
POLYLINE
  8
LAYER_2
 40
0.2046
 41
0.2046
 66
1
 10
0
 20
0
 30
0
  0
VERTEX
  8
LAYER_2
 10
52.178
 20
99.8351
  0
VERTEX
  8
LAYER_2
 10
52.178
 20
100.1879
  0
SEQEND
  0
POLYLINE
  8
LAYER_2
 40
0.2046
 41
0.2046
 66
1
 10
0
 20
0
 30
0
  0
VERTEX
  8
LAYER_2
 10
52.178
 20
100.8686
  0
VERTEX
  8
LAYER_2
 10
52.178
 20
101.2214
  0
SEQEND
  0
POLYLINE
  8
LAYER_2
  6
AIGENLINE001
 40
0.2046
 41
0.2046
 66
1
 10
0
 20
0
 30
0
 70
128
  0
VERTEX
  8
LAYER_2
 10
51.8783
 20
99.5347
 42
0.4142499375
  0
VERTEX
  8
LAYER_2
 10
52.1787
 20
99.8351
  0
SEQEND
  0
POLYLINE
  8
LAYER_2
 40
0.2046
 41
0.2046
 66
1
 10
0
 20
0
 30
0
  0
VERTEX
  8
LAYER_2
 10
68.1836
 20
86.3406
  0
VERTEX
  8
LAYER_2
 10
68.536
 20
86.3406
  0
SEQEND
  0
POLYLINE
  8
LAYER_2
 40
0.2046
 41
0.2046
 66
1
 10
0
 20
0
 30
0
  0
VERTEX
  8
LAYER_2
 10
69.0359
 20
86.3406
  0
VERTEX
  8
LAYER_2
 10
69.3887
 20
86.3406
  0
SEQEND
  0
POLYLINE
  8
LAYER_2
 40
0.2046
 41
0.2046
 66
1
 10
0
 20
0
 30
0
  0
VERTEX
  8
LAYER_2
 10
68.1836
 20
85.3099
  0
VERTEX
  8
LAYER_2
 10
68.536
 20
85.3092
  0
SEQEND
  0
POLYLINE
  8
LAYER_2
 40
0.2046
 41
0.2046
 66
1
 10
0
 20
0
 30
0
  0
VERTEX
  8
LAYER_2
 10
69.0359
 20
85.3078
  0
VERTEX
  8
LAYER_2
 10
69.3887
 20
85.3078
  0
SEQEND
  0
POLYLINE
  8
LAYER_2
 40
0.2046
 41
0.2046
 66
1
 10
0
 20
0
 30
0
  0
VERTEX
  8
LAYER_2
 10
69.3887
 20
86.3406
  0
VERTEX
  8
LAYER_2
 10
69.3887
 20
85.9879
  0
SEQEND
  0
POLYLINE
  8
LAYER_2
 40
0.2046
 41
0.2046
 66
1
 10
0
 20
0
 30
0
  0
VERTEX
  8
LAYER_2
 10
69.3887
 20
85.6609
  0
VERTEX
  8
LAYER_2
 10
69.3887
 20
85.3078
  0
SEQEND
  0
POLYLINE
  8
LAYER_2
 40
0.2046
 41
0.2046
 66
1
 10
0
 20
0
 30
0
  0
VERTEX
  8
LAYER_2
 10
68.1836
 20
86.3406
  0
VERTEX
  8
LAYER_2
 10
68.1836
 20
85.9879
  0
SEQEND
  0
POLYLINE
  8
LAYER_2
 40
0.2046
 41
0.2046
 66
1
 10
0
 20
0
 30
0
  0
VERTEX
  8
LAYER_2
 10
68.1836
 20
85.6609
  0
VERTEX
  8
LAYER_2
 10
68.1836
 20
85.3078
  0
SEQEND
  0
POLYLINE
  8
LAYER_2
 40
0.2046
 41
0.2046
 66
1
 10
0
 20
0
 30
0
  0
VERTEX
  8
LAYER_2
 10
48.1797
 20
101.2352
  0
VERTEX
  8
LAYER_2
 10
48.1797
 20
100.882
  0
SEQEND
  0
POLYLINE
  8
LAYER_2
  6
AIGENLINE016
 40
0.2046
 41
0.2046
 66
1
 10
0
 20
0
 30
0
 70
128
  0
VERTEX
  8
LAYER_2
 10
48.1797
 20
100.1913
  0
VERTEX
  8
LAYER_2
 10
48.1797
 20
99.1543
  0
SEQEND
  0
POLYLINE
  8
LAYER_2
 40
0.2046
 41
0.2046
 66
1
 10
0
 20
0
 30
0
  0
VERTEX
  8
LAYER_2
 10
48.1797
 20
98.8088
  0
VERTEX
  8
LAYER_2
 10
48.1797
 20
98.4557
  0
SEQEND
  0
POLYLINE
  8
LAYER_2
 40
0.2046
 41
0.2046
 66
1
 10
0
 20
0
 30
0
  0
VERTEX
  8
LAYER_2
 10
61.7389
 20
88.2882
  0
VERTEX
  8
LAYER_2
 10
62.091
 20
88.274
  0
SEQEND
  0
POLYLINE
  8
LAYER_2
  6
AIGENLINE017
 40
0.2046
 41
0.2046
 66
1
 10
0
 20
0
 30
0
 70
128
  0
VERTEX
  8
LAYER_2
 10
62.8799
 20
88.2416
  0
VERTEX
  8
LAYER_2
 10
67.2166
 20
88.0653
  0
SEQEND
  0
POLYLINE
  8
LAYER_2
 40
0.2046
 41
0.2046
 66
1
 10
0
 20
0
 30
0
  0
VERTEX
  8
LAYER_2
 10
67.6107
 20
88.0494
  0
VERTEX
  8
LAYER_2
 10
67.9635
 20
88.0353
  0
SEQEND
  0
POLYLINE
  8
LAYER_2
 40
0.2046
 41
0.2046
 66
1
 10
0
 20
0
 30
0
  0
VERTEX
  8
LAYER_2
 10
52.2607
 20
97.2347
  0
VERTEX
  8
LAYER_2
 10
52.3021
 20
96.8847
  0
SEQEND
  0
POLYLINE
  8
LAYER_2
  6
AIGENLINE018
 40
0.2046
 41
0.2046
 66
1
 10
0
 20
0
 30
0
 70
128
  0
VERTEX
  8
LAYER_2
 10
52.4233
 20
96.184
 42
0.3127986596
  0
VERTEX
  8
LAYER_2
 10
61.0326
 20
88.3429
  0
SEQEND
  0
POLYLINE
  8
LAYER_2
 40
0.2046
 41
0.2046
 66
1
 10
0
 20
0
 30
0
  0
VERTEX
  8
LAYER_2
 10
61.3868
 20
88.3099
  0
VERTEX
  8
LAYER_2
 10
61.7392
 20
88.2882
  0
SEQEND
  0
POLYLINE
  8
LAYER_2
 40
0.2046
 41
0.2046
 66
1
 10
0
 20
0
 30
0
  0
VERTEX
  8
LAYER_2
 10
51.0522
 20
97.2347
  0
VERTEX
  8
LAYER_2
 10
51.0894
 20
96.884
  0
SEQEND
  0
POLYLINE
  8
LAYER_2
  6
AIGENLINE019
 40
0.2046
 41
0.2046
 66
1
 10
0
 20
0
 30
0
 70
128
  0
VERTEX
  8
LAYER_2
 10
51.2017
 20
96.1626
 42
0.3195238278
  0
VERTEX
  8
LAYER_2
 10
60.9692
 20
87.1433
  0
SEQEND
  0
POLYLINE
  8
LAYER_2
 40
0.2046
 41
0.2046
 66
1
 10
0
 20
0
 30
0
  0
VERTEX
  8
LAYER_2
 10
61.3334
 20
87.1103
  0
VERTEX
  8
LAYER_2
 10
61.6858
 20
87.0896
  0
VERTEX
  8
LAYER_2
 10
62.0379
 20
87.0748
  0
SEQEND
  0
POLYLINE
  8
LAYER_2
  6
AIGENLINE020
 40
0.2046
 41
0.2046
 66
1
 10
0
 20
0
 30
0
 70
128
  0
VERTEX
  8
LAYER_2
 10
62.7896
 20
87.0431
  0
VERTEX
  8
LAYER_2
 10
66.921
 20
86.8712
  0
SEQEND
  0
POLYLINE
  8
LAYER_2
 40
0.2046
 41
0.2046
 66
1
 10
0
 20
0
 30
0
  0
VERTEX
  8
LAYER_2
 10
67.2965
 20
86.8553
  0
VERTEX
  8
LAYER_2
 10
67.6489
 20
86.8409
  0
SEQEND
  0
POLYLINE
  8
LAYER_2
 40
0.2046
 41
0.2046
 66
1
 10
0
 20
0
 30
0
  0
VERTEX
  8
LAYER_2
 10
61.6155
 20
85.5579
  0
VERTEX
  8
LAYER_2
 10
61.9676
 20
85.5445
  0
SEQEND
  0
POLYLINE
  8
LAYER_2
  6
AIGENLINE021
 40
0.2046
 41
0.2046
 66
1
 10
0
 20
0
 30
0
 70
128
  0
VERTEX
  8
LAYER_2
 10
62.6194
 20
85.5193
  0
VERTEX
  8
LAYER_2
 10
67.5056
 20
85.3336
  0
SEQEND
  0
POLYLINE
  8
LAYER_2
 40
0.2046
 41
0.2046
 66
1
 10
0
 20
0
 30
0
  0
VERTEX
  8
LAYER_2
 10
67.8312
 20
85.3209
  0
VERTEX
  8
LAYER_2
 10
68.184
 20
85.3078
  0
SEQEND
  0
POLYLINE
  8
LAYER_2
 40
0.2046
 41
0.2046
 66
1
 10
0
 20
0
 30
0
  0
VERTEX
  8
LAYER_2
 10
61.5618
 20
84.359
  0
VERTEX
  8
LAYER_2
 10
61.9153
 20
84.3452
  0
SEQEND
  0
POLYLINE
  8
LAYER_2
  6
AIGENLINE022
 40
0.2046
 41
0.2046
 66
1
 10
0
 20
0
 30
0
 70
128
  0
VERTEX
  8
LAYER_2
 10
62.6863
 20
84.3163
  0
VERTEX
  8
LAYER_2
 10
66.9327
 20
84.1551
  0
SEQEND
  0
POLYLINE
  8
LAYER_2
 40
0.2046
 41
0.2046
 66
1
 10
0
 20
0
 30
0
  0
VERTEX
  8
LAYER_2
 10
67.3185
 20
84.1406
  0
VERTEX
  8
LAYER_2
 10
67.6713
 20
84.1275
  0
SEQEND
  0
POLYLINE
  8
LAYER_2
 40
0.2046
 41
0.2046
 66
1
 10
0
 20
0
 30
0
  0
VERTEX
  8
LAYER_2
 10
49.4819
 20
98.4984
  0
VERTEX
  8
LAYER_2
 10
49.4792
 20
98.1453
  0
SEQEND
  0
POLYLINE
  8
LAYER_2
  6
AIGENLINE023
 40
0.2046
 41
0.2046
 66
1
 10
0
 20
0
 30
0
 70
128
  0
VERTEX
  8
LAYER_2
 10
49.5026
 20
97.4449
 42
0.06198803627
  0
VERTEX
  8
LAYER_2
 10
50.0753
 20
94.3727
 42
0.09572693066
  0
VERTEX
  8
LAYER_2
 10
52.3827
 20
90.1503
 42
0.1331071299
  0
VERTEX
  8
LAYER_2
 10
57.8516
 20
86.2965
 42
0.06229570796
  0
VERTEX
  8
LAYER_2
 10
60.9127
 20
85.6068
  0
SEQEND
  0
POLYLINE
  8
LAYER_2
 40
0.2046
 41
0.2046
 66
1
 10
0
 20
0
 30
0
  0
VERTEX
  8
LAYER_2
 10
61.2628
 20
85.5779
  0
VERTEX
  8
LAYER_2
 10
61.6155
 20
85.5579
  0
SEQEND
  0
POLYLINE
  8
LAYER_2
 40
0.2046
 41
0.2046
 66
1
 10
0
 20
0
 30
0
  0
VERTEX
  8
LAYER_2
 10
48.1797
 20
98.4557
  0
VERTEX
  8
LAYER_2
 10
48.1821
 20
98.1029
  0
SEQEND
  0
POLYLINE
  8
LAYER_2
  6
AIGENLINE024
 40
0.2046
 41
0.2046
 66
1
 10
0
 20
0
 30
0
 70
128
  0
VERTEX
  8
LAYER_2
 10
48.2151
 20
97.3877
 42
0.05598036037
  0
VERTEX
  8
LAYER_2
 10
48.7836
 20
94.3078
 42
0.08986726983
  0
VERTEX
  8
LAYER_2
 10
51.0707
 20
89.8561
 42
0.1456452191
  0
VERTEX
  8
LAYER_2
 10
57.63
 20
85.1144
 42
0.05905144883
  0
VERTEX
  8
LAYER_2
 10
60.8521
 20
84.4107
  0
SEQEND
  0
POLYLINE
  8
LAYER_2
 40
0.2046
 41
0.2046
 66
1
 10
0
 20
0
 30
0
  0
VERTEX
  8
LAYER_2
 10
61.2097
 20
84.3804
  0
VERTEX
  8
LAYER_2
 10
61.5618
 20
84.359
  0
SEQEND
  0
POLYLINE
  8
LAYER_2
 40
0.2046
 41
0.2046
 66
1
 10
0
 20
0
 30
0
  0
VERTEX
  8
LAYER_2
 10
49.9808
 20
100.0349
 42
0.179354977
  0
VERTEX
  8
LAYER_2
 10
49.6555
 20
99.9143
  0
SEQEND
  0
POLYLINE
  8
LAYER_2
 40
0.2046
 41
0.2046
 66
1
 10
0
 20
0
 30
0
  0
VERTEX
  8
LAYER_2
 10
49.5787
 20
99.8323
 42
0.1606270015
  0
VERTEX
  8
LAYER_2
 10
49.4805
 20
99.5347
  0
VERTEX
  8
LAYER_2
 10
49.4819
 20
99.4988
  0
SEQEND
  0
POLYLINE
  8
LAYER_2
 40
0.2046
 41
0.2046
 66
1
 10
0
 20
0
 30
0
  0
VERTEX
  8
LAYER_2
 10
81.1272
 20
87.2625
  0
VERTEX
  8
LAYER_2
 10
80.7751
 20
87.2346
  0
SEQEND
  0
POLYLINE
  8
LAYER_2
  6
AIGENLINE025
 40
0.2046
 41
0.2046
 66
1
 10
0
 20
0
 30
0
 70
128
  0
VERTEX
  8
LAYER_2
 10
80.104
 20
87.1816
  0
VERTEX
  8
LAYER_2
 10
76.4122
 20
86.8901
  0
SEQEND
  0
POLYLINE
  8
LAYER_2
 40
0.2046
 41
0.2046
 66
1
 10
0
 20
0
 30
0
  0
VERTEX
  8
LAYER_2
 10
76.0767
 20
86.8643
  0
VERTEX
  8
LAYER_2
 10
75.7249
 20
86.836
  0
SEQEND
  0
POLYLINE
  8
LAYER_2
 40
0.2046
 41
0.2046
 66
1
 10
0
 20
0
 30
0
  0
VERTEX
  8
LAYER_2
 10
81.029
 20
88.4601
  0
VERTEX
  8
LAYER_2
 10
80.6772
 20
88.4332
  0
SEQEND
  0
POLYLINE
  8
LAYER_2
  6
AIGENLINE026
 40
0.2046
 41
0.2046
 66
1
 10
0
 20
0
 30
0
 70
128
  0
VERTEX
  8
LAYER_2
 10
79.9827
 20
88.3798
  0
VERTEX
  8
LAYER_2
 10
76.1624
 20
88.0883
  0
SEQEND
  0
POLYLINE
  8
LAYER_2
 40
0.2046
 41
0.2046
 66
1
 10
0
 20
0
 30
0
  0
VERTEX
  8
LAYER_2
 10
75.8148
 20
88.0618
  0
VERTEX
  8
LAYER_2
 10
75.4634
 20
88.0349
  0
SEQEND
  0
POLYLINE
  8
LAYER_2
 40
0.2046
 41
0.2046
 66
1
 10
0
 20
0
 30
0
  0
VERTEX
  8
LAYER_2
 10
73.9876
 20
87.0352
  0
VERTEX
  8
LAYER_2
 10
73.6348
 20
87.0352
  0
SEQEND
  0
POLYLINE
  8
LAYER_2
  6
AIGENLINE027
 40
0.2046
 41
0.2046
 66
1
 10
0
 20
0
 30
0
 70
128
  0
VERTEX
  8
LAYER_2
 10
72.8562
 20
87.0352
  0
VERTEX
  8
LAYER_2
 10
70.1304
 20
87.0352
  0
SEQEND
  0
POLYLINE
  8
LAYER_2
 40
0.2046
 41
0.2046
 66
1
 10
0
 20
0
 30
0
  0
VERTEX
  8
LAYER_2
 10
69.7415
 20
87.0352
  0
VERTEX
  8
LAYER_2
 10
69.3887
 20
87.0352
  0
SEQEND
  0
POLYLINE
  8
LAYER_2
 40
0.2046
 41
0.2046
 66
1
 10
0
 20
0
 30
0
  0
VERTEX
  8
LAYER_2
 10
68.1385
 20
88.0349
  0
VERTEX
  8
LAYER_2
 10
68.4141
 20
87.8145
  0
SEQEND
  0
POLYLINE
  8
LAYER_2
 40
0.2046
 41
0.2046
 66
1
 10
0
 20
0
 30
0
  0
VERTEX
  8
LAYER_2
 10
69.1134
 20
87.2553
  0
VERTEX
  8
LAYER_2
 10
69.389
 20
87.0352
  0
SEQEND
  0
POLYLINE
  8
LAYER_2
 40
0.2046
 41
0.2046
 66
1
 10
0
 20
0
 30
0
  0
VERTEX
  8
LAYER_2
 10
75.4634
 20
88.0349
  0
VERTEX
  8
LAYER_2
 10
75.1107
 20
88.0349
  0
SEQEND
  0
POLYLINE
  8
LAYER_2
  6
AIGENLINE028
 40
0.2046
 41
0.2046
 66
1
 10
0
 20
0
 30
0
 70
128
  0
VERTEX
  8
LAYER_2
 10
74.3555
 20
88.0349
  0
VERTEX
  8
LAYER_2
 10
68.6935
 20
88.0349
  0
SEQEND
  0
POLYLINE
  8
LAYER_2
 40
0.2046
 41
0.2046
 66
1
 10
0
 20
0
 30
0
  0
VERTEX
  8
LAYER_2
 10
68.3162
 20
88.0349
  0
VERTEX
  8
LAYER_2
 10
67.9635
 20
88.0349
  0
SEQEND
  0
POLYLINE
  8
LAYER_2
 40
0.2046
 41
0.2046
 66
1
 10
0
 20
0
 30
0
  0
VERTEX
  8
LAYER_2
 10
75.2374
 20
88.0349
  0
VERTEX
  8
LAYER_2
 10
74.9622
 20
87.8145
  0
SEQEND
  0
POLYLINE
  8
LAYER_2
 40
0.2046
 41
0.2046
 66
1
 10
0
 20
0
 30
0
  0
VERTEX
  8
LAYER_2
 10
74.2632
 20
87.2553
  0
VERTEX
  8
LAYER_2
 10
73.9876
 20
87.0352
  0
SEQEND
  0
POLYLINE
  8
LAYER_2
 40
0.2046
 41
0.2046
 66
1
 10
0
 20
0
 30
0
  0
VERTEX
  8
LAYER_2
 10
49.4819
 20
99.4988
  0
VERTEX
  8
LAYER_2
 10
49.4819
 20
99.1461
  0
SEQEND
  0
POLYLINE
  8
LAYER_2
 40
0.2046
 41
0.2046
 66
1
 10
0
 20
0
 30
0
  0
VERTEX
  8
LAYER_2
 10
49.4819
 20
98.8512
  0
VERTEX
  8
LAYER_2
 10
49.4819
 20
98.4984
  0
SEQEND
  0
POLYLINE
  8
LAYER_2
  6
AIGENLINE002
 40
0.2046
 41
0.2046
 66
1
 10
0
 20
0
 30
0
 70
128
  0
VERTEX
  8
LAYER_2
 10
51.3522
 20
97.5351
 42
0.3935209351
  0
VERTEX
  8
LAYER_2
 10
51.0525
 20
97.2347
  0
SEQEND
  0
POLYLINE
  8
LAYER_2
  6
AIGENLINE001
 40
0.2046
 41
0.2046
 66
1
 10
0
 20
0
 30
0
 70
128
  0
VERTEX
  8
LAYER_2
 10
52.2607
 20
97.2347
 42
0.3928100129
  0
VERTEX
  8
LAYER_2
 10
51.9607
 20
97.5351
  0
SEQEND
  0
POLYLINE
  8
LAYER_2
 40
0.2046
 41
0.2046
 66
1
 10
0
 20
0
 30
0
  0
VERTEX
  8
LAYER_2
 10
124.5757
 20
101.7354
  0
VERTEX
  8
LAYER_2
 10
124.9281
 20
101.7354
  0
SEQEND
  0
POLYLINE
  8
LAYER_2
 40
0.2046
 41
0.2046
 66
1
 10
0
 20
0
 30
0
  0
VERTEX
  8
LAYER_2
 10
172.7702
 20
101.7354
  0
VERTEX
  8
LAYER_2
 10
173.1233
 20
101.7354
  0
SEQEND
  0
POLYLINE
  8
LAYER_2
 40
0.2046
 41
0.2046
 66
1
 10
0
 20
0
 30
0
  0
VERTEX
  8
LAYER_2
 10
134.4862
 20
88.6626
  0
VERTEX
  8
LAYER_2
 10
134.8383
 20
88.6489
  0
SEQEND
  0
POLYLINE
  8
LAYER_2
  6
AIGENLINE029
 40
0.2046
 41
0.2046
 66
1
 10
0
 20
0
 30
0
 70
128
  0
VERTEX
  8
LAYER_2
 10
135.5883
 20
88.6185
  0
VERTEX
  8
LAYER_2
 10
144.2076
 20
88.2713
  0
SEQEND
  0
POLYLINE
  8
LAYER_2
 40
0.2046
 41
0.2046
 66
1
 10
0
 20
0
 30
0
  0
VERTEX
  8
LAYER_2
 10
144.5827
 20
88.2561
  0
VERTEX
  8
LAYER_2
 10
144.9352
 20
88.242
  0
SEQEND
  0
POLYLINE
  8
LAYER_2
 40
0.2046
 41
0.2046
 66
1
 10
0
 20
0
 30
0
  0
VERTEX
  8
LAYER_2
 10
134.4021
 20
87.4631
  0
VERTEX
  8
LAYER_2
 10
134.7542
 20
87.4486
  0
SEQEND
  0
POLYLINE
  8
LAYER_2
  6
AIGENLINE030
 40
0.2046
 41
0.2046
 66
1
 10
0
 20
0
 30
0
 70
128
  0
VERTEX
  8
LAYER_2
 10
135.4887
 20
87.4176
  0
VERTEX
  8
LAYER_2
 10
143.9292
 20
87.071
  0
SEQEND
  0
POLYLINE
  8
LAYER_2
 40
0.2046
 41
0.2046
 66
1
 10
0
 20
0
 30
0
  0
VERTEX
  8
LAYER_2
 10
144.2958
 20
87.0555
  0
VERTEX
  8
LAYER_2
 10
144.6485
 20
87.0414
  0
SEQEND
  0
POLYLINE
  8
LAYER_2
 40
0.2046
 41
0.2046
 66
1
 10
0
 20
0
 30
0
  0
VERTEX
  8
LAYER_2
 10
145.352
 20
83.5353
  0
VERTEX
  8
LAYER_2
 10
145.352
 20
83.8884
  0
SEQEND
  0
POLYLINE
  8
LAYER_2
  6
AIGENLINE031
 40
0.2046
 41
0.2046
 66
1
 10
0
 20
0
 30
0
 70
128
  0
VERTEX
  8
LAYER_2
 10
145.352
 20
84.655
  0
VERTEX
  8
LAYER_2
 10
145.352
 20
85.8049
  0
SEQEND
  0
POLYLINE
  8
LAYER_2
 40
0.2046
 41
0.2046
 66
1
 10
0
 20
0
 30
0
  0
VERTEX
  8
LAYER_2
 10
145.352
 20
86.188
  0
VERTEX
  8
LAYER_2
 10
145.352
 20
86.5411
 42
0.17796339
  0
VERTEX
  8
LAYER_2
 10
145.2314
 20
86.8664
  0
SEQEND
  0
POLYLINE
  8
LAYER_2
 40
0.2046
 41
0.2046
 66
1
 10
0
 20
0
 30
0
  0
VERTEX
  8
LAYER_2
 10
145.1774
 20
86.9208
 42
0.1780883798
  0
VERTEX
  8
LAYER_2
 10
144.8518
 20
87.0414
  0
SEQEND
  0
POLYLINE
  8
LAYER_2
 40
0.2046
 41
0.2046
 66
1
 10
0
 20
0
 30
0
  0
VERTEX
  8
LAYER_2
 10
146.0493
 20
83.2356
  0
VERTEX
  8
LAYER_2
 10
146.4021
 20
83.2356
  0
SEQEND
  0
POLYLINE
  8
LAYER_2
  6
AIGENLINE007
 40
0.2046
 41
0.2046
 66
1
 10
0
 20
0
 30
0
 70
128
  0
VERTEX
  8
LAYER_2
 10
147.1014
 20
83.2356
  0
VERTEX
  8
LAYER_2
 10
150.9469
 20
83.2356
  0
SEQEND
  0
POLYLINE
  8
LAYER_2
 40
0.2046
 41
0.2046
 66
1
 10
0
 20
0
 30
0
  0
VERTEX
  8
LAYER_2
 10
151.2969
 20
83.2356
  0
VERTEX
  8
LAYER_2
 10
151.6493
 20
83.2356
  0
SEQEND
  0
POLYLINE
  8
LAYER_2
 40
0.2046
 41
0.2046
 66
1
 10
0
 20
0
 30
0
  0
VERTEX
  8
LAYER_2
 10
151.3486
 20
87.0414
  0
VERTEX
  8
LAYER_2
 10
150.9961
 20
87.0414
  0
SEQEND
  0
POLYLINE
  8
LAYER_2
  6
AIGENLINE032
 40
0.2046
 41
0.2046
 66
1
 10
0
 20
0
 30
0
 70
128
  0
VERTEX
  8
LAYER_2
 10
150.3826
 20
87.0414
  0
VERTEX
  8
LAYER_2
 10
147.0084
 20
87.0414
  0
SEQEND
  0
POLYLINE
  8
LAYER_2
 40
0.2046
 41
0.2046
 66
1
 10
0
 20
0
 30
0
  0
VERTEX
  8
LAYER_2
 10
146.7018
 20
87.0414
  0
VERTEX
  8
LAYER_2
 10
146.3487
 20
87.0414
  0
SEQEND
  0
POLYLINE
  8
LAYER_2
 40
0.2046
 41
0.2046
 66
1
 10
0
 20
0
 30
0
  0
VERTEX
  8
LAYER_2
 10
145.4302
 20
88.1331
  0
VERTEX
  8
LAYER_2
 10
145.6828
 20
87.8868
  0
SEQEND
  0
POLYLINE
  8
LAYER_2
 40
0.2046
 41
0.2046
 66
1
 10
0
 20
0
 30
0
  0
VERTEX
  8
LAYER_2
 10
146.2987
 20
87.2874
  0
VERTEX
  8
LAYER_2
 10
146.5516
 20
87.0414
  0
SEQEND
  0
POLYLINE
  8
LAYER_2
  6
AIGENLINE033
 40
0.2046
 41
0.2046
 66
1
 10
0
 20
0
 30
0
 70
128
  0
VERTEX
  8
LAYER_2
 10
145.4302
 20
88.1331
 42
0.1580463681
  0
VERTEX
  8
LAYER_2
 10
145.1384
 20
88.2423
  0
SEQEND
  0
POLYLINE
  8
LAYER_2
 40
0.2046
 41
0.2046
 66
1
 10
0
 20
0
 30
0
  0
VERTEX
  8
LAYER_2
 10
152.7631
 20
88.242
  0
VERTEX
  8
LAYER_2
 10
152.4103
 20
88.242
  0
SEQEND
  0
POLYLINE
  8
LAYER_2
  6
AIGENLINE034
 40
0.2046
 41
0.2046
 66
1
 10
0
 20
0
 30
0
 70
128
  0
VERTEX
  8
LAYER_2
 10
151.7627
 20
88.242
  0
VERTEX
  8
LAYER_2
 10
145.6118
 20
88.242
  0
SEQEND
  0
POLYLINE
  8
LAYER_2
 40
0.2046
 41
0.2046
 66
1
 10
0
 20
0
 30
0
  0
VERTEX
  8
LAYER_2
 10
145.2879
 20
88.242
  0
VERTEX
  8
LAYER_2
 10
144.9352
 20
88.242
  0
SEQEND
  0
POLYLINE
  8
LAYER_2
 40
0.2046
 41
0.2046
 66
1
 10
0
 20
0
 30
0
  0
VERTEX
  8
LAYER_2
 10
146.5516
 20
87.0414
  0
VERTEX
  8
LAYER_2
 10
146.5516
 20
86.6882
  0
SEQEND
  0
POLYLINE
  8
LAYER_2
  6
AIGENLINE035
 40
0.2046
 41
0.2046
 66
1
 10
0
 20
0
 30
0
 70
128
  0
VERTEX
  8
LAYER_2
 10
146.5516
 20
86.1281
  0
VERTEX
  8
LAYER_2
 10
146.5523
 20
84.1682
  0
SEQEND
  0
POLYLINE
  8
LAYER_2
 40
0.2046
 41
0.2046
 66
1
 10
0
 20
0
 30
0
  0
VERTEX
  8
LAYER_2
 10
146.5523
 20
83.8884
  0
VERTEX
  8
LAYER_2
 10
146.5523
 20
83.535
  0
SEQEND
  0
POLYLINE
  8
LAYER_2
  6
AIGENLINE036
 40
0.2046
 41
0.2046
 66
1
 10
0
 20
0
 30
0
 70
128
  0
VERTEX
  8
LAYER_2
 10
145.6521
 20
83.2356
  0
VERTEX
  8
LAYER_2
 10
146.2519
 20
83.2356
  0
SEQEND
  0
INSERT
  8
LAYER_2
  2
AIGNBL0201002A
 10
0
 20
0
 30
0
  0
POLYLINE
  8
LAYER_2
  6
AIGENLINE037
 40
0.2046
 41
0.2046
 66
1
 10
0
 20
0
 30
0
 70
128
  0
VERTEX
  8
LAYER_2
 10
123.1491
 20
101.7354
  0
VERTEX
  8
LAYER_2
 10
123.3496
 20
101.7354
  0
SEQEND
  0
POLYLINE
  8
LAYER_2
  6
AIGENLINE038
 40
0.2046
 41
0.2046
 66
1
 10
0
 20
0
 30
0
 70
128
  0
VERTEX
  8
LAYER_2
 10
124.3655
 20
101.7354
  0
VERTEX
  8
LAYER_2
 10
124.5643
 20
101.7354
  0
SEQEND
  0
POLYLINE
  8
LAYER_2
  6
AIGENLINE039
 40
0.2046
 41
0.2046
 66
1
 10
0
 20
0
 30
0
 70
128
  0
VERTEX
  8
LAYER_2
 10
124.8516
 20
101.4591
 42
0.4149015475
  0
VERTEX
  8
LAYER_2
 10
124.576
 20
101.7354
  0
VERTEX
  8
LAYER_2
 10
124.565
 20
101.7354
  0
SEQEND
  0
CIRCLE
  8
LAYER_2
  6
AIGENLINE040
 10
148.8495
 20
98.7354
 40
1.0001
  0
POLYLINE
  8
LAYER_2
 40
0.2046
 41
0.2046
 66
1
 10
0
 20
0
 30
0
  0
VERTEX
  8
LAYER_2
 10
124.8516
 20
101.4591
  0
VERTEX
  8
LAYER_2
 10
124.8523
 20
101.1063
  0
SEQEND
  0
POLYLINE
  8
LAYER_2
  6
AIGENLINE041
 40
0.2046
 41
0.2046
 66
1
 10
0
 20
0
 30
0
 70
128
  0
VERTEX
  8
LAYER_2
 10
124.853
 20
100.6819
  0
VERTEX
  8
LAYER_2
 10
124.8544
 20
100.0445
  0
SEQEND
  0
POLYLINE
  8
LAYER_2
 40
0.2046
 41
0.2046
 66
1
 10
0
 20
0
 30
0
  0
VERTEX
  8
LAYER_2
 10
124.8544
 20
99.832
  0
VERTEX
  8
LAYER_2
 10
124.8551
 20
99.4789
  0
SEQEND
  0
POLYLINE
  8
LAYER_2
  6
AIGENLINE033
 40
0.2046
 41
0.2046
 66
1
 10
0
 20
0
 30
0
 70
128
  0
VERTEX
  8
LAYER_2
 10
152.555
 20
88.242
 42
0.1604904909
  0
VERTEX
  8
LAYER_2
 10
152.2625
 20
88.1328
  0
SEQEND
  0
POLYLINE
  8
LAYER_2
 40
0.2046
 41
0.2046
 66
1
 10
0
 20
0
 30
0
  0
VERTEX
  8
LAYER_2
 10
152.3407
 20
83.5353
  0
VERTEX
  8
LAYER_2
 10
152.3407
 20
83.8884
  0
SEQEND
  0
POLYLINE
  8
LAYER_2
  6
AIGENLINE031
 40
0.2046
 41
0.2046
 66
1
 10
0
 20
0
 30
0
 70
128
  0
VERTEX
  8
LAYER_2
 10
152.3407
 20
84.655
  0
VERTEX
  8
LAYER_2
 10
152.3407
 20
85.8049
  0
SEQEND
  0
POLYLINE
  8
LAYER_2
 40
0.2046
 41
0.2046
 66
1
 10
0
 20
0
 30
0
  0
VERTEX
  8
LAYER_2
 10
152.3407
 20
86.188
  0
VERTEX
  8
LAYER_2
 10
152.3407
 20
86.5411
  0
SEQEND
  0
POLYLINE
  8
LAYER_2
 40
0.2046
 41
0.2046
 66
1
 10
0
 20
0
 30
0
  0
VERTEX
  8
LAYER_2
 10
152.8413
 20
87.0414
 42
0.1782736835
  0
VERTEX
  8
LAYER_2
 10
152.5164
 20
86.9215
  0
SEQEND
  0
POLYLINE
  8
LAYER_2
 40
0.2046
 41
0.2046
 66
1
 10
0
 20
0
 30
0
  0
VERTEX
  8
LAYER_2
 10
152.4613
 20
86.8667
 42
0.1785495874
  0
VERTEX
  8
LAYER_2
 10
152.3407
 20
86.5415
  0
SEQEND
  0
POLYLINE
  8
LAYER_2
 40
0.2046
 41
0.2046
 66
1
 10
0
 20
0
 30
0
  0
VERTEX
  8
LAYER_2
 10
152.2625
 20
88.1331
  0
VERTEX
  8
LAYER_2
 10
152.0097
 20
87.8868
  0
SEQEND
  0
POLYLINE
  8
LAYER_2
 40
0.2046
 41
0.2046
 66
1
 10
0
 20
0
 30
0
  0
VERTEX
  8
LAYER_2
 10
151.3933
 20
87.2874
  0
VERTEX
  8
LAYER_2
 10
151.1405
 20
87.0414
  0
VERTEX
  8
LAYER_2
 10
151.1405
 20
86.6882
  0
SEQEND
  0
POLYLINE
  8
LAYER_2
  6
AIGENLINE035
 40
0.2046
 41
0.2046
 66
1
 10
0
 20
0
 30
0
 70
128
  0
VERTEX
  8
LAYER_2
 10
151.1405
 20
86.1281
  0
VERTEX
  8
LAYER_2
 10
151.1405
 20
84.1682
  0
SEQEND
  0
POLYLINE
  8
LAYER_2
 40
0.2046
 41
0.2046
 66
1
 10
0
 20
0
 30
0
  0
VERTEX
  8
LAYER_2
 10
151.1405
 20
83.8884
  0
VERTEX
  8
LAYER_2
 10
151.1405
 20
83.535
  0
SEQEND
  0
POLYLINE
  8
LAYER_2
  6
AIGENLINE036
 40
0.2046
 41
0.2046
 66
1
 10
0
 20
0
 30
0
 70
128
  0
VERTEX
  8
LAYER_2
 10
152.041
 20
83.2356
  0
VERTEX
  8
LAYER_2
 10
151.4409
 20
83.2356
  0
SEQEND
  0
INSERT
  8
LAYER_2
  2
AIGNBL0201002B
 10
0
 20
0
 30
0
  0
POLYLINE
  8
LAYER_2
 40
0.2046
 41
0.2046
 66
1
 10
0
 20
0
 30
0
  0
VERTEX
  8
LAYER_2
 10
123.3496
 20
101.7354
 42
0.118898731
  0
VERTEX
  8
LAYER_2
 10
123.6548
 20
101.5631
  0
SEQEND
  0
POLYLINE
  8
LAYER_2
 40
0.2046
 41
0.2046
 66
1
 10
0
 20
0
 30
0
  0
VERTEX
  8
LAYER_2
 10
124.0603
 20
101.5638
 42
0.1203838345
  0
VERTEX
  8
LAYER_2
 10
124.3652
 20
101.7354
  0
SEQEND
  0
POLYLINE
  8
LAYER_2
 40
0.2046
 41
0.2046
 66
1
 10
0
 20
0
 30
0
  0
VERTEX
  8
LAYER_2
 10
124.3655
 20
101.7354
  0
VERTEX
  8
LAYER_2
 10
124.0124
 20
101.7354
  0
SEQEND
  0
POLYLINE
  8
LAYER_2
 40
0.2046
 41
0.2046
 66
1
 10
0
 20
0
 30
0
  0
VERTEX
  8
LAYER_2
 10
123.7024
 20
101.7354
  0
VERTEX
  8
LAYER_2
 10
123.3496
 20
101.7354
  0
SEQEND
  0
INSERT
  8
LAYER_2
  2
AIGNBL0201002C
 10
0
 20
0
 30
0
  0
POLYLINE
  8
LAYER_2
 40
0.2046
 41
0.2046
 66
1
 10
0
 20
0
 30
0
  0
VERTEX
  8
LAYER_2
 10
123.6534
 20
99.534
 42
0.1271292079
  0
VERTEX
  8
LAYER_2
 10
123.5329
 20
99.8633
  0
SEQEND
  0
POLYLINE
  8
LAYER_2
 40
0.2046
 41
0.2046
 66
1
 10
0
 20
0
 30
0
  0
VERTEX
  8
LAYER_2
 10
123.4522
 20
99.9588
 42
0.1263852879
  0
VERTEX
  8
LAYER_2
 10
123.1491
 20
100.1355
  0
SEQEND
  0
POLYLINE
  8
LAYER_2
 40
0.2046
 41
0.2046
 66
1
 10
0
 20
0
 30
0
  0
VERTEX
  8
LAYER_2
 10
123.6534
 20
99.534
  0
VERTEX
  8
LAYER_2
 10
123.6431
 20
99.1809
  0
SEQEND
  0
POLYLINE
  8
LAYER_2
  6
AIGENLINE042
 40
0.2046
 41
0.2046
 66
1
 10
0
 20
0
 30
0
 70
128
  0
VERTEX
  8
LAYER_2
 10
123.6524
 20
98.4936
 42
0.349543823
  0
VERTEX
  8
LAYER_2
 10
133.7083
 20
87.5326
  0
SEQEND
  0
POLYLINE
  8
LAYER_2
 40
0.2046
 41
0.2046
 66
1
 10
0
 20
0
 30
0
  0
VERTEX
  8
LAYER_2
 10
134.0507
 20
87.4927
  0
VERTEX
  8
LAYER_2
 10
134.4021
 20
87.4631
  0
SEQEND
  0
POLYLINE
  8
LAYER_2
 40
0.2046
 41
0.2046
 66
1
 10
0
 20
0
 30
0
  0
VERTEX
  8
LAYER_2
 10
124.8551
 20
99.4789
  0
VERTEX
  8
LAYER_2
 10
124.8454
 20
99.1261
  0
SEQEND
  0
POLYLINE
  8
LAYER_2
  6
AIGENLINE043
 40
0.2046
 41
0.2046
 66
1
 10
0
 20
0
 30
0
 70
128
  0
VERTEX
  8
LAYER_2
 10
124.862
 20
98.3971
 42
0.2591781798
  0
VERTEX
  8
LAYER_2
 10
130.4499
 20
89.7937
 42
0.08493721954
  0
VERTEX
  8
LAYER_2
 10
133.7717
 20
88.7374
  0
SEQEND
  0
POLYLINE
  8
LAYER_2
 40
0.2046
 41
0.2046
 66
1
 10
0
 20
0
 30
0
  0
VERTEX
  8
LAYER_2
 10
134.1348
 20
88.6936
  0
VERTEX
  8
LAYER_2
 10
134.4862
 20
88.6619
  0
SEQEND
  0
POLYLINE
  8
LAYER_2
 40
0.2046
 41
0.2046
 66
1
 10
0
 20
0
 30
0
  0
VERTEX
  8
LAYER_2
 10
122.8493
 20
100.4352
  0
VERTEX
  8
LAYER_2
 10
122.8493
 20
100.788
  0
SEQEND
  0
POLYLINE
  8
LAYER_2
 40
0.2046
 41
0.2046
 66
1
 10
0
 20
0
 30
0
  0
VERTEX
  8
LAYER_2
 10
122.8493
 20
101.0829
  0
VERTEX
  8
LAYER_2
 10
122.8493
 20
101.4357
  0
SEQEND
  0
POLYLINE
  8
LAYER_2
 40
0.2046
 41
0.2046
 66
1
 10
0
 20
0
 30
0
  0
VERTEX
  8
LAYER_2
 10
163.2121
 20
88.6626
  0
VERTEX
  8
LAYER_2
 10
162.8593
 20
88.6489
  0
SEQEND
  0
POLYLINE
  8
LAYER_2
  6
AIGENLINE029
 40
0.2046
 41
0.2046
 66
1
 10
0
 20
0
 30
0
 70
128
  0
VERTEX
  8
LAYER_2
 10
162.11
 20
88.6185
  0
VERTEX
  8
LAYER_2
 10
153.4907
 20
88.2713
  0
SEQEND
  0
POLYLINE
  8
LAYER_2
 40
0.2046
 41
0.2046
 66
1
 10
0
 20
0
 30
0
  0
VERTEX
  8
LAYER_2
 10
153.1155
 20
88.2561
  0
VERTEX
  8
LAYER_2
 10
152.7631
 20
88.242
  0
SEQEND
  0
POLYLINE
  8
LAYER_2
 40
0.2046
 41
0.2046
 66
1
 10
0
 20
0
 30
0
  0
VERTEX
  8
LAYER_2
 10
163.2965
 20
87.4631
  0
VERTEX
  8
LAYER_2
 10
162.9441
 20
87.4486
  0
SEQEND
  0
POLYLINE
  8
LAYER_2
  6
AIGENLINE030
 40
0.2046
 41
0.2046
 66
1
 10
0
 20
0
 30
0
 70
128
  0
VERTEX
  8
LAYER_2
 10
162.2103
 20
87.4176
  0
VERTEX
  8
LAYER_2
 10
153.7694
 20
87.071
  0
SEQEND
  0
POLYLINE
  8
LAYER_2
 40
0.2046
 41
0.2046
 66
1
 10
0
 20
0
 30
0
  0
VERTEX
  8
LAYER_2
 10
153.4025
 20
87.0555
  0
VERTEX
  8
LAYER_2
 10
153.0497
 20
87.0414
  0
SEQEND
  0
POLYLINE
  8
LAYER_2
  6
AIGENLINE044
 40
0.2046
 41
0.2046
 66
1
 10
0
 20
0
 30
0
 70
128
  0
VERTEX
  8
LAYER_2
 10
174.5492
 20
101.7354
  0
VERTEX
  8
LAYER_2
 10
174.3494
 20
101.7354
  0
SEQEND
  0
POLYLINE
  8
LAYER_2
  6
AIGENLINE038
 40
0.2046
 41
0.2046
 66
1
 10
0
 20
0
 30
0
 70
128
  0
VERTEX
  8
LAYER_2
 10
173.3331
 20
101.7354
  0
VERTEX
  8
LAYER_2
 10
173.134
 20
101.7354
  0
SEQEND
  0
POLYLINE
  8
LAYER_2
  6
AIGENLINE039
 40
0.2046
 41
0.2046
 66
1
 10
0
 20
0
 30
0
 70
128
  0
VERTEX
  8
LAYER_2
 10
173.1333
 20
101.7354
 42
0.3924832716
  0
VERTEX
  8
LAYER_2
 10
172.847
 20
101.4701
  0
VERTEX
  8
LAYER_2
 10
172.847
 20
101.4594
  0
SEQEND
  0
POLYLINE
  8
LAYER_2
 40
0.2046
 41
0.2046
 66
1
 10
0
 20
0
 30
0
  0
VERTEX
  8
LAYER_2
 10
172.847
 20
101.4591
  0
VERTEX
  8
LAYER_2
 10
172.8463
 20
101.1063
  0
SEQEND
  0
POLYLINE
  8
LAYER_2
  6
AIGENLINE041
 40
0.2046
 41
0.2046
 66
1
 10
0
 20
0
 30
0
 70
128
  0
VERTEX
  8
LAYER_2
 10
172.8453
 20
100.6819
  0
VERTEX
  8
LAYER_2
 10
172.8439
 20
100.0445
  0
SEQEND
  0
POLYLINE
  8
LAYER_2
 40
0.2046
 41
0.2046
 66
1
 10
0
 20
0
 30
0
  0
VERTEX
  8
LAYER_2
 10
172.8439
 20
99.832
  0
VERTEX
  8
LAYER_2
 10
172.8429
 20
99.4789
  0
SEQEND
  0
POLYLINE
  8
LAYER_2
 40
0.2046
 41
0.2046
 66
1
 10
0
 20
0
 30
0
  0
VERTEX
  8
LAYER_2
 10
173.3331
 20
101.7354
 42
0.119976878
  0
VERTEX
  8
LAYER_2
 10
173.638
 20
101.5638
  0
SEQEND
  0
POLYLINE
  8
LAYER_2
 40
0.2046
 41
0.2046
 66
1
 10
0
 20
0
 30
0
  0
VERTEX
  8
LAYER_2
 10
174.0442
 20
101.5638
 42
0.1187669937
  0
VERTEX
  8
LAYER_2
 10
174.3494
 20
101.7354
  0
SEQEND
  0
POLYLINE
  8
LAYER_2
 40
0.2046
 41
0.2046
 66
1
 10
0
 20
0
 30
0
  0
VERTEX
  8
LAYER_2
 10
173.3331
 20
101.7354
  0
VERTEX
  8
LAYER_2
 10
173.6859
 20
101.7354
  0
SEQEND
  0
POLYLINE
  8
LAYER_2
 40
0.2046
 41
0.2046
 66
1
 10
0
 20
0
 30
0
  0
VERTEX
  8
LAYER_2
 10
173.9966
 20
101.7354
  0
VERTEX
  8
LAYER_2
 10
174.3494
 20
101.7354
  0
SEQEND
  0
INSERT
  8
LAYER_2
  2
AIGNBL0201002D
 10
0
 20
0
 30
0
  0
POLYLINE
  8
LAYER_2
 40
0.2046
 41
0.2046
 66
1
 10
0
 20
0
 30
0
  0
VERTEX
  8
LAYER_2
 10
174.5492
 20
100.1355
 42
0.1268877146
  0
VERTEX
  8
LAYER_2
 10
174.246
 20
99.9584
  0
SEQEND
  0
POLYLINE
  8
LAYER_2
 40
0.2046
 41
0.2046
 66
1
 10
0
 20
0
 30
0
  0
VERTEX
  8
LAYER_2
 10
174.1661
 20
99.8633
 42
0.1276101923
  0
VERTEX
  8
LAYER_2
 10
174.0448
 20
99.534
  0
SEQEND
  0
POLYLINE
  8
LAYER_2
 40
0.2046
 41
0.2046
 66
1
 10
0
 20
0
 30
0
  0
VERTEX
  8
LAYER_2
 10
163.2965
 20
87.4631
  0
VERTEX
  8
LAYER_2
 10
163.6479
 20
87.4927
  0
SEQEND
  0
POLYLINE
  8
LAYER_2
  6
AIGENLINE042
 40
0.2046
 41
0.2046
 66
1
 10
0
 20
0
 30
0
 70
128
  0
VERTEX
  8
LAYER_2
 10
164.3297
 20
87.5816
 42
0.3495723095
  0
VERTEX
  8
LAYER_2
 10
174.0559
 20
98.8363
  0
SEQEND
  0
POLYLINE
  8
LAYER_2
 40
0.2046
 41
0.2046
 66
1
 10
0
 20
0
 30
0
  0
VERTEX
  8
LAYER_2
 10
174.0552
 20
99.1809
  0
VERTEX
  8
LAYER_2
 10
174.0448
 20
99.534
  0
SEQEND
  0
POLYLINE
  8
LAYER_2
 40
0.2046
 41
0.2046
 66
1
 10
0
 20
0
 30
0
  0
VERTEX
  8
LAYER_2
 10
163.2121
 20
88.6626
  0
VERTEX
  8
LAYER_2
 10
163.5635
 20
88.6936
  0
SEQEND
  0
POLYLINE
  8
LAYER_2
  6
AIGENLINE043
 40
0.2046
 41
0.2046
 66
1
 10
0
 20
0
 30
0
 70
128
  0
VERTEX
  8
LAYER_2
 10
164.2863
 20
88.7942
 42
0.2379215547
  0
VERTEX
  8
LAYER_2
 10
171.8381
 20
94.527
 42
0.1063313328
  0
VERTEX
  8
LAYER_2
 10
172.8511
 20
98.7606
  0
SEQEND
  0
POLYLINE
  8
LAYER_2
 40
0.2046
 41
0.2046
 66
1
 10
0
 20
0
 30
0
  0
VERTEX
  8
LAYER_2
 10
172.8528
 20
99.1264
  0
VERTEX
  8
LAYER_2
 10
172.8429
 20
99.4789
  0
SEQEND
  0
POLYLINE
  8
LAYER_2
 40
0.2046
 41
0.2046
 66
1
 10
0
 20
0
 30
0
  0
VERTEX
  8
LAYER_2
 10
174.8493
 20
100.4352
  0
VERTEX
  8
LAYER_2
 10
174.8493
 20
100.788
  0
SEQEND
  0
POLYLINE
  8
LAYER_2
 40
0.2046
 41
0.2046
 66
1
 10
0
 20
0
 30
0
  0
VERTEX
  8
LAYER_2
 10
174.8493
 20
101.0829
  0
VERTEX
  8
LAYER_2
 10
174.8493
 20
101.4357
  0
SEQEND
  0
POLYLINE
  8
LAYER_2
 40
0.2046
 41
0.2046
 66
1
 10
0
 20
0
 30
0
  0
VERTEX
  8
LAYER_2
 10
81.1272
 20
87.2625
  0
VERTEX
  8
LAYER_2
 10
81.4786
 20
87.2922
  0
SEQEND
  0
POLYLINE
  8
LAYER_2
  6
AIGENLINE042
 40
0.2046
 41
0.2046
 66
1
 10
0
 20
0
 30
0
 70
128
  0
VERTEX
  8
LAYER_2
 10
82.16
 20
87.3811
 42
0.3495803936
  0
VERTEX
  8
LAYER_2
 10
91.8859
 20
98.6358
  0
SEQEND
  0
POLYLINE
  8
LAYER_2
 40
0.2046
 41
0.2046
 66
1
 10
0
 20
0
 30
0
  0
VERTEX
  8
LAYER_2
 10
91.8859
 20
98.9803
  0
VERTEX
  8
LAYER_2
 10
91.8748
 20
99.3335
  0
SEQEND
  0
POLYLINE
  8
LAYER_2
 40
0.2046
 41
0.2046
 66
1
 10
0
 20
0
 30
0
  0
VERTEX
  8
LAYER_2
 10
81.0424
 20
88.4608
  0
VERTEX
  8
LAYER_2
 10
81.3945
 20
88.4911
  0
SEQEND
  0
POLYLINE
  8
LAYER_2
  6
AIGENLINE045
 40
0.2046
 41
0.2046
 66
1
 10
0
 20
0
 30
0
 70
128
  0
VERTEX
  8
LAYER_2
 10
82.1173
 20
88.5924
 42
0.2379729664
  0
VERTEX
  8
LAYER_2
 10
89.6699
 20
94.3258
 42
0.1063089254
  0
VERTEX
  8
LAYER_2
 10
90.6832
 20
98.5604
  0
SEQEND
  0
POLYLINE
  8
LAYER_2
 40
0.2046
 41
0.2046
 66
1
 10
0
 20
0
 30
0
  0
VERTEX
  8
LAYER_2
 10
90.6849
 20
98.9263
  0
VERTEX
  8
LAYER_2
 10
90.6749
 20
99.279
  0
SEQEND
  0
POLYLINE
  8
LAYER_2
  6
AIGENLINE002
 40
0.2046
 41
0.2046
 66
1
 10
0
 20
0
 30
0
 70
128
  0
VERTEX
  8
LAYER_2
 10
92.3795
 20
99.935
 42
0.3928153267
  0
VERTEX
  8
LAYER_2
 10
92.68
 20
100.2347
  0
SEQEND
  0
POLYLINE
  8
LAYER_2
 40
0.2046
 41
0.2046
 66
1
 10
0
 20
0
 30
0
  0
VERTEX
  8
LAYER_2
 10
92.68
 20
101.2352
  0
VERTEX
  8
LAYER_2
 10
92.68
 20
100.882
  0
SEQEND
  0
POLYLINE
  8
LAYER_2
 40
0.2046
 41
0.2046
 66
1
 10
0
 20
0
 30
0
  0
VERTEX
  8
LAYER_2
 10
92.68
 20
100.5875
  0
VERTEX
  8
LAYER_2
 10
92.68
 20
100.2347
  0
SEQEND
  0
POLYLINE
  8
LAYER_2
  6
AIGENLINE002
 40
0.2046
 41
0.2046
 66
1
 10
0
 20
0
 30
0
 70
128
  0
VERTEX
  8
LAYER_2
 10
92.68
 20
101.2352
 42
0.3931757024
  0
VERTEX
  8
LAYER_2
 10
92.3795
 20
101.5352
  0
SEQEND
  0
POLYLINE
  8
LAYER_2
 40
0.2046
 41
0.2046
 66
1
 10
0
 20
0
 30
0
  0
VERTEX
  8
LAYER_2
 10
92.3795
 20
99.935
 42
0.1259774033
  0
VERTEX
  8
LAYER_2
 10
92.0764
 20
99.7583
  0
SEQEND
  0
POLYLINE
  8
LAYER_2
 40
0.2046
 41
0.2046
 66
1
 10
0
 20
0
 30
0
  0
VERTEX
  8
LAYER_2
 10
91.9965
 20
99.6625
 42
0.1288758406
  0
VERTEX
  8
LAYER_2
 10
91.8752
 20
99.3335
  0
SEQEND
  0
POLYLINE
  8
LAYER_2
  6
AIGENLINE037
 40
0.2046
 41
0.2046
 66
1
 10
0
 20
0
 30
0
 70
128
  0
VERTEX
  8
LAYER_2
 10
92.3795
 20
101.5349
  0
VERTEX
  8
LAYER_2
 10
92.179
 20
101.5349
  0
SEQEND
  0
POLYLINE
  8
LAYER_2
  6
AIGENLINE046
 40
0.2046
 41
0.2046
 66
1
 10
0
 20
0
 30
0
 70
128
  0
VERTEX
  8
LAYER_2
 10
91.1634
 20
101.5349
  0
VERTEX
  8
LAYER_2
 10
90.9636
 20
101.5349
  0
SEQEND
  0
POLYLINE
  8
LAYER_2
  6
AIGENLINE039
 40
0.2046
 41
0.2046
 66
1
 10
0
 20
0
 30
0
 70
128
  0
VERTEX
  8
LAYER_2
 10
90.9636
 20
101.5349
 42
0.392690806
  0
VERTEX
  8
LAYER_2
 10
90.677
 20
101.2696
  0
VERTEX
  8
LAYER_2
 10
90.677
 20
101.2589
  0
SEQEND
  0
POLYLINE
  8
LAYER_2
 40
0.2046
 41
0.2046
 66
1
 10
0
 20
0
 30
0
  0
VERTEX
  8
LAYER_2
 10
90.677
 20
101.2586
  0
VERTEX
  8
LAYER_2
 10
90.6766
 20
100.9058
  0
SEQEND
  0
POLYLINE
  8
LAYER_2
  6
AIGENLINE041
 40
0.2046
 41
0.2046
 66
1
 10
0
 20
0
 30
0
 70
128
  0
VERTEX
  8
LAYER_2
 10
90.6756
 20
100.4814
  0
VERTEX
  8
LAYER_2
 10
90.6742
 20
99.8437
  0
SEQEND
  0
POLYLINE
  8
LAYER_2
 40
0.2046
 41
0.2046
 66
1
 10
0
 20
0
 30
0
  0
VERTEX
  8
LAYER_2
 10
90.6742
 20
99.6311
  0
VERTEX
  8
LAYER_2
 10
90.6735
 20
99.2784
  0
SEQEND
  0
POLYLINE
  8
LAYER_2
 40
0.2046
 41
0.2046
 66
1
 10
0
 20
0
 30
0
  0
VERTEX
  8
LAYER_2
 10
91.1634
 20
101.5349
 42
0.1183005441
  0
VERTEX
  8
LAYER_2
 10
91.4687
 20
101.3626
  0
SEQEND
  0
POLYLINE
  8
LAYER_2
 40
0.2046
 41
0.2046
 66
1
 10
0
 20
0
 30
0
  0
VERTEX
  8
LAYER_2
 10
91.8742
 20
101.3633
 42
0.1189194492
  0
VERTEX
  8
LAYER_2
 10
92.1794
 20
101.5349
  0
SEQEND
  0
POLYLINE
  8
LAYER_2
 40
0.2046
 41
0.2046
 66
1
 10
0
 20
0
 30
0
  0
VERTEX
  8
LAYER_2
 10
91.1634
 20
101.5349
  0
VERTEX
  8
LAYER_2
 10
91.5162
 20
101.5349
  0
SEQEND
  0
POLYLINE
  8
LAYER_2
 40
0.2046
 41
0.2046
 66
1
 10
0
 20
0
 30
0
  0
VERTEX
  8
LAYER_2
 10
91.8263
 20
101.5349
  0
VERTEX
  8
LAYER_2
 10
92.1794
 20
101.5349
  0
SEQEND
  0
INSERT
  8
LAYER_2
  2
AIGNBL0201002E
 10
0
 20
0
 30
0
  0
POLYLINE
  8
LAYER_2
 40
0.2046
 41
0.2046
 66
1
 10
0
 20
0
 30
0
  0
VERTEX
  8
LAYER_2
 10
92.3795
 20
99.935
 42
0.1259774033
  0
VERTEX
  8
LAYER_2
 10
92.0764
 20
99.7583
  0
SEQEND
  0
POLYLINE
  8
LAYER_2
 40
0.2046
 41
0.2046
 66
1
 10
0
 20
0
 30
0
  0
VERTEX
  8
LAYER_2
 10
91.9965
 20
99.6625
 42
0.1288758406
  0
VERTEX
  8
LAYER_2
 10
91.8752
 20
99.3335
  0
SEQEND
  0
POLYLINE
  8
LAYER_2
 40
0.2046
 41
0.2046
 66
1
 10
0
 20
0
 30
0
  0
VERTEX
  8
LAYER_2
 10
92.68
 20
100.2347
  0
VERTEX
  8
LAYER_2
 10
92.68
 20
100.5875
  0
SEQEND
  0
POLYLINE
  8
LAYER_2
 40
0.2046
 41
0.2046
 66
1
 10
0
 20
0
 30
0
  0
VERTEX
  8
LAYER_2
 10
92.68
 20
100.8824
  0
VERTEX
  8
LAYER_2
 10
92.68
 20
101.2352
  0
SEQEND
  0
POLYLINE
  8
LAYER_2
  6
AIGENLINE036
 40
0.2046
 41
0.2046
 66
1
 10
0
 20
0
 30
0
 70
128
  0
VERTEX
  8
LAYER_2
 10
51.8783
 20
99.5347
  0
VERTEX
  8
LAYER_2
 10
51.2782
 20
99.5347
  0
SEQEND
  0
POLYLINE
  8
LAYER_2
  6
AIGENLINE047
 40
0.2046
 41
0.2046
 66
1
 10
0
 20
0
 30
0
 70
128
  0
VERTEX
  8
LAYER_2
 10
50.9826
 20
99.7851
 42
0.3665155702
  0
VERTEX
  8
LAYER_2
 10
51.2782
 20
99.5347
  0
SEQEND
  0
POLYLINE
  8
LAYER_2
  6
AIGENLINE048
 40
0.2046
 41
0.2046
 66
1
 10
0
 20
0
 30
0
 70
128
  0
VERTEX
  8
LAYER_2
 10
50.9826
 20
99.7851
 42
0.3504434904
  0
VERTEX
  8
LAYER_2
 10
50.6867
 20
100.0356
  0
SEQEND
  0
POLYLINE
  8
LAYER_2
 40
0.2046
 41
0.2046
 66
1
 10
0
 20
0
 30
0
  0
VERTEX
  8
LAYER_2
 10
49.9808
 20
100.0349
  0
VERTEX
  8
LAYER_2
 10
50.3335
 20
100.0349
  0
SEQEND
  0
POLYLINE
  8
LAYER_2
 40
0.2046
 41
0.2046
 66
1
 10
0
 20
0
 30
0
  0
VERTEX
  8
LAYER_2
 10
50.3335
 20
100.0349
  0
VERTEX
  8
LAYER_2
 10
50.6863
 20
100.0356
  0
SEQEND
  0
POLYLINE
  8
LAYER_2
 40
0.2046
 41
0.2046
 66
1
 10
0
 20
0
 30
0
  0
VERTEX
  8
LAYER_2
 10
52.178
 20
99.8351
  0
VERTEX
  8
LAYER_2
 10
52.1898
 20
99.4823
  0
SEQEND
  0
POLYLINE
  8
LAYER_2
  6
AIGENLINE049
 40
0.2046
 41
0.2046
 66
1
 10
0
 20
0
 30
0
 70
128
  0
VERTEX
  8
LAYER_2
 10
52.209
 20
98.8539
  0
VERTEX
  8
LAYER_2
 10
52.2394
 20
97.9113
  0
SEQEND
  0
POLYLINE
  8
LAYER_2
 40
0.2046
 41
0.2046
 66
1
 10
0
 20
0
 30
0
  0
VERTEX
  8
LAYER_2
 10
52.2497
 20
97.5971
  0
VERTEX
  8
LAYER_2
 10
52.2607
 20
97.2444
  0
SEQEND
  0
POLYLINE
  8
LAYER_2
 40
0.2046
 41
0.2046
 66
1
 10
0
 20
0
 30
0
  0
VERTEX
  8
LAYER_2
 10
50.9826
 20
99.7851
  0
VERTEX
  8
LAYER_2
 10
50.9922
 20
99.432
  0
SEQEND
  0
POLYLINE
  8
LAYER_2
  6
AIGENLINE050
 40
0.2046
 41
0.2046
 66
1
 10
0
 20
0
 30
0
 70
128
  0
VERTEX
  8
LAYER_2
 10
51.0091
 20
98.8171
  0
VERTEX
  8
LAYER_2
 10
51.0346
 20
97.8951
  0
SEQEND
  0
POLYLINE
  8
LAYER_2
 40
0.2046
 41
0.2046
 66
1
 10
0
 20
0
 30
0
  0
VERTEX
  8
LAYER_2
 10
51.0425
 20
97.5878
  0
VERTEX
  8
LAYER_2
 10
51.0522
 20
97.2347
  0
SEQEND
  0
ENDSEC
  0
EOF
