  0
SECTION
  2
HEADER
  9
$ACADVER
  1
AC1009
  9
$LUNITS
 70
2
  9
$LUPREC
 70
4
  9
$LTSCALE
 40
1.0
  9
$EXTMIN
 10
-30.3177
 20
33.3285
 30
0
  9
$EXTMAX
 10
251.6749
 20
230.337
 30
0
  0
ENDSEC
  0
SECTION
  2
TABLES
  0
TABLE
  2
LTYPE
 70
256
  0
LTYPE
  2
AIGENLINE001
 70
64
  3
generate AI->DXF Converter
 72
65
 73
2
 40
0.2286
 49
0
 49
-0.2286
  0
LTYPE
  2
AIGENLINE002
 70
64
  3
generate AI->DXF Converter
 72
65
 73
2
 40
0.2166
 49
0
 49
-0.2166
  0
LTYPE
  2
AIGENLINE003
 70
64
  3
generate AI->DXF Converter
 72
65
 73
2
 40
0.2293
 49
0
 49
-0.2293
  0
LTYPE
  2
AIGENLINE004
 70
64
  3
generate AI->DXF Converter
 72
65
 73
2
 40
0.2222
 49
0
 49
-0.2222
  0
LTYPE
  2
AIGENLINE005
 70
64
  3
generate AI->DXF Converter
 72
65
 73
2
 40
0.2201
 49
0
 49
-0.2201
  0
LTYPE
  2
AIGENLINE006
 70
64
  3
generate AI->DXF Converter
 72
65
 73
2
 40
0.224
 49
0
 49
-0.224
  0
LTYPE
  2
AIGENLINE007
 70
64
  3
generate AI->DXF Converter
 72
65
 73
2
 40
0.1887
 49
0
 49
-0.1887
  0
LTYPE
  2
AIGENLINE008
 70
64
  3
generate AI->DXF Converter
 72
65
 73
2
 40
0.2173
 49
0
 49
-0.2173
  0
LTYPE
  2
AIGENLINE009
 70
64
  3
generate AI->DXF Converter
 72
65
 73
2
 40
0.212
 49
0
 49
-0.212
  0
LTYPE
  2
AIGENLINE010
 70
64
  3
generate AI->DXF Converter
 72
65
 73
2
 40
0.2237
 49
0
 49
-0.2237
  0
LTYPE
  2
AIGENLINE011
 70
64
  3
generate AI->DXF Converter
 72
65
 73
2
 40
0.2208
 49
0
 49
-0.2208
  0
LTYPE
  2
AIGENLINE012
 70
64
  3
generate AI->DXF Converter
 72
65
 73
2
 40
0.2148
 49
0
 49
-0.2148
  0
LTYPE
  2
AIGENLINE013
 70
64
  3
generate AI->DXF Converter
 72
65
 73
2
 40
0.2215
 49
0
 49
-0.2215
  0
LTYPE
  2
AIGENLINE014
 70
64
  3
generate AI->DXF Converter
 72
65
 73
2
 40
9.525
 49
6.35
 49
-3.175
  0
ENDTAB
  0
TABLE
  2
LAYER
 70
2
  0
LAYER
  2
LAYER_1
 70
64
 62
7
  6
CONTINUOUS
  0
LAYER
  2
LAYER_2
 70
64
 62
7
  6
CONTINUOUS
  0
ENDTAB
  0
TABLE
  2
STYLE
 70
6
  0
STYLE
  2
STANDARD
 70
0
 40
0
 50
0
 71
0
 41
0
 42
0
  3
TXT
  4
BIGFONT
  0
ENDTAB
  0
ENDSEC
  0
SECTION
  2
BLOCKS
  0
BLOCK
  8
LAYER_2
  2
AIGNBL02040009
 70
64
 10
0
 20
0
 30
0
  3
AIGNBL02040009
  0
POLYLINE
  8
LAYER_2
 40
0.05
 41
0.05
 66
1
 10
0
 20
0
 30
0
 70
1
  0
VERTEX
  8
LAYER_2
 10
146.7545
 20
39.1418
  0
VERTEX
  8
LAYER_2
 10
146.2656
 20
37.9567
  0
VERTEX
  8
LAYER_2
 10
145.6376
 20
37.9567
  0
VERTEX
  8
LAYER_2
 10
147.2372
 20
41.7225
  0
VERTEX
  8
LAYER_2
 10
147.9703
 20
41.7225
  0
VERTEX
  8
LAYER_2
 10
149.5768
 20
37.9567
  0
VERTEX
  8
LAYER_2
 10
148.9267
 20
37.9567
  0
VERTEX
  8
LAYER_2
 10
148.424
 20
39.1418
  0
SEQEND
  0
POLYLINE
  8
LAYER_2
 40
0.05
 41
0.05
 66
1
 10
0
 20
0
 30
0
 70
1
  0
VERTEX
  8
LAYER_2
 10
148.2983
 20
39.5207
  0
VERTEX
  8
LAYER_2
 10
147.8373
 20
40.6056
 42
-0.02317247198
  0
VERTEX
  8
LAYER_2
 10
147.5927
 20
41.2926
  0
VERTEX
  8
LAYER_2
 10
147.5789
 20
41.2926
 42
-0.02064481114
  0
VERTEX
  8
LAYER_2
 10
147.3412
 20
40.6101
  0
VERTEX
  8
LAYER_2
 10
146.8806
 20
39.5207
  0
SEQEND
  0
ENDBLK
  0
BLOCK
  8
LAYER_2
  2
AIGNBL0204000A
 70
64
 10
0
 20
0
 30
0
  3
AIGNBL0204000A
  0
POLYLINE
  8
LAYER_2
 40
0.05
 41
0.05
 66
1
 10
0
 20
0
 30
0
 70
1
  0
VERTEX
  8
LAYER_2
 10
153.942
 20
37.4034
 42
-0.01520763512
  0
VERTEX
  8
LAYER_2
 10
152.1399
 20
37.8395
 42
0.09160443264
  0
VERTEX
  8
LAYER_2
 10
151.8533
 20
37.895
 42
-0.09256808484
  0
VERTEX
  8
LAYER_2
 10
150.8994
 20
38.0977
 42
-0.09799469934
  0
VERTEX
  8
LAYER_2
 10
150.2621
 20
38.5324
 42
-0.1630918382
  0
VERTEX
  8
LAYER_2
 10
149.7964
 20
39.5259
 42
-0.0316951694
  0
VERTEX
  8
LAYER_2
 10
149.7793
 20
39.7998
 42
-0.1055313794
  0
VERTEX
  8
LAYER_2
 10
149.9533
 20
40.6417
 42
-0.1619874109
  0
VERTEX
  8
LAYER_2
 10
150.7418
 20
41.4867
 42
-0.09224146328
  0
VERTEX
  8
LAYER_2
 10
151.5409
 20
41.7524
 42
-0.03717154931
  0
VERTEX
  8
LAYER_2
 10
151.9725
 20
41.7838
 42
-0.09530639066
  0
VERTEX
  8
LAYER_2
 10
152.9361
 20
41.6062
 42
-0.1001950085
  0
VERTEX
  8
LAYER_2
 10
153.5732
 20
41.1834
 42
-0.1611155306
  0
VERTEX
  8
LAYER_2
 10
154.0599
 20
40.1825
 42
-0.03590167283
  0
VERTEX
  8
LAYER_2
 10
154.0815
 20
39.8784
 42
-0.1066761192
  0
VERTEX
  8
LAYER_2
 10
153.9051
 20
39.0236
 42
-0.2183970027
  0
VERTEX
  8
LAYER_2
 10
152.7953
 20
38.0897
 42
-0.006706711403
  0
VERTEX
  8
LAYER_2
 10
152.7407
 20
38.0738
  0
VERTEX
  8
LAYER_2
 10
152.7407
 20
38.0514
 42
0.01533555045
  0
VERTEX
  8
LAYER_2
 10
154.117
 20
37.8113
  0
SEQEND
  0
POLYLINE
  8
LAYER_2
 40
0.05
 41
0.05
 66
1
 10
0
 20
0
 30
0
 70
1
  0
VERTEX
  8
LAYER_2
 10
153.4394
 20
39.857
 42
0.1175610784
  0
VERTEX
  8
LAYER_2
 10
153.257
 20
40.6254
 42
0.1170135141
  0
VERTEX
  8
LAYER_2
 10
152.8315
 20
41.1234
 42
0.1200044572
  0
VERTEX
  8
LAYER_2
 10
152.2186
 20
41.3675
 42
0.03774262044
  0
VERTEX
  8
LAYER_2
 10
151.9511
 20
41.3873
 42
0.1153139376
  0
VERTEX
  8
LAYER_2
 10
151.2089
 20
41.2226
 42
0.1853550912
  0
VERTEX
  8
LAYER_2
 10
150.5507
 20
40.4882
 42
0.09859892291
  0
VERTEX
  8
LAYER_2
 10
150.4287
 20
39.8122
 42
0.1178359247
  0
VERTEX
  8
LAYER_2
 10
150.5964
 20
39.0734
 42
0.2866694251
  0
VERTEX
  8
LAYER_2
 10
151.9232
 20
38.2912
 42
0.1188197759
  0
VERTEX
  8
LAYER_2
 10
152.6722
 20
38.4633
 42
0.1796740134
  0
VERTEX
  8
LAYER_2
 10
153.3126
 20
39.18
 42
0.09850052237
  0
SEQEND
  0
ENDBLK
  0
BLOCK
  8
LAYER_2
  2
AIGNBL0204000B
 70
64
 10
0
 20
0
 30
0
  3
AIGNBL0204000B
  0
POLYLINE
  8
LAYER_2
 40
0.05
 41
0.05
 66
1
 10
0
 20
0
 30
0
 70
1
  0
VERTEX
  8
LAYER_2
 10
155.4089
 20
41.7225
  0
VERTEX
  8
LAYER_2
 10
155.4089
 20
39.4932
 42
0.1220213404
  0
VERTEX
  8
LAYER_2
 10
155.569
 20
38.7775
 42
0.2218709818
  0
VERTEX
  8
LAYER_2
 10
156.2104
 20
38.3206
 42
0.05223876895
  0
VERTEX
  8
LAYER_2
 10
156.5055
 20
38.2912
 42
0.1302821267
  0
VERTEX
  8
LAYER_2
 10
157.1748
 20
38.452
 42
0.1509367336
  0
VERTEX
  8
LAYER_2
 10
157.526
 20
38.8454
 42
0.1174732039
  0
VERTEX
  8
LAYER_2
 10
157.651
 20
39.4932
  0
VERTEX
  8
LAYER_2
 10
157.651
 20
41.7225
  0
VERTEX
  8
LAYER_2
 10
158.2656
 20
41.7225
  0
VERTEX
  8
LAYER_2
 10
158.2656
 20
39.5266
 42
-0.1106199636
  0
VERTEX
  8
LAYER_2
 10
158.0961
 20
38.708
 42
-0.1822316276
  0
VERTEX
  8
LAYER_2
 10
157.4057
 20
38.0637
 42
-0.09768689614
  0
VERTEX
  8
LAYER_2
 10
156.6028
 20
37.8972
 42
-0.01000776787
  0
VERTEX
  8
LAYER_2
 10
156.4845
 20
37.895
 42
-0.09899539667
  0
VERTEX
  8
LAYER_2
 10
155.612
 20
38.0554
 42
-0.120955925
  0
VERTEX
  8
LAYER_2
 10
155.1093
 20
38.4366
 42
-0.1193006487
  0
VERTEX
  8
LAYER_2
 10
154.8407
 20
39.0316
 42
-0.05319923583
  0
VERTEX
  8
LAYER_2
 10
154.7943
 20
39.5045
  0
VERTEX
  8
LAYER_2
 10
154.7943
 20
41.7225
  0
SEQEND
  0
ENDBLK
  0
BLOCK
  8
LAYER_2
  2
AIGNBL0204000C
 70
64
 10
0
 20
0
 30
0
  3
AIGNBL0204000C
  0
POLYLINE
  8
LAYER_2
 40
0.05
 41
0.05
 66
1
 10
0
 20
0
 30
0
 70
1
  0
VERTEX
  8
LAYER_2
 10
160.0119
 20
39.1418
  0
VERTEX
  8
LAYER_2
 10
159.5227
 20
37.9567
  0
VERTEX
  8
LAYER_2
 10
158.8947
 20
37.9567
  0
VERTEX
  8
LAYER_2
 10
160.4939
 20
41.7225
  0
VERTEX
  8
LAYER_2
 10
161.227
 20
41.7225
  0
VERTEX
  8
LAYER_2
 10
162.8335
 20
37.9567
  0
VERTEX
  8
LAYER_2
 10
162.1841
 20
37.9567
  0
VERTEX
  8
LAYER_2
 10
161.6814
 20
39.1418
  0
SEQEND
  0
POLYLINE
  8
LAYER_2
 40
0.05
 41
0.05
 66
1
 10
0
 20
0
 30
0
 70
1
  0
VERTEX
  8
LAYER_2
 10
161.5553
 20
39.5207
  0
VERTEX
  8
LAYER_2
 10
161.094
 20
40.6056
 42
-0.02227599701
  0
VERTEX
  8
LAYER_2
 10
160.8494
 20
41.2926
  0
VERTEX
  8
LAYER_2
 10
160.8357
 20
41.2926
 42
-0.0208222547
  0
VERTEX
  8
LAYER_2
 10
160.5983
 20
40.6101
  0
VERTEX
  8
LAYER_2
 10
160.1373
 20
39.5207
  0
SEQEND
  0
ENDBLK
  0
BLOCK
  8
LAYER_2
  2
AIGNBL0204000D
 70
64
 10
0
 20
0
 30
0
  3
AIGNBL0204000D
  0
POLYLINE
  8
LAYER_2
 40
0.05
 41
0.05
 66
1
 10
0
 20
0
 30
0
 70
1
  0
VERTEX
  8
LAYER_2
 10
163.8742
 20
41.6777
 42
-0.03334485223
  0
VERTEX
  8
LAYER_2
 10
165.0411
 20
41.7508
 42
-0.08844478427
  0
VERTEX
  8
LAYER_2
 10
166.0871
 20
41.5858
 42
-0.06037505309
  0
VERTEX
  8
LAYER_2
 10
166.3609
 20
41.4379
 42
-0.2472514979
  0
VERTEX
  8
LAYER_2
 10
166.7726
 20
40.6497
 42
-0.1483298328
  0
VERTEX
  8
LAYER_2
 10
166.6029
 20
40.0554
 42
-0.07223194904
  0
VERTEX
  8
LAYER_2
 10
166.4095
 20
39.8456
 42
-0.1209372404
  0
VERTEX
  8
LAYER_2
 10
165.7228
 20
39.517
 42
-0.06224269186
  0
VERTEX
  8
LAYER_2
 10
164.9708
 20
39.4319
 42
-0.05738783264
  0
VERTEX
  8
LAYER_2
 10
164.4823
 20
39.4653
  0
VERTEX
  8
LAYER_2
 10
164.4823
 20
37.9567
  0
VERTEX
  8
LAYER_2
 10
163.8742
 20
37.9567
  0
SEQEND
  0
POLYLINE
  8
LAYER_2
 40
0.05
 41
0.05
 66
1
 10
0
 20
0
 30
0
 70
1
  0
VERTEX
  8
LAYER_2
 10
164.4823
 20
39.8622
 42
0.05012782438
  0
VERTEX
  8
LAYER_2
 10
164.9846
 20
39.8229
 42
0.1135299982
  0
VERTEX
  8
LAYER_2
 10
165.7697
 20
39.9822
 42
0.1653556145
  0
VERTEX
  8
LAYER_2
 10
166.1074
 20
40.3302
 42
0.1044590446
  0
VERTEX
  8
LAYER_2
 10
166.1656
 20
40.6273
 42
0.2826437488
  0
VERTEX
  8
LAYER_2
 10
165.8147
 20
41.2103
 42
0.0629694601
  0
VERTEX
  8
LAYER_2
 10
165.549
 20
41.3107
 42
0.06259589917
  0
VERTEX
  8
LAYER_2
 10
165.0552
 20
41.3649
 42
0.05192366909
  0
VERTEX
  8
LAYER_2
 10
164.4823
 20
41.3257
  0
SEQEND
  0
ENDBLK
  0
BLOCK
  8
LAYER_2
  2
AIGNBL0204000E
 70
64
 10
0
 20
0
 30
0
  3
AIGNBL0204000E
  0
POLYLINE
  8
LAYER_2
 40
0.05
 41
0.05
 66
1
 10
0
 20
0
 30
0
 70
1
  0
VERTEX
  8
LAYER_2
 10
168.3246
 20
41.4207
 42
-0.3048675751
  0
VERTEX
  8
LAYER_2
 10
168.1582
 20
41.1661
 42
-0.1151020929
  0
VERTEX
  8
LAYER_2
 10
167.9329
 20
41.1189
 42
-0.2442513348
  0
VERTEX
  8
LAYER_2
 10
167.6028
 20
41.2794
 42
-0.1394546152
  0
VERTEX
  8
LAYER_2
 10
167.5626
 20
41.4207
 42
-0.287439772
  0
VERTEX
  8
LAYER_2
 10
167.7346
 20
41.6803
 42
-0.1179404017
  0
VERTEX
  8
LAYER_2
 10
167.9467
 20
41.7277
 42
-0.2416274379
  0
VERTEX
  8
LAYER_2
 10
168.2814
 20
41.5719
 42
-0.1426378456
  0
SEQEND
  0
POLYLINE
  8
LAYER_2
 40
0.05
 41
0.05
 66
1
 10
0
 20
0
 30
0
 70
1
  0
VERTEX
  8
LAYER_2
 10
167.639
 20
37.9567
  0
VERTEX
  8
LAYER_2
 10
167.639
 20
40.6607
  0
VERTEX
  8
LAYER_2
 10
168.2537
 20
40.6607
  0
VERTEX
  8
LAYER_2
 10
168.2537
 20
37.9567
  0
SEQEND
  0
ENDBLK
  0
BLOCK
  8
LAYER_2
  2
AIGNBL0204000F
 70
64
 10
0
 20
0
 30
0
  3
AIGNBL0204000F
  0
POLYLINE
  8
LAYER_2
 40
0.05
 41
0.05
 66
1
 10
0
 20
0
 30
0
 70
1
  0
VERTEX
  8
LAYER_2
 10
170.1254
 20
39.1418
  0
VERTEX
  8
LAYER_2
 10
169.6372
 20
37.9567
  0
VERTEX
  8
LAYER_2
 10
169.0081
 20
37.9567
  0
VERTEX
  8
LAYER_2
 10
170.6077
 20
41.7225
  0
VERTEX
  8
LAYER_2
 10
171.3415
 20
41.7225
  0
VERTEX
  8
LAYER_2
 10
172.9479
 20
37.9567
  0
VERTEX
  8
LAYER_2
 10
172.2982
 20
37.9567
  0
VERTEX
  8
LAYER_2
 10
171.7955
 20
39.1418
  0
SEQEND
  0
POLYLINE
  8
LAYER_2
 40
0.05
 41
0.05
 66
1
 10
0
 20
0
 30
0
 70
1
  0
VERTEX
  8
LAYER_2
 10
171.6695
 20
39.5207
  0
VERTEX
  8
LAYER_2
 10
171.2085
 20
40.6056
 42
-0.02430767271
  0
VERTEX
  8
LAYER_2
 10
170.9646
 20
41.2926
  0
VERTEX
  8
LAYER_2
 10
170.9498
 20
41.2926
 42
-0.02034719794
  0
VERTEX
  8
LAYER_2
 10
170.7128
 20
40.6101
  0
VERTEX
  8
LAYER_2
 10
170.2518
 20
39.5207
  0
SEQEND
  0
ENDBLK
  0
BLOCK
  8
LAYER_2
  2
AIGNBL02030008
 70
64
 10
0
 20
0
 30
0
  3
AIGNBL02030008
  0
INSERT
  8
LAYER_2
  2
AIGNBL02040009
 10
0
 20
0
 30
0
  0
INSERT
  8
LAYER_2
  2
AIGNBL0204000A
 10
0
 20
0
 30
0
  0
INSERT
  8
LAYER_2
  2
AIGNBL0204000B
 10
0
 20
0
 30
0
  0
INSERT
  8
LAYER_2
  2
AIGNBL0204000C
 10
0
 20
0
 30
0
  0
INSERT
  8
LAYER_2
  2
AIGNBL0204000D
 10
0
 20
0
 30
0
  0
INSERT
  8
LAYER_2
  2
AIGNBL0204000E
 10
0
 20
0
 30
0
  0
INSERT
  8
LAYER_2
  2
AIGNBL0204000F
 10
0
 20
0
 30
0
  0
ENDBLK
  0
BLOCK
  8
LAYER_2
  2
AIGNBL02030011
 70
64
 10
0
 20
0
 30
0
  3
AIGNBL02030011
  0
POLYLINE
  8
LAYER_2
 40
0.05
 41
0.05
 66
1
 10
0
 20
0
 30
0
 70
1
  0
VERTEX
  8
LAYER_2
 10
145.7475
 20
36.0574
  0
VERTEX
  8
LAYER_2
 10
146.3008
 20
36.0574
  0
VERTEX
  8
LAYER_2
 10
146.3008
 20
35.9637
  0
VERTEX
  8
LAYER_2
 10
145.6424
 20
35.9637
  0
VERTEX
  8
LAYER_2
 10
145.6424
 20
36.9969
  0
VERTEX
  8
LAYER_2
 10
146.2832
 20
36.9969
  0
VERTEX
  8
LAYER_2
 10
146.2832
 20
36.9035
  0
VERTEX
  8
LAYER_2
 10
145.7475
 20
36.9035
  0
VERTEX
  8
LAYER_2
 10
145.7475
 20
36.549
  0
VERTEX
  8
LAYER_2
 10
146.2481
 20
36.549
  0
VERTEX
  8
LAYER_2
 10
146.2481
 20
36.4557
  0
VERTEX
  8
LAYER_2
 10
145.7475
 20
36.4557
  0
SEQEND
  0
ENDBLK
  0
BLOCK
  8
LAYER_2
  2
AIGNBL02030012
 70
64
 10
0
 20
0
 30
0
  3
AIGNBL02030012
  0
POLYLINE
  8
LAYER_2
 40
0.05
 41
0.05
 66
1
 10
0
 20
0
 30
0
 70
1
  0
VERTEX
  8
LAYER_2
 10
147.4404
 20
36.117
  0
VERTEX
  8
LAYER_2
 10
147.4432
 20
36.117
  0
VERTEX
  8
LAYER_2
 10
147.4432
 20
36.9969
  0
VERTEX
  8
LAYER_2
 10
147.5483
 20
36.9969
  0
VERTEX
  8
LAYER_2
 10
147.5483
 20
35.9637
  0
VERTEX
  8
LAYER_2
 10
147.4174
 20
35.9637
  0
VERTEX
  8
LAYER_2
 10
146.8162
 20
36.8525
  0
VERTEX
  8
LAYER_2
 10
146.8127
 20
36.8525
  0
VERTEX
  8
LAYER_2
 10
146.8127
 20
35.9637
  0
VERTEX
  8
LAYER_2
 10
146.708
 20
35.9637
  0
VERTEX
  8
LAYER_2
 10
146.708
 20
36.9969
  0
VERTEX
  8
LAYER_2
 10
146.8393
 20
36.9969
  0
SEQEND
  0
ENDBLK
  0
BLOCK
  8
LAYER_2
  2
AIGNBL02030013
 70
64
 10
0
 20
0
 30
0
  3
AIGNBL02030013
  0
POLYLINE
  8
LAYER_2
 40
0.05
 41
0.05
 66
1
 10
0
 20
0
 30
0
 70
1
  0
VERTEX
  8
LAYER_2
 10
148.0213
 20
36.1756
 42
0.1557655154
  0
VERTEX
  8
LAYER_2
 10
148.0757
 20
36.0725
 42
0.1918235184
  0
VERTEX
  8
LAYER_2
 10
148.1891
 20
36.0309
  0
VERTEX
  8
LAYER_2
 10
148.2783
 20
36.0505
  0
VERTEX
  8
LAYER_2
 10
148.3344
 20
36.1039
  0
VERTEX
  8
LAYER_2
 10
148.3634
 20
36.1804
  0
VERTEX
  8
LAYER_2
 10
148.3717
 20
36.27
  0
VERTEX
  8
LAYER_2
 10
148.3717
 20
36.9969
  0
VERTEX
  8
LAYER_2
 10
148.4767
 20
36.9969
  0
VERTEX
  8
LAYER_2
 10
148.4767
 20
36.2614
  0
VERTEX
  8
LAYER_2
 10
148.4654
 20
36.1535
 42
-0.0973308998
  0
VERTEX
  8
LAYER_2
 10
148.424
 20
36.0485
 42
-0.1149355521
  0
VERTEX
  8
LAYER_2
 10
148.3393
 20
35.9689
 42
-0.1249341208
  0
VERTEX
  8
LAYER_2
 10
148.2004
 20
35.9375
 42
-0.1793665557
  0
VERTEX
  8
LAYER_2
 10
148.0158
 20
35.9974
 42
-0.1772363953
  0
VERTEX
  8
LAYER_2
 10
147.9234
 20
36.149
  0
SEQEND
  0
ENDBLK
  0
BLOCK
  8
LAYER_2
  2
AIGNBL02030014
 70
64
 10
0
 20
0
 30
0
  3
AIGNBL02030014
  0
POLYLINE
  8
LAYER_2
 40
0.05
 41
0.05
 66
1
 10
0
 20
0
 30
0
 70
1
  0
VERTEX
  8
LAYER_2
 10
149.965
 20
36.4805
 42
-0.1019307791
  0
VERTEX
  8
LAYER_2
 10
149.924
 20
36.2631
 42
-0.1000112985
  0
VERTEX
  8
LAYER_2
 10
149.8113
 20
36.0915
 42
-0.09646612644
  0
VERTEX
  8
LAYER_2
 10
149.6405
 20
35.9785
 42
-0.09758594962
  0
VERTEX
  8
LAYER_2
 10
149.4265
 20
35.9375
 42
-0.1000844711
  0
VERTEX
  8
LAYER_2
 10
149.2129
 20
35.9785
 42
-0.09954994557
  0
VERTEX
  8
LAYER_2
 10
149.042
 20
36.0915
 42
-0.09699237735
  0
VERTEX
  8
LAYER_2
 10
148.9287
 20
36.2631
 42
-0.09653980076
  0
VERTEX
  8
LAYER_2
 10
148.8881
 20
36.4805
 42
-0.1004051845
  0
VERTEX
  8
LAYER_2
 10
148.9287
 20
36.6978
 42
-0.0998654539
  0
VERTEX
  8
LAYER_2
 10
149.042
 20
36.8694
 42
-0.09851519288
  0
VERTEX
  8
LAYER_2
 10
149.2129
 20
36.9824
 42
-0.09768823248
  0
VERTEX
  8
LAYER_2
 10
149.4265
 20
37.0234
 42
-0.1000514256
  0
VERTEX
  8
LAYER_2
 10
149.6405
 20
36.9824
 42
-0.09863053528
  0
VERTEX
  8
LAYER_2
 10
149.8113
 20
36.8694
 42
-0.09807107579
  0
VERTEX
  8
LAYER_2
 10
149.924
 20
36.6978
 42
-0.0978256893
  0
SEQEND
  0
POLYLINE
  8
LAYER_2
 40
0.05
 41
0.05
 66
1
 10
0
 20
0
 30
0
 70
1
  0
VERTEX
  8
LAYER_2
 10
149.8541
 20
36.4798
 42
0.08634913196
  0
VERTEX
  8
LAYER_2
 10
149.8251
 20
36.6517
 42
0.09649608129
  0
VERTEX
  8
LAYER_2
 10
149.7404
 20
36.795
 42
0.1032857511
  0
VERTEX
  8
LAYER_2
 10
149.6053
 20
36.8932
 42
0.1061320656
  0
VERTEX
  8
LAYER_2
 10
149.4265
 20
36.93
 42
0.1115874499
  0
VERTEX
  8
LAYER_2
 10
149.2478
 20
36.8932
 42
0.1058584166
  0
VERTEX
  8
LAYER_2
 10
149.113
 20
36.795
 42
0.09787799956
  0
VERTEX
  8
LAYER_2
 10
149.0283
 20
36.6517
 42
0.08491464556
  0
VERTEX
  8
LAYER_2
 10
148.999
 20
36.4798
 42
0.08693146424
  0
VERTEX
  8
LAYER_2
 10
149.0283
 20
36.3079
 42
0.1009797617
  0
VERTEX
  8
LAYER_2
 10
149.113
 20
36.1649
 42
0.09998489394
  0
VERTEX
  8
LAYER_2
 10
149.2478
 20
36.0674
 42
0.1061678446
  0
VERTEX
  8
LAYER_2
 10
149.4265
 20
36.0309
 42
0.1126980581
  0
VERTEX
  8
LAYER_2
 10
149.6053
 20
36.0674
 42
0.1036982708
  0
VERTEX
  8
LAYER_2
 10
149.7404
 20
36.1649
 42
0.09370250368
  0
VERTEX
  8
LAYER_2
 10
149.8251
 20
36.3079
 42
0.08466662837
  0
SEQEND
  0
ENDBLK
  0
BLOCK
  8
LAYER_2
  2
AIGNBL02030015
 70
64
 10
0
 20
0
 30
0
  3
AIGNBL02030015
  0
POLYLINE
  8
LAYER_2
 40
0.05
 41
0.05
 66
1
 10
0
 20
0
 30
0
 70
1
  0
VERTEX
  8
LAYER_2
 10
150.7398
 20
35.9637
  0
VERTEX
  8
LAYER_2
 10
150.6351
 20
35.9637
  0
VERTEX
  8
LAYER_2
 10
150.6351
 20
36.4091
  0
VERTEX
  8
LAYER_2
 10
150.2482
 20
36.9969
  0
VERTEX
  8
LAYER_2
 10
150.3795
 20
36.9969
  0
VERTEX
  8
LAYER_2
 10
150.6905
 20
36.4967
  0
VERTEX
  8
LAYER_2
 10
151.0041
 20
36.9969
  0
VERTEX
  8
LAYER_2
 10
151.1263
 20
36.9969
  0
VERTEX
  8
LAYER_2
 10
150.7398
 20
36.4091
  0
SEQEND
  0
ENDBLK
  0
BLOCK
  8
LAYER_2
  2
AIGNBL02030016
 70
64
 10
0
 20
0
 30
0
  3
AIGNBL02030016
  0
POLYLINE
  8
LAYER_2
 40
0.05
 41
0.05
 66
1
 10
0
 20
0
 30
0
 70
1
  0
VERTEX
  8
LAYER_2
 10
152.0314
 20
36.9969
  0
VERTEX
  8
LAYER_2
 10
152.339
 20
36.9969
  0
VERTEX
  8
LAYER_2
 10
152.4575
 20
36.9845
  0
VERTEX
  8
LAYER_2
 10
152.5643
 20
36.9421
 42
-0.1168262011
  0
VERTEX
  8
LAYER_2
 10
152.6422
 20
36.8611
 42
-0.1230288266
  0
VERTEX
  8
LAYER_2
 10
152.6718
 20
36.733
 42
-0.1795449175
  0
VERTEX
  8
LAYER_2
 10
152.6219
 20
36.5907
 42
-0.170141964
  0
VERTEX
  8
LAYER_2
 10
152.4885
 20
36.5111
  0
VERTEX
  8
LAYER_2
 10
152.4885
 20
36.5084
 42
-0.1719890535
  0
VERTEX
  8
LAYER_2
 10
152.6553
 20
36.4302
 42
-0.2018462152
  0
VERTEX
  8
LAYER_2
 10
152.7214
 20
36.2496
 42
-0.1247085485
  0
VERTEX
  8
LAYER_2
 10
152.6942
 20
36.1325
 42
-0.1153486961
  0
VERTEX
  8
LAYER_2
 10
152.6181
 20
36.0419
 42
-0.08656795839
  0
VERTEX
  8
LAYER_2
 10
152.4972
 20
35.9844
 42
-0.06557363107
  0
VERTEX
  8
LAYER_2
 10
152.3373
 20
35.9637
  0
VERTEX
  8
LAYER_2
 10
152.0314
 20
35.9637
  0
SEQEND
  0
POLYLINE
  8
LAYER_2
 40
0.05
 41
0.05
 66
1
 10
0
 20
0
 30
0
 70
1
  0
VERTEX
  8
LAYER_2
 10
152.1364
 20
36.5445
  0
VERTEX
  8
LAYER_2
 10
152.348
 20
36.5445
  0
VERTEX
  8
LAYER_2
 10
152.4248
 20
36.5535
  0
VERTEX
  8
LAYER_2
 10
152.4951
 20
36.5831
  0
VERTEX
  8
LAYER_2
 10
152.5471
 20
36.6396
 42
0.1162126025
  0
VERTEX
  8
LAYER_2
 10
152.5668
 20
36.7258
  0
VERTEX
  8
LAYER_2
 10
152.5471
 20
36.8095
  0
VERTEX
  8
LAYER_2
 10
152.494
 20
36.8656
  0
VERTEX
  8
LAYER_2
 10
152.4152
 20
36.897
  0
VERTEX
  8
LAYER_2
 10
152.3187
 20
36.9066
  0
VERTEX
  8
LAYER_2
 10
152.1364
 20
36.9066
  0
SEQEND
  0
POLYLINE
  8
LAYER_2
 40
0.05
 41
0.05
 66
1
 10
0
 20
0
 30
0
 70
1
  0
VERTEX
  8
LAYER_2
 10
152.1364
 20
36.0543
  0
VERTEX
  8
LAYER_2
 10
152.3321
 20
36.0543
  0
VERTEX
  8
LAYER_2
 10
152.4406
 20
36.0653
  0
VERTEX
  8
LAYER_2
 10
152.5313
 20
36.1001
 42
0.1172546835
  0
VERTEX
  8
LAYER_2
 10
152.5929
 20
36.1632
 42
0.1286243504
  0
VERTEX
  8
LAYER_2
 10
152.6164
 20
36.2559
 42
0.2498669706
  0
VERTEX
  8
LAYER_2
 10
152.5471
 20
36.4081
 42
0.1538083763
  0
VERTEX
  8
LAYER_2
 10
152.3511
 20
36.4584
  0
VERTEX
  8
LAYER_2
 10
152.1364
 20
36.4584
  0
SEQEND
  0
ENDBLK
  0
BLOCK
  8
LAYER_2
  2
AIGNBL02030017
 70
64
 10
0
 20
0
 30
0
  3
AIGNBL02030017
  0
POLYLINE
  8
LAYER_2
 40
0.05
 41
0.05
 66
1
 10
0
 20
0
 30
0
 70
1
  0
VERTEX
  8
LAYER_2
 10
153.1534
 20
35.9637
  0
VERTEX
  8
LAYER_2
 10
153.038
 20
35.9637
  0
VERTEX
  8
LAYER_2
 10
153.4849
 20
36.9969
  0
VERTEX
  8
LAYER_2
 10
153.5872
 20
36.9969
  0
VERTEX
  8
LAYER_2
 10
154.0306
 20
35.9637
  0
VERTEX
  8
LAYER_2
 10
153.9138
 20
35.9637
  0
VERTEX
  8
LAYER_2
 10
153.7997
 20
36.2352
  0
VERTEX
  8
LAYER_2
 10
153.2657
 20
36.2352
  0
SEQEND
  0
POLYLINE
  8
LAYER_2
 40
0.05
 41
0.05
 66
1
 10
0
 20
0
 30
0
 70
1
  0
VERTEX
  8
LAYER_2
 10
153.305
 20
36.3316
  0
VERTEX
  8
LAYER_2
 10
153.7604
 20
36.3316
  0
VERTEX
  8
LAYER_2
 10
153.5327
 20
36.8804
  0
SEQEND
  0
ENDBLK
  0
BLOCK
  8
LAYER_2
  2
AIGNBL02030018
 70
64
 10
0
 20
0
 30
0
  3
AIGNBL02030018
  0
POLYLINE
  8
LAYER_2
 40
0.05
 41
0.05
 66
1
 10
0
 20
0
 30
0
 70
1
  0
VERTEX
  8
LAYER_2
 10
154.7151
 20
35.9637
  0
VERTEX
  8
LAYER_2
 10
154.61
 20
35.9637
  0
VERTEX
  8
LAYER_2
 10
154.61
 20
36.9035
  0
VERTEX
  8
LAYER_2
 10
154.2638
 20
36.9035
  0
VERTEX
  8
LAYER_2
 10
154.2638
 20
36.9969
  0
VERTEX
  8
LAYER_2
 10
155.0606
 20
36.9969
  0
VERTEX
  8
LAYER_2
 10
155.0606
 20
36.9035
  0
VERTEX
  8
LAYER_2
 10
154.7151
 20
36.9035
  0
SEQEND
  0
ENDBLK
  0
BLOCK
  8
LAYER_2
  2
AIGNBL02030019
 70
64
 10
0
 20
0
 30
0
  3
AIGNBL02030019
  0
POLYLINE
  8
LAYER_2
 40
0.05
 41
0.05
 66
1
 10
0
 20
0
 30
0
 70
1
  0
VERTEX
  8
LAYER_2
 10
155.4169
 20
36.9969
  0
VERTEX
  8
LAYER_2
 10
155.5216
 20
36.9969
  0
VERTEX
  8
LAYER_2
 10
155.5216
 20
36.549
  0
VERTEX
  8
LAYER_2
 10
156.0852
 20
36.549
  0
VERTEX
  8
LAYER_2
 10
156.0852
 20
36.9969
  0
VERTEX
  8
LAYER_2
 10
156.1903
 20
36.9969
  0
VERTEX
  8
LAYER_2
 10
156.1903
 20
35.9637
  0
VERTEX
  8
LAYER_2
 10
156.0852
 20
35.9637
  0
VERTEX
  8
LAYER_2
 10
156.0852
 20
36.4529
  0
VERTEX
  8
LAYER_2
 10
155.5216
 20
36.4529
  0
VERTEX
  8
LAYER_2
 10
155.5216
 20
35.9637
  0
VERTEX
  8
LAYER_2
 10
155.4169
 20
35.9637
  0
SEQEND
  0
ENDBLK
  0
BLOCK
  8
LAYER_2
  2
AIGNBL0203001A
 70
64
 10
0
 20
0
 30
0
  3
AIGNBL0203001A
  0
POLYLINE
  8
LAYER_2
 40
0.05
 41
0.05
 66
1
 10
0
 20
0
 30
0
 70
1
  0
VERTEX
  8
LAYER_2
 10
156.7708
 20
35.9637
  0
VERTEX
  8
LAYER_2
 10
156.6657
 20
35.9637
  0
VERTEX
  8
LAYER_2
 10
156.6657
 20
36.9969
  0
VERTEX
  8
LAYER_2
 10
156.9696
 20
36.9969
  0
VERTEX
  8
LAYER_2
 10
157.1101
 20
36.9824
 42
-0.1032885834
  0
VERTEX
  8
LAYER_2
 10
157.2228
 20
36.9349
 42
-0.1280591957
  0
VERTEX
  8
LAYER_2
 10
157.2962
 20
36.8494
 42
-0.1078860225
  0
VERTEX
  8
LAYER_2
 10
157.3223
 20
36.7213
  0
VERTEX
  8
LAYER_2
 10
157.3024
 20
36.6176
  0
VERTEX
  8
LAYER_2
 10
157.2469
 20
36.5366
  0
VERTEX
  8
LAYER_2
 10
157.1635
 20
36.4818
  0
VERTEX
  8
LAYER_2
 10
157.0585
 20
36.4557
  0
VERTEX
  8
LAYER_2
 10
157.3606
 20
35.9637
  0
VERTEX
  8
LAYER_2
 10
157.2321
 20
35.9637
  0
VERTEX
  8
LAYER_2
 10
156.9461
 20
36.4467
  0
VERTEX
  8
LAYER_2
 10
156.7708
 20
36.4467
  0
SEQEND
  0
POLYLINE
  8
LAYER_2
 40
0.05
 41
0.05
 66
1
 10
0
 20
0
 30
0
 70
1
  0
VERTEX
  8
LAYER_2
 10
156.7708
 20
36.5373
  0
VERTEX
  8
LAYER_2
 10
156.9534
 20
36.5373
 42
0.153451873
  0
VERTEX
  8
LAYER_2
 10
157.1491
 20
36.5831
 42
0.2580279849
  0
VERTEX
  8
LAYER_2
 10
157.2176
 20
36.7213
  0
VERTEX
  8
LAYER_2
 10
157.1983
 20
36.8071
  0
VERTEX
  8
LAYER_2
 10
157.146
 20
36.8643
  0
VERTEX
  8
LAYER_2
 10
157.0643
 20
36.8963
  0
VERTEX
  8
LAYER_2
 10
156.9578
 20
36.9066
  0
VERTEX
  8
LAYER_2
 10
156.7708
 20
36.9066
  0
SEQEND
  0
ENDBLK
  0
BLOCK
  8
LAYER_2
  2
AIGNBL0203001B
 70
64
 10
0
 20
0
 30
0
  3
AIGNBL0203001B
  0
POLYLINE
  8
LAYER_2
 40
0.05
 41
0.05
 66
1
 10
0
 20
0
 30
0
 70
1
  0
VERTEX
  8
LAYER_2
 10
158.7627
 20
36.4805
 42
-0.09904480664
  0
VERTEX
  8
LAYER_2
 10
158.7221
 20
36.2631
 42
-0.09984043552
  0
VERTEX
  8
LAYER_2
 10
158.6087
 20
36.0915
 42
-0.09841590082
  0
VERTEX
  8
LAYER_2
 10
158.4382
 20
35.9785
 42
-0.09758412454
  0
VERTEX
  8
LAYER_2
 10
158.2243
 20
35.9375
 42
-0.09999517154
  0
VERTEX
  8
LAYER_2
 10
158.0103
 20
35.9785
 42
-0.09953435427
  0
VERTEX
  8
LAYER_2
 10
157.8398
 20
36.0915
 42
-0.09853706159
  0
VERTEX
  8
LAYER_2
 10
157.7268
 20
36.2631
 42
-0.09653980076
  0
VERTEX
  8
LAYER_2
 10
157.6862
 20
36.4805
 42
-0.1004051845
  0
VERTEX
  8
LAYER_2
 10
157.7268
 20
36.6978
 42
-0.1008040346
  0
VERTEX
  8
LAYER_2
 10
157.8398
 20
36.8694
 42
-0.09763764092
  0
VERTEX
  8
LAYER_2
 10
158.0103
 20
36.9824
 42
-0.09752919603
  0
VERTEX
  8
LAYER_2
 10
158.2243
 20
37.0234
 42
-0.1000174927
  0
VERTEX
  8
LAYER_2
 10
158.4382
 20
36.9824
 42
-0.1009762109
  0
VERTEX
  8
LAYER_2
 10
158.6087
 20
36.8694
 42
-0.09735230618
  0
VERTEX
  8
LAYER_2
 10
158.7221
 20
36.6978
 42
-0.09580191209
  0
SEQEND
  0
POLYLINE
  8
LAYER_2
 40
0.05
 41
0.05
 66
1
 10
0
 20
0
 30
0
 70
1
  0
VERTEX
  8
LAYER_2
 10
158.6518
 20
36.4798
 42
0.08852014676
  0
VERTEX
  8
LAYER_2
 10
158.6225
 20
36.6517
 42
0.09973444611
  0
VERTEX
  8
LAYER_2
 10
158.5378
 20
36.795
 42
0.1024799068
  0
VERTEX
  8
LAYER_2
 10
158.4031
 20
36.8932
 42
0.1060321998
  0
VERTEX
  8
LAYER_2
 10
158.2243
 20
36.93
 42
0.1116325688
  0
VERTEX
  8
LAYER_2
 10
158.0455
 20
36.8932
 42
0.1060506217
  0
VERTEX
  8
LAYER_2
 10
157.9104
 20
36.795
 42
0.09526104957
  0
VERTEX
  8
LAYER_2
 10
157.8257
 20
36.6517
 42
0.08422602157
  0
VERTEX
  8
LAYER_2
 10
157.7968
 20
36.4798
 42
0.0876992245
  0
VERTEX
  8
LAYER_2
 10
157.8257
 20
36.3079
 42
0.09826867926
  0
VERTEX
  8
LAYER_2
 10
157.9104
 20
36.1649
 42
0.09965756504
  0
VERTEX
  8
LAYER_2
 10
158.0455
 20
36.0674
 42
0.1061654103
  0
VERTEX
  8
LAYER_2
 10
158.2243
 20
36.0309
 42
0.1124388132
  0
VERTEX
  8
LAYER_2
 10
158.4031
 20
36.0674
 42
0.1029122982
  0
VERTEX
  8
LAYER_2
 10
158.5378
 20
36.1649
 42
0.09882210045
  0
VERTEX
  8
LAYER_2
 10
158.6225
 20
36.3079
 42
0.08589740831
  0
SEQEND
  0
ENDBLK
  0
BLOCK
  8
LAYER_2
  2
AIGNBL0203001C
 70
64
 10
0
 20
0
 30
0
  3
AIGNBL0203001C
  0
POLYLINE
  8
LAYER_2
 40
0.05
 41
0.05
 66
1
 10
0
 20
0
 30
0
 70
1
  0
VERTEX
  8
LAYER_2
 10
160.2045
 20
36.4805
 42
-0.1019307791
  0
VERTEX
  8
LAYER_2
 10
160.1635
 20
36.2631
 42
-0.09929652324
  0
VERTEX
  8
LAYER_2
 10
160.0509
 20
36.0915
 42
-0.09710469009
  0
VERTEX
  8
LAYER_2
 10
159.88
 20
35.9785
 42
-0.09758412454
  0
VERTEX
  8
LAYER_2
 10
159.6661
 20
35.9375
 42
-0.1005051182
  0
VERTEX
  8
LAYER_2
 10
159.4524
 20
35.9785
 42
-0.1009789173
  0
VERTEX
  8
LAYER_2
 10
159.2816
 20
36.0915
 42
-0.09724598852
  0
VERTEX
  8
LAYER_2
 10
159.1682
 20
36.2631
 42
-0.09653980076
  0
VERTEX
  8
LAYER_2
 10
159.1276
 20
36.4805
 42
-0.1004051845
  0
VERTEX
  8
LAYER_2
 10
159.1682
 20
36.6978
 42
-0.1001669327
  0
VERTEX
  8
LAYER_2
 10
159.2816
 20
36.8694
 42
-0.09846843416
  0
VERTEX
  8
LAYER_2
 10
159.4524
 20
36.9824
 42
-0.09783444074
  0
VERTEX
  8
LAYER_2
 10
159.6661
 20
37.0234
 42
-0.1000174927
  0
VERTEX
  8
LAYER_2
 10
159.88
 20
36.9824
 42
-0.098457988
  0
VERTEX
  8
LAYER_2
 10
160.0509
 20
36.8694
 42
-0.09762598086
  0
VERTEX
  8
LAYER_2
 10
160.1635
 20
36.6978
 42
-0.0978256893
  0
SEQEND
  0
POLYLINE
  8
LAYER_2
 40
0.05
 41
0.05
 66
1
 10
0
 20
0
 30
0
 70
1
  0
VERTEX
  8
LAYER_2
 10
160.0936
 20
36.4798
 42
0.08653869446
  0
VERTEX
  8
LAYER_2
 10
160.0647
 20
36.6517
 42
0.09689814906
  0
VERTEX
  8
LAYER_2
 10
159.9799
 20
36.795
 42
0.1032857511
  0
VERTEX
  8
LAYER_2
 10
159.8448
 20
36.8932
 42
0.1061350344
  0
VERTEX
  8
LAYER_2
 10
159.6661
 20
36.93
 42
0.1114208933
  0
VERTEX
  8
LAYER_2
 10
159.4872
 20
36.8932
 42
0.1056595975
  0
VERTEX
  8
LAYER_2
 10
159.3525
 20
36.795
 42
0.09787799956
  0
VERTEX
  8
LAYER_2
 10
159.2678
 20
36.6517
 42
0.08491464556
  0
VERTEX
  8
LAYER_2
 10
159.2385
 20
36.4798
 42
0.08693146424
  0
VERTEX
  8
LAYER_2
 10
159.2678
 20
36.3079
 42
0.1009797617
  0
VERTEX
  8
LAYER_2
 10
159.3525
 20
36.1649
 42
0.09978391674
  0
VERTEX
  8
LAYER_2
 10
159.4872
 20
36.0674
 42
0.1060616244
  0
VERTEX
  8
LAYER_2
 10
159.6661
 20
36.0309
 42
0.1126531325
  0
VERTEX
  8
LAYER_2
 10
159.8448
 20
36.0674
 42
0.1036982708
  0
VERTEX
  8
LAYER_2
 10
159.9799
 20
36.1649
 42
0.09401062747
  0
VERTEX
  8
LAYER_2
 10
160.0647
 20
36.3079
 42
0.0844927763
  0
SEQEND
  0
ENDBLK
  0
BLOCK
  8
LAYER_2
  2
AIGNBL0203001D
 70
64
 10
0
 20
0
 30
0
  3
AIGNBL0203001D
  0
POLYLINE
  8
LAYER_2
 40
0.05
 41
0.05
 66
1
 10
0
 20
0
 30
0
 70
1
  0
VERTEX
  8
LAYER_2
 10
161.1354
 20
36.1418
  0
VERTEX
  8
LAYER_2
 10
161.1371
 20
36.1418
  0
VERTEX
  8
LAYER_2
 10
161.4826
 20
36.9969
  0
VERTEX
  8
LAYER_2
 10
161.6435
 20
36.9969
  0
VERTEX
  8
LAYER_2
 10
161.6435
 20
35.9637
  0
VERTEX
  8
LAYER_2
 10
161.5381
 20
35.9637
  0
VERTEX
  8
LAYER_2
 10
161.5381
 20
36.8611
  0
VERTEX
  8
LAYER_2
 10
161.5354
 20
36.8611
  0
VERTEX
  8
LAYER_2
 10
161.1619
 20
35.9637
  0
VERTEX
  8
LAYER_2
 10
161.1064
 20
35.9637
  0
VERTEX
  8
LAYER_2
 10
160.7326
 20
36.8611
  0
VERTEX
  8
LAYER_2
 10
160.7299
 20
36.8611
  0
VERTEX
  8
LAYER_2
 10
160.7299
 20
35.9637
  0
VERTEX
  8
LAYER_2
 10
160.6248
 20
35.9637
  0
VERTEX
  8
LAYER_2
 10
160.6248
 20
36.9969
  0
VERTEX
  8
LAYER_2
 10
160.7853
 20
36.9969
  0
SEQEND
  0
ENDBLK
  0
BLOCK
  8
LAYER_2
  2
AIGNBL0203001E
 70
64
 10
0
 20
0
 30
0
  3
AIGNBL0203001E
  0
POLYLINE
  8
LAYER_2
 40
0.05
 41
0.05
 66
1
 10
0
 20
0
 30
0
 70
1
  0
VERTEX
  8
LAYER_2
 10
162.79
 20
36.0574
  0
VERTEX
  8
LAYER_2
 10
163.3433
 20
36.0574
  0
VERTEX
  8
LAYER_2
 10
163.3433
 20
35.9637
  0
VERTEX
  8
LAYER_2
 10
162.685
 20
35.9637
  0
VERTEX
  8
LAYER_2
 10
162.685
 20
36.9969
  0
VERTEX
  8
LAYER_2
 10
163.3258
 20
36.9969
  0
VERTEX
  8
LAYER_2
 10
163.3258
 20
36.9035
  0
VERTEX
  8
LAYER_2
 10
162.79
 20
36.9035
  0
VERTEX
  8
LAYER_2
 10
162.79
 20
36.549
  0
VERTEX
  8
LAYER_2
 10
163.2906
 20
36.549
  0
VERTEX
  8
LAYER_2
 10
163.2906
 20
36.4557
  0
VERTEX
  8
LAYER_2
 10
162.79
 20
36.4557
  0
SEQEND
  0
ENDBLK
  0
BLOCK
  8
LAYER_2
  2
AIGNBL0203001F
 70
64
 10
0
 20
0
 30
0
  3
AIGNBL0203001F
  0
POLYLINE
  8
LAYER_2
 40
0.05
 41
0.05
 66
1
 10
0
 20
0
 30
0
 70
1
  0
VERTEX
  8
LAYER_2
 10
164.0885
 20
36.5797
  0
VERTEX
  8
LAYER_2
 10
164.3707
 20
36.9969
  0
VERTEX
  8
LAYER_2
 10
164.4957
 20
36.9969
  0
VERTEX
  8
LAYER_2
 10
164.1533
 20
36.5053
  0
VERTEX
  8
LAYER_2
 10
164.5326
 20
35.9637
  0
VERTEX
  8
LAYER_2
 10
164.4013
 20
35.9637
  0
VERTEX
  8
LAYER_2
 10
164.0858
 20
36.4295
  0
VERTEX
  8
LAYER_2
 10
163.7722
 20
35.9637
  0
VERTEX
  8
LAYER_2
 10
163.6407
 20
35.9637
  0
VERTEX
  8
LAYER_2
 10
164.0203
 20
36.5066
  0
VERTEX
  8
LAYER_2
 10
163.6744
 20
36.9969
  0
VERTEX
  8
LAYER_2
 10
163.806
 20
36.9969
  0
SEQEND
  0
ENDBLK
  0
BLOCK
  8
LAYER_2
  2
AIGNBL02030020
 70
64
 10
0
 20
0
 30
0
  3
AIGNBL02030020
  0
POLYLINE
  8
LAYER_2
 40
0.05
 41
0.05
 66
1
 10
0
 20
0
 30
0
 70
1
  0
VERTEX
  8
LAYER_2
 10
164.8988
 20
36.9969
  0
VERTEX
  8
LAYER_2
 10
165.1909
 20
36.9969
  0
VERTEX
  8
LAYER_2
 10
165.3339
 20
36.9804
 42
-0.104160294
  0
VERTEX
  8
LAYER_2
 10
165.4438
 20
36.929
 42
-0.1209616443
  0
VERTEX
  8
LAYER_2
 10
165.5148
 20
36.8429
 42
-0.1032545831
  0
VERTEX
  8
LAYER_2
 10
165.5392
 20
36.7213
 42
-0.1239274235
  0
VERTEX
  8
LAYER_2
 10
165.5141
 20
36.5993
 42
-0.1163667494
  0
VERTEX
  8
LAYER_2
 10
165.4424
 20
36.5132
 42
-0.08715194998
  0
VERTEX
  8
LAYER_2
 10
165.3315
 20
36.4615
 42
-0.06075348808
  0
VERTEX
  8
LAYER_2
 10
165.1878
 20
36.444
  0
VERTEX
  8
LAYER_2
 10
165.0039
 20
36.444
  0
VERTEX
  8
LAYER_2
 10
165.0039
 20
35.9637
  0
VERTEX
  8
LAYER_2
 10
164.8988
 20
35.9637
  0
SEQEND
  0
POLYLINE
  8
LAYER_2
 40
0.05
 41
0.05
 66
1
 10
0
 20
0
 30
0
 70
1
  0
VERTEX
  8
LAYER_2
 10
165.0039
 20
36.5328
  0
VERTEX
  8
LAYER_2
 10
165.1816
 20
36.5328
 42
0.1694225951
  0
VERTEX
  8
LAYER_2
 10
165.3701
 20
36.581
 42
0.2442570363
  0
VERTEX
  8
LAYER_2
 10
165.4345
 20
36.7213
 42
0.2590967024
  0
VERTEX
  8
LAYER_2
 10
165.368
 20
36.8622
 42
0.143072224
  0
VERTEX
  8
LAYER_2
 10
165.1816
 20
36.9066
  0
VERTEX
  8
LAYER_2
 10
165.0039
 20
36.9066
  0
SEQEND
  0
ENDBLK
  0
BLOCK
  8
LAYER_2
  2
AIGNBL02030021
 70
64
 10
0
 20
0
 30
0
  3
AIGNBL02030021
  0
POLYLINE
  8
LAYER_2
 40
0.05
 41
0.05
 66
1
 10
0
 20
0
 30
0
 70
1
  0
VERTEX
  8
LAYER_2
 10
166.0515
 20
36.0574
  0
VERTEX
  8
LAYER_2
 10
166.6048
 20
36.0574
  0
VERTEX
  8
LAYER_2
 10
166.6048
 20
35.9637
  0
VERTEX
  8
LAYER_2
 10
165.9465
 20
35.9637
  0
VERTEX
  8
LAYER_2
 10
165.9465
 20
36.9969
  0
VERTEX
  8
LAYER_2
 10
166.5872
 20
36.9969
  0
VERTEX
  8
LAYER_2
 10
166.5872
 20
36.9035
  0
VERTEX
  8
LAYER_2
 10
166.0515
 20
36.9035
  0
VERTEX
  8
LAYER_2
 10
166.0515
 20
36.549
  0
VERTEX
  8
LAYER_2
 10
166.5521
 20
36.549
  0
VERTEX
  8
LAYER_2
 10
166.5521
 20
36.4557
  0
VERTEX
  8
LAYER_2
 10
166.0515
 20
36.4557
  0
SEQEND
  0
ENDBLK
  0
BLOCK
  8
LAYER_2
  2
AIGNBL02030022
 70
64
 10
0
 20
0
 30
0
  3
AIGNBL02030022
  0
POLYLINE
  8
LAYER_2
 40
0.05
 41
0.05
 66
1
 10
0
 20
0
 30
0
 70
1
  0
VERTEX
  8
LAYER_2
 10
167.1168
 20
35.9637
  0
VERTEX
  8
LAYER_2
 10
167.0117
 20
35.9637
  0
VERTEX
  8
LAYER_2
 10
167.0117
 20
36.9969
  0
VERTEX
  8
LAYER_2
 10
167.3155
 20
36.9969
  0
VERTEX
  8
LAYER_2
 10
167.4561
 20
36.9824
 42
-0.1039428931
  0
VERTEX
  8
LAYER_2
 10
167.5687
 20
36.9349
 42
-0.1259973384
  0
VERTEX
  8
LAYER_2
 10
167.6425
 20
36.8494
 42
-0.1064650891
  0
VERTEX
  8
LAYER_2
 10
167.6683
 20
36.7213
  0
VERTEX
  8
LAYER_2
 10
167.6483
 20
36.6176
  0
VERTEX
  8
LAYER_2
 10
167.5929
 20
36.5366
  0
VERTEX
  8
LAYER_2
 10
167.5095
 20
36.4818
  0
VERTEX
  8
LAYER_2
 10
167.4044
 20
36.4557
  0
VERTEX
  8
LAYER_2
 10
167.7066
 20
35.9637
  0
VERTEX
  8
LAYER_2
 10
167.578
 20
35.9637
  0
VERTEX
  8
LAYER_2
 10
167.2921
 20
36.4467
  0
VERTEX
  8
LAYER_2
 10
167.1168
 20
36.4467
  0
SEQEND
  0
POLYLINE
  8
LAYER_2
 40
0.05
 41
0.05
 66
1
 10
0
 20
0
 30
0
 70
1
  0
VERTEX
  8
LAYER_2
 10
167.1168
 20
36.5373
  0
VERTEX
  8
LAYER_2
 10
167.2994
 20
36.5373
 42
0.1542400453
  0
VERTEX
  8
LAYER_2
 10
167.495
 20
36.5831
 42
0.2583775622
  0
VERTEX
  8
LAYER_2
 10
167.5636
 20
36.7213
  0
VERTEX
  8
LAYER_2
 10
167.5446
 20
36.8071
  0
VERTEX
  8
LAYER_2
 10
167.4919
 20
36.8643
  0
VERTEX
  8
LAYER_2
 10
167.4103
 20
36.8963
  0
VERTEX
  8
LAYER_2
 10
167.3038
 20
36.9066
  0
VERTEX
  8
LAYER_2
 10
167.1168
 20
36.9066
  0
SEQEND
  0
ENDBLK
  0
BLOCK
  8
LAYER_2
  2
AIGNBL02030023
 70
64
 10
0
 20
0
 30
0
  3
AIGNBL02030023
  0
POLYLINE
  8
LAYER_2
 40
0.05
 41
0.05
 66
1
 10
0
 20
0
 30
0
 70
1
  0
VERTEX
  8
LAYER_2
 10
168.1923
 20
35.9637
  0
VERTEX
  8
LAYER_2
 10
168.0876
 20
35.9637
  0
VERTEX
  8
LAYER_2
 10
168.0876
 20
36.9969
  0
VERTEX
  8
LAYER_2
 10
168.1923
 20
36.9969
  0
SEQEND
  0
ENDBLK
  0
BLOCK
  8
LAYER_2
  2
AIGNBL02030024
 70
64
 10
0
 20
0
 30
0
  3
AIGNBL02030024
  0
POLYLINE
  8
LAYER_2
 40
0.05
 41
0.05
 66
1
 10
0
 20
0
 30
0
 70
1
  0
VERTEX
  8
LAYER_2
 10
168.7732
 20
36.0574
  0
VERTEX
  8
LAYER_2
 10
169.3261
 20
36.0574
  0
VERTEX
  8
LAYER_2
 10
169.3261
 20
35.9637
  0
VERTEX
  8
LAYER_2
 10
168.6681
 20
35.9637
  0
VERTEX
  8
LAYER_2
 10
168.6681
 20
36.9969
  0
VERTEX
  8
LAYER_2
 10
169.3089
 20
36.9969
  0
VERTEX
  8
LAYER_2
 10
169.3089
 20
36.9035
  0
VERTEX
  8
LAYER_2
 10
168.7732
 20
36.9035
  0
VERTEX
  8
LAYER_2
 10
168.7732
 20
36.549
  0
VERTEX
  8
LAYER_2
 10
169.2737
 20
36.549
  0
VERTEX
  8
LAYER_2
 10
169.2737
 20
36.4557
  0
VERTEX
  8
LAYER_2
 10
168.7732
 20
36.4557
  0
SEQEND
  0
ENDBLK
  0
BLOCK
  8
LAYER_2
  2
AIGNBL02030025
 70
64
 10
0
 20
0
 30
0
  3
AIGNBL02030025
  0
POLYLINE
  8
LAYER_2
 40
0.05
 41
0.05
 66
1
 10
0
 20
0
 30
0
 70
1
  0
VERTEX
  8
LAYER_2
 10
170.4661
 20
36.117
  0
VERTEX
  8
LAYER_2
 10
170.4689
 20
36.117
  0
VERTEX
  8
LAYER_2
 10
170.4689
 20
36.9969
  0
VERTEX
  8
LAYER_2
 10
170.5739
 20
36.9969
  0
VERTEX
  8
LAYER_2
 10
170.5739
 20
35.9637
  0
VERTEX
  8
LAYER_2
 10
170.4426
 20
35.9637
  0
VERTEX
  8
LAYER_2
 10
169.8415
 20
36.8525
  0
VERTEX
  8
LAYER_2
 10
169.8384
 20
36.8525
  0
VERTEX
  8
LAYER_2
 10
169.8384
 20
35.9637
  0
VERTEX
  8
LAYER_2
 10
169.7333
 20
35.9637
  0
VERTEX
  8
LAYER_2
 10
169.7333
 20
36.9969
  0
VERTEX
  8
LAYER_2
 10
169.8649
 20
36.9969
  0
SEQEND
  0
ENDBLK
  0
BLOCK
  8
LAYER_2
  2
AIGNBL02030026
 70
64
 10
0
 20
0
 30
0
  3
AIGNBL02030026
  0
POLYLINE
  8
LAYER_2
 40
0.05
 41
0.05
 66
1
 10
0
 20
0
 30
0
 70
1
  0
VERTEX
  8
LAYER_2
 10
171.9196
 20
36.1315
  0
VERTEX
  8
LAYER_2
 10
171.8558
 20
36.0571
  0
VERTEX
  8
LAYER_2
 10
171.7697
 20
35.9954
  0
VERTEX
  8
LAYER_2
 10
171.6615
 20
35.953
  0
VERTEX
  8
LAYER_2
 10
171.5327
 20
35.9375
 42
-0.0997799169
  0
VERTEX
  8
LAYER_2
 10
171.3167
 20
35.9785
 42
-0.102530266
  0
VERTEX
  8
LAYER_2
 10
171.1461
 20
36.0915
 42
-0.09968794278
  0
VERTEX
  8
LAYER_2
 10
171.0345
 20
36.2631
 42
-0.09630702324
  0
VERTEX
  8
LAYER_2
 10
170.9942
 20
36.4805
 42
-0.1018981748
  0
VERTEX
  8
LAYER_2
 10
171.0352
 20
36.6978
 42
-0.09989904409
  0
VERTEX
  8
LAYER_2
 10
171.1479
 20
36.8694
 42
-0.09694965588
  0
VERTEX
  8
LAYER_2
 10
171.3187
 20
36.9824
 42
-0.09744116728
  0
VERTEX
  8
LAYER_2
 10
171.5327
 20
37.0234
  0
VERTEX
  8
LAYER_2
 10
171.6443
 20
37.0114
  0
VERTEX
  8
LAYER_2
 10
171.7473
 20
36.9779
  0
VERTEX
  8
LAYER_2
 10
171.8348
 20
36.9263
  0
VERTEX
  8
LAYER_2
 10
171.9006
 20
36.8584
  0
VERTEX
  8
LAYER_2
 10
171.8131
 20
36.794
  0
VERTEX
  8
LAYER_2
 10
171.7697
 20
36.8439
  0
VERTEX
  8
LAYER_2
 10
171.7063
 20
36.8877
  0
VERTEX
  8
LAYER_2
 10
171.6267
 20
36.9183
  0
VERTEX
  8
LAYER_2
 10
171.5341
 20
36.93
 42
0.1106055686
  0
VERTEX
  8
LAYER_2
 10
171.3539
 20
36.8935
 42
0.1037389517
  0
VERTEX
  8
LAYER_2
 10
171.2188
 20
36.7954
 42
0.09534605581
  0
VERTEX
  8
LAYER_2
 10
171.1341
 20
36.652
 42
0.08447361069
  0
VERTEX
  8
LAYER_2
 10
171.1052
 20
36.4805
 42
0.09038739564
  0
VERTEX
  8
LAYER_2
 10
171.1351
 20
36.3089
 42
0.09795352863
  0
VERTEX
  8
LAYER_2
 10
171.2205
 20
36.1656
 42
0.1034747097
  0
VERTEX
  8
LAYER_2
 10
171.3556
 20
36.0674
 42
0.1064777274
  0
VERTEX
  8
LAYER_2
 10
171.5341
 20
36.0309
 42
0.1092499226
  0
VERTEX
  8
LAYER_2
 10
171.7032
 20
36.0674
 42
0.1370031249
  0
VERTEX
  8
LAYER_2
 10
171.8376
 20
36.1842
  0
SEQEND
  0
ENDBLK
  0
BLOCK
  8
LAYER_2
  2
AIGNBL02030027
 70
64
 10
0
 20
0
 30
0
  3
AIGNBL02030027
  0
POLYLINE
  8
LAYER_2
 40
0.05
 41
0.05
 66
1
 10
0
 20
0
 30
0
 70
1
  0
VERTEX
  8
LAYER_2
 10
172.4067
 20
36.0574
  0
VERTEX
  8
LAYER_2
 10
172.96
 20
36.0574
  0
VERTEX
  8
LAYER_2
 10
172.96
 20
35.9637
  0
VERTEX
  8
LAYER_2
 10
172.3016
 20
35.9637
  0
VERTEX
  8
LAYER_2
 10
172.3016
 20
36.9969
  0
VERTEX
  8
LAYER_2
 10
172.9424
 20
36.9969
  0
VERTEX
  8
LAYER_2
 10
172.9424
 20
36.9035
  0
VERTEX
  8
LAYER_2
 10
172.4067
 20
36.9035
  0
VERTEX
  8
LAYER_2
 10
172.4067
 20
36.549
  0
VERTEX
  8
LAYER_2
 10
172.9073
 20
36.549
  0
VERTEX
  8
LAYER_2
 10
172.9073
 20
36.4557
  0
VERTEX
  8
LAYER_2
 10
172.4067
 20
36.4557
  0
SEQEND
  0
ENDBLK
  0
BLOCK
  8
LAYER_2
  2
AIGNBL02020004
 70
64
 10
0
 20
0
 30
0
  3
AIGNBL02020004
  0
POLYLINE
  8
LAYER_2
 40
0.05
 41
0.05
 66
1
 10
0
 20
0
 30
0
  0
VERTEX
  8
LAYER_2
 10
-1.196
 20
217.6012
 42
-0.04245719054
  0
VERTEX
  8
LAYER_2
 10
-1.2437
 20
216.7495
 42
-0.1145799327
  0
VERTEX
  8
LAYER_2
 10
-1.4854
 20
216.1042
 42
-0.03657724702
  0
VERTEX
  8
LAYER_2
 10
-1.5732
 20
216.0054
 42
-0.1577844027
  0
VERTEX
  8
LAYER_2
 10
-2.1025
 20
215.7362
 42
-0.04286355862
  0
VERTEX
  8
LAYER_2
 10
-2.3408
 20
215.7164
 42
-0.1461347274
  0
VERTEX
  8
LAYER_2
 10
-2.9525
 20
215.8874
 42
-0.04825720136
  0
VERTEX
  8
LAYER_2
 10
-3.0956
 20
216.0054
 42
-0.1514389093
  0
VERTEX
  8
LAYER_2
 10
-3.3903
 20
216.5711
 42
-0.04033585951
  0
VERTEX
  8
LAYER_2
 10
-3.4563
 20
217.0249
 42
-0.01781626242
  0
VERTEX
  8
LAYER_2
 10
-3.4732
 20
217.6012
 42
-0.04130139583
  0
VERTEX
  8
LAYER_2
 10
-3.4273
 20
218.4296
 42
-0.115134122
  0
VERTEX
  8
LAYER_2
 10
-3.1834
 20
219.0859
 42
-0.03655204802
  0
VERTEX
  8
LAYER_2
 10
-3.0956
 20
219.1845
 42
-0.2077091659
  0
VERTEX
  8
LAYER_2
 10
-2.3408
 20
219.4732
 42
-0.1450941273
  0
VERTEX
  8
LAYER_2
 10
-1.7165
 20
219.3022
 42
-0.04840000405
  0
VERTEX
  8
LAYER_2
 10
-1.5732
 20
219.1845
 42
-0.1513847701
  0
VERTEX
  8
LAYER_2
 10
-1.2787
 20
218.6201
 42
-0.04039612069
  0
VERTEX
  8
LAYER_2
 10
-1.2128
 20
218.1697
 42
-0.01794233576
  0
VERTEX
  8
LAYER_2
 10
-1.196
 20
217.6012
  0
SEQEND
  0
POLYLINE
  8
LAYER_2
 40
0.05
 41
0.05
 66
1
 10
0
 20
0
 30
0
  0
VERTEX
  8
LAYER_2
 10
0.4394
 20
217.6012
 42
0.03175065208
  0
VERTEX
  8
LAYER_2
 10
0.3919
 20
218.5427
 42
0.07858555415
  0
VERTEX
  8
LAYER_2
 10
0.123
 20
219.5272
 42
0.07786217308
  0
VERTEX
  8
LAYER_2
 10
-0.303
 20
220.1395
 42
0.1422741765
  0
VERTEX
  8
LAYER_2
 10
-1.5044
 20
220.8409
 42
0.06575783118
  0
VERTEX
  8
LAYER_2
 10
-2.3408
 20
220.9436
 42
0.08626163736
  0
VERTEX
  8
LAYER_2
 10
-3.3996
 20
220.7669
 42
0.1130730203
  0
VERTEX
  8
LAYER_2
 10
-4.3662
 20
220.1395
 42
0.09873852385
  0
VERTEX
  8
LAYER_2
 10
-4.8748
 20
219.3361
 42
0.04046067269
  0
VERTEX
  8
LAYER_2
 10
-5.006
 20
218.8809
 42
0.03220856709
  0
VERTEX
  8
LAYER_2
 10
-5.0854
 20
218.2915
 42
0.01857685015
  0
VERTEX
  8
LAYER_2
 10
-5.1082
 20
217.6012
 42
0.03149278186
  0
VERTEX
  8
LAYER_2
 10
-5.0608
 20
216.6571
 42
0.0779698511
  0
VERTEX
  8
LAYER_2
 10
-4.7923
 20
215.6655
 42
0.07853580552
  0
VERTEX
  8
LAYER_2
 10
-4.3662
 20
215.0504
 42
0.1826502598
  0
VERTEX
  8
LAYER_2
 10
-2.668
 20
214.2613
 42
0.02311737764
  0
VERTEX
  8
LAYER_2
 10
-2.3408
 20
214.2463
 42
0.08564977323
  0
VERTEX
  8
LAYER_2
 10
-1.2772
 20
214.423
 42
0.1129150187
  0
VERTEX
  8
LAYER_2
 10
-0.303
 20
215.0504
 42
0.1497181056
  0
VERTEX
  8
LAYER_2
 10
0.3325
 20
216.2722
 42
0.03273812963
  0
VERTEX
  8
LAYER_2
 10
0.4143
 20
216.8609
 42
0.01955851524
  0
VERTEX
  8
LAYER_2
 10
0.4394
 20
217.6012
  0
SEQEND
  0
POLYLINE
  8
LAYER_2
 40
0.05
 41
0.05
 66
1
 10
0
 20
0
 30
0
  0
VERTEX
  8
LAYER_2
 10
-11.3166
 20
218.2044
  0
VERTEX
  8
LAYER_2
 10
-13.8074
 20
218.2044
 42
-0.1126267973
  0
VERTEX
  8
LAYER_2
 10
-13.6562
 20
218.9079
 42
-0.1394863081
  0
VERTEX
  8
LAYER_2
 10
-13.2507
 20
219.3934
 42
-0.1317584651
  0
VERTEX
  8
LAYER_2
 10
-12.676
 20
219.5824
 42
-0.01996454454
  0
VERTEX
  8
LAYER_2
 10
-12.562
 20
219.5866
 42
-0.137467943
  0
VERTEX
  8
LAYER_2
 10
-11.8991
 20
219.4101
 42
-0.150691583
  0
VERTEX
  8
LAYER_2
 10
-11.4672
 20
218.9079
 42
-0.1174358853
  0
VERTEX
  8
LAYER_2
 10
-11.3166
 20
218.2044
  0
SEQEND
  0
POLYLINE
  8
LAYER_2
 40
0.05
 41
0.05
 66
1
 10
0
 20
0
 30
0
 70
1
  0
VERTEX
  8
LAYER_2
 10
-9.7064
 20
217.0861
  0
VERTEX
  8
LAYER_2
 10
-9.7064
 20
217.7772
 42
0.07163312002
  0
VERTEX
  8
LAYER_2
 10
-9.8733
 20
218.9838
 42
0.08028385511
  0
VERTEX
  8
LAYER_2
 10
-10.299
 20
219.8659
 42
0.0865588964
  0
VERTEX
  8
LAYER_2
 10
-10.9136
 20
220.4722
 42
0.08455684744
  0
VERTEX
  8
LAYER_2
 10
-11.6929
 20
220.8316
 42
0.06903226706
  0
VERTEX
  8
LAYER_2
 10
-12.562
 20
220.9436
 42
0.08515866825
  0
VERTEX
  8
LAYER_2
 10
-13.5923
 20
220.7733
 42
0.2152076095
  0
VERTEX
  8
LAYER_2
 10
-15.1128
 20
219.2869
 42
0.07250212731
  0
VERTEX
  8
LAYER_2
 10
-15.3825
 20
218.223
 42
0.02934637219
  0
VERTEX
  8
LAYER_2
 10
-15.4177
 20
217.6012
 42
0.06683021014
  0
VERTEX
  8
LAYER_2
 10
-15.2459
 20
216.2162
 42
0.08312981404
  0
VERTEX
  8
LAYER_2
 10
-14.8229
 20
215.3116
 42
0.184288283
  0
VERTEX
  8
LAYER_2
 10
-13.3775
 20
214.3603
 42
0.06413161868
  0
VERTEX
  8
LAYER_2
 10
-12.386
 20
214.2463
 42
0.07683816196
  0
VERTEX
  8
LAYER_2
 10
-11.1942
 20
214.4123
 42
0.08470040866
  0
VERTEX
  8
LAYER_2
 10
-10.383
 20
214.8416
 42
0.03763897922
  0
VERTEX
  8
LAYER_2
 10
-9.8948
 20
215.2768
  0
VERTEX
  8
LAYER_2
 10
-10.8887
 20
216.2442
 42
-0.1072414833
  0
VERTEX
  8
LAYER_2
 10
-11.6397
 20
215.7366
 42
-0.09138316631
  0
VERTEX
  8
LAYER_2
 10
-12.3732
 20
215.6285
 42
-0.1206713536
  0
VERTEX
  8
LAYER_2
 10
-13.1336
 20
215.8026
 42
-0.1907051017
  0
VERTEX
  8
LAYER_2
 10
-13.7142
 20
216.4979
 42
-0.08636520349
  0
VERTEX
  8
LAYER_2
 10
-13.8074
 20
217.0861
  0
SEQEND
  0
POLYLINE
  8
LAYER_2
 40
0.05
 41
0.05
 66
1
 10
0
 20
0
 30
0
 70
1
  0
VERTEX
  8
LAYER_2
 10
-16.9018
 20
223.2773
  0
VERTEX
  8
LAYER_2
 10
-18.5517
 20
223.2773
  0
VERTEX
  8
LAYER_2
 10
-18.5517
 20
221.9454
  0
VERTEX
  8
LAYER_2
 10
-16.9018
 20
221.9454
  0
SEQEND
  0
POLYLINE
  8
LAYER_2
 40
0.05
 41
0.05
 66
1
 10
0
 20
0
 30
0
 70
1
  0
VERTEX
  8
LAYER_2
 10
-16.9146
 20
220.79
  0
VERTEX
  8
LAYER_2
 10
-18.5499
 20
220.79
  0
VERTEX
  8
LAYER_2
 10
-18.5499
 20
214.3218
  0
VERTEX
  8
LAYER_2
 10
-16.9146
 20
214.3218
  0
SEQEND
  0
POLYLINE
  8
LAYER_2
 40
0.05
 41
0.05
 66
1
 10
0
 20
0
 30
0
  0
VERTEX
  8
LAYER_2
 10
-19.8205
 20
215.1386
  0
VERTEX
  8
LAYER_2
 10
-20.9274
 20
216.2317
 42
-0.1240518821
  0
VERTEX
  8
LAYER_2
 10
-21.5761
 20
215.7751
 42
-0.08031715103
  0
VERTEX
  8
LAYER_2
 10
-21.984
 20
215.7164
 42
-0.1386946894
  0
VERTEX
  8
LAYER_2
 10
-22.625
 20
215.8856
 42
-0.08219094685
  0
VERTEX
  8
LAYER_2
 10
-22.9149
 20
216.1436
 42
-0.1253393202
  0
VERTEX
  8
LAYER_2
 10
-23.215
 20
216.8347
 42
-0.05211869655
  0
VERTEX
  8
LAYER_2
 10
-23.2797
 20
217.6012
 42
-0.0435450793
  0
VERTEX
  8
LAYER_2
 10
-23.2306
 20
218.2793
 42
-0.1072750387
  0
VERTEX
  8
LAYER_2
 10
-22.9604
 20
218.9857
 42
-0.01439054395
  0
VERTEX
  8
LAYER_2
 10
-22.9149
 20
219.0461
 42
-0.143087315
  0
VERTEX
  8
LAYER_2
 10
-22.387
 20
219.4143
 42
-0.07946465155
  0
VERTEX
  8
LAYER_2
 10
-21.984
 20
219.4732
 42
-0.1421084185
  0
VERTEX
  8
LAYER_2
 10
-21.3214
 20
219.2962
 42
-0.06975828358
  0
VERTEX
  8
LAYER_2
 10
-20.9274
 20
218.9585
  0
VERTEX
  8
LAYER_2
 10
-19.8205
 20
220.0637
 42
0.08882909472
  0
VERTEX
  8
LAYER_2
 10
-20.632
 20
220.6645
 42
0.08605806955
  0
VERTEX
  8
LAYER_2
 10
-21.5364
 20
220.9189
 42
0.02865290108
  0
VERTEX
  8
LAYER_2
 10
-21.984
 20
220.9436
 42
0.0806713287
  0
VERTEX
  8
LAYER_2
 10
-23.0569
 20
220.7735
 42
0.08357777431
  0
VERTEX
  8
LAYER_2
 10
-23.8317
 20
220.3573
 42
0.09024198391
  0
VERTEX
  8
LAYER_2
 10
-24.4186
 20
219.692
 42
0.07835989587
  0
VERTEX
  8
LAYER_2
 10
-24.7811
 20
218.801
 42
0.06322906838
  0
VERTEX
  8
LAYER_2
 10
-24.9151
 20
217.6012
 42
0.06782437491
  0
VERTEX
  8
LAYER_2
 10
-24.7438
 20
216.2613
 42
0.08255528881
  0
VERTEX
  8
LAYER_2
 10
-24.3104
 20
215.3428
 42
0.176800775
  0
VERTEX
  8
LAYER_2
 10
-22.8675
 20
214.3603
 42
0.06692285682
  0
VERTEX
  8
LAYER_2
 10
-21.984
 20
214.2463
 42
0.08462179993
  0
VERTEX
  8
LAYER_2
 10
-20.8976
 20
214.4204
 42
0.08609104881
  0
VERTEX
  8
LAYER_2
 10
-20.1139
 20
214.8669
 42
0.03054496576
  0
VERTEX
  8
LAYER_2
 10
-19.8205
 20
215.1386
  0
SEQEND
  0
ENDBLK
  0
BLOCK
  8
LAYER_2
  2
AIGNBL02020005
 70
64
 10
0
 20
0
 30
0
  3
AIGNBL02020005
  0
POLYLINE
  8
LAYER_2
 40
0.05
 41
0.05
 66
1
 10
0
 20
0
 30
0
 70
1
  0
VERTEX
  8
LAYER_2
 10
0.3288
 20
212.6805
  0
VERTEX
  8
LAYER_2
 10
0.0009
 20
212.6805
  0
VERTEX
  8
LAYER_2
 10
-0.2479
 20
211.9109
  0
VERTEX
  8
LAYER_2
 10
-0.5066
 20
212.6805
  0
VERTEX
  8
LAYER_2
 10
-0.8342
 20
212.6805
  0
VERTEX
  8
LAYER_2
 10
-0.4084
 20
211.5234
  0
VERTEX
  8
LAYER_2
 10
-0.4611
 20
211.3704
 42
-0.3961336399
  0
VERTEX
  8
LAYER_2
 10
-0.6165
 20
211.2581
  0
VERTEX
  8
LAYER_2
 10
-0.6882
 20
211.2581
  0
VERTEX
  8
LAYER_2
 10
-0.6882
 20
210.9783
  0
VERTEX
  8
LAYER_2
 10
-0.5662
 20
210.9783
 42
0.2034440672
  0
VERTEX
  8
LAYER_2
 10
-0.2985
 20
211.0741
 42
0.1004639661
  0
VERTEX
  8
LAYER_2
 10
-0.2048
 20
211.2343
  0
SEQEND
  0
POLYLINE
  8
LAYER_2
 40
0.05
 41
0.05
 66
1
 10
0
 20
0
 30
0
 70
1
  0
VERTEX
  8
LAYER_2
 10
-0.8704
 20
211.4352
  0
VERTEX
  8
LAYER_2
 10
-0.8704
 20
211.6977
  0
VERTEX
  8
LAYER_2
 10
-0.9899
 20
211.6977
 42
-0.4751531158
  0
VERTEX
  8
LAYER_2
 10
-1.0998
 20
211.8103
  0
VERTEX
  8
LAYER_2
 10
-1.0998
 20
213.137
  0
VERTEX
  8
LAYER_2
 10
-1.4109
 20
213.137
  0
VERTEX
  8
LAYER_2
 10
-1.4109
 20
211.7914
 42
0.2572712742
  0
VERTEX
  8
LAYER_2
 10
-1.2491
 20
211.4844
 42
0.1351549622
  0
VERTEX
  8
LAYER_2
 10
-1.0475
 20
211.4352
  0
SEQEND
  0
POLYLINE
  8
LAYER_2
 40
0.05
 41
0.05
 66
1
 10
0
 20
0
 30
0
 70
1
  0
VERTEX
  8
LAYER_2
 10
-1.9739
 20
211.894
 42
-0.2469446344
  0
VERTEX
  8
LAYER_2
 10
-2.0214
 20
211.7363
 42
-0.2123665607
  0
VERTEX
  8
LAYER_2
 10
-2.2057
 20
211.6763
 42
-0.2053009356
  0
VERTEX
  8
LAYER_2
 10
-2.3584
 20
211.723
 42
-0.206083917
  0
VERTEX
  8
LAYER_2
 10
-2.3949
 20
211.8175
 42
-0.4725867343
  0
VERTEX
  8
LAYER_2
 10
-2.2105
 20
211.9609
  0
VERTEX
  8
LAYER_2
 10
-1.9739
 20
211.9609
  0
SEQEND
  0
POLYLINE
  8
LAYER_2
 40
0.05
 41
0.05
 66
1
 10
0
 20
0
 30
0
 70
1
  0
VERTEX
  8
LAYER_2
 10
-1.6624
 20
211.4352
  0
VERTEX
  8
LAYER_2
 10
-1.6624
 20
212.2551
 42
0.2451162416
  0
VERTEX
  8
LAYER_2
 10
-1.8225
 20
212.6039
 42
0.1630344424
  0
VERTEX
  8
LAYER_2
 10
-2.194
 20
212.6947
 42
0.223003002
  0
VERTEX
  8
LAYER_2
 10
-2.6298
 20
212.5302
 42
0.006267388191
  0
VERTEX
  8
LAYER_2
 10
-2.6412
 20
212.5179
  0
VERTEX
  8
LAYER_2
 10
-2.4452
 20
212.3243
 42
-0.2474228759
  0
VERTEX
  8
LAYER_2
 10
-2.2057
 20
212.4322
 42
-0.1875116517
  0
VERTEX
  8
LAYER_2
 10
-2.0297
 20
212.3865
 42
-0.2385471677
  0
VERTEX
  8
LAYER_2
 10
-1.9739
 20
212.2358
  0
VERTEX
  8
LAYER_2
 10
-1.9739
 20
212.1738
  0
VERTEX
  8
LAYER_2
 10
-2.2633
 20
212.1738
 42
0.2343493414
  0
VERTEX
  8
LAYER_2
 10
-2.6354
 20
212.0142
 42
0.1534284984
  0
VERTEX
  8
LAYER_2
 10
-2.6942
 20
211.8127
 42
0.1895201048
  0
VERTEX
  8
LAYER_2
 10
-2.5912
 20
211.533
 42
0.2074502918
  0
VERTEX
  8
LAYER_2
 10
-2.2729
 20
211.4228
 42
0.2214267061
  0
VERTEX
  8
LAYER_2
 10
-1.9663
 20
211.5426
  0
VERTEX
  8
LAYER_2
 10
-1.9663
 20
211.4352
  0
SEQEND
  0
POLYLINE
  8
LAYER_2
 40
0.05
 41
0.05
 66
1
 10
0
 20
0
 30
0
 70
1
  0
VERTEX
  8
LAYER_2
 10
-2.8758
 20
211.4352
  0
VERTEX
  8
LAYER_2
 10
-2.8758
 20
211.6977
  0
VERTEX
  8
LAYER_2
 10
-2.9884
 20
211.6977
 42
-0.4616084329
  0
VERTEX
  8
LAYER_2
 10
-3.0963
 20
211.8103
  0
VERTEX
  8
LAYER_2
 10
-3.0963
 20
212.4081
  0
VERTEX
  8
LAYER_2
 10
-2.8758
 20
212.4081
  0
VERTEX
  8
LAYER_2
 10
-2.8758
 20
212.6444
  0
VERTEX
  8
LAYER_2
 10
-3.0963
 20
212.6444
  0
VERTEX
  8
LAYER_2
 10
-3.0963
 20
213.0126
  0
VERTEX
  8
LAYER_2
 10
-3.407
 20
213.0126
  0
VERTEX
  8
LAYER_2
 10
-3.407
 20
212.6444
  0
VERTEX
  8
LAYER_2
 10
-3.539
 20
212.6444
  0
VERTEX
  8
LAYER_2
 10
-3.539
 20
212.4081
  0
VERTEX
  8
LAYER_2
 10
-3.407
 20
212.4081
  0
VERTEX
  8
LAYER_2
 10
-3.407
 20
211.7914
 42
0.2563568817
  0
VERTEX
  8
LAYER_2
 10
-3.2458
 20
211.4844
 42
0.1357760723
  0
VERTEX
  8
LAYER_2
 10
-3.0456
 20
211.4352
  0
SEQEND
  0
POLYLINE
  8
LAYER_2
 40
0.05
 41
0.05
 66
1
 10
0
 20
0
 30
0
 70
1
  0
VERTEX
  8
LAYER_2
 10
-3.8091
 20
213.137
  0
VERTEX
  8
LAYER_2
 10
-4.1419
 20
213.137
  0
VERTEX
  8
LAYER_2
 10
-4.1419
 20
211.4352
  0
VERTEX
  8
LAYER_2
 10
-3.8091
 20
211.4352
  0
SEQEND
  0
POLYLINE
  8
LAYER_2
 40
0.05
 41
0.05
 66
1
 10
0
 20
0
 30
0
 70
1
  0
VERTEX
  8
LAYER_2
 10
-5.0562
 20
211.4352
  0
VERTEX
  8
LAYER_2
 10
-5.0562
 20
212.231
 42
0.2072987281
  0
VERTEX
  8
LAYER_2
 10
-5.183
 20
212.5844
 42
0.2031043538
  0
VERTEX
  8
LAYER_2
 10
-5.4775
 20
212.6947
 42
0.201378382
  0
VERTEX
  8
LAYER_2
 10
-5.7886
 20
212.5658
  0
VERTEX
  8
LAYER_2
 10
-5.7886
 20
212.6805
  0
VERTEX
  8
LAYER_2
 10
-6.0925
 20
212.6805
  0
VERTEX
  8
LAYER_2
 10
-6.0925
 20
211.4352
  0
VERTEX
  8
LAYER_2
 10
-5.7814
 20
211.4352
  0
VERTEX
  8
LAYER_2
 10
-5.7814
 20
212.1882
 42
-0.4179312156
  0
VERTEX
  8
LAYER_2
 10
-5.573
 20
212.4149
 42
-0.4343639015
  0
VERTEX
  8
LAYER_2
 10
-5.3673
 20
212.1882
  0
VERTEX
  8
LAYER_2
 10
-5.3673
 20
211.4352
  0
SEQEND
  0
POLYLINE
  8
LAYER_2
 40
0.05
 41
0.05
 66
1
 10
0
 20
0
 30
0
 70
1
  0
VERTEX
  8
LAYER_2
 10
-6.437
 20
213.1467
  0
VERTEX
  8
LAYER_2
 10
-6.7553
 20
213.1467
  0
VERTEX
  8
LAYER_2
 10
-6.7553
 20
212.8931
  0
VERTEX
  8
LAYER_2
 10
-6.437
 20
212.8931
  0
SEQEND
  0
POLYLINE
  8
LAYER_2
 40
0.05
 41
0.05
 66
1
 10
0
 20
0
 30
0
 70
1
  0
VERTEX
  8
LAYER_2
 10
-6.4394
 20
212.6444
  0
VERTEX
  8
LAYER_2
 10
-6.7508
 20
212.6444
  0
VERTEX
  8
LAYER_2
 10
-6.7508
 20
211.4352
  0
VERTEX
  8
LAYER_2
 10
-6.4394
 20
211.4352
  0
SEQEND
  0
POLYLINE
  8
LAYER_2
 40
0.05
 41
0.05
 66
1
 10
0
 20
0
 30
0
  0
VERTEX
  8
LAYER_2
 10
-7.8994
 20
212.1738
  0
VERTEX
  8
LAYER_2
 10
-8.3735
 20
212.1738
 42
-0.1150247832
  0
VERTEX
  8
LAYER_2
 10
-8.3445
 20
212.3074
 42
-0.3021002553
  0
VERTEX
  8
LAYER_2
 10
-8.1365
 20
212.4363
 42
-0.2972451875
  0
VERTEX
  8
LAYER_2
 10
-7.9284
 20
212.3074
 42
-0.09898717384
  0
VERTEX
  8
LAYER_2
 10
-7.8994
 20
212.1738
  0
SEQEND
  0
POLYLINE
  8
LAYER_2
 40
0.05
 41
0.05
 66
1
 10
0
 20
0
 30
0
 70
1
  0
VERTEX
  8
LAYER_2
 10
-7.5932
 20
211.9609
  0
VERTEX
  8
LAYER_2
 10
-7.5932
 20
212.0925
 42
0.1892091988
  0
VERTEX
  8
LAYER_2
 10
-7.7571
 20
212.5503
 42
0.2074689034
  0
VERTEX
  8
LAYER_2
 10
-8.1365
 20
212.6947
 42
0.212635805
  0
VERTEX
  8
LAYER_2
 10
-8.5293
 20
212.5292
 42
0.1815550622
  0
VERTEX
  8
LAYER_2
 10
-8.6787
 20
212.1059
 42
0.01190200981
  0
VERTEX
  8
LAYER_2
 10
-8.6797
 20
212.0591
 42
0.1802893809
  0
VERTEX
  8
LAYER_2
 10
-8.5263
 20
211.5744
 42
0.2020162133
  0
VERTEX
  8
LAYER_2
 10
-8.158
 20
211.4223
 42
0.01695408336
  0
VERTEX
  8
LAYER_2
 10
-8.103
 20
211.4207
 42
0.2069028033
  0
VERTEX
  8
LAYER_2
 10
-7.6557
 20
211.5904
 42
0.01111068861
  0
VERTEX
  8
LAYER_2
 10
-7.629
 20
211.6167
  0
VERTEX
  8
LAYER_2
 10
-7.8181
 20
211.801
 42
-0.224324849
  0
VERTEX
  8
LAYER_2
 10
-8.1003
 20
211.6839
 42
-0.4264622019
  0
VERTEX
  8
LAYER_2
 10
-8.3735
 20
211.9609
  0
SEQEND
  0
POLYLINE
  8
LAYER_2
 40
0.05
 41
0.05
 66
1
 10
0
 20
0
 30
0
  0
VERTEX
  8
LAYER_2
 10
-9.2778
 20
212.0591
 42
-0.1438386142
  0
VERTEX
  8
LAYER_2
 10
-9.3235
 20
211.7869
 42
-0.2886460427
  0
VERTEX
  8
LAYER_2
 10
-9.4911
 20
211.7004
 42
-0.3841580528
  0
VERTEX
  8
LAYER_2
 10
-9.6851
 20
211.8609
 42
-0.05455021257
  0
VERTEX
  8
LAYER_2
 10
-9.7016
 20
212.0591
 42
-0.1483049254
  0
VERTEX
  8
LAYER_2
 10
-9.6559
 20
212.3323
 42
-0.2855556046
  0
VERTEX
  8
LAYER_2
 10
-9.4911
 20
212.4149
 42
-0.3794480357
  0
VERTEX
  8
LAYER_2
 10
-9.2951
 20
212.2564
 42
-0.05697683845
  0
VERTEX
  8
LAYER_2
 10
-9.2778
 20
212.0591
  0
SEQEND
  0
POLYLINE
  8
LAYER_2
 40
0.05
 41
0.05
 66
1
 10
0
 20
0
 30
0
 70
1
  0
VERTEX
  8
LAYER_2
 10
-8.9667
 20
211.4352
  0
VERTEX
  8
LAYER_2
 10
-8.9667
 20
213.137
  0
VERTEX
  8
LAYER_2
 10
-9.2778
 20
213.137
  0
VERTEX
  8
LAYER_2
 10
-9.2778
 20
212.5707
 42
0.2297998422
  0
VERTEX
  8
LAYER_2
 10
-9.582
 20
212.6947
 42
0.1954770263
  0
VERTEX
  8
LAYER_2
 10
-9.8835
 20
212.5824
 42
0.1230294745
  0
VERTEX
  8
LAYER_2
 10
-9.9795
 20
212.4101
 42
0.0747779445
  0
VERTEX
  8
LAYER_2
 10
-10.013
 20
212.0591
 42
0.0994726102
  0
VERTEX
  8
LAYER_2
 10
-9.9681
 20
211.6704
 42
0.1089535567
  0
VERTEX
  8
LAYER_2
 10
-9.8835
 20
211.533
 42
0.2047870903
  0
VERTEX
  8
LAYER_2
 10
-9.5796
 20
211.4207
 42
0.2301632332
  0
VERTEX
  8
LAYER_2
 10
-9.2709
 20
211.5523
  0
VERTEX
  8
LAYER_2
 10
-9.2709
 20
211.4352
  0
SEQEND
  0
POLYLINE
  8
LAYER_2
 40
0.05
 41
0.05
 66
1
 10
0
 20
0
 30
0
 70
1
  0
VERTEX
  8
LAYER_2
 10
-10.6062
 20
211.894
 42
-0.2466163696
  0
VERTEX
  8
LAYER_2
 10
-10.6541
 20
211.7363
 42
-0.212724989
  0
VERTEX
  8
LAYER_2
 10
-10.8384
 20
211.6763
 42
-0.2058776096
  0
VERTEX
  8
LAYER_2
 10
-10.9909
 20
211.723
 42
-0.205582218
  0
VERTEX
  8
LAYER_2
 10
-11.0272
 20
211.8175
 42
-0.4728058788
  0
VERTEX
  8
LAYER_2
 10
-10.8433
 20
211.9609
  0
VERTEX
  8
LAYER_2
 10
-10.6062
 20
211.9609
  0
SEQEND
  0
POLYLINE
  8
LAYER_2
 40
0.05
 41
0.05
 66
1
 10
0
 20
0
 30
0
 70
1
  0
VERTEX
  8
LAYER_2
 10
-10.2951
 20
211.4352
  0
VERTEX
  8
LAYER_2
 10
-10.2951
 20
212.2551
 42
0.2450199827
  0
VERTEX
  8
LAYER_2
 10
-10.455
 20
212.6039
 42
0.1631220144
  0
VERTEX
  8
LAYER_2
 10
-10.8267
 20
212.6947
 42
0.223003002
  0
VERTEX
  8
LAYER_2
 10
-11.2625
 20
212.5302
 42
0.006267388191
  0
VERTEX
  8
LAYER_2
 10
-11.2739
 20
212.5179
  0
VERTEX
  8
LAYER_2
 10
-11.0779
 20
212.3243
 42
-0.2470834876
  0
VERTEX
  8
LAYER_2
 10
-10.8384
 20
212.4322
 42
-0.1872740545
  0
VERTEX
  8
LAYER_2
 10
-10.6621
 20
212.3865
 42
-0.238797369
  0
VERTEX
  8
LAYER_2
 10
-10.6062
 20
212.2358
  0
VERTEX
  8
LAYER_2
 10
-10.6062
 20
212.1738
  0
VERTEX
  8
LAYER_2
 10
-10.896
 20
212.1738
 42
0.2346153399
  0
VERTEX
  8
LAYER_2
 10
-11.268
 20
212.0142
 42
0.1531846975
  0
VERTEX
  8
LAYER_2
 10
-11.3266
 20
211.8127
 42
0.1894880782
  0
VERTEX
  8
LAYER_2
 10
-11.2239
 20
211.533
 42
0.2078362131
  0
VERTEX
  8
LAYER_2
 10
-10.9053
 20
211.4228
 42
0.2218282602
  0
VERTEX
  8
LAYER_2
 10
-10.599
 20
211.5426
  0
VERTEX
  8
LAYER_2
 10
-10.599
 20
211.4352
  0
SEQEND
  0
POLYLINE
  8
LAYER_2
 40
0.05
 41
0.05
 66
1
 10
0
 20
0
 30
0
 70
1
  0
VERTEX
  8
LAYER_2
 10
-11.5733
 20
211.4352
  0
VERTEX
  8
LAYER_2
 10
-11.5733
 20
212.231
 42
0.205542241
  0
VERTEX
  8
LAYER_2
 10
-11.7097
 20
212.5844
 42
0.1987814349
  0
VERTEX
  8
LAYER_2
 10
-12.016
 20
212.6947
 42
0.2182066523
  0
VERTEX
  8
LAYER_2
 10
-12.3894
 20
212.5369
 42
0.2492914965
  0
VERTEX
  8
LAYER_2
 10
-12.7198
 20
212.6947
 42
0.1963594215
  0
VERTEX
  8
LAYER_2
 10
-13.0309
 20
212.5658
  0
VERTEX
  8
LAYER_2
 10
-13.0309
 20
212.6805
  0
VERTEX
  8
LAYER_2
 10
-13.3348
 20
212.6805
  0
VERTEX
  8
LAYER_2
 10
-13.3348
 20
211.4352
  0
VERTEX
  8
LAYER_2
 10
-13.0233
 20
211.4352
  0
VERTEX
  8
LAYER_2
 10
-13.0233
 20
212.1882
 42
-0.4178253314
  0
VERTEX
  8
LAYER_2
 10
-12.8153
 20
212.4149
 42
-0.4343639015
  0
VERTEX
  8
LAYER_2
 10
-12.6096
 20
212.1882
  0
VERTEX
  8
LAYER_2
 10
-12.6096
 20
211.4352
  0
VERTEX
  8
LAYER_2
 10
-12.2985
 20
211.4352
  0
VERTEX
  8
LAYER_2
 10
-12.2985
 20
212.1951
 42
-0.4176164983
  0
VERTEX
  8
LAYER_2
 10
-12.0904
 20
212.4149
 42
-0.434797635
  0
VERTEX
  8
LAYER_2
 10
-11.8844
 20
212.1882
  0
VERTEX
  8
LAYER_2
 10
-11.8844
 20
211.4352
  0
SEQEND
  0
POLYLINE
  8
LAYER_2
 40
0.05
 41
0.05
 66
1
 10
0
 20
0
 30
0
  0
VERTEX
  8
LAYER_2
 10
-13.8973
 20
212.0229
 42
-0.1159462989
  0
VERTEX
  8
LAYER_2
 10
-13.9445
 20
211.7201
 42
-0.3129536504
  0
VERTEX
  8
LAYER_2
 10
-14.1915
 20
211.5736
 42
-0.314965659
  0
VERTEX
  8
LAYER_2
 10
-14.446
 20
211.7323
 42
-0.1053090454
  0
VERTEX
  8
LAYER_2
 10
-14.4882
 20
212.0229
 42
-0.113954245
  0
VERTEX
  8
LAYER_2
 10
-14.4424
 20
212.3219
 42
-0.3163619605
  0
VERTEX
  8
LAYER_2
 10
-14.1915
 20
212.4725
 42
-0.3164516036
  0
VERTEX
  8
LAYER_2
 10
-13.9392
 20
212.3138
 42
-0.103439187
  0
VERTEX
  8
LAYER_2
 10
-13.8973
 20
212.0229
  0
SEQEND
  0
POLYLINE
  8
LAYER_2
 40
0.05
 41
0.05
 66
1
 10
0
 20
0
 30
0
 70
1
  0
VERTEX
  8
LAYER_2
 10
-13.7247
 20
211.4352
  0
VERTEX
  8
LAYER_2
 10
-13.7247
 20
213.137
  0
VERTEX
  8
LAYER_2
 10
-13.8973
 20
213.137
  0
VERTEX
  8
LAYER_2
 10
-13.8973
 20
212.4749
 42
0.2525818121
  0
VERTEX
  8
LAYER_2
 10
-14.2298
 20
212.6258
 42
0.1886393528
  0
VERTEX
  8
LAYER_2
 10
-14.5171
 20
212.5224
 42
0.1172978386
  0
VERTEX
  8
LAYER_2
 10
-14.6205
 20
212.3434
 42
0.07876818405
  0
VERTEX
  8
LAYER_2
 10
-14.6608
 20
212.0229
 42
0.09207329595
  0
VERTEX
  8
LAYER_2
 10
-14.6127
 20
211.6805
 42
0.1077667615
  0
VERTEX
  8
LAYER_2
 10
-14.5171
 20
211.5234
 42
0.198210181
  0
VERTEX
  8
LAYER_2
 10
-14.2298
 20
211.4207
 42
0.2515984765
  0
VERTEX
  8
LAYER_2
 10
-13.8949
 20
211.5761
  0
VERTEX
  8
LAYER_2
 10
-13.8949
 20
211.4352
  0
SEQEND
  0
POLYLINE
  8
LAYER_2
 40
0.05
 41
0.05
 66
1
 10
0
 20
0
 30
0
 70
1
  0
VERTEX
  8
LAYER_2
 10
-15.0173
 20
211.4352
  0
VERTEX
  8
LAYER_2
 10
-15.0173
 20
212.1882
 42
0.2025955741
  0
VERTEX
  8
LAYER_2
 10
-15.1393
 20
212.5156
 42
0.2044555257
  0
VERTEX
  8
LAYER_2
 10
-15.4411
 20
212.6258
 42
0.2165707378
  0
VERTEX
  8
LAYER_2
 10
-15.7711
 20
212.4818
  0
VERTEX
  8
LAYER_2
 10
-15.7711
 20
212.6113
  0
VERTEX
  8
LAYER_2
 10
-15.9434
 20
212.6113
  0
VERTEX
  8
LAYER_2
 10
-15.9434
 20
211.4352
  0
VERTEX
  8
LAYER_2
 10
-15.7711
 20
211.4352
  0
VERTEX
  8
LAYER_2
 10
-15.7711
 20
212.1593
 42
-0.2837547598
  0
VERTEX
  8
LAYER_2
 10
-15.6189
 20
212.4442
 42
-0.1086336204
  0
VERTEX
  8
LAYER_2
 10
-15.479
 20
212.4725
 42
-0.442304779
  0
VERTEX
  8
LAYER_2
 10
-15.1896
 20
212.1593
  0
VERTEX
  8
LAYER_2
 10
-15.1896
 20
211.4352
  0
SEQEND
  0
POLYLINE
  8
LAYER_2
 40
0.05
 41
0.05
 66
1
 10
0
 20
0
 30
0
 70
1
  0
VERTEX
  8
LAYER_2
 10
-16.5346
 20
211.8506
 42
-0.2101171453
  0
VERTEX
  8
LAYER_2
 10
-16.5945
 20
211.6477
 42
-0.2061049303
  0
VERTEX
  8
LAYER_2
 10
-16.8553
 20
211.5688
 42
-0.162375608
  0
VERTEX
  8
LAYER_2
 10
-17.0584
 20
211.6151
 42
-0.2625865829
  0
VERTEX
  8
LAYER_2
 10
-17.1281
 20
211.77
 42
-0.3766203625
  0
VERTEX
  8
LAYER_2
 10
-16.9692
 20
211.9668
 42
-0.05119198821
  0
VERTEX
  8
LAYER_2
 10
-16.8625
 20
211.9774
  0
VERTEX
  8
LAYER_2
 10
-16.5346
 20
211.9774
  0
SEQEND
  0
POLYLINE
  8
LAYER_2
 40
0.05
 41
0.05
 66
1
 10
0
 20
0
 30
0
 70
1
  0
VERTEX
  8
LAYER_2
 10
-16.362
 20
211.4352
  0
VERTEX
  8
LAYER_2
 10
-16.362
 20
212.233
 42
0.2623610217
  0
VERTEX
  8
LAYER_2
 10
-16.5224
 20
212.5561
 42
0.1450933816
  0
VERTEX
  8
LAYER_2
 10
-16.8336
 20
212.6258
 42
0.2362276322
  0
VERTEX
  8
LAYER_2
 10
-17.2355
 20
212.4672
 42
0.01170794038
  0
VERTEX
  8
LAYER_2
 10
-17.2501
 20
212.4487
  0
VERTEX
  8
LAYER_2
 10
-17.133
 20
212.3409
 42
-0.2755800686
  0
VERTEX
  8
LAYER_2
 10
-16.8364
 20
212.4776
 42
-0.1517468402
  0
VERTEX
  8
LAYER_2
 10
-16.6283
 20
212.4308
 42
-0.2800643637
  0
VERTEX
  8
LAYER_2
 10
-16.5346
 20
212.2193
  0
VERTEX
  8
LAYER_2
 10
-16.5346
 20
212.1066
  0
VERTEX
  8
LAYER_2
 10
-16.8863
 20
212.1066
 42
0.2378691362
  0
VERTEX
  8
LAYER_2
 10
-17.2451
 20
211.9523
 42
0.1477379502
  0
VERTEX
  8
LAYER_2
 10
-17.2956
 20
211.7673
 42
0.1983884986
  0
VERTEX
  8
LAYER_2
 10
-17.2071
 20
211.5282
 42
0.2222408302
  0
VERTEX
  8
LAYER_2
 10
-16.8742
 20
211.4207
 42
0.21971579
  0
VERTEX
  8
LAYER_2
 10
-16.5346
 20
211.5471
  0
VERTEX
  8
LAYER_2
 10
-16.5346
 20
211.4352
  0
SEQEND
  0
POLYLINE
  8
LAYER_2
 40
0.05
 41
0.05
 66
1
 10
0
 20
0
 30
0
 70
1
  0
VERTEX
  8
LAYER_2
 10
-17.6211
 20
211.4352
  0
VERTEX
  8
LAYER_2
 10
-17.6211
 20
212.1903
 42
0.2366048602
  0
VERTEX
  8
LAYER_2
 10
-17.7848
 20
212.5524
 42
0.1585996094
  0
VERTEX
  8
LAYER_2
 10
-18.0449
 20
212.6258
 42
0.2174282511
  0
VERTEX
  8
LAYER_2
 10
-18.3749
 20
212.4818
  0
VERTEX
  8
LAYER_2
 10
-18.3749
 20
213.137
  0
VERTEX
  8
LAYER_2
 10
-18.5475
 20
213.137
  0
VERTEX
  8
LAYER_2
 10
-18.5475
 20
211.4352
  0
VERTEX
  8
LAYER_2
 10
-18.3749
 20
211.4352
  0
VERTEX
  8
LAYER_2
 10
-18.3749
 20
212.1617
 42
-0.2889308341
  0
VERTEX
  8
LAYER_2
 10
-18.2221
 20
212.4453
 42
-0.1047577161
  0
VERTEX
  8
LAYER_2
 10
-18.0807
 20
212.4725
 42
-0.4463558923
  0
VERTEX
  8
LAYER_2
 10
-17.7934
 20
212.1617
  0
VERTEX
  8
LAYER_2
 10
-17.7934
 20
211.4352
  0
SEQEND
  0
ENDBLK
  0
BLOCK
  8
LAYER_2
  2
AIGNBL02020007
 70
64
 10
0
 20
0
 30
0
  3
AIGNBL02020007
  0
INSERT
  8
LAYER_2
  2
AIGNBL02030008
 10
0
 20
0
 30
0
  0
ENDBLK
  0
BLOCK
  8
LAYER_2
  2
AIGNBL02020010
 70
64
 10
0
 20
0
 30
0
  3
AIGNBL02020010
  0
INSERT
  8
LAYER_2
  2
AIGNBL02030011
 10
0
 20
0
 30
0
  0
INSERT
  8
LAYER_2
  2
AIGNBL02030012
 10
0
 20
0
 30
0
  0
INSERT
  8
LAYER_2
  2
AIGNBL02030013
 10
0
 20
0
 30
0
  0
INSERT
  8
LAYER_2
  2
AIGNBL02030014
 10
0
 20
0
 30
0
  0
INSERT
  8
LAYER_2
  2
AIGNBL02030015
 10
0
 20
0
 30
0
  0
INSERT
  8
LAYER_2
  2
AIGNBL02030016
 10
0
 20
0
 30
0
  0
INSERT
  8
LAYER_2
  2
AIGNBL02030017
 10
0
 20
0
 30
0
  0
INSERT
  8
LAYER_2
  2
AIGNBL02030018
 10
0
 20
0
 30
0
  0
INSERT
  8
LAYER_2
  2
AIGNBL02030019
 10
0
 20
0
 30
0
  0
INSERT
  8
LAYER_2
  2
AIGNBL0203001A
 10
0
 20
0
 30
0
  0
INSERT
  8
LAYER_2
  2
AIGNBL0203001B
 10
0
 20
0
 30
0
  0
INSERT
  8
LAYER_2
  2
AIGNBL0203001C
 10
0
 20
0
 30
0
  0
INSERT
  8
LAYER_2
  2
AIGNBL0203001D
 10
0
 20
0
 30
0
  0
INSERT
  8
LAYER_2
  2
AIGNBL0203001E
 10
0
 20
0
 30
0
  0
INSERT
  8
LAYER_2
  2
AIGNBL0203001F
 10
0
 20
0
 30
0
  0
INSERT
  8
LAYER_2
  2
AIGNBL02030020
 10
0
 20
0
 30
0
  0
INSERT
  8
LAYER_2
  2
AIGNBL02030021
 10
0
 20
0
 30
0
  0
INSERT
  8
LAYER_2
  2
AIGNBL02030022
 10
0
 20
0
 30
0
  0
INSERT
  8
LAYER_2
  2
AIGNBL02030023
 10
0
 20
0
 30
0
  0
INSERT
  8
LAYER_2
  2
AIGNBL02030024
 10
0
 20
0
 30
0
  0
INSERT
  8
LAYER_2
  2
AIGNBL02030025
 10
0
 20
0
 30
0
  0
INSERT
  8
LAYER_2
  2
AIGNBL02030026
 10
0
 20
0
 30
0
  0
INSERT
  8
LAYER_2
  2
AIGNBL02030027
 10
0
 20
0
 30
0
  0
ENDBLK
  0
BLOCK
  8
LAYER_2
  2
AIGNBL02020041
 70
64
 10
0
 20
0
 30
0
  3
AIGNBL02020041
  0
POLYLINE
  8
LAYER_2
 40
0.1411
 41
0.1411
 66
1
 10
0
 20
0
 30
0
  0
VERTEX
  8
LAYER_2
 10
91.4142
 20
86.4422
  0
VERTEX
  8
LAYER_2
 10
91.4336
 20
86.2792
  0
SEQEND
  0
POLYLINE
  8
LAYER_2
 40
0.1411
 41
0.1411
 66
1
 10
0
 20
0
 30
0
  0
VERTEX
  8
LAYER_2
 10
73.4962
 20
93.4004
  0
VERTEX
  8
LAYER_2
 10
82.0239
 20
90.5295
  0
SEQEND
  0
POLYLINE
  8
LAYER_2
 40
0.1411
 41
0.1411
 66
1
 10
0
 20
0
 30
0
  0
VERTEX
  8
LAYER_2
 10
82.146
 20
90.5599
  0
VERTEX
  8
LAYER_2
 10
86.4778
 20
95.3442
  0
SEQEND
  0
POLYLINE
  8
LAYER_2
 40
0.1411
 41
0.1411
 66
1
 10
0
 20
0
 30
0
 70
1
  0
VERTEX
  8
LAYER_2
 10
81.8204
 20
92.5675
  0
VERTEX
  8
LAYER_2
 10
81.855
 20
92.6042
  0
VERTEX
  8
LAYER_2
 10
81.8825
 20
92.6402
  0
VERTEX
  8
LAYER_2
 10
81.91
 20
92.6797
 42
0.2184887568
  0
VERTEX
  8
LAYER_2
 10
81.9844
 20
93.0986
 42
0.1986868086
  0
VERTEX
  8
LAYER_2
 10
81.723
 20
93.3944
 42
0.021632782
  0
VERTEX
  8
LAYER_2
 10
81.6659
 20
93.4234
  0
VERTEX
  8
LAYER_2
 10
81.6204
 20
93.4428
  0
VERTEX
  8
LAYER_2
 10
81.5752
 20
93.4583
 42
0.1314718972
  0
VERTEX
  8
LAYER_2
 10
80.8781
 20
93.4878
 42
0.08928341641
  0
VERTEX
  8
LAYER_2
 10
80.3546
 20
93.2854
  0
VERTEX
  8
LAYER_2
 10
80.3084
 20
93.2544
  0
VERTEX
  8
LAYER_2
 10
80.2657
 20
93.2237
  0
VERTEX
  8
LAYER_2
 10
80.2234
 20
93.1895
  0
VERTEX
  8
LAYER_2
 10
80.1846
 20
93.1559
 42
0.1849127017
  0
VERTEX
  8
LAYER_2
 10
79.9474
 20
92.7256
 42
0.1687811954
  0
VERTEX
  8
LAYER_2
 10
80.0205
 20
92.456
  0
VERTEX
  8
LAYER_2
 10
80.0551
 20
92.4102
 42
0.1691331284
  0
VERTEX
  8
LAYER_2
 10
80.5233
 20
92.1714
 42
0.1134848845
  0
VERTEX
  8
LAYER_2
 10
81.1956
 20
92.2101
 42
0.08940668889
  0
VERTEX
  8
LAYER_2
 10
81.6556
 20
92.4239
  0
VERTEX
  8
LAYER_2
 10
81.7181
 20
92.468
  0
VERTEX
  8
LAYER_2
 10
81.7731
 20
92.5146
  0
SEQEND
  0
POLYLINE
  8
LAYER_2
 40
0.1411
 41
0.1411
 66
1
 10
0
 20
0
 30
0
  0
VERTEX
  8
LAYER_2
 10
73.4885
 20
93.4032
  0
VERTEX
  8
LAYER_2
 10
73.4927
 20
93.4001
  0
VERTEX
  8
LAYER_2
 10
73.4962
 20
93.4004
  0
SEQEND
  0
POLYLINE
  8
LAYER_2
 40
0.1411
 41
0.1411
 66
1
 10
0
 20
0
 30
0
  0
VERTEX
  8
LAYER_2
 10
86.4778
 20
95.3442
  0
VERTEX
  8
LAYER_2
 10
86.4813
 20
95.3446
  0
VERTEX
  8
LAYER_2
 10
86.4809
 20
95.3481
  0
SEQEND
  0
POLYLINE
  8
LAYER_2
 40
0.1411
 41
0.1411
 66
1
 10
0
 20
0
 30
0
  0
VERTEX
  8
LAYER_2
 10
82.0239
 20
90.5295
  0
VERTEX
  8
LAYER_2
 10
82.0317
 20
90.527
  0
VERTEX
  8
LAYER_2
 10
82.0465
 20
90.5218
  0
VERTEX
  8
LAYER_2
 10
82.0888
 20
90.5274
  0
VERTEX
  8
LAYER_2
 10
82.1061
 20
90.533
  0
VERTEX
  8
LAYER_2
 10
82.1234
 20
90.539
  0
VERTEX
  8
LAYER_2
 10
82.1432
 20
90.5524
  0
VERTEX
  8
LAYER_2
 10
82.1464
 20
90.5563
  0
SEQEND
  0
POLYLINE
  8
LAYER_2
 40
0.1411
 41
0.1411
 66
1
 10
0
 20
0
 30
0
  0
VERTEX
  8
LAYER_2
 10
80.0357
 20
92.5619
  0
VERTEX
  8
LAYER_2
 10
80.0417
 20
92.5414
 42
0.2098137203
  0
VERTEX
  8
LAYER_2
 10
80.351
 20
92.2414
 42
0.1338249559
  0
VERTEX
  8
LAYER_2
 10
80.9378
 20
92.1779
 42
0.1079992173
  0
VERTEX
  8
LAYER_2
 10
81.5963
 20
92.4
 42
0.06051796701
  0
VERTEX
  8
LAYER_2
 10
81.7407
 20
92.5178
  0
VERTEX
  8
LAYER_2
 10
81.7847
 20
92.5629
  0
VERTEX
  8
LAYER_2
 10
81.807
 20
92.5873
 42
0.2049766569
  0
VERTEX
  8
LAYER_2
 10
81.9474
 20
92.9718
  0
VERTEX
  8
LAYER_2
 10
81.9407
 20
92.9961
  0
SEQEND
  0
POLYLINE
  8
LAYER_2
 40
0.1411
 41
0.1411
 66
1
 10
0
 20
0
 30
0
  0
VERTEX
  8
LAYER_2
 10
86.4481
 20
95.3799
  0
VERTEX
  8
LAYER_2
 10
86.4552
 20
95.3809
  0
VERTEX
  8
LAYER_2
 10
86.4591
 20
95.3777
  0
VERTEX
  8
LAYER_2
 10
86.4626
 20
95.3781
  0
VERTEX
  8
LAYER_2
 10
86.4668
 20
95.3753
  0
VERTEX
  8
LAYER_2
 10
86.4707
 20
95.3721
  0
VERTEX
  8
LAYER_2
 10
86.4788
 20
95.3657
  0
VERTEX
  8
LAYER_2
 10
86.4809
 20
95.3481
  0
SEQEND
  0
POLYLINE
  8
LAYER_2
 40
0.1411
 41
0.1411
 66
1
 10
0
 20
0
 30
0
  0
VERTEX
  8
LAYER_2
 10
86.5204
 20
95.3499
  0
VERTEX
  8
LAYER_2
 10
86.4982
 20
95.3541
  0
VERTEX
  8
LAYER_2
 10
86.4845
 20
95.3488
  0
VERTEX
  8
LAYER_2
 10
86.4778
 20
95.3442
  0
SEQEND
  0
POLYLINE
  8
LAYER_2
 40
0.1411
 41
0.1411
 66
1
 10
0
 20
0
 30
0
  0
VERTEX
  8
LAYER_2
 10
86.4481
 20
95.3799
  0
VERTEX
  8
LAYER_2
 10
86.4488
 20
95.4014
  0
VERTEX
  8
LAYER_2
 10
86.4562
 20
95.4275
  0
VERTEX
  8
LAYER_2
 10
86.4675
 20
95.4508
  0
VERTEX
  8
LAYER_2
 10
86.4703
 20
95.4582
  0
VERTEX
  8
LAYER_2
 10
86.4763
 20
95.4663
  0
SEQEND
  0
POLYLINE
  8
LAYER_2
 40
0.1411
 41
0.1411
 66
1
 10
0
 20
0
 30
0
  0
VERTEX
  8
LAYER_2
 10
82.1922
 20
90.5623
  0
VERTEX
  8
LAYER_2
 10
86.5204
 20
95.3499
  0
SEQEND
  0
POLYLINE
  8
LAYER_2
 40
0.1411
 41
0.1411
 66
1
 10
0
 20
0
 30
0
  0
VERTEX
  8
LAYER_2
 10
86.4763
 20
95.4663
  0
VERTEX
  8
LAYER_2
 10
78.2002
 20
97.9209
  0
SEQEND
  0
POLYLINE
  8
LAYER_2
 40
0.1411
 41
0.1411
 66
1
 10
0
 20
0
 30
0
  0
VERTEX
  8
LAYER_2
 10
78.0192
 20
97.8758
  0
VERTEX
  8
LAYER_2
 10
73.4356
 20
93.5077
  0
SEQEND
  0
POLYLINE
  8
LAYER_2
 40
0.1411
 41
0.1411
 66
1
 10
0
 20
0
 30
0
  0
VERTEX
  8
LAYER_2
 10
81.9407
 20
92.9961
  0
VERTEX
  8
LAYER_2
 10
81.9329
 20
93.0272
 42
0.2046339998
  0
VERTEX
  8
LAYER_2
 10
81.6331
 20
93.3387
 42
0.1374102841
  0
VERTEX
  8
LAYER_2
 10
81.0647
 20
93.4186
 42
0.1081158723
  0
VERTEX
  8
LAYER_2
 10
80.4184
 20
93.2145
 42
0.1508441862
  0
VERTEX
  8
LAYER_2
 10
80.0645
 20
92.8367
 42
0.1191385592
  0
VERTEX
  8
LAYER_2
 10
80.0279
 20
92.5933
  0
VERTEX
  8
LAYER_2
 10
80.0357
 20
92.5619
  0
SEQEND
  0
POLYLINE
  8
LAYER_2
 40
0.1411
 41
0.1411
 66
1
 10
0
 20
0
 30
0
  0
VERTEX
  8
LAYER_2
 10
78.6595
 20
95.6677
  0
VERTEX
  8
LAYER_2
 10
78.1236
 20
97.8274
  0
SEQEND
  0
POLYLINE
  8
LAYER_2
 40
0.1411
 41
0.1411
 66
1
 10
0
 20
0
 30
0
  0
VERTEX
  8
LAYER_2
 10
78.0809
 20
97.8158
  0
VERTEX
  8
LAYER_2
 10
73.5012
 20
93.4442
  0
SEQEND
  0
POLYLINE
  8
LAYER_2
 40
0.1411
 41
0.1411
 66
1
 10
0
 20
0
 30
0
  0
VERTEX
  8
LAYER_2
 10
78.6168
 20
95.6557
  0
VERTEX
  8
LAYER_2
 10
78.4704
 20
95.5111
  0
VERTEX
  8
LAYER_2
 10
75.8412
 20
92.9079
  0
VERTEX
  8
LAYER_2
 10
75.6154
 20
92.6846
  0
SEQEND
  0
POLYLINE
  8
LAYER_2
 40
0.1411
 41
0.1411
 66
1
 10
0
 20
0
 30
0
  0
VERTEX
  8
LAYER_2
 10
85.0077
 20
93.7207
  0
VERTEX
  8
LAYER_2
 10
84.499
 20
93.8739
  0
VERTEX
  8
LAYER_2
 10
78.9731
 20
95.5943
  0
VERTEX
  8
LAYER_2
 10
78.7071
 20
95.6783
  0
SEQEND
  0
POLYLINE
  8
LAYER_2
 40
0.1411
 41
0.1411
 66
1
 10
0
 20
0
 30
0
  0
VERTEX
  8
LAYER_2
 10
86.4481
 20
95.3799
  0
VERTEX
  8
LAYER_2
 10
78.1713
 20
97.8384
  0
SEQEND
  0
POLYLINE
  8
LAYER_2
 40
0.1411
 41
0.1411
 66
1
 10
0
 20
0
 30
0
  0
VERTEX
  8
LAYER_2
 10
84.9449
 20
93.6516
  0
VERTEX
  8
LAYER_2
 10
84.6006
 20
93.7578
  0
VERTEX
  8
LAYER_2
 10
78.7491
 20
95.576
  0
VERTEX
  8
LAYER_2
 10
78.6778
 20
95.5989
  0
VERTEX
  8
LAYER_2
 10
78.6433
 20
95.5622
  0
VERTEX
  8
LAYER_2
 10
75.8295
 20
92.7771
  0
VERTEX
  8
LAYER_2
 10
75.7092
 20
92.6539
  0
SEQEND
  0
POLYLINE
  8
LAYER_2
 40
0.1411
 41
0.1411
 66
1
 10
0
 20
0
 30
0
  0
VERTEX
  8
LAYER_2
 10
73.4885
 20
93.4032
  0
VERTEX
  8
LAYER_2
 10
73.4842
 20
93.4096
  0
VERTEX
  8
LAYER_2
 10
73.4888
 20
93.4283
  0
VERTEX
  8
LAYER_2
 10
73.4885
 20
93.4318
  0
VERTEX
  8
LAYER_2
 10
73.4952
 20
93.4364
  0
VERTEX
  8
LAYER_2
 10
73.5012
 20
93.4442
  0
SEQEND
  0
POLYLINE
  8
LAYER_2
 40
0.1411
 41
0.1411
 66
1
 10
0
 20
0
 30
0
  0
VERTEX
  8
LAYER_2
 10
78.7071
 20
95.6783
  0
VERTEX
  8
LAYER_2
 10
78.7064
 20
95.6564
  0
VERTEX
  8
LAYER_2
 10
78.7022
 20
95.6346
  0
VERTEX
  8
LAYER_2
 10
78.6902
 20
95.6152
  0
VERTEX
  8
LAYER_2
 10
78.6778
 20
95.5989
  0
VERTEX
  8
LAYER_2
 10
78.6704
 20
95.6018
  0
VERTEX
  8
LAYER_2
 10
78.6588
 20
95.6074
  0
VERTEX
  8
LAYER_2
 10
78.6429
 20
95.6197
  0
VERTEX
  8
LAYER_2
 10
78.626
 20
95.6392
  0
VERTEX
  8
LAYER_2
 10
78.6168
 20
95.6557
  0
SEQEND
  0
POLYLINE
  8
LAYER_2
 40
0.1411
 41
0.1411
 66
1
 10
0
 20
0
 30
0
  0
VERTEX
  8
LAYER_2
 10
86.4763
 20
95.4663
  0
VERTEX
  8
LAYER_2
 10
86.488
 20
95.4603
 42
-0.5291350784
  0
VERTEX
  8
LAYER_2
 10
86.5264
 20
95.3576
  0
VERTEX
  8
LAYER_2
 10
86.5204
 20
95.3499
  0
SEQEND
  0
POLYLINE
  8
LAYER_2
 40
0.1411
 41
0.1411
 66
1
 10
0
 20
0
 30
0
  0
VERTEX
  8
LAYER_2
 10
78.0809
 20
97.8158
  0
VERTEX
  8
LAYER_2
 10
78.0711
 20
97.8359
  0
VERTEX
  8
LAYER_2
 10
78.0548
 20
97.8518
  0
VERTEX
  8
LAYER_2
 10
78.0266
 20
97.8733
  0
VERTEX
  8
LAYER_2
 10
78.0192
 20
97.8758
  0
VERTEX
  8
LAYER_2
 10
78.0256
 20
97.8839
  0
VERTEX
  8
LAYER_2
 10
78.0354
 20
97.8888
  0
VERTEX
  8
LAYER_2
 10
78.0453
 20
97.8973
  0
VERTEX
  8
LAYER_2
 10
78.0552
 20
97.9022
  0
VERTEX
  8
LAYER_2
 10
78.0792
 20
97.9125
  0
VERTEX
  8
LAYER_2
 10
78.1035
 20
97.9191
  0
VERTEX
  8
LAYER_2
 10
78.1564
 20
97.9259
  0
VERTEX
  8
LAYER_2
 10
78.1674
 20
97.9237
  0
VERTEX
  8
LAYER_2
 10
78.1779
 20
97.9251
  0
VERTEX
  8
LAYER_2
 10
78.1892
 20
97.923
  0
VERTEX
  8
LAYER_2
 10
78.2002
 20
97.9209
  0
SEQEND
  0
POLYLINE
  8
LAYER_2
 40
0.1411
 41
0.1411
 66
1
 10
0
 20
0
 30
0
  0
VERTEX
  8
LAYER_2
 10
73.4546
 20
93.3881
  0
VERTEX
  8
LAYER_2
 10
73.4437
 20
93.3902
  0
VERTEX
  8
LAYER_2
 10
73.4356
 20
93.3962
  0
VERTEX
  8
LAYER_2
 10
73.4063
 20
93.4283
  0
VERTEX
  8
LAYER_2
 10
73.4042
 20
93.4459
 42
-0.1815696688
  0
VERTEX
  8
LAYER_2
 10
73.42
 20
93.4876
  0
VERTEX
  8
LAYER_2
 10
73.4257
 20
93.4992
  0
VERTEX
  8
LAYER_2
 10
73.4356
 20
93.5077
  0
SEQEND
  0
POLYLINE
  8
LAYER_2
 40
0.1411
 41
0.1411
 66
1
 10
0
 20
0
 30
0
  0
VERTEX
  8
LAYER_2
 10
78.0809
 20
97.8158
  0
VERTEX
  8
LAYER_2
 10
78.0834
 20
97.8232
 42
-0.2173732595
  0
VERTEX
  8
LAYER_2
 10
78.16
 20
97.844
  0
VERTEX
  8
LAYER_2
 10
78.1713
 20
97.8384
  0
SEQEND
  0
POLYLINE
  8
LAYER_2
 40
0.1411
 41
0.1411
 66
1
 10
0
 20
0
 30
0
  0
VERTEX
  8
LAYER_2
 10
71.1069
 20
93.2374
  0
VERTEX
  8
LAYER_2
 10
71.1157
 20
93.2244
  0
VERTEX
  8
LAYER_2
 10
71.1238
 20
93.218
  0
VERTEX
  8
LAYER_2
 10
71.1312
 20
93.2156
  0
SEQEND
  0
POLYLINE
  8
LAYER_2
 40
0.1411
 41
0.1411
 66
1
 10
0
 20
0
 30
0
  0
VERTEX
  8
LAYER_2
 10
78.2002
 20
97.9209
  0
VERTEX
  8
LAYER_2
 10
78.1878
 20
97.905
  0
VERTEX
  8
LAYER_2
 10
78.1765
 20
97.8821
  0
VERTEX
  8
LAYER_2
 10
78.1723
 20
97.8599
  0
VERTEX
  8
LAYER_2
 10
78.1713
 20
97.8384
  0
SEQEND
  0
POLYLINE
  8
LAYER_2
 40
0.1411
 41
0.1411
 66
1
 10
0
 20
0
 30
0
  0
VERTEX
  8
LAYER_2
 10
81.9869
 20
90.5105
  0
VERTEX
  8
LAYER_2
 10
82.0017
 20
90.5087
 42
0.2382158637
  0
VERTEX
  8
LAYER_2
 10
82.1827
 20
90.5539
  0
VERTEX
  8
LAYER_2
 10
82.1922
 20
90.5623
  0
SEQEND
  0
POLYLINE
  8
LAYER_2
 40
0.1411
 41
0.1411
 66
1
 10
0
 20
0
 30
0
  0
VERTEX
  8
LAYER_2
 10
78.6168
 20
95.6557
  0
VERTEX
  8
LAYER_2
 10
78.6235
 20
95.6603
  0
VERTEX
  8
LAYER_2
 10
78.6334
 20
95.6649
  0
VERTEX
  8
LAYER_2
 10
78.6613
 20
95.6723
  0
VERTEX
  8
LAYER_2
 10
78.6856
 20
95.679
  0
VERTEX
  8
LAYER_2
 10
78.7071
 20
95.6783
  0
SEQEND
  0
POLYLINE
  8
LAYER_2
 40
0.1411
 41
0.1411
 66
1
 10
0
 20
0
 30
0
  0
VERTEX
  8
LAYER_2
 10
81.9869
 20
90.5105
  0
VERTEX
  8
LAYER_2
 10
82.0063
 20
90.5274
  0
VERTEX
  8
LAYER_2
 10
82.0239
 20
90.5295
  0
SEQEND
  0
POLYLINE
  8
LAYER_2
 40
0.1411
 41
0.1411
 66
1
 10
0
 20
0
 30
0
  0
VERTEX
  8
LAYER_2
 10
82.1464
 20
90.5563
  0
VERTEX
  8
LAYER_2
 10
82.1559
 20
90.5648
  0
VERTEX
  8
LAYER_2
 10
82.177
 20
90.5676
  0
VERTEX
  8
LAYER_2
 10
82.1922
 20
90.5623
  0
SEQEND
  0
POLYLINE
  8
LAYER_2
 40
0.1411
 41
0.1411
 66
1
 10
0
 20
0
 30
0
  0
VERTEX
  8
LAYER_2
 10
73.4546
 20
93.3881
  0
VERTEX
  8
LAYER_2
 10
81.9869
 20
90.5105
  0
SEQEND
  0
POLYLINE
  8
LAYER_2
 40
0.1411
 41
0.1411
 66
1
 10
0
 20
0
 30
0
  0
VERTEX
  8
LAYER_2
 10
73.225
 20
92.335
  0
VERTEX
  8
LAYER_2
 10
91.3934
 20
86.2669
  0
VERTEX
  8
LAYER_2
 10
91.4043
 20
86.2648
 42
0.2441325265
  0
VERTEX
  8
LAYER_2
 10
91.4738
 20
86.2845
  0
VERTEX
  8
LAYER_2
 10
91.4833
 20
86.293
  0
VERTEX
  8
LAYER_2
 10
96.1559
 20
92.3319
  0
SEQEND
  0
POLYLINE
  8
LAYER_2
 40
0.1411
 41
0.1411
 66
1
 10
0
 20
0
 30
0
  0
VERTEX
  8
LAYER_2
 10
71.1312
 20
93.2156
  0
VERTEX
  8
LAYER_2
 10
91.3574
 20
86.4595
  0
VERTEX
  8
LAYER_2
 10
91.369
 20
86.4539
 42
0.2174412568
  0
VERTEX
  8
LAYER_2
 10
91.459
 20
86.48
  0
VERTEX
  8
LAYER_2
 10
91.4653
 20
86.4881
  0
VERTEX
  8
LAYER_2
 10
97.2491
 20
93.9818
  0
SEQEND
  0
ENDBLK
  0
BLOCK
  8
LAYER_2
  2
AIGNBL02020042
 70
64
 10
0
 20
0
 30
0
  3
AIGNBL02020042
  0
POLYLINE
  8
LAYER_2
 40
0.1411
 41
0.1411
 66
1
 10
0
 20
0
 30
0
  0
VERTEX
  8
LAYER_2
 10
82.5564
 20
97.3014
  0
VERTEX
  8
LAYER_2
 10
82.5395
 20
97.3148
 42
0.1959101029
  0
VERTEX
  8
LAYER_2
 10
82.1003
 20
97.4347
 42
0.1127150027
  0
VERTEX
  8
LAYER_2
 10
81.8466
 20
97.3596
  0
VERTEX
  8
LAYER_2
 10
81.8177
 20
97.3395
  0
SEQEND
  0
POLYLINE
  8
LAYER_2
 40
0.1411
 41
0.1411
 66
1
 10
0
 20
0
 30
0
 70
1
  0
VERTEX
  8
LAYER_2
 10
82.4989
 20
97.2669
  0
VERTEX
  8
LAYER_2
 10
82.4657
 20
97.2506
  0
VERTEX
  8
LAYER_2
 10
82.4287
 20
97.2372
  0
VERTEX
  8
LAYER_2
 10
82.3863
 20
97.2249
 42
-0.2585563274
  0
VERTEX
  8
LAYER_2
 10
81.7689
 20
97.3943
 42
-0.02029625474
  0
VERTEX
  8
LAYER_2
 10
81.7545
 20
97.4168
  0
VERTEX
  8
LAYER_2
 10
81.7401
 20
97.4461
 42
-0.3550425495
  0
VERTEX
  8
LAYER_2
 10
81.8417
 20
97.7198
  0
VERTEX
  8
LAYER_2
 10
81.8709
 20
97.7396
  0
VERTEX
  8
LAYER_2
 10
81.902
 20
97.7565
  0
VERTEX
  8
LAYER_2
 10
81.9376
 20
97.7724
  0
VERTEX
  8
LAYER_2
 10
81.9746
 20
97.7858
 42
-0.2594364743
  0
VERTEX
  8
LAYER_2
 10
82.6108
 20
97.6521
 42
-0.02559452517
  0
VERTEX
  8
LAYER_2
 10
82.6347
 20
97.6218
  0
VERTEX
  8
LAYER_2
 10
82.6442
 20
97.6073
  0
VERTEX
  8
LAYER_2
 10
82.6513
 20
97.5925
 42
-0.3562731273
  0
VERTEX
  8
LAYER_2
 10
82.5747
 20
97.3148
  0
VERTEX
  8
LAYER_2
 10
82.5613
 20
97.3036
  0
VERTEX
  8
LAYER_2
 10
82.5299
 20
97.2838
  0
SEQEND
  0
ENDBLK
  0
BLOCK
  8
LAYER_2
  2
AIGNBL02010002
 70
64
 10
0
 20
0
 30
0
  3
AIGNBL02010002
  0
POLYLINE
  8
LAYER_2
 40
0.7056
 41
0.7056
 66
1
 10
0
 20
0
 30
0
 70
1
  0
VERTEX
  8
LAYER_2
 10
251.6749
 20
230.337
  0
VERTEX
  8
LAYER_2
 10
251.6749
 20
33.3285
  0
VERTEX
  8
LAYER_2
 10
-30.3177
 20
33.3285
  0
VERTEX
  8
LAYER_2
 10
-30.3177
 20
230.337
  0
SEQEND
  0
ENDBLK
  0
BLOCK
  8
LAYER_2
  2
AIGNBL02010003
 70
64
 10
0
 20
0
 30
0
  3
AIGNBL02010003
  0
INSERT
  8
LAYER_2
  2
AIGNBL02020004
 10
0
 20
0
 30
0
  0
POLYLINE
  8
LAYER_2
 40
0.05
 41
0.05
 66
1
 10
0
 20
0
 30
0
  0
VERTEX
  8
LAYER_2
 10
-6.457
 20
223.2684
  0
VERTEX
  8
LAYER_2
 10
-8.0924
 20
223.2684
  0
VERTEX
  8
LAYER_2
 10
-8.0924
 20
216.1939
 42
0.1050424825
  0
VERTEX
  8
LAYER_2
 10
-7.9127
 20
215.3316
 42
0.1079536646
  0
VERTEX
  8
LAYER_2
 10
-7.4796
 20
214.75
 42
0.105678841
  0
VERTEX
  8
LAYER_2
 10
-6.8587
 20
214.4154
 42
0.04706827067
  0
VERTEX
  8
LAYER_2
 10
-6.4597
 20
214.3359
  0
VERTEX
  8
LAYER_2
 10
-6.457
 20
223.2684
  0
SEQEND
  0
INSERT
  8
LAYER_2
  2
AIGNBL02020005
 10
0
 20
0
 30
0
  0
ENDBLK
  0
BLOCK
  8
LAYER_2
  2
AIGNBL02010006
 70
64
 10
0
 20
0
 30
0
  3
AIGNBL02010006
  0
INSERT
  8
LAYER_2
  2
AIGNBL02020007
 10
0
 20
0
 30
0
  0
INSERT
  8
LAYER_2
  2
AIGNBL02020010
 10
0
 20
0
 30
0
  0
ENDBLK
  0
BLOCK
  8
LAYER_2
  2
AIGNBL02010028
 70
64
 10
0
 20
0
 30
0
  3
AIGNBL02010028
  0
POLYLINE
  8
LAYER_2
 40
0.1094
 41
0.1094
 66
1
 10
0
 20
0
 30
0
  0
VERTEX
  8
LAYER_2
 10
57.3924
 20
94.6298
  0
VERTEX
  8
LAYER_2
 10
51.9544
 20
89.4422
  0
VERTEX
  8
LAYER_2
 10
51.9455
 20
89.4337
  0
VERTEX
  8
LAYER_2
 10
51.8778
 20
89.4249
  0
VERTEX
  8
LAYER_2
 10
51.8669
 20
89.4313
  0
VERTEX
  8
LAYER_2
 10
41.3795
 20
95.4585
  0
SEQEND
  0
POLYLINE
  8
LAYER_2
 40
0.1094
 41
0.1094
 66
1
 10
0
 20
0
 30
0
  0
VERTEX
  8
LAYER_2
 10
51.9018
 20
89.6966
  0
VERTEX
  8
LAYER_2
 10
58.5326
 20
95.9951
  0
SEQEND
  0
POLYLINE
  8
LAYER_2
 40
0.1094
 41
0.1094
 66
1
 10
0
 20
0
 30
0
  0
VERTEX
  8
LAYER_2
 10
51.7614
 20
89.0721
  0
VERTEX
  8
LAYER_2
 10
51.755
 20
89.4927
  0
SEQEND
  0
POLYLINE
  8
LAYER_2
 40
0.1094
 41
0.1094
 66
1
 10
0
 20
0
 30
0
  0
VERTEX
  8
LAYER_2
 10
47.5037
 20
94.8577
  0
VERTEX
  8
LAYER_2
 10
47.5058
 20
94.8358
  0
VERTEX
  8
LAYER_2
 10
47.5104
 20
94.8161
 42
0.2173079805
  0
VERTEX
  8
LAYER_2
 10
47.7822
 20
94.4889
 42
0.03809882636
  0
VERTEX
  8
LAYER_2
 10
47.8875
 20
94.4393
  0
VERTEX
  8
LAYER_2
 10
47.9161
 20
94.4263
  0
VERTEX
  8
LAYER_2
 10
47.9447
 20
94.4174
 42
0.1338538614
  0
VERTEX
  8
LAYER_2
 10
48.631
 20
94.3835
 42
0.08414357435
  0
VERTEX
  8
LAYER_2
 10
49.0013
 20
94.5293
  0
VERTEX
  8
LAYER_2
 10
49.0496
 20
94.56
  0
VERTEX
  8
LAYER_2
 10
49.0933
 20
94.5949
  0
SEQEND
  0
POLYLINE
  8
LAYER_2
 40
0.1094
 41
0.1094
 66
1
 10
0
 20
0
 30
0
  0
VERTEX
  8
LAYER_2
 10
41.6187
 20
96.5189
  0
VERTEX
  8
LAYER_2
 10
48.997
 20
92.4034
  0
SEQEND
  0
POLYLINE
  8
LAYER_2
 40
0.1094
 41
0.1094
 66
1
 10
0
 20
0
 30
0
  0
VERTEX
  8
LAYER_2
 10
48.997
 20
92.4034
  0
VERTEX
  8
LAYER_2
 10
49.0037
 20
92.3988
 42
0.2166865675
  0
VERTEX
  8
LAYER_2
 10
49.1067
 20
92.4077
  0
VERTEX
  8
LAYER_2
 10
49.111
 20
92.4122
  0
VERTEX
  8
LAYER_2
 10
49.1791
 20
92.469
  0
VERTEX
  8
LAYER_2
 10
53.8078
 20
96.3941
  0
VERTEX
  8
LAYER_2
 10
53.8167
 20
96.3986
  0
VERTEX
  8
LAYER_2
 10
53.8216
 20
96.4004
  0
VERTEX
  8
LAYER_2
 10
53.8276
 20
96.4007
  0
VERTEX
  8
LAYER_2
 10
53.8385
 20
96.3986
  0
VERTEX
  8
LAYER_2
 10
53.8516
 20
96.3941
  0
SEQEND
  0
POLYLINE
  8
LAYER_2
 40
0.1094
 41
0.1094
 66
1
 10
0
 20
0
 30
0
  0
VERTEX
  8
LAYER_2
 10
49.0933
 20
94.5949
  0
VERTEX
  8
LAYER_2
 10
49.1198
 20
94.6168
 42
0.2015120267
  0
VERTEX
  8
LAYER_2
 10
49.3018
 20
94.9695
  0
VERTEX
  8
LAYER_2
 10
49.3018
 20
94.996
  0
SEQEND
  0
POLYLINE
  8
LAYER_2
 40
0.1094
 41
0.1094
 66
1
 10
0
 20
0
 30
0
  0
VERTEX
  8
LAYER_2
 10
53.8019
 20
96.4769
  0
VERTEX
  8
LAYER_2
 10
46.5808
 20
100.0721
  0
SEQEND
  0
POLYLINE
  8
LAYER_2
 40
0.1094
 41
0.1094
 66
1
 10
0
 20
0
 30
0
  0
VERTEX
  8
LAYER_2
 10
46.4634
 20
100.0643
  0
VERTEX
  8
LAYER_2
 10
41.6102
 20
96.6025
  0
SEQEND
  0
POLYLINE
  8
LAYER_2
 40
0.1094
 41
0.1094
 66
1
 10
0
 20
0
 30
0
 70
1
  0
VERTEX
  8
LAYER_2
 10
49.1307
 20
94.5949
  0
VERTEX
  8
LAYER_2
 10
49.1635
 20
94.6235
  0
VERTEX
  8
LAYER_2
 10
49.1967
 20
94.6563
  0
VERTEX
  8
LAYER_2
 10
49.2249
 20
94.687
 42
0.2179855773
  0
VERTEX
  8
LAYER_2
 10
49.3532
 20
95.0927
 42
0.1964614647
  0
VERTEX
  8
LAYER_2
 10
49.1326
 20
95.422
 42
0.08926312432
  0
VERTEX
  8
LAYER_2
 10
48.8612
 20
95.5569
  0
VERTEX
  8
LAYER_2
 10
48.8129
 20
95.5724
  0
VERTEX
  8
LAYER_2
 10
48.7624
 20
95.5855
 42
0.1256257715
  0
VERTEX
  8
LAYER_2
 10
48.0729
 20
95.5657
 42
0.1345542456
  0
VERTEX
  8
LAYER_2
 10
47.583
 20
95.2825
 42
0.07143961078
  0
VERTEX
  8
LAYER_2
 10
47.4797
 20
95.1276
  0
VERTEX
  8
LAYER_2
 10
47.4642
 20
95.0923
  0
VERTEX
  8
LAYER_2
 10
47.4533
 20
95.0574
  0
VERTEX
  8
LAYER_2
 10
47.4469
 20
95.0309
  0
VERTEX
  8
LAYER_2
 10
47.4423
 20
95.0023
 42
0.2359657032
  0
VERTEX
  8
LAYER_2
 10
47.5658
 20
94.6257
 42
0.1281746029
  0
VERTEX
  8
LAYER_2
 10
47.9136
 20
94.4065
  0
VERTEX
  8
LAYER_2
 10
47.9489
 20
94.3956
  0
VERTEX
  8
LAYER_2
 10
47.9838
 20
94.3867
 42
0.1283988372
  0
VERTEX
  8
LAYER_2
 10
48.6694
 20
94.3771
 42
0.08617609542
  0
VERTEX
  8
LAYER_2
 10
49.0453
 20
94.5335
  0
VERTEX
  8
LAYER_2
 10
49.1022
 20
94.573
  0
SEQEND
  0
POLYLINE
  8
LAYER_2
 40
0.1094
 41
0.1094
 66
1
 10
0
 20
0
 30
0
  0
VERTEX
  8
LAYER_2
 10
49.3018
 20
94.996
  0
VERTEX
  8
LAYER_2
 10
49.2997
 20
95.0246
 42
0.2053998313
  0
VERTEX
  8
LAYER_2
 10
49.0519
 20
95.3776
 42
0.1427503035
  0
VERTEX
  8
LAYER_2
 10
48.5172
 20
95.5302
 42
0.1144877271
  0
VERTEX
  8
LAYER_2
 10
47.9047
 20
95.4117
 42
0.1620326442
  0
VERTEX
  8
LAYER_2
 10
47.5512
 20
95.0869
 42
0.09915793739
  0
VERTEX
  8
LAYER_2
 10
47.5016
 20
94.8884
  0
VERTEX
  8
LAYER_2
 10
47.5037
 20
94.8577
  0
SEQEND
  0
POLYLINE
  8
LAYER_2
 40
0.1094
 41
0.1094
 66
1
 10
0
 20
0
 30
0
  0
VERTEX
  8
LAYER_2
 10
53.7881
 20
96.4378
  0
VERTEX
  8
LAYER_2
 10
53.7881
 20
96.4466
  0
VERTEX
  8
LAYER_2
 10
53.8209
 20
96.5059
  0
VERTEX
  8
LAYER_2
 10
53.8276
 20
96.5126
  0
SEQEND
  0
POLYLINE
  8
LAYER_2
 40
0.1094
 41
0.1094
 66
1
 10
0
 20
0
 30
0
  0
VERTEX
  8
LAYER_2
 10
39.4523
 20
96.7952
  0
VERTEX
  8
LAYER_2
 10
51.9018
 20
89.6966
  0
SEQEND
  0
POLYLINE
  8
LAYER_2
 40
0.1094
 41
0.1094
 66
1
 10
0
 20
0
 30
0
  0
VERTEX
  8
LAYER_2
 10
51.9611
 20
89.6133
  0
VERTEX
  8
LAYER_2
 10
58.5852
 20
95.916
  0
SEQEND
  0
POLYLINE
  8
LAYER_2
 40
0.1094
 41
0.1094
 66
1
 10
0
 20
0
 30
0
  0
VERTEX
  8
LAYER_2
 10
51.9611
 20
89.462
  0
VERTEX
  8
LAYER_2
 10
51.9611
 20
89.6133
  0
SEQEND
  0
POLYLINE
  8
LAYER_2
 40
0.1094
 41
0.1094
 66
1
 10
0
 20
0
 30
0
  0
VERTEX
  8
LAYER_2
 10
51.9611
 20
89.462
  0
VERTEX
  8
LAYER_2
 10
51.9611
 20
89.451
  0
VERTEX
  8
LAYER_2
 10
51.9589
 20
89.4447
  0
VERTEX
  8
LAYER_2
 10
51.9544
 20
89.4422
  0
SEQEND
  0
POLYLINE
  8
LAYER_2
 40
0.1094
 41
0.1094
 66
1
 10
0
 20
0
 30
0
  0
VERTEX
  8
LAYER_2
 10
51.9018
 20
89.6966
  0
VERTEX
  8
LAYER_2
 10
51.9127
 20
89.6899
 42
-0.2309905465
  0
VERTEX
  8
LAYER_2
 10
51.9589
 20
89.6221
  0
VERTEX
  8
LAYER_2
 10
51.9611
 20
89.6133
  0
SEQEND
  0
POLYLINE
  8
LAYER_2
 40
0.1094
 41
0.1094
 66
1
 10
0
 20
0
 30
0
  0
VERTEX
  8
LAYER_2
 10
53.8276
 20
96.5126
  0
VERTEX
  8
LAYER_2
 10
46.607
 20
100.1042
  0
SEQEND
  0
POLYLINE
  8
LAYER_2
 40
0.1094
 41
0.1094
 66
1
 10
0
 20
0
 30
0
  0
VERTEX
  8
LAYER_2
 10
46.7297
 20
97.9392
  0
VERTEX
  8
LAYER_2
 10
46.7209
 20
97.9434
  0
VERTEX
  8
LAYER_2
 10
46.6839
 20
97.9918
  0
VERTEX
  8
LAYER_2
 10
46.6814
 20
98.0006
  0
VERTEX
  8
LAYER_2
 10
46.5258
 20
97.8842
  0
VERTEX
  8
LAYER_2
 10
43.445
 20
95.5918
  0
VERTEX
  8
LAYER_2
 10
43.3748
 20
95.5393
  0
SEQEND
  0
POLYLINE
  8
LAYER_2
 40
0.1094
 41
0.1094
 66
1
 10
0
 20
0
 30
0
  0
VERTEX
  8
LAYER_2
 10
53.7881
 20
96.4378
  0
VERTEX
  8
LAYER_2
 10
53.7595
 20
96.3524
  0
SEQEND
  0
POLYLINE
  8
LAYER_2
 40
0.1094
 41
0.1094
 66
1
 10
0
 20
0
 30
0
  0
VERTEX
  8
LAYER_2
 10
52.2574
 20
95.0793
  0
VERTEX
  8
LAYER_2
 10
46.7932
 20
97.9039
  0
VERTEX
  8
LAYER_2
 10
46.7297
 20
97.9392
  0
SEQEND
  0
POLYLINE
  8
LAYER_2
 40
0.1094
 41
0.1094
 66
1
 10
0
 20
0
 30
0
  0
VERTEX
  8
LAYER_2
 10
39.4434
 20
96.7073
  0
VERTEX
  8
LAYER_2
 10
51.8559
 20
89.6024
  0
SEQEND
  0
POLYLINE
  8
LAYER_2
 40
0.1094
 41
0.1094
 66
1
 10
0
 20
0
 30
0
  0
VERTEX
  8
LAYER_2
 10
41.6317
 20
96.5627
  0
VERTEX
  8
LAYER_2
 10
41.6691
 20
96.4904
  0
SEQEND
  0
POLYLINE
  8
LAYER_2
 40
0.1094
 41
0.1094
 66
1
 10
0
 20
0
 30
0
  0
VERTEX
  8
LAYER_2
 10
46.6814
 20
98.0006
  0
VERTEX
  8
LAYER_2
 10
46.6881
 20
98.0027
 42
-0.081429451
  0
VERTEX
  8
LAYER_2
 10
46.7562
 20
98.0091
  0
VERTEX
  8
LAYER_2
 10
46.765
 20
98.0069
  0
SEQEND
  0
POLYLINE
  8
LAYER_2
 40
0.1094
 41
0.1094
 66
1
 10
0
 20
0
 30
0
  0
VERTEX
  8
LAYER_2
 10
48.9575
 20
92.3925
  0
VERTEX
  8
LAYER_2
 10
48.9684
 20
92.3858
 42
0.2465961126
  0
VERTEX
  8
LAYER_2
 10
49.1438
 20
92.4013
  0
VERTEX
  8
LAYER_2
 10
49.1547
 20
92.4098
  0
SEQEND
  0
POLYLINE
  8
LAYER_2
 40
0.1094
 41
0.1094
 66
1
 10
0
 20
0
 30
0
  0
VERTEX
  8
LAYER_2
 10
53.8276
 20
96.5126
  0
VERTEX
  8
LAYER_2
 10
53.8364
 20
96.5059
 42
-0.4846487444
  0
VERTEX
  8
LAYER_2
 10
53.8583
 20
96.4007
  0
VERTEX
  8
LAYER_2
 10
53.8516
 20
96.3941
  0
SEQEND
  0
POLYLINE
  8
LAYER_2
 40
0.1094
 41
0.1094
 66
1
 10
0
 20
0
 30
0
  0
VERTEX
  8
LAYER_2
 10
46.607
 20
100.1042
  0
VERTEX
  8
LAYER_2
 10
46.6002
 20
100.0979
  0
VERTEX
  8
LAYER_2
 10
46.5696
 20
100.0428
  0
VERTEX
  8
LAYER_2
 10
46.5696
 20
100.0344
  0
SEQEND
  0
POLYLINE
  8
LAYER_2
 40
0.1094
 41
0.1094
 66
1
 10
0
 20
0
 30
0
  0
VERTEX
  8
LAYER_2
 10
41.6187
 20
96.5189
  0
VERTEX
  8
LAYER_2
 10
41.6077
 20
96.521
  0
VERTEX
  8
LAYER_2
 10
41.5989
 20
96.521
  0
VERTEX
  8
LAYER_2
 10
41.588
 20
96.5189
  0
VERTEX
  8
LAYER_2
 10
41.577
 20
96.5126
  0
SEQEND
  0
POLYLINE
  8
LAYER_2
 40
0.1094
 41
0.1094
 66
1
 10
0
 20
0
 30
0
  0
VERTEX
  8
LAYER_2
 10
46.4337
 20
100.0912
  0
VERTEX
  8
LAYER_2
 10
46.4426
 20
100.0954
 42
-0.2186408018
  0
VERTEX
  8
LAYER_2
 10
46.596
 20
100.1088
  0
VERTEX
  8
LAYER_2
 10
46.607
 20
100.1042
  0
SEQEND
  0
POLYLINE
  8
LAYER_2
 40
0.1094
 41
0.1094
 66
1
 10
0
 20
0
 30
0
  0
VERTEX
  8
LAYER_2
 10
51.8559
 20
89.6024
  0
VERTEX
  8
LAYER_2
 10
51.8559
 20
89.6133
 42
-0.1486897686
  0
VERTEX
  8
LAYER_2
 10
51.893
 20
89.6877
  0
VERTEX
  8
LAYER_2
 10
51.9018
 20
89.6966
  0
SEQEND
  0
POLYLINE
  8
LAYER_2
 40
0.1094
 41
0.1094
 66
1
 10
0
 20
0
 30
0
  0
VERTEX
  8
LAYER_2
 10
46.4842
 20
100.0277
  0
VERTEX
  8
LAYER_2
 10
46.4799
 20
100.0365
 42
0.1246715814
  0
VERTEX
  8
LAYER_2
 10
46.4426
 20
100.0869
  0
VERTEX
  8
LAYER_2
 10
46.4337
 20
100.0912
  0
SEQEND
  0
POLYLINE
  8
LAYER_2
 40
0.1094
 41
0.1094
 66
1
 10
0
 20
0
 30
0
  0
VERTEX
  8
LAYER_2
 10
46.765
 20
98.0069
  0
VERTEX
  8
LAYER_2
 10
46.765
 20
97.9981
  0
VERTEX
  8
LAYER_2
 10
46.7364
 20
97.9434
  0
VERTEX
  8
LAYER_2
 10
46.7297
 20
97.9392
  0
SEQEND
  0
POLYLINE
  8
LAYER_2
 40
0.1094
 41
0.1094
 66
1
 10
0
 20
0
 30
0
  0
VERTEX
  8
LAYER_2
 10
41.577
 20
96.5126
  0
VERTEX
  8
LAYER_2
 10
48.9575
 20
92.3925
  0
SEQEND
  0
POLYLINE
  8
LAYER_2
 40
0.1094
 41
0.1094
 66
1
 10
0
 20
0
 30
0
  0
VERTEX
  8
LAYER_2
 10
46.6814
 20
98.0006
  0
VERTEX
  8
LAYER_2
 10
46.4842
 20
100.0277
  0
SEQEND
  0
POLYLINE
  8
LAYER_2
 40
0.1094
 41
0.1094
 66
1
 10
0
 20
0
 30
0
  0
VERTEX
  8
LAYER_2
 10
46.7297
 20
97.9392
  0
VERTEX
  8
LAYER_2
 10
46.6923
 20
97.9106
  0
VERTEX
  8
LAYER_2
 10
43.5
 20
95.5329
  0
VERTEX
  8
LAYER_2
 10
43.4496
 20
95.4955
  0
SEQEND
  0
POLYLINE
  8
LAYER_2
 40
0.1094
 41
0.1094
 66
1
 10
0
 20
0
 30
0
  0
VERTEX
  8
LAYER_2
 10
52.3212
 20
95.1318
  0
VERTEX
  8
LAYER_2
 10
46.765
 20
98.0069
  0
SEQEND
  0
POLYLINE
  8
LAYER_2
 40
0.1094
 41
0.1094
 66
1
 10
0
 20
0
 30
0
  0
VERTEX
  8
LAYER_2
 10
41.577
 20
96.5126
  0
VERTEX
  8
LAYER_2
 10
41.5682
 20
96.5168
 42
-0.5134549451
  0
VERTEX
  8
LAYER_2
 10
41.5703
 20
96.6241
  0
VERTEX
  8
LAYER_2
 10
41.5792
 20
96.6287
  0
SEQEND
  0
POLYLINE
  8
LAYER_2
 40
0.1094
 41
0.1094
 66
1
 10
0
 20
0
 30
0
  0
VERTEX
  8
LAYER_2
 10
51.858
 20
89.451
  0
VERTEX
  8
LAYER_2
 10
51.8556
 20
89.6024
  0
SEQEND
  0
POLYLINE
  8
LAYER_2
 40
0.1094
 41
0.1094
 66
1
 10
0
 20
0
 30
0
  0
VERTEX
  8
LAYER_2
 10
51.858
 20
89.451
  0
VERTEX
  8
LAYER_2
 10
51.858
 20
89.4447
  0
VERTEX
  8
LAYER_2
 10
51.8602
 20
89.438
  0
VERTEX
  8
LAYER_2
 10
51.8623
 20
89.4337
  0
VERTEX
  8
LAYER_2
 10
51.8669
 20
89.4313
  0
SEQEND
  0
POLYLINE
  8
LAYER_2
 40
0.1094
 41
0.1094
 66
1
 10
0
 20
0
 30
0
  0
VERTEX
  8
LAYER_2
 10
49.1551
 20
92.4098
  0
VERTEX
  8
LAYER_2
 10
53.8516
 20
96.3941
  0
SEQEND
  0
POLYLINE
  8
LAYER_2
 40
0.1094
 41
0.1094
 66
1
 10
0
 20
0
 30
0
  0
VERTEX
  8
LAYER_2
 10
46.765
 20
98.0069
  0
VERTEX
  8
LAYER_2
 10
46.5696
 20
100.034
  0
SEQEND
  0
POLYLINE
  8
LAYER_2
 40
0.1094
 41
0.1094
 66
1
 10
0
 20
0
 30
0
  0
VERTEX
  8
LAYER_2
 10
41.5792
 20
96.6287
  0
VERTEX
  8
LAYER_2
 10
41.5859
 20
96.6241
 42
-0.1311816933
  0
VERTEX
  8
LAYER_2
 10
41.6275
 20
96.5715
  0
VERTEX
  8
LAYER_2
 10
41.6317
 20
96.5627
  0
SEQEND
  0
POLYLINE
  8
LAYER_2
 40
0.1094
 41
0.1094
 66
1
 10
0
 20
0
 30
0
  0
VERTEX
  8
LAYER_2
 10
46.4337
 20
100.0912
  0
VERTEX
  8
LAYER_2
 10
41.5792
 20
96.6287
  0
SEQEND
  0
ENDBLK
  0
BLOCK
  8
LAYER_2
  2
AIGNBL02010029
 70
64
 10
0
 20
0
 30
0
  3
AIGNBL02010029
  0
POLYLINE
  8
LAYER_2
 40
0.1094
 41
0.1094
 62
253
 66
1
 10
0
 20
0
 30
0
  0
VERTEX
  8
LAYER_2
 10
36.1414
 20
88.4346
  0
VERTEX
  8
LAYER_2
 10
36.1192
 20
88.8053
  0
VERTEX
  8
LAYER_2
 10
42.4808
 20
93.081
  0
SEQEND
  0
POLYLINE
  8
LAYER_2
 40
0.1094
 41
0.1094
 62
253
 66
1
 10
0
 20
0
 30
0
  0
VERTEX
  8
LAYER_2
 10
42.5041
 20
92.7706
  0
VERTEX
  8
LAYER_2
 10
36.7601
 20
88.8071
  0
SEQEND
  0
POLYLINE
  8
LAYER_2
 40
0.1094
 41
0.1094
 62
253
 66
1
 10
0
 20
0
 30
0
  0
VERTEX
  8
LAYER_2
 10
37.9046
 20
87.729
  0
VERTEX
  8
LAYER_2
 10
36.1153
 20
88.7948
  0
SEQEND
  0
POLYLINE
  8
LAYER_2
 40
0.1094
 41
0.1094
 62
253
 66
1
 10
0
 20
0
 30
0
  0
VERTEX
  8
LAYER_2
 10
37.9046
 20
87.729
  0
VERTEX
  8
LAYER_2
 10
44.1173
 20
92.2234
  0
SEQEND
  0
POLYLINE
  8
LAYER_2
 40
0.1094
 41
0.1094
 62
253
 66
1
 10
0
 20
0
 30
0
  0
VERTEX
  8
LAYER_2
 10
36.1382
 20
88.4268
  0
VERTEX
  8
LAYER_2
 10
37.864
 20
87.3896
  0
SEQEND
  0
POLYLINE
  8
LAYER_2
 40
0.1094
 41
0.1094
 62
253
 66
1
 10
0
 20
0
 30
0
  0
VERTEX
  8
LAYER_2
 10
37.9046
 20
87.729
  0
VERTEX
  8
LAYER_2
 10
37.8714
 20
87.3971
  0
VERTEX
  8
LAYER_2
 10
44.027
 20
91.8724
  0
SEQEND
  0
POLYLINE
  8
LAYER_2
 40
0.1094
 41
0.1094
 62
253
 66
1
 10
0
 20
0
 30
0
  0
VERTEX
  8
LAYER_2
 10
44.027
 20
91.8724
  0
VERTEX
  8
LAYER_2
 10
44.1173
 20
92.2234
  0
SEQEND
  0
POLYLINE
  8
LAYER_2
 40
0.1094
 41
0.1094
 62
253
 66
1
 10
0
 20
0
 30
0
  0
VERTEX
  8
LAYER_2
 10
36.7679
 20
88.7926
  0
VERTEX
  8
LAYER_2
 10
38.0887
 20
88.0282
  0
VERTEX
  8
LAYER_2
 10
38.1035
 20
88.0282
  0
VERTEX
  8
LAYER_2
 10
43.7187
 20
92.0964
  0
VERTEX
  8
LAYER_2
 10
43.7127
 20
92.1229
  0
VERTEX
  8
LAYER_2
 10
42.5041
 20
92.785
  0
SEQEND
  0
POLYLINE
  8
LAYER_2
 40
0.1094
 41
0.1094
 62
253
 66
1
 10
0
 20
0
 30
0
  0
VERTEX
  8
LAYER_2
 10
42.4847
 20
93.081
  0
VERTEX
  8
LAYER_2
 10
44.1156
 20
92.2093
  0
SEQEND
  0
POLYLINE
  8
LAYER_2
 40
0.1094
 41
0.1094
 62
253
 66
1
 10
0
 20
0
 30
0
  0
VERTEX
  8
LAYER_2
 10
42.5041
 20
92.4079
  0
VERTEX
  8
LAYER_2
 10
43.373
 20
91.9031
  0
SEQEND
  0
POLYLINE
  8
LAYER_2
 40
0.1094
 41
0.1094
 62
253
 66
1
 10
0
 20
0
 30
0
 70
1
  0
VERTEX
  8
LAYER_2
 10
58.5731
 20
82.3622
  0
VERTEX
  8
LAYER_2
 10
58.5706
 20
82.3622
  0
VERTEX
  8
LAYER_2
 10
58.5682
 20
82.3601
  0
VERTEX
  8
LAYER_2
 10
58.5632
 20
82.3601
  0
VERTEX
  8
LAYER_2
 10
58.5632
 20
82.3576
  0
VERTEX
  8
LAYER_2
 10
58.5608
 20
82.3576
  0
VERTEX
  8
LAYER_2
 10
58.5583
 20
82.3555
  0
VERTEX
  8
LAYER_2
 10
58.5583
 20
82.353
  0
VERTEX
  8
LAYER_2
 10
58.5555
 20
82.3506
  0
VERTEX
  8
LAYER_2
 10
58.5533
 20
82.3509
  0
VERTEX
  8
LAYER_2
 10
58.5533
 20
82.3484
  0
VERTEX
  8
LAYER_2
 10
58.5505
 20
82.346
  0
VERTEX
  8
LAYER_2
 10
58.5505
 20
82.341
  0
VERTEX
  8
LAYER_2
 10
58.5481
 20
82.3389
  0
VERTEX
  8
LAYER_2
 10
58.5481
 20
82.334
  0
VERTEX
  8
LAYER_2
 10
58.5452
 20
82.3319
  0
VERTEX
  8
LAYER_2
 10
58.5449
 20
82.3079
  0
VERTEX
  8
LAYER_2
 10
58.5474
 20
82.3051
  0
VERTEX
  8
LAYER_2
 10
58.547
 20
82.3005
  0
VERTEX
  8
LAYER_2
 10
58.5495
 20
82.298
  0
VERTEX
  8
LAYER_2
 10
58.5495
 20
82.2955
  0
VERTEX
  8
LAYER_2
 10
58.5519
 20
82.2931
  0
VERTEX
  8
LAYER_2
 10
58.5519
 20
82.2906
  0
VERTEX
  8
LAYER_2
 10
58.554
 20
82.2906
  0
VERTEX
  8
LAYER_2
 10
58.5586
 20
82.2857
  0
VERTEX
  8
LAYER_2
 10
58.5661
 20
82.2853
  0
VERTEX
  8
LAYER_2
 10
58.5685
 20
82.2878
  0
VERTEX
  8
LAYER_2
 10
58.571
 20
82.2878
  0
VERTEX
  8
LAYER_2
 10
58.5738
 20
82.2902
  0
VERTEX
  8
LAYER_2
 10
58.5759
 20
82.2899
  0
VERTEX
  8
LAYER_2
 10
58.5763
 20
82.2924
  0
VERTEX
  8
LAYER_2
 10
58.5812
 20
82.2969
  0
VERTEX
  8
LAYER_2
 10
58.5812
 20
82.2998
  0
VERTEX
  8
LAYER_2
 10
58.5837
 20
82.3019
  0
VERTEX
  8
LAYER_2
 10
58.5837
 20
82.3044
  0
VERTEX
  8
LAYER_2
 10
58.5862
 20
82.3068
  0
VERTEX
  8
LAYER_2
 10
58.5862
 20
82.3089
  0
VERTEX
  8
LAYER_2
 10
58.589
 20
82.3114
  0
VERTEX
  8
LAYER_2
 10
58.5897
 20
82.3449
  0
VERTEX
  8
LAYER_2
 10
58.5872
 20
82.3477
  0
VERTEX
  8
LAYER_2
 10
58.5872
 20
82.3499
  0
VERTEX
  8
LAYER_2
 10
58.5826
 20
82.3548
  0
VERTEX
  8
LAYER_2
 10
58.5826
 20
82.3573
  0
VERTEX
  8
LAYER_2
 10
58.5805
 20
82.3573
  0
VERTEX
  8
LAYER_2
 10
58.578
 20
82.3597
  0
VERTEX
  8
LAYER_2
 10
58.5756
 20
82.3601
  0
SEQEND
  0
POLYLINE
  8
LAYER_2
 40
0.1094
 41
0.1094
 62
253
 66
1
 10
0
 20
0
 30
0
 70
1
  0
VERTEX
  8
LAYER_2
 10
55.1635
 20
77.4067
  0
VERTEX
  8
LAYER_2
 10
55.1565
 20
77.4067
  0
VERTEX
  8
LAYER_2
 10
55.1512
 20
77.4022
  0
VERTEX
  8
LAYER_2
 10
55.1487
 20
77.4022
  0
VERTEX
  8
LAYER_2
 10
55.1462
 20
77.4
  0
VERTEX
  8
LAYER_2
 10
55.1462
 20
77.3976
  0
VERTEX
  8
LAYER_2
 10
55.1437
 20
77.3951
  0
VERTEX
  8
LAYER_2
 10
55.1437
 20
77.393
  0
VERTEX
  8
LAYER_2
 10
55.1413
 20
77.3905
  0
VERTEX
  8
LAYER_2
 10
55.1413
 20
77.388
  0
VERTEX
  8
LAYER_2
 10
55.1385
 20
77.3856
  0
VERTEX
  8
LAYER_2
 10
55.1385
 20
77.3785
  0
VERTEX
  8
LAYER_2
 10
55.1356
 20
77.376
  0
VERTEX
  8
LAYER_2
 10
55.1353
 20
77.3521
  0
VERTEX
  8
LAYER_2
 10
55.1378
 20
77.3496
  0
VERTEX
  8
LAYER_2
 10
55.1374
 20
77.345
  0
VERTEX
  8
LAYER_2
 10
55.1399
 20
77.3422
  0
VERTEX
  8
LAYER_2
 10
55.1399
 20
77.3401
  0
VERTEX
  8
LAYER_2
 10
55.1448
 20
77.3351
  0
VERTEX
  8
LAYER_2
 10
55.1469
 20
77.3348
  0
VERTEX
  8
LAYER_2
 10
55.1469
 20
77.3326
  0
VERTEX
  8
LAYER_2
 10
55.1593
 20
77.3323
  0
VERTEX
  8
LAYER_2
 10
55.1617
 20
77.3344
  0
VERTEX
  8
LAYER_2
 10
55.1642
 20
77.3344
  0
VERTEX
  8
LAYER_2
 10
55.1663
 20
77.3369
  0
VERTEX
  8
LAYER_2
 10
55.1667
 20
77.3394
  0
VERTEX
  8
LAYER_2
 10
55.1692
 20
77.3394
  0
VERTEX
  8
LAYER_2
 10
55.1716
 20
77.3415
  0
VERTEX
  8
LAYER_2
 10
55.1716
 20
77.3439
  0
VERTEX
  8
LAYER_2
 10
55.1741
 20
77.3464
  0
VERTEX
  8
LAYER_2
 10
55.1741
 20
77.3485
  0
VERTEX
  8
LAYER_2
 10
55.1766
 20
77.351
  0
VERTEX
  8
LAYER_2
 10
55.1769
 20
77.3581
  0
VERTEX
  8
LAYER_2
 10
55.1794
 20
77.3605
  0
VERTEX
  8
LAYER_2
 10
55.1801
 20
77.387
  0
VERTEX
  8
LAYER_2
 10
55.1776
 20
77.3895
  0
VERTEX
  8
LAYER_2
 10
55.1776
 20
77.3944
  0
VERTEX
  8
LAYER_2
 10
55.1755
 20
77.3965
  0
VERTEX
  8
LAYER_2
 10
55.1755
 20
77.3993
  0
VERTEX
  8
LAYER_2
 10
55.173
 20
77.4014
  0
VERTEX
  8
LAYER_2
 10
55.1709
 20
77.4014
  0
VERTEX
  8
LAYER_2
 10
55.1709
 20
77.4043
  0
VERTEX
  8
LAYER_2
 10
55.1681
 20
77.4043
  0
VERTEX
  8
LAYER_2
 10
55.1684
 20
77.4064
  0
SEQEND
  0
POLYLINE
  8
LAYER_2
 40
0.1094
 41
0.1094
 62
253
 66
1
 10
0
 20
0
 30
0
  0
VERTEX
  8
LAYER_2
 10
54.5797
 20
76.6045
  0
VERTEX
  8
LAYER_2
 10
54.6403
 20
76.9615
  0
VERTEX
  8
LAYER_2
 10
59.158
 20
83.2974
  0
VERTEX
  8
LAYER_2
 10
60.8492
 20
82.3153
  0
VERTEX
  8
LAYER_2
 10
56.479
 20
75.917
  0
SEQEND
  0
POLYLINE
  8
LAYER_2
 40
0.1094
 41
0.1094
 62
253
 66
1
 10
0
 20
0
 30
0
  0
VERTEX
  8
LAYER_2
 10
54.6252
 20
76.5841
  0
VERTEX
  8
LAYER_2
 10
54.5797
 20
76.6045
  0
SEQEND
  0
POLYLINE
  8
LAYER_2
 40
0.1094
 41
0.1094
 62
253
 66
1
 10
0
 20
0
 30
0
  0
VERTEX
  8
LAYER_2
 10
54.6252
 20
76.5841
  0
VERTEX
  8
LAYER_2
 10
54.6883
 20
76.9435
  0
VERTEX
  8
LAYER_2
 10
54.6403
 20
76.9615
  0
SEQEND
  0
POLYLINE
  8
LAYER_2
 40
0.1094
 41
0.1094
 62
253
 66
1
 10
0
 20
0
 30
0
  0
VERTEX
  8
LAYER_2
 10
59.158
 20
83.2974
  0
VERTEX
  8
LAYER_2
 10
59.1989
 20
83.2815
  0
SEQEND
  0
POLYLINE
  8
LAYER_2
 40
0.1094
 41
0.1094
 62
253
 66
1
 10
0
 20
0
 30
0
  0
VERTEX
  8
LAYER_2
 10
58.9453
 20
82.7062
  0
VERTEX
  8
LAYER_2
 10
55.0675
 20
77.1012
  0
SEQEND
  0
POLYLINE
  8
LAYER_2
 40
0.1094
 41
0.1094
 62
253
 66
1
 10
0
 20
0
 30
0
  0
VERTEX
  8
LAYER_2
 10
59.1989
 20
83.2815
  0
VERTEX
  8
LAYER_2
 10
54.6883
 20
76.9435
  0
SEQEND
  0
POLYLINE
  8
LAYER_2
 40
0.1094
 41
0.1094
 62
253
 66
1
 10
0
 20
0
 30
0
  0
VERTEX
  8
LAYER_2
 10
56.479
 20
75.917
  0
VERTEX
  8
LAYER_2
 10
54.6883
 20
76.9435
  0
SEQEND
  0
POLYLINE
  8
LAYER_2
 40
0.1094
 41
0.1094
 62
253
 66
1
 10
0
 20
0
 30
0
  0
VERTEX
  8
LAYER_2
 10
56.3989
 20
75.5582
  0
VERTEX
  8
LAYER_2
 10
54.6252
 20
76.5841
  0
SEQEND
  0
POLYLINE
  8
LAYER_2
 40
0.1094
 41
0.1094
 62
253
 66
1
 10
0
 20
0
 30
0
  0
VERTEX
  8
LAYER_2
 10
56.479
 20
75.917
  0
VERTEX
  8
LAYER_2
 10
56.3989
 20
75.5582
  0
VERTEX
  8
LAYER_2
 10
60.7501
 20
81.9667
  0
SEQEND
  0
POLYLINE
  8
LAYER_2
 40
0.1094
 41
0.1094
 62
253
 66
1
 10
0
 20
0
 30
0
  0
VERTEX
  8
LAYER_2
 10
60.7501
 20
81.9667
  0
VERTEX
  8
LAYER_2
 10
60.8492
 20
82.3153
  0
SEQEND
  0
POLYLINE
  8
LAYER_2
 40
0.1094
 41
0.1094
 62
253
 66
1
 10
0
 20
0
 30
0
  0
VERTEX
  8
LAYER_2
 10
60.2548
 20
82.317
  0
VERTEX
  8
LAYER_2
 10
59.03
 20
83.0551
  0
VERTEX
  8
LAYER_2
 10
58.9453
 20
82.7062
  0
VERTEX
  8
LAYER_2
 10
60.0396
 20
82.0123
  0
SEQEND
  0
POLYLINE
  8
LAYER_2
 40
0.1094
 41
0.1094
 62
253
 66
1
 10
0
 20
0
 30
0
  0
VERTEX
  8
LAYER_2
 10
54.9137
 20
77.1679
  0
VERTEX
  8
LAYER_2
 10
56.2123
 20
76.4384
  0
SEQEND
  0
POLYLINE
  8
LAYER_2
 40
0.1094
 41
0.1094
 62
253
 66
1
 10
0
 20
0
 30
0
  0
VERTEX
  8
LAYER_2
 10
56.2123
 20
76.4384
  0
VERTEX
  8
LAYER_2
 10
60.2548
 20
82.317
  0
SEQEND
  0
ENDBLK
  0
BLOCK
  8
LAYER_2
  2
AIGNBL0201002A
 70
64
 10
0
 20
0
 30
0
  3
AIGNBL0201002A
  0
POLYLINE
  8
LAYER_2
 40
0.1094
 41
0.1094
 66
1
 10
0
 20
0
 30
0
  0
VERTEX
  8
LAYER_2
 10
44.2791
 20
84.3178
  0
VERTEX
  8
LAYER_2
 10
45.0475
 20
85.0424
  0
SEQEND
  0
POLYLINE
  8
LAYER_2
 40
0.1094
 41
0.1094
 66
1
 10
0
 20
0
 30
0
 70
1
  0
VERTEX
  8
LAYER_2
 10
55.7758
 20
84.292
  0
VERTEX
  8
LAYER_2
 10
55.7684
 20
84.292
  0
VERTEX
  8
LAYER_2
 10
55.7684
 20
84.2895
  0
VERTEX
  8
LAYER_2
 10
55.7663
 20
84.2895
  0
VERTEX
  8
LAYER_2
 10
55.7634
 20
84.2871
  0
VERTEX
  8
LAYER_2
 10
55.7634
 20
84.2849
  0
VERTEX
  8
LAYER_2
 10
55.7613
 20
84.2849
  0
VERTEX
  8
LAYER_2
 10
55.7588
 20
84.2825
  0
VERTEX
  8
LAYER_2
 10
55.7588
 20
84.28
  0
VERTEX
  8
LAYER_2
 10
55.7543
 20
84.2754
  0
VERTEX
  8
LAYER_2
 10
55.7543
 20
84.2705
  0
VERTEX
  8
LAYER_2
 10
55.7514
 20
84.2684
  0
VERTEX
  8
LAYER_2
 10
55.7514
 20
84.261
  0
VERTEX
  8
LAYER_2
 10
55.7493
 20
84.2585
  0
VERTEX
  8
LAYER_2
 10
55.7493
 20
84.2394
  0
VERTEX
  8
LAYER_2
 10
55.7514
 20
84.237
  0
VERTEX
  8
LAYER_2
 10
55.7514
 20
84.2324
  0
VERTEX
  8
LAYER_2
 10
55.7543
 20
84.2299
  0
VERTEX
  8
LAYER_2
 10
55.7543
 20
84.2274
  0
VERTEX
  8
LAYER_2
 10
55.7564
 20
84.2253
  0
VERTEX
  8
LAYER_2
 10
55.7564
 20
84.2225
  0
VERTEX
  8
LAYER_2
 10
55.7588
 20
84.2225
  0
VERTEX
  8
LAYER_2
 10
55.7588
 20
84.2204
  0
VERTEX
  8
LAYER_2
 10
55.7613
 20
84.2204
  0
VERTEX
  8
LAYER_2
 10
55.7634
 20
84.2179
  0
VERTEX
  8
LAYER_2
 10
55.7758
 20
84.2179
  0
VERTEX
  8
LAYER_2
 10
55.7758
 20
84.2204
  0
VERTEX
  8
LAYER_2
 10
55.7779
 20
84.2204
  0
VERTEX
  8
LAYER_2
 10
55.7804
 20
84.2225
  0
VERTEX
  8
LAYER_2
 10
55.785
 20
84.2274
  0
VERTEX
  8
LAYER_2
 10
55.785
 20
84.2299
  0
VERTEX
  8
LAYER_2
 10
55.7878
 20
84.2324
  0
VERTEX
  8
LAYER_2
 10
55.7899
 20
84.2349
  0
VERTEX
  8
LAYER_2
 10
55.7899
 20
84.2394
  0
VERTEX
  8
LAYER_2
 10
55.7924
 20
84.244
  0
VERTEX
  8
LAYER_2
 10
55.7924
 20
84.2514
  0
VERTEX
  8
LAYER_2
 10
55.7948
 20
84.256
  0
VERTEX
  8
LAYER_2
 10
55.7948
 20
84.2655
  0
VERTEX
  8
LAYER_2
 10
55.7924
 20
84.2684
  0
VERTEX
  8
LAYER_2
 10
55.7924
 20
84.2754
  0
VERTEX
  8
LAYER_2
 10
55.7899
 20
84.2775
  0
VERTEX
  8
LAYER_2
 10
55.7899
 20
84.28
  0
VERTEX
  8
LAYER_2
 10
55.7878
 20
84.2825
  0
VERTEX
  8
LAYER_2
 10
55.7878
 20
84.2849
  0
VERTEX
  8
LAYER_2
 10
55.7804
 20
84.292
  0
SEQEND
  0
POLYLINE
  8
LAYER_2
 40
0.1094
 41
0.1094
 66
1
 10
0
 20
0
 30
0
  0
VERTEX
  8
LAYER_2
 10
51.9824
 20
78.529
  0
VERTEX
  8
LAYER_2
 10
55.9896
 20
84.4652
  0
SEQEND
  0
POLYLINE
  8
LAYER_2
 40
0.1094
 41
0.1094
 66
1
 10
0
 20
0
 30
0
  0
VERTEX
  8
LAYER_2
 10
51.6416
 20
75.0429
  0
VERTEX
  8
LAYER_2
 10
54.516
 20
79.297
  0
SEQEND
  0
POLYLINE
  8
LAYER_2
 40
0.1094
 41
0.1094
 66
1
 10
0
 20
0
 30
0
  0
VERTEX
  8
LAYER_2
 10
53.1377
 20
80.1635
  0
VERTEX
  8
LAYER_2
 10
54.5111
 20
79.3136
  0
SEQEND
  0
POLYLINE
  8
LAYER_2
 40
0.1094
 41
0.1094
 66
1
 10
0
 20
0
 30
0
  0
VERTEX
  8
LAYER_2
 10
44.5493
 20
84.1283
  0
VERTEX
  8
LAYER_2
 10
45.3434
 20
84.8991
  0
VERTEX
  8
LAYER_2
 10
52.4452
 20
80.543
  0
SEQEND
  0
POLYLINE
  8
LAYER_2
 40
0.1094
 41
0.1094
 66
1
 10
0
 20
0
 30
0
  0
VERTEX
  8
LAYER_2
 10
50.9318
 20
74.186
  0
VERTEX
  8
LAYER_2
 10
41.35
 20
81.0345
  0
VERTEX
  8
LAYER_2
 10
44.0533
 20
83.6623
  0
SEQEND
  0
POLYLINE
  8
LAYER_2
 40
0.1094
 41
0.1094
 66
1
 10
0
 20
0
 30
0
  0
VERTEX
  8
LAYER_2
 10
51.8067
 20
78.5453
  0
VERTEX
  8
LAYER_2
 10
51.8592
 20
78.9009
  0
SEQEND
  0
POLYLINE
  8
LAYER_2
 40
0.1094
 41
0.1094
 66
1
 10
0
 20
0
 30
0
  0
VERTEX
  8
LAYER_2
 10
51.8592
 20
78.9009
  0
VERTEX
  8
LAYER_2
 10
56.3254
 20
85.1478
  0
SEQEND
  0
POLYLINE
  8
LAYER_2
 40
0.1094
 41
0.1094
 66
1
 10
0
 20
0
 30
0
  0
VERTEX
  8
LAYER_2
 10
50.8792
 20
73.7799
  0
VERTEX
  8
LAYER_2
 10
51.3477
 20
78.7312
  0
SEQEND
  0
POLYLINE
  8
LAYER_2
 40
0.1094
 41
0.1094
 66
1
 10
0
 20
0
 30
0
  0
VERTEX
  8
LAYER_2
 10
51.2782
 20
73.5965
  0
VERTEX
  8
LAYER_2
 10
51.8067
 20
78.5453
  0
SEQEND
  0
POLYLINE
  8
LAYER_2
 40
0.1094
 41
0.1094
 66
1
 10
0
 20
0
 30
0
  0
VERTEX
  8
LAYER_2
 10
51.4719
 20
73.902
  0
VERTEX
  8
LAYER_2
 10
51.9668
 20
78.4807
  0
SEQEND
  0
POLYLINE
  8
LAYER_2
 40
0.1094
 41
0.1094
 66
1
 10
0
 20
0
 30
0
  0
VERTEX
  8
LAYER_2
 10
51.6271
 20
74.9402
  0
VERTEX
  8
LAYER_2
 10
54.5735
 20
79.3161
  0
SEQEND
  0
POLYLINE
  8
LAYER_2
 40
0.1094
 41
0.1094
 66
1
 10
0
 20
0
 30
0
  0
VERTEX
  8
LAYER_2
 10
51.2782
 20
73.5965
  0
VERTEX
  8
LAYER_2
 10
51.2401
 20
73.3266
  0
VERTEX
  8
LAYER_2
 10
55.0321
 20
79.1369
  0
SEQEND
  0
POLYLINE
  8
LAYER_2
 40
0.1094
 41
0.1094
 66
1
 10
0
 20
0
 30
0
  0
VERTEX
  8
LAYER_2
 10
55.4435
 20
83.6094
  0
VERTEX
  8
LAYER_2
 10
54.5735
 20
79.321
  0
SEQEND
  0
POLYLINE
  8
LAYER_2
 40
0.1094
 41
0.1094
 66
1
 10
0
 20
0
 30
0
  0
VERTEX
  8
LAYER_2
 10
54.939
 20
79.1753
  0
VERTEX
  8
LAYER_2
 10
56.0697
 20
84.5449
  0
SEQEND
  0
POLYLINE
  8
LAYER_2
 40
0.1094
 41
0.1094
 66
1
 10
0
 20
0
 30
0
  0
VERTEX
  8
LAYER_2
 10
55.0321
 20
79.1369
  0
VERTEX
  8
LAYER_2
 10
56.3254
 20
85.1478
  0
SEQEND
  0
POLYLINE
  8
LAYER_2
 40
0.1094
 41
0.1094
 66
1
 10
0
 20
0
 30
0
  0
VERTEX
  8
LAYER_2
 10
56.3254
 20
85.1478
  0
VERTEX
  8
LAYER_2
 10
55.912
 20
85.3662
  0
SEQEND
  0
POLYLINE
  8
LAYER_2
 40
0.1094
 41
0.1094
 66
1
 10
0
 20
0
 30
0
  0
VERTEX
  8
LAYER_2
 10
51.2334
 20
73.2723
  0
VERTEX
  8
LAYER_2
 10
40.7845
 20
80.6827
  0
VERTEX
  8
LAYER_2
 10
39.7177
 20
86.8228
  0
VERTEX
  8
LAYER_2
 10
45.4281
 20
91.3557
  0
VERTEX
  8
LAYER_2
 10
55.912
 20
85.3662
  0
SEQEND
  0
POLYLINE
  8
LAYER_2
 40
0.1094
 41
0.1094
 66
1
 10
0
 20
0
 30
0
  0
VERTEX
  8
LAYER_2
 10
41.054
 20
80.7932
  0
VERTEX
  8
LAYER_2
 10
40.1167
 20
86.3381
  0
SEQEND
  0
POLYLINE
  8
LAYER_2
 40
0.1094
 41
0.1094
 66
1
 10
0
 20
0
 30
0
  0
VERTEX
  8
LAYER_2
 10
41.054
 20
80.7932
  0
VERTEX
  8
LAYER_2
 10
41.295
 20
81.0249
  0
VERTEX
  8
LAYER_2
 10
40.4681
 20
86.0894
  0
SEQEND
  0
POLYLINE
  8
LAYER_2
 40
0.1094
 41
0.1094
 66
1
 10
0
 20
0
 30
0
  0
VERTEX
  8
LAYER_2
 10
41.2353
 20
81.3971
  0
VERTEX
  8
LAYER_2
 10
43.7923
 20
83.8468
  0
SEQEND
  0
POLYLINE
  8
LAYER_2
 40
0.1094
 41
0.1094
 66
1
 10
0
 20
0
 30
0
  0
VERTEX
  8
LAYER_2
 10
45.191
 20
90.4942
  0
VERTEX
  8
LAYER_2
 10
45.0475
 20
85.0424
  0
VERTEX
  8
LAYER_2
 10
45.3343
 20
84.9277
  0
SEQEND
  0
POLYLINE
  8
LAYER_2
 40
0.1094
 41
0.1094
 66
1
 10
0
 20
0
 30
0
  0
VERTEX
  8
LAYER_2
 10
45.3343
 20
84.9277
  0
VERTEX
  8
LAYER_2
 10
45.4828
 20
90.7355
  0
SEQEND
  0
POLYLINE
  8
LAYER_2
 40
0.1094
 41
0.1094
 66
1
 10
0
 20
0
 30
0
  0
VERTEX
  8
LAYER_2
 10
45.5276
 20
85.114
  0
VERTEX
  8
LAYER_2
 10
45.711
 20
90.5785
  0
SEQEND
  0
POLYLINE
  8
LAYER_2
 40
0.1094
 41
0.1094
 66
1
 10
0
 20
0
 30
0
  0
VERTEX
  8
LAYER_2
 10
40.6593
 20
86.7823
  0
VERTEX
  8
LAYER_2
 10
45.4828
 20
90.7355
  0
SEQEND
  0
POLYLINE
  8
LAYER_2
 40
0.1094
 41
0.1094
 66
1
 10
0
 20
0
 30
0
  0
VERTEX
  8
LAYER_2
 10
50.8792
 20
73.7799
  0
VERTEX
  8
LAYER_2
 10
41.054
 20
80.7932
  0
SEQEND
  0
POLYLINE
  8
LAYER_2
 40
0.1094
 41
0.1094
 66
1
 10
0
 20
0
 30
0
  0
VERTEX
  8
LAYER_2
 10
41.295
 20
81.0249
  0
VERTEX
  8
LAYER_2
 10
50.9272
 20
74.1503
  0
SEQEND
  0
POLYLINE
  8
LAYER_2
 40
0.1094
 41
0.1094
 66
1
 10
0
 20
0
 30
0
  0
VERTEX
  8
LAYER_2
 10
51.3477
 20
78.7312
  0
VERTEX
  8
LAYER_2
 10
40.1167
 20
86.3381
  0
SEQEND
  0
POLYLINE
  8
LAYER_2
 40
0.1094
 41
0.1094
 66
1
 10
0
 20
0
 30
0
  0
VERTEX
  8
LAYER_2
 10
51.8628
 20
78.8585
  0
VERTEX
  8
LAYER_2
 10
39.7392
 20
86.7784
  0
SEQEND
  0
POLYLINE
  8
LAYER_2
 40
0.1094
 41
0.1094
 66
1
 10
0
 20
0
 30
0
  0
VERTEX
  8
LAYER_2
 10
40.3368
 20
86.9114
  0
VERTEX
  8
LAYER_2
 10
51.613
 20
79.3923
  0
SEQEND
  0
POLYLINE
  8
LAYER_2
 40
0.1094
 41
0.1094
 66
1
 10
0
 20
0
 30
0
  0
VERTEX
  8
LAYER_2
 10
55.7469
 20
85.1369
  0
VERTEX
  8
LAYER_2
 10
45.4634
 20
91.0671
  0
VERTEX
  8
LAYER_2
 10
45.4828
 20
90.7355
  0
VERTEX
  8
LAYER_2
 10
55.5341
 20
84.8388
  0
SEQEND
  0
POLYLINE
  8
LAYER_2
 40
0.1094
 41
0.1094
 66
1
 10
0
 20
0
 30
0
  0
VERTEX
  8
LAYER_2
 10
53.2908
 20
80.4566
  0
VERTEX
  8
LAYER_2
 10
54.6282
 20
79.593
  0
SEQEND
  0
POLYLINE
  8
LAYER_2
 40
0.1094
 41
0.1094
 66
1
 10
0
 20
0
 30
0
  0
VERTEX
  8
LAYER_2
 10
45.5276
 20
85.114
  0
VERTEX
  8
LAYER_2
 10
52.6382
 20
80.8027
  0
SEQEND
  0
POLYLINE
  8
LAYER_2
 40
0.1094
 41
0.1094
 66
1
 10
0
 20
0
 30
0
  0
VERTEX
  8
LAYER_2
 10
51.4719
 20
73.902
  0
VERTEX
  8
LAYER_2
 10
54.939
 20
79.1753
  0
SEQEND
  0
POLYLINE
  8
LAYER_2
 40
0.1094
 41
0.1094
 66
1
 10
0
 20
0
 30
0
  0
VERTEX
  8
LAYER_2
 10
51.613
 20
79.3923
  0
VERTEX
  8
LAYER_2
 10
55.7469
 20
85.1369
  0
SEQEND
  0
POLYLINE
  8
LAYER_2
 40
0.1094
 41
0.1094
 66
1
 10
0
 20
0
 30
0
  0
VERTEX
  8
LAYER_2
 10
40.3368
 20
86.9114
  0
VERTEX
  8
LAYER_2
 10
45.4634
 20
91.0671
  0
SEQEND
  0
POLYLINE
  8
LAYER_2
 40
0.1094
 41
0.1094
 66
1
 10
0
 20
0
 30
0
  0
VERTEX
  8
LAYER_2
 10
41.3549
 20
80.9985
  0
VERTEX
  8
LAYER_2
 10
41.35
 20
81.0345
  0
SEQEND
  0
ENDBLK
  0
BLOCK
  8
LAYER_2
  2
AIGNBL0201002B
 70
64
 10
0
 20
0
 30
0
  3
AIGNBL0201002B
  0
POLYLINE
  8
LAYER_2
 40
0.1094
 41
0.1094
 62
253
 66
1
 10
0
 20
0
 30
0
  0
VERTEX
  8
LAYER_2
 10
42.4936
 20
92.4231
  0
VERTEX
  8
LAYER_2
 10
37.0728
 20
88.7412
  0
SEQEND
  0
POLYLINE
  8
LAYER_2
 40
0.1094
 41
0.1094
 62
253
 66
1
 10
0
 20
0
 30
0
  0
VERTEX
  8
LAYER_2
 10
42.4936
 20
92.7265
  0
VERTEX
  8
LAYER_2
 10
42.4936
 20
92.4503
  0
SEQEND
  0
ENDBLK
  0
BLOCK
  8
LAYER_2
  2
AIGNBL0201002C
 70
64
 10
0
 20
0
 30
0
  3
AIGNBL0201002C
  0
POLYLINE
  8
LAYER_2
 40
0.1094
 41
0.1094
 66
1
 10
0
 20
0
 30
0
  0
VERTEX
  8
LAYER_2
 10
54.2677
 20
77.2036
  0
SEQEND
  0
POLYLINE
  8
LAYER_2
 40
0.1094
 41
0.1094
 66
1
 10
0
 20
0
 30
0
  0
VERTEX
  8
LAYER_2
 10
52.3627
 20
78.469
  0
SEQEND
  0
ENDBLK
  0
BLOCK
  8
LAYER_2
  2
AIGNBL0201002D
 70
64
 10
0
 20
0
 30
0
  3
AIGNBL0201002D
  0
POLYLINE
  8
LAYER_2
 40
0.1094
 41
0.1094
 66
1
 10
0
 20
0
 30
0
  0
VERTEX
  8
LAYER_2
 10
45.2524
 20
91.5166
  0
SEQEND
  0
POLYLINE
  8
LAYER_2
 40
0.1094
 41
0.1094
 66
1
 10
0
 20
0
 30
0
  0
VERTEX
  8
LAYER_2
 10
44.2268
 20
92.0221
  0
SEQEND
  0
ENDBLK
  0
BLOCK
  8
LAYER_2
  2
AIGNBL0201002E
 70
64
 10
0
 20
0
 30
0
  3
AIGNBL0201002E
  0
POLYLINE
  8
LAYER_2
 40
0.1094
 41
0.1094
 66
1
 10
0
 20
0
 30
0
  0
VERTEX
  8
LAYER_2
 10
39.3942
 20
86.9713
  0
SEQEND
  0
POLYLINE
  8
LAYER_2
 40
0.1094
 41
0.1094
 66
1
 10
0
 20
0
 30
0
  0
VERTEX
  8
LAYER_2
 10
38.2699
 20
87.6243
  0
SEQEND
  0
ENDBLK
  0
BLOCK
  8
LAYER_2
  2
AIGNBL0201002F
 70
64
 10
0
 20
0
 30
0
  3
AIGNBL0201002F
  0
POLYLINE
  8
LAYER_2
 40
0.1094
 41
0.1094
 66
1
 10
0
 20
0
 30
0
  0
VERTEX
  8
LAYER_2
 10
58.495
 20
83.7774
  0
SEQEND
  0
POLYLINE
  8
LAYER_2
 40
0.1094
 41
0.1094
 66
1
 10
0
 20
0
 30
0
  0
VERTEX
  8
LAYER_2
 10
56.9004
 20
84.6859
  0
SEQEND
  0
ENDBLK
  0
BLOCK
  8
LAYER_2
  2
AIGNBL02010030
 70
64
 10
0
 20
0
 30
0
  3
AIGNBL02010030
  0
POLYLINE
  8
LAYER_2
 40
0.1094
 41
0.1094
 66
1
 10
0
 20
0
 30
0
  0
VERTEX
  8
LAYER_2
 10
40.2149
 20
87.7782
  0
SEQEND
  0
POLYLINE
  8
LAYER_2
 40
0.1094
 41
0.1094
 66
1
 10
0
 20
0
 30
0
  0
VERTEX
  8
LAYER_2
 10
39.5559
 20
95.527
  0
SEQEND
  0
ENDBLK
  0
BLOCK
  8
LAYER_2
  2
AIGNBL02010031
 70
64
 10
0
 20
0
 30
0
  3
AIGNBL02010031
  0
POLYLINE
  8
LAYER_2
 40
0.1094
 41
0.1094
 66
1
 10
0
 20
0
 30
0
  0
VERTEX
  8
LAYER_2
 10
51.6365
 20
79.8892
  0
SEQEND
  0
POLYLINE
  8
LAYER_2
 40
0.1094
 41
0.1094
 66
1
 10
0
 20
0
 30
0
  0
VERTEX
  8
LAYER_2
 10
52.4807
 20
88.8691
  0
SEQEND
  0
ENDBLK
  0
BLOCK
  8
LAYER_2
  2
AIGNBL02010032
 70
64
 10
0
 20
0
 30
0
  3
AIGNBL02010032
  0
POLYLINE
  8
LAYER_2
 40
0.1094
 41
0.1094
 66
1
 10
0
 20
0
 30
0
  0
VERTEX
  8
LAYER_2
 10
56.3899
 20
85.8337
  0
SEQEND
  0
POLYLINE
  8
LAYER_2
 40
0.1094
 41
0.1094
 66
1
 10
0
 20
0
 30
0
  0
VERTEX
  8
LAYER_2
 10
57.7858
 20
94.4609
  0
SEQEND
  0
ENDBLK
  0
BLOCK
  8
LAYER_2
  2
AIGNBL02010033
 70
64
 10
0
 20
0
 30
0
  3
AIGNBL02010033
  0
POLYLINE
  8
LAYER_2
 40
0.1094
 41
0.1094
 66
1
 10
0
 20
0
 30
0
  0
VERTEX
  8
LAYER_2
 10
45.412
 20
91.6165
  0
SEQEND
  0
POLYLINE
  8
LAYER_2
 40
0.1094
 41
0.1094
 66
1
 10
0
 20
0
 30
0
  0
VERTEX
  8
LAYER_2
 10
45.3863
 20
92.182
  0
SEQEND
  0
ENDBLK
  0
BLOCK
  8
LAYER_2
  2
AIGNBL02010034
 70
64
 10
0
 20
0
 30
0
  3
AIGNBL02010034
  0
POLYLINE
  8
LAYER_2
 40
0.1094
 41
0.1094
 66
1
 10
0
 20
0
 30
0
  0
VERTEX
  8
LAYER_2
 10
50.2531
 20
98.9934
  0
VERTEX
  8
LAYER_2
 10
50.239
 20
99.0047
 42
0.2119393722
  0
VERTEX
  8
LAYER_2
 10
49.827
 20
99.0997
 42
0.09780179089
  0
VERTEX
  8
LAYER_2
 10
49.6587
 20
99.0418
  0
VERTEX
  8
LAYER_2
 10
49.6343
 20
99.0252
  0
SEQEND
  0
POLYLINE
  8
LAYER_2
 40
0.1094
 41
0.1094
 66
1
 10
0
 20
0
 30
0
 70
1
  0
VERTEX
  8
LAYER_2
 10
50.2051
 20
98.9645
  0
VERTEX
  8
LAYER_2
 10
50.1772
 20
98.9507
  0
VERTEX
  8
LAYER_2
 10
50.1462
 20
98.9398
  0
VERTEX
  8
LAYER_2
 10
50.1109
 20
98.9292
 42
-0.1904517369
  0
VERTEX
  8
LAYER_2
 10
49.6781
 20
98.9914
 42
-0.1180997678
  0
VERTEX
  8
LAYER_2
 10
49.5814
 20
99.0901
  0
VERTEX
  8
LAYER_2
 10
49.5694
 20
99.1144
 42
-0.3542118142
  0
VERTEX
  8
LAYER_2
 10
49.6544
 20
99.343
  0
VERTEX
  8
LAYER_2
 10
49.6791
 20
99.3596
  0
VERTEX
  8
LAYER_2
 10
49.7049
 20
99.3737
  0
VERTEX
  8
LAYER_2
 10
49.7349
 20
99.3871
  0
VERTEX
  8
LAYER_2
 10
49.7659
 20
99.3984
 42
-0.27839863
  0
VERTEX
  8
LAYER_2
 10
50.3191
 20
99.2612
  0
VERTEX
  8
LAYER_2
 10
50.3268
 20
99.2488
  0
VERTEX
  8
LAYER_2
 10
50.3328
 20
99.2368
 42
-0.3562127962
  0
VERTEX
  8
LAYER_2
 10
50.2686
 20
99.0047
  0
VERTEX
  8
LAYER_2
 10
50.2573
 20
98.9952
  0
VERTEX
  8
LAYER_2
 10
50.2312
 20
98.9786
  0
SEQEND
  0
ENDBLK
  0
BLOCK
  8
LAYER_2
  2
AIGNBL02010035
 70
64
 10
0
 20
0
 30
0
  3
AIGNBL02010035
  0
POLYLINE
  8
LAYER_2
 40
0.1199
 41
0.1199
 62
253
 66
1
 10
0
 20
0
 30
0
  0
VERTEX
  8
LAYER_2
 10
67.5465
 20
82.366
  0
VERTEX
  8
LAYER_2
 10
67.5215
 20
82.7858
  0
VERTEX
  8
LAYER_2
 10
74.0881
 20
87.2629
  0
SEQEND
  0
POLYLINE
  8
LAYER_2
 40
0.1199
 41
0.1199
 62
253
 66
1
 10
0
 20
0
 30
0
  0
VERTEX
  8
LAYER_2
 10
74.2482
 20
86.8689
  0
VERTEX
  8
LAYER_2
 10
68.3558
 20
82.879
  0
SEQEND
  0
POLYLINE
  8
LAYER_2
 40
0.1199
 41
0.1199
 62
253
 66
1
 10
0
 20
0
 30
0
  0
VERTEX
  8
LAYER_2
 10
69.9038
 20
81.8386
  0
VERTEX
  8
LAYER_2
 10
67.5172
 20
82.7735
  0
SEQEND
  0
POLYLINE
  8
LAYER_2
 40
0.1199
 41
0.1199
 62
253
 66
1
 10
0
 20
0
 30
0
  0
VERTEX
  8
LAYER_2
 10
69.9038
 20
81.8386
  0
VERTEX
  8
LAYER_2
 10
76.2114
 20
86.5634
  0
VERTEX
  8
LAYER_2
 10
75.7151
 20
86.7267
  0
SEQEND
  0
POLYLINE
  8
LAYER_2
 40
0.1199
 41
0.1199
 62
253
 66
1
 10
0
 20
0
 30
0
  0
VERTEX
  8
LAYER_2
 10
67.5433
 20
82.3572
  0
VERTEX
  8
LAYER_2
 10
69.8579
 20
81.3641
  0
SEQEND
  0
POLYLINE
  8
LAYER_2
 40
0.1199
 41
0.1199
 62
253
 66
1
 10
0
 20
0
 30
0
  0
VERTEX
  8
LAYER_2
 10
69.9038
 20
81.8386
  0
VERTEX
  8
LAYER_2
 10
69.8664
 20
81.3726
  0
VERTEX
  8
LAYER_2
 10
76.1095
 20
86.1662
  0
SEQEND
  0
POLYLINE
  8
LAYER_2
 40
0.1199
 41
0.1199
 62
253
 66
1
 10
0
 20
0
 30
0
  0
VERTEX
  8
LAYER_2
 10
76.1095
 20
86.1662
  0
VERTEX
  8
LAYER_2
 10
76.2114
 20
86.5634
  0
SEQEND
  0
POLYLINE
  8
LAYER_2
 40
0.1199
 41
0.1199
 62
253
 66
1
 10
0
 20
0
 30
0
  0
VERTEX
  8
LAYER_2
 10
75.6364
 20
86.4198
  0
VERTEX
  8
LAYER_2
 10
74.2482
 20
86.8855
  0
SEQEND
  0
POLYLINE
  8
LAYER_2
 40
0.1199
 41
0.1199
 62
253
 66
1
 10
0
 20
0
 30
0
  0
VERTEX
  8
LAYER_2
 10
74.0923
 20
87.2629
  0
VERTEX
  8
LAYER_2
 10
75.7151
 20
86.7267
  0
SEQEND
  0
POLYLINE
  8
LAYER_2
 40
0.1199
 41
0.1199
 62
253
 66
1
 10
0
 20
0
 30
0
  0
VERTEX
  8
LAYER_2
 10
68.3646
 20
82.8624
  0
VERTEX
  8
LAYER_2
 10
69.932
 20
82.2835
  0
SEQEND
  0
POLYLINE
  8
LAYER_2
 40
0.1199
 41
0.1199
 62
253
 66
1
 10
0
 20
0
 30
0
  0
VERTEX
  8
LAYER_2
 10
69.9486
 20
82.2835
  0
VERTEX
  8
LAYER_2
 10
75.6699
 20
86.4198
  0
SEQEND
  0
POLYLINE
  8
LAYER_2
 40
0.1199
 41
0.1199
 62
253
 66
1
 10
0
 20
0
 30
0
  0
VERTEX
  8
LAYER_2
 10
74.2482
 20
86.4586
  0
VERTEX
  8
LAYER_2
 10
75.2431
 20
86.0995
  0
SEQEND
  0
ENDBLK
  0
BLOCK
  8
LAYER_2
  2
AIGNBL02010036
 70
64
 10
0
 20
0
 30
0
  3
AIGNBL02010036
  0
POLYLINE
  8
LAYER_2
 40
0.1199
 41
0.1199
 66
1
 10
0
 20
0
 30
0
 70
1
  0
VERTEX
  8
LAYER_2
 10
94.8087
 20
80.4989
  0
VERTEX
  8
LAYER_2
 10
94.8006
 20
80.4989
  0
VERTEX
  8
LAYER_2
 10
94.8006
 20
80.4961
  0
VERTEX
  8
LAYER_2
 10
94.7978
 20
80.4961
  0
VERTEX
  8
LAYER_2
 10
94.795
 20
80.4936
  0
VERTEX
  8
LAYER_2
 10
94.795
 20
80.4904
  0
VERTEX
  8
LAYER_2
 10
94.7925
 20
80.4904
  0
VERTEX
  8
LAYER_2
 10
94.7893
 20
80.4879
  0
VERTEX
  8
LAYER_2
 10
94.7893
 20
80.4851
  0
VERTEX
  8
LAYER_2
 10
94.7841
 20
80.4795
  0
VERTEX
  8
LAYER_2
 10
94.7841
 20
80.4742
  0
VERTEX
  8
LAYER_2
 10
94.7812
 20
80.4714
  0
VERTEX
  8
LAYER_2
 10
94.7812
 20
80.4629
  0
VERTEX
  8
LAYER_2
 10
94.7784
 20
80.4604
  0
VERTEX
  8
LAYER_2
 10
94.7784
 20
80.4385
  0
VERTEX
  8
LAYER_2
 10
94.7812
 20
80.4354
  0
VERTEX
  8
LAYER_2
 10
94.7812
 20
80.4301
  0
VERTEX
  8
LAYER_2
 10
94.7841
 20
80.4273
  0
VERTEX
  8
LAYER_2
 10
94.7841
 20
80.4244
  0
VERTEX
  8
LAYER_2
 10
94.7869
 20
80.4216
  0
VERTEX
  8
LAYER_2
 10
94.7869
 20
80.4191
  0
VERTEX
  8
LAYER_2
 10
94.7893
 20
80.4191
  0
VERTEX
  8
LAYER_2
 10
94.7893
 20
80.416
  0
VERTEX
  8
LAYER_2
 10
94.7925
 20
80.416
  0
VERTEX
  8
LAYER_2
 10
94.795
 20
80.4135
  0
VERTEX
  8
LAYER_2
 10
94.8087
 20
80.4135
  0
VERTEX
  8
LAYER_2
 10
94.8087
 20
80.416
  0
VERTEX
  8
LAYER_2
 10
94.8119
 20
80.416
  0
VERTEX
  8
LAYER_2
 10
94.8144
 20
80.4191
  0
VERTEX
  8
LAYER_2
 10
94.82
 20
80.4244
  0
VERTEX
  8
LAYER_2
 10
94.82
 20
80.4273
  0
VERTEX
  8
LAYER_2
 10
94.8229
 20
80.4301
  0
VERTEX
  8
LAYER_2
 10
94.8253
 20
80.4326
  0
VERTEX
  8
LAYER_2
 10
94.8253
 20
80.4385
  0
VERTEX
  8
LAYER_2
 10
94.8281
 20
80.4438
  0
VERTEX
  8
LAYER_2
 10
94.8281
 20
80.452
  0
VERTEX
  8
LAYER_2
 10
94.831
 20
80.4576
  0
VERTEX
  8
LAYER_2
 10
94.831
 20
80.4685
  0
VERTEX
  8
LAYER_2
 10
94.8281
 20
80.4714
  0
VERTEX
  8
LAYER_2
 10
94.8281
 20
80.4795
  0
VERTEX
  8
LAYER_2
 10
94.8253
 20
80.4823
  0
VERTEX
  8
LAYER_2
 10
94.8253
 20
80.4851
  0
VERTEX
  8
LAYER_2
 10
94.8229
 20
80.4879
  0
VERTEX
  8
LAYER_2
 10
94.8229
 20
80.4904
  0
VERTEX
  8
LAYER_2
 10
94.8144
 20
80.4989
  0
SEQEND
  0
POLYLINE
  8
LAYER_2
 40
0.1199
 41
0.1199
 66
1
 10
0
 20
0
 30
0
 70
1
  0
VERTEX
  8
LAYER_2
 10
91.0951
 20
75.101
  0
VERTEX
  8
LAYER_2
 10
91.0926
 20
75.101
  0
VERTEX
  8
LAYER_2
 10
91.0898
 20
75.0986
  0
VERTEX
  8
LAYER_2
 10
91.0869
 20
75.0986
  0
VERTEX
  8
LAYER_2
 10
91.0841
 20
75.0957
  0
VERTEX
  8
LAYER_2
 10
91.0813
 20
75.0957
  0
VERTEX
  8
LAYER_2
 10
91.0788
 20
75.0929
  0
VERTEX
  8
LAYER_2
 10
91.0788
 20
75.0901
  0
VERTEX
  8
LAYER_2
 10
91.0757
 20
75.0901
  0
VERTEX
  8
LAYER_2
 10
91.0757
 20
75.0876
  0
VERTEX
  8
LAYER_2
 10
91.0732
 20
75.0844
  0
VERTEX
  8
LAYER_2
 10
91.0704
 20
75.0816
  0
VERTEX
  8
LAYER_2
 10
91.0704
 20
75.0735
  0
VERTEX
  8
LAYER_2
 10
91.0679
 20
75.0707
  0
VERTEX
  8
LAYER_2
 10
91.0679
 20
75.065
  0
VERTEX
  8
LAYER_2
 10
91.0647
 20
75.0597
  0
VERTEX
  8
LAYER_2
 10
91.0647
 20
75.0407
  0
VERTEX
  8
LAYER_2
 10
91.0679
 20
75.0375
  0
VERTEX
  8
LAYER_2
 10
91.0679
 20
75.0322
  0
VERTEX
  8
LAYER_2
 10
91.0704
 20
75.0294
  0
VERTEX
  8
LAYER_2
 10
91.0704
 20
75.0241
  0
VERTEX
  8
LAYER_2
 10
91.0788
 20
75.0156
  0
VERTEX
  8
LAYER_2
 10
91.0813
 20
75.0156
  0
VERTEX
  8
LAYER_2
 10
91.0841
 20
75.0128
  0
VERTEX
  8
LAYER_2
 10
91.0898
 20
75.0128
  0
VERTEX
  8
LAYER_2
 10
91.0926
 20
75.0156
  0
VERTEX
  8
LAYER_2
 10
91.0951
 20
75.0156
  0
VERTEX
  8
LAYER_2
 10
91.0982
 20
75.0181
  0
VERTEX
  8
LAYER_2
 10
91.1007
 20
75.0181
  0
VERTEX
  8
LAYER_2
 10
91.1035
 20
75.0213
  0
VERTEX
  8
LAYER_2
 10
91.1035
 20
75.0241
  0
VERTEX
  8
LAYER_2
 10
91.1063
 20
75.0266
  0
VERTEX
  8
LAYER_2
 10
91.1063
 20
75.0294
  0
VERTEX
  8
LAYER_2
 10
91.1092
 20
75.0322
  0
VERTEX
  8
LAYER_2
 10
91.1116
 20
75.035
  0
VERTEX
  8
LAYER_2
 10
91.1116
 20
75.0407
  0
VERTEX
  8
LAYER_2
 10
91.1148
 20
75.0432
  0
VERTEX
  8
LAYER_2
 10
91.1148
 20
75.0541
  0
VERTEX
  8
LAYER_2
 10
91.1173
 20
75.0569
  0
VERTEX
  8
LAYER_2
 10
91.1173
 20
75.0682
  0
VERTEX
  8
LAYER_2
 10
91.1148
 20
75.0707
  0
VERTEX
  8
LAYER_2
 10
91.1148
 20
75.0816
  0
VERTEX
  8
LAYER_2
 10
91.1116
 20
75.0844
  0
VERTEX
  8
LAYER_2
 10
91.1116
 20
75.0876
  0
VERTEX
  8
LAYER_2
 10
91.1092
 20
75.0901
  0
VERTEX
  8
LAYER_2
 10
91.1063
 20
75.0929
  0
VERTEX
  8
LAYER_2
 10
91.1063
 20
75.0957
  0
VERTEX
  8
LAYER_2
 10
91.1035
 20
75.0957
  0
VERTEX
  8
LAYER_2
 10
91.1035
 20
75.0986
  0
VERTEX
  8
LAYER_2
 10
91.0982
 20
75.0986
  0
SEQEND
  0
POLYLINE
  8
LAYER_2
 40
0.1199
 41
0.1199
 66
1
 10
0
 20
0
 30
0
  0
VERTEX
  8
LAYER_2
 10
90.6827
 20
74.1535
  0
VERTEX
  8
LAYER_2
 10
95.1488
 20
80.7913
  0
SEQEND
  0
POLYLINE
  8
LAYER_2
 40
0.1199
 41
0.1199
 66
1
 10
0
 20
0
 30
0
  0
VERTEX
  8
LAYER_2
 10
89.9372
 20
69.35
  0
VERTEX
  8
LAYER_2
 10
93.3528
 20
74.635
  0
SEQEND
  0
POLYLINE
  8
LAYER_2
 40
0.1199
 41
0.1199
 66
1
 10
0
 20
0
 30
0
  0
VERTEX
  8
LAYER_2
 10
91.4538
 20
75.3014
  0
VERTEX
  8
LAYER_2
 10
93.3472
 20
74.6544
  0
SEQEND
  0
POLYLINE
  8
LAYER_2
 40
0.1199
 41
0.1199
 66
1
 10
0
 20
0
 30
0
  0
VERTEX
  8
LAYER_2
 10
79.2936
 20
78.893
  0
VERTEX
  8
LAYER_2
 10
79.5141
 20
79.1079
  0
VERTEX
  8
LAYER_2
 10
90.5599
 20
75.6115
  0
SEQEND
  0
POLYLINE
  8
LAYER_2
 40
0.1199
 41
0.1199
 66
1
 10
0
 20
0
 30
0
  0
VERTEX
  8
LAYER_2
 10
89.1167
 20
68.3601
  0
VERTEX
  8
LAYER_2
 10
74.3497
 20
74.1485
  0
VERTEX
  8
LAYER_2
 10
78.5926
 20
78.2425
  0
SEQEND
  0
POLYLINE
  8
LAYER_2
 40
0.1199
 41
0.1199
 66
1
 10
0
 20
0
 30
0
  0
VERTEX
  8
LAYER_2
 10
90.4974
 20
74.2279
  0
VERTEX
  8
LAYER_2
 10
90.5581
 20
74.6389
  0
SEQEND
  0
POLYLINE
  8
LAYER_2
 40
0.1199
 41
0.1199
 66
1
 10
0
 20
0
 30
0
  0
VERTEX
  8
LAYER_2
 10
90.5581
 20
74.6389
  0
VERTEX
  8
LAYER_2
 10
95.4445
 20
81.5801
  0
SEQEND
  0
POLYLINE
  8
LAYER_2
 40
0.1199
 41
0.1199
 66
1
 10
0
 20
0
 30
0
  0
VERTEX
  8
LAYER_2
 10
89.0564
 20
67.891
  0
VERTEX
  8
LAYER_2
 10
89.9669
 20
74.4431
  0
SEQEND
  0
POLYLINE
  8
LAYER_2
 40
0.1199
 41
0.1199
 66
1
 10
0
 20
0
 30
0
  0
VERTEX
  8
LAYER_2
 10
89.5178
 20
67.6786
  0
VERTEX
  8
LAYER_2
 10
90.4974
 20
74.2279
  0
SEQEND
  0
POLYLINE
  8
LAYER_2
 40
0.1199
 41
0.1199
 66
1
 10
0
 20
0
 30
0
  0
VERTEX
  8
LAYER_2
 10
89.7411
 20
68.0317
  0
VERTEX
  8
LAYER_2
 10
90.6827
 20
74.1535
  0
SEQEND
  0
POLYLINE
  8
LAYER_2
 40
0.1199
 41
0.1199
 66
1
 10
0
 20
0
 30
0
  0
VERTEX
  8
LAYER_2
 10
89.921
 20
69.2315
  0
VERTEX
  8
LAYER_2
 10
93.4192
 20
74.6569
  0
SEQEND
  0
POLYLINE
  8
LAYER_2
 40
0.1199
 41
0.1199
 66
1
 10
0
 20
0
 30
0
  0
VERTEX
  8
LAYER_2
 10
89.0144
 20
67.5794
  0
VERTEX
  8
LAYER_2
 10
89.4733
 20
67.3671
  0
SEQEND
  0
POLYLINE
  8
LAYER_2
 40
0.1199
 41
0.1199
 66
1
 10
0
 20
0
 30
0
  0
VERTEX
  8
LAYER_2
 10
89.5178
 20
67.6786
  0
VERTEX
  8
LAYER_2
 10
89.4733
 20
67.3671
  0
VERTEX
  8
LAYER_2
 10
93.9494
 20
74.4501
  0
SEQEND
  0
POLYLINE
  8
LAYER_2
 40
0.1199
 41
0.1199
 66
1
 10
0
 20
0
 30
0
  0
VERTEX
  8
LAYER_2
 10
94.4249
 20
79.7101
  0
VERTEX
  8
LAYER_2
 10
93.4192
 20
74.6625
  0
SEQEND
  0
POLYLINE
  8
LAYER_2
 40
0.1199
 41
0.1199
 66
1
 10
0
 20
0
 30
0
  0
VERTEX
  8
LAYER_2
 10
93.8418
 20
74.4942
  0
VERTEX
  8
LAYER_2
 10
95.1488
 20
80.7913
  0
SEQEND
  0
POLYLINE
  8
LAYER_2
 40
0.1199
 41
0.1199
 66
1
 10
0
 20
0
 30
0
  0
VERTEX
  8
LAYER_2
 10
93.9494
 20
74.4501
  0
VERTEX
  8
LAYER_2
 10
95.4445
 20
81.5801
  0
SEQEND
  0
POLYLINE
  8
LAYER_2
 40
0.1199
 41
0.1199
 66
1
 10
0
 20
0
 30
0
  0
VERTEX
  8
LAYER_2
 10
90.5581
 20
74.6389
  0
VERTEX
  8
LAYER_2
 10
90.0223
 20
74.8565
  0
SEQEND
  0
POLYLINE
  8
LAYER_2
 40
0.1199
 41
0.1199
 66
1
 10
0
 20
0
 30
0
  0
VERTEX
  8
LAYER_2
 10
95.4445
 20
81.5801
  0
VERTEX
  8
LAYER_2
 10
94.9664
 20
81.7403
  0
SEQEND
  0
POLYLINE
  8
LAYER_2
 40
0.1199
 41
0.1199
 66
1
 10
0
 20
0
 30
0
  0
VERTEX
  8
LAYER_2
 10
73.6534
 20
74.0328
  0
VERTEX
  8
LAYER_2
 10
72.5315
 20
80.4371
  0
SEQEND
  0
POLYLINE
  8
LAYER_2
 40
0.1199
 41
0.1199
 66
1
 10
0
 20
0
 30
0
  0
VERTEX
  8
LAYER_2
 10
74.0072
 20
73.8702
  0
VERTEX
  8
LAYER_2
 10
72.9242
 20
80.2773
  0
SEQEND
  0
POLYLINE
  8
LAYER_2
 40
0.1199
 41
0.1199
 66
1
 10
0
 20
0
 30
0
  0
VERTEX
  8
LAYER_2
 10
74.0072
 20
73.8702
  0
VERTEX
  8
LAYER_2
 10
74.2863
 20
74.1376
  0
VERTEX
  8
LAYER_2
 10
73.3108
 20
80.12
  0
SEQEND
  0
POLYLINE
  8
LAYER_2
 40
0.1199
 41
0.1199
 66
1
 10
0
 20
0
 30
0
  0
VERTEX
  8
LAYER_2
 10
74.2171
 20
74.568
  0
VERTEX
  8
LAYER_2
 10
78.2183
 20
78.3744
  0
SEQEND
  0
POLYLINE
  8
LAYER_2
 40
0.1199
 41
0.1199
 66
1
 10
0
 20
0
 30
0
  0
VERTEX
  8
LAYER_2
 10
78.9404
 20
79.0574
  0
VERTEX
  8
LAYER_2
 10
79.1715
 20
79.2733
  0
SEQEND
  0
POLYLINE
  8
LAYER_2
 40
0.1199
 41
0.1199
 66
1
 10
0
 20
0
 30
0
  0
VERTEX
  8
LAYER_2
 10
74.2863
 20
74.1376
  0
VERTEX
  8
LAYER_2
 10
78.5679
 20
78.2524
  0
SEQEND
  0
POLYLINE
  8
LAYER_2
 40
0.1199
 41
0.1199
 66
1
 10
0
 20
0
 30
0
  0
VERTEX
  8
LAYER_2
 10
79.2608
 20
78.9096
  0
VERTEX
  8
LAYER_2
 10
79.7268
 20
79.3562
  0
SEQEND
  0
POLYLINE
  8
LAYER_2
 40
0.1199
 41
0.1199
 66
1
 10
0
 20
0
 30
0
  0
VERTEX
  8
LAYER_2
 10
74.0598
 20
73.5527
  0
VERTEX
  8
LAYER_2
 10
73.7088
 20
73.7157
  0
VERTEX
  8
LAYER_2
 10
73.6534
 20
74.0328
  0
SEQEND
  0
POLYLINE
  8
LAYER_2
 40
0.1199
 41
0.1199
 66
1
 10
0
 20
0
 30
0
  0
VERTEX
  8
LAYER_2
 10
78.7902
 20
85.0793
  0
VERTEX
  8
LAYER_2
 10
79.1715
 20
79.2733
  0
VERTEX
  8
LAYER_2
 10
79.5028
 20
79.141
  0
SEQEND
  0
POLYLINE
  8
LAYER_2
 40
0.1199
 41
0.1199
 66
1
 10
0
 20
0
 30
0
  0
VERTEX
  8
LAYER_2
 10
79.5028
 20
79.141
  0
VERTEX
  8
LAYER_2
 10
79.1271
 20
85.358
  0
SEQEND
  0
POLYLINE
  8
LAYER_2
 40
0.1199
 41
0.1199
 66
1
 10
0
 20
0
 30
0
  0
VERTEX
  8
LAYER_2
 10
79.7268
 20
79.3562
  0
VERTEX
  8
LAYER_2
 10
79.3952
 20
85.267
  0
SEQEND
  0
POLYLINE
  8
LAYER_2
 40
0.1199
 41
0.1199
 66
1
 10
0
 20
0
 30
0
  0
VERTEX
  8
LAYER_2
 10
79.3567
 20
85.9454
  0
VERTEX
  8
LAYER_2
 10
78.9891
 20
86.0668
  0
VERTEX
  8
LAYER_2
 10
72.4627
 20
80.8372
  0
VERTEX
  8
LAYER_2
 10
72.855
 20
80.6774
  0
SEQEND
  0
POLYLINE
  8
LAYER_2
 40
0.1199
 41
0.1199
 66
1
 10
0
 20
0
 30
0
  0
VERTEX
  8
LAYER_2
 10
72.4627
 20
80.8372
  0
VERTEX
  8
LAYER_2
 10
72.5315
 20
80.4371
  0
SEQEND
  0
POLYLINE
  8
LAYER_2
 40
0.1199
 41
0.1199
 66
1
 10
0
 20
0
 30
0
  0
VERTEX
  8
LAYER_2
 10
73.5514
 20
80.7903
  0
VERTEX
  8
LAYER_2
 10
79.1271
 20
85.358
  0
SEQEND
  0
POLYLINE
  8
LAYER_2
 40
0.1199
 41
0.1199
 66
1
 10
0
 20
0
 30
0
  0
VERTEX
  8
LAYER_2
 10
89.0144
 20
67.5794
  0
VERTEX
  8
LAYER_2
 10
74.0598
 20
73.5527
  0
SEQEND
  0
POLYLINE
  8
LAYER_2
 40
0.1199
 41
0.1199
 66
1
 10
0
 20
0
 30
0
  0
VERTEX
  8
LAYER_2
 10
89.0564
 20
67.891
  0
VERTEX
  8
LAYER_2
 10
74.0072
 20
73.8702
  0
SEQEND
  0
POLYLINE
  8
LAYER_2
 40
0.1199
 41
0.1199
 66
1
 10
0
 20
0
 30
0
  0
VERTEX
  8
LAYER_2
 10
74.2863
 20
74.1376
  0
VERTEX
  8
LAYER_2
 10
89.1114
 20
68.3185
  0
SEQEND
  0
POLYLINE
  8
LAYER_2
 40
0.1199
 41
0.1199
 66
1
 10
0
 20
0
 30
0
  0
VERTEX
  8
LAYER_2
 10
89.9669
 20
74.4431
  0
VERTEX
  8
LAYER_2
 10
72.9242
 20
80.2773
  0
SEQEND
  0
POLYLINE
  8
LAYER_2
 40
0.1199
 41
0.1199
 66
1
 10
0
 20
0
 30
0
  0
VERTEX
  8
LAYER_2
 10
90.0223
 20
74.8565
  0
VERTEX
  8
LAYER_2
 10
72.855
 20
80.6774
  0
SEQEND
  0
POLYLINE
  8
LAYER_2
 40
0.1199
 41
0.1199
 66
1
 10
0
 20
0
 30
0
  0
VERTEX
  8
LAYER_2
 10
73.1782
 20
80.9391
  0
VERTEX
  8
LAYER_2
 10
90.2738
 20
75.2068
  0
SEQEND
  0
POLYLINE
  8
LAYER_2
 40
0.1199
 41
0.1199
 66
1
 10
0
 20
0
 30
0
  0
VERTEX
  8
LAYER_2
 10
94.7756
 20
81.4754
  0
VERTEX
  8
LAYER_2
 10
79.1052
 20
85.7412
  0
VERTEX
  8
LAYER_2
 10
79.1271
 20
85.358
  0
VERTEX
  8
LAYER_2
 10
94.5301
 20
81.1307
  0
SEQEND
  0
POLYLINE
  8
LAYER_2
 40
0.1199
 41
0.1199
 66
1
 10
0
 20
0
 30
0
  0
VERTEX
  8
LAYER_2
 10
79.3567
 20
85.9454
  0
VERTEX
  8
LAYER_2
 10
94.9664
 20
81.7403
  0
SEQEND
  0
POLYLINE
  8
LAYER_2
 40
0.1199
 41
0.1199
 66
1
 10
0
 20
0
 30
0
  0
VERTEX
  8
LAYER_2
 10
90.5673
 20
75.6267
  0
VERTEX
  8
LAYER_2
 10
79.5028
 20
79.141
  0
SEQEND
  0
POLYLINE
  8
LAYER_2
 40
0.1199
 41
0.1199
 66
1
 10
0
 20
0
 30
0
  0
VERTEX
  8
LAYER_2
 10
93.4192
 20
74.6569
  0
VERTEX
  8
LAYER_2
 10
91.4732
 20
75.3166
  0
SEQEND
  0
POLYLINE
  8
LAYER_2
 40
0.1199
 41
0.1199
 66
1
 10
0
 20
0
 30
0
  0
VERTEX
  8
LAYER_2
 10
91.6535
 20
75.6002
  0
VERTEX
  8
LAYER_2
 10
93.4827
 20
74.9772
  0
SEQEND
  0
POLYLINE
  8
LAYER_2
 40
0.1199
 41
0.1199
 66
1
 10
0
 20
0
 30
0
  0
VERTEX
  8
LAYER_2
 10
79.7268
 20
79.3562
  0
VERTEX
  8
LAYER_2
 10
90.7596
 20
75.8951
  0
SEQEND
  0
POLYLINE
  8
LAYER_2
 40
0.1199
 41
0.1199
 66
1
 10
0
 20
0
 30
0
  0
VERTEX
  8
LAYER_2
 10
89.7411
 20
68.0317
  0
VERTEX
  8
LAYER_2
 10
93.8418
 20
74.4942
  0
SEQEND
  0
POLYLINE
  8
LAYER_2
 40
0.1199
 41
0.1199
 66
1
 10
0
 20
0
 30
0
  0
VERTEX
  8
LAYER_2
 10
90.2738
 20
75.2068
  0
VERTEX
  8
LAYER_2
 10
94.7756
 20
81.4754
  0
SEQEND
  0
POLYLINE
  8
LAYER_2
 40
0.1199
 41
0.1199
 66
1
 10
0
 20
0
 30
0
  0
VERTEX
  8
LAYER_2
 10
73.1782
 20
80.9391
  0
VERTEX
  8
LAYER_2
 10
79.1052
 20
85.7412
  0
SEQEND
  0
POLYLINE
  8
LAYER_2
 40
0.1199
 41
0.1199
 66
1
 10
0
 20
0
 30
0
  0
VERTEX
  8
LAYER_2
 10
74.3554
 20
74.1073
  0
VERTEX
  8
LAYER_2
 10
74.3497
 20
74.1485
  0
SEQEND
  0
ENDBLK
  0
BLOCK
  8
LAYER_2
  2
AIGNBL02010037
 70
64
 10
0
 20
0
 30
0
  3
AIGNBL02010037
  0
POLYLINE
  8
LAYER_2
 40
0.1094
 41
0.1094
 66
1
 10
0
 20
0
 30
0
  0
VERTEX
  8
LAYER_2
 10
78.5894
 20
86.0518
  0
SEQEND
  0
POLYLINE
  8
LAYER_2
 40
0.1094
 41
0.1094
 66
1
 10
0
 20
0
 30
0
  0
VERTEX
  8
LAYER_2
 10
76.4664
 20
86.5136
  0
SEQEND
  0
ENDBLK
  0
BLOCK
  8
LAYER_2
  2
AIGNBL02010038
 70
64
 10
0
 20
0
 30
0
  3
AIGNBL02010038
  0
POLYLINE
  8
LAYER_2
 40
0.1094
 41
0.1094
 66
1
 10
0
 20
0
 30
0
  0
VERTEX
  8
LAYER_2
 10
72.122
 20
80.8952
  0
SEQEND
  0
POLYLINE
  8
LAYER_2
 40
0.1094
 41
0.1094
 66
1
 10
0
 20
0
 30
0
  0
VERTEX
  8
LAYER_2
 10
70.1513
 20
81.6762
  0
SEQEND
  0
ENDBLK
  0
BLOCK
  8
LAYER_2
  2
AIGNBL02010039
 70
64
 10
0
 20
0
 30
0
  3
AIGNBL02010039
  0
POLYLINE
  8
LAYER_2
 40
0.1199
 41
0.1199
 62
253
 66
1
 10
0
 20
0
 30
0
 70
1
  0
VERTEX
  8
LAYER_2
 10
98.1486
 20
79.3424
  0
VERTEX
  8
LAYER_2
 10
98.1458
 20
79.3424
  0
VERTEX
  8
LAYER_2
 10
98.1429
 20
79.3396
  0
VERTEX
  8
LAYER_2
 10
98.1376
 20
79.3396
  0
VERTEX
  8
LAYER_2
 10
98.1376
 20
79.3368
  0
VERTEX
  8
LAYER_2
 10
98.1345
 20
79.3368
  0
VERTEX
  8
LAYER_2
 10
98.132
 20
79.3343
  0
VERTEX
  8
LAYER_2
 10
98.132
 20
79.3312
  0
VERTEX
  8
LAYER_2
 10
98.1292
 20
79.3287
  0
VERTEX
  8
LAYER_2
 10
98.1264
 20
79.3287
  0
VERTEX
  8
LAYER_2
 10
98.1264
 20
79.3262
  0
VERTEX
  8
LAYER_2
 10
98.1235
 20
79.323
  0
VERTEX
  8
LAYER_2
 10
98.1235
 20
79.3177
  0
VERTEX
  8
LAYER_2
 10
98.1211
 20
79.3149
  0
VERTEX
  8
LAYER_2
 10
98.1211
 20
79.3096
  0
VERTEX
  8
LAYER_2
 10
98.1182
 20
79.3068
  0
VERTEX
  8
LAYER_2
 10
98.1182
 20
79.2796
  0
VERTEX
  8
LAYER_2
 10
98.1211
 20
79.2768
  0
VERTEX
  8
LAYER_2
 10
98.1211
 20
79.2715
  0
VERTEX
  8
LAYER_2
 10
98.1235
 20
79.2687
  0
VERTEX
  8
LAYER_2
 10
98.1235
 20
79.2662
  0
VERTEX
  8
LAYER_2
 10
98.1264
 20
79.2631
  0
VERTEX
  8
LAYER_2
 10
98.1264
 20
79.2606
  0
VERTEX
  8
LAYER_2
 10
98.1292
 20
79.2606
  0
VERTEX
  8
LAYER_2
 10
98.1345
 20
79.2553
  0
VERTEX
  8
LAYER_2
 10
98.1429
 20
79.2553
  0
VERTEX
  8
LAYER_2
 10
98.1458
 20
79.2581
  0
VERTEX
  8
LAYER_2
 10
98.1486
 20
79.2581
  0
VERTEX
  8
LAYER_2
 10
98.1514
 20
79.2606
  0
VERTEX
  8
LAYER_2
 10
98.1539
 20
79.2606
  0
VERTEX
  8
LAYER_2
 10
98.1539
 20
79.2631
  0
VERTEX
  8
LAYER_2
 10
98.1595
 20
79.2687
  0
VERTEX
  8
LAYER_2
 10
98.1595
 20
79.2715
  0
VERTEX
  8
LAYER_2
 10
98.1623
 20
79.2744
  0
VERTEX
  8
LAYER_2
 10
98.1623
 20
79.2768
  0
VERTEX
  8
LAYER_2
 10
98.1652
 20
79.2796
  0
VERTEX
  8
LAYER_2
 10
98.1652
 20
79.2825
  0
VERTEX
  8
LAYER_2
 10
98.168
 20
79.2853
  0
VERTEX
  8
LAYER_2
 10
98.168
 20
79.323
  0
VERTEX
  8
LAYER_2
 10
98.1652
 20
79.3262
  0
VERTEX
  8
LAYER_2
 10
98.1652
 20
79.3287
  0
VERTEX
  8
LAYER_2
 10
98.1595
 20
79.3343
  0
VERTEX
  8
LAYER_2
 10
98.1595
 20
79.3368
  0
VERTEX
  8
LAYER_2
 10
98.1571
 20
79.3368
  0
VERTEX
  8
LAYER_2
 10
98.1539
 20
79.3396
  0
VERTEX
  8
LAYER_2
 10
98.1514
 20
79.3396
  0
SEQEND
  0
POLYLINE
  8
LAYER_2
 40
0.1199
 41
0.1199
 62
253
 66
1
 10
0
 20
0
 30
0
 70
1
  0
VERTEX
  8
LAYER_2
 10
94.4374
 20
74.0864
  0
VERTEX
  8
LAYER_2
 10
94.4292
 20
74.0864
  0
VERTEX
  8
LAYER_2
 10
94.4236
 20
74.0811
  0
VERTEX
  8
LAYER_2
 10
94.4208
 20
74.0811
  0
VERTEX
  8
LAYER_2
 10
94.4183
 20
74.0783
  0
VERTEX
  8
LAYER_2
 10
94.4183
 20
74.0755
  0
VERTEX
  8
LAYER_2
 10
94.4155
 20
74.073
  0
VERTEX
  8
LAYER_2
 10
94.4155
 20
74.0702
  0
VERTEX
  8
LAYER_2
 10
94.4127
 20
74.0674
  0
VERTEX
  8
LAYER_2
 10
94.4127
 20
74.0649
  0
VERTEX
  8
LAYER_2
 10
94.4098
 20
74.0617
  0
VERTEX
  8
LAYER_2
 10
94.4098
 20
74.0536
  0
VERTEX
  8
LAYER_2
 10
94.407
 20
74.0511
  0
VERTEX
  8
LAYER_2
 10
94.407
 20
74.024
  0
VERTEX
  8
LAYER_2
 10
94.4098
 20
74.0211
  0
VERTEX
  8
LAYER_2
 10
94.4098
 20
74.0158
  0
VERTEX
  8
LAYER_2
 10
94.4127
 20
74.013
  0
VERTEX
  8
LAYER_2
 10
94.4127
 20
74.0102
  0
VERTEX
  8
LAYER_2
 10
94.4183
 20
74.0049
  0
VERTEX
  8
LAYER_2
 10
94.4208
 20
74.0049
  0
VERTEX
  8
LAYER_2
 10
94.4208
 20
74.0021
  0
VERTEX
  8
LAYER_2
 10
94.4349
 20
74.0021
  0
VERTEX
  8
LAYER_2
 10
94.4374
 20
74.0049
  0
VERTEX
  8
LAYER_2
 10
94.4402
 20
74.0049
  0
VERTEX
  8
LAYER_2
 10
94.443
 20
74.0074
  0
VERTEX
  8
LAYER_2
 10
94.443
 20
74.0102
  0
VERTEX
  8
LAYER_2
 10
94.4458
 20
74.0102
  0
VERTEX
  8
LAYER_2
 10
94.4483
 20
74.013
  0
VERTEX
  8
LAYER_2
 10
94.4483
 20
74.0158
  0
VERTEX
  8
LAYER_2
 10
94.4511
 20
74.0183
  0
VERTEX
  8
LAYER_2
 10
94.4511
 20
74.0211
  0
VERTEX
  8
LAYER_2
 10
94.4539
 20
74.024
  0
VERTEX
  8
LAYER_2
 10
94.4539
 20
74.0321
  0
VERTEX
  8
LAYER_2
 10
94.4568
 20
74.0345
  0
VERTEX
  8
LAYER_2
 10
94.4568
 20
74.0649
  0
VERTEX
  8
LAYER_2
 10
94.4539
 20
74.0674
  0
VERTEX
  8
LAYER_2
 10
94.4539
 20
74.073
  0
VERTEX
  8
LAYER_2
 10
94.4511
 20
74.0755
  0
VERTEX
  8
LAYER_2
 10
94.4511
 20
74.0783
  0
VERTEX
  8
LAYER_2
 10
94.4483
 20
74.0811
  0
VERTEX
  8
LAYER_2
 10
94.4458
 20
74.0811
  0
VERTEX
  8
LAYER_2
 10
94.4458
 20
74.0839
  0
VERTEX
  8
LAYER_2
 10
94.443
 20
74.0839
  0
VERTEX
  8
LAYER_2
 10
94.443
 20
74.0864
  0
SEQEND
  0
POLYLINE
  8
LAYER_2
 40
0.1199
 41
0.1199
 62
253
 66
1
 10
0
 20
0
 30
0
  0
VERTEX
  8
LAYER_2
 10
93.8006
 20
73.0711
  0
VERTEX
  8
LAYER_2
 10
93.8585
 20
73.4768
  0
VERTEX
  8
LAYER_2
 10
98.7825
 20
80.4174
  0
SEQEND
  0
POLYLINE
  8
LAYER_2
 40
0.1199
 41
0.1199
 62
253
 66
1
 10
0
 20
0
 30
0
  0
VERTEX
  8
LAYER_2
 10
93.8528
 20
73.0496
  0
VERTEX
  8
LAYER_2
 10
93.8006
 20
73.0711
  0
SEQEND
  0
POLYLINE
  8
LAYER_2
 40
0.1199
 41
0.1199
 62
253
 66
1
 10
0
 20
0
 30
0
  0
VERTEX
  8
LAYER_2
 10
93.8528
 20
73.0496
  0
VERTEX
  8
LAYER_2
 10
93.9135
 20
73.4578
  0
VERTEX
  8
LAYER_2
 10
93.8585
 20
73.4768
  0
SEQEND
  0
POLYLINE
  8
LAYER_2
 40
0.1199
 41
0.1199
 62
253
 66
1
 10
0
 20
0
 30
0
  0
VERTEX
  8
LAYER_2
 10
98.7825
 20
80.4174
  0
VERTEX
  8
LAYER_2
 10
98.8295
 20
80.4011
  0
SEQEND
  0
POLYLINE
  8
LAYER_2
 40
0.1199
 41
0.1199
 62
253
 66
1
 10
0
 20
0
 30
0
  0
VERTEX
  8
LAYER_2
 10
98.5592
 20
79.7425
  0
VERTEX
  8
LAYER_2
 10
94.3379
 20
73.7382
  0
SEQEND
  0
POLYLINE
  8
LAYER_2
 40
0.1199
 41
0.1199
 62
253
 66
1
 10
0
 20
0
 30
0
  0
VERTEX
  8
LAYER_2
 10
98.8295
 20
80.4011
  0
VERTEX
  8
LAYER_2
 10
93.9135
 20
73.4578
  0
SEQEND
  0
POLYLINE
  8
LAYER_2
 40
0.1199
 41
0.1199
 62
253
 66
1
 10
0
 20
0
 30
0
  0
VERTEX
  8
LAYER_2
 10
96.2408
 20
72.5296
  0
VERTEX
  8
LAYER_2
 10
95.6837
 20
72.7501
  0
SEQEND
  0
POLYLINE
  8
LAYER_2
 40
0.1199
 41
0.1199
 62
253
 66
1
 10
0
 20
0
 30
0
  0
VERTEX
  8
LAYER_2
 10
96.2408
 20
72.5296
  0
VERTEX
  8
LAYER_2
 10
100.9055
 20
79.7178
  0
VERTEX
  8
LAYER_2
 10
100.4092
 20
79.8811
  0
SEQEND
  0
POLYLINE
  8
LAYER_2
 40
0.1199
 41
0.1199
 62
253
 66
1
 10
0
 20
0
 30
0
  0
VERTEX
  8
LAYER_2
 10
95.6093
 20
72.3444
  0
VERTEX
  8
LAYER_2
 10
96.1607
 20
72.1214
  0
SEQEND
  0
POLYLINE
  8
LAYER_2
 40
0.1199
 41
0.1199
 62
253
 66
1
 10
0
 20
0
 30
0
  0
VERTEX
  8
LAYER_2
 10
96.2408
 20
72.5296
  0
VERTEX
  8
LAYER_2
 10
96.1607
 20
72.1214
  0
VERTEX
  8
LAYER_2
 10
100.8036
 20
79.3206
  0
SEQEND
  0
POLYLINE
  8
LAYER_2
 40
0.1199
 41
0.1199
 62
253
 66
1
 10
0
 20
0
 30
0
  0
VERTEX
  8
LAYER_2
 10
100.8036
 20
79.3206
  0
VERTEX
  8
LAYER_2
 10
100.9055
 20
79.7178
  0
SEQEND
  0
POLYLINE
  8
LAYER_2
 40
0.1199
 41
0.1199
 62
253
 66
1
 10
0
 20
0
 30
0
  0
VERTEX
  8
LAYER_2
 10
100.2331
 20
79.612
  0
VERTEX
  8
LAYER_2
 10
98.6449
 20
80.1397
  0
VERTEX
  8
LAYER_2
 10
98.5592
 20
79.7425
  0
VERTEX
  8
LAYER_2
 10
99.9986
 20
79.2606
  0
SEQEND
  0
POLYLINE
  8
LAYER_2
 40
0.1199
 41
0.1199
 62
253
 66
1
 10
0
 20
0
 30
0
  0
VERTEX
  8
LAYER_2
 10
98.8295
 20
80.4011
  0
VERTEX
  8
LAYER_2
 10
100.4092
 20
79.8811
  0
SEQEND
  0
POLYLINE
  8
LAYER_2
 40
0.1199
 41
0.1199
 62
253
 66
1
 10
0
 20
0
 30
0
  0
VERTEX
  8
LAYER_2
 10
95.6093
 20
72.3444
  0
VERTEX
  8
LAYER_2
 10
93.8528
 20
73.0496
  0
SEQEND
  0
POLYLINE
  8
LAYER_2
 40
0.1199
 41
0.1199
 62
253
 66
1
 10
0
 20
0
 30
0
  0
VERTEX
  8
LAYER_2
 10
95.6837
 20
72.7501
  0
VERTEX
  8
LAYER_2
 10
93.9135
 20
73.4578
  0
SEQEND
  0
POLYLINE
  8
LAYER_2
 40
0.1199
 41
0.1199
 62
253
 66
1
 10
0
 20
0
 30
0
  0
VERTEX
  8
LAYER_2
 10
94.1618
 20
73.8088
  0
VERTEX
  8
LAYER_2
 10
95.9236
 20
73.112
  0
SEQEND
  0
POLYLINE
  8
LAYER_2
 40
0.1199
 41
0.1199
 62
253
 66
1
 10
0
 20
0
 30
0
  0
VERTEX
  8
LAYER_2
 10
95.9236
 20
73.112
  0
VERTEX
  8
LAYER_2
 10
100.2331
 20
79.612
  0
SEQEND
  0
ENDBLK
  0
BLOCK
  8
LAYER_2
  2
AIGNBL0201003A
 70
64
 10
0
 20
0
 30
0
  3
AIGNBL0201003A
  0
POLYLINE
  8
LAYER_2
 40
0.1094
 41
0.1094
 66
1
 10
0
 20
0
 30
0
  0
VERTEX
  8
LAYER_2
 10
98.4226
 20
80.597
  0
SEQEND
  0
POLYLINE
  8
LAYER_2
 40
0.1094
 41
0.1094
 66
1
 10
0
 20
0
 30
0
  0
VERTEX
  8
LAYER_2
 10
95.866
 20
81.4077
  0
SEQEND
  0
ENDBLK
  0
BLOCK
  8
LAYER_2
  2
AIGNBL0201003B
 70
64
 10
0
 20
0
 30
0
  3
AIGNBL0201003B
  0
POLYLINE
  8
LAYER_2
 40
0.1094
 41
0.1094
 66
1
 10
0
 20
0
 30
0
  0
VERTEX
  8
LAYER_2
 10
93.4886
 20
73.4527
  0
SEQEND
  0
POLYLINE
  8
LAYER_2
 40
0.1094
 41
0.1094
 66
1
 10
0
 20
0
 30
0
  0
VERTEX
  8
LAYER_2
 10
90.932
 20
74.2634
  0
SEQEND
  0
ENDBLK
  0
BLOCK
  8
LAYER_2
  2
AIGNBL0201003C
 70
64
 10
0
 20
0
 30
0
  3
AIGNBL0201003C
  0
POLYLINE
  8
LAYER_2
 40
0.1094
 41
0.1094
 66
1
 10
0
 20
0
 30
0
  0
VERTEX
  8
LAYER_2
 10
72.5325
 20
81.8469
  0
SEQEND
  0
POLYLINE
  8
LAYER_2
 40
0.1094
 41
0.1094
 66
1
 10
0
 20
0
 30
0
  0
VERTEX
  8
LAYER_2
 10
71.5056
 20
92.1752
  0
SEQEND
  0
ENDBLK
  0
BLOCK
  8
LAYER_2
  2
AIGNBL0201003D
 70
64
 10
0
 20
0
 30
0
  3
AIGNBL0201003D
  0
POLYLINE
  8
LAYER_2
 40
0.1094
 41
0.1094
 66
1
 10
0
 20
0
 30
0
  0
VERTEX
  8
LAYER_2
 10
78.9634
 20
86.3456
  0
SEQEND
  0
POLYLINE
  8
LAYER_2
 40
0.1094
 41
0.1094
 66
1
 10
0
 20
0
 30
0
  0
VERTEX
  8
LAYER_2
 10
78.9504
 20
89.3555
  0
SEQEND
  0
ENDBLK
  0
BLOCK
  8
LAYER_2
  2
AIGNBL0201003E
 70
64
 10
0
 20
0
 30
0
  3
AIGNBL0201003E
  0
POLYLINE
  8
LAYER_2
 40
0.1094
 41
0.1094
 66
1
 10
0
 20
0
 30
0
  0
VERTEX
  8
LAYER_2
 10
90.3233
 20
76.8727
  0
SEQEND
  0
POLYLINE
  8
LAYER_2
 40
0.1094
 41
0.1094
 66
1
 10
0
 20
0
 30
0
  0
VERTEX
  8
LAYER_2
 10
91.1788
 20
85.2685
  0
SEQEND
  0
ENDBLK
  0
BLOCK
  8
LAYER_2
  2
AIGNBL0201003F
 70
64
 10
0
 20
0
 30
0
  3
AIGNBL0201003F
  0
POLYLINE
  8
LAYER_2
 40
0.1094
 41
0.1094
 66
1
 10
0
 20
0
 30
0
  0
VERTEX
  8
LAYER_2
 10
95.4052
 20
82.1319
  0
SEQEND
  0
POLYLINE
  8
LAYER_2
 40
0.1094
 41
0.1094
 66
1
 10
0
 20
0
 30
0
  0
VERTEX
  8
LAYER_2
 10
96.6593
 20
92.2386
  0
SEQEND
  0
ENDBLK
  0
BLOCK
  8
LAYER_2
  2
AIGNBL02010040
 70
64
 10
0
 20
0
 30
0
  3
AIGNBL02010040
  0
POLYLINE
  8
LAYER_2
 40
0.05
 41
0.05
 62
255
 66
1
 10
0
 20
0
 30
0
  0
VERTEX
  8
LAYER_2
 10
71.1602
 20
93.078
  0
VERTEX
  8
LAYER_2
 10
71.1655
 20
93.0642
  0
VERTEX
  8
LAYER_2
 10
71.1813
 20
93.0459
  0
VERTEX
  8
LAYER_2
 10
71.2053
 20
93.0335
  0
VERTEX
  8
LAYER_2
 10
73.1103
 20
92.3774
  0
VERTEX
  8
LAYER_2
 10
73.225
 20
92.3372
  0
VERTEX
  8
LAYER_2
 10
73.8014
 20
91.5794
  0
VERTEX
  8
LAYER_2
 10
91.2805
 20
85.785
  0
VERTEX
  8
LAYER_2
 10
96.1192
 20
92.0638
  0
VERTEX
  8
LAYER_2
 10
96.1559
 20
92.3343
  0
VERTEX
  8
LAYER_2
 10
96.2039
 20
92.3922
  0
VERTEX
  8
LAYER_2
 10
97.131
 20
93.6269
  0
VERTEX
  8
LAYER_2
 10
97.252
 20
93.7941
  0
VERTEX
  8
LAYER_2
 10
97.2576
 20
93.8054
  0
VERTEX
  8
LAYER_2
 10
97.2601
 20
93.8167
  0
VERTEX
  8
LAYER_2
 10
97.2488
 20
93.9839
  0
VERTEX
  8
LAYER_2
 10
97.2477
 20
93.9945
  0
VERTEX
  8
LAYER_2
 10
97.2421
 20
94.0083
  0
VERTEX
  8
LAYER_2
 10
97.2336
 20
94.0178
  0
VERTEX
  8
LAYER_2
 10
97.2248
 20
94.0308
  0
VERTEX
  8
LAYER_2
 10
97.2163
 20
94.0407
  0
VERTEX
  8
LAYER_2
 10
97.2043
 20
94.0499
  0
VERTEX
  8
LAYER_2
 10
97.1895
 20
94.0552
  0
VERTEX
  8
LAYER_2
 10
97.1779
 20
94.0608
  0
VERTEX
  8
LAYER_2
 10
97.12
 20
94.0746
  0
VERTEX
  8
LAYER_2
 10
77.8919
 20
99.5772
  0
VERTEX
  8
LAYER_2
 10
77.8806
 20
99.5793
  0
VERTEX
  8
LAYER_2
 10
77.863
 20
99.5769
  0
VERTEX
  8
LAYER_2
 10
77.8563
 20
99.5726
  0
VERTEX
  8
LAYER_2
 10
71.26
 20
93.4336
  0
VERTEX
  8
LAYER_2
 10
71.1263
 20
93.3105
  0
VERTEX
  8
LAYER_2
 10
71.1196
 20
93.3062
  0
VERTEX
  8
LAYER_2
 10
71.1062
 20
93.2434
  0
VERTEX
  8
LAYER_2
 10
71.1316
 20
93.1595
  0
VERTEX
  8
LAYER_2
 10
71.1602
 20
93.078
  0
SEQEND
  0
POLYLINE
  8
LAYER_2
 40
0.1411
 41
0.1411
 66
1
 10
0
 20
0
 30
0
  0
VERTEX
  8
LAYER_2
 10
71.1602
 20
93.078
  0
VERTEX
  8
LAYER_2
 10
71.1655
 20
93.0642
  0
VERTEX
  8
LAYER_2
 10
71.1813
 20
93.0459
  0
VERTEX
  8
LAYER_2
 10
71.2053
 20
93.0335
  0
VERTEX
  8
LAYER_2
 10
73.1103
 20
92.3774
  0
VERTEX
  8
LAYER_2
 10
73.225
 20
92.3372
  0
VERTEX
  8
LAYER_2
 10
73.8014
 20
91.5794
  0
VERTEX
  8
LAYER_2
 10
91.2805
 20
85.785
  0
VERTEX
  8
LAYER_2
 10
96.1192
 20
92.0638
  0
VERTEX
  8
LAYER_2
 10
96.1559
 20
92.3343
  0
VERTEX
  8
LAYER_2
 10
96.2039
 20
92.3922
  0
VERTEX
  8
LAYER_2
 10
97.131
 20
93.6269
  0
VERTEX
  8
LAYER_2
 10
97.252
 20
93.7941
  0
VERTEX
  8
LAYER_2
 10
97.2576
 20
93.8054
  0
VERTEX
  8
LAYER_2
 10
97.2601
 20
93.8167
  0
VERTEX
  8
LAYER_2
 10
97.2488
 20
93.9839
  0
VERTEX
  8
LAYER_2
 10
97.2477
 20
93.9945
  0
VERTEX
  8
LAYER_2
 10
97.2421
 20
94.0083
  0
VERTEX
  8
LAYER_2
 10
97.2336
 20
94.0178
  0
VERTEX
  8
LAYER_2
 10
97.2248
 20
94.0308
  0
VERTEX
  8
LAYER_2
 10
97.2163
 20
94.0407
  0
VERTEX
  8
LAYER_2
 10
97.2043
 20
94.0499
  0
VERTEX
  8
LAYER_2
 10
97.1895
 20
94.0552
  0
VERTEX
  8
LAYER_2
 10
97.1779
 20
94.0608
  0
VERTEX
  8
LAYER_2
 10
97.12
 20
94.0746
  0
VERTEX
  8
LAYER_2
 10
77.8919
 20
99.5772
  0
VERTEX
  8
LAYER_2
 10
77.8806
 20
99.5793
  0
VERTEX
  8
LAYER_2
 10
77.863
 20
99.5769
  0
VERTEX
  8
LAYER_2
 10
77.8563
 20
99.5726
  0
VERTEX
  8
LAYER_2
 10
71.26
 20
93.4336
  0
VERTEX
  8
LAYER_2
 10
71.1263
 20
93.3105
  0
VERTEX
  8
LAYER_2
 10
71.1196
 20
93.3062
  0
VERTEX
  8
LAYER_2
 10
71.1062
 20
93.2434
  0
VERTEX
  8
LAYER_2
 10
71.1316
 20
93.1595
  0
VERTEX
  8
LAYER_2
 10
71.1602
 20
93.078
  0
SEQEND
  0
INSERT
  8
LAYER_2
  2
AIGNBL02020041
 10
0
 20
0
 30
0
  0
INSERT
  8
LAYER_2
  2
AIGNBL02020042
 10
0
 20
0
 30
0
  0
ENDBLK
  0
BLOCK
  8
LAYER_2
  2
AIGNBL02010043
 70
64
 10
0
 20
0
 30
0
  3
AIGNBL02010043
  0
POLYLINE
  8
LAYER_2
 40
0.7056
 41
0.7056
 66
1
 10
0
 20
0
 30
0
  0
VERTEX
  8
LAYER_2
 10
35.2239
 20
163.1836
  0
SEQEND
  0
ENDBLK
  0
BLOCK
  8
LAYER_2
  2
AIGNBL02010044
 70
64
 10
0
 20
0
 30
0
  3
AIGNBL02010044
  0
POLYLINE
  8
LAYER_2
 40
0.7056
 41
0.7056
 66
1
 10
0
 20
0
 30
0
  0
VERTEX
  8
LAYER_2
 10
35.2239
 20
149.1836
  0
SEQEND
  0
ENDBLK
  0
BLOCK
  8
LAYER_2
  2
AIGNBL02010045
 70
64
 10
0
 20
0
 30
0
  3
AIGNBL02010045
  0
POLYLINE
  8
LAYER_2
 40
0.7056
 41
0.7056
 66
1
 10
0
 20
0
 30
0
  0
VERTEX
  8
LAYER_2
 10
71.162
 20
188.926
  0
SEQEND
  0
ENDBLK
  0
BLOCK
  8
LAYER_2
  2
AIGNBL02010046
 70
64
 10
0
 20
0
 30
0
  3
AIGNBL02010046
  0
POLYLINE
  8
LAYER_2
 40
0.7056
 41
0.7056
 66
1
 10
0
 20
0
 30
0
  0
VERTEX
  8
LAYER_2
 10
162.162
 20
188.926
  0
SEQEND
  0
ENDBLK
  0
BLOCK
  8
LAYER_2
  2
AIGNBL02010047
 70
64
 10
0
 20
0
 30
0
  3
AIGNBL02010047
  0
POLYLINE
  8
LAYER_2
 40
0.7056
 41
0.7056
 66
1
 10
0
 20
0
 30
0
  0
VERTEX
  8
LAYER_2
 10
53.5018
 20
128.6882
  0
SEQEND
  0
ENDBLK
  0
BLOCK
  8
LAYER_2
  2
AIGNBL02010048
 70
64
 10
0
 20
0
 30
0
  3
AIGNBL02010048
  0
POLYLINE
  8
LAYER_2
 40
0.7056
 41
0.7056
 66
1
 10
0
 20
0
 30
0
  0
VERTEX
  8
LAYER_2
 10
53.5018
 20
124.6882
  0
SEQEND
  0
ENDBLK
  0
ENDSEC
  0
SECTION
  2
ENTITIES
  0
TEXT
  8
LAYER_2
 10
-26.2556
 20
43.1712
 11
-26.2556
 21
43.1712
 40
3.2995
 41
0.5
  1
仕様
  0
POLYLINE
  8
LAYER_2
 40
0.3528
 41
0.3528
 66
1
 10
0
 20
0
 30
0
  0
VERTEX
  8
LAYER_2
 10
250.6748
 20
51.9507
  0
VERTEX
  8
LAYER_2
 10
-29.3178
 20
51.9507
  0
SEQEND
  0
INSERT
  8
LAYER_2
  2
AIGNBL02010002
 10
0
 20
0
 30
0
  0
POLYLINE
  8
LAYER_2
 40
0.3528
 41
0.3528
 66
1
 10
0
 20
0
 30
0
  0
VERTEX
  8
LAYER_2
 10
-29.3178
 20
229.3369
  0
VERTEX
  8
LAYER_2
 10
-29.3178
 20
34.3283
  0
VERTEX
  8
LAYER_2
 10
250.6748
 20
34.3283
  0
VERTEX
  8
LAYER_2
 10
250.6748
 20
229.3369
  0
VERTEX
  8
LAYER_2
 10
-29.3178
 20
229.3369
  0
SEQEND
  0
POLYLINE
  8
LAYER_2
 40
0.3528
 41
0.3528
 66
1
 10
0
 20
0
 30
0
  0
VERTEX
  8
LAYER_2
 10
250.6748
 20
60.4597
  0
VERTEX
  8
LAYER_2
 10
-29.3178
 20
60.4597
  0
SEQEND
  0
POLYLINE
  8
LAYER_2
 40
0.3528
 41
0.3528
 66
1
 10
0
 20
0
 30
0
  0
VERTEX
  8
LAYER_2
 10
250.6748
 20
43.4416
  0
VERTEX
  8
LAYER_2
 10
143.5341
 20
43.4416
  0
SEQEND
  0
TEXT
  8
LAYER_2
 10
188.1725
 20
45.7175
 11
188.1725
 21
45.7175
 40
3.7615
 41
0.5
  1
-
  0
TEXT
  8
LAYER_2
 10
182.8808
 20
49.4743
 11
182.8808
 21
49.4743
 40
2.1997
 41
0.5
  1
縮尺
  0
POLYLINE
  8
LAYER_2
 40
0.3528
 41
0.3528
 66
1
 10
0
 20
0
 30
0
  0
VERTEX
  8
LAYER_2
 10
181.3526
 20
43.4416
  0
VERTEX
  8
LAYER_2
 10
181.3526
 20
51.9507
  0
SEQEND
  0
TEXT
  8
LAYER_2
 10
144.2327
 20
57.9834
 11
144.2327
 21
57.9834
 40
2.1997
 41
0.5
  1
品番
  0
TEXT
  8
LAYER_2
 10
-28.1609
 20
57.9834
 11
-28.1609
 21
57.9834
 40
2.1997
 41
0.5
  1
品名
  0
TEXT
  8
LAYER_2
 10
144.2327
 20
49.4743
 11
144.2327
 21
49.4743
 40
2.1997
 41
0.5
  1
重量
  0
TEXT
  8
LAYER_2
 10
150.2547
 20
54.1514
 11
150.2547
 21
54.1514
 40
5.9385
 41
0.5
  1
CIE-ERPLST/MB
  0
TEXT
  8
LAYER_2
 10
149.5454
 20
45.7175
 11
149.5454
 21
45.7175
 40
3.7615
 41
0.5
  1
0.5kg
  0
POLYLINE
  8
LAYER_2
 40
0.3528
 41
0.3528
 66
1
 10
0
 20
0
 30
0
  0
VERTEX
  8
LAYER_2
 10
143.5341
 20
34.9539
  0
VERTEX
  8
LAYER_2
 10
143.5341
 20
60.4597
  0
SEQEND
  0
TEXT
  8
LAYER_2
 10
-15.2849
 20
54.891
 11
-15.2849
 21
54.891
 40
3.6373
 41
0.5
  1
エラ洗面器用タオルレール
  0
INSERT
  8
LAYER_2
  2
AIGNBL02010003
 10
0
 20
0
 30
0
  0
TEXT
  8
LAYER_2
 10
-15.6835
 20
45.3736
 11
-15.6835
 21
45.3736
 40
3.5541
 41
0.5
  1
●取り付けボルト同梱●スチール塗装●CIE-ERST60・CIE-ERST80共通
  0
TEXT
  8
LAYER_2
 10
-15.6835
 20
40.6235
 11
-15.6835
 21
40.6235
 40
3.1177
 41
0.5
  1
●左右勝手仕様共通
  0
TEXT
  8
LAYER_2
 10
237.263
 20
63.2582
 11
237.263
 21
63.2582
 40
2.9618
 41
0.5
  1
単位：mm
  0
TEXT
  8
LAYER_2
 10
176.0254
 20
39.5359
 11
176.0254
 21
39.5359
 40
3.3853
 41
0.5
  1
●TEL 0120-65-1232●FAX 06-6532-1580
  0
TEXT
  8
LAYER_2
 10
176.0254
 20
36.0212
 11
176.0254
 21
36.0212
 40
3.3853
 41
0.5
  1
hits@hiratatile.co.jp
  0
INSERT
  8
LAYER_2
  2
AIGNBL02010006
 10
0
 20
0
 30
0
  0
POLYLINE
  8
LAYER_2
 40
0.05
 41
0.05
 62
255
 66
1
 10
0
 20
0
 30
0
 70
1
  0
VERTEX
  8
LAYER_2
 10
46.5785
 20
101.704
  0
VERTEX
  8
LAYER_2
 10
46.5697
 20
101.7082
  0
VERTEX
  8
LAYER_2
 10
46.563
 20
101.7107
  0
VERTEX
  8
LAYER_2
 10
46.5545
 20
101.7082
  0
VERTEX
  8
LAYER_2
 10
46.5499
 20
101.7061
  0
VERTEX
  8
LAYER_2
 10
39.4524
 20
96.7965
  0
VERTEX
  8
LAYER_2
 10
39.4386
 20
96.6762
 42
0.09642932616
  0
VERTEX
  8
LAYER_2
 10
39.4894
 20
96.5354
  0
VERTEX
  8
LAYER_2
 10
41.3538
 20
95.4728
  0
VERTEX
  8
LAYER_2
 10
41.3796
 20
95.4594
  0
VERTEX
  8
LAYER_2
 10
41.7151
 20
94.8918
  0
VERTEX
  8
LAYER_2
 10
51.7615
 20
89.072
  0
VERTEX
  8
LAYER_2
 10
57.322
 20
94.3937
  0
VERTEX
  8
LAYER_2
 10
57.3922
 20
94.6304
  0
VERTEX
  8
LAYER_2
 10
57.4455
 20
94.6819
  0
VERTEX
  8
LAYER_2
 10
58.5609
 20
95.7462
  0
VERTEX
  8
LAYER_2
 10
58.5655
 20
95.7505
  0
VERTEX
  8
LAYER_2
 10
58.5676
 20
95.7551
  0
VERTEX
  8
LAYER_2
 10
58.5698
 20
95.7614
  0
VERTEX
  8
LAYER_2
 10
58.5722
 20
95.7932
  0
VERTEX
  8
LAYER_2
 10
58.5853
 20
95.9173
  0
VERTEX
  8
LAYER_2
 10
58.5853
 20
95.9283
 42
0.1331402699
  0
VERTEX
  8
LAYER_2
 10
58.5436
 20
95.9896
  0
VERTEX
  8
LAYER_2
 10
58.5369
 20
95.9935
  0
VERTEX
  8
LAYER_2
 10
58.5324
 20
95.996
  0
SEQEND
  0
POLYLINE
  8
LAYER_2
 40
0.1094
 41
0.1094
 66
1
 10
0
 20
0
 30
0
 70
1
  0
VERTEX
  8
LAYER_2
 10
46.5785
 20
101.704
  0
VERTEX
  8
LAYER_2
 10
46.5697
 20
101.7082
  0
VERTEX
  8
LAYER_2
 10
46.563
 20
101.7107
  0
VERTEX
  8
LAYER_2
 10
46.5545
 20
101.7082
  0
VERTEX
  8
LAYER_2
 10
46.5499
 20
101.7061
  0
VERTEX
  8
LAYER_2
 10
39.4524
 20
96.7965
  0
VERTEX
  8
LAYER_2
 10
39.4386
 20
96.6762
 42
0.09642932616
  0
VERTEX
  8
LAYER_2
 10
39.4894
 20
96.5354
  0
VERTEX
  8
LAYER_2
 10
41.3538
 20
95.4728
  0
VERTEX
  8
LAYER_2
 10
41.3796
 20
95.4594
  0
VERTEX
  8
LAYER_2
 10
41.7151
 20
94.8918
  0
VERTEX
  8
LAYER_2
 10
51.7615
 20
89.072
  0
VERTEX
  8
LAYER_2
 10
57.322
 20
94.3937
  0
VERTEX
  8
LAYER_2
 10
57.3922
 20
94.6304
  0
VERTEX
  8
LAYER_2
 10
57.4455
 20
94.6819
  0
VERTEX
  8
LAYER_2
 10
58.5609
 20
95.7462
  0
VERTEX
  8
LAYER_2
 10
58.5655
 20
95.7505
  0
VERTEX
  8
LAYER_2
 10
58.5676
 20
95.7551
  0
VERTEX
  8
LAYER_2
 10
58.5698
 20
95.7614
  0
VERTEX
  8
LAYER_2
 10
58.5722
 20
95.7932
  0
VERTEX
  8
LAYER_2
 10
58.5853
 20
95.9173
  0
VERTEX
  8
LAYER_2
 10
58.5853
 20
95.9283
 42
0.1331402699
  0
VERTEX
  8
LAYER_2
 10
58.5436
 20
95.9896
  0
VERTEX
  8
LAYER_2
 10
58.5369
 20
95.9935
  0
VERTEX
  8
LAYER_2
 10
58.5324
 20
95.996
  0
SEQEND
  0
INSERT
  8
LAYER_2
  2
AIGNBL02010028
 10
0
 20
0
 30
0
  0
POLYLINE
  8
LAYER_2
 40
0.05
 41
0.05
 62
254
 66
1
 10
0
 20
0
 30
0
 70
1
  0
VERTEX
  8
LAYER_2
 10
44.0959
 20
83.6044
  0
VERTEX
  8
LAYER_2
 10
41.3601
 20
81.0168
  0
VERTEX
  8
LAYER_2
 10
50.926
 20
74.1927
  0
VERTEX
  8
LAYER_2
 10
51.3313
 20
78.7171
  0
SEQEND
  0
POLYLINE
  8
LAYER_2
 40
0.1094
 41
0.1094
 66
1
 10
0
 20
0
 30
0
 70
1
  0
VERTEX
  8
LAYER_2
 10
44.0959
 20
83.6044
  0
VERTEX
  8
LAYER_2
 10
41.3601
 20
81.0168
  0
VERTEX
  8
LAYER_2
 10
50.926
 20
74.1927
  0
VERTEX
  8
LAYER_2
 10
51.3313
 20
78.7171
  0
SEQEND
  0
POLYLINE
  8
LAYER_2
 40
0.05
 41
0.05
 62
254
 66
1
 10
0
 20
0
 30
0
 70
1
  0
VERTEX
  8
LAYER_2
 10
45.3687
 20
84.9087
  0
VERTEX
  8
LAYER_2
 10
44.5576
 20
84.1238
  0
VERTEX
  8
LAYER_2
 10
51.5627
 20
79.4209
  0
VERTEX
  8
LAYER_2
 10
52.4387
 20
80.5473
  0
SEQEND
  0
POLYLINE
  8
LAYER_2
 40
0.1094
 41
0.1094
 66
1
 10
0
 20
0
 30
0
 70
1
  0
VERTEX
  8
LAYER_2
 10
45.3687
 20
84.9087
  0
VERTEX
  8
LAYER_2
 10
44.5576
 20
84.1238
  0
VERTEX
  8
LAYER_2
 10
51.5627
 20
79.4209
  0
VERTEX
  8
LAYER_2
 10
52.4387
 20
80.5473
  0
SEQEND
  0
POLYLINE
  8
LAYER_2
 40
0.05
 41
0.05
 62
254
 66
1
 10
0
 20
0
 30
0
 70
1
  0
VERTEX
  8
LAYER_2
 10
51.9556
 20
78.4989
  0
VERTEX
  8
LAYER_2
 10
53.1413
 20
80.1524
  0
VERTEX
  8
LAYER_2
 10
54.5587
 20
79.2708
  0
VERTEX
  8
LAYER_2
 10
51.6677
 20
75.0766
  0
SEQEND
  0
POLYLINE
  8
LAYER_2
 40
0.1094
 41
0.1094
 66
1
 10
0
 20
0
 30
0
 70
1
  0
VERTEX
  8
LAYER_2
 10
51.9556
 20
78.4989
  0
VERTEX
  8
LAYER_2
 10
53.1413
 20
80.1524
  0
VERTEX
  8
LAYER_2
 10
54.5587
 20
79.2708
  0
VERTEX
  8
LAYER_2
 10
51.6677
 20
75.0766
  0
SEQEND
  0
INSERT
  8
LAYER_2
  2
AIGNBL02010029
 10
0
 20
0
 30
0
  0
INSERT
  8
LAYER_2
  2
AIGNBL0201002A
 10
0
 20
0
 30
0
  0
INSERT
  8
LAYER_2
  2
AIGNBL0201002B
 10
0
 20
0
 30
0
  0
POLYLINE
  8
LAYER_2
  6
AIGENLINE001
 40
0.1094
 41
0.1094
 66
1
 10
0
 20
0
 30
0
 70
128
  0
VERTEX
  8
LAYER_2
 10
52.5532
 20
78.3425
  0
VERTEX
  8
LAYER_2
 10
54.1724
 20
77.2669
  0
SEQEND
  0
INSERT
  8
LAYER_2
  2
AIGNBL0201002C
 10
0
 20
0
 30
0
  0
POLYLINE
  8
LAYER_2
  6
AIGENLINE001
 40
0.1094
 41
0.1094
 66
1
 10
0
 20
0
 30
0
 70
128
  0
VERTEX
  8
LAYER_2
 10
44.4319
 20
91.921
  0
VERTEX
  8
LAYER_2
 10
45.1498
 20
91.5672
  0
SEQEND
  0
INSERT
  8
LAYER_2
  2
AIGNBL0201002D
 10
0
 20
0
 30
0
  0
POLYLINE
  8
LAYER_2
  6
AIGENLINE002
 40
0.1094
 41
0.1094
 66
1
 10
0
 20
0
 30
0
 70
128
  0
VERTEX
  8
LAYER_2
 10
38.4573
 20
87.5155
  0
VERTEX
  8
LAYER_2
 10
39.3004
 20
87.0259
  0
SEQEND
  0
INSERT
  8
LAYER_2
  2
AIGNBL0201002E
 10
0
 20
0
 30
0
  0
POLYLINE
  8
LAYER_2
  6
AIGENLINE003
 40
0.1094
 41
0.1094
 66
1
 10
0
 20
0
 30
0
 70
128
  0
VERTEX
  8
LAYER_2
 10
57.0998
 20
84.5723
  0
VERTEX
  8
LAYER_2
 10
58.3955
 20
83.8343
  0
SEQEND
  0
INSERT
  8
LAYER_2
  2
AIGNBL0201002F
 10
0
 20
0
 30
0
  0
POLYLINE
  8
LAYER_2
  6
AIGENLINE004
 40
0.1094
 41
0.1094
 66
1
 10
0
 20
0
 30
0
 70
128
  0
VERTEX
  8
LAYER_2
 10
39.5747
 20
95.3056
  0
VERTEX
  8
LAYER_2
 10
40.2055
 20
87.8892
  0
SEQEND
  0
INSERT
  8
LAYER_2
  2
AIGNBL02010030
 10
0
 20
0
 30
0
  0
POLYLINE
  8
LAYER_2
  6
AIGENLINE005
 40
0.1094
 41
0.1094
 66
1
 10
0
 20
0
 30
0
 70
128
  0
VERTEX
  8
LAYER_2
 10
52.4601
 20
88.6501
  0
VERTEX
  8
LAYER_2
 10
51.6466
 20
79.9986
  0
SEQEND
  0
INSERT
  8
LAYER_2
  2
AIGNBL02010031
 10
0
 20
0
 30
0
  0
POLYLINE
  8
LAYER_2
  6
AIGENLINE006
 40
0.1094
 41
0.1094
 66
1
 10
0
 20
0
 30
0
 70
128
  0
VERTEX
  8
LAYER_2
 10
57.7501
 20
94.2397
  0
VERTEX
  8
LAYER_2
 10
56.4077
 20
85.9441
  0
SEQEND
  0
INSERT
  8
LAYER_2
  2
AIGNBL02010032
 10
0
 20
0
 30
0
  0
POLYLINE
  8
LAYER_2
  6
AIGENLINE007
 40
0.1094
 41
0.1094
 66
1
 10
0
 20
0
 30
0
 70
128
  0
VERTEX
  8
LAYER_2
 10
45.3949
 20
91.9935
  0
VERTEX
  8
LAYER_2
 10
45.4079
 20
91.7106
  0
SEQEND
  0
INSERT
  8
LAYER_2
  2
AIGNBL02010033
 10
0
 20
0
 30
0
  0
INSERT
  8
LAYER_2
  2
AIGNBL02010034
 10
0
 20
0
 30
0
  0
INSERT
  8
LAYER_2
  2
AIGNBL02010035
 10
0
 20
0
 30
0
  0
POLYLINE
  8
LAYER_2
 40
0.05
 41
0.05
 62
254
 66
1
 10
0
 20
0
 30
0
 70
1
  0
VERTEX
  8
LAYER_2
 10
78.6358
 20
78.2776
  0
VERTEX
  8
LAYER_2
 10
74.365
 20
74.13
  0
VERTEX
  8
LAYER_2
 10
89.1073
 20
68.3811
  0
VERTEX
  8
LAYER_2
 10
89.9694
 20
74.4997
  0
SEQEND
  0
POLYLINE
  8
LAYER_2
 40
0.05
 41
0.05
 62
254
 66
1
 10
0
 20
0
 30
0
 70
1
  0
VERTEX
  8
LAYER_2
 10
79.5391
 20
79.0579
  0
VERTEX
  8
LAYER_2
 10
79.2929
 20
78.8935
  0
VERTEX
  8
LAYER_2
 10
90.2569
 20
75.2016
  0
VERTEX
  8
LAYER_2
 10
90.4622
 20
75.6084
  0
SEQEND
  0
POLYLINE
  8
LAYER_2
 40
0.05
 41
0.05
 62
254
 66
1
 10
0
 20
0
 30
0
 70
1
  0
VERTEX
  8
LAYER_2
 10
90.7087
 20
74.1712
  0
VERTEX
  8
LAYER_2
 10
91.4682
 20
75.202
  0
VERTEX
  8
LAYER_2
 10
93.3778
 20
74.6866
  0
VERTEX
  8
LAYER_2
 10
89.9696
 20
69.4694
  0
SEQEND
  0
INSERT
  8
LAYER_2
  2
AIGNBL02010036
 10
0
 20
0
 30
0
  0
POLYLINE
  8
LAYER_2
 40
0.1199
 41
0.1199
 62
253
 66
1
 10
0
 20
0
 30
0
  0
VERTEX
  8
LAYER_2
 10
74.2473
 20
86.4743
  0
VERTEX
  8
LAYER_2
 10
68.7094
 20
82.7934
  0
SEQEND
  0
POLYLINE
  8
LAYER_2
  6
AIGENLINE008
 40
0.1094
 41
0.1094
 66
1
 10
0
 20
0
 30
0
 70
128
  0
VERTEX
  8
LAYER_2
 10
76.6787
 20
86.4674
  0
VERTEX
  8
LAYER_2
 10
78.4835
 20
86.0747
  0
SEQEND
  0
INSERT
  8
LAYER_2
  2
AIGNBL02010037
 10
0
 20
0
 30
0
  0
POLYLINE
  8
LAYER_2
  6
AIGENLINE009
 40
0.1094
 41
0.1094
 66
1
 10
0
 20
0
 30
0
 70
128
  0
VERTEX
  8
LAYER_2
 10
70.3484
 20
81.5982
  0
VERTEX
  8
LAYER_2
 10
72.0234
 20
80.9342
  0
SEQEND
  0
INSERT
  8
LAYER_2
  2
AIGNBL02010038
 10
0
 20
0
 30
0
  0
INSERT
  8
LAYER_2
  2
AIGNBL02010039
 10
0
 20
0
 30
0
  0
POLYLINE
  8
LAYER_2
  6
AIGENLINE010
 40
0.1094
 41
0.1094
 66
1
 10
0
 20
0
 30
0
 70
128
  0
VERTEX
  8
LAYER_2
 10
96.0791
 20
81.3402
  0
VERTEX
  8
LAYER_2
 10
98.316
 20
80.6307
  0
SEQEND
  0
INSERT
  8
LAYER_2
  2
AIGNBL0201003A
 10
0
 20
0
 30
0
  0
POLYLINE
  8
LAYER_2
  6
AIGENLINE010
 40
0.1094
 41
0.1094
 66
1
 10
0
 20
0
 30
0
 70
128
  0
VERTEX
  8
LAYER_2
 10
91.145
 20
74.1959
  0
VERTEX
  8
LAYER_2
 10
93.382
 20
73.4864
  0
SEQEND
  0
INSERT
  8
LAYER_2
  2
AIGNBL0201003B
 10
0
 20
0
 30
0
  0
POLYLINE
  8
LAYER_2
  6
AIGENLINE011
 40
0.1094
 41
0.1094
 66
1
 10
0
 20
0
 30
0
 70
128
  0
VERTEX
  8
LAYER_2
 10
71.5275
 20
91.9555
  0
VERTEX
  8
LAYER_2
 10
72.5216
 20
81.9567
  0
SEQEND
  0
INSERT
  8
LAYER_2
  2
AIGNBL0201003C
 10
0
 20
0
 30
0
  0
POLYLINE
  8
LAYER_2
  6
AIGENLINE012
 40
0.1094
 41
0.1094
 66
1
 10
0
 20
0
 30
0
 70
128
  0
VERTEX
  8
LAYER_2
 10
78.9513
 20
89.1405
  0
VERTEX
  8
LAYER_2
 10
78.963
 20
86.4531
  0
SEQEND
  0
INSERT
  8
LAYER_2
  2
AIGNBL0201003D
 10
0
 20
0
 30
0
  0
POLYLINE
  8
LAYER_2
  6
AIGENLINE004
 40
0.1094
 41
0.1094
 66
1
 10
0
 20
0
 30
0
 70
128
  0
VERTEX
  8
LAYER_2
 10
91.1563
 20
85.0476
  0
VERTEX
  8
LAYER_2
 10
90.3346
 20
76.9831
  0
SEQEND
  0
INSERT
  8
LAYER_2
  2
AIGNBL0201003E
 10
0
 20
0
 30
0
  0
POLYLINE
  8
LAYER_2
  6
AIGENLINE013
 40
0.1094
 41
0.1094
 66
1
 10
0
 20
0
 30
0
 70
128
  0
VERTEX
  8
LAYER_2
 10
96.6321
 20
92.0189
  0
VERTEX
  8
LAYER_2
 10
95.4189
 20
82.2416
  0
SEQEND
  0
INSERT
  8
LAYER_2
  2
AIGNBL0201003F
 10
0
 20
0
 30
0
  0
INSERT
  8
LAYER_2
  2
AIGNBL02010040
 10
0
 20
0
 30
0
  0
POLYLINE
  8
LAYER_2
 40
0.1764
 41
0.1764
 66
1
 10
0
 20
0
 30
0
 70
1
  0
VERTEX
  8
LAYER_2
 10
71.162
 20
128.6883
  0
VERTEX
  8
LAYER_2
 10
71.162
 20
124.6883
  0
VERTEX
  8
LAYER_2
 10
162.162
 20
124.7283
  0
VERTEX
  8
LAYER_2
 10
162.162
 20
128.7283
  0
SEQEND
  0
POLYLINE
  8
LAYER_2
 40
0.1764
 41
0.1764
 66
1
 10
0
 20
0
 30
0
 70
1
  0
VERTEX
  8
LAYER_2
 10
50.4422
 20
149.1837
  0
VERTEX
  8
LAYER_2
 10
50.4422
 20
163.1836
  0
VERTEX
  8
LAYER_2
 10
54.4422
 20
163.1836
  0
VERTEX
  8
LAYER_2
 10
54.4422
 20
149.1836
  0
SEQEND
  0
INSERT
  8
LAYER_2
  2
AIGNBL02010043
 10
0
 20
0
 30
0
  0
INSERT
  8
LAYER_2
  2
AIGNBL02010044
 10
0
 20
0
 30
0
  0
POLYLINE
  8
LAYER_2
 40
0.0353
 41
0.0353
 66
1
 10
0
 20
0
 30
0
  0
VERTEX
  8
LAYER_2
 10
42.8577
 20
149.1836
  0
VERTEX
  8
LAYER_2
 10
35.2239
 20
149.1836
  0
VERTEX
  8
LAYER_2
 10
35.2239
 20
163.1836
  0
VERTEX
  8
LAYER_2
 10
42.8577
 20
163.1836
  0
SEQEND
  0
INSERT
  8
LAYER_2
  2
AIGNBL02010045
 10
0
 20
0
 30
0
  0
POLYLINE
  8
LAYER_2
 40
0.0353
 41
0.0353
 66
1
 10
0
 20
0
 30
0
  0
VERTEX
  8
LAYER_2
 10
162.162
 20
181.2922
  0
VERTEX
  8
LAYER_2
 10
162.162
 20
188.926
  0
VERTEX
  8
LAYER_2
 10
71.162
 20
188.926
  0
VERTEX
  8
LAYER_2
 10
71.162
 20
181.2922
  0
SEQEND
  0
INSERT
  8
LAYER_2
  2
AIGNBL02010046
 10
0
 20
0
 30
0
  0
POLYLINE
  8
LAYER_2
 40
0.1764
 41
0.1764
 66
1
 10
0
 20
0
 30
0
  0
VERTEX
  8
LAYER_2
 10
162.162
 20
149.1836
  0
VERTEX
  8
LAYER_2
 10
71.162
 20
149.1836
  0
VERTEX
  8
LAYER_2
 10
71.162
 20
163.1804
  0
VERTEX
  8
LAYER_2
 10
162.162
 20
163.2204
  0
VERTEX
  8
LAYER_2
 10
162.162
 20
149.2236
  0
SEQEND
  0
POLYLINE
  8
LAYER_2
 40
0.1764
 41
0.1764
 66
1
 10
0
 20
0
 30
0
  0
VERTEX
  8
LAYER_2
 10
158.162
 20
149.7836
  0
VERTEX
  8
LAYER_2
 10
75.162
 20
149.7836
  0
VERTEX
  8
LAYER_2
 10
75.162
 20
159.1804
  0
VERTEX
  8
LAYER_2
 10
158.162
 20
159.2204
  0
VERTEX
  8
LAYER_2
 10
158.162
 20
149.8236
  0
SEQEND
  0
POLYLINE
  8
LAYER_2
 40
0.0353
 41
0.0353
 66
1
 10
0
 20
0
 30
0
  0
VERTEX
  8
LAYER_2
 10
61.1356
 20
124.6882
  0
VERTEX
  8
LAYER_2
 10
53.5018
 20
124.6882
  0
VERTEX
  8
LAYER_2
 10
53.5018
 20
128.6882
  0
VERTEX
  8
LAYER_2
 10
61.1356
 20
128.6882
  0
SEQEND
  0
INSERT
  8
LAYER_2
  2
AIGNBL02010047
 10
0
 20
0
 30
0
  0
INSERT
  8
LAYER_2
  2
AIGNBL02010048
 10
0
 20
0
 30
0
  0
TEXT
  8
LAYER_2
 10
51.9979
 20
123.4827
 11
51.9979
 21
123.4827
 40
6.5159
 41
0.5
 50
89.99999999
  1
20
  0
TEXT
  8
LAYER_2
 10
112.7561
 20
190.2152
 11
112.7561
 21
190.2152
 40
6.5159
 41
0.5
  1
455
  0
TEXT
  8
LAYER_2
 10
33.9963
 20
153.0347
 11
33.9963
 21
153.0347
 40
6.5159
 41
0.5
 50
89.99999999
  1
70
  0
POLYLINE
  8
LAYER_2
  6
AIGENLINE014
 40
0.1764
 41
0.1764
 62
160
 66
1
 10
0
 20
0
 30
0
 70
128
  0
VERTEX
  8
LAYER_2
 10
54.4422
 20
159.2836
  0
VERTEX
  8
LAYER_2
 10
54.4422
 20
163.1836
  0
SEQEND
  0
POLYLINE
  8
LAYER_2
  6
AIGENLINE014
 40
0.1764
 41
0.1764
 62
160
 66
1
 10
0
 20
0
 30
0
 70
128
  0
VERTEX
  8
LAYER_2
 10
50.4422
 20
163.1836
  0
VERTEX
  8
LAYER_2
 10
50.4422
 20
159.2836
  0
SEQEND
  0
ENDSEC
  0
EOF
