  0
SECTION
  2
HEADER
  9
$ACADVER
  1
AC1018
  9
$ACADMAINTVER
 70
     0
  9
$DWGCODEPAGE
  3
ANSI_932
  9
$INSBASE
 10
0.0
 20
0.0
 30
0.0
  9
$EXTMIN
 10
1.000000000000000E+20
 20
1.000000000000000E+20
 30
1.000000000000000E+20
  9
$EXTMAX
 10
-1.000000000000000E+20
 20
-1.000000000000000E+20
 30
-1.000000000000000E+20
  9
$LIMMIN
 10
0.0
 20
0.0
  9
$LIMMAX
 10
12.0
 20
9.0
  9
$ORTHOMODE
 70
     0
  9
$REGENMODE
 70
     1
  9
$FILLMODE
 70
     1
  9
$QTEXTMODE
 70
     0
  9
$MIRRTEXT
 70
     1
  9
$LTSCALE
 40
1.0
  9
$ATTMODE
 70
     1
  9
$TEXTSIZE
 40
0.2
  9
$TRACEWID
 40
0.05
  9
$TEXTSTYLE
  7
Standard
  9
$CLAYER
  8
0
  9
$CELTYPE
  6
ByLayer
  9
$CECOLOR
 62
   256
  9
$CELTSCALE
 40
1.0
  9
$DISPSILH
 70
     0
  9
$DIMSCALE
 40
1.0
  9
$DIMASZ
 40
0.18
  9
$DIMEXO
 40
0.0625
  9
$DIMDLI
 40
0.38
  9
$DIMRND
 40
0.0
  9
$DIMDLE
 40
0.0
  9
$DIMEXE
 40
0.18
  9
$DIMTP
 40
0.0
  9
$DIMTM
 40
0.0
  9
$DIMTXT
 40
0.18
  9
$DIMCEN
 40
0.09
  9
$DIMTSZ
 40
0.0
  9
$DIMTOL
 70
     0
  9
$DIMLIM
 70
     0
  9
$DIMTIH
 70
     1
  9
$DIMTOH
 70
     1
  9
$DIMSE1
 70
     0
  9
$DIMSE2
 70
     0
  9
$DIMTAD
 70
     0
  9
$DIMZIN
 70
     0
  9
$DIMBLK
  1

  9
$DIMASO
 70
     1
  9
$DIMSHO
 70
     1
  9
$DIMPOST
  1

  9
$DIMAPOST
  1

  9
$DIMALT
 70
     0
  9
$DIMALTD
 70
     2
  9
$DIMALTF
 40
25.4
  9
$DIMLFAC
 40
1.0
  9
$DIMTOFL
 70
     0
  9
$DIMTVP
 40
0.0
  9
$DIMTIX
 70
     0
  9
$DIMSOXD
 70
     0
  9
$DIMSAH
 70
     0
  9
$DIMBLK1
  1

  9
$DIMBLK2
  1

  9
$DIMSTYLE
  2
Standard
  9
$DIMCLRD
 70
     0
  9
$DIMCLRE
 70
     0
  9
$DIMCLRT
 70
     0
  9
$DIMTFAC
 40
1.0
  9
$DIMGAP
 40
0.09
  9
$DIMJUST
 70
     0
  9
$DIMSD1
 70
     0
  9
$DIMSD2
 70
     0
  9
$DIMTOLJ
 70
     1
  9
$DIMTZIN
 70
     0
  9
$DIMALTZ
 70
     0
  9
$DIMALTTZ
 70
     0
  9
$DIMUPT
 70
     0
  9
$DIMDEC
 70
     4
  9
$DIMTDEC
 70
     4
  9
$DIMALTU
 70
     2
  9
$DIMALTTD
 70
     2
  9
$DIMTXSTY
  7
Standard
  9
$DIMAUNIT
 70
     0
  9
$DIMADEC
 70
     0
  9
$DIMALTRND
 40
0.0
  9
$DIMAZIN
 70
     0
  9
$DIMDSEP
 70
    46
  9
$DIMATFIT
 70
     3
  9
$DIMFRAC
 70
     0
  9
$DIMLDRBLK
  1

  9
$DIMLUNIT
 70
     2
  9
$DIMLWD
 70
    -2
  9
$DIMLWE
 70
    -2
  9
$DIMTMOVE
 70
     0
  9
$LUNITS
 70
     2
  9
$LUPREC
 70
     4
  9
$SKETCHINC
 40
0.1
  9
$FILLETRAD
 40
0.5
  9
$AUNITS
 70
     0
  9
$AUPREC
 70
     0
  9
$MENU
  1
.
  9
$ELEVATION
 40
0.0
  9
$PELEVATION
 40
0.0
  9
$THICKNESS
 40
0.0
  9
$LIMCHECK
 70
     0
  9
$CHAMFERA
 40
0.5
  9
$CHAMFERB
 40
0.5
  9
$CHAMFERC
 40
1.0
  9
$CHAMFERD
 40
0.0
  9
$SKPOLY
 70
     0
  9
$TDCREATE
 40
2457770.636238426
  9
$TDUCREATE
 40
2457770.261238426
  9
$TDUPDATE
 40
2457770.636238438
  9
$TDUUPDATE
 40
2457770.261238438
  9
$TDINDWG
 40
0.0000000116
  9
$TDUSRTIMER
 40
0.0000000116
  9
$USRTIMER
 70
     1
  9
$ANGBASE
 50
0.0
  9
$ANGDIR
 70
     0
  9
$PDMODE
 70
     0
  9
$PDSIZE
 40
0.0
  9
$PLINEWID
 40
0.0
  9
$SPLFRAME
 70
     0
  9
$SPLINETYPE
 70
     6
  9
$SPLINESEGS
 70
     8
  9
$HANDSEED
  5
376
  9
$SURFTAB1
 70
     6
  9
$SURFTAB2
 70
     6
  9
$SURFTYPE
 70
     6
  9
$SURFU
 70
     6
  9
$SURFV
 70
     6
  9
$UCSBASE
  2

  9
$UCSNAME
  2

  9
$UCSORG
 10
0.0
 20
0.0
 30
0.0
  9
$UCSXDIR
 10
1.0
 20
0.0
 30
0.0
  9
$UCSYDIR
 10
0.0
 20
1.0
 30
0.0
  9
$UCSORTHOREF
  2

  9
$UCSORTHOVIEW
 70
     0
  9
$UCSORGTOP
 10
0.0
 20
0.0
 30
0.0
  9
$UCSORGBOTTOM
 10
0.0
 20
0.0
 30
0.0
  9
$UCSORGLEFT
 10
0.0
 20
0.0
 30
0.0
  9
$UCSORGRIGHT
 10
0.0
 20
0.0
 30
0.0
  9
$UCSORGFRONT
 10
0.0
 20
0.0
 30
0.0
  9
$UCSORGBACK
 10
0.0
 20
0.0
 30
0.0
  9
$PUCSBASE
  2

  9
$PUCSNAME
  2

  9
$PUCSORG
 10
0.0
 20
0.0
 30
0.0
  9
$PUCSXDIR
 10
1.0
 20
0.0
 30
0.0
  9
$PUCSYDIR
 10
0.0
 20
1.0
 30
0.0
  9
$PUCSORTHOREF
  2

  9
$PUCSORTHOVIEW
 70
     0
  9
$PUCSORGTOP
 10
0.0
 20
0.0
 30
0.0
  9
$PUCSORGBOTTOM
 10
0.0
 20
0.0
 30
0.0
  9
$PUCSORGLEFT
 10
0.0
 20
0.0
 30
0.0
  9
$PUCSORGRIGHT
 10
0.0
 20
0.0
 30
0.0
  9
$PUCSORGFRONT
 10
0.0
 20
0.0
 30
0.0
  9
$PUCSORGBACK
 10
0.0
 20
0.0
 30
0.0
  9
$USERI1
 70
     0
  9
$USERI2
 70
     0
  9
$USERI3
 70
     0
  9
$USERI4
 70
     0
  9
$USERI5
 70
     0
  9
$USERR1
 40
0.0
  9
$USERR2
 40
0.0
  9
$USERR3
 40
0.0
  9
$USERR4
 40
0.0
  9
$USERR5
 40
0.0
  9
$WORLDVIEW
 70
     1
  9
$SHADEDGE
 70
     3
  9
$SHADEDIF
 70
    70
  9
$TILEMODE
 70
     1
  9
$MAXACTVP
 70
    64
  9
$PINSBASE
 10
0.0
 20
0.0
 30
0.0
  9
$PLIMCHECK
 70
     0
  9
$PEXTMIN
 10
1.000000000000000E+20
 20
1.000000000000000E+20
 30
1.000000000000000E+20
  9
$PEXTMAX
 10
-1.000000000000000E+20
 20
-1.000000000000000E+20
 30
-1.000000000000000E+20
  9
$PLIMMIN
 10
0.0
 20
0.0
  9
$PLIMMAX
 10
12.0
 20
9.0
  9
$UNITMODE
 70
     0
  9
$VISRETAIN
 70
     1
  9
$PLINEGEN
 70
     0
  9
$PSLTSCALE
 70
     1
  9
$TREEDEPTH
 70
  3020
  9
$CMLSTYLE
  2
Standard
  9
$CMLJUST
 70
     0
  9
$CMLSCALE
 40
1.0
  9
$PROXYGRAPHICS
 70
     1
  9
$MEASUREMENT
 70
     0
  9
$CELWEIGHT
370
    -1
  9
$ENDCAPS
280
     0
  9
$JOINSTYLE
280
     0
  9
$LWDISPLAY
290
     1
  9
$INSUNITS
 70
     1
  9
$HYPERLINKBASE
  1

  9
$STYLESHEET
  1

  9
$XEDIT
290
     1
  9
$CEPSNTYPE
380
     0
  9
$PSTYLEMODE
290
     1
  9
$FINGERPRINTGUID
  2
{E53DF541-170F-1AD6-961B-900DFC78E74E}
  9
$VERSIONGUID
  2
{FAEB1C32-E019-11D5-929B-00C0DF256EC4}
  9
$EXTNAMES
290
     1
  9
$PSVPSCALE
 40
0.0
  9
$OLESTARTUP
290
     0
  9
$SORTENTS
280
   127
  9
$INDEXCTL
280
     0
  9
$HIDETEXT
280
     1
  9
$XCLIPFRAME
290
     0
  9
$HALOGAP
280
     0
  9
$OBSCOLOR
 70
   257
  9
$OBSLTYPE
280
     0
  9
$INTERSECTIONDISPLAY
280
     0
  9
$INTERSECTIONCOLOR
 70
   257
  9
$DIMASSOC
280
     2
  9
$PROJECTNAME
  1

  0
ENDSEC
  0
SECTION
  2
CLASSES
  0
CLASS
  1
ACDBDICTIONARYWDFLT
  2
AcDbDictionaryWithDefault
  3
ObjectDBX Classes
 90
        0
 91
        3
280
     0
281
     0
  0
CLASS
  1
VISUALSTYLE
  2
AcDbVisualStyle
  3
ObjectDBX Classes
 90
     4095
 91
        3
280
     0
281
     0
  0
ENDSEC
  0
SECTION
  2
TABLES
  0
TABLE
  2
VPORT
  5
8
330
0
100
AcDbSymbolTable
 70
     1
  0
VPORT
  5
29
330
8
100
AcDbSymbolTableRecord
100
AcDbViewportTableRecord
  2
*Active
 70
     0
 10
0.0
 20
0.0
 11
1.0
 21
1.0
 12
0.0
 22
0.0
 13
0.0
 23
0.0
 14
0.5
 24
0.5
 15
0.5
 25
0.5
 16
0.0
 26
0.0
 36
1.0
 17
110.9000352370319
 27
130.8998480575528
 37
0.0
 40
210.3527071956757
 41
1.413592843596152
 42
50.0
 43
0.0
 44
0.0
 50
0.0
 51
0.0
 71
     0
 72
   100
 73
     1
 74
     3
 75
     0
 76
     0
 77
     0
 78
     0
281
     0
 65
     1
110
0.0
120
0.0
130
0.0
111
1.0
121
0.0
131
0.0
112
0.0
122
1.0
132
0.0
 79
     0
146
0.0
  0
ENDTAB
  0
TABLE
  2
LTYPE
  5
5
330
0
100
AcDbSymbolTable
 70
    31
  0
LTYPE
  5
14
330
5
100
AcDbSymbolTableRecord
100
AcDbLinetypeTableRecord
  2
ByBlock
 70
     0
  3

 72
    65
 73
     0
 40
0.0
  0
LTYPE
  5
15
330
5
100
AcDbSymbolTableRecord
100
AcDbLinetypeTableRecord
  2
ByLayer
 70
     0
  3

 72
    65
 73
     0
 40
0.0
  0
LTYPE
  5
16
330
5
100
AcDbSymbolTableRecord
100
AcDbLinetypeTableRecord
  2
Continuous
 70
     0
  3
Solid line
 72
    65
 73
     0
 40
0.0
  0
LTYPE
  5
F4
330
5
100
AcDbSymbolTableRecord
100
AcDbLinetypeTableRecord
  2
AI-Linetype-1
 70
     0
  3
Adobe Illustrator Linetype No. 1
 72
    65
 73
     2
 40
0.9405056004027335
 49
0.4702528002013667
 74
     0
 49
-0.4702528002013667
 74
     0
  0
LTYPE
  5
FE
330
5
100
AcDbSymbolTableRecord
100
AcDbLinetypeTableRecord
  2
AI-Linetype-2
 70
     0
  3
Adobe Illustrator Linetype No. 2
 72
    65
 73
     2
 40
0.9405056004027335
 49
0.4702528002013667
 74
     0
 49
-0.4702528002013667
 74
     0
  0
LTYPE
  5
108
330
5
100
AcDbSymbolTableRecord
100
AcDbLinetypeTableRecord
  2
AI-Linetype-3
 70
     0
  3
Adobe Illustrator Linetype No. 3
 72
    65
 73
     2
 40
0.9405056004027335
 49
0.4702528002013667
 74
     0
 49
-0.4702528002013667
 74
     0
  0
LTYPE
  5
112
330
5
100
AcDbSymbolTableRecord
100
AcDbLinetypeTableRecord
  2
AI-Linetype-4
 70
     0
  3
Adobe Illustrator Linetype No. 4
 72
    65
 73
     2
 40
0.9405056004027335
 49
0.4702528002013667
 74
     0
 49
-0.4702528002013667
 74
     0
  0
LTYPE
  5
11C
330
5
100
AcDbSymbolTableRecord
100
AcDbLinetypeTableRecord
  2
AI-Linetype-5
 70
     0
  3
Adobe Illustrator Linetype No. 5
 72
    65
 73
     2
 40
0.9405056004027335
 49
0.4702528002013667
 74
     0
 49
-0.4702528002013667
 74
     0
  0
LTYPE
  5
11E
330
5
100
AcDbSymbolTableRecord
100
AcDbLinetypeTableRecord
  2
AI-Linetype-6
 70
     0
  3
Adobe Illustrator Linetype No. 6
 72
    65
 73
     2
 40
0.9405056004027335
 49
0.4702528002013667
 74
     0
 49
-0.4702528002013667
 74
     0
  0
LTYPE
  5
120
330
5
100
AcDbSymbolTableRecord
100
AcDbLinetypeTableRecord
  2
AI-Linetype-7
 70
     0
  3
Adobe Illustrator Linetype No. 7
 72
    65
 73
     2
 40
0.9405056004027335
 49
0.4702528002013667
 74
     0
 49
-0.4702528002013667
 74
     0
  0
LTYPE
  5
125
330
5
100
AcDbSymbolTableRecord
100
AcDbLinetypeTableRecord
  2
AI-Linetype-8
 70
     0
  3
Adobe Illustrator Linetype No. 8
 72
    65
 73
     2
 40
0.9405056004027335
 49
0.4702528002013667
 74
     0
 49
-0.4702528002013667
 74
     0
  0
LTYPE
  5
127
330
5
100
AcDbSymbolTableRecord
100
AcDbLinetypeTableRecord
  2
AI-Linetype-9
 70
     0
  3
Adobe Illustrator Linetype No. 9
 72
    65
 73
     2
 40
0.9405056004027335
 49
0.4702528002013667
 74
     0
 49
-0.4702528002013667
 74
     0
  0
LTYPE
  5
12C
330
5
100
AcDbSymbolTableRecord
100
AcDbLinetypeTableRecord
  2
AI-Linetype-10
 70
     0
  3
Adobe Illustrator Linetype No. 10
 72
    65
 73
     2
 40
0.9405056004027335
 49
0.4702528002013667
 74
     0
 49
-0.4702528002013667
 74
     0
  0
LTYPE
  5
131
330
5
100
AcDbSymbolTableRecord
100
AcDbLinetypeTableRecord
  2
AI-Linetype-11
 70
     0
  3
Adobe Illustrator Linetype No. 11
 72
    65
 73
     2
 40
0.9405056004027335
 49
0.4702528002013667
 74
     0
 49
-0.4702528002013667
 74
     0
  0
LTYPE
  5
136
330
5
100
AcDbSymbolTableRecord
100
AcDbLinetypeTableRecord
  2
AI-Linetype-12
 70
     0
  3
Adobe Illustrator Linetype No. 12
 72
    65
 73
     2
 40
0.9405056004027335
 49
0.4702528002013667
 74
     0
 49
-0.4702528002013667
 74
     0
  0
LTYPE
  5
13B
330
5
100
AcDbSymbolTableRecord
100
AcDbLinetypeTableRecord
  2
AI-Linetype-13
 70
     0
  3
Adobe Illustrator Linetype No. 13
 72
    65
 73
     2
 40
0.9405056004027335
 49
0.4702528002013667
 74
     0
 49
-0.4702528002013667
 74
     0
  0
LTYPE
  5
13D
330
5
100
AcDbSymbolTableRecord
100
AcDbLinetypeTableRecord
  2
AI-Linetype-14
 70
     0
  3
Adobe Illustrator Linetype No. 14
 72
    65
 73
     2
 40
0.9405056004027335
 49
0.4702528002013667
 74
     0
 49
-0.4702528002013667
 74
     0
  0
LTYPE
  5
13F
330
5
100
AcDbSymbolTableRecord
100
AcDbLinetypeTableRecord
  2
AI-Linetype-15
 70
     0
  3
Adobe Illustrator Linetype No. 15
 72
    65
 73
     2
 40
0.9405056004027335
 49
0.4702528002013667
 74
     0
 49
-0.4702528002013667
 74
     0
  0
LTYPE
  5
144
330
5
100
AcDbSymbolTableRecord
100
AcDbLinetypeTableRecord
  2
AI-Linetype-16
 70
     0
  3
Adobe Illustrator Linetype No. 16
 72
    65
 73
     2
 40
0.9405056004027335
 49
0.4702528002013667
 74
     0
 49
-0.4702528002013667
 74
     0
  0
LTYPE
  5
146
330
5
100
AcDbSymbolTableRecord
100
AcDbLinetypeTableRecord
  2
AI-Linetype-17
 70
     0
  3
Adobe Illustrator Linetype No. 17
 72
    65
 73
     2
 40
0.9405056004027335
 49
0.4702528002013667
 74
     0
 49
-0.4702528002013667
 74
     0
  0
LTYPE
  5
148
330
5
100
AcDbSymbolTableRecord
100
AcDbLinetypeTableRecord
  2
AI-Linetype-18
 70
     0
  3
Adobe Illustrator Linetype No. 18
 72
    65
 73
     2
 40
0.9405056004027335
 49
0.4702528002013667
 74
     0
 49
-0.4702528002013667
 74
     0
  0
LTYPE
  5
14A
330
5
100
AcDbSymbolTableRecord
100
AcDbLinetypeTableRecord
  2
AI-Linetype-19
 70
     0
  3
Adobe Illustrator Linetype No. 19
 72
    65
 73
     2
 40
0.9405056004027335
 49
0.4702528002013667
 74
     0
 49
-0.4702528002013667
 74
     0
  0
LTYPE
  5
14C
330
5
100
AcDbSymbolTableRecord
100
AcDbLinetypeTableRecord
  2
AI-Linetype-20
 70
     0
  3
Adobe Illustrator Linetype No. 20
 72
    65
 73
     2
 40
0.9405056004027335
 49
0.4702528002013667
 74
     0
 49
-0.4702528002013667
 74
     0
  0
LTYPE
  5
14E
330
5
100
AcDbSymbolTableRecord
100
AcDbLinetypeTableRecord
  2
AI-Linetype-21
 70
     0
  3
Adobe Illustrator Linetype No. 21
 72
    65
 73
     2
 40
0.9405056004027335
 49
0.4702528002013667
 74
     0
 49
-0.4702528002013667
 74
     0
  0
LTYPE
  5
150
330
5
100
AcDbSymbolTableRecord
100
AcDbLinetypeTableRecord
  2
AI-Linetype-22
 70
     0
  3
Adobe Illustrator Linetype No. 22
 72
    65
 73
     2
 40
0.9405056004027335
 49
0.4702528002013667
 74
     0
 49
-0.4702528002013667
 74
     0
  0
LTYPE
  5
155
330
5
100
AcDbSymbolTableRecord
100
AcDbLinetypeTableRecord
  2
AI-Linetype-23
 70
     0
  3
Adobe Illustrator Linetype No. 23
 72
    65
 73
     2
 40
0.9405056004027335
 49
0.4702528002013667
 74
     0
 49
-0.4702528002013667
 74
     0
  0
LTYPE
  5
15A
330
5
100
AcDbSymbolTableRecord
100
AcDbLinetypeTableRecord
  2
AI-Linetype-24
 70
     0
  3
Adobe Illustrator Linetype No. 24
 72
    65
 73
     2
 40
0.9405056004027335
 49
0.4702528002013667
 74
     0
 49
-0.4702528002013667
 74
     0
  0
LTYPE
  5
15F
330
5
100
AcDbSymbolTableRecord
100
AcDbLinetypeTableRecord
  2
AI-Linetype-25
 70
     0
  3
Adobe Illustrator Linetype No. 25
 72
    65
 73
     2
 40
0.9405056004027335
 49
0.4702528002013667
 74
     0
 49
-0.4702528002013667
 74
     0
  0
LTYPE
  5
164
330
5
100
AcDbSymbolTableRecord
100
AcDbLinetypeTableRecord
  2
AI-Linetype-26
 70
     0
  3
Adobe Illustrator Linetype No. 26
 72
    65
 73
     2
 40
0.9405056004027335
 49
0.4702528002013667
 74
     0
 49
-0.4702528002013667
 74
     0
  0
LTYPE
  5
166
330
5
100
AcDbSymbolTableRecord
100
AcDbLinetypeTableRecord
  2
AI-Linetype-27
 70
     0
  3
Adobe Illustrator Linetype No. 27
 72
    65
 73
     2
 40
0.9405056004027335
 49
0.4702528002013667
 74
     0
 49
-0.4702528002013667
 74
     0
  0
LTYPE
  5
168
330
5
100
AcDbSymbolTableRecord
100
AcDbLinetypeTableRecord
  2
AI-Linetype-28
 70
     0
  3
Adobe Illustrator Linetype No. 28
 72
    65
 73
     2
 40
0.9405056004027335
 49
0.4702528002013667
 74
     0
 49
-0.4702528002013667
 74
     0
  0
LTYPE
  5
2D9
330
5
100
AcDbSymbolTableRecord
100
AcDbLinetypeTableRecord
  2
AI-Linetype-29
 70
     0
  3
Adobe Illustrator Linetype No. 29
 72
    65
 73
     2
 40
0.9405056004027335
 49
0.4702528002013667
 74
     0
 49
-0.4702528002013667
 74
     0
  0
LTYPE
  5
2E1
330
5
100
AcDbSymbolTableRecord
100
AcDbLinetypeTableRecord
  2
AI-Linetype-30
 70
     0
  3
Adobe Illustrator Linetype No. 30
 72
    65
 73
     2
 40
0.9405056004027335
 49
0.4702528002013667
 74
     0
 49
-0.4702528002013667
 74
     0
  0
ENDTAB
  0
TABLE
  2
LAYER
  5
2
330
0
100
AcDbSymbolTable
 70
     2
  0
LAYER
  5
10
330
2
100
AcDbSymbolTableRecord
100
AcDbLayerTableRecord
  2
0
 70
     0
 62
     7
  6
Continuous
370
    -3
390
F
  0
LAYER
  5
3B
330
2
100
AcDbSymbolTableRecord
100
AcDbLayerTableRecord
  2
\U+30EC\U+30A4\U+30E4\U+30FC 1
 70
     0
 62
     7
  6
Continuous
370
    -3
390
F
  0
ENDTAB
  0
TABLE
  2
STYLE
  5
3
330
0
100
AcDbSymbolTable
 70
     1
  0
STYLE
  5
11
330
3
100
AcDbSymbolTableRecord
100
AcDbTextStyleTableRecord
  2
Standard
 70
     0
 40
0.0
 41
1.0
 50
0.0
 71
     0
 42
0.2
  3
txt
  4

  0
ENDTAB
  0
TABLE
  2
VIEW
  5
6
330
0
100
AcDbSymbolTable
 70
     0
  0
ENDTAB
  0
TABLE
  2
UCS
  5
7
330
0
100
AcDbSymbolTable
 70
     0
  0
ENDTAB
  0
TABLE
  2
APPID
  5
9
330
0
100
AcDbSymbolTable
 70
     1
  0
APPID
  5
12
330
9
100
AcDbSymbolTableRecord
100
AcDbRegAppTableRecord
  2
ACAD
 70
     0
  0
ENDTAB
  0
TABLE
  2
DIMSTYLE
  5
A
330
0
100
AcDbSymbolTable
 70
     1
100
AcDbDimStyleTable
  0
DIMSTYLE
105
27
330
A
100
AcDbSymbolTableRecord
100
AcDbDimStyleTableRecord
  2
Standard
 70
     0
340
11
  0
ENDTAB
  0
TABLE
  2
BLOCK_RECORD
  5
1
330
0
100
AcDbSymbolTable
 70
    14
  0
BLOCK_RECORD
  5
1F
330
1
100
AcDbSymbolTableRecord
100
AcDbBlockTableRecord
  2
*Model_Space
340
22
  0
BLOCK_RECORD
  5
1B
330
1
100
AcDbSymbolTableRecord
100
AcDbBlockTableRecord
  2
*Paper_Space
340
1E
  0
BLOCK_RECORD
  5
23
330
1
100
AcDbSymbolTableRecord
100
AcDbBlockTableRecord
  2
*Paper_Space0
340
26
  0
BLOCK_RECORD
  5
4E
330
1
100
AcDbSymbolTableRecord
100
AcDbBlockTableRecord
  2
block 2
340
0
102
{BLKREFS
331
4F
102
}
  0
BLOCK_RECORD
  5
5B
330
1
100
AcDbSymbolTableRecord
100
AcDbBlockTableRecord
  2
block 3
340
0
102
{BLKREFS
331
5C
102
}
  0
BLOCK_RECORD
  5
6A
330
1
100
AcDbSymbolTableRecord
100
AcDbBlockTableRecord
  2
block 4
340
0
102
{BLKREFS
331
6B
102
}
  0
BLOCK_RECORD
  5
76
330
1
100
AcDbSymbolTableRecord
100
AcDbBlockTableRecord
  2
block 5
340
0
102
{BLKREFS
331
77
102
}
  0
BLOCK_RECORD
  5
94
330
1
100
AcDbSymbolTableRecord
100
AcDbBlockTableRecord
  2
block 6
340
0
102
{BLKREFS
331
95
102
}
  0
BLOCK_RECORD
  5
AF
330
1
100
AcDbSymbolTableRecord
100
AcDbBlockTableRecord
  2
block 7
340
0
102
{BLKREFS
331
B0
102
}
  0
BLOCK_RECORD
  5
B5
330
1
100
AcDbSymbolTableRecord
100
AcDbBlockTableRecord
  2
block 8
340
0
102
{BLKREFS
331
B6
102
}
  0
BLOCK_RECORD
  5
BF
330
1
100
AcDbSymbolTableRecord
100
AcDbBlockTableRecord
  2
block 9
340
0
102
{BLKREFS
331
C0
102
}
  0
BLOCK_RECORD
  5
C7
330
1
100
AcDbSymbolTableRecord
100
AcDbBlockTableRecord
  2
block 10
340
0
102
{BLKREFS
331
C8
102
}
  0
BLOCK_RECORD
  5
D9
330
1
100
AcDbSymbolTableRecord
100
AcDbBlockTableRecord
  2
block 11
340
0
102
{BLKREFS
331
DA
102
}
  0
BLOCK_RECORD
  5
E2
330
1
100
AcDbSymbolTableRecord
100
AcDbBlockTableRecord
  2
block 12
340
0
102
{BLKREFS
331
E3
102
}
  0
BLOCK_RECORD
  5
354
330
1
100
AcDbSymbolTableRecord
100
AcDbBlockTableRecord
  2
block 13
340
0
102
{BLKREFS
331
355
102
}
  0
BLOCK_RECORD
  5
364
330
1
100
AcDbSymbolTableRecord
100
AcDbBlockTableRecord
  2
block 14
340
0
102
{BLKREFS
331
365
102
}
  0
ENDTAB
  0
ENDSEC
  0
SECTION
  2
BLOCKS
  0
BLOCK
  5
20
330
1F
100
AcDbEntity
  8
0
100
AcDbBlockBegin
  2
*Model_Space
 70
     0
 71
     0
 10
0.0
 20
0.0
 30
0.0
  3
*Model_Space
  1

  0
ENDBLK
  5
21
330
1F
100
AcDbEntity
  8
0
100
AcDbBlockEnd
  0
BLOCK
  5
1C
330
1B
100
AcDbEntity
 67
     1
  8
0
100
AcDbBlockBegin
  2
*Paper_Space
 70
     0
 71
     0
 10
0.0
 20
0.0
 30
0.0
  3
*Paper_Space
  1

  0
ENDBLK
  5
1D
330
1B
100
AcDbEntity
 67
     1
  8
0
100
AcDbBlockEnd
  0
BLOCK
  5
24
330
23
100
AcDbEntity
  8
0
100
AcDbBlockBegin
  2
*Paper_Space0
 70
     0
 71
     0
 10
0.0
 20
0.0
 30
0.0
  3
*Paper_Space0
  1

  0
ENDBLK
  5
25
330
23
100
AcDbEntity
  8
0
100
AcDbBlockEnd
  0
BLOCK
  5
50
330
4E
100
AcDbEntity
  8
0
100
AcDbBlockBegin
  2
block 2
 70
     0
 71
     0
 10
0.0
 20
0.0
 30
0.0
  3
block 2
  1

  0
SPLINE
  5
52
330
4E
100
AcDbEntity
  8
\U+30EC\U+30A4\U+30E4\U+30FC 1
 62
   179
420
  2432539
370
    25
100
AcDbSpline
210
0.0
220
0.0
230
1.0
 70
     8
 71
     3
 72
     8
 73
     4
 74
     0
 42
0.0000000001
 43
0.0000000001
 40
0.0
 40
0.0
 40
0.0
 40
0.0
 40
1.0
 40
1.0
 40
1.0
 40
1.0
 10
-1.291049533097377
 20
137.4034993146075
 30
0.0
 10
0.1260904947601441
 20
135.9779188028111
 30
0.0
 10
2.047592501658241
 20
135.176589592942
 30
0.0
 10
4.051260035879547
 20
135.176589592942
 30
0.0
  0
ENDBLK
  5
51
330
4E
100
AcDbEntity
  8
0
100
AcDbBlockEnd
  0
BLOCK
  5
5D
330
5B
100
AcDbEntity
  8
0
100
AcDbBlockBegin
  2
block 3
 70
     0
 71
     0
 10
0.0
 20
0.0
 30
0.0
  3
block 3
  1

  0
SPLINE
  5
5F
330
5B
100
AcDbEntity
  8
\U+30EC\U+30A4\U+30E4\U+30FC 1
 62
   179
420
  2432539
370
    25
100
AcDbSpline
210
0.0
220
0.0
230
1.0
 70
     8
 71
     3
 72
     8
 73
     4
 74
     0
 42
0.0000000001
 43
0.0000000001
 40
0.0
 40
0.0
 40
0.0
 40
0.0
 40
1.0
 40
1.0
 40
1.0
 40
1.0
 10
-3.220303004837286
 20
188.3774766239126
 30
0.0
 10
-3.420635307304563
 20
188.3774766239126
 30
0.0
 10
-3.503489853724822
 20
188.2935885488467
 30
0.0
 10
-3.503489853724822
 20
188.0927394820567
 30
0.0
  0
SPLINE
  5
60
330
5B
100
AcDbEntity
  8
\U+30EC\U+30A4\U+30E4\U+30FC 1
 62
   179
420
  2432539
370
    25
100
AcDbSpline
210
0.0
220
0.0
230
1.0
 70
     8
 71
     3
 72
     8
 73
     4
 74
     0
 42
0.0000000001
 43
0.0000000001
 40
0.0
 40
0.0
 40
0.0
 40
0.0
 40
1.0
 40
1.0
 40
1.0
 40
1.0
 10
91.49691295455634
 20
188.0927394820567
 30
0.0
 10
91.49691295455634
 20
188.2935885488467
 30
0.0
 10
91.41354164381329
 20
188.3774766239126
 30
0.0
 10
91.21355385089453
 20
188.3774766239126
 30
0.0
  0
SPLINE
  5
61
330
5B
100
AcDbEntity
  8
\U+30EC\U+30A4\U+30E4\U+30FC 1
 62
   179
420
  2432539
370
    25
100
AcDbSpline
210
0.0
220
0.0
230
1.0
 70
     8
 71
     3
 72
     8
 73
     4
 74
     0
 42
0.0000000001
 43
0.0000000001
 40
0.0
 40
0.0
 40
0.0
 40
0.0
 40
1.0
 40
1.0
 40
1.0
 40
1.0
 10
89.28412812438036
 20
137.4034993146075
 30
0.0
 10
90.70126815223789
 20
138.8283908073068
 30
0.0
 10
91.49691295455634
 20
140.7622951579518
 30
0.0
 10
91.49691295455634
 20
142.7776760168229
 30
0.0
  0
ENDBLK
  5
5E
330
5B
100
AcDbEntity
  8
0
100
AcDbBlockEnd
  0
BLOCK
  5
6C
330
6A
100
AcDbEntity
  8
0
100
AcDbBlockBegin
  2
block 4
 70
     0
 71
     0
 10
0.0
 20
0.0
 30
0.0
  3
block 4
  1

  0
SPLINE
  5
6E
330
6A
100
AcDbEntity
  8
\U+30EC\U+30A4\U+30E4\U+30FC 1
 62
   179
420
  2432539
370
    25
100
AcDbSpline
210
0.0
220
0.0
230
1.0
 70
     8
 71
     3
 72
     8
 73
     4
 74
     0
 42
0.0000000001
 43
0.0000000001
 40
0.0
 40
0.0
 40
0.0
 40
0.0
 40
1.0
 40
1.0
 40
1.0
 40
1.0
 10
86.24899900187525
 20
140.4556816597646
 30
0.0
 10
86.9238932074357
 20
141.1350544894558
 30
0.0
 10
87.20501299903208
 20
141.8171833955353
 30
0.0
 10
87.20501299903208
 20
142.7776760168229
 30
0.0
  0
SPLINE
  5
6F
330
6A
100
AcDbEntity
  8
\U+30EC\U+30A4\U+30E4\U+30FC 1
 62
   179
420
  2432539
370
    25
100
AcDbSpline
210
0.0
220
0.0
230
1.0
 70
     8
 71
     3
 72
     8
 73
     4
 74
     0
 42
0.0000000001
 43
0.0000000001
 40
0.0
 40
0.0
 40
0.0
 40
0.0
 40
1.0
 40
1.0
 40
1.0
 40
1.0
 10
87.19898408193289
 20
186.4869804763817
 30
0.0
 10
87.19846731761011
 20
187.0015054871038
 30
0.0
 10
86.7824720377662
 20
187.4185342955933
 30
0.0
 10
86.27053084865807
 20
187.4185342955933
 30
0.0
  0
SPLINE
  5
70
330
6A
100
AcDbEntity
  8
\U+30EC\U+30A4\U+30E4\U+30FC 1
 62
   179
420
  2432539
370
    25
100
AcDbSpline
210
0.0
220
0.0
230
1.0
 70
     8
 71
     3
 72
     8
 73
     4
 74
     0
 42
0.0000000001
 43
0.0000000001
 40
0.0
 40
0.0
 40
0.0
 40
0.0
 40
1.0
 40
1.0
 40
1.0
 40
1.0
 10
1.722892252173444
 20
187.4178452764963
 30
0.0
 10
1.21112331783958
 20
187.4185342955933
 30
0.0
 10
0.7947835284471375
 20
187.0015054871038
 30
0.0
 10
0.7947835284471375
 20
186.4869804763817
 30
0.0
  0
SPLINE
  5
71
330
6A
100
AcDbEntity
  8
\U+30EC\U+30A4\U+30E4\U+30FC 1
 62
   179
420
  2432539
370
    25
100
AcDbSpline
210
0.0
220
0.0
230
1.0
 70
     8
 71
     3
 72
     8
 73
     4
 74
     0
 42
0.0000000001
 43
0.0000000001
 40
0.0
 40
0.0
 40
0.0
 40
0.0
 40
1.0
 40
1.0
 40
1.0
 40
1.0
 10
0.7889268661222127
 20
142.7776760168229
 30
0.0
 10
0.7889268661222127
 20
141.8178724146323
 30
0.0
 10
1.069702148170075
 20
141.1350544894558
 30
0.0
 10
1.744596353730518
 20
140.4563706788616
 30
0.0
  0
ENDBLK
  5
6D
330
6A
100
AcDbEntity
  8
0
100
AcDbBlockEnd
  0
BLOCK
  5
78
330
76
100
AcDbEntity
  8
0
100
AcDbBlockBegin
  2
block 5
 70
     0
 71
     0
 10
0.0
 20
0.0
 30
0.0
  3
block 5
  1

  0
SPLINE
  5
7A
330
76
100
AcDbEntity
  8
\U+30EC\U+30A4\U+30E4\U+30FC 1
 62
   179
420
  2432539
370
    25
100
AcDbSpline
210
0.0
220
0.0
230
1.0
 70
     8
 71
     3
 72
     8
 73
     4
 74
     0
 42
0.0000000001
 43
0.0000000001
 40
0.0
 40
0.0
 40
0.0
 40
0.0
 40
1.0
 40
1.0
 40
1.0
 40
1.0
 10
83.9419908101777
 20
139.4953612932512
 30
0.0
 10
84.8962822595919
 20
139.4953612932512
 30
0.0
 10
85.57410479631481
 20
139.7776868682674
 30
0.0
 10
86.24899900187525
 20
140.4563706788616
 30
0.0
  0
SPLINE
  5
7B
330
76
100
AcDbEntity
  8
\U+30EC\U+30A4\U+30E4\U+30FC 1
 62
   179
420
  2432539
370
    25
100
AcDbSpline
210
0.0
220
0.0
230
1.0
 70
     8
 71
     3
 72
     8
 73
     4
 74
     0
 42
0.0000000001
 43
0.0000000001
 40
0.0
 40
0.0
 40
0.0
 40
0.0
 40
1.0
 40
1.0
 40
1.0
 40
1.0
 10
1.744596353730518
 20
140.4556816597646
 30
0.0
 10
2.419318304516698
 20
139.7776868682674
 30
0.0
 10
3.097829860336654
 20
139.4953612932512
 30
0.0
 10
4.051260035879547
 20
139.4953612932512
 30
0.0
  0
ENDBLK
  5
79
330
76
100
AcDbEntity
  8
0
100
AcDbBlockEnd
  0
BLOCK
  5
96
330
94
100
AcDbEntity
  8
0
100
AcDbBlockBegin
  2
block 6
 70
     0
 71
     0
 10
0.0
 20
0.0
 30
0.0
  3
block 6
  1

  0
SPLINE
  5
98
330
94
100
AcDbEntity
  8
\U+30EC\U+30A4\U+30E4\U+30FC 1
 62
   179
420
  2432539
370
    25
100
AcDbSpline
210
0.0
220
0.0
230
1.0
 70
     8
 71
     3
 72
     8
 73
     4
 74
     0
 42
0.0000000001
 43
0.0000000001
 40
0.0
 40
0.0
 40
0.0
 40
0.0
 40
1.0
 40
1.0
 40
1.0
 40
1.0
 10
71.28315970440144
 20
145.2863945491819
 30
0.0
 10
72.07294784439496
 20
145.9633558120335
 30
0.0
 10
72.40126544413927
 20
146.6447956990159
 30
0.0
 10
72.40126544413927
 20
147.6030490082381
 30
0.0
  0
SPLINE
  5
99
330
94
100
AcDbEntity
  8
\U+30EC\U+30A4\U+30E4\U+30FC 1
 62
   179
420
  2432539
370
    25
100
AcDbSpline
210
0.0
220
0.0
230
1.0
 70
     8
 71
     3
 72
     8
 73
     4
 74
     0
 42
0.0000000001
 43
0.0000000001
 40
0.0
 40
0.0
 40
0.0
 40
0.0
 40
1.0
 40
1.0
 40
1.0
 40
1.0
 10
72.40126544413927
 20
178.0037773535025
 30
0.0
 10
72.40126544413927
 20
178.2394218846936
 30
0.0
 10
72.17871227579214
 20
178.431313703222
 30
0.0
 10
71.90310463697215
 20
178.431313703222
 30
0.0
  0
ENDBLK
  5
97
330
94
100
AcDbEntity
  8
0
100
AcDbBlockEnd
  0
BLOCK
  5
B1
330
AF
100
AcDbEntity
  8
0
100
AcDbBlockBegin
  2
block 7
 70
     0
 71
     0
 10
0.0
 20
0.0
 30
0.0
  3
block 7
  1

  0
SPLINE
  5
B3
330
AF
100
AcDbEntity
  8
\U+30EC\U+30A4\U+30E4\U+30FC 1
 62
   179
420
  2432539
370
    25
100
AcDbSpline
210
0.0
220
0.0
230
1.0
 70
     8
 71
     3
 72
    14
 73
    10
 74
     0
 42
0.0000000001
 43
0.0000000001
 40
0.0
 40
0.0
 40
0.0
 40
0.0
 40
1.0
 40
1.0
 40
1.0
 40
2.0
 40
2.0
 40
2.0
 40
3.0
 40
3.0
 40
3.0
 40
3.0
 10
41.10308972496728
 20
80.40439451114891
 30
0.0
 10
41.10308972496728
 20
80.40439451114891
 30
0.0
 10
41.10308972496728
 20
79.19309893853506
 30
0.0
 10
41.10308972496728
 20
79.19309893853506
 30
0.0
 10
41.10308972496728
 20
79.14348956354746
 30
0.0
 10
41.15907252660259
 20
79.12212997153891
 30
0.0
 10
41.29291448620455
 20
79.12212997153891
 30
0.0
 10
41.29291448620455
 20
79.12212997153891
 30
0.0
 10
41.86273327946488
 20
79.12212997153891
 30
0.0
 10
41.86273327946488
 20
79.12212997153891
 30
0.0
  0
ENDBLK
  5
B2
330
AF
100
AcDbEntity
  8
0
100
AcDbBlockEnd
  0
BLOCK
  5
B7
330
B5
100
AcDbEntity
  8
0
100
AcDbBlockBegin
  2
block 8
 70
     0
 71
     0
 10
0.0
 20
0.0
 30
0.0
  3
block 8
  1

  0
SPLINE
  5
B9
330
B5
100
AcDbEntity
  8
\U+30EC\U+30A4\U+30E4\U+30FC 1
 62
   179
420
  2432539
370
    25
100
AcDbSpline
210
0.0
220
0.0
230
1.0
 70
     8
 71
     3
 72
    14
 73
    10
 74
     0
 42
0.0000000001
 43
0.0000000001
 40
0.0
 40
0.0
 40
0.0
 40
0.0
 40
1.0
 40
1.0
 40
1.0
 40
2.0
 40
2.0
 40
2.0
 40
3.0
 40
3.0
 40
3.0
 40
3.0
 10
46.88947210199292
 20
79.19309893853506
 30
0.0
 10
46.88947210199292
 20
79.14348956354746
 30
0.0
 10
46.8348673385517
 20
79.12212997153891
 30
0.0
 10
46.69999185030417
 20
79.12212997153891
 30
0.0
 10
46.8348673385517
 20
79.12212997153891
 30
0.0
 10
46.88947210199292
 20
79.14348956354746
 30
0.0
 10
46.88947210199292
 20
79.19309893853506
 30
0.0
 10
46.89240043315537
 20
79.60651039676505
 30
0.0
 10
46.89343396180095
 20
79.99098305291892
 30
0.0
 10
46.89636229296341
 20
80.40439451114891
 30
0.0
  0
SPLINE
  5
BA
330
B5
100
AcDbEntity
  8
\U+30EC\U+30A4\U+30E4\U+30FC 1
 62
   179
420
  2432539
370
    25
100
AcDbSpline
210
0.0
220
0.0
230
1.0
 70
    11
 71
     3
 72
    17
 73
    13
 74
     0
 42
0.0000000001
 43
0.0000000001
 40
0.0
 40
0.0
 40
0.0
 40
0.0
 40
1.0
 40
1.0
 40
1.0
 40
2.0
 40
2.0
 40
2.0
 40
3.0
 40
3.0
 40
3.0
 40
4.0
 40
4.0
 40
4.0
 40
4.0
 10
91.49656844500781
 20
90.70178491656067
 30
0.0
 10
91.49656844500781
 20
90.70178491656067
 30
0.0
 10
91.49656844500781
 20
80.71858721940369
 30
0.0
 10
91.49656844500781
 20
80.71858721940369
 30
0.0
 10
91.49656844500781
 20
80.4953450319595
 30
0.0
 10
91.42732202575428
 20
80.4030164729548
 30
0.0
 10
91.25937362084835
 20
80.4030164729548
 30
0.0
 10
91.42732202575428
 20
80.4030164729548
 30
0.0
 10
91.49656844500781
 20
80.4953450319595
 30
0.0
 10
91.49656844500781
 20
80.71858721940369
 30
0.0
 10
91.49656844500781
 20
80.71858721940369
 30
0.0
 10
91.49656844500781
 20
90.70178491656067
 30
0.0
 10
91.49656844500781
 20
90.70178491656067
 30
0.0
  0
ENDBLK
  5
B8
330
B5
100
AcDbEntity
  8
0
100
AcDbBlockEnd
  0
BLOCK
  5
C1
330
BF
100
AcDbEntity
  8
0
100
AcDbBlockBegin
  2
block 9
 70
     0
 71
     0
 10
0.0
 20
0.0
 30
0.0
  3
block 9
  1

  0
SPLINE
  5
C3
330
BF
100
AcDbEntity
  8
\U+30EC\U+30A4\U+30E4\U+30FC 1
 62
   179
420
  2432539
370
    25
100
AcDbSpline
210
0.0
220
0.0
230
1.0
 70
    11
 71
     3
 72
    17
 73
    13
 74
     0
 42
0.0000000001
 43
0.0000000001
 40
0.0
 40
0.0
 40
0.0
 40
0.0
 40
1.0
 40
1.0
 40
1.0
 40
2.0
 40
2.0
 40
2.0
 40
3.0
 40
3.0
 40
3.0
 40
4.0
 40
4.0
 40
4.0
 40
4.0
 10
-3.503489853724822
 20
80.71858721940369
 30
0.0
 10
-3.503489853724822
 20
80.4953450319595
 30
0.0
 10
-3.434071179697038
 20
80.40439451114891
 30
0.0
 10
-3.266122774791108
 20
80.40439451114891
 30
0.0
 10
-3.434071179697038
 20
80.40439451114891
 30
0.0
 10
-3.503489853724822
 20
80.4953450319595
 30
0.0
 10
-3.503489853724822
 20
80.71858721940369
 30
0.0
 10
-3.503489853724822
 20
80.71858721940369
 30
0.0
 10
-3.503489853724822
 20
90.70178491656067
 30
0.0
 10
-3.503489853724822
 20
90.70178491656067
 30
0.0
 10
-3.503489853724822
 20
90.70178491656067
 30
0.0
 10
-3.503489853724822
 20
80.71858721940369
 30
0.0
 10
-3.503489853724822
 20
80.71858721940369
 30
0.0
  0
SPLINE
  5
C4
330
BF
100
AcDbEntity
  8
\U+30EC\U+30A4\U+30E4\U+30FC 1
 62
   179
420
  2432539
370
    25
100
AcDbSpline
210
0.0
220
0.0
230
1.0
 70
    11
 71
     3
 72
    11
 73
     7
 74
     0
 42
0.0000000001
 43
0.0000000001
 40
0.0
 40
0.0
 40
0.0
 40
0.0
 40
1.0
 40
1.0
 40
1.0
 40
2.0
 40
2.0
 40
2.0
 40
2.0
 10
-3.147439235324252
 20
91.17445201713694
 30
0.0
 10
-3.344154187532017
 20
91.17445201713694
 30
0.0
 10
-3.503489853724822
 20
90.9629231543426
 30
0.0
 10
-3.503489853724822
 20
90.70178491656067
 30
0.0
 10
-3.503489853724822
 20
90.9629231543426
 30
0.0
 10
-3.344154187532017
 20
91.17445201713694
 30
0.0
 10
-3.147439235324252
 20
91.17445201713694
 30
0.0
  0
ENDBLK
  5
C2
330
BF
100
AcDbEntity
  8
0
100
AcDbBlockEnd
  0
BLOCK
  5
C9
330
C7
100
AcDbEntity
  8
0
100
AcDbBlockBegin
  2
block 10
 70
     0
 71
     0
 10
0.0
 20
0.0
 30
0.0
  3
block 10
  1

  0
SPLINE
  5
CB
330
C7
100
AcDbEntity
  8
\U+30EC\U+30A4\U+30E4\U+30FC 1
 62
   179
420
  2432539
370
    25
100
AcDbSpline
210
0.0
220
0.0
230
1.0
 70
     8
 71
     3
 72
    14
 73
    10
 74
     0
 42
0.0000000001
 43
0.0000000001
 40
0.0
 40
0.0
 40
0.0
 40
0.0
 40
1.0
 40
1.0
 40
1.0
 40
2.0
 40
2.0
 40
2.0
 40
3.0
 40
3.0
 40
3.0
 40
3.0
 10
91.14017331705871
 20
91.17445201713694
 30
0.0
 10
91.33792179791205
 20
91.17445201713694
 30
0.0
 10
91.49656844500781
 20
90.9629231543426
 30
0.0
 10
91.49656844500781
 20
90.70178491656067
 30
0.0
 10
91.49656844500781
 20
90.9629231543426
 30
0.0
 10
91.33792179791205
 20
91.17445201713694
 30
0.0
 10
91.14017331705871
 20
91.17445201713694
 30
0.0
 10
91.14017331705871
 20
91.17445201713694
 30
0.0
 10
-3.147439235324252
 20
91.17445201713694
 30
0.0
 10
-3.147439235324252
 20
91.17445201713694
 30
0.0
  0
SPLINE
  5
CC
330
C7
100
AcDbEntity
  8
\U+30EC\U+30A4\U+30E4\U+30FC 1
 62
   179
420
  2432539
370
    25
100
AcDbSpline
210
0.0
220
0.0
230
1.0
 70
     8
 71
     3
 72
     8
 73
     4
 74
     0
 42
0.0000000001
 43
0.0000000001
 40
0.0
 40
0.0
 40
0.0
 40
0.0
 40
1.0
 40
1.0
 40
1.0
 40
1.0
 10
185.0271212645071
 20
79.63062606516179
 30
0.0
 10
184.832128860042
 20
79.62442489328834
 30
0.0
 10
184.7525471543327
 20
79.5438096589335
 30
0.0
 10
184.7525471543327
 20
79.35364038814771
 30
0.0
  0
ENDBLK
  5
CA
330
C7
100
AcDbEntity
  8
0
100
AcDbBlockEnd
  0
BLOCK
  5
DB
330
D9
100
AcDbEntity
  8
0
100
AcDbBlockBegin
  2
block 11
 70
     0
 71
     0
 10
0.0
 20
0.0
 30
0.0
  3
block 11
  1

  0
SPLINE
  5
DD
330
D9
100
AcDbEntity
  8
\U+30EC\U+30A4\U+30E4\U+30FC 1
 62
   179
420
  2432539
370
    25
100
AcDbSpline
210
0.0
220
0.0
230
1.0
 70
     8
 71
     3
 72
     8
 73
     4
 74
     0
 42
0.0000000001
 43
0.0000000001
 40
0.0
 40
0.0
 40
0.0
 40
0.0
 40
1.0
 40
1.0
 40
1.0
 40
1.0
 10
185.5425075491005
 20
79.64785154258804
 30
0.0
 10
187.0817762119101
 20
79.68092445924644
 30
0.0
 10
188.7926106298852
 20
80.07917749734132
 30
0.0
 10
190.1837401868291
 20
80.6331488513695
 30
0.0
  0
ENDBLK
  5
DC
330
D9
100
AcDbEntity
  8
0
100
AcDbBlockEnd
  0
BLOCK
  5
E4
330
E2
100
AcDbEntity
  8
0
100
AcDbBlockBegin
  2
block 12
 70
     0
 71
     0
 10
0.0
 20
0.0
 30
0.0
  3
block 12
  1

  0
SPLINE
  5
E6
330
E2
100
AcDbEntity
  8
\U+30EC\U+30A4\U+30E4\U+30FC 1
 62
   179
420
  2432539
370
    25
100
AcDbSpline
210
0.0
220
0.0
230
1.0
 70
     8
 71
     3
 72
    26
 73
    22
 74
     0
 42
0.0000000001
 43
0.0000000001
 40
0.0
 40
0.0
 40
0.0
 40
0.0
 40
1.0
 40
1.0
 40
1.0
 40
2.0
 40
2.0
 40
2.0
 40
3.0
 40
3.0
 40
3.0
 40
4.0
 40
4.0
 40
4.0
 40
5.0
 40
5.0
 40
5.0
 40
6.0
 40
6.0
 40
6.0
 40
7.0
 40
7.0
 40
7.0
 40
7.0
 10
208.6515190450594
 20
80.6331488513695
 30
0.0
 10
208.6515190450594
 20
80.6331488513695
 30
0.0
 10
208.8375542012628
 20
80.6331488513695
 30
0.0
 10
208.8375542012628
 20
80.6331488513695
 30
0.0
 10
209.4094400518143
 20
80.6331488513695
 30
0.0
 10
209.405305937232
 20
80.69722762739514
 30
0.0
 10
209.405305937232
 20
81.22846135122067
 30
0.0
 10
209.405305937232
 20
81.22846135122067
 30
0.0
 10
209.405305937232
 20
82.37705618600296
 30
0.0
 10
209.405305937232
 20
82.37705618600296
 30
0.0
 10
209.405305937232
 20
82.37705618600296
 30
0.0
 10
209.405305937232
 20
83.98453773942053
 30
0.0
 10
209.405305937232
 20
83.98453773942053
 30
0.0
 10
209.405305937232
 20
83.98453773942053
 30
0.0
 10
209.405305937232
 20
90.89608830192876
 30
0.0
 10
209.405305937232
 20
90.89608830192876
 30
0.0
 10
209.405305937232
 20
91.2467990223272
 30
0.0
 10
208.6515190450594
 20
91.2013237619219
 30
0.0
 10
208.4069172656066
 20
91.17376299803989
 30
0.0
 10
208.3407714322898
 20
91.16618378797234
 30
0.0
 10
208.7803656162077
 20
91.17376299803989
 30
0.0
 10
208.7190429165703
 20
91.17376299803989
 30
0.0
  0
ENDBLK
  5
E5
330
E2
100
AcDbEntity
  8
0
100
AcDbBlockEnd
  0
BLOCK
  5
356
330
354
100
AcDbEntity
  8
0
100
AcDbBlockBegin
  2
block 13
 70
     0
 71
     0
 10
0.0
 20
0.0
 30
0.0
  3
block 13
  1

  0
SPLINE
  5
358
330
354
100
AcDbEntity
  8
\U+30EC\U+30A4\U+30E4\U+30FC 1
370
     0
100
AcDbSpline
210
0.0
220
0.0
230
1.0
 70
    11
 71
     3
 72
    17
 73
    13
 74
     0
 42
0.0000000001
 43
0.0000000001
 40
0.0
 40
0.0
 40
0.0
 40
0.0
 40
1.0
 40
1.0
 40
1.0
 40
2.0
 40
2.0
 40
2.0
 40
3.0
 40
3.0
 40
3.0
 40
4.0
 40
4.0
 40
4.0
 40
4.0
 10
36.29821505168934
 20
180.4015638112364
 30
0.0
 10
35.80212130181336
 20
180.4015638112364
 30
0.0
 10
35.39835611094208
 20
180.8053290021077
 30
0.0
 10
35.39835611094208
 20
181.3014227519837
 30
0.0
 10
35.39835611094208
 20
181.7982055209567
 30
0.0
 10
35.80212130181336
 20
182.201970711828
 30
0.0
 10
36.29821505168934
 20
182.201970711828
 30
0.0
 10
36.79499782066236
 20
182.201970711828
 30
0.0
 10
37.19876301153364
 20
181.7982055209567
 30
0.0
 10
37.19876301153364
 20
181.3014227519837
 30
0.0
 10
37.19876301153364
 20
180.8053290021077
 30
0.0
 10
36.79499782066236
 20
180.4015638112364
 30
0.0
 10
36.29821505168934
 20
180.4015638112364
 30
0.0
  0
SPLINE
  5
359
330
354
100
AcDbEntity
  8
\U+30EC\U+30A4\U+30E4\U+30FC 1
370
     0
100
AcDbSpline
210
0.0
220
0.0
230
1.0
 70
    11
 71
     3
 72
    17
 73
    13
 74
     0
 42
0.0000000001
 43
0.0000000001
 40
0.0
 40
0.0
 40
0.0
 40
0.0
 40
1.0
 40
1.0
 40
1.0
 40
2.0
 40
2.0
 40
2.0
 40
3.0
 40
3.0
 40
3.0
 40
4.0
 40
4.0
 40
4.0
 40
4.0
 10
36.29821505168934
 20
182.147538203161
 30
0.0
 10
35.83243814208356
 20
182.147538203161
 30
0.0
 10
35.45278861960902
 20
181.7678886806865
 30
0.0
 10
35.45278861960902
 20
181.3014227519837
 30
0.0
 10
35.45278861960902
 20
180.8353013328294
 30
0.0
 10
35.83243814208356
 20
180.4559963199034
 30
0.0
 10
36.29821505168934
 20
180.4559963199034
 30
0.0
 10
36.76468098039216
 20
180.4559963199034
 30
0.0
 10
37.14433050286669
 20
180.8353013328294
 30
0.0
 10
37.14433050286669
 20
181.3014227519837
 30
0.0
 10
37.14433050286669
 20
181.7678886806865
 30
0.0
 10
36.76468098039216
 20
182.147538203161
 30
0.0
 10
36.29821505168934
 20
182.147538203161
 30
0.0
  0
HATCH
  5
35A
330
354
100
AcDbEntity
  8
\U+30EC\U+30A4\U+30E4\U+30FC 1
 62
   179
420
  2432539
100
AcDbHatch
 10
0.0
 20
0.0
 30
0.0
210
0.0
220
0.0
230
1.0
  2
SOLID
 70
     1
 71
     0
 91
        2
 92
        1
 93
        1
 72
     4
 94
        3
 73
     0
 74
     1
 95
       17
 96
       13
 40
0.0
 40
0.0
 40
0.0
 40
0.0
 40
1.0
 40
1.0
 40
1.0
 40
2.0
 40
2.0
 40
2.0
 40
3.0
 40
3.0
 40
3.0
 40
4.0
 40
4.0
 40
4.0
 40
4.0
 10
36.29821505168934
 20
180.4015638112364
 10
35.80212130181336
 20
180.4015638112364
 10
35.39835611094208
 20
180.8053290021077
 10
35.39835611094208
 20
181.3014227519837
 10
35.39835611094208
 20
181.7982055209567
 10
35.80212130181336
 20
182.201970711828
 10
36.29821505168934
 20
182.201970711828
 10
36.79499782066236
 20
182.201970711828
 10
37.19876301153364
 20
181.7982055209567
 10
37.19876301153364
 20
181.3014227519837
 10
37.19876301153364
 20
180.8053290021077
 10
36.79499782066236
 20
180.4015638112364
 10
36.29821505168934
 20
180.4015638112364
 97
        0
 92
        1
 93
        1
 72
     4
 94
        3
 73
     0
 74
     1
 95
       17
 96
       13
 40
0.0
 40
0.0
 40
0.0
 40
0.0
 40
1.0
 40
1.0
 40
1.0
 40
2.0
 40
2.0
 40
2.0
 40
3.0
 40
3.0
 40
3.0
 40
4.0
 40
4.0
 40
4.0
 40
4.0
 10
36.29821505168934
 20
182.147538203161
 10
35.83243814208356
 20
182.147538203161
 10
35.45278861960902
 20
181.7678886806865
 10
35.45278861960902
 20
181.3014227519837
 10
35.45278861960902
 20
180.8353013328294
 10
35.83243814208356
 20
180.4559963199034
 10
36.29821505168934
 20
180.4559963199034
 10
36.76468098039216
 20
180.4559963199034
 10
37.14433050286669
 20
180.8353013328294
 10
37.14433050286669
 20
181.3014227519837
 10
37.14433050286669
 20
181.7678886806865
 10
36.76468098039216
 20
182.147538203161
 10
36.29821505168934
 20
182.147538203161
 97
        0
 75
     2
 76
     1
 98
        0
  0
POLYLINE
  5
35B
330
354
100
AcDbEntity
  8
\U+30EC\U+30A4\U+30E4\U+30FC 1
370
     0
100
AcDb2dPolyline
 66
     1
 10
0.0
 20
0.0
 30
0.0
  0
VERTEX
  5
35C
330
35B
100
AcDbEntity
  8
\U+30EC\U+30A4\U+30E4\U+30FC 1
370
     0
100
AcDbVertex
100
AcDb2dVertex
 10
35.11310220476339
 20
180.07841385472
 30
0.0
  0
VERTEX
  5
35D
330
35B
100
AcDbEntity
  8
\U+30EC\U+30A4\U+30E4\U+30FC 1
370
     0
100
AcDbVertex
100
AcDb2dVertex
 10
35.07520615442564
 20
180.1166544146063
 30
0.0
  0
VERTEX
  5
35E
330
35B
100
AcDbEntity
  8
\U+30EC\U+30A4\U+30E4\U+30FC 1
370
     0
100
AcDbVertex
100
AcDb2dVertex
 10
37.51364473888548
 20
182.5550929990661
 30
0.0
  0
VERTEX
  5
35F
330
35B
100
AcDbEntity
  8
\U+30EC\U+30A4\U+30E4\U+30FC 1
370
     0
100
AcDbVertex
100
AcDb2dVertex
 10
37.55222980832028
 20
182.5168524391798
 30
0.0
  0
VERTEX
  5
360
330
35B
100
AcDbEntity
  8
\U+30EC\U+30A4\U+30E4\U+30FC 1
370
     0
100
AcDbVertex
100
AcDb2dVertex
 10
35.11310220476339
 20
180.07841385472
 30
0.0
  0
SEQEND
  5
361
330
35B
100
AcDbEntity
  8
\U+30EC\U+30A4\U+30E4\U+30FC 1
370
     0
  0
HATCH
  5
362
330
354
100
AcDbEntity
  8
\U+30EC\U+30A4\U+30E4\U+30FC 1
 62
   179
420
  2432539
100
AcDbHatch
 10
0.0
 20
0.0
 30
0.0
210
0.0
220
0.0
230
1.0
  2
SOLID
 70
     1
 71
     0
 91
        1
 92
        1
 93
        4
 72
     1
 10
35.11310220476339
 20
180.07841385472
 11
35.07520615442564
 21
180.1166544146063
 72
     1
 10
35.07520615442564
 20
180.1166544146063
 11
37.51364473888548
 21
182.5550929990661
 72
     1
 10
37.51364473888548
 20
182.5550929990661
 11
37.55222980832028
 21
182.5168524391798
 72
     1
 10
37.55222980832028
 20
182.5168524391798
 11
35.11310220476339
 21
180.07841385472
 97
        0
 75
     2
 76
     1
 98
        0
  0
ENDBLK
  5
357
330
354
100
AcDbEntity
  8
0
100
AcDbBlockEnd
  0
BLOCK
  5
366
330
364
100
AcDbEntity
  8
0
100
AcDbBlockBegin
  2
block 14
 70
     0
 71
     0
 10
0.0
 20
0.0
 30
0.0
  3
block 14
  1

  0
SPLINE
  5
368
330
364
100
AcDbEntity
  8
\U+30EC\U+30A4\U+30E4\U+30FC 1
370
     0
100
AcDbSpline
210
0.0
220
0.0
230
1.0
 70
    11
 71
     3
 72
    17
 73
    13
 74
     0
 42
0.0000000001
 43
0.0000000001
 40
0.0
 40
0.0
 40
0.0
 40
0.0
 40
1.0
 40
1.0
 40
1.0
 40
2.0
 40
2.0
 40
2.0
 40
3.0
 40
3.0
 40
3.0
 40
4.0
 40
4.0
 40
4.0
 40
4.0
 10
34.7429266948733
 20
159.4858723559619
 30
0.0
 10
34.24683294499732
 20
159.4858723559619
 30
0.0
 10
33.84272324457751
 20
159.8896375468331
 30
0.0
 10
33.84272324457751
 20
160.3857312967091
 30
0.0
 10
33.84272324457751
 20
160.8825140656822
 30
0.0
 10
34.24683294499732
 20
161.2862792565534
 30
0.0
 10
34.7429266948733
 20
161.2862792565534
 30
0.0
 10
35.2393649542978
 20
161.2862792565534
 30
0.0
 10
35.64313014516908
 20
160.8825140656822
 30
0.0
 10
35.64313014516908
 20
160.3857312967091
 30
0.0
 10
35.64313014516908
 20
159.8896375468331
 30
0.0
 10
35.2393649542978
 20
159.4858723559619
 30
0.0
 10
34.7429266948733
 20
159.4858723559619
 30
0.0
  0
SPLINE
  5
369
330
364
100
AcDbEntity
  8
\U+30EC\U+30A4\U+30E4\U+30FC 1
370
     0
100
AcDbSpline
210
0.0
220
0.0
230
1.0
 70
    11
 71
     3
 72
    17
 73
    13
 74
     0
 42
0.0000000001
 43
0.0000000001
 40
0.0
 40
0.0
 40
0.0
 40
0.0
 40
1.0
 40
1.0
 40
1.0
 40
2.0
 40
2.0
 40
2.0
 40
3.0
 40
3.0
 40
3.0
 40
4.0
 40
4.0
 40
4.0
 40
4.0
 10
34.7429266948733
 20
161.2318467478865
 30
0.0
 10
34.27680527571899
 20
161.2318467478865
 30
0.0
 10
33.89715575324446
 20
160.852197225412
 30
0.0
 10
33.89715575324446
 20
160.3857312967091
 30
0.0
 10
33.89715575324446
 20
159.9196098775548
 30
0.0
 10
34.27680527571899
 20
159.5403048646288
 30
0.0
 10
34.7429266948733
 20
159.5403048646288
 30
0.0
 10
35.2090481140276
 20
159.5403048646288
 30
0.0
 10
35.58904214605066
 20
159.9196098775548
 30
0.0
 10
35.58904214605066
 20
160.3857312967091
 30
0.0
 10
35.58904214605066
 20
160.852197225412
 30
0.0
 10
35.2090481140276
 20
161.2318467478865
 30
0.0
 10
34.7429266948733
 20
161.2318467478865
 30
0.0
  0
HATCH
  5
36A
330
364
100
AcDbEntity
  8
\U+30EC\U+30A4\U+30E4\U+30FC 1
 62
   179
420
  2432539
100
AcDbHatch
 10
0.0
 20
0.0
 30
0.0
210
0.0
220
0.0
230
1.0
  2
SOLID
 70
     1
 71
     0
 91
        2
 92
        1
 93
        1
 72
     4
 94
        3
 73
     0
 74
     1
 95
       17
 96
       13
 40
0.0
 40
0.0
 40
0.0
 40
0.0
 40
1.0
 40
1.0
 40
1.0
 40
2.0
 40
2.0
 40
2.0
 40
3.0
 40
3.0
 40
3.0
 40
4.0
 40
4.0
 40
4.0
 40
4.0
 10
34.7429266948733
 20
159.4858723559619
 10
34.24683294499732
 20
159.4858723559619
 10
33.84272324457751
 20
159.8896375468331
 10
33.84272324457751
 20
160.3857312967091
 10
33.84272324457751
 20
160.8825140656822
 10
34.24683294499732
 20
161.2862792565534
 10
34.7429266948733
 20
161.2862792565534
 10
35.2393649542978
 20
161.2862792565534
 10
35.64313014516908
 20
160.8825140656822
 10
35.64313014516908
 20
160.3857312967091
 10
35.64313014516908
 20
159.8896375468331
 10
35.2393649542978
 20
159.4858723559619
 10
34.7429266948733
 20
159.4858723559619
 97
        0
 92
        1
 93
        1
 72
     4
 94
        3
 73
     0
 74
     1
 95
       17
 96
       13
 40
0.0
 40
0.0
 40
0.0
 40
0.0
 40
1.0
 40
1.0
 40
1.0
 40
2.0
 40
2.0
 40
2.0
 40
3.0
 40
3.0
 40
3.0
 40
4.0
 40
4.0
 40
4.0
 40
4.0
 10
34.7429266948733
 20
161.2318467478865
 10
34.27680527571899
 20
161.2318467478865
 10
33.89715575324446
 20
160.852197225412
 10
33.89715575324446
 20
160.3857312967091
 10
33.89715575324446
 20
159.9196098775548
 10
34.27680527571899
 20
159.5403048646288
 10
34.7429266948733
 20
159.5403048646288
 10
35.2090481140276
 20
159.5403048646288
 10
35.58904214605066
 20
159.9196098775548
 10
35.58904214605066
 20
160.3857312967091
 10
35.58904214605066
 20
160.852197225412
 10
35.2090481140276
 20
161.2318467478865
 10
34.7429266948733
 20
161.2318467478865
 97
        0
 75
     2
 76
     1
 98
        0
  0
POLYLINE
  5
36B
330
364
100
AcDbEntity
  8
\U+30EC\U+30A4\U+30E4\U+30FC 1
370
     0
100
AcDb2dPolyline
 66
     1
 10
0.0
 20
0.0
 30
0.0
  0
VERTEX
  5
36C
330
36B
100
AcDbEntity
  8
\U+30EC\U+30A4\U+30E4\U+30FC 1
370
     0
100
AcDbVertex
100
AcDb2dVertex
 10
33.55781384794735
 20
159.1627223994454
 30
0.0
  0
VERTEX
  5
36D
330
36B
100
AcDbEntity
  8
\U+30EC\U+30A4\U+30E4\U+30FC 1
370
     0
100
AcDbVertex
100
AcDb2dVertex
 10
33.51957328806108
 20
159.2009629593317
 30
0.0
  0
VERTEX
  5
36E
330
36B
100
AcDbEntity
  8
\U+30EC\U+30A4\U+30E4\U+30FC 1
370
     0
100
AcDbVertex
100
AcDb2dVertex
 10
35.95835638206944
 20
161.6394015437915
 30
0.0
  0
VERTEX
  5
36F
330
36B
100
AcDbEntity
  8
\U+30EC\U+30A4\U+30E4\U+30FC 1
370
     0
100
AcDbVertex
100
AcDb2dVertex
 10
35.99659694195572
 20
161.6011609839053
 30
0.0
  0
VERTEX
  5
370
330
36B
100
AcDbEntity
  8
\U+30EC\U+30A4\U+30E4\U+30FC 1
370
     0
100
AcDbVertex
100
AcDb2dVertex
 10
33.55781384794735
 20
159.1627223994454
 30
0.0
  0
SEQEND
  5
371
330
36B
100
AcDbEntity
  8
\U+30EC\U+30A4\U+30E4\U+30FC 1
370
     0
  0
HATCH
  5
372
330
364
100
AcDbEntity
  8
\U+30EC\U+30A4\U+30E4\U+30FC 1
 62
   179
420
  2432539
100
AcDbHatch
 10
0.0
 20
0.0
 30
0.0
210
0.0
220
0.0
230
1.0
  2
SOLID
 70
     1
 71
     0
 91
        1
 92
        1
 93
        4
 72
     1
 10
33.55781384794735
 20
159.1627223994454
 11
33.51957328806108
 21
159.2009629593317
 72
     1
 10
33.51957328806108
 20
159.2009629593317
 11
35.95835638206944
 21
161.6394015437915
 72
     1
 10
35.95835638206944
 20
161.6394015437915
 11
35.99659694195572
 21
161.6011609839053
 72
     1
 10
35.99659694195572
 20
161.6011609839053
 11
33.55781384794735
 21
159.1627223994454
 97
        0
 75
     2
 76
     1
 98
        0
  0
ENDBLK
  5
367
330
364
100
AcDbEntity
  8
0
100
AcDbBlockEnd
  0
ENDSEC
  0
SECTION
  2
ENTITIES
  0
SPLINE
  5
3C
330
1F
100
AcDbEntity
  8
\U+30EC\U+30A4\U+30E4\U+30FC 1
 62
   179
420
  2432539
370
    25
100
AcDbSpline
210
0.0
220
0.0
230
1.0
 70
     8
 71
     3
 72
     8
 73
     4
 74
     0
 42
0.0000000001
 43
0.0000000001
 40
0.0
 40
0.0
 40
0.0
 40
0.0
 40
1.0
 40
1.0
 40
1.0
 40
1.0
 10
-3.502800834627772
 20
142.7776760168229
 30
0.0
 10
-3.502800834627772
 20
140.7616061388547
 30
0.0
 10
-2.708189560954897
 20
138.8283908073068
 30
0.0
 10
-1.291049533097377
 20
137.4034993146075
 30
0.0
  0
SPLINE
  5
3D
330
1F
100
AcDbEntity
  8
\U+30EC\U+30A4\U+30E4\U+30FC 1
 62
   179
420
  2432539
370
    25
100
AcDbSpline
210
0.0
220
0.0
230
1.0
 70
     8
 71
     3
 72
     8
 73
     4
 74
     0
 42
0.0000000001
 43
0.0000000001
 40
0.0
 40
0.0
 40
0.0
 40
0.0
 40
1.0
 40
1.0
 40
1.0
 40
1.0
 10
83.9419908101777
 20
135.176589592942
 30
0.0
 10
85.94548608962474
 20
135.176589592942
 30
0.0
 10
87.86733260607137
 20
135.9779188028111
 30
0.0
 10
89.28412812438036
 20
137.4034993146075
 30
0.0
  0
POLYLINE
  5
3E
330
1F
100
AcDbEntity
  8
\U+30EC\U+30A4\U+30E4\U+30FC 1
 62
   179
420
  2432539
370
    25
100
AcDb2dPolyline
 66
     1
 10
0.0
 20
0.0
 30
0.0
  0
VERTEX
  5
3F
330
3E
100
AcDbEntity
  8
\U+30EC\U+30A4\U+30E4\U+30FC 1
 62
   179
420
  2432539
370
    25
100
AcDbVertex
100
AcDb2dVertex
 10
91.49691295455634
 20
188.0927394820567
 30
0.0
  0
VERTEX
  5
40
330
3E
100
AcDbEntity
  8
\U+30EC\U+30A4\U+30E4\U+30FC 1
 62
   179
420
  2432539
370
    25
100
AcDbVertex
100
AcDb2dVertex
 10
91.49691295455634
 20
142.7776760168229
 30
0.0
  0
SEQEND
  5
41
330
3E
100
AcDbEntity
  8
\U+30EC\U+30A4\U+30E4\U+30FC 1
370
    25
  0
POLYLINE
  5
42
330
1F
100
AcDbEntity
  8
\U+30EC\U+30A4\U+30E4\U+30FC 1
 62
   179
420
  2432539
370
    25
100
AcDb2dPolyline
 66
     1
 10
0.0
 20
0.0
 30
0.0
  0
VERTEX
  5
43
330
42
100
AcDbEntity
  8
\U+30EC\U+30A4\U+30E4\U+30FC 1
 62
   179
420
  2432539
370
    25
100
AcDbVertex
100
AcDb2dVertex
 10
53.80894638411721
 20
188.3774766239126
 30
0.0
  0
VERTEX
  5
44
330
42
100
AcDbEntity
  8
\U+30EC\U+30A4\U+30E4\U+30FC 1
 62
   179
420
  2432539
370
    25
100
AcDbVertex
100
AcDb2dVertex
 10
91.21355385089453
 20
188.3774766239126
 30
0.0
  0
SEQEND
  5
45
330
42
100
AcDbEntity
  8
\U+30EC\U+30A4\U+30E4\U+30FC 1
370
    25
  0
POLYLINE
  5
46
330
1F
100
AcDbEntity
  8
\U+30EC\U+30A4\U+30E4\U+30FC 1
 62
   179
420
  2432539
370
    25
100
AcDb2dPolyline
 66
     1
 10
0.0
 20
0.0
 30
0.0
  0
VERTEX
  5
47
330
46
100
AcDbEntity
  8
\U+30EC\U+30A4\U+30E4\U+30FC 1
 62
   179
420
  2432539
370
    25
100
AcDbVertex
100
AcDb2dVertex
 10
83.9419908101777
 20
135.176589592942
 30
0.0
  0
VERTEX
  5
48
330
46
100
AcDbEntity
  8
\U+30EC\U+30A4\U+30E4\U+30FC 1
 62
   179
420
  2432539
370
    25
100
AcDbVertex
100
AcDb2dVertex
 10
53.8246215685751
 20
135.176589592942
 30
0.0
  0
SEQEND
  5
49
330
46
100
AcDbEntity
  8
\U+30EC\U+30A4\U+30E4\U+30FC 1
370
    25
  0
POLYLINE
  5
4A
330
1F
100
AcDbEntity
  8
\U+30EC\U+30A4\U+30E4\U+30FC 1
 62
   179
420
  2432539
370
    25
100
AcDb2dPolyline
 66
     1
 10
0.0
 20
0.0
 30
0.0
  0
VERTEX
  5
4B
330
4A
100
AcDbEntity
  8
\U+30EC\U+30A4\U+30E4\U+30FC 1
 62
   179
420
  2432539
370
    25
100
AcDbVertex
100
AcDb2dVertex
 10
53.84029675303298
 20
188.3774766239126
 30
0.0
  0
VERTEX
  5
4C
330
4A
100
AcDbEntity
  8
\U+30EC\U+30A4\U+30E4\U+30FC 1
 62
   179
420
  2432539
370
    25
100
AcDbVertex
100
AcDb2dVertex
 10
-3.220303004837286
 20
188.3774766239126
 30
0.0
  0
SEQEND
  5
4D
330
4A
100
AcDbEntity
  8
\U+30EC\U+30A4\U+30E4\U+30FC 1
370
    25
  0
INSERT
  5
4F
330
1F
100
AcDbEntity
  8
\U+30EC\U+30A4\U+30E4\U+30FC 1
100
AcDbBlockReference
  2
block 2
 10
0.0
 20
0.0
 30
0.0
  0
POLYLINE
  5
53
330
1F
100
AcDbEntity
  8
\U+30EC\U+30A4\U+30E4\U+30FC 1
 62
   179
420
  2432539
370
    25
100
AcDb2dPolyline
 66
     1
 10
0.0
 20
0.0
 30
0.0
  0
VERTEX
  5
54
330
53
100
AcDbEntity
  8
\U+30EC\U+30A4\U+30E4\U+30FC 1
 62
   179
420
  2432539
370
    25
100
AcDbVertex
100
AcDb2dVertex
 10
4.051260035879547
 20
135.176589592942
 30
0.0
  0
VERTEX
  5
55
330
53
100
AcDbEntity
  8
\U+30EC\U+30A4\U+30E4\U+30FC 1
 62
   179
420
  2432539
370
    25
100
AcDbVertex
100
AcDb2dVertex
 10
53.82427705902657
 20
135.176589592942
 30
0.0
  0
SEQEND
  5
56
330
53
100
AcDbEntity
  8
\U+30EC\U+30A4\U+30E4\U+30FC 1
370
    25
  0
POLYLINE
  5
57
330
1F
100
AcDbEntity
  8
\U+30EC\U+30A4\U+30E4\U+30FC 1
 62
   179
420
  2432539
370
    25
100
AcDb2dPolyline
 66
     1
 10
0.0
 20
0.0
 30
0.0
  0
VERTEX
  5
58
330
57
100
AcDbEntity
  8
\U+30EC\U+30A4\U+30E4\U+30FC 1
 62
   179
420
  2432539
370
    25
100
AcDbVertex
100
AcDb2dVertex
 10
-3.502800834627772
 20
188.0927394820567
 30
0.0
  0
VERTEX
  5
59
330
57
100
AcDbEntity
  8
\U+30EC\U+30A4\U+30E4\U+30FC 1
 62
   179
420
  2432539
370
    25
100
AcDbVertex
100
AcDb2dVertex
 10
-3.502800834627772
 20
142.7776760168229
 30
0.0
  0
SEQEND
  5
5A
330
57
100
AcDbEntity
  8
\U+30EC\U+30A4\U+30E4\U+30FC 1
370
    25
  0
INSERT
  5
5C
330
1F
100
AcDbEntity
  8
\U+30EC\U+30A4\U+30E4\U+30FC 1
100
AcDbBlockReference
  2
block 3
 10
0.0
 20
0.0
 30
0.0
  0
POLYLINE
  5
62
330
1F
100
AcDbEntity
  8
\U+30EC\U+30A4\U+30E4\U+30FC 1
 62
   179
420
  2432539
370
    25
100
AcDb2dPolyline
 66
     1
 10
0.0
 20
0.0
 30
0.0
  0
VERTEX
  5
63
330
62
100
AcDbEntity
  8
\U+30EC\U+30A4\U+30E4\U+30FC 1
 62
   179
420
  2432539
370
    25
100
AcDbVertex
100
AcDb2dVertex
 10
53.82427705902657
 20
139.5043185415128
 30
0.0
  0
VERTEX
  5
64
330
62
100
AcDbEntity
  8
\U+30EC\U+30A4\U+30E4\U+30FC 1
 62
   179
420
  2432539
370
    25
100
AcDbVertex
100
AcDb2dVertex
 10
83.94130179108065
 20
139.4953612932512
 30
0.0
  0
SEQEND
  5
65
330
62
100
AcDbEntity
  8
\U+30EC\U+30A4\U+30E4\U+30FC 1
370
    25
  0
POLYLINE
  5
66
330
1F
100
AcDbEntity
  8
\U+30EC\U+30A4\U+30E4\U+30FC 1
 62
   179
420
  2432539
370
    25
100
AcDb2dPolyline
 66
     1
 10
0.0
 20
0.0
 30
0.0
  0
VERTEX
  5
67
330
66
100
AcDbEntity
  8
\U+30EC\U+30A4\U+30E4\U+30FC 1
 62
   179
420
  2432539
370
    25
100
AcDbVertex
100
AcDb2dVertex
 10
86.27156437730365
 20
187.4178452764963
 30
0.0
  0
VERTEX
  5
68
330
66
100
AcDbEntity
  8
\U+30EC\U+30A4\U+30E4\U+30FC 1
 62
   179
420
  2432539
370
    25
100
AcDbVertex
100
AcDb2dVertex
 10
53.82427705902657
 20
187.4178452764963
 30
0.0
  0
SEQEND
  5
69
330
66
100
AcDbEntity
  8
\U+30EC\U+30A4\U+30E4\U+30FC 1
370
    25
  0
INSERT
  5
6B
330
1F
100
AcDbEntity
  8
\U+30EC\U+30A4\U+30E4\U+30FC 1
100
AcDbBlockReference
  2
block 4
 10
0.0
 20
0.0
 30
0.0
  0
POLYLINE
  5
72
330
1F
100
AcDbEntity
  8
\U+30EC\U+30A4\U+30E4\U+30FC 1
 62
   179
420
  2432539
370
    25
100
AcDb2dPolyline
 66
     1
 10
0.0
 20
0.0
 30
0.0
  0
VERTEX
  5
73
330
72
100
AcDbEntity
  8
\U+30EC\U+30A4\U+30E4\U+30FC 1
 62
   179
420
  2432539
370
    25
100
AcDbVertex
100
AcDb2dVertex
 10
87.20501299903208
 20
142.7776760168229
 30
0.0
  0
VERTEX
  5
74
330
72
100
AcDbEntity
  8
\U+30EC\U+30A4\U+30E4\U+30FC 1
 62
   179
420
  2432539
370
    25
100
AcDbVertex
100
AcDb2dVertex
 10
87.19898408193289
 20
186.4869804763817
 30
0.0
  0
SEQEND
  5
75
330
72
100
AcDbEntity
  8
\U+30EC\U+30A4\U+30E4\U+30FC 1
370
    25
  0
INSERT
  5
77
330
1F
100
AcDbEntity
  8
\U+30EC\U+30A4\U+30E4\U+30FC 1
100
AcDbBlockReference
  2
block 5
 10
0.0
 20
0.0
 30
0.0
  0
POLYLINE
  5
7C
330
1F
100
AcDbEntity
  8
\U+30EC\U+30A4\U+30E4\U+30FC 1
 62
   179
420
  2432539
370
    25
100
AcDb2dPolyline
 66
     1
 10
0.0
 20
0.0
 30
0.0
  0
VERTEX
  5
7D
330
7C
100
AcDbEntity
  8
\U+30EC\U+30A4\U+30E4\U+30FC 1
 62
   179
420
  2432539
370
    25
100
AcDbVertex
100
AcDb2dVertex
 10
53.82427705902657
 20
139.5043185415128
 30
0.0
  0
VERTEX
  5
7E
330
7C
100
AcDbEntity
  8
\U+30EC\U+30A4\U+30E4\U+30FC 1
 62
   179
420
  2432539
370
    25
100
AcDbVertex
100
AcDb2dVertex
 10
4.051260035879547
 20
139.4953612932512
 30
0.0
  0
SEQEND
  5
7F
330
7C
100
AcDbEntity
  8
\U+30EC\U+30A4\U+30E4\U+30FC 1
370
    25
  0
POLYLINE
  5
80
330
1F
100
AcDbEntity
  8
\U+30EC\U+30A4\U+30E4\U+30FC 1
 62
   179
420
  2432539
370
    25
100
AcDb2dPolyline
 66
     1
 10
0.0
 20
0.0
 30
0.0
  0
VERTEX
  5
81
330
80
100
AcDbEntity
  8
\U+30EC\U+30A4\U+30E4\U+30FC 1
 62
   179
420
  2432539
370
    25
100
AcDbVertex
100
AcDb2dVertex
 10
1.720997449656556
 20
187.4178452764963
 30
0.0
  0
VERTEX
  5
82
330
80
100
AcDbEntity
  8
\U+30EC\U+30A4\U+30E4\U+30FC 1
 62
   179
420
  2432539
370
    25
100
AcDbVertex
100
AcDb2dVertex
 10
53.82427705902657
 20
187.4178452764963
 30
0.0
  0
SEQEND
  5
83
330
80
100
AcDbEntity
  8
\U+30EC\U+30A4\U+30E4\U+30FC 1
370
    25
  0
POLYLINE
  5
84
330
1F
100
AcDbEntity
  8
\U+30EC\U+30A4\U+30E4\U+30FC 1
 62
   179
420
  2432539
370
    25
100
AcDb2dPolyline
 66
     1
 10
0.0
 20
0.0
 30
0.0
  0
VERTEX
  5
85
330
84
100
AcDbEntity
  8
\U+30EC\U+30A4\U+30E4\U+30FC 1
 62
   179
420
  2432539
370
    25
100
AcDbVertex
100
AcDb2dVertex
 10
0.7889268661222127
 20
142.7776760168229
 30
0.0
  0
VERTEX
  5
86
330
84
100
AcDbEntity
  8
\U+30EC\U+30A4\U+30E4\U+30FC 1
 62
   179
420
  2432539
370
    25
100
AcDbVertex
100
AcDb2dVertex
 10
0.7940945093500875
 20
186.4869804763817
 30
0.0
  0
SEQEND
  5
87
330
84
100
AcDbEntity
  8
\U+30EC\U+30A4\U+30E4\U+30FC 1
370
    25
  0
POLYLINE
  5
88
330
1F
100
AcDbEntity
  8
\U+30EC\U+30A4\U+30E4\U+30FC 1
 62
   179
420
  2432539
370
    25
100
AcDb2dPolyline
 66
     1
 10
0.0
 20
0.0
 30
0.0
  0
VERTEX
  5
89
330
88
100
AcDbEntity
  8
\U+30EC\U+30A4\U+30E4\U+30FC 1
 62
   179
420
  2432539
370
    25
100
AcDbVertex
100
AcDb2dVertex
 10
55.53459471267885
 20
144.3262464374428
 30
0.0
  0
VERTEX
  5
8A
330
88
100
AcDbEntity
  8
\U+30EC\U+30A4\U+30E4\U+30FC 1
 62
   179
420
  2432539
370
    25
100
AcDbVertex
100
AcDb2dVertex
 10
68.58375513693393
 20
144.3262464374428
 30
0.0
  0
SEQEND
  5
8B
330
88
100
AcDbEntity
  8
\U+30EC\U+30A4\U+30E4\U+30FC 1
370
    25
  0
POLYLINE
  5
8C
330
1F
100
AcDbEntity
  8
\U+30EC\U+30A4\U+30E4\U+30FC 1
 62
   179
420
  2432539
370
    25
100
AcDb2dPolyline
 66
     1
 10
0.0
 20
0.0
 30
0.0
  0
VERTEX
  5
8D
330
8C
100
AcDbEntity
  8
\U+30EC\U+30A4\U+30E4\U+30FC 1
 62
   179
420
  2432539
370
    25
100
AcDbVertex
100
AcDb2dVertex
 10
55.49773219098668
 20
144.3262464374428
 30
0.0
  0
VERTEX
  5
8E
330
8C
100
AcDbEntity
  8
\U+30EC\U+30A4\U+30E4\U+30FC 1
 62
   179
420
  2432539
370
    25
100
AcDbVertex
100
AcDb2dVertex
 10
19.40932345434906
 20
144.3262464374428
 30
0.0
  0
SEQEND
  5
8F
330
8C
100
AcDbEntity
  8
\U+30EC\U+30A4\U+30E4\U+30FC 1
370
    25
  0
POLYLINE
  5
90
330
1F
100
AcDbEntity
  8
\U+30EC\U+30A4\U+30E4\U+30FC 1
 62
   179
420
  2432539
370
    25
100
AcDb2dPolyline
 66
     1
 10
0.0
 20
0.0
 30
0.0
  0
VERTEX
  5
91
330
90
100
AcDbEntity
  8
\U+30EC\U+30A4\U+30E4\U+30FC 1
 62
   179
420
  2432539
370
    25
100
AcDbVertex
100
AcDb2dVertex
 10
15.99575059278926
 20
178.431313703222
 30
0.0
  0
VERTEX
  5
92
330
90
100
AcDbEntity
  8
\U+30EC\U+30A4\U+30E4\U+30FC 1
 62
   179
420
  2432539
370
    25
100
AcDbVertex
100
AcDb2dVertex
 10
71.99801701759078
 20
178.431313703222
 30
0.0
  0
SEQEND
  5
93
330
90
100
AcDbEntity
  8
\U+30EC\U+30A4\U+30E4\U+30FC 1
370
    25
  0
INSERT
  5
95
330
1F
100
AcDbEntity
  8
\U+30EC\U+30A4\U+30E4\U+30FC 1
100
AcDbBlockReference
  2
block 6
 10
0.0
 20
0.0
 30
0.0
  0
POLYLINE
  5
9A
330
1F
100
AcDbEntity
  8
\U+30EC\U+30A4\U+30E4\U+30FC 1
 62
   179
420
  2432539
370
    25
100
AcDb2dPolyline
 66
     1
 10
0.0
 20
0.0
 30
0.0
  0
VERTEX
  5
9B
330
9A
100
AcDbEntity
  8
\U+30EC\U+30A4\U+30E4\U+30FC 1
 62
   179
420
  2432539
370
    25
100
AcDbVertex
100
AcDb2dVertex
 10
72.40126544413927
 20
147.6030490082381
 30
0.0
  0
VERTEX
  5
9C
330
9A
100
AcDbEntity
  8
\U+30EC\U+30A4\U+30E4\U+30FC 1
 62
   179
420
  2432539
370
    25
100
AcDbVertex
100
AcDb2dVertex
 10
72.40126544413927
 20
178.0037773535025
 30
0.0
  0
SEQEND
  5
9D
330
9A
100
AcDbEntity
  8
\U+30EC\U+30A4\U+30E4\U+30FC 1
370
    25
  0
POLYLINE
  5
9E
330
1F
100
AcDbEntity
  8
\U+30EC\U+30A4\U+30E4\U+30FC 1
 62
   179
420
  2432539
370
    25
100
AcDb2dPolyline
 66
     1
 10
0.0
 20
0.0
 30
0.0
  0
VERTEX
  5
9F
330
9E
100
AcDbEntity
  8
\U+30EC\U+30A4\U+30E4\U+30FC 1
 62
   179
420
  2432539
370
    25
100
AcDbVertex
100
AcDb2dVertex
 10
15.59129638282093
 20
147.6030490082381
 30
0.0
  0
VERTEX
  5
A0
330
9E
100
AcDbEntity
  8
\U+30EC\U+30A4\U+30E4\U+30FC 1
 62
   179
420
  2432539
370
    25
100
AcDbVertex
100
AcDb2dVertex
 10
15.59129638282093
 20
178.0037773535025
 30
0.0
  0
SEQEND
  5
A1
330
9E
100
AcDbEntity
  8
\U+30EC\U+30A4\U+30E4\U+30FC 1
370
    25
  0
SPLINE
  5
A2
330
1F
100
AcDbEntity
  8
\U+30EC\U+30A4\U+30E4\U+30FC 1
 62
   179
420
  2432539
370
    25
100
AcDbSpline
210
0.0
220
0.0
230
1.0
 70
     8
 71
     3
 72
     8
 73
     4
 74
     0
 42
0.0000000001
 43
0.0000000001
 40
0.0
 40
0.0
 40
0.0
 40
0.0
 40
1.0
 40
1.0
 40
1.0
 40
1.0
 10
16.09031846385937
 20
178.431313703222
 30
0.0
 10
15.81453857026512
 20
178.431313703222
 30
0.0
 10
15.59129638282093
 20
178.2401109037907
 30
0.0
 10
15.59129638282093
 20
178.0037773535025
 30
0.0
  0
SPLINE
  5
A3
330
1F
100
AcDbEntity
  8
\U+30EC\U+30A4\U+30E4\U+30FC 1
 62
   179
420
  2432539
370
    25
100
AcDbSpline
210
0.0
220
0.0
230
1.0
 70
     8
 71
     3
 72
     8
 73
     4
 74
     0
 42
0.0000000001
 43
0.0000000001
 40
0.0
 40
0.0
 40
0.0
 40
0.0
 40
1.0
 40
1.0
 40
1.0
 40
1.0
 10
68.58375513693393
 20
144.3262464374428
 30
0.0
 10
69.70048283847765
 20
144.3262464374428
 30
0.0
 10
70.49388832873069
 20
144.6083997576847
 30
0.0
 10
71.28315970440144
 20
145.2863945491819
 30
0.0
  0
SPLINE
  5
A4
330
1F
100
AcDbEntity
  8
\U+30EC\U+30A4\U+30E4\U+30FC 1
 62
   179
420
  2432539
370
    25
100
AcDbSpline
210
0.0
220
0.0
230
1.0
 70
     8
 71
     3
 72
     8
 73
     4
 74
     0
 42
0.0000000001
 43
0.0000000001
 40
0.0
 40
0.0
 40
0.0
 40
0.0
 40
1.0
 40
1.0
 40
1.0
 40
1.0
 10
15.59129638282093
 20
147.6030490082381
 30
0.0
 10
15.59129638282093
 20
146.6447956990159
 30
0.0
 10
15.92013074688802
 20
145.9640448311305
 30
0.0
 10
16.7092298677845
 20
145.2863945491819
 30
0.0
  0
SPLINE
  5
A5
330
1F
100
AcDbEntity
  8
\U+30EC\U+30A4\U+30E4\U+30FC 1
 62
   179
420
  2432539
370
    25
100
AcDbSpline
210
0.0
220
0.0
230
1.0
 70
     8
 71
     3
 72
     8
 73
     4
 74
     0
 42
0.0000000001
 43
0.0000000001
 40
0.0
 40
0.0
 40
0.0
 40
0.0
 40
1.0
 40
1.0
 40
1.0
 40
1.0
 10
16.70991888688155
 20
145.2863945491819
 30
0.0
 10
17.49936251732655
 20
144.6090887767818
 30
0.0
 10
18.29207898848254
 20
144.3262464374428
 30
0.0
 10
19.41001247344611
 20
144.3262464374428
 30
0.0
  0
SPLINE
  5
A6
330
1F
100
AcDbEntity
  8
\U+30EC\U+30A4\U+30E4\U+30FC 1
 62
   179
420
  2432539
370
    25
100
AcDbSpline
210
0.0
220
0.0
230
1.0
 70
    11
 71
     3
 72
    17
 73
    13
 74
     0
 42
0.0000000001
 43
0.0000000001
 40
0.0
 40
0.0
 40
0.0
 40
0.0
 40
1.0
 40
1.0
 40
1.0
 40
2.0
 40
2.0
 40
2.0
 40
3.0
 40
3.0
 40
3.0
 40
4.0
 40
4.0
 40
4.0
 40
4.0
 10
42.79187553183676
 20
173.7602809895461
 30
0.0
 10
42.79187553183676
 20
173.2340426541741
 30
0.0
 10
43.41371526692435
 20
173.0264756511878
 30
0.0
 10
43.83039956586532
 20
173.0264756511878
 30
0.0
 10
44.24622259093498
 20
173.0264756511878
 30
0.0
 10
44.86909585466815
 20
173.2340426541741
 30
0.0
 10
44.86909585466815
 20
173.7602809895461
 30
0.0
 10
44.86909585466815
 20
174.287208344015
 30
0.0
 10
44.24622259093498
 20
174.4947753470013
 30
0.0
 10
43.83039956586532
 20
174.4947753470013
 30
0.0
 10
43.41371526692435
 20
174.4947753470013
 30
0.0
 10
42.79187553183676
 20
174.287208344015
 30
0.0
 10
42.79187553183676
 20
173.7602809895461
 30
0.0
  0
SPLINE
  5
A7
330
1F
100
AcDbEntity
  8
\U+30EC\U+30A4\U+30E4\U+30FC 1
 62
   179
420
  2432539
370
    25
100
AcDbSpline
210
0.0
220
0.0
230
1.0
 70
    11
 71
     3
 72
    17
 73
    13
 74
     0
 42
0.0000000001
 43
0.0000000001
 40
0.0
 40
0.0
 40
0.0
 40
0.0
 40
1.0
 40
1.0
 40
1.0
 40
2.0
 40
2.0
 40
2.0
 40
3.0
 40
3.0
 40
3.0
 40
4.0
 40
4.0
 40
4.0
 40
4.0
 10
43.81265732411628
 20
158.7339802663061
 30
0.0
 10
42.63271212041821
 20
158.7339802663061
 30
0.0
 10
41.67549233984155
 20
159.6791422126844
 30
0.0
 10
41.67549233984155
 20
160.84565154399
 30
0.0
 10
41.67549233984155
 20
162.0121608752956
 30
0.0
 10
42.63271212041821
 20
162.9566338025768
 30
0.0
 10
43.81265732411628
 20
162.9566338025768
 30
0.0
 10
44.99277478258861
 20
162.9566338025768
 30
0.0
 10
45.94982230839102
 20
162.0121608752956
 30
0.0
 10
45.94982230839102
 20
160.84565154399
 30
0.0
 10
45.94982230839102
 20
159.6791422126844
 30
0.0
 10
44.99277478258861
 20
158.7339802663061
 30
0.0
 10
43.81265732411628
 20
158.7339802663061
 30
0.0
  0
SPLINE
  5
A8
330
1F
100
AcDbEntity
  8
\U+30EC\U+30A4\U+30E4\U+30FC 1
 62
   179
420
  2432539
370
    25
100
AcDbSpline
210
0.0
220
0.0
230
1.0
 70
    11
 71
     3
 72
    17
 73
    13
 74
     0
 42
0.0000000001
 43
0.0000000001
 40
0.0
 40
0.0
 40
0.0
 40
0.0
 40
1.0
 40
1.0
 40
1.0
 40
2.0
 40
2.0
 40
2.0
 40
3.0
 40
3.0
 40
3.0
 40
4.0
 40
4.0
 40
4.0
 40
4.0
 10
43.81265732411628
 20
157.8365328923985
 30
0.0
 10
42.12972817957174
 20
157.8365328923985
 30
0.0
 10
40.76529811263854
 20
159.1830484628084
 30
0.0
 10
40.76529811263854
 20
160.84565154399
 30
0.0
 10
40.76529811263854
 20
162.5082546251716
 30
0.0
 10
42.12972817957174
 20
163.8552869599042
 30
0.0
 10
43.81265732411628
 20
163.8552869599042
 30
0.0
 10
45.49489744956378
 20
163.8552869599042
 30
0.0
 10
46.85898300694845
 20
162.5082546251716
 30
0.0
 10
46.85898300694845
 20
160.84565154399
 30
0.0
 10
46.85898300694845
 20
159.1830484628084
 30
0.0
 10
45.49489744956378
 20
157.8365328923985
 30
0.0
 10
43.81265732411628
 20
157.8365328923985
 30
0.0
  0
SPLINE
  5
A9
330
1F
100
AcDbEntity
  8
\U+30EC\U+30A4\U+30E4\U+30FC 1
 62
   179
420
  2432539
370
    25
100
AcDbSpline
210
0.0
220
0.0
230
1.0
 70
    11
 71
     3
 72
    17
 73
    13
 74
     0
 42
0.0000000001
 43
0.0000000001
 40
0.0
 40
0.0
 40
0.0
 40
0.0
 40
1.0
 40
1.0
 40
1.0
 40
2.0
 40
2.0
 40
2.0
 40
3.0
 40
3.0
 40
3.0
 40
4.0
 40
4.0
 40
4.0
 40
4.0
 10
43.83039956586532
 20
180.1004624658256
 30
0.0
 10
42.91262612859476
 20
180.1004624658256
 30
0.0
 10
42.1671074655867
 20
180.8342678041838
 30
0.0
 10
42.1671074655867
 20
181.7427394836442
 30
0.0
 10
42.1671074655867
 20
182.6486273414906
 30
0.0
 10
42.91262612859476
 20
183.3850165014628
 30
0.0
 10
43.83039956586532
 20
183.3850165014628
 30
0.0
 10
44.74868976745866
 20
183.3850165014628
 30
0.0
 10
45.49300264704689
 20
182.6486273414906
 30
0.0
 10
45.49300264704689
 20
181.7427394836442
 30
0.0
 10
45.49300264704689
 20
180.8342678041838
 30
0.0
 10
44.74868976745866
 20
180.1004624658256
 30
0.0
 10
43.83039956586532
 20
180.1004624658256
 30
0.0
  0
POLYLINE
  5
AA
330
1F
100
AcDbEntity
  8
\U+30EC\U+30A4\U+30E4\U+30FC 1
 62
   179
420
  2432539
370
    70
100
AcDb2dPolyline
 66
     1
 10
0.0
 20
0.0
 30
0.0
  0
VERTEX
  5
AB
330
AA
100
AcDbEntity
  8
\U+30EC\U+30A4\U+30E4\U+30FC 1
 62
   179
420
  2432539
370
    70
100
AcDbVertex
100
AcDb2dVertex
 10
209.5086588017895
 20
69.8499999825375
 30
0.0
  0
VERTEX
  5
AC
330
AA
100
AcDbEntity
  8
\U+30EC\U+30A4\U+30E4\U+30FC 1
 62
   179
420
  2432539
370
    70
100
AcDbVertex
100
AcDb2dVertex
 10
209.5086588017895
 20
107.6006672908082
 30
0.0
  0
SEQEND
  5
AD
330
AA
100
AcDbEntity
  8
\U+30EC\U+30A4\U+30E4\U+30FC 1
370
    70
  0
SPLINE
  5
AE
330
1F
100
AcDbEntity
  8
\U+30EC\U+30A4\U+30E4\U+30FC 1
 62
   179
420
  2432539
370
    25
100
AcDbSpline
210
0.0
220
0.0
230
1.0
 70
    27
 71
     3
 72
    11
 73
     7
 74
     0
 42
0.0000000001
 43
0.0000000001
 40
0.0
 40
0.0
 40
0.0
 40
0.0
 40
1.0
 40
1.0
 40
1.0
 40
2.0
 40
2.0
 40
2.0
 40
2.0
 10
46.13120658568942
 20
79.12212997153891
 30
0.0
 10
46.13120658568942
 20
79.12212997153891
 30
0.0
 10
46.69999185030417
 20
79.12212997153891
 30
0.0
 10
46.69999185030417
 20
79.12212997153891
 30
0.0
 10
46.69999185030417
 20
79.12212997153891
 30
0.0
 10
46.13120658568942
 20
79.12212997153891
 30
0.0
 10
46.13120658568942
 20
79.12212997153891
 30
0.0
  0
INSERT
  5
B0
330
1F
100
AcDbEntity
  8
\U+30EC\U+30A4\U+30E4\U+30FC 1
100
AcDbBlockReference
  2
block 7
 10
0.0
 20
0.0
 30
0.0
  0
SPLINE
  5
B4
330
1F
100
AcDbEntity
  8
\U+30EC\U+30A4\U+30E4\U+30FC 1
 62
   179
420
  2432539
370
    25
100
AcDbSpline
210
0.0
220
0.0
230
1.0
 70
    27
 71
     3
 72
    11
 73
     7
 74
     0
 42
0.0000000001
 43
0.0000000001
 40
0.0
 40
0.0
 40
0.0
 40
0.0
 40
1.0
 40
1.0
 40
1.0
 40
2.0
 40
2.0
 40
2.0
 40
2.0
 10
46.13120658568942
 20
79.12212997153891
 30
0.0
 10
46.13120658568942
 20
79.12212997153891
 30
0.0
 10
41.86273327946488
 20
79.12212997153891
 30
0.0
 10
41.86273327946488
 20
79.12212997153891
 30
0.0
 10
41.86273327946488
 20
79.12212997153891
 30
0.0
 10
46.13120658568942
 20
79.12212997153891
 30
0.0
 10
46.13120658568942
 20
79.12212997153891
 30
0.0
  0
INSERT
  5
B6
330
1F
100
AcDbEntity
  8
\U+30EC\U+30A4\U+30E4\U+30FC 1
100
AcDbBlockReference
  2
block 8
 10
0.0
 20
0.0
 30
0.0
  0
POLYLINE
  5
BB
330
1F
100
AcDbEntity
  8
\U+30EC\U+30A4\U+30E4\U+30FC 1
 62
   179
420
  2432539
370
    25
100
AcDb2dPolyline
 66
     1
 10
0.0
 20
0.0
 30
0.0
  0
VERTEX
  5
BC
330
BB
100
AcDbEntity
  8
\U+30EC\U+30A4\U+30E4\U+30FC 1
 62
   179
420
  2432539
370
    25
100
AcDbVertex
100
AcDb2dVertex
 10
-2.870109048761639
 20
80.40439451114891
 30
0.0
  0
VERTEX
  5
BD
330
BB
100
AcDbEntity
  8
\U+30EC\U+30A4\U+30E4\U+30FC 1
 62
   179
420
  2432539
370
    25
100
AcDbVertex
100
AcDb2dVertex
 10
90.86335989481888
 20
80.40439451114891
 30
0.0
  0
SEQEND
  5
BE
330
BB
100
AcDbEntity
  8
\U+30EC\U+30A4\U+30E4\U+30FC 1
370
    25
  0
INSERT
  5
C0
330
1F
100
AcDbEntity
  8
\U+30EC\U+30A4\U+30E4\U+30FC 1
100
AcDbBlockReference
  2
block 9
 10
0.0
 20
0.0
 30
0.0
  0
SPLINE
  5
C5
330
1F
100
AcDbEntity
  8
\U+30EC\U+30A4\U+30E4\U+30FC 1
 62
   179
420
  2432539
370
    25
100
AcDbSpline
210
0.0
220
0.0
230
1.0
 70
    27
 71
     3
 72
    11
 73
     7
 74
     0
 42
0.0000000001
 43
0.0000000001
 40
0.0
 40
0.0
 40
0.0
 40
0.0
 40
1.0
 40
1.0
 40
1.0
 40
2.0
 40
2.0
 40
2.0
 40
2.0
 10
91.25937362084835
 20
80.40439451114891
 30
0.0
 10
91.25937362084835
 20
80.40439451114891
 30
0.0
 10
90.86335989481888
 20
80.40439451114891
 30
0.0
 10
90.86335989481888
 20
80.40439451114891
 30
0.0
 10
90.86335989481888
 20
80.40439451114891
 30
0.0
 10
91.25937362084835
 20
80.40439451114891
 30
0.0
 10
91.25937362084835
 20
80.40439451114891
 30
0.0
  0
SPLINE
  5
C6
330
1F
100
AcDbEntity
  8
\U+30EC\U+30A4\U+30E4\U+30FC 1
 62
   179
420
  2432539
370
    25
100
AcDbSpline
210
0.0
220
0.0
230
1.0
 70
    27
 71
     3
 72
    11
 73
     7
 74
     0
 42
0.0000000001
 43
0.0000000001
 40
0.0
 40
0.0
 40
0.0
 40
0.0
 40
1.0
 40
1.0
 40
1.0
 40
2.0
 40
2.0
 40
2.0
 40
2.0
 10
-3.265606010468321
 20
80.40439451114891
 30
0.0
 10
-3.265606010468321
 20
80.40439451114891
 30
0.0
 10
-2.870109048761639
 20
80.40439451114891
 30
0.0
 10
-2.870109048761639
 20
80.40439451114891
 30
0.0
 10
-2.870109048761639
 20
80.40439451114891
 30
0.0
 10
-3.265606010468321
 20
80.40439451114891
 30
0.0
 10
-3.265606010468321
 20
80.40439451114891
 30
0.0
  0
INSERT
  5
C8
330
1F
100
AcDbEntity
  8
\U+30EC\U+30A4\U+30E4\U+30FC 1
100
AcDbBlockReference
  2
block 10
 10
0.0
 20
0.0
 30
0.0
  0
POLYLINE
  5
CD
330
1F
100
AcDbEntity
  8
\U+30EC\U+30A4\U+30E4\U+30FC 1
 62
   179
420
  2432539
370
    25
100
AcDb2dPolyline
 66
     1
 10
0.0
 20
0.0
 30
0.0
  0
VERTEX
  5
CE
330
CD
100
AcDbEntity
  8
\U+30EC\U+30A4\U+30E4\U+30FC 1
 62
   179
420
  2432539
370
    25
100
AcDbVertex
100
AcDb2dVertex
 10
160.562809204651
 20
91.17376299803989
 30
0.0
  0
VERTEX
  5
CF
330
CD
100
AcDbEntity
  8
\U+30EC\U+30A4\U+30E4\U+30FC 1
 62
   179
420
  2432539
370
    25
100
AcDbVertex
100
AcDb2dVertex
 10
208.4076062847037
 20
91.17376299803989
 30
0.0
  0
SEQEND
  5
D0
330
CD
100
AcDbEntity
  8
\U+30EC\U+30A4\U+30E4\U+30FC 1
370
    25
  0
POLYLINE
  5
D1
330
1F
100
AcDbEntity
  8
\U+30EC\U+30A4\U+30E4\U+30FC 1
 62
   179
420
  2432539
370
    25
100
AcDb2dPolyline
 66
     1
 10
0.0
 20
0.0
 30
0.0
  0
VERTEX
  5
D2
330
D1
100
AcDbEntity
  8
\U+30EC\U+30A4\U+30E4\U+30FC 1
 62
   179
420
  2432539
370
    25
100
AcDbVertex
100
AcDb2dVertex
 10
185.0271212645071
 20
79.63062606516179
 30
0.0
  0
VERTEX
  5
D3
330
D1
100
AcDbEntity
  8
\U+30EC\U+30A4\U+30E4\U+30FC 1
 62
   179
420
  2432539
370
    25
100
AcDbVertex
100
AcDb2dVertex
 10
185.5425075491005
 20
79.64785154258804
 30
0.0
  0
SEQEND
  5
D4
330
D1
100
AcDbEntity
  8
\U+30EC\U+30A4\U+30E4\U+30FC 1
370
    25
  0
POLYLINE
  5
D5
330
1F
100
AcDbEntity
  8
\U+30EC\U+30A4\U+30E4\U+30FC 1
 62
   179
420
  2432539
370
    25
100
AcDb2dPolyline
 66
     1
 10
0.0
 20
0.0
 30
0.0
  0
VERTEX
  5
D6
330
D5
100
AcDbEntity
  8
\U+30EC\U+30A4\U+30E4\U+30FC 1
 62
   179
420
  2432539
370
    25
100
AcDbVertex
100
AcDb2dVertex
 10
156.9654404989531
 20
80.6331488513695
 30
0.0
  0
VERTEX
  5
D7
330
D5
100
AcDbEntity
  8
\U+30EC\U+30A4\U+30E4\U+30FC 1
 62
   179
420
  2432539
370
    25
100
AcDbVertex
100
AcDb2dVertex
 10
208.6515190450594
 20
80.6331488513695
 30
0.0
  0
SEQEND
  5
D8
330
D5
100
AcDbEntity
  8
\U+30EC\U+30A4\U+30E4\U+30FC 1
370
    25
  0
INSERT
  5
DA
330
1F
100
AcDbEntity
  8
\U+30EC\U+30A4\U+30E4\U+30FC 1
100
AcDbBlockReference
  2
block 11
 10
0.0
 20
0.0
 30
0.0
  0
POLYLINE
  5
DE
330
1F
100
AcDbEntity
  8
\U+30EC\U+30A4\U+30E4\U+30FC 1
 62
   179
420
  2432539
370
    25
100
AcDb2dPolyline
 66
     1
 10
0.0
 20
0.0
 30
0.0
  0
VERTEX
  5
DF
330
DE
100
AcDbEntity
  8
\U+30EC\U+30A4\U+30E4\U+30FC 1
 62
   179
420
  2432539
370
    25
100
AcDbVertex
100
AcDb2dVertex
 10
156.205452434907
 20
80.91151256657768
 30
0.0
  0
VERTEX
  5
E0
330
DE
100
AcDbEntity
  8
\U+30EC\U+30A4\U+30E4\U+30FC 1
 62
   179
420
  2432539
370
    25
100
AcDbVertex
100
AcDb2dVertex
 10
156.205452434907
 20
90.75621742522762
 30
0.0
  0
SEQEND
  5
E1
330
DE
100
AcDbEntity
  8
\U+30EC\U+30A4\U+30E4\U+30FC 1
370
    25
  0
INSERT
  5
E3
330
1F
100
AcDbEntity
  8
\U+30EC\U+30A4\U+30E4\U+30FC 1
100
AcDbBlockReference
  2
block 12
 10
0.0
 20
0.0
 30
0.0
  0
POLYLINE
  5
E7
330
1F
100
AcDbEntity
  8
\U+30EC\U+30A4\U+30E4\U+30FC 1
 62
   179
420
  2432539
370
    25
100
AcDb2dPolyline
 66
     1
 10
0.0
 20
0.0
 30
0.0
  0
VERTEX
  5
E8
330
E7
100
AcDbEntity
  8
\U+30EC\U+30A4\U+30E4\U+30FC 1
 62
   179
420
  2432539
370
    25
100
AcDbVertex
100
AcDb2dVertex
 10
156.4907063410857
 20
80.6331488513695
 30
0.0
  0
VERTEX
  5
E9
330
E7
100
AcDbEntity
  8
\U+30EC\U+30A4\U+30E4\U+30FC 1
 62
   179
420
  2432539
370
    25
100
AcDbVertex
100
AcDb2dVertex
 10
156.964751479856
 20
80.6331488513695
 30
0.0
  0
SEQEND
  5
EA
330
E7
100
AcDbEntity
  8
\U+30EC\U+30A4\U+30E4\U+30FC 1
370
    25
  0
POLYLINE
  5
EB
330
1F
100
AcDbEntity
  8
\U+30EC\U+30A4\U+30E4\U+30FC 1
 62
   179
420
  2432539
370
    25
100
AcDb2dPolyline
 66
     1
 10
0.0
 20
0.0
 30
0.0
  0
VERTEX
  5
EC
330
EB
100
AcDbEntity
  8
\U+30EC\U+30A4\U+30E4\U+30FC 1
 62
   179
420
  2432539
370
    25
100
AcDbVertex
100
AcDb2dVertex
 10
156.632644275078
 20
91.17376299803989
 30
0.0
  0
VERTEX
  5
ED
330
EB
100
AcDbEntity
  8
\U+30EC\U+30A4\U+30E4\U+30FC 1
 62
   179
420
  2432539
370
    25
100
AcDbVertex
100
AcDb2dVertex
 10
160.563498223748
 20
91.17376299803989
 30
0.0
  0
SEQEND
  5
EE
330
EB
100
AcDbEntity
  8
\U+30EC\U+30A4\U+30E4\U+30FC 1
370
    25
  0
SPLINE
  5
EF
330
1F
100
AcDbEntity
  8
\U+30EC\U+30A4\U+30E4\U+30FC 1
 62
   179
420
  2432539
370
    25
100
AcDbSpline
210
0.0
220
0.0
230
1.0
 70
     8
 71
     3
 72
     8
 73
     4
 74
     0
 42
0.0000000001
 43
0.0000000001
 40
0.0
 40
0.0
 40
0.0
 40
0.0
 40
1.0
 40
1.0
 40
1.0
 40
1.0
 10
156.632644275078
 20
91.17376299803989
 30
0.0
 10
156.3976887629839
 20
91.17376299803989
 30
0.0
 10
156.205452434907
 20
90.9877278418364
 30
0.0
 10
156.205452434907
 20
90.75759546342172
 30
0.0
  0
SPLINE
  5
F0
330
1F
100
AcDbEntity
  8
\U+30EC\U+30A4\U+30E4\U+30FC 1
 62
   179
420
  2432539
370
    25
100
AcDbSpline
210
0.0
220
0.0
230
1.0
 70
     8
 71
     3
 72
     8
 73
     4
 74
     0
 42
0.0000000001
 43
0.0000000001
 40
0.0
 40
0.0
 40
0.0
 40
0.0
 40
1.0
 40
1.0
 40
1.0
 40
1.0
 10
156.205452434907
 20
80.91151256657768
 30
0.0
 10
156.205452434907
 20
80.71514212391844
 30
0.0
 10
156.28882374565
 20
80.6331488513695
 30
0.0
 10
156.4910508506342
 20
80.6331488513695
 30
0.0
  0
SPLINE
  5
F1
330
1F
100
AcDbEntity
  8
\U+30EC\U+30A4\U+30E4\U+30FC 1
 62
   179
420
  2432539
370
    25
100
AcDbSpline
210
0.0
220
0.0
230
1.0
 70
     8
 71
     3
 72
    11
 73
     7
 74
     0
 42
0.0000000001
 43
0.0000000001
 40
0.0
 40
0.0
 40
0.0
 40
0.0
 40
1.0
 40
1.0
 40
1.0
 40
2.0
 40
2.0
 40
2.0
 40
2.0
 10
184.5623778835469
 20
79.14348956354746
 30
0.0
 10
184.6960475883746
 20
79.14348956354746
 30
0.0
 10
184.7525471543327
 20
79.1965440340203
 30
0.0
 10
184.7525471543327
 20
79.32814668155686
 30
0.0
 10
184.7525471543327
 20
79.32814668155686
 30
0.0
 10
184.7525471543327
 20
79.35364038814771
 30
0.0
 10
184.7525471543327
 20
79.35364038814771
 30
0.0
  0
SPLINE
  5
F2
330
1F
100
AcDbEntity
  8
\U+30EC\U+30A4\U+30E4\U+30FC 1
 62
   179
420
  2432539
370
    25
100
AcDbSpline
210
0.0
220
0.0
230
1.0
 70
     8
 71
     3
 72
    14
 73
    10
 74
     0
 42
0.0000000001
 43
0.0000000001
 40
0.0
 40
0.0
 40
0.0
 40
0.0
 40
1.0
 40
1.0
 40
1.0
 40
2.0
 40
2.0
 40
2.0
 40
3.0
 40
3.0
 40
3.0
 40
3.0
 10
178.9513508667205
 20
80.6331488513695
 30
0.0
 10
178.9513508667205
 20
80.6331488513695
 30
0.0
 10
178.9575520385939
 20
79.32814668155686
 30
0.0
 10
178.9575520385939
 20
79.32814668155686
 30
0.0
 10
178.9575520385939
 20
79.1965440340203
 30
0.0
 10
179.013362585455
 20
79.14348956354746
 30
0.0
 10
179.1477213093797
 20
79.14348956354746
 30
0.0
 10
179.1477213093797
 20
79.14348956354746
 30
0.0
 10
184.5620333739984
 20
79.14348956354746
 30
0.0
 10
184.5620333739984
 20
79.14348956354746
 30
0.0
  0
SPLINE
  5
F3
330
1F
100
AcDbEntity
  8
\U+30EC\U+30A4\U+30E4\U+30FC 1
  6
AI-Linetype-1
 62
   179
420
  2432539
370
    13
100
AcDbSpline
210
0.0
220
0.0
230
1.0
 70
    11
 71
     3
 72
    17
 73
    13
 74
     0
 42
0.0000000001
 43
0.0000000001
 40
0.0
 40
0.0
 40
0.0
 40
0.0
 40
1.0
 40
1.0
 40
1.0
 40
2.0
 40
2.0
 40
2.0
 40
3.0
 40
3.0
 40
3.0
 40
4.0
 40
4.0
 40
4.0
 40
4.0
 10
10.44673529469734
 20
87.8547580075502
 30
0.0
 10
10.44673529469734
 20
87.23326278201114
 30
0.0
 10
9.942717825205293
 20
86.72958982206761
 30
0.0
 10
9.320878090117697
 20
86.72958982206761
 30
0.0
 10
8.70024413844994
 20
86.72958982206761
 30
0.0
 10
8.196915688054938
 20
87.23326278201114
 30
0.0
 10
8.196915688054938
 20
87.8547580075502
 30
0.0
 10
8.196915688054938
 20
88.47556421399223
 30
0.0
 10
8.70024413844994
 20
88.9785481548387
 30
0.0
 10
9.320878090117697
 20
88.9785481548387
 30
0.0
 10
9.942717825205293
 20
88.9785481548387
 30
0.0
 10
10.44673529469734
 20
88.47556421399223
 30
0.0
 10
10.44673529469734
 20
87.8547580075502
 30
0.0
  0
POLYLINE
  5
F5
330
1F
100
AcDbEntity
  8
\U+30EC\U+30A4\U+30E4\U+30FC 1
 62
   179
420
  2432539
370
    13
100
AcDb2dPolyline
 66
     1
 10
0.0
 20
0.0
 30
0.0
  0
VERTEX
  5
F6
330
F5
100
AcDbEntity
  8
\U+30EC\U+30A4\U+30E4\U+30FC 1
 62
   179
420
  2432539
370
    13
100
AcDbVertex
100
AcDb2dVertex
 10
9.32173936398901
 20
89.50289168769372
 30
0.0
  0
VERTEX
  5
F7
330
F5
100
AcDbEntity
  8
\U+30EC\U+30A4\U+30E4\U+30FC 1
 62
   179
420
  2432539
370
    13
100
AcDbVertex
100
AcDb2dVertex
 10
9.32173936398901
 20
86.20524628921258
 30
0.0
  0
SEQEND
  5
F8
330
F5
100
AcDbEntity
  8
\U+30EC\U+30A4\U+30E4\U+30FC 1
370
    13
  0
POLYLINE
  5
F9
330
1F
100
AcDbEntity
  8
\U+30EC\U+30A4\U+30E4\U+30FC 1
 62
   179
420
  2432539
370
    13
100
AcDb2dPolyline
 66
     1
 10
0.0
 20
0.0
 30
0.0
  0
VERTEX
  5
FA
330
F9
100
AcDbEntity
  8
\U+30EC\U+30A4\U+30E4\U+30FC 1
 62
   179
420
  2432539
370
    13
100
AcDbVertex
100
AcDb2dVertex
 10
7.672227645651388
 20
87.8533799693561
 30
0.0
  0
VERTEX
  5
FB
330
F9
100
AcDbEntity
  8
\U+30EC\U+30A4\U+30E4\U+30FC 1
 62
   179
420
  2432539
370
    13
100
AcDbVertex
100
AcDb2dVertex
 10
10.97073431800384
 20
87.8533799693561
 30
0.0
  0
SEQEND
  5
FC
330
F9
100
AcDbEntity
  8
\U+30EC\U+30A4\U+30E4\U+30FC 1
370
    13
  0
SPLINE
  5
FD
330
1F
100
AcDbEntity
  8
\U+30EC\U+30A4\U+30E4\U+30FC 1
  6
AI-Linetype-2
 62
   179
420
  2432539
370
    13
100
AcDbSpline
210
0.0
220
0.0
230
1.0
 70
    11
 71
     3
 72
    17
 73
    13
 74
     0
 42
0.0000000001
 43
0.0000000001
 40
0.0
 40
0.0
 40
0.0
 40
0.0
 40
1.0
 40
1.0
 40
1.0
 40
2.0
 40
2.0
 40
2.0
 40
3.0
 40
3.0
 40
3.0
 40
4.0
 40
4.0
 40
4.0
 40
4.0
 10
31.81666258970209
 20
87.8547580075502
 30
0.0
 10
31.81666258970209
 20
87.23326278201114
 30
0.0
 10
31.31367864885561
 20
86.72958982206761
 30
0.0
 10
30.69183891376801
 20
86.72958982206761
 30
0.0
 10
30.07103270732599
 20
86.72958982206761
 30
0.0
 10
29.56787651170525
 20
87.23326278201114
 30
0.0
 10
29.56787651170525
 20
87.8547580075502
 30
0.0
 10
29.56787651170525
 20
88.47556421399223
 30
0.0
 10
30.07103270732599
 20
88.9785481548387
 30
0.0
 10
30.69183891376801
 20
88.9785481548387
 30
0.0
 10
31.31367864885561
 20
88.9785481548387
 30
0.0
 10
31.81666258970209
 20
88.47556421399223
 30
0.0
 10
31.81666258970209
 20
87.8547580075502
 30
0.0
  0
POLYLINE
  5
FF
330
1F
100
AcDbEntity
  8
\U+30EC\U+30A4\U+30E4\U+30FC 1
 62
   179
420
  2432539
370
    13
100
AcDb2dPolyline
 66
     1
 10
0.0
 20
0.0
 30
0.0
  0
VERTEX
  5
100
330
FF
100
AcDbEntity
  8
\U+30EC\U+30A4\U+30E4\U+30FC 1
 62
   179
420
  2432539
370
    13
100
AcDbVertex
100
AcDb2dVertex
 10
30.69218342331654
 20
89.50289168769372
 30
0.0
  0
VERTEX
  5
101
330
FF
100
AcDbEntity
  8
\U+30EC\U+30A4\U+30E4\U+30FC 1
 62
   179
420
  2432539
370
    13
100
AcDbVertex
100
AcDb2dVertex
 10
30.69218342331654
 20
86.20524628921258
 30
0.0
  0
SEQEND
  5
102
330
FF
100
AcDbEntity
  8
\U+30EC\U+30A4\U+30E4\U+30FC 1
370
    13
  0
POLYLINE
  5
103
330
1F
100
AcDbEntity
  8
\U+30EC\U+30A4\U+30E4\U+30FC 1
 62
   179
420
  2432539
370
    13
100
AcDb2dPolyline
 66
     1
 10
0.0
 20
0.0
 30
0.0
  0
VERTEX
  5
104
330
103
100
AcDbEntity
  8
\U+30EC\U+30A4\U+30E4\U+30FC 1
 62
   179
420
  2432539
370
    13
100
AcDbVertex
100
AcDb2dVertex
 10
29.04301621452744
 20
87.8533799693561
 30
0.0
  0
VERTEX
  5
105
330
103
100
AcDbEntity
  8
\U+30EC\U+30A4\U+30E4\U+30FC 1
 62
   179
420
  2432539
370
    13
100
AcDbVertex
100
AcDb2dVertex
 10
32.34135063210564
 20
87.8533799693561
 30
0.0
  0
SEQEND
  5
106
330
103
100
AcDbEntity
  8
\U+30EC\U+30A4\U+30E4\U+30FC 1
370
    13
  0
SPLINE
  5
107
330
1F
100
AcDbEntity
  8
\U+30EC\U+30A4\U+30E4\U+30FC 1
  6
AI-Linetype-3
 62
   179
420
  2432539
370
    13
100
AcDbSpline
210
0.0
220
0.0
230
1.0
 70
    11
 71
     3
 72
    17
 73
    13
 74
     0
 42
0.0000000001
 43
0.0000000001
 40
0.0
 40
0.0
 40
0.0
 40
0.0
 40
1.0
 40
1.0
 40
1.0
 40
2.0
 40
2.0
 40
2.0
 40
3.0
 40
3.0
 40
3.0
 40
4.0
 40
4.0
 40
4.0
 40
4.0
 10
58.40453150666623
 20
87.8547580075502
 30
0.0
 10
58.40453150666623
 20
87.23326278201114
 30
0.0
 10
57.90120305627123
 20
86.72958982206761
 30
0.0
 10
57.27936332118363
 20
86.72958982206761
 30
0.0
 10
56.65821260519309
 20
86.72958982206761
 30
0.0
 10
56.15557317389514
 20
87.23326278201114
 30
0.0
 10
56.15557317389514
 20
87.8547580075502
 30
0.0
 10
56.15557317389514
 20
88.47556421399223
 30
0.0
 10
56.65821260519309
 20
88.9785481548387
 30
0.0
 10
57.27936332118363
 20
88.9785481548387
 30
0.0
 10
57.90120305627123
 20
88.9785481548387
 30
0.0
 10
58.40453150666623
 20
88.47556421399223
 30
0.0
 10
58.40453150666623
 20
87.8547580075502
 30
0.0
  0
POLYLINE
  5
109
330
1F
100
AcDbEntity
  8
\U+30EC\U+30A4\U+30E4\U+30FC 1
 62
   179
420
  2432539
370
    13
100
AcDb2dPolyline
 66
     1
 10
0.0
 20
0.0
 30
0.0
  0
VERTEX
  5
10A
330
109
100
AcDbEntity
  8
\U+30EC\U+30A4\U+30E4\U+30FC 1
 62
   179
420
  2432539
370
    13
100
AcDbVertex
100
AcDb2dVertex
 10
57.28039684982921
 20
89.50289168769372
 30
0.0
  0
VERTEX
  5
10B
330
109
100
AcDbEntity
  8
\U+30EC\U+30A4\U+30E4\U+30FC 1
 62
   179
420
  2432539
370
    13
100
AcDbVertex
100
AcDb2dVertex
 10
57.28039684982921
 20
86.20524628921258
 30
0.0
  0
SEQEND
  5
10C
330
109
100
AcDbEntity
  8
\U+30EC\U+30A4\U+30E4\U+30FC 1
370
    13
  0
POLYLINE
  5
10D
330
1F
100
AcDbEntity
  8
\U+30EC\U+30A4\U+30E4\U+30FC 1
 62
   179
420
  2432539
370
    13
100
AcDb2dPolyline
 66
     1
 10
0.0
 20
0.0
 30
0.0
  0
VERTEX
  5
10E
330
10D
100
AcDbEntity
  8
\U+30EC\U+30A4\U+30E4\U+30FC 1
 62
   179
420
  2432539
370
    13
100
AcDbVertex
100
AcDb2dVertex
 10
55.63019611239454
 20
87.8533799693561
 30
0.0
  0
VERTEX
  5
10F
330
10D
100
AcDbEntity
  8
\U+30EC\U+30A4\U+30E4\U+30FC 1
 62
   179
420
  2432539
370
    13
100
AcDbVertex
100
AcDb2dVertex
 10
58.92853052997273
 20
87.8533799693561
 30
0.0
  0
SEQEND
  5
110
330
10D
100
AcDbEntity
  8
\U+30EC\U+30A4\U+30E4\U+30FC 1
370
    13
  0
SPLINE
  5
111
330
1F
100
AcDbEntity
  8
\U+30EC\U+30A4\U+30E4\U+30FC 1
  6
AI-Linetype-4
 62
   179
420
  2432539
370
    13
100
AcDbSpline
210
0.0
220
0.0
230
1.0
 70
    11
 71
     3
 72
    17
 73
    13
 74
     0
 42
0.0000000001
 43
0.0000000001
 40
0.0
 40
0.0
 40
0.0
 40
0.0
 40
1.0
 40
1.0
 40
1.0
 40
2.0
 40
2.0
 40
2.0
 40
3.0
 40
3.0
 40
3.0
 40
4.0
 40
4.0
 40
4.0
 40
4.0
 10
79.77687036851064
 20
87.8547580075502
 30
0.0
 10
79.77687036851064
 20
87.23326278201114
 30
0.0
 10
79.2728528990186
 20
86.72958982206761
 30
0.0
 10
78.65170218302805
 20
86.72958982206761
 30
0.0
 10
78.03089597658602
 20
86.72958982206761
 30
0.0
 10
77.52756752619104
 20
87.23326278201114
 30
0.0
 10
77.52756752619104
 20
87.8547580075502
 30
0.0
 10
77.52756752619104
 20
88.47556421399223
 30
0.0
 10
78.03089597658602
 20
88.9785481548387
 30
0.0
 10
78.65170218302805
 20
88.9785481548387
 30
0.0
 10
79.2728528990186
 20
88.9785481548387
 30
0.0
 10
79.77687036851064
 20
88.47556421399223
 30
0.0
 10
79.77687036851064
 20
87.8547580075502
 30
0.0
  0
POLYLINE
  5
113
330
1F
100
AcDbEntity
  8
\U+30EC\U+30A4\U+30E4\U+30FC 1
 62
   179
420
  2432539
370
    13
100
AcDb2dPolyline
 66
     1
 10
0.0
 20
0.0
 30
0.0
  0
VERTEX
  5
114
330
113
100
AcDbEntity
  8
\U+30EC\U+30A4\U+30E4\U+30FC 1
 62
   179
420
  2432539
370
    13
100
AcDbVertex
100
AcDb2dVertex
 10
78.65204669257658
 20
89.50289168769372
 30
0.0
  0
VERTEX
  5
115
330
113
100
AcDbEntity
  8
\U+30EC\U+30A4\U+30E4\U+30FC 1
 62
   179
420
  2432539
370
    13
100
AcDbVertex
100
AcDb2dVertex
 10
78.65204669257658
 20
86.20524628921258
 30
0.0
  0
SEQEND
  5
116
330
113
100
AcDbEntity
  8
\U+30EC\U+30A4\U+30E4\U+30FC 1
370
    13
  0
POLYLINE
  5
117
330
1F
100
AcDbEntity
  8
\U+30EC\U+30A4\U+30E4\U+30FC 1
 62
   179
420
  2432539
370
    13
100
AcDb2dPolyline
 66
     1
 10
0.0
 20
0.0
 30
0.0
  0
VERTEX
  5
118
330
117
100
AcDbEntity
  8
\U+30EC\U+30A4\U+30E4\U+30FC 1
 62
   179
420
  2432539
370
    13
100
AcDbVertex
100
AcDb2dVertex
 10
77.00287948378748
 20
87.8533799693561
 30
0.0
  0
VERTEX
  5
119
330
117
100
AcDbEntity
  8
\U+30EC\U+30A4\U+30E4\U+30FC 1
 62
   179
420
  2432539
370
    13
100
AcDbVertex
100
AcDb2dVertex
 10
80.3015584109142
 20
87.8533799693561
 30
0.0
  0
SEQEND
  5
11A
330
117
100
AcDbEntity
  8
\U+30EC\U+30A4\U+30E4\U+30FC 1
370
    13
  0
SPLINE
  5
11B
330
1F
100
AcDbEntity
  8
\U+30EC\U+30A4\U+30E4\U+30FC 1
  6
AI-Linetype-5
 62
   179
420
  2432539
370
    13
100
AcDbSpline
210
0.0
220
0.0
230
1.0
 70
     8
 71
     3
 72
     8
 73
     4
 74
     0
 42
0.0000000001
 43
0.0000000001
 40
0.0
 40
0.0
 40
0.0
 40
0.0
 40
1.0
 40
1.0
 40
1.0
 40
1.0
 10
185.4277858694417
 20
83.11637367713757
 30
0.0
 10
188.314086866984
 20
83.11637367713757
 30
0.0
 10
191.0326117143946
 20
84.43584524798827
 30
0.0
 10
192.7713514058002
 20
86.68273652346821
 30
0.0
  0
SPLINE
  5
11D
330
1F
100
AcDbEntity
  8
\U+30EC\U+30A4\U+30E4\U+30FC 1
  6
AI-Linetype-6
 62
   179
420
  2432539
370
    13
100
AcDbSpline
210
0.0
220
0.0
230
1.0
 70
     8
 71
     3
 72
     8
 73
     4
 74
     0
 42
0.0000000001
 43
0.0000000001
 40
0.0
 40
0.0
 40
0.0
 40
0.0
 40
1.0
 40
1.0
 40
1.0
 40
1.0
 10
161.1650118954726
 20
90.62805987317633
 30
0.0
 10
161.1887830543209
 20
90.35589732984158
 30
0.0
 10
161.3103949249502
 20
90.24772133160474
 30
0.0
 10
161.5908256974495
 20
90.24772133160474
 30
0.0
  0
SPLINE
  5
11F
330
1F
100
AcDbEntity
  8
\U+30EC\U+30A4\U+30E4\U+30FC 1
  6
AI-Linetype-7
 62
   179
420
  2432539
370
    13
100
AcDbSpline
210
0.0
220
0.0
230
1.0
 70
     8
 71
     3
 72
     8
 73
     4
 74
     0
 42
0.0000000001
 43
0.0000000001
 40
0.0
 40
0.0
 40
0.0
 40
0.0
 40
1.0
 40
1.0
 40
1.0
 40
1.0
 10
178.7570474813524
 20
83.07296547402343
 30
0.0
 10
178.7081271254619
 20
83.10259329519658
 30
0.0
 10
178.6609293173139
 20
83.11775171533168
 30
0.0
 10
178.6027072036132
 20
83.11775171533168
 30
0.0
  0
POLYLINE
  5
121
330
1F
100
AcDbEntity
  8
\U+30EC\U+30A4\U+30E4\U+30FC 1
  6
AI-Linetype-8
 62
   179
420
  2432539
370
    13
100
AcDb2dPolyline
 66
     1
 10
0.0
 20
0.0
 30
0.0
  0
VERTEX
  5
122
330
121
100
AcDbEntity
  8
\U+30EC\U+30A4\U+30E4\U+30FC 1
  6
AI-Linetype-8
 62
   179
420
  2432539
370
    13
100
AcDbVertex
100
AcDb2dVertex
 10
184.1527560303507
 20
82.22064885097262
 30
0.0
  0
VERTEX
  5
123
330
121
100
AcDbEntity
  8
\U+30EC\U+30A4\U+30E4\U+30FC 1
  6
AI-Linetype-8
 62
   179
420
  2432539
370
    13
100
AcDbVertex
100
AcDb2dVertex
 10
184.1527560303507
 20
79.14211152535337
 30
0.0
  0
SEQEND
  5
124
330
121
100
AcDbEntity
  8
\U+30EC\U+30A4\U+30E4\U+30FC 1
  6
AI-Linetype-8
370
    13
  0
SPLINE
  5
126
330
1F
100
AcDbEntity
  8
\U+30EC\U+30A4\U+30E4\U+30FC 1
  6
AI-Linetype-9
 62
   179
420
  2432539
370
    13
100
AcDbSpline
210
0.0
220
0.0
230
1.0
 70
     8
 71
     3
 72
     8
 73
     4
 74
     0
 42
0.0000000001
 43
0.0000000001
 40
0.0
 40
0.0
 40
0.0
 40
0.0
 40
1.0
 40
1.0
 40
1.0
 40
1.0
 10
179.8784260618012
 20
82.22064885097262
 30
0.0
 10
179.8784260618012
 20
82.33089190650061
 30
0.0
 10
179.8415635401091
 20
82.39634872072035
 30
0.0
 10
179.7461343951676
 20
82.4549153439696
 30
0.0
  0
POLYLINE
  5
128
330
1F
100
AcDbEntity
  8
\U+30EC\U+30A4\U+30E4\U+30FC 1
  6
AI-Linetype-10
 62
   179
420
  2432539
370
    13
100
AcDb2dPolyline
 66
     1
 10
0.0
 20
0.0
 30
0.0
  0
VERTEX
  5
129
330
128
100
AcDbEntity
  8
\U+30EC\U+30A4\U+30E4\U+30FC 1
  6
AI-Linetype-10
 62
   179
420
  2432539
370
    13
100
AcDbVertex
100
AcDb2dVertex
 10
178.7570474813524
 20
83.07296547402343
 30
0.0
  0
VERTEX
  5
12A
330
128
100
AcDbEntity
  8
\U+30EC\U+30A4\U+30E4\U+30FC 1
  6
AI-Linetype-10
 62
   179
420
  2432539
370
    13
100
AcDbVertex
100
AcDb2dVertex
 10
179.7468234142647
 20
82.4549153439696
 30
0.0
  0
SEQEND
  5
12B
330
128
100
AcDbEntity
  8
\U+30EC\U+30A4\U+30E4\U+30FC 1
  6
AI-Linetype-10
370
    13
  0
POLYLINE
  5
12D
330
1F
100
AcDbEntity
  8
\U+30EC\U+30A4\U+30E4\U+30FC 1
  6
AI-Linetype-11
 62
   179
420
  2432539
370
    13
100
AcDb2dPolyline
 66
     1
 10
0.0
 20
0.0
 30
0.0
  0
VERTEX
  5
12E
330
12D
100
AcDbEntity
  8
\U+30EC\U+30A4\U+30E4\U+30FC 1
  6
AI-Linetype-11
 62
   179
420
  2432539
370
    13
100
AcDbVertex
100
AcDb2dVertex
 10
161.5908256974495
 20
90.24772133160474
 30
0.0
  0
VERTEX
  5
12F
330
12D
100
AcDbEntity
  8
\U+30EC\U+30A4\U+30E4\U+30FC 1
  6
AI-Linetype-11
 62
   179
420
  2432539
370
    13
100
AcDbVertex
100
AcDb2dVertex
 10
165.5575086391662
 20
90.24772133160474
 30
0.0
  0
SEQEND
  5
130
330
12D
100
AcDbEntity
  8
\U+30EC\U+30A4\U+30E4\U+30FC 1
  6
AI-Linetype-11
370
    13
  0
POLYLINE
  5
132
330
1F
100
AcDbEntity
  8
\U+30EC\U+30A4\U+30E4\U+30FC 1
  6
AI-Linetype-12
 62
   179
420
  2432539
370
    13
100
AcDb2dPolyline
 66
     1
 10
0.0
 20
0.0
 30
0.0
  0
VERTEX
  5
133
330
132
100
AcDbEntity
  8
\U+30EC\U+30A4\U+30E4\U+30FC 1
  6
AI-Linetype-12
 62
   179
420
  2432539
370
    13
100
AcDbVertex
100
AcDb2dVertex
 10
202.6715223017627
 20
90.24772133160474
 30
0.0
  0
VERTEX
  5
134
330
132
100
AcDbEntity
  8
\U+30EC\U+30A4\U+30E4\U+30FC 1
  6
AI-Linetype-12
 62
   179
420
  2432539
370
    13
100
AcDbVertex
100
AcDb2dVertex
 10
200.1138834135132
 20
90.24772133160474
 30
0.0
  0
SEQEND
  5
135
330
132
100
AcDbEntity
  8
\U+30EC\U+30A4\U+30E4\U+30FC 1
  6
AI-Linetype-12
370
    13
  0
POLYLINE
  5
137
330
1F
100
AcDbEntity
  8
\U+30EC\U+30A4\U+30E4\U+30FC 1
  6
AI-Linetype-13
 62
   179
420
  2432539
370
    13
100
AcDb2dPolyline
 66
     1
 10
0.0
 20
0.0
 30
0.0
  0
VERTEX
  5
138
330
137
100
AcDbEntity
  8
\U+30EC\U+30A4\U+30E4\U+30FC 1
  6
AI-Linetype-13
 62
   179
420
  2432539
370
    13
100
AcDbVertex
100
AcDb2dVertex
 10
179.8784260618012
 20
82.22064885097262
 30
0.0
  0
VERTEX
  5
139
330
137
100
AcDbEntity
  8
\U+30EC\U+30A4\U+30E4\U+30FC 1
  6
AI-Linetype-13
 62
   179
420
  2432539
370
    13
100
AcDbVertex
100
AcDb2dVertex
 10
179.8784260618012
 20
79.14211152535337
 30
0.0
  0
SEQEND
  5
13A
330
137
100
AcDbEntity
  8
\U+30EC\U+30A4\U+30E4\U+30FC 1
  6
AI-Linetype-13
370
    13
  0
SPLINE
  5
13C
330
1F
100
AcDbEntity
  8
\U+30EC\U+30A4\U+30E4\U+30FC 1
  6
AI-Linetype-14
 62
   179
420
  2432539
370
    13
100
AcDbSpline
210
0.0
220
0.0
230
1.0
 70
     8
 71
     3
 72
     8
 73
     4
 74
     0
 42
0.0000000001
 43
0.0000000001
 40
0.0
 40
0.0
 40
0.0
 40
0.0
 40
1.0
 40
1.0
 40
1.0
 40
1.0
 10
166.4535779748797
 20
84.61774628960946
 30
0.0
 10
166.2975151493978
 20
86.36785479611638
 30
0.0
 10
166.1397297761734
 20
88.11727428352624
 30
0.0
 10
165.9833224411431
 20
89.86669377093611
 30
0.0
  0
SPLINE
  5
13E
330
1F
100
AcDbEntity
  8
\U+30EC\U+30A4\U+30E4\U+30FC 1
  6
AI-Linetype-15
 62
   179
420
  2432539
370
    13
100
AcDbSpline
210
0.0
220
0.0
230
1.0
 70
     8
 71
     3
 72
     8
 73
     4
 74
     0
 42
0.0000000001
 43
0.0000000001
 40
0.0
 40
0.0
 40
0.0
 40
0.0
 40
1.0
 40
1.0
 40
1.0
 40
1.0
 10
200.1138834135132
 20
90.24772133160474
 30
0.0
 10
198.5718586743154
 20
90.24772133160474
 30
0.0
 10
196.8444877980111
 20
89.73026798972022
 30
0.0
 10
195.3341579372776
 20
88.8627929465343
 30
0.0
  0
POLYLINE
  5
140
330
1F
100
AcDbEntity
  8
\U+30EC\U+30A4\U+30E4\U+30FC 1
  6
AI-Linetype-16
 62
   179
420
  2432539
370
    13
100
AcDb2dPolyline
 66
     1
 10
0.0
 20
0.0
 30
0.0
  0
VERTEX
  5
141
330
140
100
AcDbEntity
  8
\U+30EC\U+30A4\U+30E4\U+30FC 1
  6
AI-Linetype-16
 62
   179
420
  2432539
370
    13
100
AcDbVertex
100
AcDb2dVertex
 10
205.1147840199019
 20
90.24772133160474
 30
0.0
  0
VERTEX
  5
142
330
140
100
AcDbEntity
  8
\U+30EC\U+30A4\U+30E4\U+30FC 1
  6
AI-Linetype-16
 62
   179
420
  2432539
370
    13
100
AcDbVertex
100
AcDb2dVertex
 10
209.508314292241
 20
90.24772133160474
 30
0.0
  0
SEQEND
  5
143
330
140
100
AcDbEntity
  8
\U+30EC\U+30A4\U+30E4\U+30FC 1
  6
AI-Linetype-16
370
    13
  0
SPLINE
  5
145
330
1F
100
AcDbEntity
  8
\U+30EC\U+30A4\U+30E4\U+30FC 1
  6
AI-Linetype-17
 62
   179
420
  2432539
370
    13
100
AcDbSpline
210
0.0
220
0.0
230
1.0
 70
     8
 71
     3
 72
     8
 73
     4
 74
     0
 42
0.0000000001
 43
0.0000000001
 40
0.0
 40
0.0
 40
0.0
 40
0.0
 40
1.0
 40
1.0
 40
1.0
 40
1.0
 10
161.149508965789
 20
90.79342445646832
 30
0.0
 10
161.1257378069408
 20
91.0662760189001
 30
0.0
 10
161.00447044586
 20
91.17376299803989
 30
0.0
 10
160.7236951638122
 20
91.17376299803989
 30
0.0
  0
SPLINE
  5
147
330
1F
100
AcDbEntity
  8
\U+30EC\U+30A4\U+30E4\U+30FC 1
  6
AI-Linetype-18
 62
   179
420
  2432539
370
    13
100
AcDbSpline
210
0.0
220
0.0
230
1.0
 70
     8
 71
     3
 72
     8
 73
     4
 74
     0
 42
0.0000000001
 43
0.0000000001
 40
0.0
 40
0.0
 40
0.0
 40
0.0
 40
1.0
 40
1.0
 40
1.0
 40
1.0
 10
193.4200628856728
 20
87.43170028196153
 30
0.0
 10
193.1368760367852
 20
87.15264754765629
 30
0.0
 10
193.0176757329956
 20
86.9996853081112
 30
0.0
 10
192.7706623867032
 20
86.68273652346821
 30
0.0
  0
SPLINE
  5
149
330
1F
100
AcDbEntity
  8
\U+30EC\U+30A4\U+30E4\U+30FC 1
  6
AI-Linetype-19
 62
   179
420
  2432539
370
    13
100
AcDbSpline
210
0.0
220
0.0
230
1.0
 70
     8
 71
     3
 72
     8
 73
     4
 74
     0
 42
0.0000000001
 43
0.0000000001
 40
0.0
 40
0.0
 40
0.0
 40
0.0
 40
1.0
 40
1.0
 40
1.0
 40
1.0
 10
165.9833224411431
 20
89.86738279003316
 30
0.0
 10
165.9592067727463
 20
90.14023435246494
 30
0.0
 10
165.837594902117
 20
90.24772133160474
 30
0.0
 10
165.5575086391662
 20
90.24772133160474
 30
0.0
  0
SPLINE
  5
14B
330
1F
100
AcDbEntity
  8
\U+30EC\U+30A4\U+30E4\U+30FC 1
  6
AI-Linetype-20
 62
   179
420
  2432539
370
    13
100
AcDbSpline
210
0.0
220
0.0
230
1.0
 70
     8
 71
     3
 72
     8
 73
     4
 74
     0
 42
0.0000000001
 43
0.0000000001
 40
0.0
 40
0.0
 40
0.0
 40
0.0
 40
1.0
 40
1.0
 40
1.0
 40
1.0
 10
161.1650118954726
 20
90.62805987317633
 30
0.0
 10
161.1594997426963
 20
90.68318140094031
 30
0.0
 10
161.156054647211
 20
90.73830292870431
 30
0.0
 10
161.149508965789
 20
90.79342445646832
 30
0.0
  0
SPLINE
  5
14D
330
1F
100
AcDbEntity
  8
\U+30EC\U+30A4\U+30E4\U+30FC 1
  6
AI-Linetype-21
 62
   179
420
  2432539
370
    13
100
AcDbSpline
210
0.0
220
0.0
230
1.0
 70
     8
 71
     3
 72
     8
 73
     4
 74
     0
 42
0.0000000001
 43
0.0000000001
 40
0.0
 40
0.0
 40
0.0
 40
0.0
 40
1.0
 40
1.0
 40
1.0
 40
1.0
 10
166.7970539947591
 20
84.24429793900838
 30
0.0
 10
170.712749523294
 20
83.48913300864162
 30
0.0
 10
174.6112195744028
 20
83.11775171533168
 30
0.0
 10
178.6027072036132
 20
83.11775171533168
 30
0.0
  0
SPLINE
  5
14F
330
1F
100
AcDbEntity
  8
\U+30EC\U+30A4\U+30E4\U+30FC 1
  6
AI-Linetype-22
 62
   179
420
  2432539
370
    13
100
AcDbSpline
210
0.0
220
0.0
230
1.0
 70
     8
 71
     3
 72
     8
 73
     4
 74
     0
 42
0.0000000001
 43
0.0000000001
 40
0.0
 40
0.0
 40
0.0
 40
0.0
 40
1.0
 40
1.0
 40
1.0
 40
1.0
 10
184.2850476969843
 20
82.45560436306666
 30
0.0
 10
184.1896185520429
 20
82.39634872072035
 30
0.0
 10
184.1534450494478
 20
82.33089190650061
 30
0.0
 10
184.1534450494478
 20
82.22064885097262
 30
0.0
  0
POLYLINE
  5
151
330
1F
100
AcDbEntity
  8
\U+30EC\U+30A4\U+30E4\U+30FC 1
  6
AI-Linetype-23
 62
   179
420
  2432539
370
    13
100
AcDb2dPolyline
 66
     1
 10
0.0
 20
0.0
 30
0.0
  0
VERTEX
  5
152
330
151
100
AcDbEntity
  8
\U+30EC\U+30A4\U+30E4\U+30FC 1
  6
AI-Linetype-23
 62
   179
420
  2432539
370
    13
100
AcDbVertex
100
AcDb2dVertex
 10
202.6715223017627
 20
91.1462022341579
 30
0.0
  0
VERTEX
  5
153
330
151
100
AcDbEntity
  8
\U+30EC\U+30A4\U+30E4\U+30FC 1
  6
AI-Linetype-23
 62
   179
420
  2432539
370
    13
100
AcDbVertex
100
AcDb2dVertex
 10
202.6715223017627
 20
90.20086803300535
 30
0.0
  0
SEQEND
  5
154
330
151
100
AcDbEntity
  8
\U+30EC\U+30A4\U+30E4\U+30FC 1
  6
AI-Linetype-23
370
    13
  0
POLYLINE
  5
156
330
1F
100
AcDbEntity
  8
\U+30EC\U+30A4\U+30E4\U+30FC 1
  6
AI-Linetype-24
 62
   179
420
  2432539
370
    13
100
AcDb2dPolyline
 66
     1
 10
0.0
 20
0.0
 30
0.0
  0
VERTEX
  5
157
330
156
100
AcDbEntity
  8
\U+30EC\U+30A4\U+30E4\U+30FC 1
  6
AI-Linetype-24
 62
   179
420
  2432539
370
    13
100
AcDbVertex
100
AcDb2dVertex
 10
205.1147840199019
 20
91.1462022341579
 30
0.0
  0
VERTEX
  5
158
330
156
100
AcDbEntity
  8
\U+30EC\U+30A4\U+30E4\U+30FC 1
  6
AI-Linetype-24
 62
   179
420
  2432539
370
    13
100
AcDbVertex
100
AcDb2dVertex
 10
205.1147840199019
 20
90.20086803300535
 30
0.0
  0
SEQEND
  5
159
330
156
100
AcDbEntity
  8
\U+30EC\U+30A4\U+30E4\U+30FC 1
  6
AI-Linetype-24
370
    13
  0
POLYLINE
  5
15B
330
1F
100
AcDbEntity
  8
\U+30EC\U+30A4\U+30E4\U+30FC 1
  6
AI-Linetype-25
 62
   179
420
  2432539
370
    13
100
AcDb2dPolyline
 66
     1
 10
0.0
 20
0.0
 30
0.0
  0
VERTEX
  5
15C
330
15B
100
AcDbEntity
  8
\U+30EC\U+30A4\U+30E4\U+30FC 1
  6
AI-Linetype-25
 62
   179
420
  2432539
370
    13
100
AcDbVertex
100
AcDb2dVertex
 10
195.3341579372776
 20
88.86141490834021
 30
0.0
  0
VERTEX
  5
15D
330
15B
100
AcDbEntity
  8
\U+30EC\U+30A4\U+30E4\U+30FC 1
  6
AI-Linetype-25
 62
   179
420
  2432539
370
    13
100
AcDbVertex
100
AcDb2dVertex
 10
196.4772406192835
 20
87.35177406670373
 30
0.0
  0
SEQEND
  5
15E
330
15B
100
AcDbEntity
  8
\U+30EC\U+30A4\U+30E4\U+30FC 1
  6
AI-Linetype-25
370
    13
  0
POLYLINE
  5
160
330
1F
100
AcDbEntity
  8
\U+30EC\U+30A4\U+30E4\U+30FC 1
  6
AI-Linetype-26
 62
   179
420
  2432539
370
    13
100
AcDb2dPolyline
 66
     1
 10
0.0
 20
0.0
 30
0.0
  0
VERTEX
  5
161
330
160
100
AcDbEntity
  8
\U+30EC\U+30A4\U+30E4\U+30FC 1
  6
AI-Linetype-26
 62
   179
420
  2432539
370
    13
100
AcDbVertex
100
AcDb2dVertex
 10
193.4200628856728
 20
87.43170028196153
 30
0.0
  0
VERTEX
  5
162
330
160
100
AcDbEntity
  8
\U+30EC\U+30A4\U+30E4\U+30FC 1
  6
AI-Linetype-26
 62
   179
420
  2432539
370
    13
100
AcDbVertex
100
AcDb2dVertex
 10
194.4945881675222
 20
86.07639971806424
 30
0.0
  0
SEQEND
  5
163
330
160
100
AcDbEntity
  8
\U+30EC\U+30A4\U+30E4\U+30FC 1
  6
AI-Linetype-26
370
    13
  0
SPLINE
  5
165
330
1F
100
AcDbEntity
  8
\U+30EC\U+30A4\U+30E4\U+30FC 1
  6
AI-Linetype-27
 62
   179
420
  2432539
370
    13
100
AcDbSpline
210
0.0
220
0.0
230
1.0
 70
     8
 71
     3
 72
    68
 73
    64
 74
     0
 42
0.0000000001
 43
0.0000000001
 40
0.0
 40
0.0
 40
0.0
 40
0.0
 40
1.0
 40
1.0
 40
1.0
 40
2.0
 40
2.0
 40
2.0
 40
3.0
 40
3.0
 40
3.0
 40
4.0
 40
4.0
 40
4.0
 40
5.0
 40
5.0
 40
5.0
 40
6.0
 40
6.0
 40
6.0
 40
7.0
 40
7.0
 40
7.0
 40
8.0
 40
8.0
 40
8.0
 40
9.0
 40
9.0
 40
9.0
 40
10.0
 40
10.0
 40
10.0
 40
11.0
 40
11.0
 40
11.0
 40
12.0
 40
12.0
 40
12.0
 40
13.0
 40
13.0
 40
13.0
 40
14.0
 40
14.0
 40
14.0
 40
15.0
 40
15.0
 40
15.0
 40
16.0
 40
16.0
 40
16.0
 40
17.0
 40
17.0
 40
17.0
 40
18.0
 40
18.0
 40
18.0
 40
19.0
 40
19.0
 40
19.0
 40
20.0
 40
20.0
 40
20.0
 40
21.0
 40
21.0
 40
21.0
 40
21.0
 10
41.02850340771163
 20
80.46778426807751
 30
0.0
 10
41.02850340771163
 20
80.46778426807751
 30
0.0
 10
41.02850340771163
 20
82.21927081277852
 30
0.0
 10
41.02850340771163
 20
82.21927081277852
 30
0.0
 10
41.02850340771163
 20
82.27783743602777
 30
0.0
 10
40.9950859815047
 20
82.31504446726846
 30
0.0
 10
40.90930310392198
 20
82.34673934573276
 30
0.0
 10
40.68519964260648
 20
82.43286673286401
 30
0.0
 10
40.46057941696819
 20
82.51761608180115
 30
0.0
 10
40.23475340791006
 20
82.6023654307383
 30
0.0
 10
40.16895208414179
 20
82.6271701182321
 30
0.0
 10
40.10418428901909
 20
82.63199325191145
 30
0.0
 10
40.0270141501495
 20
82.639572461979
 30
0.0
 10
40.0270141501495
 20
82.639572461979
 30
0.0
 10
35.55459119119816
 20
82.85661347754974
 30
0.0
 10
35.55459119119816
 20
82.85661347754974
 30
0.0
 10
35.55459119119816
 20
82.85661347754974
 30
0.0
 10
16.56987575540614
 20
84.28908418031662
 30
0.0
 10
16.56987575540614
 20
84.28908418031662
 30
0.0
 10
16.56987575540614
 20
84.28908418031662
 30
0.0
 10
16.32269015433947
 20
84.28908418031662
 30
0.0
 10
16.32269015433947
 20
84.28908418031662
 30
0.0
 10
15.98627658020482
 20
84.28908418031662
 30
0.0
 10
15.71342501777303
 20
84.44962562992926
 30
0.0
 10
15.71342501777303
 20
84.64737411078261
 30
0.0
 10
15.71342501777303
 20
84.64737411078261
 30
0.0
 10
15.69895561673498
 20
84.7658853954752
 30
0.0
 10
15.69895561673498
 20
84.7658853954752
 30
0.0
 10
15.69895561673498
 20
84.7658853954752
 30
0.0
 10
15.69895561673498
 20
88.14483504740824
 30
0.0
 10
15.69895561673498
 20
88.14483504740824
 30
0.0
 10
15.69895561673498
 20
88.14483504740824
 30
0.0
 10
15.70739610067385
 20
89.15562606278054
 30
0.0
 10
15.70739610067385
 20
89.15562606278054
 30
0.0
 10
15.70739610067385
 20
89.15562606278054
 30
0.0
 10
15.70739610067385
 20
89.8570475035774
 30
0.0
 10
15.70739610067385
 20
89.8570475035774
 30
0.0
 10
15.70739610067385
 20
89.91699216502076
 30
0.0
 10
15.68775905640792
 20
89.9535101771644
 30
0.0
 10
15.63487684070934
 20
89.98451603653166
 30
0.0
 10
15.49707302129934
 20
90.07133244275995
 30
0.0
 10
15.3585801827923
 20
90.15539277260004
 30
0.0
 10
15.22112087293083
 20
90.24014212153719
 30
0.0
 10
15.18081325575341
 20
90.26563582812804
 30
0.0
 10
15.14067789335025
 20
90.27183700000148
 30
0.0
 10
15.09279106610528
 20
90.27734915277789
 30
0.0
 10
15.09279106610528
 20
90.27734915277789
 30
0.0
 10
14.00620795005748
 20
90.25185544618704
 30
0.0
 10
14.00620795005748
 20
90.25185544618704
 30
0.0
 10
14.00620795005748
 20
90.25185544618704
 30
0.0
 10
1.10604790553946
 20
90.25185544618704
 30
0.0
 10
1.10604790553946
 20
90.25185544618704
 30
0.0
 10
1.10604790553946
 20
90.25185544618704
 30
0.0
 10
0.9548082137369924
 20
90.25185544618704
 30
0.0
 10
0.9548082137369924
 20
90.25185544618704
 30
0.0
 10
0.7486192489447897
 20
90.25185544618704
 30
0.0
 10
0.5803263344903351
 20
90.41170787670264
 30
0.0
 10
0.5803263344903351
 20
90.60945635755597
 30
0.0
 10
0.5803263344903351
 20
90.60945635755597
 30
0.0
 10
0.5715413410029481
 20
90.72865666134562
 30
0.0
 10
0.5715413410029481
 20
90.72865666134562
 30
0.0
 10
0.5715413410029481
 20
90.72865666134562
 30
0.0
 10
0.5715413410029481
 20
91.08901364910275
 30
0.0
 10
0.5715413410029481
 20
91.08901364910275
 30
0.0
  0
SPLINE
  5
167
330
1F
100
AcDbEntity
  8
\U+30EC\U+30A4\U+30E4\U+30FC 1
  6
AI-Linetype-28
 62
   179
420
  2432539
370
    13
100
AcDbSpline
210
0.0
220
0.0
230
1.0
 70
     8
 71
     3
 72
    68
 73
    64
 74
     0
 42
0.0000000001
 43
0.0000000001
 40
0.0
 40
0.0
 40
0.0
 40
0.0
 40
1.0
 40
1.0
 40
1.0
 40
2.0
 40
2.0
 40
2.0
 40
3.0
 40
3.0
 40
3.0
 40
4.0
 40
4.0
 40
4.0
 40
5.0
 40
5.0
 40
5.0
 40
6.0
 40
6.0
 40
6.0
 40
7.0
 40
7.0
 40
7.0
 40
8.0
 40
8.0
 40
8.0
 40
9.0
 40
9.0
 40
9.0
 40
10.0
 40
10.0
 40
10.0
 40
11.0
 40
11.0
 40
11.0
 40
12.0
 40
12.0
 40
12.0
 40
13.0
 40
13.0
 40
13.0
 40
14.0
 40
14.0
 40
14.0
 40
15.0
 40
15.0
 40
15.0
 40
16.0
 40
16.0
 40
16.0
 40
17.0
 40
17.0
 40
17.0
 40
18.0
 40
18.0
 40
18.0
 40
19.0
 40
19.0
 40
19.0
 40
20.0
 40
20.0
 40
20.0
 40
21.0
 40
21.0
 40
21.0
 40
21.0
 10
46.9051472864508
 20
80.46778426807751
 30
0.0
 10
46.9051472864508
 20
80.46778426807751
 30
0.0
 10
46.9051472864508
 20
82.21927081277852
 30
0.0
 10
46.9051472864508
 20
82.21927081277852
 30
0.0
 10
46.9051472864508
 20
82.27783743602777
 30
0.0
 10
46.9382202031092
 20
82.31504446726846
 30
0.0
 10
47.02400308069192
 20
82.34673934573276
 30
0.0
 10
47.24810654200742
 20
82.43286673286401
 30
0.0
 10
47.47307127719424
 20
82.51761608180115
 30
0.0
 10
47.69786375760679
 20
82.6023654307383
 30
0.0
 10
47.76400959092359
 20
82.6271701182321
 30
0.0
 10
47.82981091469185
 20
82.63199325191145
 30
0.0
 10
47.9062920344644
 20
82.639572461979
 30
0.0
 10
47.9062920344644
 20
82.639572461979
 30
0.0
 10
52.37871499341574
 20
82.85661347754974
 30
0.0
 10
52.37871499341574
 20
82.85661347754974
 30
0.0
 10
52.37871499341574
 20
82.85661347754974
 30
0.0
 10
71.3627414101107
 20
84.28908418031662
 30
0.0
 10
71.3627414101107
 20
84.28908418031662
 30
0.0
 10
71.3627414101107
 20
84.28908418031662
 30
0.0
 10
71.61044377550017
 20
84.28908418031662
 30
0.0
 10
71.61044377550017
 20
84.28908418031662
 30
0.0
 10
71.94737411395761
 20
84.28908418031662
 30
0.0
 10
72.21953665729234
 20
84.44962562992926
 30
0.0
 10
72.21953665729234
 20
84.64737411078261
 30
0.0
 10
72.21953665729234
 20
84.64737411078261
 30
0.0
 10
72.23435056787892
 20
84.7658853954752
 30
0.0
 10
72.23435056787892
 20
84.7658853954752
 30
0.0
 10
72.23435056787892
 20
84.7658853954752
 30
0.0
 10
72.23435056787892
 20
88.14483504740824
 30
0.0
 10
72.23435056787892
 20
88.14483504740824
 30
0.0
 10
72.23435056787892
 20
88.14483504740824
 30
0.0
 10
72.2257378291658
 20
89.15562606278054
 30
0.0
 10
72.2257378291658
 20
89.15562606278054
 30
0.0
 10
72.2257378291658
 20
89.15562606278054
 30
0.0
 10
72.2257378291658
 20
89.8570475035774
 30
0.0
 10
72.2257378291658
 20
89.8570475035774
 30
0.0
 10
72.2257378291658
 20
89.91699216502076
 30
0.0
 10
72.24606389252877
 20
89.9535101771644
 30
0.0
 10
72.29842934390456
 20
89.98451603653166
 30
0.0
 10
72.43657767286308
 20
90.07133244275995
 30
0.0
 10
72.57507051137013
 20
90.15539277260004
 30
0.0
 10
72.71218531168307
 20
90.24014212153719
 30
0.0
 10
72.75300969318327
 20
90.26563582812804
 30
0.0
 10
72.7933173103607
 20
90.27183700000148
 30
0.0
 10
72.84051511850862
 20
90.27734915277789
 30
0.0
 10
72.84051511850862
 20
90.27734915277789
 30
0.0
 10
73.92709823455642
 20
90.25185544618704
 30
0.0
 10
73.92709823455642
 20
90.25185544618704
 30
0.0
 10
73.92709823455642
 20
90.25185544618704
 30
0.0
 10
86.82656925997739
 20
90.25185544618704
 30
0.0
 10
86.82656925997739
 20
90.25185544618704
 30
0.0
 10
86.82656925997739
 20
90.25185544618704
 30
0.0
 10
86.97780895177986
 20
90.25185544618704
 30
0.0
 10
86.97780895177986
 20
90.25185544618704
 30
0.0
 10
87.18434242612058
 20
90.25185544618704
 30
0.0
 10
87.35229083102651
 20
90.41170787670264
 30
0.0
 10
87.35229083102651
 20
90.60945635755597
 30
0.0
 10
87.35229083102651
 20
90.60945635755597
 30
0.0
 10
87.36176484361096
 20
90.72865666134562
 30
0.0
 10
87.36176484361096
 20
90.72865666134562
 30
0.0
 10
87.36176484361096
 20
90.72865666134562
 30
0.0
 10
87.36176484361096
 20
91.08901364910275
 30
0.0
 10
87.36176484361096
 20
91.08901364910275
 30
0.0
  0
POLYLINE
  5
169
330
1F
100
AcDbEntity
  8
\U+30EC\U+30A4\U+30E4\U+30FC 1
 62
   179
420
  2432539
370
    13
100
AcDb2dPolyline
 66
     1
 10
0.0
 20
0.0
 30
0.0
  0
VERTEX
  5
16A
330
169
100
AcDbEntity
  8
\U+30EC\U+30A4\U+30E4\U+30FC 1
 62
   179
420
  2432539
370
    13
100
AcDbVertex
100
AcDb2dVertex
 10
147.5375921940184
 20
89.68961586299427
 30
0.0
  0
VERTEX
  5
16B
330
169
100
AcDbEntity
  8
\U+30EC\U+30A4\U+30E4\U+30FC 1
 62
   179
420
  2432539
370
    13
100
AcDbVertex
100
AcDb2dVertex
 10
147.5375921940184
 20
82.20893552632278
 30
0.0
  0
SEQEND
  5
16C
330
169
100
AcDbEntity
  8
\U+30EC\U+30A4\U+30E4\U+30FC 1
370
    13
  0
POLYLINE
  5
16D
330
1F
100
AcDbEntity
  8
\U+30EC\U+30A4\U+30E4\U+30FC 1
370
     0
100
AcDb2dPolyline
 66
     1
 10
0.0
 20
0.0
 30
0.0
  0
VERTEX
  5
16E
330
16D
100
AcDbEntity
  8
\U+30EC\U+30A4\U+30E4\U+30FC 1
370
     0
100
AcDbVertex
100
AcDb2dVertex
 10
147.0714707748641
 20
89.35750865821618
 30
0.0
  0
VERTEX
  5
16F
330
16D
100
AcDbEntity
  8
\U+30EC\U+30A4\U+30E4\U+30FC 1
370
     0
100
AcDbVertex
100
AcDb2dVertex
 10
147.5575737478328
 20
91.17445201713694
 30
0.0
  0
VERTEX
  5
170
330
16D
100
AcDbEntity
  8
\U+30EC\U+30A4\U+30E4\U+30FC 1
370
     0
100
AcDbVertex
100
AcDb2dVertex
 10
148.0443657398986
 20
89.35750865821618
 30
0.0
  0
VERTEX
  5
171
330
16D
100
AcDbEntity
  8
\U+30EC\U+30A4\U+30E4\U+30FC 1
370
     0
100
AcDbVertex
100
AcDb2dVertex
 10
147.0714707748641
 20
89.35750865821618
 30
0.0
  0
SEQEND
  5
172
330
16D
100
AcDbEntity
  8
\U+30EC\U+30A4\U+30E4\U+30FC 1
370
     0
  0
HATCH
  5
173
330
1F
100
AcDbEntity
  8
\U+30EC\U+30A4\U+30E4\U+30FC 1
 62
   179
420
  2432539
100
AcDbHatch
 10
0.0
 20
0.0
 30
0.0
210
0.0
220
0.0
230
1.0
  2
SOLID
 70
     1
 71
     0
 91
        1
 92
        1
 93
        3
 72
     1
 10
147.0714707748641
 20
89.35750865821618
 11
147.5575737478328
 21
91.17445201713694
 72
     1
 10
147.5575737478328
 20
91.17445201713694
 11
148.0443657398986
 21
89.35750865821618
 72
     1
 10
148.0443657398986
 20
89.35750865821618
 11
147.0714707748641
 21
89.35750865821618
 97
        0
 75
     2
 76
     1
 98
        0
  0
POLYLINE
  5
174
330
1F
100
AcDbEntity
  8
\U+30EC\U+30A4\U+30E4\U+30FC 1
370
     0
100
AcDb2dPolyline
 66
     1
 10
0.0
 20
0.0
 30
0.0
  0
VERTEX
  5
175
330
174
100
AcDbEntity
  8
\U+30EC\U+30A4\U+30E4\U+30FC 1
370
     0
100
AcDbVertex
100
AcDb2dVertex
 10
147.0714707748641
 20
82.54104273110086
 30
0.0
  0
VERTEX
  5
176
330
174
100
AcDbEntity
  8
\U+30EC\U+30A4\U+30E4\U+30FC 1
370
     0
100
AcDbVertex
100
AcDb2dVertex
 10
147.5575737478328
 20
80.72341035308304
 30
0.0
  0
VERTEX
  5
177
330
174
100
AcDbEntity
  8
\U+30EC\U+30A4\U+30E4\U+30FC 1
370
     0
100
AcDbVertex
100
AcDb2dVertex
 10
148.0443657398986
 20
82.54104273110086
 30
0.0
  0
VERTEX
  5
178
330
174
100
AcDbEntity
  8
\U+30EC\U+30A4\U+30E4\U+30FC 1
370
     0
100
AcDbVertex
100
AcDb2dVertex
 10
147.0714707748641
 20
82.54104273110086
 30
0.0
  0
SEQEND
  5
179
330
174
100
AcDbEntity
  8
\U+30EC\U+30A4\U+30E4\U+30FC 1
370
     0
  0
HATCH
  5
17A
330
1F
100
AcDbEntity
  8
\U+30EC\U+30A4\U+30E4\U+30FC 1
 62
   179
420
  2432539
100
AcDbHatch
 10
0.0
 20
0.0
 30
0.0
210
0.0
220
0.0
230
1.0
  2
SOLID
 70
     1
 71
     0
 91
        1
 92
        1
 93
        3
 72
     1
 10
147.0714707748641
 20
82.54104273110086
 11
147.5575737478328
 21
80.72341035308304
 72
     1
 10
147.5575737478328
 20
80.72341035308304
 11
148.0443657398986
 21
82.54104273110086
 72
     1
 10
148.0443657398986
 20
82.54104273110086
 11
147.0714707748641
 21
82.54104273110086
 97
        0
 75
     2
 76
     1
 98
        0
  0
POLYLINE
  5
17B
330
1F
100
AcDbEntity
  8
\U+30EC\U+30A4\U+30E4\U+30FC 1
 62
   179
420
  2432539
370
    13
100
AcDb2dPolyline
 66
     1
 10
0.0
 20
0.0
 30
0.0
  0
VERTEX
  5
17C
330
17B
100
AcDbEntity
  8
\U+30EC\U+30A4\U+30E4\U+30FC 1
 62
   179
420
  2432539
370
    13
100
AcDbVertex
100
AcDb2dVertex
 10
147.5375921940184
 20
80.72478839127714
 30
0.0
  0
VERTEX
  5
17D
330
17B
100
AcDbEntity
  8
\U+30EC\U+30A4\U+30E4\U+30FC 1
 62
   179
420
  2432539
370
    13
100
AcDbVertex
100
AcDb2dVertex
 10
152.564675526095
 20
80.72478839127714
 30
0.0
  0
SEQEND
  5
17E
330
17B
100
AcDbEntity
  8
\U+30EC\U+30A4\U+30E4\U+30FC 1
370
    13
  0
POLYLINE
  5
17F
330
1F
100
AcDbEntity
  8
\U+30EC\U+30A4\U+30E4\U+30FC 1
 62
   179
420
  2432539
370
    13
100
AcDb2dPolyline
 66
     1
 10
0.0
 20
0.0
 30
0.0
  0
VERTEX
  5
180
330
17F
100
AcDbEntity
  8
\U+30EC\U+30A4\U+30E4\U+30FC 1
 62
   179
420
  2432539
370
    13
100
AcDbVertex
100
AcDb2dVertex
 10
152.564675526095
 20
91.17445201713694
 30
0.0
  0
VERTEX
  5
181
330
17F
100
AcDbEntity
  8
\U+30EC\U+30A4\U+30E4\U+30FC 1
 62
   179
420
  2432539
370
    13
100
AcDbVertex
100
AcDb2dVertex
 10
147.5375921940184
 20
91.17445201713694
 30
0.0
  0
SEQEND
  5
182
330
17F
100
AcDbEntity
  8
\U+30EC\U+30A4\U+30E4\U+30FC 1
370
    13
  0
MTEXT
  5
183
330
1F
100
AcDbEntity
  8
\U+30EC\U+30A4\U+30E4\U+30FC 1
 62
   179
420
  2432539
100
AcDbMText
 10
146.0382866388377
 20
83.86809351201909
 30
0.0
 40
2.338173549831664
 41
0.0
 71
     7
 72
     1
  1
\fATC-65b030b44c2d5357495353|b0|i0|c0|p34;\W1.01999;110
 11
-4.371139000186241E-8
 21
0.999999999999999
 31
0.0
 73
     1
 44
1.0
  0
POLYLINE
  5
184
330
1F
100
AcDbEntity
  8
\U+30EC\U+30A4\U+30E4\U+30FC 1
 62
   179
420
  2432539
370
    13
100
AcDb2dPolyline
 66
     1
 10
0.0
 20
0.0
 30
0.0
  0
VERTEX
  5
185
330
184
100
AcDbEntity
  8
\U+30EC\U+30A4\U+30E4\U+30FC 1
 62
   179
420
  2432539
370
    13
100
AcDbVertex
100
AcDb2dVertex
 10
147.5444823849889
 20
79.23926321803741
 30
0.0
  0
VERTEX
  5
374
330
184
100
AcDbEntity
  8
0
100
AcDbVertex
100
AcDb2dVertex
 10
147.5444823849889
 20
79.23926321803741
 30
0.0
  0
SEQEND
  5
186
330
184
100
AcDbEntity
  8
\U+30EC\U+30A4\U+30E4\U+30FC 1
370
    13
  0
POLYLINE
  5
187
330
1F
100
AcDbEntity
  8
\U+30EC\U+30A4\U+30E4\U+30FC 1
 62
   179
420
  2432539
370
    13
100
AcDb2dPolyline
 66
     1
 10
0.0
 20
0.0
 30
0.0
  0
VERTEX
  5
188
330
187
100
AcDbEntity
  8
\U+30EC\U+30A4\U+30E4\U+30FC 1
 62
   179
420
  2432539
370
    13
100
AcDbVertex
100
AcDb2dVertex
 10
-21.43831244038695
 20
162.3118841825123
 30
0.0
  0
VERTEX
  5
189
330
187
100
AcDbEntity
  8
\U+30EC\U+30A4\U+30E4\U+30FC 1
 62
   179
420
  2432539
370
    13
100
AcDbVertex
100
AcDb2dVertex
 10
-21.43831244038695
 20
186.8928127245442
 30
0.0
  0
SEQEND
  5
18A
330
187
100
AcDbEntity
  8
\U+30EC\U+30A4\U+30E4\U+30FC 1
370
    13
  0
POLYLINE
  5
18B
330
1F
100
AcDbEntity
  8
\U+30EC\U+30A4\U+30E4\U+30FC 1
370
     0
100
AcDb2dPolyline
 66
     1
 10
0.0
 20
0.0
 30
0.0
  0
VERTEX
  5
18C
330
18B
100
AcDbEntity
  8
\U+30EC\U+30A4\U+30E4\U+30FC 1
370
     0
100
AcDbVertex
100
AcDb2dVertex
 10
-20.97167425690986
 20
162.6438191325161
 30
0.0
  0
VERTEX
  5
18D
330
18B
100
AcDbEntity
  8
\U+30EC\U+30A4\U+30E4\U+30FC 1
370
     0
100
AcDbVertex
100
AcDb2dVertex
 10
-21.45863850374992
 20
160.8267035188211
 30
0.0
  0
VERTEX
  5
18E
330
18B
100
AcDbEntity
  8
\U+30EC\U+30A4\U+30E4\U+30FC 1
370
     0
100
AcDbVertex
100
AcDb2dVertex
 10
-21.94594726013851
 20
162.6438191325161
 30
0.0
  0
VERTEX
  5
18F
330
18B
100
AcDbEntity
  8
\U+30EC\U+30A4\U+30E4\U+30FC 1
370
     0
100
AcDbVertex
100
AcDb2dVertex
 10
-20.97167425690986
 20
162.6438191325161
 30
0.0
  0
SEQEND
  5
190
330
18B
100
AcDbEntity
  8
\U+30EC\U+30A4\U+30E4\U+30FC 1
370
     0
  0
HATCH
  5
191
330
1F
100
AcDbEntity
  8
\U+30EC\U+30A4\U+30E4\U+30FC 1
 62
   179
420
  2432539
100
AcDbHatch
 10
0.0
 20
0.0
 30
0.0
210
0.0
220
0.0
230
1.0
  2
SOLID
 70
     1
 71
     0
 91
        1
 92
        1
 93
        3
 72
     1
 10
-20.97167425690986
 20
162.6438191325161
 11
-21.45863850374992
 21
160.8267035188211
 72
     1
 10
-21.45863850374992
 20
160.8267035188211
 11
-21.94594726013851
 21
162.6438191325161
 72
     1
 10
-21.94594726013851
 20
162.6438191325161
 11
-20.97167425690986
 21
162.6438191325161
 97
        0
 75
     2
 76
     1
 98
        0
  0
POLYLINE
  5
192
330
1F
100
AcDbEntity
  8
\U+30EC\U+30A4\U+30E4\U+30FC 1
370
     0
100
AcDb2dPolyline
 66
     1
 10
0.0
 20
0.0
 30
0.0
  0
VERTEX
  5
193
330
192
100
AcDbEntity
  8
\U+30EC\U+30A4\U+30E4\U+30FC 1
370
     0
100
AcDbVertex
100
AcDb2dVertex
 10
-20.97167425690986
 20
186.5603610102175
 30
0.0
  0
VERTEX
  5
194
330
192
100
AcDbEntity
  8
\U+30EC\U+30A4\U+30E4\U+30FC 1
370
     0
100
AcDbVertex
100
AcDb2dVertex
 10
-21.45863850374992
 20
188.3767876048155
 30
0.0
  0
VERTEX
  5
195
330
192
100
AcDbEntity
  8
\U+30EC\U+30A4\U+30E4\U+30FC 1
370
     0
100
AcDbVertex
100
AcDb2dVertex
 10
-21.94594726013851
 20
186.5603610102175
 30
0.0
  0
VERTEX
  5
196
330
192
100
AcDbEntity
  8
\U+30EC\U+30A4\U+30E4\U+30FC 1
370
     0
100
AcDbVertex
100
AcDb2dVertex
 10
-20.97167425690986
 20
186.5603610102175
 30
0.0
  0
SEQEND
  5
197
330
192
100
AcDbEntity
  8
\U+30EC\U+30A4\U+30E4\U+30FC 1
370
     0
  0
HATCH
  5
198
330
1F
100
AcDbEntity
  8
\U+30EC\U+30A4\U+30E4\U+30FC 1
 62
   179
420
  2432539
100
AcDbHatch
 10
0.0
 20
0.0
 30
0.0
210
0.0
220
0.0
230
1.0
  2
SOLID
 70
     1
 71
     0
 91
        1
 92
        1
 93
        3
 72
     1
 10
-20.97167425690986
 20
186.5603610102175
 11
-21.45863850374992
 21
188.3767876048155
 72
     1
 10
-21.45863850374992
 20
188.3767876048155
 11
-21.94594726013851
 21
186.5603610102175
 72
     1
 10
-21.94594726013851
 20
186.5603610102175
 11
-20.97167425690986
 21
186.5603610102175
 97
        0
 75
     2
 76
     1
 98
        0
  0
POLYLINE
  5
199
330
1F
100
AcDbEntity
  8
\U+30EC\U+30A4\U+30E4\U+30FC 1
 62
   179
420
  2432539
370
    13
100
AcDb2dPolyline
 66
     1
 10
0.0
 20
0.0
 30
0.0
  0
VERTEX
  5
19A
330
199
100
AcDbEntity
  8
\U+30EC\U+30A4\U+30E4\U+30FC 1
 62
   179
420
  2432539
370
    13
100
AcDbVertex
100
AcDb2dVertex
 10
-21.43831244038695
 20
188.3774766239126
 30
0.0
  0
VERTEX
  5
19B
330
199
100
AcDbEntity
  8
\U+30EC\U+30A4\U+30E4\U+30FC 1
 62
   179
420
  2432539
370
    13
100
AcDbVertex
100
AcDb2dVertex
 10
-16.41088459876186
 20
188.3774766239126
 30
0.0
  0
SEQEND
  5
19C
330
199
100
AcDbEntity
  8
\U+30EC\U+30A4\U+30E4\U+30FC 1
370
    13
  0
POLYLINE
  5
19D
330
1F
100
AcDbEntity
  8
\U+30EC\U+30A4\U+30E4\U+30FC 1
 62
   179
420
  2432539
370
    13
100
AcDb2dPolyline
 66
     1
 10
0.0
 20
0.0
 30
0.0
  0
VERTEX
  5
19E
330
19D
100
AcDbEntity
  8
\U+30EC\U+30A4\U+30E4\U+30FC 1
 62
   179
420
  2432539
370
    13
100
AcDbVertex
100
AcDb2dVertex
 10
-16.41157361785891
 20
160.8273925379182
 30
0.0
  0
VERTEX
  5
19F
330
19D
100
AcDbEntity
  8
\U+30EC\U+30A4\U+30E4\U+30FC 1
 62
   179
420
  2432539
370
    13
100
AcDbVertex
100
AcDb2dVertex
 10
-21.439001459484
 20
160.8273925379182
 30
0.0
  0
SEQEND
  5
1A0
330
19D
100
AcDbEntity
  8
\U+30EC\U+30A4\U+30E4\U+30FC 1
370
    13
  0
MTEXT
  5
1A1
330
1F
100
AcDbEntity
  8
\U+30EC\U+30A4\U+30E4\U+30FC 1
 62
   179
420
  2432539
100
AcDbMText
 10
-22.77673203640651
 20
172.2687268992071
 30
0.0
 40
2.338173549831664
 41
0.0
 71
     7
 72
     1
  1
\fATC-65b030b44c2d5357495353|b0|i0|c0|p34;\W1.01999;290
 11
-4.371139000186241E-8
 21
0.999999999999999
 31
0.0
 73
     1
 44
1.0
  0
POLYLINE
  5
1A2
330
1F
100
AcDbEntity
  8
\U+30EC\U+30A4\U+30E4\U+30FC 1
 62
   179
420
  2432539
370
    13
100
AcDb2dPolyline
 66
     1
 10
0.0
 20
0.0
 30
0.0
  0
VERTEX
  5
1A3
330
1A2
100
AcDbEntity
  8
\U+30EC\U+30A4\U+30E4\U+30FC 1
 62
   179
420
  2432539
370
    13
100
AcDbVertex
100
AcDb2dVertex
 10
-13.37627224057954
 20
183.2115559437804
 30
0.0
  0
VERTEX
  5
1A4
330
1A2
100
AcDbEntity
  8
\U+30EC\U+30A4\U+30E4\U+30FC 1
 62
   179
420
  2432539
370
    13
100
AcDbVertex
100
AcDb2dVertex
 10
-13.37627224057954
 20
186.8928127245442
 30
0.0
  0
SEQEND
  5
1A5
330
1A2
100
AcDbEntity
  8
\U+30EC\U+30A4\U+30E4\U+30FC 1
370
    13
  0
POLYLINE
  5
1A6
330
1F
100
AcDbEntity
  8
\U+30EC\U+30A4\U+30E4\U+30FC 1
370
     0
100
AcDb2dPolyline
 66
     1
 10
0.0
 20
0.0
 30
0.0
  0
VERTEX
  5
1A7
330
1A6
100
AcDbEntity
  8
\U+30EC\U+30A4\U+30E4\U+30FC 1
370
     0
100
AcDbVertex
100
AcDb2dVertex
 10
-12.90963405710245
 20
183.5434908937843
 30
0.0
  0
VERTEX
  5
1A8
330
1A6
100
AcDbEntity
  8
\U+30EC\U+30A4\U+30E4\U+30FC 1
370
     0
100
AcDbVertex
100
AcDb2dVertex
 10
-13.39659830394252
 20
181.7270642991863
 30
0.0
  0
VERTEX
  5
1A9
330
1A6
100
AcDbEntity
  8
\U+30EC\U+30A4\U+30E4\U+30FC 1
370
     0
100
AcDbVertex
100
AcDb2dVertex
 10
-13.88321804123406
 20
183.5434908937843
 30
0.0
  0
VERTEX
  5
1AA
330
1A6
100
AcDbEntity
  8
\U+30EC\U+30A4\U+30E4\U+30FC 1
370
     0
100
AcDbVertex
100
AcDb2dVertex
 10
-12.90963405710245
 20
183.5434908937843
 30
0.0
  0
SEQEND
  5
1AB
330
1A6
100
AcDbEntity
  8
\U+30EC\U+30A4\U+30E4\U+30FC 1
370
     0
  0
HATCH
  5
1AC
330
1F
100
AcDbEntity
  8
\U+30EC\U+30A4\U+30E4\U+30FC 1
 62
   179
420
  2432539
100
AcDbHatch
 10
0.0
 20
0.0
 30
0.0
210
0.0
220
0.0
230
1.0
  2
SOLID
 70
     1
 71
     0
 91
        1
 92
        1
 93
        3
 72
     1
 10
-12.90963405710245
 20
183.5434908937843
 11
-13.39659830394252
 21
181.7270642991863
 72
     1
 10
-13.39659830394252
 20
181.7270642991863
 11
-13.88321804123406
 21
183.5434908937843
 72
     1
 10
-13.88321804123406
 20
183.5434908937843
 11
-12.90963405710245
 21
183.5434908937843
 97
        0
 75
     2
 76
     1
 98
        0
  0
POLYLINE
  5
1AD
330
1F
100
AcDbEntity
  8
\U+30EC\U+30A4\U+30E4\U+30FC 1
370
     0
100
AcDb2dPolyline
 66
     1
 10
0.0
 20
0.0
 30
0.0
  0
VERTEX
  5
1AE
330
1AD
100
AcDbEntity
  8
\U+30EC\U+30A4\U+30E4\U+30FC 1
370
     0
100
AcDbVertex
100
AcDb2dVertex
 10
-12.90963405710245
 20
186.5603610102175
 30
0.0
  0
VERTEX
  5
1AF
330
1AD
100
AcDbEntity
  8
\U+30EC\U+30A4\U+30E4\U+30FC 1
370
     0
100
AcDbVertex
100
AcDb2dVertex
 10
-13.39659830394252
 20
188.3767876048155
 30
0.0
  0
VERTEX
  5
1B0
330
1AD
100
AcDbEntity
  8
\U+30EC\U+30A4\U+30E4\U+30FC 1
370
     0
100
AcDbVertex
100
AcDb2dVertex
 10
-13.88321804123406
 20
186.5603610102175
 30
0.0
  0
VERTEX
  5
1B1
330
1AD
100
AcDbEntity
  8
\U+30EC\U+30A4\U+30E4\U+30FC 1
370
     0
100
AcDbVertex
100
AcDb2dVertex
 10
-12.90963405710245
 20
186.5603610102175
 30
0.0
  0
SEQEND
  5
1B2
330
1AD
100
AcDbEntity
  8
\U+30EC\U+30A4\U+30E4\U+30FC 1
370
     0
  0
HATCH
  5
1B3
330
1F
100
AcDbEntity
  8
\U+30EC\U+30A4\U+30E4\U+30FC 1
 62
   179
420
  2432539
100
AcDbHatch
 10
0.0
 20
0.0
 30
0.0
210
0.0
220
0.0
230
1.0
  2
SOLID
 70
     1
 71
     0
 91
        1
 92
        1
 93
        3
 72
     1
 10
-12.90963405710245
 20
186.5603610102175
 11
-13.39659830394252
 21
188.3767876048155
 72
     1
 10
-13.39659830394252
 20
188.3767876048155
 11
-13.88321804123406
 21
186.5603610102175
 72
     1
 10
-13.88321804123406
 20
186.5603610102175
 11
-12.90963405710245
 21
186.5603610102175
 97
        0
 75
     2
 76
     1
 98
        0
  0
POLYLINE
  5
1B4
330
1F
100
AcDbEntity
  8
\U+30EC\U+30A4\U+30E4\U+30FC 1
 62
   179
420
  2432539
370
    13
100
AcDb2dPolyline
 66
     1
 10
0.0
 20
0.0
 30
0.0
  0
VERTEX
  5
1B5
330
1B4
100
AcDbEntity
  8
\U+30EC\U+30A4\U+30E4\U+30FC 1
 62
   179
420
  2432539
370
    13
100
AcDbVertex
100
AcDb2dVertex
 10
-13.37627224057954
 20
188.3774766239126
 30
0.0
  0
VERTEX
  5
1B6
330
1B4
100
AcDbEntity
  8
\U+30EC\U+30A4\U+30E4\U+30FC 1
 62
   179
420
  2432539
370
    13
100
AcDbVertex
100
AcDb2dVertex
 10
-8.34849988940593
 20
188.3774766239126
 30
0.0
  0
SEQEND
  5
1B7
330
1B4
100
AcDbEntity
  8
\U+30EC\U+30A4\U+30E4\U+30FC 1
370
    13
  0
POLYLINE
  5
1B8
330
1F
100
AcDbEntity
  8
\U+30EC\U+30A4\U+30E4\U+30FC 1
 62
   179
420
  2432539
370
    13
100
AcDb2dPolyline
 66
     1
 10
0.0
 20
0.0
 30
0.0
  0
VERTEX
  5
1B9
330
1B8
100
AcDbEntity
  8
\U+30EC\U+30A4\U+30E4\U+30FC 1
 62
   179
420
  2432539
370
    13
100
AcDbVertex
100
AcDb2dVertex
 10
-8.348844398954457
 20
181.7270642991863
 30
0.0
  0
VERTEX
  5
1BA
330
1B8
100
AcDbEntity
  8
\U+30EC\U+30A4\U+30E4\U+30FC 1
 62
   179
420
  2432539
370
    13
100
AcDbVertex
100
AcDb2dVertex
 10
-13.37627224057954
 20
181.7270642991863
 30
0.0
  0
SEQEND
  5
1BB
330
1B8
100
AcDbEntity
  8
\U+30EC\U+30A4\U+30E4\U+30FC 1
370
    13
  0
MTEXT
  5
1BC
330
1F
100
AcDbEntity
  8
\U+30EC\U+30A4\U+30E4\U+30FC 1
 62
   179
420
  2432539
100
AcDbMText
 10
-14.71486409137337
 20
183.505250333898
 30
0.0
 40
2.338173549831664
 41
0.0
 71
     7
 72
     1
  1
\fATC-65b030b44c2d5357495353|b0|i0|c0|p34;\W1.01999;70
 11
-4.371139000186241E-8
 21
0.999999999999999
 31
0.0
 73
     1
 44
1.0
  0
POLYLINE
  5
1BD
330
1F
100
AcDbEntity
  8
\U+30EC\U+30A4\U+30E4\U+30FC 1
 62
   179
420
  2432539
370
    13
100
AcDb2dPolyline
 66
     1
 10
0.0
 20
0.0
 30
0.0
  0
VERTEX
  5
1BE
330
1BD
100
AcDbEntity
  8
\U+30EC\U+30A4\U+30E4\U+30FC 1
 62
   179
420
  2432539
370
    13
100
AcDbVertex
100
AcDb2dVertex
 10
101.7521009402738
 20
176.9466498038536
 30
0.0
  0
VERTEX
  5
1BF
330
1BD
100
AcDbEntity
  8
\U+30EC\U+30A4\U+30E4\U+30FC 1
 62
   179
420
  2432539
370
    13
100
AcDbVertex
100
AcDb2dVertex
 10
101.7521009402738
 20
145.8107380820369
 30
0.0
  0
SEQEND
  5
1C0
330
1BD
100
AcDbEntity
  8
\U+30EC\U+30A4\U+30E4\U+30FC 1
370
    13
  0
POLYLINE
  5
1C1
330
1F
100
AcDbEntity
  8
\U+30EC\U+30A4\U+30E4\U+30FC 1
370
     0
100
AcDb2dPolyline
 66
     1
 10
0.0
 20
0.0
 30
0.0
  0
VERTEX
  5
1C2
330
1C1
100
AcDbEntity
  8
\U+30EC\U+30A4\U+30E4\U+30FC 1
370
     0
100
AcDbVertex
100
AcDb2dVertex
 10
101.2859795211195
 20
176.6148871086241
 30
0.0
  0
VERTEX
  5
1C3
330
1C1
100
AcDbEntity
  8
\U+30EC\U+30A4\U+30E4\U+30FC 1
370
     0
100
AcDbVertex
100
AcDb2dVertex
 10
101.7724270036368
 20
178.431313703222
 30
0.0
  0
VERTEX
  5
1C4
330
1C1
100
AcDbEntity
  8
\U+30EC\U+30A4\U+30E4\U+30FC 1
370
     0
100
AcDbVertex
100
AcDb2dVertex
 10
102.2590467409283
 20
176.6148871086241
 30
0.0
  0
VERTEX
  5
1C5
330
1C1
100
AcDbEntity
  8
\U+30EC\U+30A4\U+30E4\U+30FC 1
370
     0
100
AcDbVertex
100
AcDb2dVertex
 10
101.2859795211195
 20
176.6148871086241
 30
0.0
  0
SEQEND
  5
1C6
330
1C1
100
AcDbEntity
  8
\U+30EC\U+30A4\U+30E4\U+30FC 1
370
     0
  0
HATCH
  5
1C7
330
1F
100
AcDbEntity
  8
\U+30EC\U+30A4\U+30E4\U+30FC 1
 62
   179
420
  2432539
100
AcDbHatch
 10
0.0
 20
0.0
 30
0.0
210
0.0
220
0.0
230
1.0
  2
SOLID
 70
     1
 71
     0
 91
        1
 92
        1
 93
        3
 72
     1
 10
101.2859795211195
 20
176.6148871086241
 11
101.7724270036368
 21
178.431313703222
 72
     1
 10
101.7724270036368
 20
178.431313703222
 11
102.2590467409283
 21
176.6148871086241
 72
     1
 10
102.2590467409283
 20
176.6148871086241
 11
101.2859795211195
 21
176.6148871086241
 97
        0
 75
     2
 76
     1
 98
        0
  0
POLYLINE
  5
1C8
330
1F
100
AcDbEntity
  8
\U+30EC\U+30A4\U+30E4\U+30FC 1
370
     0
100
AcDb2dPolyline
 66
     1
 10
0.0
 20
0.0
 30
0.0
  0
VERTEX
  5
1C9
330
1C8
100
AcDbEntity
  8
\U+30EC\U+30A4\U+30E4\U+30FC 1
370
     0
100
AcDbVertex
100
AcDb2dVertex
 10
101.2859795211195
 20
146.142845286815
 30
0.0
  0
VERTEX
  5
1CA
330
1C8
100
AcDbEntity
  8
\U+30EC\U+30A4\U+30E4\U+30FC 1
370
     0
100
AcDbVertex
100
AcDb2dVertex
 10
101.7724270036368
 20
144.3262464374428
 30
0.0
  0
VERTEX
  5
1CB
330
1C8
100
AcDbEntity
  8
\U+30EC\U+30A4\U+30E4\U+30FC 1
370
     0
100
AcDbVertex
100
AcDb2dVertex
 10
102.2590467409283
 20
146.142845286815
 30
0.0
  0
VERTEX
  5
1CC
330
1C8
100
AcDbEntity
  8
\U+30EC\U+30A4\U+30E4\U+30FC 1
370
     0
100
AcDbVertex
100
AcDb2dVertex
 10
101.2859795211195
 20
146.142845286815
 30
0.0
  0
SEQEND
  5
1CD
330
1C8
100
AcDbEntity
  8
\U+30EC\U+30A4\U+30E4\U+30FC 1
370
     0
  0
HATCH
  5
1CE
330
1F
100
AcDbEntity
  8
\U+30EC\U+30A4\U+30E4\U+30FC 1
 62
   179
420
  2432539
100
AcDbHatch
 10
0.0
 20
0.0
 30
0.0
210
0.0
220
0.0
230
1.0
  2
SOLID
 70
     1
 71
     0
 91
        1
 92
        1
 93
        3
 72
     1
 10
101.2859795211195
 20
146.142845286815
 11
101.7724270036368
 21
144.3262464374428
 72
     1
 10
101.7724270036368
 20
144.3262464374428
 11
102.2590467409283
 21
146.142845286815
 72
     1
 10
102.2590467409283
 20
146.142845286815
 11
101.2859795211195
 21
146.142845286815
 97
        0
 75
     2
 76
     1
 98
        0
  0
POLYLINE
  5
1CF
330
1F
100
AcDbEntity
  8
\U+30EC\U+30A4\U+30E4\U+30FC 1
 62
   179
420
  2432539
370
    13
100
AcDb2dPolyline
 66
     1
 10
0.0
 20
0.0
 30
0.0
  0
VERTEX
  5
1D0
330
1CF
100
AcDbEntity
  8
\U+30EC\U+30A4\U+30E4\U+30FC 1
 62
   179
420
  2432539
370
    13
100
AcDbVertex
100
AcDb2dVertex
 10
101.7521009402738
 20
144.3262464374428
 30
0.0
  0
VERTEX
  5
1D1
330
1CF
100
AcDbEntity
  8
\U+30EC\U+30A4\U+30E4\U+30FC 1
 62
   179
420
  2432539
370
    13
100
AcDbVertex
100
AcDb2dVertex
 10
96.72432858910017
 20
144.3262464374428
 30
0.0
  0
SEQEND
  5
1D2
330
1CF
100
AcDbEntity
  8
\U+30EC\U+30A4\U+30E4\U+30FC 1
370
    13
  0
POLYLINE
  5
1D3
330
1F
100
AcDbEntity
  8
\U+30EC\U+30A4\U+30E4\U+30FC 1
 62
   179
420
  2432539
370
    13
100
AcDb2dPolyline
 66
     1
 10
0.0
 20
0.0
 30
0.0
  0
VERTEX
  5
1D4
330
1D3
100
AcDbEntity
  8
\U+30EC\U+30A4\U+30E4\U+30FC 1
 62
   179
420
  2432539
370
    13
100
AcDbVertex
100
AcDb2dVertex
 10
96.7246730986487
 20
178.431313703222
 30
0.0
  0
VERTEX
  5
1D5
330
1D3
100
AcDbEntity
  8
\U+30EC\U+30A4\U+30E4\U+30FC 1
 62
   179
420
  2432539
370
    13
100
AcDbVertex
100
AcDb2dVertex
 10
101.7521009402738
 20
178.431313703222
 30
0.0
  0
SEQEND
  5
1D6
330
1D3
100
AcDbEntity
  8
\U+30EC\U+30A4\U+30E4\U+30FC 1
370
    13
  0
MTEXT
  5
1D7
330
1F
100
AcDbEntity
  8
\U+30EC\U+30A4\U+30E4\U+30FC 1
 62
   179
420
  2432539
100
AcDbMText
 10
105.1057291403902
 20
159.0457614077212
 30
0.0
 40
2.338173549831664
 41
0.0
 71
     7
 72
     1
  1
\fATC-65b030b44c2d5357495353|b0|i0|c0|p34;\W1.01999;359
 11
-4.371139000186241E-8
 21
0.999999999999999
 31
0.0
 73
     1
 44
1.0
  0
POLYLINE
  5
1D8
330
1F
100
AcDbEntity
  8
\U+30EC\U+30A4\U+30E4\U+30FC 1
 62
   179
420
  2432539
370
    13
100
AcDb2dPolyline
 66
     1
 10
0.0
 20
0.0
 30
0.0
  0
VERTEX
  5
1D9
330
1D8
100
AcDbEntity
  8
\U+30EC\U+30A4\U+30E4\U+30FC 1
 62
   179
420
  2432539
370
    13
100
AcDbVertex
100
AcDb2dVertex
 10
109.2260633407491
 20
186.8928127245442
 30
0.0
  0
VERTEX
  5
1DA
330
1D8
100
AcDbEntity
  8
\U+30EC\U+30A4\U+30E4\U+30FC 1
 62
   179
420
  2432539
370
    13
100
AcDbVertex
100
AcDb2dVertex
 10
109.2260633407491
 20
136.6614257470846
 30
0.0
  0
SEQEND
  5
1DB
330
1D8
100
AcDbEntity
  8
\U+30EC\U+30A4\U+30E4\U+30FC 1
370
    13
  0
POLYLINE
  5
1DC
330
1F
100
AcDbEntity
  8
\U+30EC\U+30A4\U+30E4\U+30FC 1
370
     0
100
AcDb2dPolyline
 66
     1
 10
0.0
 20
0.0
 30
0.0
  0
VERTEX
  5
1DD
330
1DC
100
AcDbEntity
  8
\U+30EC\U+30A4\U+30E4\U+30FC 1
370
     0
100
AcDbVertex
100
AcDb2dVertex
 10
108.7602864311433
 20
186.5603610102175
 30
0.0
  0
VERTEX
  5
1DE
330
1DC
100
AcDbEntity
  8
\U+30EC\U+30A4\U+30E4\U+30FC 1
370
     0
100
AcDbVertex
100
AcDb2dVertex
 10
109.2460448945635
 20
188.3767876048155
 30
0.0
  0
VERTEX
  5
1DF
330
1DC
100
AcDbEntity
  8
\U+30EC\U+30A4\U+30E4\U+30FC 1
370
     0
100
AcDbVertex
100
AcDb2dVertex
 10
109.7342149248234
 20
186.5603610102175
 30
0.0
  0
VERTEX
  5
1E0
330
1DC
100
AcDbEntity
  8
\U+30EC\U+30A4\U+30E4\U+30FC 1
370
     0
100
AcDbVertex
100
AcDb2dVertex
 10
108.7602864311433
 20
186.5603610102175
 30
0.0
  0
SEQEND
  5
1E1
330
1DC
100
AcDbEntity
  8
\U+30EC\U+30A4\U+30E4\U+30FC 1
370
     0
  0
HATCH
  5
1E2
330
1F
100
AcDbEntity
  8
\U+30EC\U+30A4\U+30E4\U+30FC 1
 62
   179
420
  2432539
100
AcDbHatch
 10
0.0
 20
0.0
 30
0.0
210
0.0
220
0.0
230
1.0
  2
SOLID
 70
     1
 71
     0
 91
        1
 92
        1
 93
        3
 72
     1
 10
108.7602864311433
 20
186.5603610102175
 11
109.2460448945635
 21
188.3767876048155
 72
     1
 10
109.2460448945635
 20
188.3767876048155
 11
109.7342149248234
 21
186.5603610102175
 72
     1
 10
109.7342149248234
 20
186.5603610102175
 11
108.7602864311433
 21
186.5603610102175
 97
        0
 75
     2
 76
     1
 98
        0
  0
POLYLINE
  5
1E3
330
1F
100
AcDbEntity
  8
\U+30EC\U+30A4\U+30E4\U+30FC 1
370
     0
100
AcDb2dPolyline
 66
     1
 10
0.0
 20
0.0
 30
0.0
  0
VERTEX
  5
1E4
330
1E3
100
AcDbEntity
  8
\U+30EC\U+30A4\U+30E4\U+30FC 1
370
     0
100
AcDbVertex
100
AcDb2dVertex
 10
108.7602864311433
 20
136.9942219709598
 30
0.0
  0
VERTEX
  5
1E5
330
1E3
100
AcDbEntity
  8
\U+30EC\U+30A4\U+30E4\U+30FC 1
370
     0
100
AcDbVertex
100
AcDb2dVertex
 10
109.2460448945635
 20
135.176589592942
 30
0.0
  0
VERTEX
  5
1E6
330
1E3
100
AcDbEntity
  8
\U+30EC\U+30A4\U+30E4\U+30FC 1
370
     0
100
AcDbVertex
100
AcDb2dVertex
 10
109.7342149248234
 20
136.9942219709598
 30
0.0
  0
VERTEX
  5
1E7
330
1E3
100
AcDbEntity
  8
\U+30EC\U+30A4\U+30E4\U+30FC 1
370
     0
100
AcDbVertex
100
AcDb2dVertex
 10
108.7602864311433
 20
136.9942219709598
 30
0.0
  0
SEQEND
  5
1E8
330
1E3
100
AcDbEntity
  8
\U+30EC\U+30A4\U+30E4\U+30FC 1
370
     0
  0
HATCH
  5
1E9
330
1F
100
AcDbEntity
  8
\U+30EC\U+30A4\U+30E4\U+30FC 1
 62
   179
420
  2432539
100
AcDbHatch
 10
0.0
 20
0.0
 30
0.0
210
0.0
220
0.0
230
1.0
  2
SOLID
 70
     1
 71
     0
 91
        1
 92
        1
 93
        3
 72
     1
 10
108.7602864311433
 20
136.9942219709598
 11
109.2460448945635
 21
135.176589592942
 72
     1
 10
109.2460448945635
 20
135.176589592942
 11
109.7342149248234
 21
136.9942219709598
 72
     1
 10
109.7342149248234
 20
136.9942219709598
 11
108.7602864311433
 21
136.9942219709598
 97
        0
 75
     2
 76
     1
 98
        0
  0
POLYLINE
  5
1EA
330
1F
100
AcDbEntity
  8
\U+30EC\U+30A4\U+30E4\U+30FC 1
 62
   179
420
  2432539
370
    13
100
AcDb2dPolyline
 66
     1
 10
0.0
 20
0.0
 30
0.0
  0
VERTEX
  5
1EB
330
1EA
100
AcDbEntity
  8
\U+30EC\U+30A4\U+30E4\U+30FC 1
 62
   179
420
  2432539
370
    13
100
AcDbVertex
100
AcDb2dVertex
 10
109.2260633407491
 20
135.176589592942
 30
0.0
  0
VERTEX
  5
1EC
330
1EA
100
AcDbEntity
  8
\U+30EC\U+30A4\U+30E4\U+30FC 1
 62
   179
420
  2432539
370
    13
100
AcDbVertex
100
AcDb2dVertex
 10
104.1991522634467
 20
135.176589592942
 30
0.0
  0
SEQEND
  5
1ED
330
1EA
100
AcDbEntity
  8
\U+30EC\U+30A4\U+30E4\U+30FC 1
370
    13
  0
POLYLINE
  5
1EE
330
1F
100
AcDbEntity
  8
\U+30EC\U+30A4\U+30E4\U+30FC 1
 62
   179
420
  2432539
370
    13
100
AcDb2dPolyline
 66
     1
 10
0.0
 20
0.0
 30
0.0
  0
VERTEX
  5
1EF
330
1EE
100
AcDbEntity
  8
\U+30EC\U+30A4\U+30E4\U+30FC 1
 62
   179
420
  2432539
370
    13
100
AcDbVertex
100
AcDb2dVertex
 10
104.1991522634467
 20
188.3774766239126
 30
0.0
  0
VERTEX
  5
1F0
330
1EE
100
AcDbEntity
  8
\U+30EC\U+30A4\U+30E4\U+30FC 1
 62
   179
420
  2432539
370
    13
100
AcDbVertex
100
AcDb2dVertex
 10
109.2267523598461
 20
188.3774766239126
 30
0.0
  0
SEQEND
  5
1F1
330
1EE
100
AcDbEntity
  8
\U+30EC\U+30A4\U+30E4\U+30FC 1
370
    13
  0
MTEXT
  5
1F2
330
1F
100
AcDbEntity
  8
\U+30EC\U+30A4\U+30E4\U+30FC 1
 62
   179
420
  2432539
100
AcDbMText
 10
112.5802083051883
 20
159.4443589553646
 30
0.0
 40
2.338173549831664
 41
0.0
 71
     7
 72
     1
  1
\fATC-65b030b44c2d5357495353|b0|i0|c0|p34;\W1.01999;560
 11
-4.371139000186241E-8
 21
0.999999999999999
 31
0.0
 73
     1
 44
1.0
  0
POLYLINE
  5
1F3
330
1F
100
AcDbEntity
  8
\U+30EC\U+30A4\U+30E4\U+30FC 1
 62
   179
420
  2432539
370
    13
100
AcDb2dPolyline
 66
     1
 10
0.0
 20
0.0
 30
0.0
  0
VERTEX
  5
1F4
330
1F3
100
AcDbEntity
  8
\U+30EC\U+30A4\U+30E4\U+30FC 1
 62
   179
420
  2432539
370
    13
100
AcDbVertex
100
AcDb2dVertex
 10
-2.018653699582142
 20
197.9334824808986
 30
0.0
  0
VERTEX
  5
1F5
330
1F3
100
AcDbEntity
  8
\U+30EC\U+30A4\U+30E4\U+30FC 1
 62
   179
420
  2432539
370
    13
100
AcDbVertex
100
AcDb2dVertex
 10
90.0127658195107
 20
197.9334824808986
 30
0.0
  0
SEQEND
  5
1F6
330
1F3
100
AcDbEntity
  8
\U+30EC\U+30A4\U+30E4\U+30FC 1
370
    13
  0
POLYLINE
  5
1F7
330
1F
100
AcDbEntity
  8
\U+30EC\U+30A4\U+30E4\U+30FC 1
370
     0
100
AcDb2dPolyline
 66
     1
 10
0.0
 20
0.0
 30
0.0
  0
VERTEX
  5
1F8
330
1F7
100
AcDbEntity
  8
\U+30EC\U+30A4\U+30E4\U+30FC 1
370
     0
100
AcDbVertex
100
AcDb2dVertex
 10
-1.68602973048127
 20
197.4673610617443
 30
0.0
  0
VERTEX
  5
1F9
330
1F7
100
AcDbEntity
  8
\U+30EC\U+30A4\U+30E4\U+30FC 1
370
     0
100
AcDbVertex
100
AcDb2dVertex
 10
-3.502800834627772
 20
197.9544975633586
 30
0.0
  0
VERTEX
  5
1FA
330
1F7
100
AcDbEntity
  8
\U+30EC\U+30A4\U+30E4\U+30FC 1
370
     0
100
AcDbVertex
100
AcDb2dVertex
 10
-1.68602973048127
 20
198.4414618101987
 30
0.0
  0
VERTEX
  5
1FB
330
1F7
100
AcDbEntity
  8
\U+30EC\U+30A4\U+30E4\U+30FC 1
370
     0
100
AcDbVertex
100
AcDb2dVertex
 10
-1.68602973048127
 20
197.4673610617443
 30
0.0
  0
SEQEND
  5
1FC
330
1F7
100
AcDbEntity
  8
\U+30EC\U+30A4\U+30E4\U+30FC 1
370
     0
  0
HATCH
  5
1FD
330
1F
100
AcDbEntity
  8
\U+30EC\U+30A4\U+30E4\U+30FC 1
 62
   179
420
  2432539
100
AcDbHatch
 10
0.0
 20
0.0
 30
0.0
210
0.0
220
0.0
230
1.0
  2
SOLID
 70
     1
 71
     0
 91
        1
 92
        1
 93
        3
 72
     1
 10
-1.68602973048127
 20
197.4673610617443
 11
-3.502800834627772
 21
197.9544975633586
 72
     1
 10
-3.502800834627772
 20
197.9544975633586
 11
-1.68602973048127
 21
198.4414618101987
 72
     1
 10
-1.68602973048127
 20
198.4414618101987
 11
-1.68602973048127
 21
197.4673610617443
 97
        0
 75
     2
 76
     1
 98
        0
  0
POLYLINE
  5
1FE
330
1F
100
AcDbEntity
  8
\U+30EC\U+30A4\U+30E4\U+30FC 1
370
     0
100
AcDb2dPolyline
 66
     1
 10
0.0
 20
0.0
 30
0.0
  0
VERTEX
  5
1FF
330
1FE
100
AcDbEntity
  8
\U+30EC\U+30A4\U+30E4\U+30FC 1
370
     0
100
AcDbVertex
100
AcDb2dVertex
 10
89.68048635995835
 20
197.4673610617443
 30
0.0
  0
VERTEX
  5
200
330
1FE
100
AcDbEntity
  8
\U+30EC\U+30A4\U+30E4\U+30FC 1
370
     0
100
AcDbVertex
100
AcDb2dVertex
 10
91.49691295455634
 20
197.9544975633586
 30
0.0
  0
VERTEX
  5
201
330
1FE
100
AcDbEntity
  8
\U+30EC\U+30A4\U+30E4\U+30FC 1
370
     0
100
AcDbVertex
100
AcDb2dVertex
 10
89.68048635995835
 20
198.4414618101987
 30
0.0
  0
VERTEX
  5
202
330
1FE
100
AcDbEntity
  8
\U+30EC\U+30A4\U+30E4\U+30FC 1
370
     0
100
AcDbVertex
100
AcDb2dVertex
 10
89.68048635995835
 20
197.4673610617443
 30
0.0
  0
SEQEND
  5
203
330
1FE
100
AcDbEntity
  8
\U+30EC\U+30A4\U+30E4\U+30FC 1
370
     0
  0
HATCH
  5
204
330
1F
100
AcDbEntity
  8
\U+30EC\U+30A4\U+30E4\U+30FC 1
 62
   179
420
  2432539
100
AcDbHatch
 10
0.0
 20
0.0
 30
0.0
210
0.0
220
0.0
230
1.0
  2
SOLID
 70
     1
 71
     0
 91
        1
 92
        1
 93
        3
 72
     1
 10
89.68048635995835
 20
197.4673610617443
 11
91.49691295455634
 21
197.9544975633586
 72
     1
 10
91.49691295455634
 20
197.9544975633586
 11
89.68048635995835
 21
198.4414618101987
 72
     1
 10
89.68048635995835
 20
198.4414618101987
 11
89.68048635995835
 21
197.4673610617443
 97
        0
 75
     2
 76
     1
 98
        0
  0
POLYLINE
  5
205
330
1F
100
AcDbEntity
  8
\U+30EC\U+30A4\U+30E4\U+30FC 1
 62
   179
420
  2432539
370
    13
100
AcDb2dPolyline
 66
     1
 10
0.0
 20
0.0
 30
0.0
  0
VERTEX
  5
206
330
205
100
AcDbEntity
  8
\U+30EC\U+30A4\U+30E4\U+30FC 1
 62
   179
420
  2432539
370
    13
100
AcDbVertex
100
AcDb2dVertex
 10
91.49691295455634
 20
197.9334824808986
 30
0.0
  0
VERTEX
  5
207
330
205
100
AcDbEntity
  8
\U+30EC\U+30A4\U+30E4\U+30FC 1
 62
   179
420
  2432539
370
    13
100
AcDbVertex
100
AcDb2dVertex
 10
91.49691295455634
 20
192.9070881679191
 30
0.0
  0
SEQEND
  5
208
330
205
100
AcDbEntity
  8
\U+30EC\U+30A4\U+30E4\U+30FC 1
370
    13
  0
POLYLINE
  5
209
330
1F
100
AcDbEntity
  8
\U+30EC\U+30A4\U+30E4\U+30FC 1
 62
   179
420
  2432539
370
    13
100
AcDb2dPolyline
 66
     1
 10
0.0
 20
0.0
 30
0.0
  0
VERTEX
  5
20A
330
209
100
AcDbEntity
  8
\U+30EC\U+30A4\U+30E4\U+30FC 1
 62
   179
420
  2432539
370
    13
100
AcDbVertex
100
AcDb2dVertex
 10
-3.502800834627772
 20
192.906399148822
 30
0.0
  0
VERTEX
  5
20B
330
209
100
AcDbEntity
  8
\U+30EC\U+30A4\U+30E4\U+30FC 1
 62
   179
420
  2432539
370
    13
100
AcDbVertex
100
AcDb2dVertex
 10
-3.502800834627772
 20
197.9334824808986
 30
0.0
  0
SEQEND
  5
20C
330
209
100
AcDbEntity
  8
\U+30EC\U+30A4\U+30E4\U+30FC 1
370
    13
  0
MTEXT
  5
20D
330
1F
100
AcDbEntity
  8
\U+30EC\U+30A4\U+30E4\U+30FC 1
 62
   179
420
  2432539
100
AcDbMText
 10
40.84763589473601
 20
199.2441690582619
 30
0.0
 40
2.338197022235843
 41
0.0
 71
     7
 72
     1
  1
\fATC-65b030b44c2d5357495353|b0|i0|c0|p34;\W1.02;1000
 73
     1
 44
1.0
  0
POLYLINE
  5
20E
330
1F
100
AcDbEntity
  8
\U+30EC\U+30A4\U+30E4\U+30FC 1
 62
   179
420
  2432539
370
    13
100
AcDb2dPolyline
 66
     1
 10
0.0
 20
0.0
 30
0.0
  0
VERTEX
  5
20F
330
20E
100
AcDbEntity
  8
\U+30EC\U+30A4\U+30E4\U+30FC 1
 62
   179
420
  2432539
370
    13
100
AcDbVertex
100
AcDb2dVertex
 10
70.91660154477086
 20
125.9754285709367
 30
0.0
  0
VERTEX
  5
210
330
20E
100
AcDbEntity
  8
\U+30EC\U+30A4\U+30E4\U+30FC 1
 62
   179
420
  2432539
370
    13
100
AcDbVertex
100
AcDb2dVertex
 10
17.07613253696361
 20
125.9754285709367
 30
0.0
  0
SEQEND
  5
211
330
20E
100
AcDbEntity
  8
\U+30EC\U+30A4\U+30E4\U+30FC 1
370
    13
  0
POLYLINE
  5
212
330
1F
100
AcDbEntity
  8
\U+30EC\U+30A4\U+30E4\U+30FC 1
370
     0
100
AcDb2dPolyline
 66
     1
 10
0.0
 20
0.0
 30
0.0
  0
VERTEX
  5
213
330
212
100
AcDbEntity
  8
\U+30EC\U+30A4\U+30E4\U+30FC 1
370
     0
100
AcDbVertex
100
AcDb2dVertex
 10
70.5848388495413
 20
126.4425835187366
 30
0.0
  0
VERTEX
  5
214
330
212
100
AcDbEntity
  8
\U+30EC\U+30A4\U+30E4\U+30FC 1
370
     0
100
AcDbVertex
100
AcDb2dVertex
 10
72.40126544413927
 20
125.9547579980252
 30
0.0
  0
VERTEX
  5
215
330
212
100
AcDbEntity
  8
\U+30EC\U+30A4\U+30E4\U+30FC 1
370
     0
100
AcDbVertex
100
AcDb2dVertex
 10
70.5848388495413
 20
125.4683105155079
 30
0.0
  0
VERTEX
  5
216
330
212
100
AcDbEntity
  8
\U+30EC\U+30A4\U+30E4\U+30FC 1
370
     0
100
AcDbVertex
100
AcDb2dVertex
 10
70.5848388495413
 20
126.4425835187366
 30
0.0
  0
SEQEND
  5
217
330
212
100
AcDbEntity
  8
\U+30EC\U+30A4\U+30E4\U+30FC 1
370
     0
  0
HATCH
  5
218
330
1F
100
AcDbEntity
  8
\U+30EC\U+30A4\U+30E4\U+30FC 1
 62
   179
420
  2432539
100
AcDbHatch
 10
0.0
 20
0.0
 30
0.0
210
0.0
220
0.0
230
1.0
  2
SOLID
 70
     1
 71
     0
 91
        1
 92
        1
 93
        3
 72
     1
 10
70.5848388495413
 20
126.4425835187366
 11
72.40126544413927
 21
125.9547579980252
 72
     1
 10
72.40126544413927
 20
125.9547579980252
 11
70.5848388495413
 21
125.4683105155079
 72
     1
 10
70.5848388495413
 20
125.4683105155079
 11
70.5848388495413
 21
126.4425835187366
 97
        0
 75
     2
 76
     1
 98
        0
  0
POLYLINE
  5
219
330
1F
100
AcDbEntity
  8
\U+30EC\U+30A4\U+30E4\U+30FC 1
370
     0
100
AcDb2dPolyline
 66
     1
 10
0.0
 20
0.0
 30
0.0
  0
VERTEX
  5
21A
330
219
100
AcDbEntity
  8
\U+30EC\U+30A4\U+30E4\U+30FC 1
370
     0
100
AcDbVertex
100
AcDb2dVertex
 10
17.40841199651595
 20
126.4425835187366
 30
0.0
  0
VERTEX
  5
21B
330
219
100
AcDbEntity
  8
\U+30EC\U+30A4\U+30E4\U+30FC 1
370
     0
100
AcDbVertex
100
AcDb2dVertex
 10
15.59129638282093
 20
125.9547579980252
 30
0.0
  0
VERTEX
  5
21C
330
219
100
AcDbEntity
  8
\U+30EC\U+30A4\U+30E4\U+30FC 1
370
     0
100
AcDbVertex
100
AcDb2dVertex
 10
17.40841199651595
 20
125.4683105155079
 30
0.0
  0
VERTEX
  5
21D
330
219
100
AcDbEntity
  8
\U+30EC\U+30A4\U+30E4\U+30FC 1
370
     0
100
AcDbVertex
100
AcDb2dVertex
 10
17.40841199651595
 20
126.4425835187366
 30
0.0
  0
SEQEND
  5
21E
330
219
100
AcDbEntity
  8
\U+30EC\U+30A4\U+30E4\U+30FC 1
370
     0
  0
HATCH
  5
21F
330
1F
100
AcDbEntity
  8
\U+30EC\U+30A4\U+30E4\U+30FC 1
 62
   179
420
  2432539
100
AcDbHatch
 10
0.0
 20
0.0
 30
0.0
210
0.0
220
0.0
230
1.0
  2
SOLID
 70
     1
 71
     0
 91
        1
 92
        1
 93
        3
 72
     1
 10
17.40841199651595
 20
126.4425835187366
 11
15.59129638282093
 21
125.9547579980252
 72
     1
 10
15.59129638282093
 20
125.9547579980252
 11
17.40841199651595
 21
125.4683105155079
 72
     1
 10
17.40841199651595
 20
125.4683105155079
 11
17.40841199651595
 21
126.4425835187366
 97
        0
 75
     2
 76
     1
 98
        0
  0
POLYLINE
  5
220
330
1F
100
AcDbEntity
  8
\U+30EC\U+30A4\U+30E4\U+30FC 1
 62
   179
420
  2432539
370
    13
100
AcDb2dPolyline
 66
     1
 10
0.0
 20
0.0
 30
0.0
  0
VERTEX
  5
221
330
220
100
AcDbEntity
  8
\U+30EC\U+30A4\U+30E4\U+30FC 1
 62
   179
420
  2432539
370
    13
100
AcDbVertex
100
AcDb2dVertex
 10
15.59129638282093
 20
125.9754285709367
 30
0.0
  0
VERTEX
  5
222
330
220
100
AcDbEntity
  8
\U+30EC\U+30A4\U+30E4\U+30FC 1
 62
   179
420
  2432539
370
    13
100
AcDbVertex
100
AcDb2dVertex
 10
15.59129638282093
 20
131.0025119030133
 30
0.0
  0
SEQEND
  5
223
330
220
100
AcDbEntity
  8
\U+30EC\U+30A4\U+30E4\U+30FC 1
370
    13
  0
POLYLINE
  5
224
330
1F
100
AcDbEntity
  8
\U+30EC\U+30A4\U+30E4\U+30FC 1
 62
   179
420
  2432539
370
    13
100
AcDb2dPolyline
 66
     1
 10
0.0
 20
0.0
 30
0.0
  0
VERTEX
  5
225
330
224
100
AcDbEntity
  8
\U+30EC\U+30A4\U+30E4\U+30FC 1
 62
   179
420
  2432539
370
    13
100
AcDbVertex
100
AcDb2dVertex
 10
72.40126544413927
 20
131.0025119030133
 30
0.0
  0
VERTEX
  5
226
330
224
100
AcDbEntity
  8
\U+30EC\U+30A4\U+30E4\U+30FC 1
 62
   179
420
  2432539
370
    13
100
AcDbVertex
100
AcDb2dVertex
 10
72.40126544413927
 20
125.9754285709367
 30
0.0
  0
SEQEND
  5
227
330
224
100
AcDbEntity
  8
\U+30EC\U+30A4\U+30E4\U+30FC 1
370
    13
  0
MTEXT
  5
228
330
1F
100
AcDbEntity
  8
\U+30EC\U+30A4\U+30E4\U+30FC 1
 62
   179
420
  2432539
100
AcDbMText
 10
41.63587374176117
 20
122.5926893139699
 30
0.0
 40
2.338197022235843
 41
0.0
 71
     7
 72
     1
  1
\fATC-65b030b44c2d5357495353|b0|i0|c0|p34;\W1.02;598
 73
     1
 44
1.0
  0
POLYLINE
  5
229
330
1F
100
AcDbEntity
  8
\U+30EC\U+30A4\U+30E4\U+30FC 1
 62
   179
420
  2432539
370
    13
100
AcDb2dPolyline
 66
     1
 10
0.0
 20
0.0
 30
0.0
  0
VERTEX
  5
22A
330
229
100
AcDbEntity
  8
\U+30EC\U+30A4\U+30E4\U+30FC 1
 62
   179
420
  2432539
370
    13
100
AcDbVertex
100
AcDb2dVertex
 10
-12.34739447390968
 20
88.88828665312515
 30
0.0
  0
VERTEX
  5
22B
330
229
100
AcDbEntity
  8
\U+30EC\U+30A4\U+30E4\U+30FC 1
 62
   179
420
  2432539
370
    13
100
AcDbVertex
100
AcDb2dVertex
 10
-12.34739447390968
 20
90.13472219968854
 30
0.0
  0
SEQEND
  5
22C
330
229
100
AcDbEntity
  8
\U+30EC\U+30A4\U+30E4\U+30FC 1
370
    13
  0
POLYLINE
  5
22D
330
1F
100
AcDbEntity
  8
\U+30EC\U+30A4\U+30E4\U+30FC 1
370
     0
100
AcDb2dPolyline
 66
     1
 10
0.0
 20
0.0
 30
0.0
  0
VERTEX
  5
22E
330
22D
100
AcDbEntity
  8
\U+30EC\U+30A4\U+30E4\U+30FC 1
370
     0
100
AcDbVertex
100
AcDb2dVertex
 10
-12.02097167668226
 20
89.12048608883099
 30
0.0
  0
VERTEX
  5
22F
330
22D
100
AcDbEntity
  8
\U+30EC\U+30A4\U+30E4\U+30FC 1
370
     0
100
AcDbVertex
100
AcDb2dVertex
 10
-12.36169162017347
 20
87.84993487387085
 30
0.0
  0
VERTEX
  5
230
330
22D
100
AcDbEntity
  8
\U+30EC\U+30A4\U+30E4\U+30FC 1
370
     0
100
AcDbVertex
100
AcDb2dVertex
 10
-12.70241156366468
 20
89.12048608883099
 30
0.0
  0
VERTEX
  5
231
330
22D
100
AcDbEntity
  8
\U+30EC\U+30A4\U+30E4\U+30FC 1
370
     0
100
AcDbVertex
100
AcDb2dVertex
 10
-12.02097167668226
 20
89.12048608883099
 30
0.0
  0
SEQEND
  5
232
330
22D
100
AcDbEntity
  8
\U+30EC\U+30A4\U+30E4\U+30FC 1
370
     0
  0
HATCH
  5
233
330
1F
100
AcDbEntity
  8
\U+30EC\U+30A4\U+30E4\U+30FC 1
 62
   179
420
  2432539
100
AcDbHatch
 10
0.0
 20
0.0
 30
0.0
210
0.0
220
0.0
230
1.0
  2
SOLID
 70
     1
 71
     0
 91
        1
 92
        1
 93
        3
 72
     1
 10
-12.02097167668226
 20
89.12048608883099
 11
-12.36169162017347
 21
87.84993487387085
 72
     1
 10
-12.36169162017347
 20
87.84993487387085
 11
-12.70241156366468
 21
89.12048608883099
 72
     1
 10
-12.70241156366468
 20
89.12048608883099
 11
-12.02097167668226
 21
89.12048608883099
 97
        0
 75
     2
 76
     1
 98
        0
  0
POLYLINE
  5
234
330
1F
100
AcDbEntity
  8
\U+30EC\U+30A4\U+30E4\U+30FC 1
370
     0
100
AcDb2dPolyline
 66
     1
 10
0.0
 20
0.0
 30
0.0
  0
VERTEX
  5
235
330
234
100
AcDbEntity
  8
\U+30EC\U+30A4\U+30E4\U+30FC 1
370
     0
100
AcDbVertex
100
AcDb2dVertex
 10
-12.02097167668226
 20
89.90321178307975
 30
0.0
  0
VERTEX
  5
236
330
234
100
AcDbEntity
  8
\U+30EC\U+30A4\U+30E4\U+30FC 1
370
     0
100
AcDbVertex
100
AcDb2dVertex
 10
-12.36169162017347
 20
91.17445201713694
 30
0.0
  0
VERTEX
  5
237
330
234
100
AcDbEntity
  8
\U+30EC\U+30A4\U+30E4\U+30FC 1
370
     0
100
AcDbVertex
100
AcDb2dVertex
 10
-12.70241156366468
 20
89.90321178307975
 30
0.0
  0
VERTEX
  5
238
330
234
100
AcDbEntity
  8
\U+30EC\U+30A4\U+30E4\U+30FC 1
370
     0
100
AcDbVertex
100
AcDb2dVertex
 10
-12.02097167668226
 20
89.90321178307975
 30
0.0
  0
SEQEND
  5
239
330
234
100
AcDbEntity
  8
\U+30EC\U+30A4\U+30E4\U+30FC 1
370
     0
  0
HATCH
  5
23A
330
1F
100
AcDbEntity
  8
\U+30EC\U+30A4\U+30E4\U+30FC 1
 62
   179
420
  2432539
100
AcDbHatch
 10
0.0
 20
0.0
 30
0.0
210
0.0
220
0.0
230
1.0
  2
SOLID
 70
     1
 71
     0
 91
        1
 92
        1
 93
        3
 72
     1
 10
-12.02097167668226
 20
89.90321178307975
 11
-12.36169162017347
 21
91.17445201713694
 72
     1
 10
-12.36169162017347
 20
91.17445201713694
 11
-12.70241156366468
 21
89.90321178307975
 72
     1
 10
-12.70241156366468
 20
89.90321178307975
 11
-12.02097167668226
 21
89.90321178307975
 97
        0
 75
     2
 76
     1
 98
        0
  0
POLYLINE
  5
23B
330
1F
100
AcDbEntity
  8
\U+30EC\U+30A4\U+30E4\U+30FC 1
 62
   179
420
  2432539
370
    13
100
AcDb2dPolyline
 66
     1
 10
0.0
 20
0.0
 30
0.0
  0
VERTEX
  5
23C
330
23B
100
AcDbEntity
  8
\U+30EC\U+30A4\U+30E4\U+30FC 1
 62
   179
420
  2432539
370
    13
100
AcDbVertex
100
AcDb2dVertex
 10
-12.34739447390968
 20
91.17445201713694
 30
0.0
  0
VERTEX
  5
23D
330
23B
100
AcDbEntity
  8
\U+30EC\U+30A4\U+30E4\U+30FC 1
 62
   179
420
  2432539
370
    13
100
AcDbVertex
100
AcDb2dVertex
 10
-7.319966632284592
 20
91.17445201713694
 30
0.0
  0
SEQEND
  5
23E
330
23B
100
AcDbEntity
  8
\U+30EC\U+30A4\U+30E4\U+30FC 1
370
    13
  0
POLYLINE
  5
23F
330
1F
100
AcDbEntity
  8
\U+30EC\U+30A4\U+30E4\U+30FC 1
 62
   179
420
  2432539
370
    13
100
AcDb2dPolyline
 66
     1
 10
0.0
 20
0.0
 30
0.0
  0
VERTEX
  5
240
330
23F
100
AcDbEntity
  8
\U+30EC\U+30A4\U+30E4\U+30FC 1
 62
   179
420
  2432539
370
    13
100
AcDbVertex
100
AcDb2dVertex
 10
-7.320655651381642
 20
87.8492458547738
 30
0.0
  0
VERTEX
  5
241
330
23F
100
AcDbEntity
  8
\U+30EC\U+30A4\U+30E4\U+30FC 1
 62
   179
420
  2432539
370
    13
100
AcDbVertex
100
AcDb2dVertex
 10
-12.34773898345821
 20
87.8492458547738
 30
0.0
  0
SEQEND
  5
242
330
23F
100
AcDbEntity
  8
\U+30EC\U+30A4\U+30E4\U+30FC 1
370
    13
  0
MTEXT
  5
243
330
1F
100
AcDbEntity
  8
\U+30EC\U+30A4\U+30E4\U+30FC 1
 62
   179
420
  2432539
100
AcDbMText
 10
-13.68615857947777
 20
87.96672361082082
 30
0.0
 40
2.338173549831664
 41
0.0
 71
     7
 72
     1
  1
\fATC-65b030b44c2d5357495353|b0|i0|c0|p34;\W1.01999;35
 11
-4.371139000186241E-8
 21
0.999999999999999
 31
0.0
 73
     1
 44
1.0
  0
MTEXT
  5
244
330
1F
100
AcDbEntity
  8
\U+30EC\U+30A4\U+30E4\U+30FC 1
 62
   179
420
  2432539
100
AcDbMText
 10
41.29308674097881
 20
100.0107774272543
 30
0.0
 40
2.338197022235843
 41
0.0
 71
     7
 72
     1
  1
\fATC-65b030b44c2d5357495353|b0|i0|c0|p34;\W1.02;280
 73
     1
 44
1.0
  0
MTEXT
  5
245
330
1F
100
AcDbEntity
  8
\U+30EC\U+30A4\U+30E4\U+30FC 1
 62
   179
420
  2432539
100
AcDbMText
 10
17.40445013670791
 20
100.0107774272543
 30
0.0
 40
2.338197022235843
 41
0.0
 71
     7
 72
     1
  1
\fATC-65b030b44c2d5357495353|b0|i0|c0|p34;\W1.02;225
 73
     1
 44
1.0
  0
MTEXT
  5
246
330
1F
100
AcDbEntity
  8
\U+30EC\U+30A4\U+30E4\U+30FC 1
 62
   179
420
  2432539
100
AcDbMText
 10
65.2602715223134
 20
100.0107774272543
 30
0.0
 40
2.338197022235843
 41
0.0
 71
     7
 72
     1
  1
\fATC-65b030b44c2d5357495353|b0|i0|c0|p34;\W1.02;225
 73
     1
 44
1.0
  0
MTEXT
  5
247
330
1F
100
AcDbEntity
  8
\U+30EC\U+30A4\U+30E4\U+30FC 1
 62
   179
420
  2432539
100
AcDbMText
 10
0.4166842989409678
 20
100.0107774272543
 30
0.0
 40
2.338197022235843
 41
0.0
 71
     7
 72
     1
  1
\fATC-65b030b44c2d5357495353|b0|i0|c0|p34;\W1.02;135
 73
     1
 44
1.0
  0
POLYLINE
  5
248
330
1F
100
AcDbEntity
  8
\U+30EC\U+30A4\U+30E4\U+30FC 1
 62
   179
420
  2432539
370
    13
100
AcDb2dPolyline
 66
     1
 10
0.0
 20
0.0
 30
0.0
  0
VERTEX
  5
249
330
248
100
AcDbEntity
  8
\U+30EC\U+30A4\U+30E4\U+30FC 1
 62
   179
420
  2432539
370
    13
100
AcDbVertex
100
AcDb2dVertex
 10
-3.503489853724822
 20
95.59795462019774
 30
0.0
  0
VERTEX
  5
24A
330
248
100
AcDbEntity
  8
\U+30EC\U+30A4\U+30E4\U+30FC 1
 62
   179
420
  2432539
370
    13
100
AcDbVertex
100
AcDb2dVertex
 10
-3.503489853724822
 20
99.15742727555786
 30
0.0
  0
SEQEND
  5
24B
330
248
100
AcDbEntity
  8
\U+30EC\U+30A4\U+30E4\U+30FC 1
370
    13
  0
POLYLINE
  5
24C
330
1F
100
AcDbEntity
  8
\U+30EC\U+30A4\U+30E4\U+30FC 1
 62
   179
420
  2432539
370
    13
100
AcDb2dPolyline
 66
     1
 10
0.0
 20
0.0
 30
0.0
  0
VERTEX
  5
24D
330
24C
100
AcDbEntity
  8
\U+30EC\U+30A4\U+30E4\U+30FC 1
 62
   179
420
  2432539
370
    13
100
AcDbVertex
100
AcDb2dVertex
 10
9.321222599666223
 20
95.59795462019774
 30
0.0
  0
VERTEX
  5
24E
330
24C
100
AcDbEntity
  8
\U+30EC\U+30A4\U+30E4\U+30FC 1
 62
   179
420
  2432539
370
    13
100
AcDbVertex
100
AcDb2dVertex
 10
9.321222599666223
 20
99.15742727555786
 30
0.0
  0
SEQEND
  5
24F
330
24C
100
AcDbEntity
  8
\U+30EC\U+30A4\U+30E4\U+30FC 1
370
    13
  0
POLYLINE
  5
250
330
1F
100
AcDbEntity
  8
\U+30EC\U+30A4\U+30E4\U+30FC 1
 62
   179
420
  2432539
370
    13
100
AcDb2dPolyline
 66
     1
 10
0.0
 20
0.0
 30
0.0
  0
VERTEX
  5
251
330
250
100
AcDbEntity
  8
\U+30EC\U+30A4\U+30E4\U+30FC 1
 62
   179
420
  2432539
370
    13
100
AcDbVertex
100
AcDb2dVertex
 10
7.83621419074928
 20
99.15742727555786
 30
0.0
  0
VERTEX
  5
252
330
250
100
AcDbEntity
  8
\U+30EC\U+30A4\U+30E4\U+30FC 1
 62
   179
420
  2432539
370
    13
100
AcDbVertex
100
AcDb2dVertex
 10
-2.018825954356405
 20
99.15742727555786
 30
0.0
  0
SEQEND
  5
253
330
250
100
AcDbEntity
  8
\U+30EC\U+30A4\U+30E4\U+30FC 1
370
    13
  0
POLYLINE
  5
254
330
1F
100
AcDbEntity
  8
\U+30EC\U+30A4\U+30E4\U+30FC 1
370
     0
100
AcDb2dPolyline
 66
     1
 10
0.0
 20
0.0
 30
0.0
  0
VERTEX
  5
255
330
254
100
AcDbEntity
  8
\U+30EC\U+30A4\U+30E4\U+30FC 1
370
     0
100
AcDbVertex
100
AcDb2dVertex
 10
7.503762476422671
 20
99.62251516606659
 30
0.0
  0
VERTEX
  5
256
330
254
100
AcDbEntity
  8
\U+30EC\U+30A4\U+30E4\U+30FC 1
370
     0
100
AcDbVertex
100
AcDb2dVertex
 10
9.320878090117697
 20
99.13606768354933
 30
0.0
  0
VERTEX
  5
257
330
254
100
AcDbEntity
  8
\U+30EC\U+30A4\U+30E4\U+30FC 1
370
     0
100
AcDbVertex
100
AcDb2dVertex
 10
7.503762476422671
 20
98.64962020103205
 30
0.0
  0
VERTEX
  5
258
330
254
100
AcDbEntity
  8
\U+30EC\U+30A4\U+30E4\U+30FC 1
370
     0
100
AcDbVertex
100
AcDb2dVertex
 10
7.503762476422671
 20
99.62251516606659
 30
0.0
  0
SEQEND
  5
259
330
254
100
AcDbEntity
  8
\U+30EC\U+30A4\U+30E4\U+30FC 1
370
     0
  0
HATCH
  5
25A
330
1F
100
AcDbEntity
  8
\U+30EC\U+30A4\U+30E4\U+30FC 1
 62
   179
420
  2432539
100
AcDbHatch
 10
0.0
 20
0.0
 30
0.0
210
0.0
220
0.0
230
1.0
  2
SOLID
 70
     1
 71
     0
 91
        1
 92
        1
 93
        3
 72
     1
 10
7.503762476422671
 20
99.62251516606659
 11
9.320878090117697
 21
99.13606768354933
 72
     1
 10
9.320878090117697
 20
99.13606768354933
 11
7.503762476422671
 21
98.64962020103205
 72
     1
 10
7.503762476422671
 20
98.64962020103205
 11
7.503762476422671
 21
99.62251516606659
 97
        0
 75
     2
 76
     1
 98
        0
  0
POLYLINE
  5
25B
330
1F
100
AcDbEntity
  8
\U+30EC\U+30A4\U+30E4\U+30FC 1
370
     0
100
AcDb2dPolyline
 66
     1
 10
0.0
 20
0.0
 30
0.0
  0
VERTEX
  5
25C
330
25B
100
AcDbEntity
  8
\U+30EC\U+30A4\U+30E4\U+30FC 1
370
     0
100
AcDbVertex
100
AcDb2dVertex
 10
-1.687063259126845
 20
99.62251516606659
 30
0.0
  0
VERTEX
  5
25D
330
25B
100
AcDbEntity
  8
\U+30EC\U+30A4\U+30E4\U+30FC 1
370
     0
100
AcDbVertex
100
AcDb2dVertex
 10
-3.503489853724822
 20
99.13606768354933
 30
0.0
  0
VERTEX
  5
25E
330
25B
100
AcDbEntity
  8
\U+30EC\U+30A4\U+30E4\U+30FC 1
370
     0
100
AcDbVertex
100
AcDb2dVertex
 10
-1.687063259126845
 20
98.64962020103205
 30
0.0
  0
VERTEX
  5
25F
330
25B
100
AcDbEntity
  8
\U+30EC\U+30A4\U+30E4\U+30FC 1
370
     0
100
AcDbVertex
100
AcDb2dVertex
 10
-1.687063259126845
 20
99.62251516606659
 30
0.0
  0
SEQEND
  5
260
330
25B
100
AcDbEntity
  8
\U+30EC\U+30A4\U+30E4\U+30FC 1
370
     0
  0
HATCH
  5
261
330
1F
100
AcDbEntity
  8
\U+30EC\U+30A4\U+30E4\U+30FC 1
 62
   179
420
  2432539
100
AcDbHatch
 10
0.0
 20
0.0
 30
0.0
210
0.0
220
0.0
230
1.0
  2
SOLID
 70
     1
 71
     0
 91
        1
 92
        1
 93
        3
 72
     1
 10
-1.687063259126845
 20
99.62251516606659
 11
-3.503489853724822
 21
99.13606768354933
 72
     1
 10
-3.503489853724822
 20
99.13606768354933
 11
-1.687063259126845
 21
98.64962020103205
 72
     1
 10
-1.687063259126845
 20
98.64962020103205
 11
-1.687063259126845
 21
99.62251516606659
 97
        0
 75
     2
 76
     1
 98
        0
  0
POLYLINE
  5
262
330
1F
100
AcDbEntity
  8
\U+30EC\U+30A4\U+30E4\U+30FC 1
 62
   179
420
  2432539
370
    13
100
AcDb2dPolyline
 66
     1
 10
0.0
 20
0.0
 30
0.0
  0
VERTEX
  5
263
330
262
100
AcDbEntity
  8
\U+30EC\U+30A4\U+30E4\U+30FC 1
 62
   179
420
  2432539
370
    13
100
AcDbVertex
100
AcDb2dVertex
 10
30.69218342331654
 20
95.59795462019774
 30
0.0
  0
VERTEX
  5
264
330
262
100
AcDbEntity
  8
\U+30EC\U+30A4\U+30E4\U+30FC 1
 62
   179
420
  2432539
370
    13
100
AcDbVertex
100
AcDb2dVertex
 10
30.69218342331654
 20
99.15742727555786
 30
0.0
  0
SEQEND
  5
265
330
262
100
AcDbEntity
  8
\U+30EC\U+30A4\U+30E4\U+30FC 1
370
    13
  0
POLYLINE
  5
266
330
1F
100
AcDbEntity
  8
\U+30EC\U+30A4\U+30E4\U+30FC 1
 62
   179
420
  2432539
370
    13
100
AcDb2dPolyline
 66
     1
 10
0.0
 20
0.0
 30
0.0
  0
VERTEX
  5
267
330
266
100
AcDbEntity
  8
\U+30EC\U+30A4\U+30E4\U+30FC 1
 62
   179
420
  2432539
370
    13
100
AcDbVertex
100
AcDb2dVertex
 10
29.20407442846287
 20
99.15742727555786
 30
0.0
  0
VERTEX
  5
268
330
266
100
AcDbEntity
  8
\U+30EC\U+30A4\U+30E4\U+30FC 1
 62
   179
420
  2432539
370
    13
100
AcDbVertex
100
AcDb2dVertex
 10
10.79813503419283
 20
99.15742727555786
 30
0.0
  0
SEQEND
  5
269
330
266
100
AcDbEntity
  8
\U+30EC\U+30A4\U+30E4\U+30FC 1
370
    13
  0
POLYLINE
  5
26A
330
1F
100
AcDbEntity
  8
\U+30EC\U+30A4\U+30E4\U+30FC 1
370
     0
100
AcDb2dPolyline
 66
     1
 10
0.0
 20
0.0
 30
0.0
  0
VERTEX
  5
26B
330
26A
100
AcDbEntity
  8
\U+30EC\U+30A4\U+30E4\U+30FC 1
370
     0
100
AcDbVertex
100
AcDb2dVertex
 10
28.871450459362
 20
99.62251516606659
 30
0.0
  0
VERTEX
  5
26C
330
26A
100
AcDbEntity
  8
\U+30EC\U+30A4\U+30E4\U+30FC 1
370
     0
100
AcDbVertex
100
AcDb2dVertex
 10
30.6882215635085
 20
99.13606768354933
 30
0.0
  0
VERTEX
  5
26D
330
26A
100
AcDbEntity
  8
\U+30EC\U+30A4\U+30E4\U+30FC 1
370
     0
100
AcDbVertex
100
AcDb2dVertex
 10
28.871450459362
 20
98.64962020103205
 30
0.0
  0
VERTEX
  5
26E
330
26A
100
AcDbEntity
  8
\U+30EC\U+30A4\U+30E4\U+30FC 1
370
     0
100
AcDbVertex
100
AcDb2dVertex
 10
28.871450459362
 20
99.62251516606659
 30
0.0
  0
SEQEND
  5
26F
330
26A
100
AcDbEntity
  8
\U+30EC\U+30A4\U+30E4\U+30FC 1
370
     0
  0
HATCH
  5
270
330
1F
100
AcDbEntity
  8
\U+30EC\U+30A4\U+30E4\U+30FC 1
 62
   179
420
  2432539
100
AcDbHatch
 10
0.0
 20
0.0
 30
0.0
210
0.0
220
0.0
230
1.0
  2
SOLID
 70
     1
 71
     0
 91
        1
 92
        1
 93
        3
 72
     1
 10
28.871450459362
 20
99.62251516606659
 11
30.6882215635085
 21
99.13606768354933
 72
     1
 10
30.6882215635085
 20
99.13606768354933
 11
28.871450459362
 21
98.64962020103205
 72
     1
 10
28.871450459362
 20
98.64962020103205
 11
28.871450459362
 21
99.62251516606659
 97
        0
 75
     2
 76
     1
 98
        0
  0
POLYLINE
  5
271
330
1F
100
AcDbEntity
  8
\U+30EC\U+30A4\U+30E4\U+30FC 1
370
     0
100
AcDb2dPolyline
 66
     1
 10
0.0
 20
0.0
 30
0.0
  0
VERTEX
  5
272
330
271
100
AcDbEntity
  8
\U+30EC\U+30A4\U+30E4\U+30FC 1
370
     0
100
AcDbVertex
100
AcDb2dVertex
 10
11.13041449374517
 20
99.62251516606659
 30
0.0
  0
VERTEX
  5
273
330
271
100
AcDbEntity
  8
\U+30EC\U+30A4\U+30E4\U+30FC 1
370
     0
100
AcDbVertex
100
AcDb2dVertex
 10
9.313298880050148
 20
99.13606768354933
 30
0.0
  0
VERTEX
  5
274
330
271
100
AcDbEntity
  8
\U+30EC\U+30A4\U+30E4\U+30FC 1
370
     0
100
AcDbVertex
100
AcDb2dVertex
 10
11.13041449374517
 20
98.64962020103205
 30
0.0
  0
VERTEX
  5
275
330
271
100
AcDbEntity
  8
\U+30EC\U+30A4\U+30E4\U+30FC 1
370
     0
100
AcDbVertex
100
AcDb2dVertex
 10
11.13041449374517
 20
99.62251516606659
 30
0.0
  0
SEQEND
  5
276
330
271
100
AcDbEntity
  8
\U+30EC\U+30A4\U+30E4\U+30FC 1
370
     0
  0
HATCH
  5
277
330
1F
100
AcDbEntity
  8
\U+30EC\U+30A4\U+30E4\U+30FC 1
 62
   179
420
  2432539
100
AcDbHatch
 10
0.0
 20
0.0
 30
0.0
210
0.0
220
0.0
230
1.0
  2
SOLID
 70
     1
 71
     0
 91
        1
 92
        1
 93
        3
 72
     1
 10
11.13041449374517
 20
99.62251516606659
 11
9.313298880050148
 21
99.13606768354933
 72
     1
 10
9.313298880050148
 20
99.13606768354933
 11
11.13041449374517
 21
98.64962020103205
 72
     1
 10
11.13041449374517
 20
98.64962020103205
 11
11.13041449374517
 21
99.62251516606659
 97
        0
 75
     2
 76
     1
 98
        0
  0
POLYLINE
  5
278
330
1F
100
AcDbEntity
  8
\U+30EC\U+30A4\U+30E4\U+30FC 1
 62
   179
420
  2432539
370
    13
100
AcDb2dPolyline
 66
     1
 10
0.0
 20
0.0
 30
0.0
  0
VERTEX
  5
279
330
278
100
AcDbEntity
  8
\U+30EC\U+30A4\U+30E4\U+30FC 1
 62
   179
420
  2432539
370
    13
100
AcDbVertex
100
AcDb2dVertex
 10
57.28039684982921
 20
95.59795462019774
 30
0.0
  0
VERTEX
  5
27A
330
278
100
AcDbEntity
  8
\U+30EC\U+30A4\U+30E4\U+30FC 1
 62
   179
420
  2432539
370
    13
100
AcDbVertex
100
AcDb2dVertex
 10
57.28039684982921
 20
99.15742727555786
 30
0.0
  0
SEQEND
  5
27B
330
278
100
AcDbEntity
  8
\U+30EC\U+30A4\U+30E4\U+30FC 1
370
    13
  0
POLYLINE
  5
27C
330
1F
100
AcDbEntity
  8
\U+30EC\U+30A4\U+30E4\U+30FC 1
 62
   179
420
  2432539
370
    13
100
AcDb2dPolyline
 66
     1
 10
0.0
 20
0.0
 30
0.0
  0
VERTEX
  5
27D
330
27C
100
AcDbEntity
  8
\U+30EC\U+30A4\U+30E4\U+30FC 1
 62
   179
420
  2432539
370
    13
100
AcDbVertex
100
AcDb2dVertex
 10
55.76438258154502
 20
99.15742727555786
 30
0.0
  0
VERTEX
  5
27E
330
27C
100
AcDbEntity
  8
\U+30EC\U+30A4\U+30E4\U+30FC 1
 62
   179
420
  2432539
370
    13
100
AcDbVertex
100
AcDb2dVertex
 10
32.17271320810266
 20
99.15742727555786
 30
0.0
  0
SEQEND
  5
27F
330
27C
100
AcDbEntity
  8
\U+30EC\U+30A4\U+30E4\U+30FC 1
370
    13
  0
POLYLINE
  5
280
330
1F
100
AcDbEntity
  8
\U+30EC\U+30A4\U+30E4\U+30FC 1
370
     0
100
AcDb2dPolyline
 66
     1
 10
0.0
 20
0.0
 30
0.0
  0
VERTEX
  5
281
330
280
100
AcDbEntity
  8
\U+30EC\U+30A4\U+30E4\U+30FC 1
370
     0
100
AcDbVertex
100
AcDb2dVertex
 10
55.43227537676693
 20
99.62251516606659
 30
0.0
  0
VERTEX
  5
282
330
280
100
AcDbEntity
  8
\U+30EC\U+30A4\U+30E4\U+30FC 1
370
     0
100
AcDbVertex
100
AcDb2dVertex
 10
57.24870197136491
 20
99.13606768354933
 30
0.0
  0
VERTEX
  5
283
330
280
100
AcDbEntity
  8
\U+30EC\U+30A4\U+30E4\U+30FC 1
370
     0
100
AcDbVertex
100
AcDb2dVertex
 10
55.43227537676693
 20
98.64962020103205
 30
0.0
  0
VERTEX
  5
284
330
280
100
AcDbEntity
  8
\U+30EC\U+30A4\U+30E4\U+30FC 1
370
     0
100
AcDbVertex
100
AcDb2dVertex
 10
55.43227537676693
 20
99.62251516606659
 30
0.0
  0
SEQEND
  5
285
330
280
100
AcDbEntity
  8
\U+30EC\U+30A4\U+30E4\U+30FC 1
370
     0
  0
HATCH
  5
286
330
1F
100
AcDbEntity
  8
\U+30EC\U+30A4\U+30E4\U+30FC 1
 62
   179
420
  2432539
100
AcDbHatch
 10
0.0
 20
0.0
 30
0.0
210
0.0
220
0.0
230
1.0
  2
SOLID
 70
     1
 71
     0
 91
        1
 92
        1
 93
        3
 72
     1
 10
55.43227537676693
 20
99.62251516606659
 11
57.24870197136491
 21
99.13606768354933
 72
     1
 10
57.24870197136491
 20
99.13606768354933
 11
55.43227537676693
 21
98.64962020103205
 72
     1
 10
55.43227537676693
 20
98.64962020103205
 11
55.43227537676693
 21
99.62251516606659
 97
        0
 75
     2
 76
     1
 98
        0
  0
POLYLINE
  5
287
330
1F
100
AcDbEntity
  8
\U+30EC\U+30A4\U+30E4\U+30FC 1
370
     0
100
AcDb2dPolyline
 66
     1
 10
0.0
 20
0.0
 30
0.0
  0
VERTEX
  5
288
330
287
100
AcDbEntity
  8
\U+30EC\U+30A4\U+30E4\U+30FC 1
370
     0
100
AcDbVertex
100
AcDb2dVertex
 10
32.50533717720353
 20
99.62251516606659
 30
0.0
  0
VERTEX
  5
289
330
287
100
AcDbEntity
  8
\U+30EC\U+30A4\U+30E4\U+30FC 1
370
     0
100
AcDbVertex
100
AcDb2dVertex
 10
30.6882215635085
 20
99.13606768354933
 30
0.0
  0
VERTEX
  5
28A
330
287
100
AcDbEntity
  8
\U+30EC\U+30A4\U+30E4\U+30FC 1
370
     0
100
AcDbVertex
100
AcDb2dVertex
 10
32.50533717720353
 20
98.64962020103205
 30
0.0
  0
VERTEX
  5
28B
330
287
100
AcDbEntity
  8
\U+30EC\U+30A4\U+30E4\U+30FC 1
370
     0
100
AcDbVertex
100
AcDb2dVertex
 10
32.50533717720353
 20
99.62251516606659
 30
0.0
  0
SEQEND
  5
28C
330
287
100
AcDbEntity
  8
\U+30EC\U+30A4\U+30E4\U+30FC 1
370
     0
  0
HATCH
  5
28D
330
1F
100
AcDbEntity
  8
\U+30EC\U+30A4\U+30E4\U+30FC 1
 62
   179
420
  2432539
100
AcDbHatch
 10
0.0
 20
0.0
 30
0.0
210
0.0
220
0.0
230
1.0
  2
SOLID
 70
     1
 71
     0
 91
        1
 92
        1
 93
        3
 72
     1
 10
32.50533717720353
 20
99.62251516606659
 11
30.6882215635085
 21
99.13606768354933
 72
     1
 10
30.6882215635085
 20
99.13606768354933
 11
32.50533717720353
 21
98.64962020103205
 72
     1
 10
32.50533717720353
 20
98.64962020103205
 11
32.50533717720353
 21
99.62251516606659
 97
        0
 75
     2
 76
     1
 98
        0
  0
POLYLINE
  5
28E
330
1F
100
AcDbEntity
  8
\U+30EC\U+30A4\U+30E4\U+30FC 1
 62
   179
420
  2432539
370
    13
100
AcDb2dPolyline
 66
     1
 10
0.0
 20
0.0
 30
0.0
  0
VERTEX
  5
28F
330
28E
100
AcDbEntity
  8
\U+30EC\U+30A4\U+30E4\U+30FC 1
 62
   179
420
  2432539
370
    13
100
AcDbVertex
100
AcDb2dVertex
 10
78.65204669257658
 20
95.59795462019774
 30
0.0
  0
VERTEX
  5
290
330
28E
100
AcDbEntity
  8
\U+30EC\U+30A4\U+30E4\U+30FC 1
 62
   179
420
  2432539
370
    13
100
AcDbVertex
100
AcDb2dVertex
 10
78.65204669257658
 20
99.15742727555786
 30
0.0
  0
SEQEND
  5
291
330
28E
100
AcDbEntity
  8
\U+30EC\U+30A4\U+30E4\U+30FC 1
370
    13
  0
POLYLINE
  5
292
330
1F
100
AcDbEntity
  8
\U+30EC\U+30A4\U+30E4\U+30FC 1
 62
   179
420
  2432539
370
    13
100
AcDb2dPolyline
 66
     1
 10
0.0
 20
0.0
 30
0.0
  0
VERTEX
  5
293
330
292
100
AcDbEntity
  8
\U+30EC\U+30A4\U+30E4\U+30FC 1
 62
   179
420
  2432539
370
    13
100
AcDbVertex
100
AcDb2dVertex
 10
77.18081866560063
 20
99.15742727555786
 30
0.0
  0
VERTEX
  5
294
330
292
100
AcDbEntity
  8
\U+30EC\U+30A4\U+30E4\U+30FC 1
 62
   179
420
  2432539
370
    13
100
AcDbVertex
100
AcDb2dVertex
 10
58.77539603565337
 20
99.15742727555786
 30
0.0
  0
SEQEND
  5
295
330
292
100
AcDbEntity
  8
\U+30EC\U+30A4\U+30E4\U+30FC 1
370
    13
  0
POLYLINE
  5
296
330
1F
100
AcDbEntity
  8
\U+30EC\U+30A4\U+30E4\U+30FC 1
370
     0
100
AcDb2dPolyline
 66
     1
 10
0.0
 20
0.0
 30
0.0
  0
VERTEX
  5
297
330
296
100
AcDbEntity
  8
\U+30EC\U+30A4\U+30E4\U+30FC 1
370
     0
100
AcDbVertex
100
AcDb2dVertex
 10
76.84905597037107
 20
99.62251516606659
 30
0.0
  0
VERTEX
  5
298
330
296
100
AcDbEntity
  8
\U+30EC\U+30A4\U+30E4\U+30FC 1
370
     0
100
AcDbVertex
100
AcDb2dVertex
 10
78.66582707451758
 20
99.13606768354933
 30
0.0
  0
VERTEX
  5
299
330
296
100
AcDbEntity
  8
\U+30EC\U+30A4\U+30E4\U+30FC 1
370
     0
100
AcDbVertex
100
AcDb2dVertex
 10
76.84905597037107
 20
98.64962020103205
 30
0.0
  0
VERTEX
  5
29A
330
296
100
AcDbEntity
  8
\U+30EC\U+30A4\U+30E4\U+30FC 1
370
     0
100
AcDbVertex
100
AcDb2dVertex
 10
76.84905597037107
 20
99.62251516606659
 30
0.0
  0
SEQEND
  5
29B
330
296
100
AcDbEntity
  8
\U+30EC\U+30A4\U+30E4\U+30FC 1
370
     0
  0
HATCH
  5
29C
330
1F
100
AcDbEntity
  8
\U+30EC\U+30A4\U+30E4\U+30FC 1
 62
   179
420
  2432539
100
AcDbHatch
 10
0.0
 20
0.0
 30
0.0
210
0.0
220
0.0
230
1.0
  2
SOLID
 70
     1
 71
     0
 91
        1
 92
        1
 93
        3
 72
     1
 10
76.84905597037107
 20
99.62251516606659
 11
78.66582707451758
 21
99.13606768354933
 72
     1
 10
78.66582707451758
 20
99.13606768354933
 11
76.84905597037107
 21
98.64962020103205
 72
     1
 10
76.84905597037107
 20
98.64962020103205
 11
76.84905597037107
 21
99.62251516606659
 97
        0
 75
     2
 76
     1
 98
        0
  0
POLYLINE
  5
29D
330
1F
100
AcDbEntity
  8
\U+30EC\U+30A4\U+30E4\U+30FC 1
370
     0
100
AcDb2dPolyline
 66
     1
 10
0.0
 20
0.0
 30
0.0
  0
VERTEX
  5
29E
330
29D
100
AcDbEntity
  8
\U+30EC\U+30A4\U+30E4\U+30FC 1
370
     0
100
AcDbVertex
100
AcDb2dVertex
 10
59.10767549520573
 20
99.62251516606659
 30
0.0
  0
VERTEX
  5
29F
330
29D
100
AcDbEntity
  8
\U+30EC\U+30A4\U+30E4\U+30FC 1
370
     0
100
AcDbVertex
100
AcDb2dVertex
 10
57.29124890060775
 20
99.13606768354933
 30
0.0
  0
VERTEX
  5
2A0
330
29D
100
AcDbEntity
  8
\U+30EC\U+30A4\U+30E4\U+30FC 1
370
     0
100
AcDbVertex
100
AcDb2dVertex
 10
59.10767549520573
 20
98.64962020103205
 30
0.0
  0
VERTEX
  5
2A1
330
29D
100
AcDbEntity
  8
\U+30EC\U+30A4\U+30E4\U+30FC 1
370
     0
100
AcDbVertex
100
AcDb2dVertex
 10
59.10767549520573
 20
99.62251516606659
 30
0.0
  0
SEQEND
  5
2A2
330
29D
100
AcDbEntity
  8
\U+30EC\U+30A4\U+30E4\U+30FC 1
370
     0
  0
HATCH
  5
2A3
330
1F
100
AcDbEntity
  8
\U+30EC\U+30A4\U+30E4\U+30FC 1
 62
   179
420
  2432539
100
AcDbHatch
 10
0.0
 20
0.0
 30
0.0
210
0.0
220
0.0
230
1.0
  2
SOLID
 70
     1
 71
     0
 91
        1
 92
        1
 93
        3
 72
     1
 10
59.10767549520573
 20
99.62251516606659
 11
57.29124890060775
 21
99.13606768354933
 72
     1
 10
57.29124890060775
 20
99.13606768354933
 11
59.10767549520573
 21
98.64962020103205
 72
     1
 10
59.10767549520573
 20
98.64962020103205
 11
59.10767549520573
 21
99.62251516606659
 97
        0
 75
     2
 76
     1
 98
        0
  0
MTEXT
  5
2A4
330
1F
100
AcDbEntity
  8
\U+30EC\U+30A4\U+30E4\U+30FC 1
 62
   179
420
  2432539
100
AcDbMText
 10
82.36069198244803
 20
100.0107774272543
 30
0.0
 40
2.338197022235843
 41
0.0
 71
     7
 72
     1
  1
\fATC-65b030b44c2d5357495353|b0|i0|c0|p34;\W1.02;135
 73
     1
 44
1.0
  0
POLYLINE
  5
2A5
330
1F
100
AcDbEntity
  8
\U+30EC\U+30A4\U+30E4\U+30FC 1
 62
   179
420
  2432539
370
    13
100
AcDb2dPolyline
 66
     1
 10
0.0
 20
0.0
 30
0.0
  0
VERTEX
  5
2A6
330
2A5
100
AcDbEntity
  8
\U+30EC\U+30A4\U+30E4\U+30FC 1
 62
   179
420
  2432539
370
    13
100
AcDbVertex
100
AcDb2dVertex
 10
91.47141924796549
 20
95.59795462019774
 30
0.0
  0
VERTEX
  5
2A7
330
2A5
100
AcDbEntity
  8
\U+30EC\U+30A4\U+30E4\U+30FC 1
 62
   179
420
  2432539
370
    13
100
AcDbVertex
100
AcDb2dVertex
 10
91.47141924796549
 20
99.15742727555786
 30
0.0
  0
SEQEND
  5
2A8
330
2A5
100
AcDbEntity
  8
\U+30EC\U+30A4\U+30E4\U+30FC 1
370
    13
  0
POLYLINE
  5
2A9
330
1F
100
AcDbEntity
  8
\U+30EC\U+30A4\U+30E4\U+30FC 1
 62
   179
420
  2432539
370
    13
100
AcDb2dPolyline
 66
     1
 10
0.0
 20
0.0
 30
0.0
  0
VERTEX
  5
2AA
330
2A9
100
AcDbEntity
  8
\U+30EC\U+30A4\U+30E4\U+30FC 1
 62
   179
420
  2432539
370
    13
100
AcDbVertex
100
AcDb2dVertex
 10
89.98727211291985
 20
99.15742727555786
 30
0.0
  0
VERTEX
  5
2AB
330
2A9
100
AcDbEntity
  8
\U+30EC\U+30A4\U+30E4\U+30FC 1
 62
   179
420
  2432539
370
    13
100
AcDbVertex
100
AcDb2dVertex
 10
80.16117076989026
 20
99.15742727555786
 30
0.0
  0
SEQEND
  5
2AC
330
2A9
100
AcDbEntity
  8
\U+30EC\U+30A4\U+30E4\U+30FC 1
370
    13
  0
POLYLINE
  5
2AD
330
1F
100
AcDbEntity
  8
\U+30EC\U+30A4\U+30E4\U+30FC 1
370
     0
100
AcDb2dPolyline
 66
     1
 10
0.0
 20
0.0
 30
0.0
  0
VERTEX
  5
2AE
330
2AD
100
AcDbEntity
  8
\U+30EC\U+30A4\U+30E4\U+30FC 1
370
     0
100
AcDbVertex
100
AcDb2dVertex
 10
89.6549926533675
 20
99.62251516606659
 30
0.0
  0
VERTEX
  5
2AF
330
2AD
100
AcDbEntity
  8
\U+30EC\U+30A4\U+30E4\U+30FC 1
370
     0
100
AcDbVertex
100
AcDb2dVertex
 10
91.47141924796549
 20
99.13606768354933
 30
0.0
  0
VERTEX
  5
2B0
330
2AD
100
AcDbEntity
  8
\U+30EC\U+30A4\U+30E4\U+30FC 1
370
     0
100
AcDbVertex
100
AcDb2dVertex
 10
89.6549926533675
 20
98.64962020103205
 30
0.0
  0
VERTEX
  5
2B1
330
2AD
100
AcDbEntity
  8
\U+30EC\U+30A4\U+30E4\U+30FC 1
370
     0
100
AcDbVertex
100
AcDb2dVertex
 10
89.6549926533675
 20
99.62251516606659
 30
0.0
  0
SEQEND
  5
2B2
330
2AD
100
AcDbEntity
  8
\U+30EC\U+30A4\U+30E4\U+30FC 1
370
     0
  0
HATCH
  5
2B3
330
1F
100
AcDbEntity
  8
\U+30EC\U+30A4\U+30E4\U+30FC 1
 62
   179
420
  2432539
100
AcDbHatch
 10
0.0
 20
0.0
 30
0.0
210
0.0
220
0.0
230
1.0
  2
SOLID
 70
     1
 71
     0
 91
        1
 92
        1
 93
        3
 72
     1
 10
89.6549926533675
 20
99.62251516606659
 11
91.47141924796549
 21
99.13606768354933
 72
     1
 10
91.47141924796549
 20
99.13606768354933
 11
89.6549926533675
 21
98.64962020103205
 72
     1
 10
89.6549926533675
 20
98.64962020103205
 11
89.6549926533675
 21
99.62251516606659
 97
        0
 75
     2
 76
     1
 98
        0
  0
POLYLINE
  5
2B4
330
1F
100
AcDbEntity
  8
\U+30EC\U+30A4\U+30E4\U+30FC 1
370
     0
100
AcDb2dPolyline
 66
     1
 10
0.0
 20
0.0
 30
0.0
  0
VERTEX
  5
2B5
330
2B4
100
AcDbEntity
  8
\U+30EC\U+30A4\U+30E4\U+30FC 1
370
     0
100
AcDbVertex
100
AcDb2dVertex
 10
80.49327797466835
 20
99.62251516606659
 30
0.0
  0
VERTEX
  5
2B6
330
2B4
100
AcDbEntity
  8
\U+30EC\U+30A4\U+30E4\U+30FC 1
370
     0
100
AcDbVertex
100
AcDb2dVertex
 10
78.67650687052185
 20
99.13606768354933
 30
0.0
  0
VERTEX
  5
2B7
330
2B4
100
AcDbEntity
  8
\U+30EC\U+30A4\U+30E4\U+30FC 1
370
     0
100
AcDbVertex
100
AcDb2dVertex
 10
80.49327797466835
 20
98.64962020103205
 30
0.0
  0
VERTEX
  5
2B8
330
2B4
100
AcDbEntity
  8
\U+30EC\U+30A4\U+30E4\U+30FC 1
370
     0
100
AcDbVertex
100
AcDb2dVertex
 10
80.49327797466835
 20
99.62251516606659
 30
0.0
  0
SEQEND
  5
2B9
330
2B4
100
AcDbEntity
  8
\U+30EC\U+30A4\U+30E4\U+30FC 1
370
     0
  0
HATCH
  5
2BA
330
1F
100
AcDbEntity
  8
\U+30EC\U+30A4\U+30E4\U+30FC 1
 62
   179
420
  2432539
100
AcDbHatch
 10
0.0
 20
0.0
 30
0.0
210
0.0
220
0.0
230
1.0
  2
SOLID
 70
     1
 71
     0
 91
        1
 92
        1
 93
        3
 72
     1
 10
80.49327797466835
 20
99.62251516606659
 11
78.67650687052185
 21
99.13606768354933
 72
     1
 10
78.67650687052185
 20
99.13606768354933
 11
80.49327797466835
 21
98.64962020103205
 72
     1
 10
80.49327797466835
 20
98.64962020103205
 11
80.49327797466835
 21
99.62251516606659
 97
        0
 75
     2
 76
     1
 98
        0
  0
POLYLINE
  5
2BB
330
1F
100
AcDbEntity
  8
\U+30EC\U+30A4\U+30E4\U+30FC 1
 62
   179
420
  2432539
370
    13
100
AcDb2dPolyline
 66
     1
 10
0.0
 20
0.0
 30
0.0
  0
VERTEX
  5
2BC
330
2BB
100
AcDbEntity
  8
\U+30EC\U+30A4\U+30E4\U+30FC 1
 62
   179
420
  2432539
370
    13
100
AcDbVertex
100
AcDb2dVertex
 10
182.2204019726741
 20
96.69004988902194
 30
0.0
  0
VERTEX
  5
2BD
330
2BB
100
AcDbEntity
  8
\U+30EC\U+30A4\U+30E4\U+30FC 1
 62
   179
420
  2432539
370
    13
100
AcDbVertex
100
AcDb2dVertex
 10
182.2204019726741
 20
100.1165418586514
 30
0.0
  0
SEQEND
  5
2BE
330
2BB
100
AcDbEntity
  8
\U+30EC\U+30A4\U+30E4\U+30FC 1
370
    13
  0
POLYLINE
  5
2BF
330
1F
100
AcDbEntity
  8
\U+30EC\U+30A4\U+30E4\U+30FC 1
 62
   179
420
  2432539
370
    13
100
AcDb2dPolyline
 66
     1
 10
0.0
 20
0.0
 30
0.0
  0
VERTEX
  5
2C0
330
2BF
100
AcDbEntity
  8
\U+30EC\U+30A4\U+30E4\U+30FC 1
 62
   179
420
  2432539
370
    13
100
AcDbVertex
100
AcDb2dVertex
 10
209.5913410934355
 20
96.69004988902194
 30
0.0
  0
VERTEX
  5
2C1
330
2BF
100
AcDbEntity
  8
\U+30EC\U+30A4\U+30E4\U+30FC 1
 62
   179
420
  2432539
370
    13
100
AcDbVertex
100
AcDb2dVertex
 10
209.5913410934355
 20
100.1165418586514
 30
0.0
  0
SEQEND
  5
2C2
330
2BF
100
AcDbEntity
  8
\U+30EC\U+30A4\U+30E4\U+30FC 1
370
    13
  0
POLYLINE
  5
2C3
330
1F
100
AcDbEntity
  8
\U+30EC\U+30A4\U+30E4\U+30FC 1
 62
   179
420
  2432539
370
    13
100
AcDb2dPolyline
 66
     1
 10
0.0
 20
0.0
 30
0.0
  0
VERTEX
  5
2C4
330
2C3
100
AcDbEntity
  8
\U+30EC\U+30A4\U+30E4\U+30FC 1
 62
   179
420
  2432539
370
    13
100
AcDbVertex
100
AcDb2dVertex
 10
183.7048936172682
 20
100.1206759732337
 30
0.0
  0
VERTEX
  5
2C5
330
2C3
100
AcDbEntity
  8
\U+30EC\U+30A4\U+30E4\U+30FC 1
 62
   179
420
  2432539
370
    13
100
AcDbVertex
100
AcDb2dVertex
 10
208.1071939583899
 20
100.1206759732337
 30
0.0
  0
SEQEND
  5
2C6
330
2C3
100
AcDbEntity
  8
\U+30EC\U+30A4\U+30E4\U+30FC 1
370
    13
  0
POLYLINE
  5
2C7
330
1F
100
AcDbEntity
  8
\U+30EC\U+30A4\U+30E4\U+30FC 1
370
     0
100
AcDb2dPolyline
 66
     1
 10
0.0
 20
0.0
 30
0.0
  0
VERTEX
  5
2C8
330
2C7
100
AcDbEntity
  8
\U+30EC\U+30A4\U+30E4\U+30FC 1
370
     0
100
AcDbVertex
100
AcDb2dVertex
 10
184.0370008220463
 20
99.6542100445309
 30
0.0
  0
VERTEX
  5
2C9
330
2C7
100
AcDbEntity
  8
\U+30EC\U+30A4\U+30E4\U+30FC 1
370
     0
100
AcDbVertex
100
AcDb2dVertex
 10
182.2204019726741
 20
100.1420355652423
 30
0.0
  0
VERTEX
  5
2CA
330
2C7
100
AcDbEntity
  8
\U+30EC\U+30A4\U+30E4\U+30FC 1
370
     0
100
AcDbVertex
100
AcDb2dVertex
 10
184.0370008220463
 20
100.6277940286625
 30
0.0
  0
VERTEX
  5
2CB
330
2C7
100
AcDbEntity
  8
\U+30EC\U+30A4\U+30E4\U+30FC 1
370
     0
100
AcDbVertex
100
AcDb2dVertex
 10
184.0370008220463
 20
99.6542100445309
 30
0.0
  0
SEQEND
  5
2CC
330
2C7
100
AcDbEntity
  8
\U+30EC\U+30A4\U+30E4\U+30FC 1
370
     0
  0
HATCH
  5
2CD
330
1F
100
AcDbEntity
  8
\U+30EC\U+30A4\U+30E4\U+30FC 1
 62
   179
420
  2432539
100
AcDbHatch
 10
0.0
 20
0.0
 30
0.0
210
0.0
220
0.0
230
1.0
  2
SOLID
 70
     1
 71
     0
 91
        1
 92
        1
 93
        3
 72
     1
 10
184.0370008220463
 20
99.6542100445309
 11
182.2204019726741
 21
100.1420355652423
 72
     1
 10
182.2204019726741
 20
100.1420355652423
 11
184.0370008220463
 21
100.6277940286625
 72
     1
 10
184.0370008220463
 20
100.6277940286625
 11
184.0370008220463
 21
99.6542100445309
 97
        0
 75
     2
 76
     1
 98
        0
  0
POLYLINE
  5
2CE
330
1F
100
AcDbEntity
  8
\U+30EC\U+30A4\U+30E4\U+30FC 1
370
     0
100
AcDb2dPolyline
 66
     1
 10
0.0
 20
0.0
 30
0.0
  0
VERTEX
  5
2CF
330
2CE
100
AcDbEntity
  8
\U+30EC\U+30A4\U+30E4\U+30FC 1
370
     0
100
AcDbVertex
100
AcDb2dVertex
 10
207.7747422440633
 20
99.6542100445309
 30
0.0
  0
VERTEX
  5
2D0
330
2CE
100
AcDbEntity
  8
\U+30EC\U+30A4\U+30E4\U+30FC 1
370
     0
100
AcDbVertex
100
AcDb2dVertex
 10
209.5913410934355
 20
100.1420355652423
 30
0.0
  0
VERTEX
  5
2D1
330
2CE
100
AcDbEntity
  8
\U+30EC\U+30A4\U+30E4\U+30FC 1
370
     0
100
AcDbVertex
100
AcDb2dVertex
 10
207.7747422440633
 20
100.6277940286625
 30
0.0
  0
VERTEX
  5
2D2
330
2CE
100
AcDbEntity
  8
\U+30EC\U+30A4\U+30E4\U+30FC 1
370
     0
100
AcDbVertex
100
AcDb2dVertex
 10
207.7747422440633
 20
99.6542100445309
 30
0.0
  0
SEQEND
  5
2D3
330
2CE
100
AcDbEntity
  8
\U+30EC\U+30A4\U+30E4\U+30FC 1
370
     0
  0
HATCH
  5
2D4
330
1F
100
AcDbEntity
  8
\U+30EC\U+30A4\U+30E4\U+30FC 1
 62
   179
420
  2432539
100
AcDbHatch
 10
0.0
 20
0.0
 30
0.0
210
0.0
220
0.0
230
1.0
  2
SOLID
 70
     1
 71
     0
 91
        1
 92
        1
 93
        3
 72
     1
 10
207.7747422440633
 20
99.6542100445309
 11
209.5913410934355
 21
100.1420355652423
 72
     1
 10
209.5913410934355
 20
100.1420355652423
 11
207.7747422440633
 21
100.6277940286625
 72
     1
 10
207.7747422440633
 20
100.6277940286625
 11
207.7747422440633
 21
99.6542100445309
 97
        0
 75
     2
 76
     1
 98
        0
  0
MTEXT
  5
2D5
330
1F
100
AcDbEntity
  8
\U+30EC\U+30A4\U+30E4\U+30FC 1
 62
   179
420
  2432539
100
AcDbMText
 10
193.1988877555197
 20
100.7824788159502
 30
0.0
 40
2.338158683975684
 41
0.0
 71
     7
 72
     1
  1
\fATC-65b030b44c2d5357495353|b0|i0|c0|p34;\W1.02;290
 73
     1
 44
1.0
  0
SPLINE
  5
2D6
330
1F
100
AcDbEntity
  8
\U+30EC\U+30A4\U+30E4\U+30FC 1
 62
   179
420
  2432539
370
    25
100
AcDbSpline
210
0.0
220
0.0
230
1.0
 70
    11
 71
     3
 72
    17
 73
    13
 74
     0
 42
0.0000000001
 43
0.0000000001
 40
0.0
 40
0.0
 40
0.0
 40
0.0
 40
1.0
 40
1.0
 40
1.0
 40
2.0
 40
2.0
 40
2.0
 40
3.0
 40
3.0
 40
3.0
 40
4.0
 40
4.0
 40
4.0
 40
4.0
 10
177.468581769869
 20
157.8365328923985
 30
0.0
 10
175.7853081157759
 20
157.8365328923985
 30
0.0
 10
174.421050303617
 20
159.1830484628084
 30
0.0
 10
174.421050303617
 20
160.84565154399
 30
0.0
 10
174.421050303617
 20
162.5082546251716
 30
0.0
 10
175.7853081157759
 20
163.8552869599042
 30
0.0
 10
177.468581769869
 20
163.8552869599042
 30
0.0
 10
179.1508218953165
 20
163.8552869599042
 30
0.0
 10
180.5147351979269
 20
162.5082546251716
 30
0.0
 10
180.5147351979269
 20
160.84565154399
 30
0.0
 10
180.5147351979269
 20
159.1830484628084
 30
0.0
 10
179.1508218953165
 20
157.8365328923985
 30
0.0
 10
177.468581769869
 20
157.8365328923985
 30
0.0
  0
SPLINE
  5
2D7
330
1F
100
AcDbEntity
  8
\U+30EC\U+30A4\U+30E4\U+30FC 1
 62
   179
420
  2432539
370
    25
100
AcDbSpline
210
0.0
220
0.0
230
1.0
 70
    11
 71
     3
 72
    17
 73
    13
 74
     0
 42
0.0000000001
 43
0.0000000001
 40
0.0
 40
0.0
 40
0.0
 40
0.0
 40
1.0
 40
1.0
 40
1.0
 40
2.0
 40
2.0
 40
2.0
 40
3.0
 40
3.0
 40
3.0
 40
4.0
 40
4.0
 40
4.0
 40
4.0
 10
177.4864962663923
 20
180.1004624658256
 30
0.0
 10
176.5687228291217
 20
180.1004624658256
 30
0.0
 10
175.8232041661136
 20
180.8342678041838
 30
0.0
 10
175.8232041661136
 20
181.7427394836442
 30
0.0
 10
175.8232041661136
 20
182.6486273414906
 30
0.0
 10
176.5687228291217
 20
183.3850165014628
 30
0.0
 10
177.4864962663923
 20
183.3850165014628
 30
0.0
 10
178.4049587227599
 20
183.3850165014628
 30
0.0
 10
179.1484103284768
 20
182.6486273414906
 30
0.0
 10
179.1484103284768
 20
181.7427394836442
 30
0.0
 10
179.1484103284768
 20
180.8342678041838
 30
0.0
 10
178.4049587227599
 20
180.1004624658256
 30
0.0
 10
177.4864962663923
 20
180.1004624658256
 30
0.0
  0
SPLINE
  5
2D8
330
1F
100
AcDbEntity
  8
\U+30EC\U+30A4\U+30E4\U+30FC 1
  6
AI-Linetype-29
 62
   179
420
  2432539
370
    13
100
AcDbSpline
210
0.0
220
0.0
230
1.0
 70
    11
 71
     3
 72
    56
 73
    52
 74
     0
 42
0.0000000001
 43
0.0000000001
 40
0.0
 40
0.0
 40
0.0
 40
0.0
 40
1.0
 40
1.0
 40
1.0
 40
2.0
 40
2.0
 40
2.0
 40
3.0
 40
3.0
 40
3.0
 40
4.0
 40
4.0
 40
4.0
 40
5.0
 40
5.0
 40
5.0
 40
6.0
 40
6.0
 40
6.0
 40
7.0
 40
7.0
 40
7.0
 40
8.0
 40
8.0
 40
8.0
 40
9.0
 40
9.0
 40
9.0
 40
10.0
 40
10.0
 40
10.0
 40
11.0
 40
11.0
 40
11.0
 40
12.0
 40
12.0
 40
12.0
 40
13.0
 40
13.0
 40
13.0
 40
14.0
 40
14.0
 40
14.0
 40
15.0
 40
15.0
 40
15.0
 40
16.0
 40
16.0
 40
16.0
 40
17.0
 40
17.0
 40
17.0
 40
17.0
 10
137.5481933249879
 20
135.176589592942
 30
0.0
 10
135.5445257907666
 20
135.176589592942
 30
0.0
 10
133.6228515290943
 20
135.9779188028111
 30
0.0
 10
132.205883756011
 20
137.4034993146075
 30
0.0
 10
132.205883756011
 20
137.4034993146075
 30
0.0
 10
132.2089843419478
 20
137.4034993146075
 30
0.0
 10
132.2089843419478
 20
137.4034993146075
 30
0.0
 10
130.792361078413
 20
138.8283908073068
 30
0.0
 10
129.9972330404174
 20
140.7622951579518
 30
0.0
 10
129.9972330404174
 20
142.7776760168229
 30
0.0
 10
129.9972330404174
 20
142.7776760168229
 30
0.0
 10
129.9941324544806
 20
142.7776760168229
 30
0.0
 10
129.9941324544806
 20
142.7776760168229
 30
0.0
 10
129.9941324544806
 20
142.7776760168229
 30
0.0
 10
129.9941324544806
 20
188.0927394820567
 30
0.0
 10
129.9941324544806
 20
188.0927394820567
 30
0.0
 10
129.9941324544806
 20
188.0927394820567
 30
0.0
 10
129.9944769640292
 20
188.0803371383098
 30
0.0
 10
129.9944769640292
 20
188.0803371383098
 30
0.0
 10
129.9944769640292
 20
188.282564243294
 30
0.0
 10
130.0764702365781
 20
188.3650742801657
 30
0.0
 10
130.2769747938196
 20
188.3650742801657
 30
0.0
 10
130.2769747938196
 20
188.3650742801657
 30
0.0
 10
130.2755967556255
 20
188.3774766239126
 30
0.0
 10
130.2755967556255
 20
188.3774766239126
 30
0.0
 10
130.2755967556255
 20
188.3774766239126
 30
0.0
 10
187.3374022969157
 20
188.3774766239126
 30
0.0
 10
187.3374022969157
 20
188.3774766239126
 30
0.0
 10
187.3374022969157
 20
188.3774766239126
 30
0.0
 10
187.3063964375484
 20
188.3774766239126
 30
0.0
 10
187.3063964375484
 20
188.3774766239126
 30
0.0
 10
187.3063964375484
 20
188.3774766239126
 30
0.0
 10
224.710487140003
 20
188.3774766239126
 30
0.0
 10
224.710487140003
 20
188.3774766239126
 30
0.0
 10
224.910647187696
 20
188.3774766239126
 30
0.0
 10
224.9943630079875
 20
188.2935885488467
 30
0.0
 10
224.9943630079875
 20
188.0927394820567
 30
0.0
 10
224.9943630079875
 20
188.0927394820567
 30
0.0
 10
224.9943630079875
 20
142.7776760168229
 30
0.0
 10
224.9943630079875
 20
142.7776760168229
 30
0.0
 10
224.9943630079875
 20
140.7622951579518
 30
0.0
 10
224.1975124222492
 20
138.8283908073068
 30
0.0
 10
222.780544649166
 20
137.4034993146075
 30
0.0
 10
221.3649549142768
 20
135.9779188028111
 30
0.0
 10
219.4422471239589
 20
135.176589592942
 30
0.0
 10
217.4385795897376
 20
135.176589592942
 30
0.0
 10
217.4385795897376
 20
135.176589592942
 30
0.0
 10
187.321210348135
 20
135.176589592942
 30
0.0
 10
187.321210348135
 20
135.176589592942
 30
0.0
 10
187.321210348135
 20
135.176589592942
 30
0.0
 10
137.5481933249879
 20
135.176589592942
 30
0.0
 10
137.5481933249879
 20
135.176589592942
 30
0.0
  0
POLYLINE
  5
2DA
330
1F
100
AcDbEntity
  8
\U+30EC\U+30A4\U+30E4\U+30FC 1
  6
AI-Linetype-30
 62
   179
420
  2432539
370
    25
100
AcDb2dPolyline
 66
     1
 10
0.0
 20
0.0
 30
0.0
  0
VERTEX
  5
2DB
330
2DA
100
AcDbEntity
  8
\U+30EC\U+30A4\U+30E4\U+30FC 1
  6
AI-Linetype-30
 62
   179
420
  2432539
370
    25
100
AcDbVertex
100
AcDb2dVertex
 10
203.1999999492
 20
146.583817508927
 30
0.0
  0
VERTEX
  5
2DC
330
2DA
100
AcDbEntity
  8
\U+30EC\U+30A4\U+30E4\U+30FC 1
  6
AI-Linetype-30
 62
   179
420
  2432539
370
    25
100
AcDbVertex
100
AcDb2dVertex
 10
151.8997720974417
 20
146.583817508927
 30
0.0
  0
VERTEX
  5
2DD
330
2DA
100
AcDbEntity
  8
\U+30EC\U+30A4\U+30E4\U+30FC 1
  6
AI-Linetype-30
 62
   179
420
  2432539
370
    25
100
AcDbVertex
100
AcDb2dVertex
 10
151.8997720974417
 20
188.3833332862375
 30
0.0
  0
VERTEX
  5
2DE
330
2DA
100
AcDbEntity
  8
\U+30EC\U+30A4\U+30E4\U+30FC 1
  6
AI-Linetype-30
 62
   179
420
  2432539
370
    25
100
AcDbVertex
100
AcDb2dVertex
 10
203.1999999492
 20
188.3833332862375
 30
0.0
  0
VERTEX
  5
2DF
330
2DA
100
AcDbEntity
  8
\U+30EC\U+30A4\U+30E4\U+30FC 1
  6
AI-Linetype-30
 62
   179
420
  2432539
370
    25
100
AcDbVertex
100
AcDb2dVertex
 10
203.1999999492
 20
146.583817508927
 30
0.0
  0
SEQEND
  5
2E0
330
2DA
100
AcDbEntity
  8
\U+30EC\U+30A4\U+30E4\U+30FC 1
  6
AI-Linetype-30
370
    25
  0
POLYLINE
  5
2E2
330
1F
100
AcDbEntity
  8
\U+30EC\U+30A4\U+30E4\U+30FC 1
 62
   179
420
  2432539
370
    13
100
AcDb2dPolyline
 66
     1
 10
0.0
 20
0.0
 30
0.0
  0
VERTEX
  5
2E3
330
2E2
100
AcDbEntity
  8
\U+30EC\U+30A4\U+30E4\U+30FC 1
 62
   179
420
  2432539
370
    13
100
AcDbVertex
100
AcDb2dVertex
 10
194.2269042483183
 20
188.5862494103187
 30
0.0
  0
VERTEX
  5
2E4
330
2E2
100
AcDbEntity
  8
\U+30EC\U+30A4\U+30E4\U+30FC 1
 62
   179
420
  2432539
370
    13
100
AcDbVertex
100
AcDb2dVertex
 10
194.2269042483183
 20
203.4352999708426
 30
0.0
  0
SEQEND
  5
2E5
330
2E2
100
AcDbEntity
  8
\U+30EC\U+30A4\U+30E4\U+30FC 1
370
    13
  0
POLYLINE
  5
2E6
330
1F
100
AcDbEntity
  8
\U+30EC\U+30A4\U+30E4\U+30FC 1
 62
   179
420
  2432539
370
    13
100
AcDb2dPolyline
 66
     1
 10
0.0
 20
0.0
 30
0.0
  0
VERTEX
  5
2E7
330
2E6
100
AcDbEntity
  8
\U+30EC\U+30A4\U+30E4\U+30FC 1
 62
   179
420
  2432539
370
    13
100
AcDbVertex
100
AcDb2dVertex
 10
241.216628628932
 20
186.8628403938225
 30
0.0
  0
VERTEX
  5
2E8
330
2E6
100
AcDbEntity
  8
\U+30EC\U+30A4\U+30E4\U+30FC 1
 62
   179
420
  2432539
370
    13
100
AcDbVertex
100
AcDb2dVertex
 10
241.216628628932
 20
136.6979437592283
 30
0.0
  0
SEQEND
  5
2E9
330
2E6
100
AcDbEntity
  8
\U+30EC\U+30A4\U+30E4\U+30FC 1
370
    13
  0
POLYLINE
  5
2EA
330
1F
100
AcDbEntity
  8
\U+30EC\U+30A4\U+30E4\U+30FC 1
370
     0
100
AcDb2dPolyline
 66
     1
 10
0.0
 20
0.0
 30
0.0
  0
VERTEX
  5
2EB
330
2EA
100
AcDbEntity
  8
\U+30EC\U+30A4\U+30E4\U+30FC 1
370
     0
100
AcDbVertex
100
AcDb2dVertex
 10
240.7501627002291
 20
186.5309054438187
 30
0.0
  0
VERTEX
  5
2EC
330
2EA
100
AcDbEntity
  8
\U+30EC\U+30A4\U+30E4\U+30FC 1
370
     0
100
AcDbVertex
100
AcDb2dVertex
 10
241.2366101827464
 20
188.3473320384167
 30
0.0
  0
VERTEX
  5
2ED
330
2EA
100
AcDbEntity
  8
\U+30EC\U+30A4\U+30E4\U+30FC 1
370
     0
100
AcDbVertex
100
AcDb2dVertex
 10
241.7237466843607
 20
186.5309054438187
 30
0.0
  0
VERTEX
  5
2EE
330
2EA
100
AcDbEntity
  8
\U+30EC\U+30A4\U+30E4\U+30FC 1
370
     0
100
AcDbVertex
100
AcDb2dVertex
 10
240.7501627002291
 20
186.5309054438187
 30
0.0
  0
SEQEND
  5
2EF
330
2EA
100
AcDbEntity
  8
\U+30EC\U+30A4\U+30E4\U+30FC 1
370
     0
  0
HATCH
  5
2F0
330
1F
100
AcDbEntity
  8
\U+30EC\U+30A4\U+30E4\U+30FC 1
 62
   179
420
  2432539
100
AcDbHatch
 10
0.0
 20
0.0
 30
0.0
210
0.0
220
0.0
230
1.0
  2
SOLID
 70
     1
 71
     0
 91
        1
 92
        1
 93
        3
 72
     1
 10
240.7501627002291
 20
186.5309054438187
 11
241.2366101827464
 21
188.3473320384167
 72
     1
 10
241.2366101827464
 20
188.3473320384167
 11
241.7237466843607
 21
186.5309054438187
 72
     1
 10
241.7237466843607
 20
186.5309054438187
 11
240.7501627002291
 21
186.5309054438187
 97
        0
 75
     2
 76
     1
 98
        0
  0
POLYLINE
  5
2F1
330
1F
100
AcDbEntity
  8
\U+30EC\U+30A4\U+30E4\U+30FC 1
370
     0
100
AcDb2dPolyline
 66
     1
 10
0.0
 20
0.0
 30
0.0
  0
VERTEX
  5
2F2
330
2F1
100
AcDbEntity
  8
\U+30EC\U+30A4\U+30E4\U+30FC 1
370
     0
100
AcDbVertex
100
AcDb2dVertex
 10
240.7501627002291
 20
137.0307399831034
 30
0.0
  0
VERTEX
  5
2F3
330
2F1
100
AcDbEntity
  8
\U+30EC\U+30A4\U+30E4\U+30FC 1
370
     0
100
AcDbVertex
100
AcDb2dVertex
 10
241.2366101827464
 20
135.2137966241827
 30
0.0
  0
VERTEX
  5
2F4
330
2F1
100
AcDbEntity
  8
\U+30EC\U+30A4\U+30E4\U+30FC 1
370
     0
100
AcDbVertex
100
AcDb2dVertex
 10
241.7237466843607
 20
137.0307399831034
 30
0.0
  0
VERTEX
  5
2F5
330
2F1
100
AcDbEntity
  8
\U+30EC\U+30A4\U+30E4\U+30FC 1
370
     0
100
AcDbVertex
100
AcDb2dVertex
 10
240.7501627002291
 20
137.0307399831034
 30
0.0
  0
SEQEND
  5
2F6
330
2F1
100
AcDbEntity
  8
\U+30EC\U+30A4\U+30E4\U+30FC 1
370
     0
  0
HATCH
  5
2F7
330
1F
100
AcDbEntity
  8
\U+30EC\U+30A4\U+30E4\U+30FC 1
 62
   179
420
  2432539
100
AcDbHatch
 10
0.0
 20
0.0
 30
0.0
210
0.0
220
0.0
230
1.0
  2
SOLID
 70
     1
 71
     0
 91
        1
 92
        1
 93
        3
 72
     1
 10
240.7501627002291
 20
137.0307399831034
 11
241.2366101827464
 21
135.2137966241827
 72
     1
 10
241.2366101827464
 20
135.2137966241827
 11
241.7237466843607
 21
137.0307399831034
 72
     1
 10
241.7237466843607
 20
137.0307399831034
 11
240.7501627002291
 21
137.0307399831034
 97
        0
 75
     2
 76
     1
 98
        0
  0
POLYLINE
  5
2F8
330
1F
100
AcDbEntity
  8
\U+30EC\U+30A4\U+30E4\U+30FC 1
 62
   179
420
  2432539
370
    13
100
AcDb2dPolyline
 66
     1
 10
0.0
 20
0.0
 30
0.0
  0
VERTEX
  5
2F9
330
2F8
100
AcDbEntity
  8
\U+30EC\U+30A4\U+30E4\U+30FC 1
 62
   179
420
  2432539
370
    13
100
AcDbVertex
100
AcDb2dVertex
 10
241.216628628932
 20
135.2144856432797
 30
0.0
  0
VERTEX
  5
2FA
330
2F8
100
AcDbEntity
  8
\U+30EC\U+30A4\U+30E4\U+30FC 1
 62
   179
420
  2432539
370
    13
100
AcDbVertex
100
AcDb2dVertex
 10
236.1892007873069
 20
135.2144856432797
 30
0.0
  0
SEQEND
  5
2FB
330
2F8
100
AcDbEntity
  8
\U+30EC\U+30A4\U+30E4\U+30FC 1
370
    13
  0
POLYLINE
  5
2FC
330
1F
100
AcDbEntity
  8
\U+30EC\U+30A4\U+30E4\U+30FC 1
 62
   179
420
  2432539
370
    13
100
AcDb2dPolyline
 66
     1
 10
0.0
 20
0.0
 30
0.0
  0
VERTEX
  5
2FD
330
2FC
100
AcDbEntity
  8
\U+30EC\U+30A4\U+30E4\U+30FC 1
 62
   179
420
  2432539
370
    13
100
AcDbVertex
100
AcDb2dVertex
 10
236.1895452968554
 20
188.3473320384167
 30
0.0
  0
VERTEX
  5
2FE
330
2FC
100
AcDbEntity
  8
\U+30EC\U+30A4\U+30E4\U+30FC 1
 62
   179
420
  2432539
370
    13
100
AcDbVertex
100
AcDb2dVertex
 10
241.216628628932
 20
188.3473320384167
 30
0.0
  0
SEQEND
  5
2FF
330
2FC
100
AcDbEntity
  8
\U+30EC\U+30A4\U+30E4\U+30FC 1
370
    13
  0
MTEXT
  5
300
330
1F
100
AcDbEntity
  8
\U+30EC\U+30A4\U+30E4\U+30FC 1
 62
   179
420
  2432539
100
AcDbMText
 10
244.5700845742741
 20
159.4038790834129
 30
0.0
 40
2.338173549831664
 41
0.0
 71
     7
 72
     1
  1
\fATC-65b030b44c2d5357495353|b0|i0|c0|p34;\W1.01999;560
 11
-4.371139000186241E-8
 21
0.999999999999999
 31
0.0
 73
     1
 44
1.0
  0
POLYLINE
  5
301
330
1F
100
AcDbEntity
  8
\U+30EC\U+30A4\U+30E4\U+30FC 1
 62
   179
420
  2432539
370
    13
100
AcDb2dPolyline
 66
     1
 10
0.0
 20
0.0
 30
0.0
  0
VERTEX
  5
302
330
301
100
AcDbEntity
  8
\U+30EC\U+30A4\U+30E4\U+30FC 1
 62
   179
420
  2432539
370
    13
100
AcDbVertex
100
AcDb2dVertex
 10
233.5922878105256
 20
186.8628403938225
 30
0.0
  0
VERTEX
  5
303
330
301
100
AcDbEntity
  8
\U+30EC\U+30A4\U+30E4\U+30FC 1
 62
   179
420
  2432539
370
    13
100
AcDbVertex
100
AcDb2dVertex
 10
233.5922878105256
 20
148.2281615840367
 30
0.0
  0
SEQEND
  5
304
330
301
100
AcDbEntity
  8
\U+30EC\U+30A4\U+30E4\U+30FC 1
370
    13
  0
POLYLINE
  5
305
330
1F
100
AcDbEntity
  8
\U+30EC\U+30A4\U+30E4\U+30FC 1
370
     0
100
AcDb2dPolyline
 66
     1
 10
0.0
 20
0.0
 30
0.0
  0
VERTEX
  5
306
330
305
100
AcDbEntity
  8
\U+30EC\U+30A4\U+30E4\U+30FC 1
370
     0
100
AcDbVertex
100
AcDb2dVertex
 10
233.1254773722742
 20
186.5309054438187
 30
0.0
  0
VERTEX
  5
307
330
305
100
AcDbEntity
  8
\U+30EC\U+30A4\U+30E4\U+30FC 1
370
     0
100
AcDbVertex
100
AcDb2dVertex
 10
233.61226936434
 20
188.3473320384167
 30
0.0
  0
VERTEX
  5
308
330
305
100
AcDbEntity
  8
\U+30EC\U+30A4\U+30E4\U+30FC 1
370
     0
100
AcDbVertex
100
AcDb2dVertex
 10
234.0997503755029
 20
186.5309054438187
 30
0.0
  0
VERTEX
  5
309
330
305
100
AcDbEntity
  8
\U+30EC\U+30A4\U+30E4\U+30FC 1
370
     0
100
AcDbVertex
100
AcDb2dVertex
 10
233.1254773722742
 20
186.5309054438187
 30
0.0
  0
SEQEND
  5
30A
330
305
100
AcDbEntity
  8
\U+30EC\U+30A4\U+30E4\U+30FC 1
370
     0
  0
HATCH
  5
30B
330
1F
100
AcDbEntity
  8
\U+30EC\U+30A4\U+30E4\U+30FC 1
 62
   179
420
  2432539
100
AcDbHatch
 10
0.0
 20
0.0
 30
0.0
210
0.0
220
0.0
230
1.0
  2
SOLID
 70
     1
 71
     0
 91
        1
 92
        1
 93
        3
 72
     1
 10
233.1254773722742
 20
186.5309054438187
 11
233.61226936434
 21
188.3473320384167
 72
     1
 10
233.61226936434
 20
188.3473320384167
 11
234.0997503755029
 21
186.5309054438187
 72
     1
 10
234.0997503755029
 20
186.5309054438187
 11
233.1254773722742
 21
186.5309054438187
 97
        0
 75
     2
 76
     1
 98
        0
  0
POLYLINE
  5
30C
330
1F
100
AcDbEntity
  8
\U+30EC\U+30A4\U+30E4\U+30FC 1
370
     0
100
AcDb2dPolyline
 66
     1
 10
0.0
 20
0.0
 30
0.0
  0
VERTEX
  5
30D
330
30C
100
AcDbEntity
  8
\U+30EC\U+30A4\U+30E4\U+30FC 1
370
     0
100
AcDbVertex
100
AcDb2dVertex
 10
233.1254773722742
 20
148.5600965340405
 30
0.0
  0
VERTEX
  5
30E
330
30C
100
AcDbEntity
  8
\U+30EC\U+30A4\U+30E4\U+30FC 1
370
     0
100
AcDbVertex
100
AcDb2dVertex
 10
233.61226936434
 20
146.7436699394426
 30
0.0
  0
VERTEX
  5
30F
330
30C
100
AcDbEntity
  8
\U+30EC\U+30A4\U+30E4\U+30FC 1
370
     0
100
AcDbVertex
100
AcDb2dVertex
 10
234.0997503755029
 20
148.5600965340405
 30
0.0
  0
VERTEX
  5
310
330
30C
100
AcDbEntity
  8
\U+30EC\U+30A4\U+30E4\U+30FC 1
370
     0
100
AcDbVertex
100
AcDb2dVertex
 10
233.1254773722742
 20
148.5600965340405
 30
0.0
  0
SEQEND
  5
311
330
30C
100
AcDbEntity
  8
\U+30EC\U+30A4\U+30E4\U+30FC 1
370
     0
  0
HATCH
  5
312
330
1F
100
AcDbEntity
  8
\U+30EC\U+30A4\U+30E4\U+30FC 1
 62
   179
420
  2432539
100
AcDbHatch
 10
0.0
 20
0.0
 30
0.0
210
0.0
220
0.0
230
1.0
  2
SOLID
 70
     1
 71
     0
 91
        1
 92
        1
 93
        3
 72
     1
 10
233.1254773722742
 20
148.5600965340405
 11
233.61226936434
 21
146.7436699394426
 72
     1
 10
233.61226936434
 20
146.7436699394426
 11
234.0997503755029
 21
148.5600965340405
 72
     1
 10
234.0997503755029
 20
148.5600965340405
 11
233.1254773722742
 21
148.5600965340405
 97
        0
 75
     2
 76
     1
 98
        0
  0
POLYLINE
  5
313
330
1F
100
AcDbEntity
  8
\U+30EC\U+30A4\U+30E4\U+30FC 1
 62
   179
420
  2432539
370
    13
100
AcDb2dPolyline
 66
     1
 10
0.0
 20
0.0
 30
0.0
  0
VERTEX
  5
314
330
313
100
AcDbEntity
  8
\U+30EC\U+30A4\U+30E4\U+30FC 1
 62
   179
420
  2432539
370
    13
100
AcDbVertex
100
AcDb2dVertex
 10
233.5922878105256
 20
146.7436699394426
 30
0.0
  0
VERTEX
  5
315
330
313
100
AcDbEntity
  8
\U+30EC\U+30A4\U+30E4\U+30FC 1
 62
   179
420
  2432539
370
    13
100
AcDbVertex
100
AcDb2dVertex
 10
228.5648599689005
 20
146.7436699394426
 30
0.0
  0
SEQEND
  5
316
330
313
100
AcDbEntity
  8
\U+30EC\U+30A4\U+30E4\U+30FC 1
370
    13
  0
POLYLINE
  5
317
330
1F
100
AcDbEntity
  8
\U+30EC\U+30A4\U+30E4\U+30FC 1
 62
   179
420
  2432539
370
    13
100
AcDb2dPolyline
 66
     1
 10
0.0
 20
0.0
 30
0.0
  0
VERTEX
  5
318
330
317
100
AcDbEntity
  8
\U+30EC\U+30A4\U+30E4\U+30FC 1
 62
   179
420
  2432539
370
    13
100
AcDbVertex
100
AcDb2dVertex
 10
228.565204478449
 20
188.3473320384167
 30
0.0
  0
VERTEX
  5
319
330
317
100
AcDbEntity
  8
\U+30EC\U+30A4\U+30E4\U+30FC 1
 62
   179
420
  2432539
370
    13
100
AcDbVertex
100
AcDb2dVertex
 10
233.5922878105256
 20
188.3473320384167
 30
0.0
  0
SEQEND
  5
31A
330
317
100
AcDbEntity
  8
\U+30EC\U+30A4\U+30E4\U+30FC 1
370
    13
  0
MTEXT
  5
31B
330
1F
100
AcDbEntity
  8
\U+30EC\U+30A4\U+30E4\U+30FC 1
 62
   179
420
  2432539
100
AcDbMText
 10
236.9460882654163
 20
165.2694986565993
 30
0.0
 40
2.338173549831664
 41
0.0
 71
     7
 72
     1
  1
\fATC-65b030b44c2d5357495353|b0|i0|c0|p34;\W1.01999;440
 11
-4.371139000186241E-8
 21
0.999999999999999
 31
0.0
 73
     1
 44
1.0
  0
POLYLINE
  5
31C
330
1F
100
AcDbEntity
  8
\U+30EC\U+30A4\U+30E4\U+30FC 1
 62
   179
420
  2432539
370
    13
100
AcDb2dPolyline
 66
     1
 10
0.0
 20
0.0
 30
0.0
  0
VERTEX
  5
31D
330
31C
100
AcDbEntity
  8
\U+30EC\U+30A4\U+30E4\U+30FC 1
 62
   179
420
  2432539
370
    13
100
AcDbVertex
100
AcDb2dVertex
 10
223.3524304997175
 20
122.1038302646129
 30
0.0
  0
VERTEX
  5
31E
330
31C
100
AcDbEntity
  8
\U+30EC\U+30A4\U+30E4\U+30FC 1
 62
   179
420
  2432539
370
    13
100
AcDbVertex
100
AcDb2dVertex
 10
131.550282085168
 20
122.1038302646129
 30
0.0
  0
SEQEND
  5
31F
330
31C
100
AcDbEntity
  8
\U+30EC\U+30A4\U+30E4\U+30FC 1
370
    13
  0
POLYLINE
  5
320
330
1F
100
AcDbEntity
  8
\U+30EC\U+30A4\U+30E4\U+30FC 1
370
     0
100
AcDb2dPolyline
 66
     1
 10
0.0
 20
0.0
 30
0.0
  0
VERTEX
  5
321
330
320
100
AcDbEntity
  8
\U+30EC\U+30A4\U+30E4\U+30FC 1
370
     0
100
AcDbVertex
100
AcDb2dVertex
 10
223.0203232949394
 20
122.5696071742187
 30
0.0
  0
VERTEX
  5
322
330
320
100
AcDbEntity
  8
\U+30EC\U+30A4\U+30E4\U+30FC 1
370
     0
100
AcDbVertex
100
AcDb2dVertex
 10
224.8369221443116
 20
122.0838487107985
 30
0.0
  0
VERTEX
  5
323
330
320
100
AcDbEntity
  8
\U+30EC\U+30A4\U+30E4\U+30FC 1
370
     0
100
AcDbVertex
100
AcDb2dVertex
 10
223.0203232949394
 20
121.5967122091842
 30
0.0
  0
VERTEX
  5
324
330
320
100
AcDbEntity
  8
\U+30EC\U+30A4\U+30E4\U+30FC 1
370
     0
100
AcDbVertex
100
AcDb2dVertex
 10
223.0203232949394
 20
122.5696071742187
 30
0.0
  0
SEQEND
  5
325
330
320
100
AcDbEntity
  8
\U+30EC\U+30A4\U+30E4\U+30FC 1
370
     0
  0
HATCH
  5
326
330
1F
100
AcDbEntity
  8
\U+30EC\U+30A4\U+30E4\U+30FC 1
 62
   179
420
  2432539
100
AcDbHatch
 10
0.0
 20
0.0
 30
0.0
210
0.0
220
0.0
230
1.0
  2
SOLID
 70
     1
 71
     0
 91
        1
 92
        1
 93
        3
 72
     1
 10
223.0203232949394
 20
122.5696071742187
 11
224.8369221443116
 21
122.0838487107985
 72
     1
 10
224.8369221443116
 20
122.0838487107985
 11
223.0203232949394
 21
121.5967122091842
 72
     1
 10
223.0203232949394
 20
121.5967122091842
 11
223.0203232949394
 21
122.5696071742187
 97
        0
 75
     2
 76
     1
 98
        0
  0
POLYLINE
  5
327
330
1F
100
AcDbEntity
  8
\U+30EC\U+30A4\U+30E4\U+30FC 1
370
     0
100
AcDb2dPolyline
 66
     1
 10
0.0
 20
0.0
 30
0.0
  0
VERTEX
  5
328
330
327
100
AcDbEntity
  8
\U+30EC\U+30A4\U+30E4\U+30FC 1
370
     0
100
AcDbVertex
100
AcDb2dVertex
 10
131.8820447803976
 20
122.5696071742187
 30
0.0
  0
VERTEX
  5
329
330
327
100
AcDbEntity
  8
\U+30EC\U+30A4\U+30E4\U+30FC 1
370
     0
100
AcDbVertex
100
AcDb2dVertex
 10
130.0657904405738
 20
122.0838487107985
 30
0.0
  0
VERTEX
  5
32A
330
327
100
AcDbEntity
  8
\U+30EC\U+30A4\U+30E4\U+30FC 1
370
     0
100
AcDbVertex
100
AcDb2dVertex
 10
131.8820447803976
 20
121.5967122091842
 30
0.0
  0
VERTEX
  5
32B
330
327
100
AcDbEntity
  8
\U+30EC\U+30A4\U+30E4\U+30FC 1
370
     0
100
AcDbVertex
100
AcDb2dVertex
 10
131.8820447803976
 20
122.5696071742187
 30
0.0
  0
SEQEND
  5
32C
330
327
100
AcDbEntity
  8
\U+30EC\U+30A4\U+30E4\U+30FC 1
370
     0
  0
HATCH
  5
32D
330
1F
100
AcDbEntity
  8
\U+30EC\U+30A4\U+30E4\U+30FC 1
 62
   179
420
  2432539
100
AcDbHatch
 10
0.0
 20
0.0
 30
0.0
210
0.0
220
0.0
230
1.0
  2
SOLID
 70
     1
 71
     0
 91
        1
 92
        1
 93
        3
 72
     1
 10
131.8820447803976
 20
122.5696071742187
 11
130.0657904405738
 21
122.0838487107985
 72
     1
 10
130.0657904405738
 20
122.0838487107985
 11
131.8820447803976
 21
121.5967122091842
 72
     1
 10
131.8820447803976
 20
121.5967122091842
 11
131.8820447803976
 21
122.5696071742187
 97
        0
 75
     2
 76
     1
 98
        0
  0
POLYLINE
  5
32E
330
1F
100
AcDbEntity
  8
\U+30EC\U+30A4\U+30E4\U+30FC 1
 62
   179
420
  2432539
370
    13
100
AcDb2dPolyline
 66
     1
 10
0.0
 20
0.0
 30
0.0
  0
VERTEX
  5
32F
330
32E
100
AcDbEntity
  8
\U+30EC\U+30A4\U+30E4\U+30FC 1
 62
   179
420
  2432539
370
    13
100
AcDbVertex
100
AcDb2dVertex
 10
130.0657904405738
 20
122.1038302646129
 30
0.0
  0
VERTEX
  5
330
330
32E
100
AcDbEntity
  8
\U+30EC\U+30A4\U+30E4\U+30FC 1
 62
   179
420
  2432539
370
    13
100
AcDbVertex
100
AcDb2dVertex
 10
130.0657904405738
 20
127.1302245775924
 30
0.0
  0
SEQEND
  5
331
330
32E
100
AcDbEntity
  8
\U+30EC\U+30A4\U+30E4\U+30FC 1
370
    13
  0
POLYLINE
  5
332
330
1F
100
AcDbEntity
  8
\U+30EC\U+30A4\U+30E4\U+30FC 1
 62
   179
420
  2432539
370
    13
100
AcDb2dPolyline
 66
     1
 10
0.0
 20
0.0
 30
0.0
  0
VERTEX
  5
333
330
332
100
AcDbEntity
  8
\U+30EC\U+30A4\U+30E4\U+30FC 1
 62
   179
420
  2432539
370
    13
100
AcDbVertex
100
AcDb2dVertex
 10
224.8369221443116
 20
127.1309135966895
 30
0.0
  0
VERTEX
  5
334
330
332
100
AcDbEntity
  8
\U+30EC\U+30A4\U+30E4\U+30FC 1
 62
   179
420
  2432539
370
    13
100
AcDbVertex
100
AcDb2dVertex
 10
224.8369221443116
 20
122.1038302646129
 30
0.0
  0
SEQEND
  5
335
330
332
100
AcDbEntity
  8
\U+30EC\U+30A4\U+30E4\U+30FC 1
370
    13
  0
POLYLINE
  5
336
330
1F
100
AcDbEntity
  8
\U+30EC\U+30A4\U+30E4\U+30FC 1
 62
   179
420
  2432539
370
    13
100
AcDb2dPolyline
 66
     1
 10
0.0
 20
0.0
 30
0.0
  0
VERTEX
  5
337
330
336
100
AcDbEntity
  8
\U+30EC\U+30A4\U+30E4\U+30FC 1
 62
   179
420
  2432539
370
    13
100
AcDbVertex
100
AcDb2dVertex
 10
201.6159450450821
 20
127.8013291781191
 30
0.0
  0
VERTEX
  5
338
330
336
100
AcDbEntity
  8
\U+30EC\U+30A4\U+30E4\U+30FC 1
 62
   179
420
  2432539
370
    13
100
AcDbVertex
100
AcDb2dVertex
 10
153.0276963593125
 20
127.8013291781191
 30
0.0
  0
SEQEND
  5
339
330
336
100
AcDbEntity
  8
\U+30EC\U+30A4\U+30E4\U+30FC 1
370
    13
  0
POLYLINE
  5
33A
330
1F
100
AcDbEntity
  8
\U+30EC\U+30A4\U+30E4\U+30FC 1
370
     0
100
AcDb2dPolyline
 66
     1
 10
0.0
 20
0.0
 30
0.0
  0
VERTEX
  5
33B
330
33A
100
AcDbEntity
  8
\U+30EC\U+30A4\U+30E4\U+30FC 1
370
     0
100
AcDbVertex
100
AcDb2dVertex
 10
201.283837840304
 20
128.2671060877249
 30
0.0
  0
VERTEX
  5
33C
330
33A
100
AcDbEntity
  8
\U+30EC\U+30A4\U+30E4\U+30FC 1
370
     0
100
AcDbVertex
100
AcDb2dVertex
 10
203.1007811992248
 20
127.7806586052076
 30
0.0
  0
VERTEX
  5
33D
330
33A
100
AcDbEntity
  8
\U+30EC\U+30A4\U+30E4\U+30FC 1
370
     0
100
AcDbVertex
100
AcDb2dVertex
 10
201.283837840304
 20
127.2942111226903
 30
0.0
  0
VERTEX
  5
33E
330
33A
100
AcDbEntity
  8
\U+30EC\U+30A4\U+30E4\U+30FC 1
370
     0
100
AcDbVertex
100
AcDb2dVertex
 10
201.283837840304
 20
128.2671060877249
 30
0.0
  0
SEQEND
  5
33F
330
33A
100
AcDbEntity
  8
\U+30EC\U+30A4\U+30E4\U+30FC 1
370
     0
  0
HATCH
  5
340
330
1F
100
AcDbEntity
  8
\U+30EC\U+30A4\U+30E4\U+30FC 1
 62
   179
420
  2432539
100
AcDbHatch
 10
0.0
 20
0.0
 30
0.0
210
0.0
220
0.0
230
1.0
  2
SOLID
 70
     1
 71
     0
 91
        1
 92
        1
 93
        3
 72
     1
 10
201.283837840304
 20
128.2671060877249
 11
203.1007811992248
 21
127.7806586052076
 72
     1
 10
203.1007811992248
 20
127.7806586052076
 11
201.283837840304
 21
127.2942111226903
 72
     1
 10
201.283837840304
 20
127.2942111226903
 11
201.283837840304
 21
128.2671060877249
 97
        0
 75
     2
 76
     1
 98
        0
  0
POLYLINE
  5
341
330
1F
100
AcDbEntity
  8
\U+30EC\U+30A4\U+30E4\U+30FC 1
370
     0
100
AcDb2dPolyline
 66
     1
 10
0.0
 20
0.0
 30
0.0
  0
VERTEX
  5
342
330
341
100
AcDbEntity
  8
\U+30EC\U+30A4\U+30E4\U+30FC 1
370
     0
100
AcDbVertex
100
AcDb2dVertex
 10
153.3591145449936
 20
128.2671060877249
 30
0.0
  0
VERTEX
  5
343
330
341
100
AcDbEntity
  8
\U+30EC\U+30A4\U+30E4\U+30FC 1
370
     0
100
AcDbVertex
100
AcDb2dVertex
 10
151.5428602051699
 20
127.7806586052076
 30
0.0
  0
VERTEX
  5
344
330
341
100
AcDbEntity
  8
\U+30EC\U+30A4\U+30E4\U+30FC 1
370
     0
100
AcDbVertex
100
AcDb2dVertex
 10
153.3591145449936
 20
127.2942111226903
 30
0.0
  0
VERTEX
  5
345
330
341
100
AcDbEntity
  8
\U+30EC\U+30A4\U+30E4\U+30FC 1
370
     0
100
AcDbVertex
100
AcDb2dVertex
 10
153.3591145449936
 20
128.2671060877249
 30
0.0
  0
SEQEND
  5
346
330
341
100
AcDbEntity
  8
\U+30EC\U+30A4\U+30E4\U+30FC 1
370
     0
  0
HATCH
  5
347
330
1F
100
AcDbEntity
  8
\U+30EC\U+30A4\U+30E4\U+30FC 1
 62
   179
420
  2432539
100
AcDbHatch
 10
0.0
 20
0.0
 30
0.0
210
0.0
220
0.0
230
1.0
  2
SOLID
 70
     1
 71
     0
 91
        1
 92
        1
 93
        3
 72
     1
 10
153.3591145449936
 20
128.2671060877249
 11
151.5428602051699
 21
127.7806586052076
 72
     1
 10
151.5428602051699
 20
127.7806586052076
 11
153.3591145449936
 21
127.2942111226903
 72
     1
 10
153.3591145449936
 20
127.2942111226903
 11
153.3591145449936
 21
128.2671060877249
 97
        0
 75
     2
 76
     1
 98
        0
  0
POLYLINE
  5
348
330
1F
100
AcDbEntity
  8
\U+30EC\U+30A4\U+30E4\U+30FC 1
 62
   179
420
  2432539
370
    13
100
AcDb2dPolyline
 66
     1
 10
0.0
 20
0.0
 30
0.0
  0
VERTEX
  5
349
330
348
100
AcDbEntity
  8
\U+30EC\U+30A4\U+30E4\U+30FC 1
 62
   179
420
  2432539
370
    13
100
AcDbVertex
100
AcDb2dVertex
 10
151.5428602051699
 20
127.8013291781191
 30
0.0
  0
VERTEX
  5
34A
330
348
100
AcDbEntity
  8
\U+30EC\U+30A4\U+30E4\U+30FC 1
 62
   179
420
  2432539
370
    13
100
AcDbVertex
100
AcDb2dVertex
 10
151.5428602051699
 20
132.8284125101957
 30
0.0
  0
SEQEND
  5
34B
330
348
100
AcDbEntity
  8
\U+30EC\U+30A4\U+30E4\U+30FC 1
370
    13
  0
POLYLINE
  5
34C
330
1F
100
AcDbEntity
  8
\U+30EC\U+30A4\U+30E4\U+30FC 1
 62
   179
420
  2432539
370
    13
100
AcDb2dPolyline
 66
     1
 10
0.0
 20
0.0
 30
0.0
  0
VERTEX
  5
34D
330
34C
100
AcDbEntity
  8
\U+30EC\U+30A4\U+30E4\U+30FC 1
 62
   179
420
  2432539
370
    13
100
AcDbVertex
100
AcDb2dVertex
 10
203.1000921801278
 20
132.8284125101957
 30
0.0
  0
VERTEX
  5
34E
330
34C
100
AcDbEntity
  8
\U+30EC\U+30A4\U+30E4\U+30FC 1
 62
   179
420
  2432539
370
    13
100
AcDbVertex
100
AcDb2dVertex
 10
203.1000921801278
 20
127.8013291781191
 30
0.0
  0
SEQEND
  5
34F
330
34C
100
AcDbEntity
  8
\U+30EC\U+30A4\U+30E4\U+30FC 1
370
    13
  0
MTEXT
  5
350
330
1F
100
AcDbEntity
  8
\U+30EC\U+30A4\U+30E4\U+30FC 1
 62
   179
420
  2432539
100
AcDbMText
 10
175.0652831593587
 20
124.4168673734097
 30
0.0
 40
2.338197022235843
 41
0.0
 71
     7
 72
     1
  1
\fATC-65b030b44c2d5357495353|b0|i0|c0|p34;\W1.02;540
 73
     1
 44
1.0
  0
MTEXT
  5
351
330
1F
100
AcDbEntity
  8
\U+30EC\U+30A4\U+30E4\U+30FC 1
 62
   179
420
  2432539
100
AcDbMText
 10
174.3597276039795
 20
117.361311819618
 30
0.0
 40
2.338197022235843
 41
0.0
 71
     7
 72
     1
  1
\fATC-65b030b44c2d5357495353|b0|i0|c0|p34;\W1.02;1000
 73
     1
 44
1.0
  0
MTEXT
  5
352
330
1F
100
AcDbEntity
  8
\U+30EC\U+30A4\U+30E4\U+30FC 1
 62
   179
420
  2432539
100
AcDbMText
 10
34.82647026039061
 20
106.2105712625099
 30
0.0
 40
1.699998960175959
 41
0.0
 71
     7
 72
     1
  1
\fATC-65b030b44c2d5357495353|b0|i0|c0|p34;\W1;\U+58C1\U+53D6\U+4ED8\U+30DC\U+30EB\U+30C8\U+7A74
 73
     1
 44
1.0
  0
MTEXT
  5
353
330
1F
100
AcDbEntity
  8
\U+30EC\U+30A4\U+30E4\U+30FC 1
 62
   179
420
  2432539
100
AcDbMText
 10
166.5910372847411
 20
205.7874389133969
 30
0.0
 40
2.296262091062593
 41
0.0
 71
     7
 72
     1
  1
\fATC-65b030b44c2d5357495353|b0|i0|c0|p34;\W1;\U+30AB\U+30A6\U+30F3\U+30BF\U+30FC\U+958B\U+53E3\U+5BF8\U+6CD5\U+FF1A\H2.61774;\W1.02;440\H2.29626;\W1;\U+00D7\H2.61774;\W1.02;540
 73
     1
 44
1.0
  0
INSERT
  5
355
330
1F
100
AcDbEntity
  8
\U+30EC\U+30A4\U+30E4\U+30FC 1
100
AcDbBlockReference
  2
block 13
 10
0.0
 20
0.0
 30
0.0
  0
MTEXT
  5
363
330
1F
100
AcDbEntity
  8
\U+30EC\U+30A4\U+30E4\U+30FC 1
 62
   179
420
  2432539
100
AcDbMText
 10
37.96839734293846
 20
180.5126681406357
 30
0.0
 40
1.937998790281913
 41
0.0
 71
     7
 72
     1
  1
\fATC-65b030b44c2d5357495353|b0|i0|c0|p34;\W1.02;35
 73
     1
 44
1.0
  0
INSERT
  5
365
330
1F
100
AcDbEntity
  8
\U+30EC\U+30A4\U+30E4\U+30FC 1
100
AcDbBlockReference
  2
block 14
 10
0.0
 20
0.0
 30
0.0
  0
MTEXT
  5
373
330
1F
100
AcDbEntity
  8
\U+30EC\U+30A4\U+30E4\U+30FC 1
 62
   179
420
  2432539
100
AcDbMText
 10
36.41293673134815
 20
159.5968044305869
 30
0.0
 40
1.937998790281913
 41
0.0
 71
     7
 72
     1
  1
\fATC-65b030b44c2d5357495353|b0|i0|c0|p34;\W1.02;45
 73
     1
 44
1.0
  0
ENDSEC
  0
SECTION
  2
OBJECTS
  0
DICTIONARY
  5
C
330
0
100
AcDbDictionary
281
     1
  3
ACAD_GROUP
350
D
  3
ACAD_LAYOUT
350
1A
  3
ACAD_MLINESTYLE
350
17
  3
ACAD_PLOTSETTINGS
350
19
  3
ACAD_PLOTSTYLENAME
350
E
  3
ACAD_TABLESTYLE
350
375
  3
ACAD_VISUALSTYLE
350
2A
  0
DICTIONARY
  5
D
102
{ACAD_REACTORS
330
C
102
}
330
C
100
AcDbDictionary
281
     1
  0
DICTIONARY
  5
1A
102
{ACAD_REACTORS
330
C
102
}
330
C
100
AcDbDictionary
281
     1
  3
Layout1
350
1E
  3
Layout2
350
26
  3
Model
350
22
  0
DICTIONARY
  5
17
102
{ACAD_REACTORS
330
C
102
}
330
C
100
AcDbDictionary
281
     1
  3
Standard
350
18
  0
DICTIONARY
  5
19
102
{ACAD_REACTORS
330
C
102
}
330
C
100
AcDbDictionary
281
     1
  0
ACDBDICTIONARYWDFLT
  5
E
102
{ACAD_REACTORS
330
C
102
}
330
C
100
AcDbDictionary
281
     1
  3
Normal
350
F
100
AcDbDictionaryWithDefault
340
F
  0
DICTIONARY
  5
375
102
{ACAD_REACTORS
330
C
102
}
330
C
100
AcDbDictionary
281
     1
  0
DICTIONARY
  5
2A
102
{ACAD_REACTORS
330
C
102
}
330
C
100
AcDbDictionary
281
     1
  3
2dWireframe
350
2F
  3
3D Hidden
350
31
  3
3dWireframe
350
30
  3
Basic
350
32
  3
Brighten
350
36
  3
ColorChange
350
3A
  3
Conceptual
350
34
  3
Dim
350
35
  3
Facepattern
350
39
  3
Flat
350
2B
  3
FlatWithEdges
350
2C
  3
Gouraud
350
2D
  3
GouraudWithEdges
350
2E
  3
Linepattern
350
38
  3
Realistic
350
33
  3
Thicken
350
37
  0
LAYOUT
  5
1E
102
{ACAD_REACTORS
330
1A
102
}
330
1A
100
AcDbPlotSettings
  1

  2
none_device
  4

  6

 40
0.0
 41
0.0
 42
0.0
 43
0.0
 44
0.0
 45
0.0
 46
0.0
 47
0.0
 48
0.0
 49
0.0
140
0.0
141
0.0
142
1.0
143
1.0
 70
   688
 72
     0
 73
     0
 74
     5
  7

 75
    16
 76
     0
 77
     2
 78
   300
147
1.0
148
0.0
149
0.0
100
AcDbLayout
  1
Layout1
 70
     1
 71
     1
 10
0.0
 20
0.0
 11
12.0
 21
9.0
 12
0.0
 22
0.0
 32
0.0
 14
1.000000000000000E+20
 24
1.000000000000000E+20
 34
1.000000000000000E+20
 15
-1.000000000000000E+20
 25
-1.000000000000000E+20
 35
-1.000000000000000E+20
146
0.0
 13
0.0
 23
0.0
 33
0.0
 16
1.0
 26
0.0
 36
0.0
 17
0.0
 27
1.0
 37
0.0
 76
     0
330
1B
  0
LAYOUT
  5
26
102
{ACAD_REACTORS
330
1A
102
}
330
1A
100
AcDbPlotSettings
  1

  2
none_device
  4

  6

 40
0.0
 41
0.0
 42
0.0
 43
0.0
 44
0.0
 45
0.0
 46
0.0
 47
0.0
 48
0.0
 49
0.0
140
0.0
141
0.0
142
1.0
143
1.0
 70
   688
 72
     0
 73
     0
 74
     5
  7

 75
    16
 76
     0
 77
     2
 78
   300
147
1.0
148
0.0
149
0.0
100
AcDbLayout
  1
Layout2
 70
     1
 71
     2
 10
0.0
 20
0.0
 11
0.0
 21
0.0
 12
0.0
 22
0.0
 32
0.0
 14
0.0
 24
0.0
 34
0.0
 15
0.0
 25
0.0
 35
0.0
146
0.0
 13
0.0
 23
0.0
 33
0.0
 16
1.0
 26
0.0
 36
0.0
 17
0.0
 27
1.0
 37
0.0
 76
     0
330
23
  0
LAYOUT
  5
22
102
{ACAD_REACTORS
330
1A
102
}
330
1A
100
AcDbPlotSettings
  1

  2
none_device
  4

  6

 40
0.0
 41
0.0
 42
0.0
 43
0.0
 44
0.0
 45
0.0
 46
0.0
 47
0.0
 48
0.0
 49
0.0
140
0.0
141
0.0
142
1.0
143
1.0
 70
  1712
 72
     0
 73
     0
 74
     0
  7

 75
     0
 76
     0
 77
     2
 78
   300
147
1.0
148
0.0
149
0.0
100
AcDbLayout
  1
Model
 70
     1
 71
     0
 10
0.0
 20
0.0
 11
12.0
 21
9.0
 12
0.0
 22
0.0
 32
0.0
 14
1.000000000000000E+20
 24
1.000000000000000E+20
 34
1.000000000000000E+20
 15
-1.000000000000000E+20
 25
-1.000000000000000E+20
 35
-1.000000000000000E+20
146
0.0
 13
0.0
 23
0.0
 33
0.0
 16
1.0
 26
0.0
 36
0.0
 17
0.0
 27
1.0
 37
0.0
 76
     0
330
1F
331
29
  0
MLINESTYLE
  5
18
102
{ACAD_REACTORS
330
17
102
}
330
17
100
AcDbMlineStyle
  2
Standard
 70
     0
  3

 62
   256
 51
90.0
 52
90.0
 71
     2
 49
0.5
 62
   256
  6
BYLAYER
 49
-0.5
 62
   256
  6
BYLAYER
  0
ACDBPLACEHOLDER
  5
F
102
{ACAD_REACTORS
330
E
102
}
330
E
  0
VISUALSTYLE
  5
2F
102
{ACAD_REACTORS
330
2A
102
}
330
2A
100
AcDbVisualStyle
  2
2dWireframe
 70
     4
 71
     0
 72
     2
 73
     0
 90
        0
 40
-0.6
 41
-30.0
 62
     5
 63
     7
421
 16777215
 74
     1
 91
        4
 64
     7
 65
   257
 75
     1
175
     1
 42
1.0
 92
        0
 66
   257
 43
1.0
 76
     1
 77
     6
 78
     2
 67
     7
 79
     5
170
     0
171
     0
290
     0
174
     0
 93
        1
 44
0.0
173
     0
291
     0
 45
0.0
1001
ACAD
1000
AcDbSavedByObjectVersion
1070
     0
  0
VISUALSTYLE
  5
31
102
{ACAD_REACTORS
330
2A
102
}
330
2A
100
AcDbVisualStyle
  2
3D Hidden
 70
     6
 71
     1
 72
     2
 73
     2
 90
        0
 40
-0.6
 41
-30.0
 62
     5
 63
     7
421
 16777215
 74
     2
 91
        2
 64
     7
 65
   257
 75
     2
175
     1
 42
40.0
 92
        0
 66
   257
 43
1.0
 76
     1
 77
     6
 78
     2
 67
     7
 79
     3
170
     0
171
     0
290
     0
174
     0
 93
        1
 44
0.0
173
     0
291
     0
 45
0.0
1001
ACAD
1000
AcDbSavedByObjectVersion
1070
     0
  0
VISUALSTYLE
  5
30
102
{ACAD_REACTORS
330
2A
102
}
330
2A
100
AcDbVisualStyle
  2
3dWireframe
 70
     5
 71
     0
 72
     2
 73
     0
 90
        0
 40
-0.6
 41
-30.0
 62
     5
 63
     7
421
 16777215
 74
     1
 91
        4
 64
     7
 65
   257
 75
     1
175
     1
 42
1.0
 92
        0
 66
   257
 43
1.0
 76
     1
 77
     6
 78
     2
 67
     7
 79
     5
170
     0
171
     0
290
     0
174
     0
 93
        1
 44
0.0
173
     0
291
     0
 45
0.0
1001
ACAD
1000
AcDbSavedByObjectVersion
1070
     0
  0
VISUALSTYLE
  5
32
102
{ACAD_REACTORS
330
2A
102
}
330
2A
100
AcDbVisualStyle
  2
Basic
 70
     7
 71
     1
 72
     0
 73
     1
 90
        0
 40
-0.6
 41
-30.0
 62
     5
 63
     7
421
 16777215
 74
     0
 91
        4
 64
     7
 65
   257
 75
     1
175
     1
 42
1.0
 92
        8
 66
     7
 43
1.0
 76
     1
 77
     6
 78
     2
 67
     7
 79
     5
170
     0
171
     0
290
     0
174
     0
 93
        1
 44
0.0
173
     0
291
     1
 45
0.0
1001
ACAD
1000
AcDbSavedByObjectVersion
1070
     0
  0
VISUALSTYLE
  5
36
102
{ACAD_REACTORS
330
2A
102
}
330
2A
100
AcDbVisualStyle
  2
Brighten
 70
    12
 71
     2
 72
     2
 73
     0
 90
        0
 40
-0.6
 41
-30.0
 62
     5
 63
     7
421
 16777215
 74
     1
 91
        4
 64
     7
 65
   257
 75
     1
175
     1
 42
1.0
 92
        8
 66
     7
 43
1.0
 76
     1
 77
     6
 78
     2
 67
     7
 79
     5
170
     0
171
     0
290
     0
174
     0
 93
        1
 44
50.0
173
     0
291
     1
 45
0.0
1001
ACAD
1000
AcDbSavedByObjectVersion
1070
     0
  0
VISUALSTYLE
  5
3A
102
{ACAD_REACTORS
330
2A
102
}
330
2A
100
AcDbVisualStyle
  2
ColorChange
 70
    16
 71
     2
 72
     2
 73
     3
 90
        0
 40
-0.6
 41
-30.0
 62
     5
 63
     8
421
  8421504
 74
     1
 91
        4
 64
     7
 65
   257
 75
     1
175
     1
 42
1.0
 92
        8
 66
     8
424
  8421504
 43
1.0
 76
     1
 77
     6
 78
     2
 67
     7
 79
     5
170
     0
171
     0
290
     0
174
     0
 93
        1
 44
0.0
173
     0
291
     1
 45
0.0
1001
ACAD
1000
AcDbSavedByObjectVersion
1070
     0
  0
VISUALSTYLE
  5
34
102
{ACAD_REACTORS
330
2A
102
}
330
2A
100
AcDbVisualStyle
  2
Conceptual
 70
     9
 71
     3
 72
     2
 73
     0
 90
        0
 40
-0.6
 41
-30.0
 62
     5
 63
     7
421
 16777215
 74
     2
 91
        2
 64
     7
 65
   257
 75
     1
175
     1
 42
40.0
 92
        8
 66
     7
 43
1.0
 76
     1
 77
     6
 78
     2
 67
     7
 79
     3
170
     0
171
     0
290
     0
174
     0
 93
        1
 44
0.0
173
     0
291
     0
 45
0.0
1001
ACAD
1000
AcDbSavedByObjectVersion
1070
     0
  0
VISUALSTYLE
  5
35
102
{ACAD_REACTORS
330
2A
102
}
330
2A
100
AcDbVisualStyle
  2
Dim
 70
    11
 71
     2
 72
     2
 73
     0
 90
        0
 40
-0.6
 41
-30.0
 62
     5
 63
     7
421
 16777215
 74
     1
 91
        4
 64
     7
 65
   257
 75
     1
175
     1
 42
1.0
 92
        8
 66
     7
 43
1.0
 76
     1
 77
     6
 78
     2
 67
     7
 79
     5
170
     0
171
     0
290
     0
174
     0
 93
        1
 44
-50.0
173
     0
291
     1
 45
0.0
1001
ACAD
1000
AcDbSavedByObjectVersion
1070
     0
  0
VISUALSTYLE
  5
39
102
{ACAD_REACTORS
330
2A
102
}
330
2A
100
AcDbVisualStyle
  2
Facepattern
 70
    15
 71
     2
 72
     2
 73
     0
 90
        0
 40
-0.6
 41
-30.0
 62
     5
 63
     7
421
 16777215
 74
     1
 91
        4
 64
     7
 65
   257
 75
     1
175
     1
 42
1.0
 92
        8
 66
     7
 43
1.0
 76
     1
 77
     6
 78
     2
 67
     7
 79
     5
170
     0
171
     0
290
     0
174
     0
 93
        1
 44
0.0
173
     0
291
     1
 45
0.0
1001
ACAD
1000
AcDbSavedByObjectVersion
1070
     0
  0
VISUALSTYLE
  5
2B
102
{ACAD_REACTORS
330
2A
102
}
330
2A
100
AcDbVisualStyle
  2
Flat
 70
     0
 71
     2
 72
     1
 73
     1
 90
        2
 40
-0.6
 41
30.0
 62
     5
 63
     7
421
 16777215
 74
     0
 91
        4
 64
     7
 65
   257
 75
     1
175
     1
 42
1.0
 92
        8
 66
     7
 43
1.0
 76
     1
 77
     6
 78
     2
 67
     7
 79
     5
170
     0
171
     0
290
     0
174
     0
 93
       13
 44
0.0
173
     0
291
     1
 45
0.0
1001
ACAD
1000
AcDbSavedByObjectVersion
1070
     0
  0
VISUALSTYLE
  5
2C
102
{ACAD_REACTORS
330
2A
102
}
330
2A
100
AcDbVisualStyle
  2
FlatWithEdges
 70
     1
 71
     2
 72
     1
 73
     1
 90
        2
 40
-0.6
 41
30.0
 62
     5
 63
     7
421
 16777215
 74
     1
 91
        4
 64
     7
 65
   257
 75
     1
175
     1
 42
1.0
 92
        0
 66
   257
 43
1.0
 76
     1
 77
     6
 78
     2
 67
     7
 79
     5
170
     0
171
     0
290
     0
174
     0
 93
       13
 44
0.0
173
     0
291
     1
 45
0.0
1001
ACAD
1000
AcDbSavedByObjectVersion
1070
     0
  0
VISUALSTYLE
  5
2D
102
{ACAD_REACTORS
330
2A
102
}
330
2A
100
AcDbVisualStyle
  2
Gouraud
 70
     2
 71
     2
 72
     2
 73
     1
 90
        2
 40
-0.6
 41
30.0
 62
     5
 63
     7
421
 16777215
 74
     0
 91
        4
 64
     7
 65
   257
 75
     1
175
     1
 42
1.0
 92
        0
 66
     7
 43
1.0
 76
     1
 77
     6
 78
     2
 67
     7
 79
     5
170
     0
171
     0
290
     0
174
     0
 93
       13
 44
0.0
173
     0
291
     1
 45
0.0
1001
ACAD
1000
AcDbSavedByObjectVersion
1070
     0
  0
VISUALSTYLE
  5
2E
102
{ACAD_REACTORS
330
2A
102
}
330
2A
100
AcDbVisualStyle
  2
GouraudWithEdges
 70
     3
 71
     2
 72
     2
 73
     1
 90
        2
 40
-0.6
 41
30.0
 62
     5
 63
     7
421
 16777215
 74
     1
 91
        4
 64
     7
 65
   257
 75
     1
175
     1
 42
1.0
 92
        0
 66
   257
 43
1.0
 76
     1
 77
     6
 78
     2
 67
     7
 79
     5
170
     0
171
     0
290
     0
174
     0
 93
       13
 44
0.0
173
     0
291
     1
 45
0.0
1001
ACAD
1000
AcDbSavedByObjectVersion
1070
     0
  0
VISUALSTYLE
  5
38
102
{ACAD_REACTORS
330
2A
102
}
330
2A
100
AcDbVisualStyle
  2
Linepattern
 70
    14
 71
     2
 72
     2
 73
     0
 90
        0
 40
-0.6
 41
-30.0
 62
     5
 63
     7
421
 16777215
 74
     1
 91
        4
 64
     7
 65
   257
 75
     7
175
     7
 42
1.0
 92
        8
 66
     7
 43
1.0
 76
     1
 77
     6
 78
     2
 67
     7
 79
     5
170
     0
171
     0
290
     0
174
     0
 93
        1
 44
0.0
173
     0
291
     1
 45
0.0
1001
ACAD
1000
AcDbSavedByObjectVersion
1070
     0
  0
VISUALSTYLE
  5
33
102
{ACAD_REACTORS
330
2A
102
}
330
2A
100
AcDbVisualStyle
  2
Realistic
 70
     8
 71
     2
 72
     2
 73
     0
 90
        0
 40
-0.6
 41
-30.0
 62
     5
 63
     7
421
 16777215
 74
     1
 91
        0
 64
     7
 65
   257
 75
     1
175
     1
 42
1.0
 92
        8
 66
     8
424
  7895160
 43
1.0
 76
     1
 77
     6
 78
     2
 67
     7
 79
     5
170
     0
171
     0
290
     0
174
     0
 93
       13
 44
0.0
173
     0
291
     0
 45
0.0
1001
ACAD
1000
AcDbSavedByObjectVersion
1070
     0
  0
VISUALSTYLE
  5
37
102
{ACAD_REACTORS
330
2A
102
}
330
2A
100
AcDbVisualStyle
  2
Thicken
 70
    13
 71
     2
 72
     2
 73
     0
 90
        0
 40
-0.6
 41
-30.0
 62
     5
 63
     7
421
 16777215
 74
     1
 91
        4
 64
     7
 65
   257
 75
     1
175
     1
 42
1.0
 92
       12
 66
     7
 43
1.0
 76
     1
 77
     6
 78
     2
 67
     7
 79
     5
170
     0
171
     0
290
     0
174
     0
 93
        1
 44
0.0
173
     0
291
     1
 45
0.0
1001
ACAD
1000
AcDbSavedByObjectVersion
1070
     0
  0
ENDSEC
  0
EOF
