  0
SECTION
  2
HEADER
  9
$ACADVER
  1
AC1009
  9
$LUNITS
 70
2
  9
$LUPREC
 70
4
  9
$LTSCALE
 40
1.0
  9
$EXTMIN
 10
-30.3177
 20
33.3285
 30
0
  9
$EXTMAX
 10
251.6749
 20
230.337
 30
0
  0
ENDSEC
  0
SECTION
  2
TABLES
  0
TABLE
  2
LTYPE
 70
256
  0
LTYPE
  2
AIGENLINE001
 70
64
  3
generate AI->DXF Converter
 72
65
 73
2
 40
0.6632
 49
0.3316
 49
-0.3316
  0
LTYPE
  2
AIGENLINE002
 70
64
  3
generate AI->DXF Converter
 72
65
 73
2
 40
0.6632
 49
0.3316
 49
-0.3316
  0
LTYPE
  2
AIGENLINE003
 70
64
  3
generate AI->DXF Converter
 72
65
 73
0
 40
0
  0
ENDTAB
  0
TABLE
  2
LAYER
 70
1
  0
LAYER
  2
LAYER_1
 70
64
 62
7
  6
CONTINUOUS
  0
ENDTAB
  0
TABLE
  2
STYLE
 70
6
  0
STYLE
  2
STANDARD
 70
0
 40
0
 50
0
 71
0
 41
0
 42
0
  3
TXT
  4
BIGFONT
  0
ENDTAB
  0
ENDSEC
  0
SECTION
  2
BLOCKS
  0
BLOCK
  8
LAYER_1
  2
AIGNBL0104000F
 70
64
 10
0
 20
0
 30
0
  3
AIGNBL0104000F
  0
POLYLINE
  8
LAYER_1
 40
0.05
 41
0.05
 66
1
 10
0
 20
0
 30
0
 70
1
  0
VERTEX
  8
LAYER_1
 10
91.8133
 20
110.9496
  0
VERTEX
  8
LAYER_1
 10
91.8118
 20
110.9479
  0
SEQEND
  0
POLYLINE
  8
LAYER_1
 40
0.05
 41
0.05
 66
1
 10
0
 20
0
 30
0
 70
1
  0
VERTEX
  8
LAYER_1
 10
91.807
 20
110.9352
  0
VERTEX
  8
LAYER_1
 10
91.788
 20
110.8894
  0
VERTEX
  8
LAYER_1
 10
91.7817
 20
110.8766
  0
VERTEX
  8
LAYER_1
 10
91.7594
 20
110.8322
 42
0.5469760004
  0
VERTEX
  8
LAYER_1
 10
91.8102
 20
110.7178
  0
VERTEX
  8
LAYER_1
 10
92.2657
 20
110.5924
 42
0.2571119085
  0
VERTEX
  8
LAYER_1
 10
92.6152
 20
110.6782
 42
0.00496836638
  0
VERTEX
  8
LAYER_1
 10
92.6198
 20
110.683
 42
-0.4526577848
  0
VERTEX
  8
LAYER_1
 10
93.1072
 20
110.6337
 42
0.1977322958
  0
VERTEX
  8
LAYER_1
 10
93.4515
 20
110.2861
 42
-0.5085035279
  0
VERTEX
  8
LAYER_1
 10
93.5309
 20
110.1273
 42
0.07963090101
  0
VERTEX
  8
LAYER_1
 10
93.4389
 20
109.4352
 42
-0.1251955245
  0
VERTEX
  8
LAYER_1
 10
93.4029
 20
109.1562
 42
-0.1894974037
  0
VERTEX
  8
LAYER_1
 10
93.2326
 20
108.9908
 42
-0.2305880083
  0
VERTEX
  8
LAYER_1
 10
92.742
 20
108.8685
 42
0.02022181552
  0
VERTEX
  8
LAYER_1
 10
91.8377
 20
109.1497
 42
0.04532312558
  0
VERTEX
  8
LAYER_1
 10
91.5339
 20
109.1844
 42
-0.5171520043
  0
VERTEX
  8
LAYER_1
 10
91.4619
 20
109.2234
 42
-0.1369819137
  0
VERTEX
  8
LAYER_1
 10
91.4911
 20
109.2764
 42
0.2665072952
  0
VERTEX
  8
LAYER_1
 10
91.5623
 20
109.6266
 42
0.02824869398
  0
VERTEX
  8
LAYER_1
 10
91.5038
 20
109.7924
 42
0.04537314346
  0
VERTEX
  8
LAYER_1
 10
91.2578
 20
110.232
 42
-0.327289895
  0
VERTEX
  8
LAYER_1
 10
91.3133
 20
110.5717
 42
0.1006492719
  0
VERTEX
  8
LAYER_1
 10
91.5434
 20
110.6654
  0
VERTEX
  8
LAYER_1
 10
91.6039
 20
110.7099
  0
VERTEX
  8
LAYER_1
 10
91.7196
 20
110.8273
  0
VERTEX
  8
LAYER_1
 10
91.7403
 20
110.8528
  0
VERTEX
  8
LAYER_1
 10
91.7498
 20
110.8639
  0
VERTEX
  8
LAYER_1
 10
91.7579
 20
110.8749
  0
VERTEX
  8
LAYER_1
 10
91.7641
 20
110.8828
  0
VERTEX
  8
LAYER_1
 10
91.7689
 20
110.8876
  0
VERTEX
  8
LAYER_1
 10
91.7705
 20
110.8907
  0
VERTEX
  8
LAYER_1
 10
91.7817
 20
110.9052
  0
VERTEX
  8
LAYER_1
 10
91.7896
 20
110.9162
  0
VERTEX
  8
LAYER_1
 10
91.807
 20
110.9417
  0
VERTEX
  8
LAYER_1
 10
91.8102
 20
110.9448
  0
VERTEX
  8
LAYER_1
 10
91.8118
 20
110.9465
  0
VERTEX
  8
LAYER_1
 10
91.8102
 20
110.9431
  0
SEQEND
  0
POLYLINE
  8
LAYER_1
 40
0.05
 41
0.05
 66
1
 10
0
 20
0
 30
0
 70
1
  0
VERTEX
  8
LAYER_1
 10
91.8578
 20
111.4575
  0
VERTEX
  8
LAYER_1
 10
91.8276
 20
111.4227
  0
VERTEX
  8
LAYER_1
 10
91.7467
 20
111.3131
 42
0.1650984989
  0
VERTEX
  8
LAYER_1
 10
92.1896
 20
110.9391
 42
0.01836938012
  0
VERTEX
  8
LAYER_1
 10
92.4324
 20
110.8401
 42
-0.08008530919
  0
VERTEX
  8
LAYER_1
 10
92.0023
 20
110.9655
 42
0.3171248939
  0
VERTEX
  8
LAYER_1
 10
91.8182
 20
110.9589
  0
VERTEX
  8
LAYER_1
 10
91.8197
 20
110.9576
  0
VERTEX
  8
LAYER_1
 10
91.8166
 20
110.9545
  0
VERTEX
  8
LAYER_1
 10
91.8149
 20
110.9527
  0
VERTEX
  8
LAYER_1
 10
91.8166
 20
110.9576
  0
VERTEX
  8
LAYER_1
 10
91.8054
 20
110.9782
  0
VERTEX
  8
LAYER_1
 10
91.7944
 20
110.9893
  0
VERTEX
  8
LAYER_1
 10
91.7817
 20
110.9972
  0
VERTEX
  8
LAYER_1
 10
91.7515
 20
110.9941
  0
VERTEX
  8
LAYER_1
 10
91.7339
 20
110.9813
  0
VERTEX
  8
LAYER_1
 10
91.7324
 20
110.9813
  0
VERTEX
  8
LAYER_1
 10
91.715
 20
110.9672
  0
VERTEX
  8
LAYER_1
 10
91.6974
 20
110.9527
 42
-0.1233263436
  0
VERTEX
  8
LAYER_1
 10
91.4118
 20
110.8511
 42
0.2202370848
  0
VERTEX
  8
LAYER_1
 10
91.1991
 20
110.7257
 42
0.09400034674
  0
VERTEX
  8
LAYER_1
 10
91.0663
 20
110.4988
 42
0.04483620623
  0
VERTEX
  8
LAYER_1
 10
91.0022
 20
110.2369
 42
-0.6683162696
  0
VERTEX
  8
LAYER_1
 10
90.9085
 20
110.1431
 42
-0.02550122815
  0
VERTEX
  8
LAYER_1
 10
90.6005
 20
110.2386
  0
VERTEX
  8
LAYER_1
 10
90.591
 20
110.2417
 42
-0.2775401166
  0
VERTEX
  8
LAYER_1
 10
90.5251
 20
110.3239
 42
0.001723155964
  0
VERTEX
  8
LAYER_1
 10
90.5323
 20
110.5528
  0
VERTEX
  8
LAYER_1
 10
90.5244
 20
110.5972
  0
VERTEX
  8
LAYER_1
 10
90.4164
 20
111.9529
 42
-0.497495742
  0
VERTEX
  8
LAYER_1
 10
90.5831
 20
112.1434
 42
0.05071835569
  0
VERTEX
  8
LAYER_1
 10
92.0721
 20
112.2719
 42
-0.1688725099
  0
VERTEX
  8
LAYER_1
 10
92.2452
 20
112.2354
 42
-0.07669866851
  0
VERTEX
  8
LAYER_1
 10
92.4893
 20
112.0561
 42
-0.007369241094
  0
VERTEX
  8
LAYER_1
 10
92.7833
 20
111.7878
 42
-0.1211750326
  0
VERTEX
  8
LAYER_1
 10
92.9821
 20
111.5956
 42
-0.2639175965
  0
VERTEX
  8
LAYER_1
 10
92.9785
 20
111.2718
 42
0.09740166211
  0
VERTEX
  8
LAYER_1
 10
92.9706
 20
111.1353
 42
-0.5540400334
  0
VERTEX
  8
LAYER_1
 10
92.8452
 20
111.0337
 42
-0.1346050726
  0
VERTEX
  8
LAYER_1
 10
92.2003
 20
111.3325
 42
-0.04403219139
  0
VERTEX
  8
LAYER_1
 10
92.0784
 20
111.4671
 42
0.5091342087
  0
VERTEX
  8
LAYER_1
 10
91.953
 20
111.5695
 42
0.1007248842
  0
SEQEND
  0
POLYLINE
  8
LAYER_1
 40
0.05
 41
0.05
 66
1
 10
0
 20
0
 30
0
 70
1
  0
VERTEX
  8
LAYER_1
 10
89.172
 20
114.4499
 42
-0.2703282678
  0
VERTEX
  8
LAYER_1
 10
89.1959
 20
114.5951
 42
-0.2138783267
  0
VERTEX
  8
LAYER_1
 10
89.3196
 20
114.6228
 42
-0.2114951074
  0
VERTEX
  8
LAYER_1
 10
89.7137
 20
114.4413
 42
-0.1222373177
  0
VERTEX
  8
LAYER_1
 10
89.8371
 20
114.1705
 42
-0.02207148415
  0
VERTEX
  8
LAYER_1
 10
90.0656
 20
112.6894
 42
-0.01465549286
  0
VERTEX
  8
LAYER_1
 10
90.3006
 20
110.2114
 42
-0.05045961227
  0
VERTEX
  8
LAYER_1
 10
90.3624
 20
109.9258
 42
0.4590599255
  0
VERTEX
  8
LAYER_1
 10
90.3923
 20
109.8843
 42
-0.004527077479
  0
VERTEX
  8
LAYER_1
 10
90.4832
 20
109.8734
 42
-0.2091884572
  0
VERTEX
  8
LAYER_1
 10
90.8746
 20
109.6649
 42
-0.1060874156
  0
VERTEX
  8
LAYER_1
 10
90.9705
 20
109.4273
 42
-0.4660992566
  0
VERTEX
  8
LAYER_1
 10
90.9164
 20
109.2764
 42
0.2332739136
  0
VERTEX
  8
LAYER_1
 10
90.8546
 20
109.1954
  0
VERTEX
  8
LAYER_1
 10
91.0372
 20
108.8574
 42
0.05528192072
  0
VERTEX
  8
LAYER_1
 10
91.5705
 20
108.8399
 42
-0.07928240905
  0
VERTEX
  8
LAYER_1
 10
92.4166
 20
108.6955
  0
VERTEX
  8
LAYER_1
 10
92.2212
 20
108.6938
  0
VERTEX
  8
LAYER_1
 10
92.0879
 20
108.6717
 42
0.3496729339
  0
VERTEX
  8
LAYER_1
 10
91.9722
 20
108.5098
 42
0.340343145
  0
VERTEX
  8
LAYER_1
 10
92.0329
 20
108.4697
 42
-0.00586864244
  0
VERTEX
  8
LAYER_1
 10
92.1356
 20
108.4812
 42
0.09568066977
  0
VERTEX
  8
LAYER_1
 10
92.9706
 20
108.6876
  0
VERTEX
  8
LAYER_1
 10
92.6117
 20
108.1732
 42
0.01529267447
  0
VERTEX
  8
LAYER_1
 10
92.4309
 20
107.8732
 42
0.5050337381
  0
VERTEX
  8
LAYER_1
 10
92.4357
 20
107.7653
 42
0.4035791274
  0
VERTEX
  8
LAYER_1
 10
92.5563
 20
107.7922
  0
VERTEX
  8
LAYER_1
 10
92.7182
 20
108.0351
 42
-0.03209845861
  0
VERTEX
  8
LAYER_1
 10
93.369
 20
108.9415
 42
-0.6611755107
  0
VERTEX
  8
LAYER_1
 10
93.523
 20
108.9573
 42
0.276061452
  0
VERTEX
  8
LAYER_1
 10
93.6399
 20
108.8858
 42
0.1965572855
  0
VERTEX
  8
LAYER_1
 10
93.7131
 20
108.9343
 42
0.07004117746
  0
VERTEX
  8
LAYER_1
 10
93.7531
 20
108.9956
 42
0.5003875923
  0
VERTEX
  8
LAYER_1
 10
93.7548
 20
109.3208
 42
-0.181730884
  0
VERTEX
  8
LAYER_1
 10
93.7034
 20
109.4283
 42
-0.02402309299
  0
VERTEX
  8
LAYER_1
 10
93.6961
 20
109.5654
 42
-0.08551345073
  0
VERTEX
  8
LAYER_1
 10
93.7913
 20
110.4274
 42
0.4853877221
  0
VERTEX
  8
LAYER_1
 10
93.7912
 20
110.5488
 42
0.1485782436
  0
VERTEX
  8
LAYER_1
 10
93.7007
 20
110.5479
 42
-0.1971253161
  0
VERTEX
  8
LAYER_1
 10
93.5706
 20
110.5699
 42
-0.1248298437
  0
VERTEX
  8
LAYER_1
 10
93.4658
 20
110.6861
 42
-0.1375361675
  0
VERTEX
  8
LAYER_1
 10
93.2977
 20
111.3353
 42
-0.04555898639
  0
VERTEX
  8
LAYER_1
 10
93.3261
 20
111.556
 42
-0.4466645312
  0
VERTEX
  8
LAYER_1
 10
93.4737
 20
111.6497
 42
-0.2301034528
  0
VERTEX
  8
LAYER_1
 10
93.9405
 20
111.3655
 42
0.5071347871
  0
VERTEX
  8
LAYER_1
 10
94.0866
 20
111.2656
  0
VERTEX
  8
LAYER_1
 10
94.2103
 20
111.4544
 42
0.2773648582
  0
VERTEX
  8
LAYER_1
 10
94.0293
 20
111.7523
 42
0.02012128461
  0
VERTEX
  8
LAYER_1
 10
93.9643
 20
111.7958
 42
0.1173335786
  0
VERTEX
  8
LAYER_1
 10
93.6408
 20
111.9466
 42
0.1830829116
  0
VERTEX
  8
LAYER_1
 10
93.3738
 20
111.8926
 42
-0.2687426897
  0
VERTEX
  8
LAYER_1
 10
93.2134
 20
111.9163
 42
-0.0772121307
  0
VERTEX
  8
LAYER_1
 10
92.9213
 20
112.1354
  0
VERTEX
  8
LAYER_1
 10
92.6166
 20
112.4386
 42
0.1986017964
  0
VERTEX
  8
LAYER_1
 10
92.1655
 20
112.6306
 42
0.02971439564
  0
VERTEX
  8
LAYER_1
 10
92.0958
 20
112.6243
 42
-0.02778297834
  0
VERTEX
  8
LAYER_1
 10
91.2996
 20
112.5637
 42
0.002868616087
  0
VERTEX
  8
LAYER_1
 10
90.4482
 20
112.5179
 42
-0.5026578081
  0
VERTEX
  8
LAYER_1
 10
90.3545
 20
112.5799
  0
VERTEX
  8
LAYER_1
 10
90.1926
 20
113.7815
 42
0.0565300732
  0
VERTEX
  8
LAYER_1
 10
90.0751
 20
114.4736
 42
0.2263708149
  0
VERTEX
  8
LAYER_1
 10
89.8093
 20
114.8156
 42
0.02365398825
  0
VERTEX
  8
LAYER_1
 10
89.5546
 20
114.9387
 42
0.2853423096
  0
VERTEX
  8
LAYER_1
 10
89.2125
 20
114.9003
 42
-0.008976344041
  0
VERTEX
  8
LAYER_1
 10
89.0449
 20
114.772
 42
0.2603952373
  0
VERTEX
  8
LAYER_1
 10
88.8989
 20
114.4431
 42
0.0401838585
  0
VERTEX
  8
LAYER_1
 10
88.91
 20
114.3117
 42
-0.02005521553
  0
VERTEX
  8
LAYER_1
 10
88.9624
 20
113.734
 42
-0.01870343153
  0
VERTEX
  8
LAYER_1
 10
89.0354
 20
111.721
 42
0.005724754482
  0
VERTEX
  8
LAYER_1
 10
89.0004
 20
110.1924
  0
VERTEX
  8
LAYER_1
 10
88.9925
 20
110.1242
  0
VERTEX
  8
LAYER_1
 10
89.1672
 20
110.0877
 42
0.02428075157
  0
VERTEX
  8
LAYER_1
 10
89.2734
 20
110.5893
 42
0.02595935029
  0
VERTEX
  8
LAYER_1
 10
89.2957
 20
112.575
  0
VERTEX
  8
LAYER_1
 10
89.2624
 20
113.4625
  0
SEQEND
  0
ENDBLK
  0
BLOCK
  8
LAYER_1
  2
AIGNBL01040014
 70
64
 10
0
 20
0
 30
0
  3
AIGNBL01040014
  0
POLYLINE
  8
LAYER_1
 40
0.05
 41
0.05
 66
1
 10
0
 20
0
 30
0
 70
1
  0
VERTEX
  8
LAYER_1
 10
61.5964
 20
101.2166
 42
0.03866199326
  0
VERTEX
  8
LAYER_1
 10
61.744
 20
101.3974
  0
VERTEX
  8
LAYER_1
 10
61.7377
 20
101.3816
  0
VERTEX
  8
LAYER_1
 10
61.6917
 20
101.2817
 42
0.5554798372
  0
VERTEX
  8
LAYER_1
 10
61.7409
 20
101.1673
  0
VERTEX
  8
LAYER_1
 10
62.1964
 20
101.0419
 42
0.2575157835
  0
VERTEX
  8
LAYER_1
 10
62.5459
 20
101.1277
 42
0.004930841376
  0
VERTEX
  8
LAYER_1
 10
62.5505
 20
101.1325
 42
-0.4527309387
  0
VERTEX
  8
LAYER_1
 10
63.0378
 20
101.0832
 42
0.1989007925
  0
VERTEX
  8
LAYER_1
 10
63.3839
 20
100.7356
 42
-0.5065372739
  0
VERTEX
  8
LAYER_1
 10
63.4616
 20
100.5768
 42
0.07836078117
  0
VERTEX
  8
LAYER_1
 10
63.3696
 20
99.8847
 42
-0.1244896405
  0
VERTEX
  8
LAYER_1
 10
63.3339
 20
99.6057
 42
-0.1891035681
  0
VERTEX
  8
LAYER_1
 10
63.1648
 20
99.4403
 42
-0.2297868209
  0
VERTEX
  8
LAYER_1
 10
62.6727
 20
99.318
 42
0.02022181552
  0
VERTEX
  8
LAYER_1
 10
61.7684
 20
99.5992
 42
0.04532312558
  0
VERTEX
  8
LAYER_1
 10
61.4646
 20
99.6339
 42
-0.5130908558
  0
VERTEX
  8
LAYER_1
 10
61.3938
 20
99.6729
 42
-0.1339944807
  0
VERTEX
  8
LAYER_1
 10
61.4217
 20
99.7259
 42
0.2665842237
  0
VERTEX
  8
LAYER_1
 10
61.493
 20
100.0761
 42
0.02825976647
  0
VERTEX
  8
LAYER_1
 10
61.4345
 20
100.2419
 42
0.04537314346
  0
VERTEX
  8
LAYER_1
 10
61.1885
 20
100.6815
 42
-0.3273749923
  0
VERTEX
  8
LAYER_1
 10
61.244
 20
101.0212
 42
0.1297280531
  0
VERTEX
  8
LAYER_1
 10
61.5377
 20
101.1611
  0
VERTEX
  8
LAYER_1
 10
61.5916
 20
101.2117
  0
SEQEND
  0
POLYLINE
  8
LAYER_1
 40
0.05
 41
0.05
 66
1
 10
0
 20
0
 30
0
 70
1
  0
VERTEX
  8
LAYER_1
 10
60.3488
 20
102.4024
 42
-0.5025756791
  0
VERTEX
  8
LAYER_1
 10
60.5138
 20
102.5929
 42
0.05071689938
  0
VERTEX
  8
LAYER_1
 10
62.0028
 20
102.7214
 42
-0.1666530651
  0
VERTEX
  8
LAYER_1
 10
62.1774
 20
102.6849
 42
-0.07608128435
  0
VERTEX
  8
LAYER_1
 10
62.4204
 20
102.5056
 42
-0.006108713448
  0
VERTEX
  8
LAYER_1
 10
62.7156
 20
102.2373
 42
-0.1207907323
  0
VERTEX
  8
LAYER_1
 10
62.9131
 20
102.0451
 42
-0.2631729083
  0
VERTEX
  8
LAYER_1
 10
62.9092
 20
101.7213
 42
0.09684715125
  0
VERTEX
  8
LAYER_1
 10
62.9012
 20
101.5848
 42
-0.5545561792
  0
VERTEX
  8
LAYER_1
 10
62.7758
 20
101.4832
 42
-0.1345908377
  0
VERTEX
  8
LAYER_1
 10
62.131
 20
101.782
 42
-0.04407600739
  0
VERTEX
  8
LAYER_1
 10
62.0091
 20
101.9166
 42
0.5093689395
  0
VERTEX
  8
LAYER_1
 10
61.8837
 20
102.0191
 42
0.1007229102
  0
VERTEX
  8
LAYER_1
 10
61.7885
 20
101.907
  0
VERTEX
  8
LAYER_1
 10
61.7583
 20
101.8722
  0
VERTEX
  8
LAYER_1
 10
61.6774
 20
101.7626
 42
0.1652025029
  0
VERTEX
  8
LAYER_1
 10
62.121
 20
101.3887
 42
0.01769643379
  0
VERTEX
  8
LAYER_1
 10
62.3631
 20
101.2896
 42
-0.08008530919
  0
VERTEX
  8
LAYER_1
 10
61.933
 20
101.415
 42
0.3258641009
  0
VERTEX
  8
LAYER_1
 10
61.7504
 20
101.4071
  0
VERTEX
  8
LAYER_1
 10
61.7473
 20
101.4023
  0
VERTEX
  8
LAYER_1
 10
61.7489
 20
101.4071
  0
VERTEX
  8
LAYER_1
 10
61.744
 20
101.415
  0
VERTEX
  8
LAYER_1
 10
61.7251
 20
101.4388
  0
VERTEX
  8
LAYER_1
 10
61.7123
 20
101.4467
  0
VERTEX
  8
LAYER_1
 10
61.6822
 20
101.4436
  0
VERTEX
  8
LAYER_1
 10
61.6646
 20
101.4308
  0
VERTEX
  8
LAYER_1
 10
61.6631
 20
101.4308
  0
VERTEX
  8
LAYER_1
 10
61.6457
 20
101.4167
  0
VERTEX
  8
LAYER_1
 10
61.6281
 20
101.4023
 42
-0.1234695554
  0
VERTEX
  8
LAYER_1
 10
61.3425
 20
101.3006
 42
0.2202370848
  0
VERTEX
  8
LAYER_1
 10
61.1298
 20
101.1752
 42
0.09400034674
  0
VERTEX
  8
LAYER_1
 10
60.997
 20
100.9483
 42
0.04483620623
  0
VERTEX
  8
LAYER_1
 10
60.9329
 20
100.6864
 42
-0.6687937759
  0
VERTEX
  8
LAYER_1
 10
60.8392
 20
100.5927
 42
-0.02579881692
  0
VERTEX
  8
LAYER_1
 10
60.5312
 20
100.6881
  0
VERTEX
  8
LAYER_1
 10
60.5217
 20
100.6912
 42
-0.2792826018
  0
VERTEX
  8
LAYER_1
 10
60.4562
 20
100.7734
 42
0.005982536599
  0
VERTEX
  8
LAYER_1
 10
60.463
 20
101.0023
  0
VERTEX
  8
LAYER_1
 10
60.4551
 20
101.0467
  0
SEQEND
  0
POLYLINE
  8
LAYER_1
 40
0.05
 41
0.05
 66
1
 10
0
 20
0
 30
0
 70
1
  0
VERTEX
  8
LAYER_1
 10
59.1027
 20
104.8994
 42
-0.2703282678
  0
VERTEX
  8
LAYER_1
 10
59.1266
 20
105.0446
 42
-0.2138783267
  0
VERTEX
  8
LAYER_1
 10
59.2503
 20
105.0723
 42
-0.2115223767
  0
VERTEX
  8
LAYER_1
 10
59.6444
 20
104.8908
 42
-0.1221456023
  0
VERTEX
  8
LAYER_1
 10
59.7678
 20
104.62
 42
-0.02207148415
  0
VERTEX
  8
LAYER_1
 10
59.9963
 20
103.1389
 42
-0.01465549286
  0
VERTEX
  8
LAYER_1
 10
60.2313
 20
100.6609
 42
-0.05045961227
  0
VERTEX
  8
LAYER_1
 10
60.2931
 20
100.3753
 42
0.4590599255
  0
VERTEX
  8
LAYER_1
 10
60.323
 20
100.3338
 42
-0.004527077479
  0
VERTEX
  8
LAYER_1
 10
60.4139
 20
100.3229
 42
-0.2091884572
  0
VERTEX
  8
LAYER_1
 10
60.8053
 20
100.1144
 42
-0.1060874156
  0
VERTEX
  8
LAYER_1
 10
60.9012
 20
99.8768
 42
-0.4660992566
  0
VERTEX
  8
LAYER_1
 10
60.8471
 20
99.7259
 42
0.2332739136
  0
VERTEX
  8
LAYER_1
 10
60.7853
 20
99.6449
  0
VERTEX
  8
LAYER_1
 10
60.9679
 20
99.3069
 42
0.05528192072
  0
VERTEX
  8
LAYER_1
 10
61.5012
 20
99.2894
 42
-0.07939118515
  0
VERTEX
  8
LAYER_1
 10
62.3473
 20
99.145
  0
VERTEX
  8
LAYER_1
 10
62.1519
 20
99.1433
  0
VERTEX
  8
LAYER_1
 10
62.0186
 20
99.1213
 42
0.3494113064
  0
VERTEX
  8
LAYER_1
 10
61.9029
 20
98.9593
 42
0.340343145
  0
VERTEX
  8
LAYER_1
 10
61.9636
 20
98.9192
 42
-0.00586864244
  0
VERTEX
  8
LAYER_1
 10
62.0663
 20
98.9307
 42
0.09568632575
  0
VERTEX
  8
LAYER_1
 10
62.9012
 20
99.1371
  0
VERTEX
  8
LAYER_1
 10
62.5424
 20
98.6227
 42
0.01529267447
  0
VERTEX
  8
LAYER_1
 10
62.3616
 20
98.3227
 42
0.5053155647
  0
VERTEX
  8
LAYER_1
 10
62.3664
 20
98.2148
 42
0.4038592178
  0
VERTEX
  8
LAYER_1
 10
62.487
 20
98.2417
  0
VERTEX
  8
LAYER_1
 10
62.6489
 20
98.4846
 42
-0.03209845861
  0
VERTEX
  8
LAYER_1
 10
63.2997
 20
99.391
 42
-0.6607021739
  0
VERTEX
  8
LAYER_1
 10
63.4537
 20
99.4069
 42
0.2731143844
  0
VERTEX
  8
LAYER_1
 10
63.5719
 20
99.3353
 42
0.1987191193
  0
VERTEX
  8
LAYER_1
 10
63.6445
 20
99.3838
 42
0.07091905637
  0
VERTEX
  8
LAYER_1
 10
63.6838
 20
99.4451
 42
0.4983352015
  0
VERTEX
  8
LAYER_1
 10
63.6871
 20
99.7703
 42
-0.1853570016
  0
VERTEX
  8
LAYER_1
 10
63.6352
 20
99.8757
 42
-0.02045756815
  0
VERTEX
  8
LAYER_1
 10
63.6268
 20
100.0149
 42
-0.08536428255
  0
VERTEX
  8
LAYER_1
 10
63.7236
 20
100.8769
 42
0.4857169951
  0
VERTEX
  8
LAYER_1
 10
63.7219
 20
100.9984
 42
0.1454475877
  0
VERTEX
  8
LAYER_1
 10
63.6314
 20
100.9975
 42
-0.1970263904
  0
VERTEX
  8
LAYER_1
 10
63.5019
 20
101.0194
 42
-0.1250996749
  0
VERTEX
  8
LAYER_1
 10
63.3965
 20
101.1356
 42
-0.1375361675
  0
VERTEX
  8
LAYER_1
 10
63.2284
 20
101.7848
 42
-0.04555898639
  0
VERTEX
  8
LAYER_1
 10
63.2568
 20
102.0055
 42
-0.4469502921
  0
VERTEX
  8
LAYER_1
 10
63.4044
 20
102.0992
 42
-0.2304954171
  0
VERTEX
  8
LAYER_1
 10
63.8712
 20
101.815
 42
0.5054265142
  0
VERTEX
  8
LAYER_1
 10
64.0173
 20
101.7151
  0
VERTEX
  8
LAYER_1
 10
64.141
 20
101.9039
 42
0.2773648582
  0
VERTEX
  8
LAYER_1
 10
63.96
 20
102.2018
 42
0.02012128461
  0
VERTEX
  8
LAYER_1
 10
63.895
 20
102.2453
 42
0.1173335786
  0
VERTEX
  8
LAYER_1
 10
63.5715
 20
102.3961
 42
0.1830829116
  0
VERTEX
  8
LAYER_1
 10
63.3045
 20
102.3421
 42
-0.2687426897
  0
VERTEX
  8
LAYER_1
 10
63.1441
 20
102.3658
 42
-0.07736724115
  0
VERTEX
  8
LAYER_1
 10
62.852
 20
102.585
  0
VERTEX
  8
LAYER_1
 10
62.5473
 20
102.8881
 42
0.1985665621
  0
VERTEX
  8
LAYER_1
 10
62.0962
 20
103.0801
 42
0.02971971497
  0
VERTEX
  8
LAYER_1
 10
62.0265
 20
103.0738
 42
-0.0277220086
  0
VERTEX
  8
LAYER_1
 10
61.2305
 20
103.0132
 42
0.002903929721
  0
VERTEX
  8
LAYER_1
 10
60.3805
 20
102.9674
 42
-0.5032792577
  0
VERTEX
  8
LAYER_1
 10
60.2852
 20
103.0294
  0
VERTEX
  8
LAYER_1
 10
60.1233
 20
104.231
 42
0.05654859176
  0
VERTEX
  8
LAYER_1
 10
60.0058
 20
104.9231
 42
0.2258035093
  0
VERTEX
  8
LAYER_1
 10
59.741
 20
105.2651
 42
0.02401952282
  0
VERTEX
  8
LAYER_1
 10
59.4868
 20
105.3882
 42
0.2841745398
  0
VERTEX
  8
LAYER_1
 10
59.1433
 20
105.3498
 42
-0.008807579532
  0
VERTEX
  8
LAYER_1
 10
58.9756
 20
105.2215
 42
0.2576587389
  0
VERTEX
  8
LAYER_1
 10
58.8298
 20
104.8926
 42
0.04092054751
  0
VERTEX
  8
LAYER_1
 10
58.8407
 20
104.7612
 42
-0.02003907832
  0
VERTEX
  8
LAYER_1
 10
58.893
 20
104.1835
 42
-0.01812262544
  0
VERTEX
  8
LAYER_1
 10
58.9661
 20
102.1705
 42
0.005724754482
  0
VERTEX
  8
LAYER_1
 10
58.9311
 20
100.6419
  0
VERTEX
  8
LAYER_1
 10
58.9232
 20
100.5737
  0
VERTEX
  8
LAYER_1
 10
59.0979
 20
100.5372
 42
0.02428075157
  0
VERTEX
  8
LAYER_1
 10
59.2041
 20
101.0388
 42
0.02595935029
  0
VERTEX
  8
LAYER_1
 10
59.2264
 20
103.0245
  0
VERTEX
  8
LAYER_1
 10
59.1931
 20
103.912
  0
SEQEND
  0
ENDBLK
  0
BLOCK
  8
LAYER_1
  2
AIGNBL01040025
 70
64
 10
0
 20
0
 30
0
  3
AIGNBL01040025
  0
POLYLINE
  8
LAYER_1
 40
0.05
 41
0.05
 66
1
 10
0
 20
0
 30
0
 70
1
  0
VERTEX
  8
LAYER_1
 10
146.7545
 20
39.1418
  0
VERTEX
  8
LAYER_1
 10
146.2657
 20
37.9567
  0
VERTEX
  8
LAYER_1
 10
145.6376
 20
37.9567
  0
VERTEX
  8
LAYER_1
 10
147.2372
 20
41.7225
  0
VERTEX
  8
LAYER_1
 10
147.9703
 20
41.7225
  0
VERTEX
  8
LAYER_1
 10
149.5767
 20
37.9567
  0
VERTEX
  8
LAYER_1
 10
148.9267
 20
37.9567
  0
VERTEX
  8
LAYER_1
 10
148.424
 20
39.1418
  0
SEQEND
  0
POLYLINE
  8
LAYER_1
 40
0.05
 41
0.05
 66
1
 10
0
 20
0
 30
0
 70
1
  0
VERTEX
  8
LAYER_1
 10
148.2983
 20
39.5208
  0
VERTEX
  8
LAYER_1
 10
147.8373
 20
40.6056
 42
-0.02317247198
  0
VERTEX
  8
LAYER_1
 10
147.5927
 20
41.2926
  0
VERTEX
  8
LAYER_1
 10
147.5789
 20
41.2926
 42
-0.02064481114
  0
VERTEX
  8
LAYER_1
 10
147.3412
 20
40.6101
  0
VERTEX
  8
LAYER_1
 10
146.8806
 20
39.5208
  0
SEQEND
  0
ENDBLK
  0
BLOCK
  8
LAYER_1
  2
AIGNBL01040026
 70
64
 10
0
 20
0
 30
0
  3
AIGNBL01040026
  0
POLYLINE
  8
LAYER_1
 40
0.05
 41
0.05
 66
1
 10
0
 20
0
 30
0
 70
1
  0
VERTEX
  8
LAYER_1
 10
153.942
 20
37.4034
 42
-0.01525137561
  0
VERTEX
  8
LAYER_1
 10
152.1399
 20
37.8396
 42
0.09192818596
  0
VERTEX
  8
LAYER_1
 10
151.8533
 20
37.895
 42
-0.09256808484
  0
VERTEX
  8
LAYER_1
 10
150.8994
 20
38.0977
 42
-0.09799469934
  0
VERTEX
  8
LAYER_1
 10
150.2621
 20
38.5324
 42
-0.1630918382
  0
VERTEX
  8
LAYER_1
 10
149.7964
 20
39.5259
 42
-0.0316951694
  0
VERTEX
  8
LAYER_1
 10
149.7793
 20
39.7998
 42
-0.1055313794
  0
VERTEX
  8
LAYER_1
 10
149.9533
 20
40.6417
 42
-0.1619874109
  0
VERTEX
  8
LAYER_1
 10
150.7418
 20
41.4867
 42
-0.09224146328
  0
VERTEX
  8
LAYER_1
 10
151.5409
 20
41.7524
 42
-0.03717154931
  0
VERTEX
  8
LAYER_1
 10
151.9725
 20
41.7838
 42
-0.09530535683
  0
VERTEX
  8
LAYER_1
 10
152.9361
 20
41.6062
 42
-0.1001834594
  0
VERTEX
  8
LAYER_1
 10
153.5732
 20
41.1834
 42
-0.1611157059
  0
VERTEX
  8
LAYER_1
 10
154.06
 20
40.1825
 42
-0.03590950521
  0
VERTEX
  8
LAYER_1
 10
154.0816
 20
39.8784
 42
-0.1066899695
  0
VERTEX
  8
LAYER_1
 10
153.9052
 20
39.0236
 42
-0.2183856259
  0
VERTEX
  8
LAYER_1
 10
152.7953
 20
38.0897
 42
-0.006706171784
  0
VERTEX
  8
LAYER_1
 10
152.7407
 20
38.0738
  0
VERTEX
  8
LAYER_1
 10
152.7407
 20
38.0514
 42
0.01533555045
  0
VERTEX
  8
LAYER_1
 10
154.117
 20
37.8113
  0
SEQEND
  0
POLYLINE
  8
LAYER_1
 40
0.05
 41
0.05
 66
1
 10
0
 20
0
 30
0
 70
1
  0
VERTEX
  8
LAYER_1
 10
153.4394
 20
39.857
 42
0.1175610784
  0
VERTEX
  8
LAYER_1
 10
153.257
 20
40.6254
 42
0.1170135141
  0
VERTEX
  8
LAYER_1
 10
152.8315
 20
41.1234
 42
0.1200044572
  0
VERTEX
  8
LAYER_1
 10
152.2186
 20
41.3675
 42
0.03774262044
  0
VERTEX
  8
LAYER_1
 10
151.9511
 20
41.3873
 42
0.1153139376
  0
VERTEX
  8
LAYER_1
 10
151.2089
 20
41.2226
 42
0.1853550912
  0
VERTEX
  8
LAYER_1
 10
150.5507
 20
40.4882
 42
0.09859892291
  0
VERTEX
  8
LAYER_1
 10
150.4287
 20
39.8122
 42
0.1178359247
  0
VERTEX
  8
LAYER_1
 10
150.5964
 20
39.0734
 42
0.2866694251
  0
VERTEX
  8
LAYER_1
 10
151.9232
 20
38.2912
 42
0.1188197759
  0
VERTEX
  8
LAYER_1
 10
152.6722
 20
38.4633
 42
0.1796740134
  0
VERTEX
  8
LAYER_1
 10
153.3126
 20
39.18
 42
0.09850052237
  0
SEQEND
  0
ENDBLK
  0
BLOCK
  8
LAYER_1
  2
AIGNBL01040027
 70
64
 10
0
 20
0
 30
0
  3
AIGNBL01040027
  0
POLYLINE
  8
LAYER_1
 40
0.05
 41
0.05
 66
1
 10
0
 20
0
 30
0
 70
1
  0
VERTEX
  8
LAYER_1
 10
155.4089
 20
41.7225
  0
VERTEX
  8
LAYER_1
 10
155.4089
 20
39.4932
 42
0.1220213404
  0
VERTEX
  8
LAYER_1
 10
155.569
 20
38.7775
 42
0.2218709818
  0
VERTEX
  8
LAYER_1
 10
156.2104
 20
38.3206
 42
0.05223876895
  0
VERTEX
  8
LAYER_1
 10
156.5055
 20
38.2912
 42
0.1302821267
  0
VERTEX
  8
LAYER_1
 10
157.1748
 20
38.452
 42
0.1509367336
  0
VERTEX
  8
LAYER_1
 10
157.526
 20
38.8454
 42
0.1174732039
  0
VERTEX
  8
LAYER_1
 10
157.651
 20
39.4932
  0
VERTEX
  8
LAYER_1
 10
157.651
 20
41.7225
  0
VERTEX
  8
LAYER_1
 10
158.2656
 20
41.7225
  0
VERTEX
  8
LAYER_1
 10
158.2656
 20
39.5266
 42
-0.1106199636
  0
VERTEX
  8
LAYER_1
 10
158.0961
 20
38.708
 42
-0.1822316276
  0
VERTEX
  8
LAYER_1
 10
157.4057
 20
38.0637
 42
-0.09768689614
  0
VERTEX
  8
LAYER_1
 10
156.6028
 20
37.8972
 42
-0.01000776787
  0
VERTEX
  8
LAYER_1
 10
156.4845
 20
37.895
 42
-0.09899827608
  0
VERTEX
  8
LAYER_1
 10
155.612
 20
38.0554
 42
-0.1209605854
  0
VERTEX
  8
LAYER_1
 10
155.1093
 20
38.4366
 42
-0.1192983303
  0
VERTEX
  8
LAYER_1
 10
154.8407
 20
39.0317
 42
-0.05319533763
  0
VERTEX
  8
LAYER_1
 10
154.7943
 20
39.5046
  0
VERTEX
  8
LAYER_1
 10
154.7943
 20
41.7225
  0
SEQEND
  0
ENDBLK
  0
BLOCK
  8
LAYER_1
  2
AIGNBL01040028
 70
64
 10
0
 20
0
 30
0
  3
AIGNBL01040028
  0
POLYLINE
  8
LAYER_1
 40
0.05
 41
0.05
 66
1
 10
0
 20
0
 30
0
 70
1
  0
VERTEX
  8
LAYER_1
 10
160.0119
 20
39.1418
  0
VERTEX
  8
LAYER_1
 10
159.5227
 20
37.9567
  0
VERTEX
  8
LAYER_1
 10
158.8947
 20
37.9567
  0
VERTEX
  8
LAYER_1
 10
160.4939
 20
41.7225
  0
VERTEX
  8
LAYER_1
 10
161.227
 20
41.7225
  0
VERTEX
  8
LAYER_1
 10
162.8335
 20
37.9567
  0
VERTEX
  8
LAYER_1
 10
162.1841
 20
37.9567
  0
VERTEX
  8
LAYER_1
 10
161.6814
 20
39.1418
  0
SEQEND
  0
POLYLINE
  8
LAYER_1
 40
0.05
 41
0.05
 66
1
 10
0
 20
0
 30
0
 70
1
  0
VERTEX
  8
LAYER_1
 10
161.5553
 20
39.5208
  0
VERTEX
  8
LAYER_1
 10
161.094
 20
40.6056
 42
-0.02227599701
  0
VERTEX
  8
LAYER_1
 10
160.8494
 20
41.2926
  0
VERTEX
  8
LAYER_1
 10
160.8357
 20
41.2926
 42
-0.0206476565
  0
VERTEX
  8
LAYER_1
 10
160.5983
 20
40.6101
  0
VERTEX
  8
LAYER_1
 10
160.1373
 20
39.5208
  0
SEQEND
  0
ENDBLK
  0
BLOCK
  8
LAYER_1
  2
AIGNBL01040029
 70
64
 10
0
 20
0
 30
0
  3
AIGNBL01040029
  0
POLYLINE
  8
LAYER_1
 40
0.05
 41
0.05
 66
1
 10
0
 20
0
 30
0
 70
1
  0
VERTEX
  8
LAYER_1
 10
163.8742
 20
41.6777
 42
-0.03334485223
  0
VERTEX
  8
LAYER_1
 10
165.0411
 20
41.7508
 42
-0.08841555942
  0
VERTEX
  8
LAYER_1
 10
166.0872
 20
41.5858
 42
-0.06038484967
  0
VERTEX
  8
LAYER_1
 10
166.3609
 20
41.438
 42
-0.2471651456
  0
VERTEX
  8
LAYER_1
 10
166.7726
 20
40.6497
 42
-0.1483298328
  0
VERTEX
  8
LAYER_1
 10
166.6029
 20
40.0554
 42
-0.07223194904
  0
VERTEX
  8
LAYER_1
 10
166.4095
 20
39.8456
 42
-0.1209372404
  0
VERTEX
  8
LAYER_1
 10
165.7228
 20
39.517
 42
-0.06224269186
  0
VERTEX
  8
LAYER_1
 10
164.9708
 20
39.4319
 42
-0.05738783264
  0
VERTEX
  8
LAYER_1
 10
164.4823
 20
39.4653
  0
VERTEX
  8
LAYER_1
 10
164.4823
 20
37.9567
  0
VERTEX
  8
LAYER_1
 10
163.8742
 20
37.9567
  0
SEQEND
  0
POLYLINE
  8
LAYER_1
 40
0.05
 41
0.05
 66
1
 10
0
 20
0
 30
0
 70
1
  0
VERTEX
  8
LAYER_1
 10
164.4823
 20
39.8622
 42
0.05012782438
  0
VERTEX
  8
LAYER_1
 10
164.9846
 20
39.8229
 42
0.1135463519
  0
VERTEX
  8
LAYER_1
 10
165.7697
 20
39.9822
 42
0.1653329065
  0
VERTEX
  8
LAYER_1
 10
166.1074
 20
40.3302
 42
0.1044639943
  0
VERTEX
  8
LAYER_1
 10
166.1656
 20
40.6273
 42
0.2826437488
  0
VERTEX
  8
LAYER_1
 10
165.8147
 20
41.2103
 42
0.0629694601
  0
VERTEX
  8
LAYER_1
 10
165.549
 20
41.3107
 42
0.06259589917
  0
VERTEX
  8
LAYER_1
 10
165.0552
 20
41.3649
 42
0.05214717704
  0
VERTEX
  8
LAYER_1
 10
164.4823
 20
41.3256
  0
SEQEND
  0
ENDBLK
  0
BLOCK
  8
LAYER_1
  2
AIGNBL0104002A
 70
64
 10
0
 20
0
 30
0
  3
AIGNBL0104002A
  0
POLYLINE
  8
LAYER_1
 40
0.05
 41
0.05
 66
1
 10
0
 20
0
 30
0
 70
1
  0
VERTEX
  8
LAYER_1
 10
168.3246
 20
41.4207
 42
-0.3048675751
  0
VERTEX
  8
LAYER_1
 10
168.1582
 20
41.1661
 42
-0.1151020929
  0
VERTEX
  8
LAYER_1
 10
167.9329
 20
41.1189
 42
-0.2442513348
  0
VERTEX
  8
LAYER_1
 10
167.6028
 20
41.2794
 42
-0.1394546152
  0
VERTEX
  8
LAYER_1
 10
167.5626
 20
41.4207
 42
-0.287439772
  0
VERTEX
  8
LAYER_1
 10
167.7346
 20
41.6803
 42
-0.1179404017
  0
VERTEX
  8
LAYER_1
 10
167.9467
 20
41.7277
 42
-0.2416274379
  0
VERTEX
  8
LAYER_1
 10
168.2814
 20
41.5719
 42
-0.1426378456
  0
SEQEND
  0
POLYLINE
  8
LAYER_1
 40
0.05
 41
0.05
 66
1
 10
0
 20
0
 30
0
 70
1
  0
VERTEX
  8
LAYER_1
 10
167.639
 20
37.9567
  0
VERTEX
  8
LAYER_1
 10
167.639
 20
40.6607
  0
VERTEX
  8
LAYER_1
 10
168.2536
 20
40.6607
  0
VERTEX
  8
LAYER_1
 10
168.2536
 20
37.9567
  0
SEQEND
  0
ENDBLK
  0
BLOCK
  8
LAYER_1
  2
AIGNBL0104002B
 70
64
 10
0
 20
0
 30
0
  3
AIGNBL0104002B
  0
POLYLINE
  8
LAYER_1
 40
0.05
 41
0.05
 66
1
 10
0
 20
0
 30
0
 70
1
  0
VERTEX
  8
LAYER_1
 10
170.1254
 20
39.1418
  0
VERTEX
  8
LAYER_1
 10
169.6372
 20
37.9567
  0
VERTEX
  8
LAYER_1
 10
169.0081
 20
37.9567
  0
VERTEX
  8
LAYER_1
 10
170.6077
 20
41.7225
  0
VERTEX
  8
LAYER_1
 10
171.3415
 20
41.7225
  0
VERTEX
  8
LAYER_1
 10
172.9479
 20
37.9567
  0
VERTEX
  8
LAYER_1
 10
172.2982
 20
37.9567
  0
VERTEX
  8
LAYER_1
 10
171.7955
 20
39.1418
  0
SEQEND
  0
POLYLINE
  8
LAYER_1
 40
0.05
 41
0.05
 66
1
 10
0
 20
0
 30
0
 70
1
  0
VERTEX
  8
LAYER_1
 10
171.6695
 20
39.5208
  0
VERTEX
  8
LAYER_1
 10
171.2085
 20
40.6056
 42
-0.02430767271
  0
VERTEX
  8
LAYER_1
 10
170.9646
 20
41.2926
  0
VERTEX
  8
LAYER_1
 10
170.9498
 20
41.2926
 42
-0.02046602706
  0
VERTEX
  8
LAYER_1
 10
170.7127
 20
40.6101
  0
VERTEX
  8
LAYER_1
 10
170.2518
 20
39.5208
  0
SEQEND
  0
ENDBLK
  0
BLOCK
  8
LAYER_1
  2
AIGNBL01030008
 70
64
 10
0
 20
0
 30
0
  3
AIGNBL01030008
  0
ENDBLK
  0
BLOCK
  8
LAYER_1
  2
AIGNBL01030009
 70
64
 10
0
 20
0
 30
0
  3
AIGNBL01030009
  0
POLYLINE
  8
LAYER_1
 40
0.0353
 41
0.0353
 66
1
 10
0
 20
0
 30
0
  0
VERTEX
  8
LAYER_1
 10
61.4548
 20
136.4079
  0
VERTEX
  8
LAYER_1
 10
61.3801
 20
136.3527
  0
SEQEND
  0
POLYLINE
  8
LAYER_1
 40
0.0353
 41
0.0353
 66
1
 10
0
 20
0
 30
0
  0
VERTEX
  8
LAYER_1
 10
63.0425
 20
136.5567
  0
VERTEX
  8
LAYER_1
 10
63.0737
 20
136.4761
  0
VERTEX
  8
LAYER_1
 10
63.0465
 20
136.3641
  0
VERTEX
  8
LAYER_1
 10
62.9887
 20
136.308
  0
VERTEX
  8
LAYER_1
 10
62.9798
 20
136.3248
  0
SEQEND
  0
ENDBLK
  0
BLOCK
  8
LAYER_1
  2
AIGNBL0103000E
 70
64
 10
0
 20
0
 30
0
  3
AIGNBL0103000E
  0
POLYLINE
  8
LAYER_1
 40
0.05
 41
0.05
 62
254
 66
1
 10
0
 20
0
 30
0
 70
1
  0
VERTEX
  8
LAYER_1
 10
95.3373
 20
100.9775
 42
0.1796515087
  0
VERTEX
  8
LAYER_1
 10
95.4724
 20
101.2441
  0
SEQEND
  0
POLYLINE
  8
LAYER_1
 40
0.05
 41
0.05
 66
1
 10
0
 20
0
 30
0
 70
1
  0
VERTEX
  8
LAYER_1
 10
94.6738
 20
105.3762
 42
0.2635982554
  0
VERTEX
  8
LAYER_1
 10
94.346
 20
105.3836
 42
0.1294306118
  0
VERTEX
  8
LAYER_1
 10
94.2452
 20
105.3
 42
0.4422503655
  0
VERTEX
  8
LAYER_1
 10
94.2448
 20
105.2253
 42
0.008638910428
  0
VERTEX
  8
LAYER_1
 10
94.3055
 20
105.1905
 42
0.04775033653
  0
VERTEX
  8
LAYER_1
 10
95.8818
 20
104.3206
  0
VERTEX
  8
LAYER_1
 10
96.5438
 20
104.0412
  0
VERTEX
  8
LAYER_1
 10
96.6582
 20
104.0016
 42
0.139942899
  0
VERTEX
  8
LAYER_1
 10
96.9359
 20
104.1538
 42
0.5774522863
  0
VERTEX
  8
LAYER_1
 10
96.9433
 20
104.2176
 42
0.02518112752
  0
VERTEX
  8
LAYER_1
 10
96.8709
 20
104.2445
  0
VERTEX
  8
LAYER_1
 10
95.9485
 20
104.6555
 42
-0.04309646811
  0
SEQEND
  0
POLYLINE
  8
LAYER_1
 40
0.05
 41
0.05
 66
1
 10
0
 20
0
 30
0
 70
1
  0
VERTEX
  8
LAYER_1
 10
95.1151
 20
110.3464
 42
0.08257389706
  0
VERTEX
  8
LAYER_1
 10
94.9675
 20
110.2716
 42
0.2090672015
  0
VERTEX
  8
LAYER_1
 10
94.7398
 20
109.8796
 42
0.03469919601
  0
VERTEX
  8
LAYER_1
 10
94.7182
 20
109.7177
 42
-0.01298813789
  0
VERTEX
  8
LAYER_1
 10
94.6723
 20
108.9542
 42
-0.05526952983
  0
VERTEX
  8
LAYER_1
 10
94.5768
 20
108.5373
 42
-0.002365942407
  0
VERTEX
  8
LAYER_1
 10
94.3405
 20
107.9097
  0
VERTEX
  8
LAYER_1
 10
94.1579
 20
107.3922
 42
0.08487281097
  0
VERTEX
  8
LAYER_1
 10
94.0895
 20
107.1006
 42
0.04708373208
  0
VERTEX
  8
LAYER_1
 10
94.1152
 20
106.6271
 42
-0.1805166958
  0
VERTEX
  8
LAYER_1
 10
93.931
 20
105.9064
  0
VERTEX
  8
LAYER_1
 10
93.7071
 20
105.5777
 42
0.640360601
  0
VERTEX
  8
LAYER_1
 10
93.7674
 20
105.4158
 42
0.1825495101
  0
VERTEX
  8
LAYER_1
 10
93.954
 20
105.399
 42
0.2024753885
  0
VERTEX
  8
LAYER_1
 10
94.0644
 20
105.5064
  0
VERTEX
  8
LAYER_1
 10
94.0912
 20
105.5429
  0
VERTEX
  8
LAYER_1
 10
94.2087
 20
105.7031
  0
VERTEX
  8
LAYER_1
 10
94.2087
 20
105.7048
 42
0.07964183968
  0
VERTEX
  8
LAYER_1
 10
94.4891
 20
106.1716
 42
0.08472875137
  0
VERTEX
  8
LAYER_1
 10
94.5282
 20
106.395
 42
0.03542800701
  0
VERTEX
  8
LAYER_1
 10
94.4881
 20
106.8299
 42
-0.0004138376379
  0
VERTEX
  8
LAYER_1
 10
94.4516
 20
107.1445
 42
-0.1114599774
  0
VERTEX
  8
LAYER_1
 10
94.4754
 20
107.5018
  0
VERTEX
  8
LAYER_1
 10
94.7501
 20
108.2986
 42
0.07656804189
  0
VERTEX
  8
LAYER_1
 10
94.9565
 20
109.2781
 42
-0.1021133861
  0
SEQEND
  0
POLYLINE
  8
LAYER_1
 40
0.05
 41
0.05
 66
1
 10
0
 20
0
 30
0
 70
1
  0
VERTEX
  8
LAYER_1
 10
89.2449
 20
109.4717
 42
-0.1183993053
  0
VERTEX
  8
LAYER_1
 10
89.1672
 20
110.0877
  0
VERTEX
  8
LAYER_1
 10
88.9925
 20
110.1242
 42
-0.0611534538
  0
VERTEX
  8
LAYER_1
 10
88.9434
 20
109.9733
 42
0.113817566
  0
VERTEX
  8
LAYER_1
 10
88.8951
 20
109.7563
 42
0.05636548063
  0
VERTEX
  8
LAYER_1
 10
88.9513
 20
109.3907
 42
0.03372239094
  0
VERTEX
  8
LAYER_1
 10
89.0624
 20
109.059
 42
-0.03620278287
  0
VERTEX
  8
LAYER_1
 10
89.76
 20
106.5181
 42
-0.006421035188
  0
VERTEX
  8
LAYER_1
 10
89.9101
 20
105.7603
  0
VERTEX
  8
LAYER_1
 10
90.01
 20
105.2032
 42
0.1381467508
  0
VERTEX
  8
LAYER_1
 10
90.1816
 20
104.8015
 42
-0.01744079664
  0
VERTEX
  8
LAYER_1
 10
90.8149
 20
103.9442
 42
0.03189384158
  0
VERTEX
  8
LAYER_1
 10
91.1943
 20
103.4793
 42
0.09658323077
  0
VERTEX
  8
LAYER_1
 10
91.9763
 20
102.9242
 42
0.0118291118
  0
VERTEX
  8
LAYER_1
 10
92.1134
 20
102.8633
 42
-0.03259630505
  0
VERTEX
  8
LAYER_1
 10
92.7491
 20
102.5389
 42
-0.0009887676117
  0
VERTEX
  8
LAYER_1
 10
93.3421
 20
102.1791
 42
-0.002423058695
  0
VERTEX
  8
LAYER_1
 10
95.1802
 20
101.0505
  0
VERTEX
  8
LAYER_1
 10
95.277
 20
100.9775
  0
VERTEX
  8
LAYER_1
 10
95.3373
 20
100.9775
  0
VERTEX
  8
LAYER_1
 10
95.4724
 20
101.2441
  0
VERTEX
  8
LAYER_1
 10
95.4724
 20
101.2458
 42
0.2202790478
  0
VERTEX
  8
LAYER_1
 10
95.425
 20
101.341
 42
0.04199154672
  0
VERTEX
  8
LAYER_1
 10
95.2262
 20
101.476
 42
0.04357325502
  0
VERTEX
  8
LAYER_1
 10
92.4276
 20
103.111
 42
-0.07573100996
  0
VERTEX
  8
LAYER_1
 10
91.5594
 20
103.6174
 42
-0.06212047289
  0
VERTEX
  8
LAYER_1
 10
91.0339
 20
104.211
  0
VERTEX
  8
LAYER_1
 10
90.2991
 20
105.2842
 42
-0.1012929802
  0
VERTEX
  8
LAYER_1
 10
90.2191
 20
105.4993
 42
0.01331461517
  0
VERTEX
  8
LAYER_1
 10
90.1816
 20
105.7524
 42
0.03578227914
  0
SEQEND
  0
POLYLINE
  8
LAYER_1
 40
0.05
 41
0.05
 62
255
 66
1
 10
0
 20
0
 30
0
 70
1
  0
VERTEX
  8
LAYER_1
 10
89.3196
 20
114.6228
 42
0.5841573676
  0
VERTEX
  8
LAYER_1
 10
89.172
 20
114.4499
 42
-0.01109347055
  0
VERTEX
  8
LAYER_1
 10
89.2624
 20
113.4625
 42
-0.0009067193805
  0
VERTEX
  8
LAYER_1
 10
89.2957
 20
112.575
 42
-0.02561350191
  0
VERTEX
  8
LAYER_1
 10
89.2734
 20
110.5893
 42
-0.0544944228
  0
VERTEX
  8
LAYER_1
 10
89.1974
 20
110.2274
 42
0.01081799771
  0
VERTEX
  8
LAYER_1
 10
89.1672
 20
110.0877
 42
0.07714095257
  0
VERTEX
  8
LAYER_1
 10
89.1692
 20
109.773
 42
0.04126201393
  0
VERTEX
  8
LAYER_1
 10
89.2449
 20
109.4717
 42
-0.03578227914
  0
VERTEX
  8
LAYER_1
 10
90.1816
 20
105.7524
 42
0.1678471203
  0
VERTEX
  8
LAYER_1
 10
90.2991
 20
105.2842
 42
0.0003770826624
  0
VERTEX
  8
LAYER_1
 10
91.0339
 20
104.211
 42
0.06161273413
  0
VERTEX
  8
LAYER_1
 10
91.5594
 20
103.6174
 42
0.0504808431
  0
VERTEX
  8
LAYER_1
 10
91.954
 20
103.3447
 42
0.01969477412
  0
VERTEX
  8
LAYER_1
 10
92.4276
 20
103.111
 42
-0.0228854031
  0
VERTEX
  8
LAYER_1
 10
93.3728
 20
102.6218
 42
-0.01166242726
  0
VERTEX
  8
LAYER_1
 10
95.2262
 20
101.476
 42
-0.3080104494
  0
VERTEX
  8
LAYER_1
 10
95.4724
 20
101.2458
  0
VERTEX
  8
LAYER_1
 10
96.9359
 20
104.1538
 42
-0.139445887
  0
VERTEX
  8
LAYER_1
 10
96.6582
 20
104.0016
  0
VERTEX
  8
LAYER_1
 10
96.5438
 20
104.0412
  0
VERTEX
  8
LAYER_1
 10
95.8818
 20
104.3206
 42
-0.04474548478
  0
VERTEX
  8
LAYER_1
 10
94.3055
 20
105.1905
 42
-0.6113514407
  0
VERTEX
  8
LAYER_1
 10
94.2452
 20
105.3
  0
VERTEX
  8
LAYER_1
 10
94.2087
 20
105.7017
  0
VERTEX
  8
LAYER_1
 10
94.2087
 20
105.7031
  0
VERTEX
  8
LAYER_1
 10
94.0912
 20
105.5429
  0
VERTEX
  8
LAYER_1
 10
94.0644
 20
105.5064
 42
-0.4361413276
  0
VERTEX
  8
LAYER_1
 10
93.7674
 20
105.4158
 42
-0.6346875897
  0
VERTEX
  8
LAYER_1
 10
93.7071
 20
105.5777
  0
VERTEX
  8
LAYER_1
 10
93.931
 20
105.9064
 42
0.1471954677
  0
VERTEX
  8
LAYER_1
 10
94.1215
 20
106.5098
 42
0.02744812541
  0
VERTEX
  8
LAYER_1
 10
94.1152
 20
106.6271
 42
-0.1431007596
  0
VERTEX
  8
LAYER_1
 10
94.1579
 20
107.3922
 42
0.01767447476
  0
VERTEX
  8
LAYER_1
 10
94.3405
 20
107.9097
 42
0.02865710668
  0
VERTEX
  8
LAYER_1
 10
94.6342
 20
108.7342
 42
0.03530887595
  0
VERTEX
  8
LAYER_1
 10
94.6723
 20
108.9542
 42
-0.005585660305
  0
VERTEX
  8
LAYER_1
 10
94.7182
 20
109.7177
 42
-0.09069484663
  0
VERTEX
  8
LAYER_1
 10
94.7952
 20
110.0607
 42
-0.1357324085
  0
VERTEX
  8
LAYER_1
 10
94.9675
 20
110.2716
  0
VERTEX
  8
LAYER_1
 10
94.9565
 20
110.4608
 42
-0.2615307441
  0
VERTEX
  8
LAYER_1
 10
94.8469
 20
110.4908
 42
-0.02037166473
  0
VERTEX
  8
LAYER_1
 10
94.1135
 20
111.0623
 42
-0.4090701333
  0
VERTEX
  8
LAYER_1
 10
94.0866
 20
111.2656
 42
-0.3290790109
  0
VERTEX
  8
LAYER_1
 10
93.9936
 20
111.278
 42
-0.04784920249
  0
VERTEX
  8
LAYER_1
 10
93.9405
 20
111.3655
 42
0.2270176778
  0
VERTEX
  8
LAYER_1
 10
93.4737
 20
111.6497
 42
0.4405139204
  0
VERTEX
  8
LAYER_1
 10
93.3261
 20
111.556
 42
0.1906147308
  0
VERTEX
  8
LAYER_1
 10
93.4658
 20
110.6861
 42
0.3188329102
  0
VERTEX
  8
LAYER_1
 10
93.7007
 20
110.5479
 42
-0.4376793571
  0
VERTEX
  8
LAYER_1
 10
93.8089
 20
110.5295
 42
-0.1594237303
  0
VERTEX
  8
LAYER_1
 10
93.7913
 20
110.4274
 42
0.0918326421
  0
VERTEX
  8
LAYER_1
 10
93.6961
 20
109.5654
 42
0.2579446289
  0
VERTEX
  8
LAYER_1
 10
93.7548
 20
109.3208
 42
-0.428942642
  0
VERTEX
  8
LAYER_1
 10
93.8071
 20
109.0882
 42
-0.03562178682
  0
VERTEX
  8
LAYER_1
 10
93.7531
 20
108.9956
 42
-0.2493721329
  0
VERTEX
  8
LAYER_1
 10
93.6435
 20
108.8863
 42
-0.2910161146
  0
VERTEX
  8
LAYER_1
 10
93.523
 20
108.9573
 42
0.6606093527
  0
VERTEX
  8
LAYER_1
 10
93.369
 20
108.9415
 42
0.03197052653
  0
VERTEX
  8
LAYER_1
 10
92.7182
 20
108.0351
  0
VERTEX
  8
LAYER_1
 10
92.5563
 20
107.7922
 42
-0.4000098738
  0
VERTEX
  8
LAYER_1
 10
92.4357
 20
107.7653
 42
-0.4847526451
  0
VERTEX
  8
LAYER_1
 10
92.4309
 20
107.8732
  0
VERTEX
  8
LAYER_1
 10
92.6117
 20
108.1732
  0
VERTEX
  8
LAYER_1
 10
92.9706
 20
108.6876
 42
-0.1001671615
  0
VERTEX
  8
LAYER_1
 10
92.1356
 20
108.4812
 42
-0.5332315584
  0
VERTEX
  8
LAYER_1
 10
91.9722
 20
108.5098
 42
-0.2544824353
  0
VERTEX
  8
LAYER_1
 10
91.998
 20
108.602
 42
-0.06628396891
  0
VERTEX
  8
LAYER_1
 10
92.0879
 20
108.6717
 42
-0.1214130843
  0
VERTEX
  8
LAYER_1
 10
92.2212
 20
108.6938
  0
VERTEX
  8
LAYER_1
 10
92.4166
 20
108.6955
 42
0.07469857984
  0
VERTEX
  8
LAYER_1
 10
91.5705
 20
108.8399
 42
-0.0730742689
  0
VERTEX
  8
LAYER_1
 10
91.0372
 20
108.8574
  0
VERTEX
  8
LAYER_1
 10
90.8546
 20
109.1954
 42
-0.2742519716
  0
VERTEX
  8
LAYER_1
 10
90.9164
 20
109.2764
 42
0.319428181
  0
VERTEX
  8
LAYER_1
 10
90.9801
 20
109.3463
 42
0.06338241581
  0
VERTEX
  8
LAYER_1
 10
90.9705
 20
109.4273
 42
0.2121981038
  0
VERTEX
  8
LAYER_1
 10
90.731
 20
109.7965
 42
0.1041457405
  0
VERTEX
  8
LAYER_1
 10
90.4832
 20
109.8734
 42
-0.7281202292
  0
VERTEX
  8
LAYER_1
 10
90.3624
 20
109.9258
 42
0.1835141402
  0
VERTEX
  8
LAYER_1
 10
90.3535
 20
110.0627
 42
0.01947109795
  0
VERTEX
  8
LAYER_1
 10
90.3006
 20
110.2114
 42
0.01509899939
  0
VERTEX
  8
LAYER_1
 10
90.0656
 20
112.6894
 42
0.02571669624
  0
VERTEX
  8
LAYER_1
 10
89.8371
 20
114.1705
 42
0.2027339547
  0
VERTEX
  8
LAYER_1
 10
89.5903
 20
114.5478
 42
0.1276825889
  0
SEQEND
  0
POLYLINE
  8
LAYER_1
 40
0.05
 41
0.05
 66
1
 10
0
 20
0
 30
0
 70
1
  0
VERTEX
  8
LAYER_1
 10
91.5434
 20
110.6654
  0
VERTEX
  8
LAYER_1
 10
91.6039
 20
110.7099
  0
SEQEND
  0
POLYLINE
  8
LAYER_1
 40
0.05
 41
0.05
 66
1
 10
0
 20
0
 30
0
 70
1
  0
VERTEX
  8
LAYER_1
 10
91.6039
 20
110.7099
  0
VERTEX
  8
LAYER_1
 10
91.7196
 20
110.8273
  0
SEQEND
  0
POLYLINE
  8
LAYER_1
 40
0.05
 41
0.05
 66
1
 10
0
 20
0
 30
0
 70
1
  0
VERTEX
  8
LAYER_1
 10
91.7403
 20
110.8528
  0
VERTEX
  8
LAYER_1
 10
91.7196
 20
110.8273
  0
SEQEND
  0
POLYLINE
  8
LAYER_1
 40
0.05
 41
0.05
 66
1
 10
0
 20
0
 30
0
 70
1
  0
VERTEX
  8
LAYER_1
 10
91.7498
 20
110.8639
  0
VERTEX
  8
LAYER_1
 10
91.7403
 20
110.8528
  0
SEQEND
  0
POLYLINE
  8
LAYER_1
 40
0.05
 41
0.05
 66
1
 10
0
 20
0
 30
0
 70
1
  0
VERTEX
  8
LAYER_1
 10
91.7498
 20
110.8639
  0
VERTEX
  8
LAYER_1
 10
91.7579
 20
110.8749
  0
SEQEND
  0
POLYLINE
  8
LAYER_1
 40
0.05
 41
0.05
 66
1
 10
0
 20
0
 30
0
 70
1
  0
VERTEX
  8
LAYER_1
 10
91.788
 20
110.8894
  0
VERTEX
  8
LAYER_1
 10
91.7817
 20
110.8766
  0
SEQEND
  0
POLYLINE
  8
LAYER_1
 40
0.05
 41
0.05
 66
1
 10
0
 20
0
 30
0
 70
1
  0
VERTEX
  8
LAYER_1
 10
91.7641
 20
110.8828
  0
VERTEX
  8
LAYER_1
 10
91.7689
 20
110.8876
  0
SEQEND
  0
POLYLINE
  8
LAYER_1
 40
0.05
 41
0.05
 66
1
 10
0
 20
0
 30
0
 70
1
  0
VERTEX
  8
LAYER_1
 10
91.7689
 20
110.8876
  0
VERTEX
  8
LAYER_1
 10
91.7705
 20
110.8907
  0
SEQEND
  0
POLYLINE
  8
LAYER_1
 40
0.05
 41
0.05
 66
1
 10
0
 20
0
 30
0
 70
1
  0
VERTEX
  8
LAYER_1
 10
91.7705
 20
110.8907
  0
VERTEX
  8
LAYER_1
 10
91.7817
 20
110.9052
  0
SEQEND
  0
POLYLINE
  8
LAYER_1
 40
0.05
 41
0.05
 66
1
 10
0
 20
0
 30
0
 70
1
  0
VERTEX
  8
LAYER_1
 10
91.7896
 20
110.9162
  0
VERTEX
  8
LAYER_1
 10
91.7817
 20
110.9052
  0
SEQEND
  0
POLYLINE
  8
LAYER_1
 40
0.05
 41
0.05
 66
1
 10
0
 20
0
 30
0
 70
1
  0
VERTEX
  8
LAYER_1
 10
91.807
 20
110.9417
  0
VERTEX
  8
LAYER_1
 10
91.8102
 20
110.9431
  0
VERTEX
  8
LAYER_1
 10
91.8102
 20
110.9448
  0
SEQEND
  0
POLYLINE
  8
LAYER_1
 40
0.05
 41
0.05
 66
1
 10
0
 20
0
 30
0
 70
1
  0
VERTEX
  8
LAYER_1
 10
91.8118
 20
110.9479
  0
VERTEX
  8
LAYER_1
 10
91.8133
 20
110.9496
  0
SEQEND
  0
POLYLINE
  8
LAYER_1
 40
0.05
 41
0.05
 66
1
 10
0
 20
0
 30
0
 70
1
  0
VERTEX
  8
LAYER_1
 10
91.8149
 20
110.9527
  0
VERTEX
  8
LAYER_1
 10
91.8166
 20
110.9545
  0
VERTEX
  8
LAYER_1
 10
91.8166
 20
110.9576
  0
SEQEND
  0
POLYLINE
  8
LAYER_1
 40
0.05
 41
0.05
 66
1
 10
0
 20
0
 30
0
 70
1
  0
VERTEX
  8
LAYER_1
 10
91.8149
 20
110.9527
  0
VERTEX
  8
LAYER_1
 10
91.8166
 20
110.9545
  0
SEQEND
  0
POLYLINE
  8
LAYER_1
 40
0.05
 41
0.05
 66
1
 10
0
 20
0
 30
0
 70
1
  0
VERTEX
  8
LAYER_1
 10
91.8166
 20
110.9545
  0
VERTEX
  8
LAYER_1
 10
91.8197
 20
110.9576
  0
VERTEX
  8
LAYER_1
 10
91.8182
 20
110.9576
  0
VERTEX
  8
LAYER_1
 10
91.8166
 20
110.9576
  0
SEQEND
  0
POLYLINE
  8
LAYER_1
 40
0.05
 41
0.05
 62
254
 66
1
 10
0
 20
0
 30
0
 70
1
  0
VERTEX
  8
LAYER_1
 10
91.8182
 20
110.9576
  0
VERTEX
  8
LAYER_1
 10
91.8197
 20
110.9576
  0
VERTEX
  8
LAYER_1
 10
91.8182
 20
110.9589
  0
SEQEND
  0
POLYLINE
  8
LAYER_1
 40
0.05
 41
0.05
 66
1
 10
0
 20
0
 30
0
 70
1
  0
VERTEX
  8
LAYER_1
 10
91.8166
 20
110.9576
  0
VERTEX
  8
LAYER_1
 10
91.8182
 20
110.9576
  0
VERTEX
  8
LAYER_1
 10
91.8182
 20
110.9589
  0
VERTEX
  8
LAYER_1
 10
91.8054
 20
110.9782
  0
SEQEND
  0
POLYLINE
  8
LAYER_1
 40
0.05
 41
0.05
 62
254
 66
1
 10
0
 20
0
 30
0
 70
1
  0
VERTEX
  8
LAYER_1
 10
91.715
 20
110.9672
  0
VERTEX
  8
LAYER_1
 10
91.7324
 20
110.9813
  0
SEQEND
  0
POLYLINE
  8
LAYER_1
 40
0.05
 41
0.05
 62
254
 66
1
 10
0
 20
0
 30
0
 70
1
  0
VERTEX
  8
LAYER_1
 10
91.7339
 20
110.9813
  0
VERTEX
  8
LAYER_1
 10
91.7515
 20
110.9941
  0
SEQEND
  0
POLYLINE
  8
LAYER_1
 40
0.05
 41
0.05
 66
1
 10
0
 20
0
 30
0
 70
1
  0
VERTEX
  8
LAYER_1
 10
91.8054
 20
110.9782
  0
VERTEX
  8
LAYER_1
 10
91.7944
 20
110.9893
  0
SEQEND
  0
POLYLINE
  8
LAYER_1
 40
0.05
 41
0.05
 62
254
 66
1
 10
0
 20
0
 30
0
 70
1
  0
VERTEX
  8
LAYER_1
 10
91.7944
 20
110.9893
  0
VERTEX
  8
LAYER_1
 10
91.7817
 20
110.9972
  0
SEQEND
  0
POLYLINE
  8
LAYER_1
 40
0.05
 41
0.05
 62
255
 66
1
 10
0
 20
0
 30
0
 70
1
  0
VERTEX
  8
LAYER_1
 10
91.8182
 20
110.9589
 42
-0.3092608756
  0
VERTEX
  8
LAYER_1
 10
92.0023
 20
110.9655
 42
0.09568235779
  0
VERTEX
  8
LAYER_1
 10
92.4324
 20
110.8401
 42
-0.07110674198
  0
VERTEX
  8
LAYER_1
 10
91.9904
 20
111.0519
 42
-0.1097208791
  0
VERTEX
  8
LAYER_1
 10
91.7467
 20
111.3131
 42
0.02104790047
  0
VERTEX
  8
LAYER_1
 10
91.1943
 20
111.2035
 42
0.2879903771
  0
VERTEX
  8
LAYER_1
 10
91.0594
 20
111.0957
 42
0.08905742406
  0
VERTEX
  8
LAYER_1
 10
90.815
 20
110.3623
 42
-0.5360131654
  0
VERTEX
  8
LAYER_1
 10
90.6275
 20
110.2558
  0
VERTEX
  8
LAYER_1
 10
90.6086
 20
110.2606
  0
VERTEX
  8
LAYER_1
 10
90.6005
 20
110.2386
 42
-0.00531986049
  0
VERTEX
  8
LAYER_1
 10
90.9085
 20
110.1431
 42
0.4399571558
  0
VERTEX
  8
LAYER_1
 10
90.9865
 20
110.1554
 42
0.08415536281
  0
VERTEX
  8
LAYER_1
 10
91.0022
 20
110.2369
 42
-0.1447479747
  0
VERTEX
  8
LAYER_1
 10
91.1991
 20
110.7257
 42
-0.2196282685
  0
VERTEX
  8
LAYER_1
 10
91.4118
 20
110.8511
 42
0.1223764592
  0
VERTEX
  8
LAYER_1
 10
91.6974
 20
110.9527
  0
VERTEX
  8
LAYER_1
 10
91.715
 20
110.9672
  0
VERTEX
  8
LAYER_1
 10
91.7324
 20
110.9813
  0
VERTEX
  8
LAYER_1
 10
91.7339
 20
110.9813
  0
VERTEX
  8
LAYER_1
 10
91.7515
 20
110.9941
  0
VERTEX
  8
LAYER_1
 10
91.7817
 20
110.9972
  0
VERTEX
  8
LAYER_1
 10
91.7944
 20
110.9893
  0
VERTEX
  8
LAYER_1
 10
91.8054
 20
110.9782
  0
SEQEND
  0
POLYLINE
  8
LAYER_1
 40
0.05
 41
0.05
 66
1
 10
0
 20
0
 30
0
 70
1
  0
VERTEX
  8
LAYER_1
 10
94.4549
 20
111.2766
 42
0.1614023172
  0
VERTEX
  8
LAYER_1
 10
94.2103
 20
111.4544
  0
VERTEX
  8
LAYER_1
 10
94.0866
 20
111.2656
 42
0.3973396755
  0
VERTEX
  8
LAYER_1
 10
94.1135
 20
111.0623
  0
VERTEX
  8
LAYER_1
 10
94.8469
 20
110.4908
 42
0.3030798047
  0
VERTEX
  8
LAYER_1
 10
94.9565
 20
110.4608
 42
0.1483133899
  0
VERTEX
  8
LAYER_1
 10
95.0247
 20
110.5369
 42
0.2987725301
  0
VERTEX
  8
LAYER_1
 10
95.1035
 20
110.765
 42
0.1360626248
  0
VERTEX
  8
LAYER_1
 10
95.0178
 20
110.8488
 42
0.02392561534
  0
VERTEX
  8
LAYER_1
 10
94.9358
 20
110.9035
 42
-0.02482446315
  0
SEQEND
  0
POLYLINE
  8
LAYER_1
 40
0.05
 41
0.05
 66
1
 10
0
 20
0
 30
0
 70
1
  0
VERTEX
  8
LAYER_1
 10
91.7467
 20
111.3131
 42
0.1153086782
  0
VERTEX
  8
LAYER_1
 10
91.8276
 20
111.4227
 42
0.05257641648
  0
VERTEX
  8
LAYER_1
 10
91.8848
 20
111.629
 42
0.2568016789
  0
VERTEX
  8
LAYER_1
 10
91.7969
 20
111.6533
 42
-0.007788313873
  0
VERTEX
  8
LAYER_1
 10
91.6547
 20
111.6163
  0
VERTEX
  8
LAYER_1
 10
91.1307
 20
111.556
 42
0.3726041686
  0
VERTEX
  8
LAYER_1
 10
90.98
 20
111.4513
  0
VERTEX
  8
LAYER_1
 10
90.5864
 20
110.4115
 42
0.581354618
  0
VERTEX
  8
LAYER_1
 10
90.6086
 20
110.2606
  0
VERTEX
  8
LAYER_1
 10
90.6275
 20
110.2558
 42
0.5220550536
  0
VERTEX
  8
LAYER_1
 10
90.815
 20
110.3623
 42
-0.05576243908
  0
VERTEX
  8
LAYER_1
 10
90.9283
 20
110.7632
 42
-0.01225130262
  0
VERTEX
  8
LAYER_1
 10
91.0594
 20
111.0957
 42
-0.2861824173
  0
VERTEX
  8
LAYER_1
 10
91.1943
 20
111.2035
  0
SEQEND
  0
POLYLINE
  8
LAYER_1
 40
0.05
 41
0.05
 62
255
 66
1
 10
0
 20
0
 30
0
 70
1
  0
VERTEX
  8
LAYER_1
 10
91.8276
 20
111.4227
  0
VERTEX
  8
LAYER_1
 10
91.8578
 20
111.4575
 42
-0.5027858187
  0
VERTEX
  8
LAYER_1
 10
91.9857
 20
111.5703
 42
-0.1031835726
  0
VERTEX
  8
LAYER_1
 10
92.0784
 20
111.4671
 42
0.1497513822
  0
VERTEX
  8
LAYER_1
 10
92.5851
 20
111.1046
 42
0.03692936414
  0
VERTEX
  8
LAYER_1
 10
92.8452
 20
111.0337
 42
0.5482291102
  0
VERTEX
  8
LAYER_1
 10
92.9706
 20
111.1353
  0
VERTEX
  8
LAYER_1
 10
92.9785
 20
111.2718
 42
0.4233497877
  0
VERTEX
  8
LAYER_1
 10
92.7833
 20
111.7878
 42
0.007558813537
  0
VERTEX
  8
LAYER_1
 10
92.2452
 20
112.2354
 42
0.1890126555
  0
VERTEX
  8
LAYER_1
 10
92.0721
 20
112.2719
 42
-0.03163741348
  0
VERTEX
  8
LAYER_1
 10
91.3417
 20
112.184
 42
0.003572273624
  0
VERTEX
  8
LAYER_1
 10
90.5831
 20
112.1434
 42
0.4974016373
  0
VERTEX
  8
LAYER_1
 10
90.4164
 20
111.9529
  0
VERTEX
  8
LAYER_1
 10
90.5244
 20
110.5972
  0
VERTEX
  8
LAYER_1
 10
90.5323
 20
110.5528
 42
-0.1447875404
  0
VERTEX
  8
LAYER_1
 10
90.5322
 20
110.4127
 42
0.4102415382
  0
VERTEX
  8
LAYER_1
 10
90.591
 20
110.2417
  0
VERTEX
  8
LAYER_1
 10
90.6005
 20
110.2386
  0
VERTEX
  8
LAYER_1
 10
90.6086
 20
110.2606
 42
-0.3838971304
  0
VERTEX
  8
LAYER_1
 10
90.5577
 20
110.3199
 42
-0.06722726331
  0
VERTEX
  8
LAYER_1
 10
90.5864
 20
110.4115
  0
VERTEX
  8
LAYER_1
 10
90.98
 20
111.4513
 42
-0.3631206846
  0
VERTEX
  8
LAYER_1
 10
91.1307
 20
111.556
 42
0.07771335325
  0
VERTEX
  8
LAYER_1
 10
91.4236
 20
111.5734
 42
0.01168178582
  0
VERTEX
  8
LAYER_1
 10
91.6547
 20
111.6163
 42
-0.4455765249
  0
VERTEX
  8
LAYER_1
 10
91.8848
 20
111.629
 42
-0.3015108167
  0
VERTEX
  8
LAYER_1
 10
91.8874
 20
111.5552
 42
-0.04458656196
  0
SEQEND
  0
INSERT
  8
LAYER_1
  2
AIGNBL0104000F
 10
0
 20
0
 30
0
  0
ENDBLK
  0
BLOCK
  8
LAYER_1
  2
AIGNBL01030010
 70
64
 10
0
 20
0
 30
0
  3
AIGNBL01030010
  0
ENDBLK
  0
BLOCK
  8
LAYER_1
  2
AIGNBL01030013
 70
64
 10
0
 20
0
 30
0
  3
AIGNBL01030013
  0
POLYLINE
  8
LAYER_1
 40
0.05
 41
0.05
 62
254
 66
1
 10
0
 20
0
 30
0
 70
1
  0
VERTEX
  8
LAYER_1
 10
65.4031
 20
91.6905
  0
VERTEX
  8
LAYER_1
 10
65.2697
 20
91.427
 42
0.1637544023
  0
SEQEND
  0
POLYLINE
  8
LAYER_1
 40
0.05
 41
0.05
 66
1
 10
0
 20
0
 30
0
 70
1
  0
VERTEX
  8
LAYER_1
 10
65.8792
 20
95.105
 42
-0.04309646577
  0
VERTEX
  8
LAYER_1
 10
64.6045
 20
95.8257
 42
0.2635982554
  0
VERTEX
  8
LAYER_1
 10
64.2767
 20
95.8331
 42
0.1294306118
  0
VERTEX
  8
LAYER_1
 10
64.1759
 20
95.7495
 42
0.4425041009
  0
VERTEX
  8
LAYER_1
 10
64.1755
 20
95.6749
 42
0.008009659168
  0
VERTEX
  8
LAYER_1
 10
64.2362
 20
95.64
 42
0.04775033653
  0
VERTEX
  8
LAYER_1
 10
65.8125
 20
94.7701
  0
VERTEX
  8
LAYER_1
 10
66.4745
 20
94.4907
  0
VERTEX
  8
LAYER_1
 10
66.5889
 20
94.4511
 42
0.1416277429
  0
VERTEX
  8
LAYER_1
 10
66.8665
 20
94.6034
 42
0.5782821268
  0
VERTEX
  8
LAYER_1
 10
66.874
 20
94.6672
 42
0.02511512669
  0
VERTEX
  8
LAYER_1
 10
66.8016
 20
94.694
  0
SEQEND
  0
POLYLINE
  8
LAYER_1
 40
0.05
 41
0.05
 66
1
 10
0
 20
0
 30
0
 70
1
  0
VERTEX
  8
LAYER_1
 10
58.8741
 20
100.4228
 42
0.113817566
  0
VERTEX
  8
LAYER_1
 10
58.8258
 20
100.2058
 42
0.05636548063
  0
VERTEX
  8
LAYER_1
 10
58.882
 20
99.8402
 42
0.03389288261
  0
VERTEX
  8
LAYER_1
 10
58.9931
 20
99.5085
 42
-0.0360374012
  0
VERTEX
  8
LAYER_1
 10
59.6914
 20
96.9676
 42
-0.006305994489
  0
VERTEX
  8
LAYER_1
 10
59.8423
 20
96.2098
  0
VERTEX
  8
LAYER_1
 10
59.9407
 20
95.6527
 42
0.1381467508
  0
VERTEX
  8
LAYER_1
 10
60.1123
 20
95.251
 42
-0.01914489302
  0
VERTEX
  8
LAYER_1
 10
60.7076
 20
94.4463
 42
0.03424171881
  0
VERTEX
  8
LAYER_1
 10
61.125
 20
93.9288
 42
0.09658323077
  0
VERTEX
  8
LAYER_1
 10
61.907
 20
93.3737
 42
0.0118291118
  0
VERTEX
  8
LAYER_1
 10
62.0441
 20
93.3128
 42
-0.03265484017
  0
VERTEX
  8
LAYER_1
 10
62.6798
 20
92.9884
 42
-0.0009702130795
  0
VERTEX
  8
LAYER_1
 10
63.2728
 20
92.6286
 42
-0.002423058695
  0
VERTEX
  8
LAYER_1
 10
65.1109
 20
91.5
  0
VERTEX
  8
LAYER_1
 10
65.2077
 20
91.427
  0
VERTEX
  8
LAYER_1
 10
65.2697
 20
91.427
  0
VERTEX
  8
LAYER_1
 10
65.4031
 20
91.6905
 42
0.2262175009
  0
VERTEX
  8
LAYER_1
 10
65.3614
 20
91.7852
 42
0.05047810865
  0
VERTEX
  8
LAYER_1
 10
65.1569
 20
91.9255
 42
0.04386440627
  0
VERTEX
  8
LAYER_1
 10
62.3583
 20
93.5605
 42
-0.07493446585
  0
VERTEX
  8
LAYER_1
 10
61.4901
 20
94.067
 42
-0.06219261946
  0
VERTEX
  8
LAYER_1
 10
60.9646
 20
94.6605
  0
VERTEX
  8
LAYER_1
 10
60.2297
 20
95.7337
 42
-0.1017447149
  0
VERTEX
  8
LAYER_1
 10
60.1499
 20
95.9488
 42
0.01024481524
  0
VERTEX
  8
LAYER_1
 10
60.1138
 20
96.2019
 42
0.03548441476
  0
VERTEX
  8
LAYER_1
 10
59.1755
 20
99.9212
 42
-0.1182825234
  0
VERTEX
  8
LAYER_1
 10
59.0979
 20
100.5372
  0
VERTEX
  8
LAYER_1
 10
58.9232
 20
100.5737
 42
-0.0611534538
  0
SEQEND
  0
POLYLINE
  8
LAYER_1
 40
0.05
 41
0.05
 62
255
 66
1
 10
0
 20
0
 30
0
 70
1
  0
VERTEX
  8
LAYER_1
 10
59.2503
 20
105.0723
 42
0.5841573676
  0
VERTEX
  8
LAYER_1
 10
59.1027
 20
104.8994
 42
-0.01109347055
  0
VERTEX
  8
LAYER_1
 10
59.1931
 20
103.912
 42
-0.003143259289
  0
VERTEX
  8
LAYER_1
 10
59.2264
 20
103.0245
 42
-0.02561350191
  0
VERTEX
  8
LAYER_1
 10
59.2041
 20
101.0388
 42
-0.0544944228
  0
VERTEX
  8
LAYER_1
 10
59.1281
 20
100.6769
 42
0.01081799771
  0
VERTEX
  8
LAYER_1
 10
59.0979
 20
100.5372
 42
0.07710799721
  0
VERTEX
  8
LAYER_1
 10
59.0999
 20
100.2225
 42
0.04117989685
  0
VERTEX
  8
LAYER_1
 10
59.1755
 20
99.9212
 42
-0.03548441476
  0
VERTEX
  8
LAYER_1
 10
60.1138
 20
96.2019
 42
0.1671169753
  0
VERTEX
  8
LAYER_1
 10
60.2297
 20
95.7337
  0
VERTEX
  8
LAYER_1
 10
60.9646
 20
94.6605
 42
0.06167944382
  0
VERTEX
  8
LAYER_1
 10
61.4901
 20
94.067
 42
0.0497882513
  0
VERTEX
  8
LAYER_1
 10
61.8858
 20
93.7942
 42
0.01924892207
  0
VERTEX
  8
LAYER_1
 10
62.3583
 20
93.5605
 42
-0.0230485621
  0
VERTEX
  8
LAYER_1
 10
63.3042
 20
93.0713
 42
-0.01191599842
  0
VERTEX
  8
LAYER_1
 10
65.1569
 20
91.9255
 42
-0.3178386314
  0
VERTEX
  8
LAYER_1
 10
65.4031
 20
91.6905
  0
VERTEX
  8
LAYER_1
 10
66.8665
 20
94.6034
 42
-0.1414565828
  0
VERTEX
  8
LAYER_1
 10
66.5889
 20
94.4511
  0
VERTEX
  8
LAYER_1
 10
66.4745
 20
94.4907
  0
VERTEX
  8
LAYER_1
 10
65.8125
 20
94.7701
 42
-0.04474548478
  0
VERTEX
  8
LAYER_1
 10
64.2362
 20
95.64
 42
-0.6113647836
  0
VERTEX
  8
LAYER_1
 10
64.1759
 20
95.7495
  0
VERTEX
  8
LAYER_1
 10
64.1394
 20
96.1526
  0
VERTEX
  8
LAYER_1
 10
64.0219
 20
95.9924
  0
VERTEX
  8
LAYER_1
 10
63.9951
 20
95.9559
 42
-0.4360547073
  0
VERTEX
  8
LAYER_1
 10
63.6981
 20
95.8653
 42
-0.6346875897
  0
VERTEX
  8
LAYER_1
 10
63.6378
 20
96.0272
  0
VERTEX
  8
LAYER_1
 10
63.8617
 20
96.3559
 42
0.1462183207
  0
VERTEX
  8
LAYER_1
 10
64.0532
 20
96.9593
 42
0.02710898797
  0
VERTEX
  8
LAYER_1
 10
64.0474
 20
97.0766
 42
-0.1429594261
  0
VERTEX
  8
LAYER_1
 10
64.0886
 20
97.8417
 42
0.017460267
  0
VERTEX
  8
LAYER_1
 10
64.2712
 20
98.3592
 42
0.02871535933
  0
VERTEX
  8
LAYER_1
 10
64.5649
 20
99.1838
 42
0.03532980026
  0
VERTEX
  8
LAYER_1
 10
64.6029
 20
99.4038
 42
-0.005501789156
  0
VERTEX
  8
LAYER_1
 10
64.6489
 20
100.1672
 42
-0.09103534954
  0
VERTEX
  8
LAYER_1
 10
64.729
 20
100.5145
 42
-0.1327571932
  0
VERTEX
  8
LAYER_1
 10
64.8982
 20
100.7212
  0
VERTEX
  8
LAYER_1
 10
64.8872
 20
100.9103
 42
-0.2615307441
  0
VERTEX
  8
LAYER_1
 10
64.7776
 20
100.9403
 42
-0.02037166473
  0
VERTEX
  8
LAYER_1
 10
64.0442
 20
101.5118
 42
-0.4090701333
  0
VERTEX
  8
LAYER_1
 10
64.0173
 20
101.7151
 42
-0.3287987878
  0
VERTEX
  8
LAYER_1
 10
63.9249
 20
101.7275
 42
-0.0490074328
  0
VERTEX
  8
LAYER_1
 10
63.8712
 20
101.815
 42
0.2286125512
  0
VERTEX
  8
LAYER_1
 10
63.4044
 20
102.0992
 42
0.4407036718
  0
VERTEX
  8
LAYER_1
 10
63.2568
 20
102.0055
 42
0.1906147308
  0
VERTEX
  8
LAYER_1
 10
63.3965
 20
101.1356
 42
0.3161168295
  0
VERTEX
  8
LAYER_1
 10
63.6314
 20
100.9975
 42
-0.435129984
  0
VERTEX
  8
LAYER_1
 10
63.7398
 20
100.979
 42
-0.1574823195
  0
VERTEX
  8
LAYER_1
 10
63.7236
 20
100.8769
 42
0.09118454001
  0
VERTEX
  8
LAYER_1
 10
63.6268
 20
100.0149
 42
0.2699575872
  0
VERTEX
  8
LAYER_1
 10
63.6871
 20
99.7703
 42
-0.4272536687
  0
VERTEX
  8
LAYER_1
 10
63.7385
 20
99.5377
 42
-0.03716380446
  0
VERTEX
  8
LAYER_1
 10
63.6838
 20
99.4451
 42
-0.2522900178
  0
VERTEX
  8
LAYER_1
 10
63.5754
 20
99.3358
 42
-0.2880301494
  0
VERTEX
  8
LAYER_1
 10
63.4537
 20
99.4069
 42
0.6607562372
  0
VERTEX
  8
LAYER_1
 10
63.2997
 20
99.391
 42
0.03197052653
  0
VERTEX
  8
LAYER_1
 10
62.6489
 20
98.4846
  0
VERTEX
  8
LAYER_1
 10
62.487
 20
98.2417
 42
-0.4012932478
  0
VERTEX
  8
LAYER_1
 10
62.3664
 20
98.2148
 42
-0.4851630208
  0
VERTEX
  8
LAYER_1
 10
62.3616
 20
98.3227
  0
VERTEX
  8
LAYER_1
 10
62.5424
 20
98.6227
  0
VERTEX
  8
LAYER_1
 10
62.9012
 20
99.1371
 42
-0.1001904519
  0
VERTEX
  8
LAYER_1
 10
62.0663
 20
98.9307
 42
-0.5332315584
  0
VERTEX
  8
LAYER_1
 10
61.9029
 20
98.9593
 42
-0.2544234746
  0
VERTEX
  8
LAYER_1
 10
61.9287
 20
99.0515
 42
-0.06602935935
  0
VERTEX
  8
LAYER_1
 10
62.0186
 20
99.1213
 42
-0.1208651769
  0
VERTEX
  8
LAYER_1
 10
62.1519
 20
99.1433
  0
VERTEX
  8
LAYER_1
 10
62.3473
 20
99.145
 42
0.07473234463
  0
VERTEX
  8
LAYER_1
 10
61.5012
 20
99.2894
 42
-0.0730742689
  0
VERTEX
  8
LAYER_1
 10
60.9679
 20
99.3069
  0
VERTEX
  8
LAYER_1
 10
60.7853
 20
99.6449
 42
-0.2742519716
  0
VERTEX
  8
LAYER_1
 10
60.8471
 20
99.7259
 42
0.319428181
  0
VERTEX
  8
LAYER_1
 10
60.9108
 20
99.7958
 42
0.06338241581
  0
VERTEX
  8
LAYER_1
 10
60.9012
 20
99.8768
 42
0.2121981038
  0
VERTEX
  8
LAYER_1
 10
60.6617
 20
100.246
 42
0.1041457405
  0
VERTEX
  8
LAYER_1
 10
60.4139
 20
100.3229
 42
-0.7281202292
  0
VERTEX
  8
LAYER_1
 10
60.2931
 20
100.3753
 42
0.1835141402
  0
VERTEX
  8
LAYER_1
 10
60.2842
 20
100.5122
 42
0.01947109795
  0
VERTEX
  8
LAYER_1
 10
60.2313
 20
100.6609
 42
0.01509899939
  0
VERTEX
  8
LAYER_1
 10
59.9963
 20
103.1389
 42
0.02571669624
  0
VERTEX
  8
LAYER_1
 10
59.7678
 20
104.62
 42
0.2026101705
  0
VERTEX
  8
LAYER_1
 10
59.5209
 20
104.9973
 42
0.1277054222
  0
SEQEND
  0
POLYLINE
  8
LAYER_1
 40
0.05
 41
0.05
 66
1
 10
0
 20
0
 30
0
 70
1
  0
VERTEX
  8
LAYER_1
 10
65.0458
 20
100.7959
  0
VERTEX
  8
LAYER_1
 10
64.8982
 20
100.7212
 42
0.2085724952
  0
VERTEX
  8
LAYER_1
 10
64.6704
 20
100.3242
 42
0.03260528224
  0
VERTEX
  8
LAYER_1
 10
64.6489
 20
100.1672
 42
-0.01334390218
  0
VERTEX
  8
LAYER_1
 10
64.6029
 20
99.4038
 42
-0.05531306833
  0
VERTEX
  8
LAYER_1
 10
64.5075
 20
98.9868
 42
-0.002852261728
  0
VERTEX
  8
LAYER_1
 10
64.2712
 20
98.3592
  0
VERTEX
  8
LAYER_1
 10
64.0886
 20
97.8417
 42
0.08373216653
  0
VERTEX
  8
LAYER_1
 10
64.0207
 20
97.5561
 42
0.0499661947
  0
VERTEX
  8
LAYER_1
 10
64.0474
 20
97.0766
 42
-0.1788422178
  0
VERTEX
  8
LAYER_1
 10
63.8617
 20
96.3559
  0
VERTEX
  8
LAYER_1
 10
63.6378
 20
96.0272
 42
0.640360601
  0
VERTEX
  8
LAYER_1
 10
63.6981
 20
95.8653
 42
0.1822928274
  0
VERTEX
  8
LAYER_1
 10
63.8847
 20
95.8486
 42
0.2025646382
  0
VERTEX
  8
LAYER_1
 10
63.9951
 20
95.9559
  0
VERTEX
  8
LAYER_1
 10
64.0219
 20
95.9924
  0
VERTEX
  8
LAYER_1
 10
64.1394
 20
96.1526
 42
0.08000374068
  0
VERTEX
  8
LAYER_1
 10
64.4206
 20
96.6207
 42
0.08487840342
  0
VERTEX
  8
LAYER_1
 10
64.4594
 20
96.8444
 42
0.0352184728
  0
VERTEX
  8
LAYER_1
 10
64.4189
 20
97.2794
 42
-0.0005756879979
  0
VERTEX
  8
LAYER_1
 10
64.3823
 20
97.594
 42
-0.115512365
  0
VERTEX
  8
LAYER_1
 10
64.4078
 20
97.9513
  0
VERTEX
  8
LAYER_1
 10
64.6808
 20
98.7481
 42
0.07567131103
  0
VERTEX
  8
LAYER_1
 10
64.8887
 20
99.7276
 42
-0.102465468
  0
SEQEND
  0
POLYLINE
  8
LAYER_1
 40
0.05
 41
0.05
 62
254
 66
1
 10
0
 20
0
 30
0
 70
1
  0
VERTEX
  8
LAYER_1
 10
61.5916
 20
101.2117
  0
VERTEX
  8
LAYER_1
 10
61.5377
 20
101.1611
  0
SEQEND
  0
POLYLINE
  8
LAYER_1
 40
0.05
 41
0.05
 62
254
 66
1
 10
0
 20
0
 30
0
 70
1
  0
VERTEX
  8
LAYER_1
 10
61.5916
 20
101.2117
  0
VERTEX
  8
LAYER_1
 10
61.5964
 20
101.2166
  0
SEQEND
  0
POLYLINE
  8
LAYER_1
 40
0.05
 41
0.05
 62
254
 66
1
 10
0
 20
0
 30
0
 70
1
  0
VERTEX
  8
LAYER_1
 10
61.744
 20
101.3974
  0
VERTEX
  8
LAYER_1
 10
61.7377
 20
101.3816
  0
SEQEND
  0
POLYLINE
  8
LAYER_1
 40
0.05
 41
0.05
 62
254
 66
1
 10
0
 20
0
 30
0
 70
1
  0
VERTEX
  8
LAYER_1
 10
61.7473
 20
101.4023
  0
VERTEX
  8
LAYER_1
 10
61.7504
 20
101.4071
  0
VERTEX
  8
LAYER_1
 10
61.7489
 20
101.4071
  0
SEQEND
  0
POLYLINE
  8
LAYER_1
 40
0.05
 41
0.05
 62
254
 66
1
 10
0
 20
0
 30
0
 70
1
  0
VERTEX
  8
LAYER_1
 10
61.7504
 20
101.4071
  0
VERTEX
  8
LAYER_1
 10
61.744
 20
101.415
  0
VERTEX
  8
LAYER_1
 10
61.7489
 20
101.4071
  0
SEQEND
  0
POLYLINE
  8
LAYER_1
 40
0.05
 41
0.05
 62
254
 66
1
 10
0
 20
0
 30
0
 70
1
  0
VERTEX
  8
LAYER_1
 10
61.6457
 20
101.4167
  0
VERTEX
  8
LAYER_1
 10
61.6631
 20
101.4308
  0
SEQEND
  0
POLYLINE
  8
LAYER_1
 40
0.05
 41
0.05
 62
254
 66
1
 10
0
 20
0
 30
0
 70
1
  0
VERTEX
  8
LAYER_1
 10
61.6822
 20
101.4436
  0
VERTEX
  8
LAYER_1
 10
61.6646
 20
101.4308
  0
SEQEND
  0
POLYLINE
  8
LAYER_1
 40
0.05
 41
0.05
 62
254
 66
1
 10
0
 20
0
 30
0
 70
1
  0
VERTEX
  8
LAYER_1
 10
61.7123
 20
101.4467
  0
VERTEX
  8
LAYER_1
 10
61.7251
 20
101.4388
  0
SEQEND
  0
POLYLINE
  8
LAYER_1
 40
0.05
 41
0.05
 62
255
 66
1
 10
0
 20
0
 30
0
 70
1
  0
VERTEX
  8
LAYER_1
 10
61.6774
 20
101.7626
 42
0.02094085442
  0
VERTEX
  8
LAYER_1
 10
61.125
 20
101.6531
 42
0.2879308686
  0
VERTEX
  8
LAYER_1
 10
60.9901
 20
101.5452
  0
VERTEX
  8
LAYER_1
 10
60.7456
 20
100.8118
 42
-0.5363346615
  0
VERTEX
  8
LAYER_1
 10
60.5582
 20
100.7053
  0
VERTEX
  8
LAYER_1
 10
60.5393
 20
100.7101
  0
VERTEX
  8
LAYER_1
 10
60.5312
 20
100.6881
 42
-0.005032998327
  0
VERTEX
  8
LAYER_1
 10
60.8392
 20
100.5927
 42
0.4402186835
  0
VERTEX
  8
LAYER_1
 10
60.9172
 20
100.6049
 42
0.08419512904
  0
VERTEX
  8
LAYER_1
 10
60.9329
 20
100.6864
 42
-0.1447479747
  0
VERTEX
  8
LAYER_1
 10
61.1298
 20
101.1752
 42
-0.2196282685
  0
VERTEX
  8
LAYER_1
 10
61.3425
 20
101.3006
 42
0.1225123327
  0
VERTEX
  8
LAYER_1
 10
61.6281
 20
101.4023
  0
VERTEX
  8
LAYER_1
 10
61.6457
 20
101.4167
  0
VERTEX
  8
LAYER_1
 10
61.6631
 20
101.4308
  0
VERTEX
  8
LAYER_1
 10
61.6646
 20
101.4308
  0
VERTEX
  8
LAYER_1
 10
61.6822
 20
101.4436
  0
VERTEX
  8
LAYER_1
 10
61.7123
 20
101.4467
  0
VERTEX
  8
LAYER_1
 10
61.7251
 20
101.4388
  0
VERTEX
  8
LAYER_1
 10
61.744
 20
101.415
  0
VERTEX
  8
LAYER_1
 10
61.7504
 20
101.4071
 42
-0.3176539819
  0
VERTEX
  8
LAYER_1
 10
61.933
 20
101.415
 42
0.09568235779
  0
VERTEX
  8
LAYER_1
 10
62.3631
 20
101.2896
 42
-0.07222667294
  0
VERTEX
  8
LAYER_1
 10
61.9164
 20
101.5051
 42
-0.1084481709
  0
SEQEND
  0
POLYLINE
  8
LAYER_1
 40
0.05
 41
0.05
 66
1
 10
0
 20
0
 30
0
 70
1
  0
VERTEX
  8
LAYER_1
 10
64.868
 20
101.353
 42
-0.02728219276
  0
VERTEX
  8
LAYER_1
 10
64.3871
 20
101.7261
 42
0.161325731
  0
VERTEX
  8
LAYER_1
 10
64.141
 20
101.9039
  0
VERTEX
  8
LAYER_1
 10
64.0173
 20
101.7151
 42
0.3973396755
  0
VERTEX
  8
LAYER_1
 10
64.0442
 20
101.5118
  0
VERTEX
  8
LAYER_1
 10
64.7776
 20
100.9403
 42
0.3030798047
  0
VERTEX
  8
LAYER_1
 10
64.8872
 20
100.9103
 42
0.1483133899
  0
VERTEX
  8
LAYER_1
 10
64.9554
 20
100.9864
 42
0.2971560594
  0
VERTEX
  8
LAYER_1
 10
65.0344
 20
101.2145
 42
0.136425736
  0
VERTEX
  8
LAYER_1
 10
64.9494
 20
101.2983
 42
0.02402974935
  0
SEQEND
  0
POLYLINE
  8
LAYER_1
 40
0.05
 41
0.05
 62
255
 66
1
 10
0
 20
0
 30
0
 70
1
  0
VERTEX
  8
LAYER_1
 10
60.3488
 20
102.4024
  0
VERTEX
  8
LAYER_1
 10
60.4551
 20
101.0467
  0
VERTEX
  8
LAYER_1
 10
60.463
 20
101.0023
 42
-0.1499169909
  0
VERTEX
  8
LAYER_1
 10
60.4646
 20
100.8677
 42
0.4178539578
  0
VERTEX
  8
LAYER_1
 10
60.5217
 20
100.6912
  0
VERTEX
  8
LAYER_1
 10
60.5312
 20
100.6881
  0
VERTEX
  8
LAYER_1
 10
60.5393
 20
100.7101
 42
-0.3838971304
  0
VERTEX
  8
LAYER_1
 10
60.4884
 20
100.7694
 42
-0.06722726331
  0
VERTEX
  8
LAYER_1
 10
60.5171
 20
100.861
  0
VERTEX
  8
LAYER_1
 10
60.9107
 20
101.9008
 42
-0.3569138064
  0
VERTEX
  8
LAYER_1
 10
61.0614
 20
102.0055
 42
0.07767280092
  0
VERTEX
  8
LAYER_1
 10
61.355
 20
102.0229
 42
0.01152074727
  0
VERTEX
  8
LAYER_1
 10
61.5869
 20
102.0658
 42
-0.4458454463
  0
VERTEX
  8
LAYER_1
 10
61.8155
 20
102.0785
 42
-0.3015108167
  0
VERTEX
  8
LAYER_1
 10
61.8181
 20
102.0047
 42
-0.04458656196
  0
VERTEX
  8
LAYER_1
 10
61.7583
 20
101.8722
  0
VERTEX
  8
LAYER_1
 10
61.7885
 20
101.907
 42
-0.503020766
  0
VERTEX
  8
LAYER_1
 10
61.9164
 20
102.0198
 42
-0.103179253
  0
VERTEX
  8
LAYER_1
 10
62.0091
 20
101.9166
 42
0.1498186412
  0
VERTEX
  8
LAYER_1
 10
62.5157
 20
101.5541
 42
0.03691871322
  0
VERTEX
  8
LAYER_1
 10
62.7758
 20
101.4832
 42
0.5485583494
  0
VERTEX
  8
LAYER_1
 10
62.9012
 20
101.5848
  0
VERTEX
  8
LAYER_1
 10
62.9092
 20
101.7213
 42
0.4218864151
  0
VERTEX
  8
LAYER_1
 10
62.7156
 20
102.2373
 42
0.005401919457
  0
VERTEX
  8
LAYER_1
 10
62.1774
 20
102.6849
 42
0.1880891318
  0
VERTEX
  8
LAYER_1
 10
62.0028
 20
102.7214
 42
-0.031637074
  0
VERTEX
  8
LAYER_1
 10
61.2724
 20
102.6335
 42
0.003576695054
  0
VERTEX
  8
LAYER_1
 10
60.5138
 20
102.5929
 42
0.501993752
  0
SEQEND
  0
POLYLINE
  8
LAYER_1
 40
0.05
 41
0.05
 66
1
 10
0
 20
0
 30
0
 70
1
  0
VERTEX
  8
LAYER_1
 10
61.5869
 20
102.0658
  0
VERTEX
  8
LAYER_1
 10
61.0614
 20
102.0055
 42
0.3679269632
  0
VERTEX
  8
LAYER_1
 10
60.9107
 20
101.9008
  0
VERTEX
  8
LAYER_1
 10
60.5171
 20
100.861
 42
0.581354618
  0
VERTEX
  8
LAYER_1
 10
60.5393
 20
100.7101
  0
VERTEX
  8
LAYER_1
 10
60.5582
 20
100.7053
 42
0.5223392895
  0
VERTEX
  8
LAYER_1
 10
60.7456
 20
100.8118
 42
-0.05574527893
  0
VERTEX
  8
LAYER_1
 10
60.8574
 20
101.207
 42
-0.01192631685
  0
VERTEX
  8
LAYER_1
 10
60.9901
 20
101.5452
 42
-0.2860853162
  0
VERTEX
  8
LAYER_1
 10
61.125
 20
101.6531
  0
VERTEX
  8
LAYER_1
 10
61.6774
 20
101.7626
 42
0.1153086782
  0
VERTEX
  8
LAYER_1
 10
61.7583
 20
101.8722
 42
0.05257641648
  0
VERTEX
  8
LAYER_1
 10
61.8155
 20
102.0785
 42
0.2569468525
  0
VERTEX
  8
LAYER_1
 10
61.7278
 20
102.1028
 42
-0.006909461469
  0
SEQEND
  0
INSERT
  8
LAYER_1
  2
AIGNBL01040014
 10
0
 20
0
 30
0
  0
ENDBLK
  0
BLOCK
  8
LAYER_1
  2
AIGNBL01030015
 70
64
 10
0
 20
0
 30
0
  3
AIGNBL01030015
  0
ENDBLK
  0
BLOCK
  8
LAYER_1
  2
AIGNBL01030018
 70
64
 10
0
 20
0
 30
0
  3
AIGNBL01030018
  0
ENDBLK
  0
BLOCK
  8
LAYER_1
  2
AIGNBL01030019
 70
64
 10
0
 20
0
 30
0
  3
AIGNBL01030019
  0
POLYLINE
  8
LAYER_1
 40
0.0353
 41
0.0353
 66
1
 10
0
 20
0
 30
0
  0
VERTEX
  8
LAYER_1
 10
155.8589
 20
139.5856
  0
VERTEX
  8
LAYER_1
 10
155.7845
 20
139.525
  0
SEQEND
  0
POLYLINE
  8
LAYER_1
 40
0.0353
 41
0.0353
 66
1
 10
0
 20
0
 30
0
  0
VERTEX
  8
LAYER_1
 10
157.4467
 20
139.7346
  0
VERTEX
  8
LAYER_1
 10
157.4781
 20
139.6511
  0
VERTEX
  8
LAYER_1
 10
157.4505
 20
139.5391
  0
VERTEX
  8
LAYER_1
 10
157.393
 20
139.4857
  0
VERTEX
  8
LAYER_1
 10
157.384
 20
139.4998
  0
SEQEND
  0
ENDBLK
  0
BLOCK
  8
LAYER_1
  2
AIGNBL01030024
 70
64
 10
0
 20
0
 30
0
  3
AIGNBL01030024
  0
INSERT
  8
LAYER_1
  2
AIGNBL01040025
 10
0
 20
0
 30
0
  0
INSERT
  8
LAYER_1
  2
AIGNBL01040026
 10
0
 20
0
 30
0
  0
INSERT
  8
LAYER_1
  2
AIGNBL01040027
 10
0
 20
0
 30
0
  0
INSERT
  8
LAYER_1
  2
AIGNBL01040028
 10
0
 20
0
 30
0
  0
INSERT
  8
LAYER_1
  2
AIGNBL01040029
 10
0
 20
0
 30
0
  0
INSERT
  8
LAYER_1
  2
AIGNBL0104002A
 10
0
 20
0
 30
0
  0
INSERT
  8
LAYER_1
  2
AIGNBL0104002B
 10
0
 20
0
 30
0
  0
ENDBLK
  0
BLOCK
  8
LAYER_1
  2
AIGNBL0103002D
 70
64
 10
0
 20
0
 30
0
  3
AIGNBL0103002D
  0
POLYLINE
  8
LAYER_1
 40
0.05
 41
0.05
 66
1
 10
0
 20
0
 30
0
 70
1
  0
VERTEX
  8
LAYER_1
 10
145.7475
 20
36.0574
  0
VERTEX
  8
LAYER_1
 10
146.3008
 20
36.0574
  0
VERTEX
  8
LAYER_1
 10
146.3008
 20
35.9637
  0
VERTEX
  8
LAYER_1
 10
145.6424
 20
35.9637
  0
VERTEX
  8
LAYER_1
 10
145.6424
 20
36.9969
  0
VERTEX
  8
LAYER_1
 10
146.2832
 20
36.9969
  0
VERTEX
  8
LAYER_1
 10
146.2832
 20
36.9035
  0
VERTEX
  8
LAYER_1
 10
145.7475
 20
36.9035
  0
VERTEX
  8
LAYER_1
 10
145.7475
 20
36.549
  0
VERTEX
  8
LAYER_1
 10
146.2481
 20
36.549
  0
VERTEX
  8
LAYER_1
 10
146.2481
 20
36.4557
  0
VERTEX
  8
LAYER_1
 10
145.7475
 20
36.4557
  0
SEQEND
  0
ENDBLK
  0
BLOCK
  8
LAYER_1
  2
AIGNBL0103002E
 70
64
 10
0
 20
0
 30
0
  3
AIGNBL0103002E
  0
POLYLINE
  8
LAYER_1
 40
0.05
 41
0.05
 66
1
 10
0
 20
0
 30
0
 70
1
  0
VERTEX
  8
LAYER_1
 10
147.4404
 20
36.117
  0
VERTEX
  8
LAYER_1
 10
147.4432
 20
36.117
  0
VERTEX
  8
LAYER_1
 10
147.4432
 20
36.9969
  0
VERTEX
  8
LAYER_1
 10
147.5483
 20
36.9969
  0
VERTEX
  8
LAYER_1
 10
147.5483
 20
35.9637
  0
VERTEX
  8
LAYER_1
 10
147.4174
 20
35.9637
  0
VERTEX
  8
LAYER_1
 10
146.8162
 20
36.8525
  0
VERTEX
  8
LAYER_1
 10
146.8127
 20
36.8525
  0
VERTEX
  8
LAYER_1
 10
146.8127
 20
35.9637
  0
VERTEX
  8
LAYER_1
 10
146.708
 20
35.9637
  0
VERTEX
  8
LAYER_1
 10
146.708
 20
36.9969
  0
VERTEX
  8
LAYER_1
 10
146.8393
 20
36.9969
  0
SEQEND
  0
ENDBLK
  0
BLOCK
  8
LAYER_1
  2
AIGNBL0103002F
 70
64
 10
0
 20
0
 30
0
  3
AIGNBL0103002F
  0
POLYLINE
  8
LAYER_1
 40
0.05
 41
0.05
 66
1
 10
0
 20
0
 30
0
 70
1
  0
VERTEX
  8
LAYER_1
 10
148.0213
 20
36.1756
 42
0.1563325367
  0
VERTEX
  8
LAYER_1
 10
148.0757
 20
36.0726
 42
0.1919271311
  0
VERTEX
  8
LAYER_1
 10
148.1891
 20
36.0309
  0
VERTEX
  8
LAYER_1
 10
148.2783
 20
36.0505
  0
VERTEX
  8
LAYER_1
 10
148.3344
 20
36.1039
  0
VERTEX
  8
LAYER_1
 10
148.3634
 20
36.1804
  0
VERTEX
  8
LAYER_1
 10
148.3716
 20
36.27
  0
VERTEX
  8
LAYER_1
 10
148.3716
 20
36.9969
  0
VERTEX
  8
LAYER_1
 10
148.4767
 20
36.9969
  0
VERTEX
  8
LAYER_1
 10
148.4767
 20
36.2614
  0
VERTEX
  8
LAYER_1
 10
148.4654
 20
36.1535
 42
-0.09689434064
  0
VERTEX
  8
LAYER_1
 10
148.424
 20
36.0484
 42
-0.1145812533
  0
VERTEX
  8
LAYER_1
 10
148.3393
 20
35.9689
 42
-0.1249341208
  0
VERTEX
  8
LAYER_1
 10
148.2004
 20
35.9375
 42
-0.1797266639
  0
VERTEX
  8
LAYER_1
 10
148.0158
 20
35.9975
 42
-0.1772027805
  0
VERTEX
  8
LAYER_1
 10
147.9234
 20
36.149
  0
SEQEND
  0
ENDBLK
  0
BLOCK
  8
LAYER_1
  2
AIGNBL01030030
 70
64
 10
0
 20
0
 30
0
  3
AIGNBL01030030
  0
POLYLINE
  8
LAYER_1
 40
0.05
 41
0.05
 66
1
 10
0
 20
0
 30
0
 70
1
  0
VERTEX
  8
LAYER_1
 10
149.965
 20
36.4805
 42
-0.1019307791
  0
VERTEX
  8
LAYER_1
 10
149.924
 20
36.2631
 42
-0.09962254273
  0
VERTEX
  8
LAYER_1
 10
149.8114
 20
36.0915
 42
-0.09627361929
  0
VERTEX
  8
LAYER_1
 10
149.6405
 20
35.9785
 42
-0.09758594962
  0
VERTEX
  8
LAYER_1
 10
149.4265
 20
35.9375
 42
-0.1000844711
  0
VERTEX
  8
LAYER_1
 10
149.2129
 20
35.9785
 42
-0.09985105323
  0
VERTEX
  8
LAYER_1
 10
149.0421
 20
36.0915
 42
-0.09735230618
  0
VERTEX
  8
LAYER_1
 10
148.9287
 20
36.2631
 42
-0.09653980076
  0
VERTEX
  8
LAYER_1
 10
148.8881
 20
36.4805
 42
-0.1004594477
  0
VERTEX
  8
LAYER_1
 10
148.9287
 20
36.6978
 42
-0.1001669327
  0
VERTEX
  8
LAYER_1
 10
149.0421
 20
36.8694
 42
-0.09871200056
  0
VERTEX
  8
LAYER_1
 10
149.2129
 20
36.9824
 42
-0.09768823248
  0
VERTEX
  8
LAYER_1
 10
149.4265
 20
37.0234
 42
-0.1000514256
  0
VERTEX
  8
LAYER_1
 10
149.6405
 20
36.9824
 42
-0.0983303992
  0
VERTEX
  8
LAYER_1
 10
149.8114
 20
36.8694
 42
-0.09762598086
  0
VERTEX
  8
LAYER_1
 10
149.924
 20
36.6978
 42
-0.09788199595
  0
SEQEND
  0
POLYLINE
  8
LAYER_1
 40
0.05
 41
0.05
 66
1
 10
0
 20
0
 30
0
 70
1
  0
VERTEX
  8
LAYER_1
 10
149.8541
 20
36.4798
 42
0.08634913196
  0
VERTEX
  8
LAYER_1
 10
149.8251
 20
36.6517
 42
0.09663020944
  0
VERTEX
  8
LAYER_1
 10
149.7404
 20
36.795
 42
0.1032857511
  0
VERTEX
  8
LAYER_1
 10
149.6053
 20
36.8932
 42
0.1061320656
  0
VERTEX
  8
LAYER_1
 10
149.4265
 20
36.93
 42
0.1113757871
  0
VERTEX
  8
LAYER_1
 10
149.2477
 20
36.8932
 42
0.1056595975
  0
VERTEX
  8
LAYER_1
 10
149.113
 20
36.795
 42
0.09787799956
  0
VERTEX
  8
LAYER_1
 10
149.0283
 20
36.6517
 42
0.08491464556
  0
VERTEX
  8
LAYER_1
 10
148.999
 20
36.4798
 42
0.08693146424
  0
VERTEX
  8
LAYER_1
 10
149.0283
 20
36.3079
 42
0.1009797617
  0
VERTEX
  8
LAYER_1
 10
149.113
 20
36.1649
 42
0.09920321622
  0
VERTEX
  8
LAYER_1
 10
149.2477
 20
36.0674
 42
0.1060640085
  0
VERTEX
  8
LAYER_1
 10
149.4265
 20
36.0309
 42
0.1126980581
  0
VERTEX
  8
LAYER_1
 10
149.6053
 20
36.0674
 42
0.1035582302
  0
VERTEX
  8
LAYER_1
 10
149.7404
 20
36.1649
 42
0.09432567525
  0
VERTEX
  8
LAYER_1
 10
149.8251
 20
36.3079
 42
0.08466662837
  0
SEQEND
  0
ENDBLK
  0
BLOCK
  8
LAYER_1
  2
AIGNBL01030031
 70
64
 10
0
 20
0
 30
0
  3
AIGNBL01030031
  0
POLYLINE
  8
LAYER_1
 40
0.05
 41
0.05
 66
1
 10
0
 20
0
 30
0
 70
1
  0
VERTEX
  8
LAYER_1
 10
150.7398
 20
35.9637
  0
VERTEX
  8
LAYER_1
 10
150.6351
 20
35.9637
  0
VERTEX
  8
LAYER_1
 10
150.6351
 20
36.4091
  0
VERTEX
  8
LAYER_1
 10
150.2482
 20
36.9969
  0
VERTEX
  8
LAYER_1
 10
150.3795
 20
36.9969
  0
VERTEX
  8
LAYER_1
 10
150.6905
 20
36.4967
  0
VERTEX
  8
LAYER_1
 10
151.004
 20
36.9969
  0
VERTEX
  8
LAYER_1
 10
151.1263
 20
36.9969
  0
VERTEX
  8
LAYER_1
 10
150.7398
 20
36.4091
  0
SEQEND
  0
ENDBLK
  0
BLOCK
  8
LAYER_1
  2
AIGNBL01030032
 70
64
 10
0
 20
0
 30
0
  3
AIGNBL01030032
  0
POLYLINE
  8
LAYER_1
 40
0.05
 41
0.05
 66
1
 10
0
 20
0
 30
0
 70
1
  0
VERTEX
  8
LAYER_1
 10
152.0314
 20
36.9969
  0
VERTEX
  8
LAYER_1
 10
152.339
 20
36.9969
  0
VERTEX
  8
LAYER_1
 10
152.4575
 20
36.9845
  0
VERTEX
  8
LAYER_1
 10
152.5643
 20
36.9421
 42
-0.1168262011
  0
VERTEX
  8
LAYER_1
 10
152.6422
 20
36.8611
 42
-0.1230288266
  0
VERTEX
  8
LAYER_1
 10
152.6718
 20
36.733
 42
-0.1795449175
  0
VERTEX
  8
LAYER_1
 10
152.6219
 20
36.5907
 42
-0.1695619646
  0
VERTEX
  8
LAYER_1
 10
152.4885
 20
36.5111
  0
VERTEX
  8
LAYER_1
 10
152.4885
 20
36.5084
 42
-0.1719890535
  0
VERTEX
  8
LAYER_1
 10
152.6553
 20
36.4302
 42
-0.2018462152
  0
VERTEX
  8
LAYER_1
 10
152.7214
 20
36.2496
 42
-0.1251382371
  0
VERTEX
  8
LAYER_1
 10
152.6942
 20
36.1325
 42
-0.1153486961
  0
VERTEX
  8
LAYER_1
 10
152.6181
 20
36.0419
 42
-0.08656795839
  0
VERTEX
  8
LAYER_1
 10
152.4972
 20
35.9844
 42
-0.06557363107
  0
VERTEX
  8
LAYER_1
 10
152.3373
 20
35.9637
  0
VERTEX
  8
LAYER_1
 10
152.0314
 20
35.9637
  0
SEQEND
  0
POLYLINE
  8
LAYER_1
 40
0.05
 41
0.05
 66
1
 10
0
 20
0
 30
0
 70
1
  0
VERTEX
  8
LAYER_1
 10
152.1365
 20
36.5445
  0
VERTEX
  8
LAYER_1
 10
152.348
 20
36.5445
  0
VERTEX
  8
LAYER_1
 10
152.4248
 20
36.5535
  0
VERTEX
  8
LAYER_1
 10
152.4951
 20
36.5831
  0
VERTEX
  8
LAYER_1
 10
152.5471
 20
36.6396
 42
0.1157679243
  0
VERTEX
  8
LAYER_1
 10
152.5667
 20
36.7258
  0
VERTEX
  8
LAYER_1
 10
152.5471
 20
36.8095
  0
VERTEX
  8
LAYER_1
 10
152.4941
 20
36.8656
  0
VERTEX
  8
LAYER_1
 10
152.4152
 20
36.897
  0
VERTEX
  8
LAYER_1
 10
152.3187
 20
36.9066
  0
VERTEX
  8
LAYER_1
 10
152.1365
 20
36.9066
  0
SEQEND
  0
POLYLINE
  8
LAYER_1
 40
0.05
 41
0.05
 66
1
 10
0
 20
0
 30
0
 70
1
  0
VERTEX
  8
LAYER_1
 10
152.1365
 20
36.0543
  0
VERTEX
  8
LAYER_1
 10
152.3321
 20
36.0543
  0
VERTEX
  8
LAYER_1
 10
152.4407
 20
36.0653
  0
VERTEX
  8
LAYER_1
 10
152.5313
 20
36.1001
 42
0.1172546835
  0
VERTEX
  8
LAYER_1
 10
152.5929
 20
36.1632
 42
0.1286909246
  0
VERTEX
  8
LAYER_1
 10
152.6164
 20
36.2558
 42
0.2499212344
  0
VERTEX
  8
LAYER_1
 10
152.5471
 20
36.4081
 42
0.1538083763
  0
VERTEX
  8
LAYER_1
 10
152.3511
 20
36.4584
  0
VERTEX
  8
LAYER_1
 10
152.1365
 20
36.4584
  0
SEQEND
  0
ENDBLK
  0
BLOCK
  8
LAYER_1
  2
AIGNBL01030033
 70
64
 10
0
 20
0
 30
0
  3
AIGNBL01030033
  0
POLYLINE
  8
LAYER_1
 40
0.05
 41
0.05
 66
1
 10
0
 20
0
 30
0
 70
1
  0
VERTEX
  8
LAYER_1
 10
153.1534
 20
35.9637
  0
VERTEX
  8
LAYER_1
 10
153.038
 20
35.9637
  0
VERTEX
  8
LAYER_1
 10
153.4849
 20
36.9969
  0
VERTEX
  8
LAYER_1
 10
153.5872
 20
36.9969
  0
VERTEX
  8
LAYER_1
 10
154.0306
 20
35.9637
  0
VERTEX
  8
LAYER_1
 10
153.9138
 20
35.9637
  0
VERTEX
  8
LAYER_1
 10
153.7997
 20
36.2352
  0
VERTEX
  8
LAYER_1
 10
153.2658
 20
36.2352
  0
SEQEND
  0
POLYLINE
  8
LAYER_1
 40
0.05
 41
0.05
 66
1
 10
0
 20
0
 30
0
 70
1
  0
VERTEX
  8
LAYER_1
 10
153.305
 20
36.3316
  0
VERTEX
  8
LAYER_1
 10
153.7605
 20
36.3316
  0
VERTEX
  8
LAYER_1
 10
153.5327
 20
36.8804
  0
SEQEND
  0
ENDBLK
  0
BLOCK
  8
LAYER_1
  2
AIGNBL01030034
 70
64
 10
0
 20
0
 30
0
  3
AIGNBL01030034
  0
POLYLINE
  8
LAYER_1
 40
0.05
 41
0.05
 66
1
 10
0
 20
0
 30
0
 70
1
  0
VERTEX
  8
LAYER_1
 10
154.7151
 20
35.9637
  0
VERTEX
  8
LAYER_1
 10
154.61
 20
35.9637
  0
VERTEX
  8
LAYER_1
 10
154.61
 20
36.9035
  0
VERTEX
  8
LAYER_1
 10
154.2638
 20
36.9035
  0
VERTEX
  8
LAYER_1
 10
154.2638
 20
36.9969
  0
VERTEX
  8
LAYER_1
 10
155.0606
 20
36.9969
  0
VERTEX
  8
LAYER_1
 10
155.0606
 20
36.9035
  0
VERTEX
  8
LAYER_1
 10
154.7151
 20
36.9035
  0
SEQEND
  0
ENDBLK
  0
BLOCK
  8
LAYER_1
  2
AIGNBL01030035
 70
64
 10
0
 20
0
 30
0
  3
AIGNBL01030035
  0
POLYLINE
  8
LAYER_1
 40
0.05
 41
0.05
 66
1
 10
0
 20
0
 30
0
 70
1
  0
VERTEX
  8
LAYER_1
 10
155.4169
 20
36.9969
  0
VERTEX
  8
LAYER_1
 10
155.5216
 20
36.9969
  0
VERTEX
  8
LAYER_1
 10
155.5216
 20
36.549
  0
VERTEX
  8
LAYER_1
 10
156.0852
 20
36.549
  0
VERTEX
  8
LAYER_1
 10
156.0852
 20
36.9969
  0
VERTEX
  8
LAYER_1
 10
156.1903
 20
36.9969
  0
VERTEX
  8
LAYER_1
 10
156.1903
 20
35.9637
  0
VERTEX
  8
LAYER_1
 10
156.0852
 20
35.9637
  0
VERTEX
  8
LAYER_1
 10
156.0852
 20
36.4529
  0
VERTEX
  8
LAYER_1
 10
155.5216
 20
36.4529
  0
VERTEX
  8
LAYER_1
 10
155.5216
 20
35.9637
  0
VERTEX
  8
LAYER_1
 10
155.4169
 20
35.9637
  0
SEQEND
  0
ENDBLK
  0
BLOCK
  8
LAYER_1
  2
AIGNBL01030036
 70
64
 10
0
 20
0
 30
0
  3
AIGNBL01030036
  0
POLYLINE
  8
LAYER_1
 40
0.05
 41
0.05
 66
1
 10
0
 20
0
 30
0
 70
1
  0
VERTEX
  8
LAYER_1
 10
156.7708
 20
35.9637
  0
VERTEX
  8
LAYER_1
 10
156.6657
 20
35.9637
  0
VERTEX
  8
LAYER_1
 10
156.6657
 20
36.9969
  0
VERTEX
  8
LAYER_1
 10
156.9696
 20
36.9969
  0
VERTEX
  8
LAYER_1
 10
157.1101
 20
36.9824
 42
-0.1032885834
  0
VERTEX
  8
LAYER_1
 10
157.2228
 20
36.9349
 42
-0.1281738609
  0
VERTEX
  8
LAYER_1
 10
157.2962
 20
36.8494
 42
-0.1081125707
  0
VERTEX
  8
LAYER_1
 10
157.3224
 20
36.7213
  0
VERTEX
  8
LAYER_1
 10
157.3024
 20
36.6176
  0
VERTEX
  8
LAYER_1
 10
157.2469
 20
36.5366
  0
VERTEX
  8
LAYER_1
 10
157.1635
 20
36.4818
  0
VERTEX
  8
LAYER_1
 10
157.0585
 20
36.4557
  0
VERTEX
  8
LAYER_1
 10
157.3606
 20
35.9637
  0
VERTEX
  8
LAYER_1
 10
157.2321
 20
35.9637
  0
VERTEX
  8
LAYER_1
 10
156.9461
 20
36.4467
  0
VERTEX
  8
LAYER_1
 10
156.7708
 20
36.4467
  0
SEQEND
  0
POLYLINE
  8
LAYER_1
 40
0.05
 41
0.05
 66
1
 10
0
 20
0
 30
0
 70
1
  0
VERTEX
  8
LAYER_1
 10
156.7708
 20
36.5373
  0
VERTEX
  8
LAYER_1
 10
156.9534
 20
36.5373
 42
0.153451873
  0
VERTEX
  8
LAYER_1
 10
157.1491
 20
36.5831
 42
0.2580279849
  0
VERTEX
  8
LAYER_1
 10
157.2176
 20
36.7213
  0
VERTEX
  8
LAYER_1
 10
157.1983
 20
36.8071
  0
VERTEX
  8
LAYER_1
 10
157.146
 20
36.8642
  0
VERTEX
  8
LAYER_1
 10
157.0643
 20
36.8963
  0
VERTEX
  8
LAYER_1
 10
156.9579
 20
36.9066
  0
VERTEX
  8
LAYER_1
 10
156.7708
 20
36.9066
  0
SEQEND
  0
ENDBLK
  0
BLOCK
  8
LAYER_1
  2
AIGNBL01030037
 70
64
 10
0
 20
0
 30
0
  3
AIGNBL01030037
  0
POLYLINE
  8
LAYER_1
 40
0.05
 41
0.05
 66
1
 10
0
 20
0
 30
0
 70
1
  0
VERTEX
  8
LAYER_1
 10
158.7627
 20
36.4805
 42
-0.09904480664
  0
VERTEX
  8
LAYER_1
 10
158.7221
 20
36.2631
 42
-0.0998654539
  0
VERTEX
  8
LAYER_1
 10
158.6088
 20
36.0915
 42
-0.09816046092
  0
VERTEX
  8
LAYER_1
 10
158.4382
 20
35.9785
 42
-0.09758412454
  0
VERTEX
  8
LAYER_1
 10
158.2243
 20
35.9375
 42
-0.09999517154
  0
VERTEX
  8
LAYER_1
 10
158.0103
 20
35.9785
 42
-0.09953435427
  0
VERTEX
  8
LAYER_1
 10
157.8398
 20
36.0915
 42
-0.09864299929
  0
VERTEX
  8
LAYER_1
 10
157.7268
 20
36.2631
 42
-0.09653980076
  0
VERTEX
  8
LAYER_1
 10
157.6862
 20
36.4805
 42
-0.1004594477
  0
VERTEX
  8
LAYER_1
 10
157.7268
 20
36.6978
 42
-0.1008040346
  0
VERTEX
  8
LAYER_1
 10
157.8398
 20
36.8694
 42
-0.09763764092
  0
VERTEX
  8
LAYER_1
 10
158.0103
 20
36.9824
 42
-0.09752919603
  0
VERTEX
  8
LAYER_1
 10
158.2243
 20
37.0234
 42
-0.1000174927
  0
VERTEX
  8
LAYER_1
 10
158.4382
 20
36.9824
 42
-0.1006724022
  0
VERTEX
  8
LAYER_1
 10
158.6088
 20
36.8694
 42
-0.09709867792
  0
VERTEX
  8
LAYER_1
 10
158.7221
 20
36.6978
 42
-0.09585658013
  0
SEQEND
  0
POLYLINE
  8
LAYER_1
 40
0.05
 41
0.05
 66
1
 10
0
 20
0
 30
0
 70
1
  0
VERTEX
  8
LAYER_1
 10
158.6518
 20
36.4798
 42
0.08852014676
  0
VERTEX
  8
LAYER_1
 10
158.6225
 20
36.6517
 42
0.09973444611
  0
VERTEX
  8
LAYER_1
 10
158.5378
 20
36.795
 42
0.1024799068
  0
VERTEX
  8
LAYER_1
 10
158.4031
 20
36.8932
 42
0.1060321998
  0
VERTEX
  8
LAYER_1
 10
158.2243
 20
36.93
 42
0.1116325688
  0
VERTEX
  8
LAYER_1
 10
158.0455
 20
36.8932
 42
0.1060506217
  0
VERTEX
  8
LAYER_1
 10
157.9104
 20
36.795
 42
0.09526104957
  0
VERTEX
  8
LAYER_1
 10
157.8257
 20
36.6517
 42
0.08440311357
  0
VERTEX
  8
LAYER_1
 10
157.7967
 20
36.4798
 42
0.08751084222
  0
VERTEX
  8
LAYER_1
 10
157.8257
 20
36.3079
 42
0.09826867926
  0
VERTEX
  8
LAYER_1
 10
157.9104
 20
36.1649
 42
0.09908422267
  0
VERTEX
  8
LAYER_1
 10
158.0455
 20
36.0674
 42
0.1061654103
  0
VERTEX
  8
LAYER_1
 10
158.2243
 20
36.0309
 42
0.1124388132
  0
VERTEX
  8
LAYER_1
 10
158.4031
 20
36.0674
 42
0.1028204009
  0
VERTEX
  8
LAYER_1
 10
158.5378
 20
36.1649
 42
0.09882210045
  0
VERTEX
  8
LAYER_1
 10
158.6225
 20
36.3079
 42
0.08589740831
  0
SEQEND
  0
ENDBLK
  0
BLOCK
  8
LAYER_1
  2
AIGNBL01030038
 70
64
 10
0
 20
0
 30
0
  3
AIGNBL01030038
  0
POLYLINE
  8
LAYER_1
 40
0.05
 41
0.05
 66
1
 10
0
 20
0
 30
0
 70
1
  0
VERTEX
  8
LAYER_1
 10
160.2045
 20
36.4805
 42
-0.1019307791
  0
VERTEX
  8
LAYER_1
 10
160.1635
 20
36.2631
 42
-0.1000344077
  0
VERTEX
  8
LAYER_1
 10
160.0509
 20
36.0915
 42
-0.09685913213
  0
VERTEX
  8
LAYER_1
 10
159.88
 20
35.9785
 42
-0.09758412454
  0
VERTEX
  8
LAYER_1
 10
159.6661
 20
35.9375
 42
-0.1006569764
  0
VERTEX
  8
LAYER_1
 10
159.4525
 20
35.9785
 42
-0.1011318925
  0
VERTEX
  8
LAYER_1
 10
159.2816
 20
36.0915
 42
-0.09735230618
  0
VERTEX
  8
LAYER_1
 10
159.1682
 20
36.2631
 42
-0.09653980076
  0
VERTEX
  8
LAYER_1
 10
159.1276
 20
36.4805
 42
-0.1004594477
  0
VERTEX
  8
LAYER_1
 10
159.1682
 20
36.6978
 42
-0.1001669327
  0
VERTEX
  8
LAYER_1
 10
159.2816
 20
36.8694
 42
-0.09867928162
  0
VERTEX
  8
LAYER_1
 10
159.4525
 20
36.9824
 42
-0.09791748865
  0
VERTEX
  8
LAYER_1
 10
159.6661
 20
37.0234
 42
-0.1000174927
  0
VERTEX
  8
LAYER_1
 10
159.88
 20
36.9824
 42
-0.0983303992
  0
VERTEX
  8
LAYER_1
 10
160.0509
 20
36.8694
 42
-0.09781653482
  0
VERTEX
  8
LAYER_1
 10
160.1635
 20
36.6978
 42
-0.09788199595
  0
SEQEND
  0
POLYLINE
  8
LAYER_1
 40
0.05
 41
0.05
 66
1
 10
0
 20
0
 30
0
 70
1
  0
VERTEX
  8
LAYER_1
 10
160.0936
 20
36.4798
 42
0.08634913196
  0
VERTEX
  8
LAYER_1
 10
160.0646
 20
36.6517
 42
0.09721101768
  0
VERTEX
  8
LAYER_1
 10
159.9799
 20
36.795
 42
0.1030853098
  0
VERTEX
  8
LAYER_1
 10
159.8449
 20
36.8932
 42
0.1060321998
  0
VERTEX
  8
LAYER_1
 10
159.6661
 20
36.93
 42
0.1116325688
  0
VERTEX
  8
LAYER_1
 10
159.4873
 20
36.8932
 42
0.1058584166
  0
VERTEX
  8
LAYER_1
 10
159.3525
 20
36.795
 42
0.09787799956
  0
VERTEX
  8
LAYER_1
 10
159.2678
 20
36.6517
 42
0.08491464556
  0
VERTEX
  8
LAYER_1
 10
159.2385
 20
36.4798
 42
0.08693146424
  0
VERTEX
  8
LAYER_1
 10
159.2678
 20
36.3079
 42
0.1009797617
  0
VERTEX
  8
LAYER_1
 10
159.3525
 20
36.1649
 42
0.09947922476
  0
VERTEX
  8
LAYER_1
 10
159.4873
 20
36.0674
 42
0.1061654103
  0
VERTEX
  8
LAYER_1
 10
159.6661
 20
36.0309
 42
0.1124388132
  0
VERTEX
  8
LAYER_1
 10
159.8449
 20
36.0674
 42
0.103362111
  0
VERTEX
  8
LAYER_1
 10
159.9799
 20
36.1649
 42
0.09450022685
  0
VERTEX
  8
LAYER_1
 10
160.0646
 20
36.3079
 42
0.08466662837
  0
SEQEND
  0
ENDBLK
  0
BLOCK
  8
LAYER_1
  2
AIGNBL01030039
 70
64
 10
0
 20
0
 30
0
  3
AIGNBL01030039
  0
POLYLINE
  8
LAYER_1
 40
0.05
 41
0.05
 66
1
 10
0
 20
0
 30
0
 70
1
  0
VERTEX
  8
LAYER_1
 10
161.1354
 20
36.1418
  0
VERTEX
  8
LAYER_1
 10
161.1371
 20
36.1418
  0
VERTEX
  8
LAYER_1
 10
161.4826
 20
36.9969
  0
VERTEX
  8
LAYER_1
 10
161.6435
 20
36.9969
  0
VERTEX
  8
LAYER_1
 10
161.6435
 20
35.9637
  0
VERTEX
  8
LAYER_1
 10
161.5381
 20
35.9637
  0
VERTEX
  8
LAYER_1
 10
161.5381
 20
36.8611
  0
VERTEX
  8
LAYER_1
 10
161.5354
 20
36.8611
  0
VERTEX
  8
LAYER_1
 10
161.1619
 20
35.9637
  0
VERTEX
  8
LAYER_1
 10
161.1064
 20
35.9637
  0
VERTEX
  8
LAYER_1
 10
160.7327
 20
36.8611
  0
VERTEX
  8
LAYER_1
 10
160.7299
 20
36.8611
  0
VERTEX
  8
LAYER_1
 10
160.7299
 20
35.9637
  0
VERTEX
  8
LAYER_1
 10
160.6248
 20
35.9637
  0
VERTEX
  8
LAYER_1
 10
160.6248
 20
36.9969
  0
VERTEX
  8
LAYER_1
 10
160.7854
 20
36.9969
  0
SEQEND
  0
ENDBLK
  0
BLOCK
  8
LAYER_1
  2
AIGNBL0103003A
 70
64
 10
0
 20
0
 30
0
  3
AIGNBL0103003A
  0
POLYLINE
  8
LAYER_1
 40
0.05
 41
0.05
 66
1
 10
0
 20
0
 30
0
 70
1
  0
VERTEX
  8
LAYER_1
 10
162.7901
 20
36.0574
  0
VERTEX
  8
LAYER_1
 10
163.3433
 20
36.0574
  0
VERTEX
  8
LAYER_1
 10
163.3433
 20
35.9637
  0
VERTEX
  8
LAYER_1
 10
162.685
 20
35.9637
  0
VERTEX
  8
LAYER_1
 10
162.685
 20
36.9969
  0
VERTEX
  8
LAYER_1
 10
163.3258
 20
36.9969
  0
VERTEX
  8
LAYER_1
 10
163.3258
 20
36.9035
  0
VERTEX
  8
LAYER_1
 10
162.7901
 20
36.9035
  0
VERTEX
  8
LAYER_1
 10
162.7901
 20
36.549
  0
VERTEX
  8
LAYER_1
 10
163.2906
 20
36.549
  0
VERTEX
  8
LAYER_1
 10
163.2906
 20
36.4557
  0
VERTEX
  8
LAYER_1
 10
162.7901
 20
36.4557
  0
SEQEND
  0
ENDBLK
  0
BLOCK
  8
LAYER_1
  2
AIGNBL0103003B
 70
64
 10
0
 20
0
 30
0
  3
AIGNBL0103003B
  0
POLYLINE
  8
LAYER_1
 40
0.05
 41
0.05
 66
1
 10
0
 20
0
 30
0
 70
1
  0
VERTEX
  8
LAYER_1
 10
164.0885
 20
36.5797
  0
VERTEX
  8
LAYER_1
 10
164.3707
 20
36.9969
  0
VERTEX
  8
LAYER_1
 10
164.4957
 20
36.9969
  0
VERTEX
  8
LAYER_1
 10
164.1533
 20
36.5053
  0
VERTEX
  8
LAYER_1
 10
164.5326
 20
35.9637
  0
VERTEX
  8
LAYER_1
 10
164.4013
 20
35.9637
  0
VERTEX
  8
LAYER_1
 10
164.0858
 20
36.4295
  0
VERTEX
  8
LAYER_1
 10
163.7723
 20
35.9637
  0
VERTEX
  8
LAYER_1
 10
163.6407
 20
35.9637
  0
VERTEX
  8
LAYER_1
 10
164.0203
 20
36.5066
  0
VERTEX
  8
LAYER_1
 10
163.6744
 20
36.9969
  0
VERTEX
  8
LAYER_1
 10
163.806
 20
36.9969
  0
SEQEND
  0
ENDBLK
  0
BLOCK
  8
LAYER_1
  2
AIGNBL0103003C
 70
64
 10
0
 20
0
 30
0
  3
AIGNBL0103003C
  0
POLYLINE
  8
LAYER_1
 40
0.05
 41
0.05
 66
1
 10
0
 20
0
 30
0
 70
1
  0
VERTEX
  8
LAYER_1
 10
164.8988
 20
36.9969
  0
VERTEX
  8
LAYER_1
 10
165.191
 20
36.9969
  0
VERTEX
  8
LAYER_1
 10
165.3339
 20
36.9803
 42
-0.104442724
  0
VERTEX
  8
LAYER_1
 10
165.4438
 20
36.929
 42
-0.1219459081
  0
VERTEX
  8
LAYER_1
 10
165.5148
 20
36.8429
 42
-0.1032545831
  0
VERTEX
  8
LAYER_1
 10
165.5392
 20
36.7213
 42
-0.1239274235
  0
VERTEX
  8
LAYER_1
 10
165.5141
 20
36.5993
 42
-0.1163667494
  0
VERTEX
  8
LAYER_1
 10
165.4424
 20
36.5132
 42
-0.08715194998
  0
VERTEX
  8
LAYER_1
 10
165.3315
 20
36.4615
 42
-0.06108707382
  0
VERTEX
  8
LAYER_1
 10
165.1878
 20
36.4439
  0
VERTEX
  8
LAYER_1
 10
165.0039
 20
36.4439
  0
VERTEX
  8
LAYER_1
 10
165.0039
 20
35.9637
  0
VERTEX
  8
LAYER_1
 10
164.8988
 20
35.9637
  0
SEQEND
  0
POLYLINE
  8
LAYER_1
 40
0.05
 41
0.05
 66
1
 10
0
 20
0
 30
0
 70
1
  0
VERTEX
  8
LAYER_1
 10
165.0039
 20
36.5328
  0
VERTEX
  8
LAYER_1
 10
165.1816
 20
36.5328
 42
0.1698628217
  0
VERTEX
  8
LAYER_1
 10
165.3701
 20
36.5811
 42
0.2445965084
  0
VERTEX
  8
LAYER_1
 10
165.4345
 20
36.7213
 42
0.2593003012
  0
VERTEX
  8
LAYER_1
 10
165.368
 20
36.8622
 42
0.143072224
  0
VERTEX
  8
LAYER_1
 10
165.1816
 20
36.9066
  0
VERTEX
  8
LAYER_1
 10
165.0039
 20
36.9066
  0
SEQEND
  0
ENDBLK
  0
BLOCK
  8
LAYER_1
  2
AIGNBL0103003D
 70
64
 10
0
 20
0
 30
0
  3
AIGNBL0103003D
  0
POLYLINE
  8
LAYER_1
 40
0.05
 41
0.05
 66
1
 10
0
 20
0
 30
0
 70
1
  0
VERTEX
  8
LAYER_1
 10
166.0515
 20
36.0574
  0
VERTEX
  8
LAYER_1
 10
166.6048
 20
36.0574
  0
VERTEX
  8
LAYER_1
 10
166.6048
 20
35.9637
  0
VERTEX
  8
LAYER_1
 10
165.9465
 20
35.9637
  0
VERTEX
  8
LAYER_1
 10
165.9465
 20
36.9969
  0
VERTEX
  8
LAYER_1
 10
166.5872
 20
36.9969
  0
VERTEX
  8
LAYER_1
 10
166.5872
 20
36.9035
  0
VERTEX
  8
LAYER_1
 10
166.0515
 20
36.9035
  0
VERTEX
  8
LAYER_1
 10
166.0515
 20
36.549
  0
VERTEX
  8
LAYER_1
 10
166.5521
 20
36.549
  0
VERTEX
  8
LAYER_1
 10
166.5521
 20
36.4557
  0
VERTEX
  8
LAYER_1
 10
166.0515
 20
36.4557
  0
SEQEND
  0
ENDBLK
  0
BLOCK
  8
LAYER_1
  2
AIGNBL0103003E
 70
64
 10
0
 20
0
 30
0
  3
AIGNBL0103003E
  0
POLYLINE
  8
LAYER_1
 40
0.05
 41
0.05
 66
1
 10
0
 20
0
 30
0
 70
1
  0
VERTEX
  8
LAYER_1
 10
167.1168
 20
35.9637
  0
VERTEX
  8
LAYER_1
 10
167.0117
 20
35.9637
  0
VERTEX
  8
LAYER_1
 10
167.0117
 20
36.9969
  0
VERTEX
  8
LAYER_1
 10
167.3155
 20
36.9969
  0
VERTEX
  8
LAYER_1
 10
167.4561
 20
36.9824
 42
-0.1033890198
  0
VERTEX
  8
LAYER_1
 10
167.5688
 20
36.9349
 42
-0.1259996581
  0
VERTEX
  8
LAYER_1
 10
167.6425
 20
36.8494
 42
-0.1064650891
  0
VERTEX
  8
LAYER_1
 10
167.6683
 20
36.7213
  0
VERTEX
  8
LAYER_1
 10
167.6483
 20
36.6176
  0
VERTEX
  8
LAYER_1
 10
167.5929
 20
36.5366
  0
VERTEX
  8
LAYER_1
 10
167.5095
 20
36.4818
  0
VERTEX
  8
LAYER_1
 10
167.4044
 20
36.4557
  0
VERTEX
  8
LAYER_1
 10
167.7066
 20
35.9637
  0
VERTEX
  8
LAYER_1
 10
167.5781
 20
35.9637
  0
VERTEX
  8
LAYER_1
 10
167.2921
 20
36.4467
  0
VERTEX
  8
LAYER_1
 10
167.1168
 20
36.4467
  0
SEQEND
  0
POLYLINE
  8
LAYER_1
 40
0.05
 41
0.05
 66
1
 10
0
 20
0
 30
0
 70
1
  0
VERTEX
  8
LAYER_1
 10
167.1168
 20
36.5373
  0
VERTEX
  8
LAYER_1
 10
167.2993
 20
36.5373
 42
0.1542719415
  0
VERTEX
  8
LAYER_1
 10
167.495
 20
36.5831
 42
0.2583775622
  0
VERTEX
  8
LAYER_1
 10
167.5636
 20
36.7213
  0
VERTEX
  8
LAYER_1
 10
167.5446
 20
36.8071
  0
VERTEX
  8
LAYER_1
 10
167.4919
 20
36.8642
  0
VERTEX
  8
LAYER_1
 10
167.4103
 20
36.8963
  0
VERTEX
  8
LAYER_1
 10
167.3038
 20
36.9066
  0
VERTEX
  8
LAYER_1
 10
167.1168
 20
36.9066
  0
SEQEND
  0
ENDBLK
  0
BLOCK
  8
LAYER_1
  2
AIGNBL0103003F
 70
64
 10
0
 20
0
 30
0
  3
AIGNBL0103003F
  0
POLYLINE
  8
LAYER_1
 40
0.05
 41
0.05
 66
1
 10
0
 20
0
 30
0
 70
1
  0
VERTEX
  8
LAYER_1
 10
168.1923
 20
35.9637
  0
VERTEX
  8
LAYER_1
 10
168.0876
 20
35.9637
  0
VERTEX
  8
LAYER_1
 10
168.0876
 20
36.9969
  0
VERTEX
  8
LAYER_1
 10
168.1923
 20
36.9969
  0
SEQEND
  0
ENDBLK
  0
BLOCK
  8
LAYER_1
  2
AIGNBL01030040
 70
64
 10
0
 20
0
 30
0
  3
AIGNBL01030040
  0
POLYLINE
  8
LAYER_1
 40
0.05
 41
0.05
 66
1
 10
0
 20
0
 30
0
 70
1
  0
VERTEX
  8
LAYER_1
 10
168.7732
 20
36.0574
  0
VERTEX
  8
LAYER_1
 10
169.3261
 20
36.0574
  0
VERTEX
  8
LAYER_1
 10
169.3261
 20
35.9637
  0
VERTEX
  8
LAYER_1
 10
168.6681
 20
35.9637
  0
VERTEX
  8
LAYER_1
 10
168.6681
 20
36.9969
  0
VERTEX
  8
LAYER_1
 10
169.3089
 20
36.9969
  0
VERTEX
  8
LAYER_1
 10
169.3089
 20
36.9035
  0
VERTEX
  8
LAYER_1
 10
168.7732
 20
36.9035
  0
VERTEX
  8
LAYER_1
 10
168.7732
 20
36.549
  0
VERTEX
  8
LAYER_1
 10
169.2737
 20
36.549
  0
VERTEX
  8
LAYER_1
 10
169.2737
 20
36.4557
  0
VERTEX
  8
LAYER_1
 10
168.7732
 20
36.4557
  0
SEQEND
  0
ENDBLK
  0
BLOCK
  8
LAYER_1
  2
AIGNBL01030041
 70
64
 10
0
 20
0
 30
0
  3
AIGNBL01030041
  0
POLYLINE
  8
LAYER_1
 40
0.05
 41
0.05
 66
1
 10
0
 20
0
 30
0
 70
1
  0
VERTEX
  8
LAYER_1
 10
170.4661
 20
36.117
  0
VERTEX
  8
LAYER_1
 10
170.4688
 20
36.117
  0
VERTEX
  8
LAYER_1
 10
170.4688
 20
36.9969
  0
VERTEX
  8
LAYER_1
 10
170.5739
 20
36.9969
  0
VERTEX
  8
LAYER_1
 10
170.5739
 20
35.9637
  0
VERTEX
  8
LAYER_1
 10
170.4427
 20
35.9637
  0
VERTEX
  8
LAYER_1
 10
169.8415
 20
36.8525
  0
VERTEX
  8
LAYER_1
 10
169.8384
 20
36.8525
  0
VERTEX
  8
LAYER_1
 10
169.8384
 20
35.9637
  0
VERTEX
  8
LAYER_1
 10
169.7333
 20
35.9637
  0
VERTEX
  8
LAYER_1
 10
169.7333
 20
36.9969
  0
VERTEX
  8
LAYER_1
 10
169.8649
 20
36.9969
  0
SEQEND
  0
ENDBLK
  0
BLOCK
  8
LAYER_1
  2
AIGNBL01030042
 70
64
 10
0
 20
0
 30
0
  3
AIGNBL01030042
  0
POLYLINE
  8
LAYER_1
 40
0.05
 41
0.05
 66
1
 10
0
 20
0
 30
0
 70
1
  0
VERTEX
  8
LAYER_1
 10
171.9196
 20
36.1315
  0
VERTEX
  8
LAYER_1
 10
171.8558
 20
36.0571
  0
VERTEX
  8
LAYER_1
 10
171.7697
 20
35.9954
  0
VERTEX
  8
LAYER_1
 10
171.6615
 20
35.953
  0
VERTEX
  8
LAYER_1
 10
171.5327
 20
35.9375
 42
-0.0997799169
  0
VERTEX
  8
LAYER_1
 10
171.3167
 20
35.9785
 42
-0.102530266
  0
VERTEX
  8
LAYER_1
 10
171.1461
 20
36.0915
 42
-0.1000387679
  0
VERTEX
  8
LAYER_1
 10
171.0345
 20
36.2631
 42
-0.09630702324
  0
VERTEX
  8
LAYER_1
 10
170.9942
 20
36.4805
 42
-0.1019529564
  0
VERTEX
  8
LAYER_1
 10
171.0352
 20
36.6978
 42
-0.09989904409
  0
VERTEX
  8
LAYER_1
 10
171.1479
 20
36.8694
 42
-0.09705342834
  0
VERTEX
  8
LAYER_1
 10
171.3187
 20
36.9824
 42
-0.09752919603
  0
VERTEX
  8
LAYER_1
 10
171.5327
 20
37.0234
  0
VERTEX
  8
LAYER_1
 10
171.6443
 20
37.0113
  0
VERTEX
  8
LAYER_1
 10
171.7473
 20
36.9779
  0
VERTEX
  8
LAYER_1
 10
171.8348
 20
36.9263
  0
VERTEX
  8
LAYER_1
 10
171.9006
 20
36.8584
  0
VERTEX
  8
LAYER_1
 10
171.8131
 20
36.794
  0
VERTEX
  8
LAYER_1
 10
171.7697
 20
36.8439
  0
VERTEX
  8
LAYER_1
 10
171.7063
 20
36.8877
  0
VERTEX
  8
LAYER_1
 10
171.6267
 20
36.9183
  0
VERTEX
  8
LAYER_1
 10
171.5341
 20
36.93
 42
0.1106055686
  0
VERTEX
  8
LAYER_1
 10
171.3539
 20
36.8935
 42
0.1040964846
  0
VERTEX
  8
LAYER_1
 10
171.2188
 20
36.7953
 42
0.09554708239
  0
VERTEX
  8
LAYER_1
 10
171.1341
 20
36.652
 42
0.08465136707
  0
VERTEX
  8
LAYER_1
 10
171.1051
 20
36.4805
 42
0.09018441759
  0
VERTEX
  8
LAYER_1
 10
171.1351
 20
36.3089
 42
0.09834905538
  0
VERTEX
  8
LAYER_1
 10
171.2206
 20
36.1656
 42
0.1037153981
  0
VERTEX
  8
LAYER_1
 10
171.3556
 20
36.0674
 42
0.1064777274
  0
VERTEX
  8
LAYER_1
 10
171.5341
 20
36.0309
 42
0.1093190709
  0
VERTEX
  8
LAYER_1
 10
171.7032
 20
36.0674
 42
0.1366622766
  0
VERTEX
  8
LAYER_1
 10
171.8376
 20
36.1842
  0
SEQEND
  0
ENDBLK
  0
BLOCK
  8
LAYER_1
  2
AIGNBL01030043
 70
64
 10
0
 20
0
 30
0
  3
AIGNBL01030043
  0
POLYLINE
  8
LAYER_1
 40
0.05
 41
0.05
 66
1
 10
0
 20
0
 30
0
 70
1
  0
VERTEX
  8
LAYER_1
 10
172.4067
 20
36.0574
  0
VERTEX
  8
LAYER_1
 10
172.96
 20
36.0574
  0
VERTEX
  8
LAYER_1
 10
172.96
 20
35.9637
  0
VERTEX
  8
LAYER_1
 10
172.3016
 20
35.9637
  0
VERTEX
  8
LAYER_1
 10
172.3016
 20
36.9969
  0
VERTEX
  8
LAYER_1
 10
172.9424
 20
36.9969
  0
VERTEX
  8
LAYER_1
 10
172.9424
 20
36.9035
  0
VERTEX
  8
LAYER_1
 10
172.4067
 20
36.9035
  0
VERTEX
  8
LAYER_1
 10
172.4067
 20
36.549
  0
VERTEX
  8
LAYER_1
 10
172.9073
 20
36.549
  0
VERTEX
  8
LAYER_1
 10
172.9073
 20
36.4557
  0
VERTEX
  8
LAYER_1
 10
172.4067
 20
36.4557
  0
SEQEND
  0
ENDBLK
  0
BLOCK
  8
LAYER_1
  2
AIGNBL01020004
 70
64
 10
0
 20
0
 30
0
  3
AIGNBL01020004
  0
POLYLINE
  8
LAYER_1
 40
0.05
 41
0.05
 66
1
 10
0
 20
0
 30
0
  0
VERTEX
  8
LAYER_1
 10
-1.196
 20
217.6012
 42
-0.04245719054
  0
VERTEX
  8
LAYER_1
 10
-1.2437
 20
216.7495
 42
-0.1145799327
  0
VERTEX
  8
LAYER_1
 10
-1.4854
 20
216.1042
 42
-0.03657724702
  0
VERTEX
  8
LAYER_1
 10
-1.5732
 20
216.0054
 42
-0.1577844027
  0
VERTEX
  8
LAYER_1
 10
-2.1025
 20
215.7362
 42
-0.04286355862
  0
VERTEX
  8
LAYER_1
 10
-2.3408
 20
215.7164
 42
-0.1461347274
  0
VERTEX
  8
LAYER_1
 10
-2.9525
 20
215.8874
 42
-0.04825720136
  0
VERTEX
  8
LAYER_1
 10
-3.0956
 20
216.0054
 42
-0.1514389093
  0
VERTEX
  8
LAYER_1
 10
-3.3903
 20
216.5711
 42
-0.04033585951
  0
VERTEX
  8
LAYER_1
 10
-3.4563
 20
217.0249
 42
-0.01781626242
  0
VERTEX
  8
LAYER_1
 10
-3.4732
 20
217.6012
 42
-0.04130006014
  0
VERTEX
  8
LAYER_1
 10
-3.4273
 20
218.4296
 42
-0.1151149684
  0
VERTEX
  8
LAYER_1
 10
-3.1834
 20
219.0859
 42
-0.03654153753
  0
VERTEX
  8
LAYER_1
 10
-3.0956
 20
219.1846
 42
-0.2075936136
  0
VERTEX
  8
LAYER_1
 10
-2.3408
 20
219.4733
 42
-0.1450929454
  0
VERTEX
  8
LAYER_1
 10
-1.7165
 20
219.3023
 42
-0.04835174358
  0
VERTEX
  8
LAYER_1
 10
-1.5732
 20
219.1846
 42
-0.1513451311
  0
VERTEX
  8
LAYER_1
 10
-1.2787
 20
218.6202
 42
-0.04039310281
  0
VERTEX
  8
LAYER_1
 10
-1.2128
 20
218.1697
 42
-0.01794217025
  0
VERTEX
  8
LAYER_1
 10
-1.196
 20
217.6012
  0
SEQEND
  0
POLYLINE
  8
LAYER_1
 40
0.05
 41
0.05
 66
1
 10
0
 20
0
 30
0
  0
VERTEX
  8
LAYER_1
 10
0.4394
 20
217.6012
 42
0.03175065208
  0
VERTEX
  8
LAYER_1
 10
0.3919
 20
218.5427
 42
0.07858555415
  0
VERTEX
  8
LAYER_1
 10
0.123
 20
219.5272
 42
0.07786217308
  0
VERTEX
  8
LAYER_1
 10
-0.303
 20
220.1395
 42
0.1422741765
  0
VERTEX
  8
LAYER_1
 10
-1.5044
 20
220.8409
 42
0.06575783118
  0
VERTEX
  8
LAYER_1
 10
-2.3408
 20
220.9436
 42
0.08626276489
  0
VERTEX
  8
LAYER_1
 10
-3.3995
 20
220.7669
 42
0.1130938839
  0
VERTEX
  8
LAYER_1
 10
-4.3661
 20
220.1395
 42
0.09874851938
  0
VERTEX
  8
LAYER_1
 10
-4.8748
 20
219.3361
 42
0.04046642204
  0
VERTEX
  8
LAYER_1
 10
-5.006
 20
218.8809
 42
0.03221243423
  0
VERTEX
  8
LAYER_1
 10
-5.0854
 20
218.2915
 42
0.01857787638
  0
VERTEX
  8
LAYER_1
 10
-5.1082
 20
217.6012
 42
0.0314952959
  0
VERTEX
  8
LAYER_1
 10
-5.0608
 20
216.6571
 42
0.07798081448
  0
VERTEX
  8
LAYER_1
 10
-4.7922
 20
215.6655
 42
0.07854437857
  0
VERTEX
  8
LAYER_1
 10
-4.3661
 20
215.0504
 42
0.1827570447
  0
VERTEX
  8
LAYER_1
 10
-2.668
 20
214.2614
 42
0.02310613048
  0
VERTEX
  8
LAYER_1
 10
-2.3408
 20
214.2464
 42
0.08562149542
  0
VERTEX
  8
LAYER_1
 10
-1.2772
 20
214.4231
 42
0.11295963
  0
VERTEX
  8
LAYER_1
 10
-0.303
 20
215.0504
 42
0.1497181056
  0
VERTEX
  8
LAYER_1
 10
0.3325
 20
216.2722
 42
0.03273812963
  0
VERTEX
  8
LAYER_1
 10
0.4143
 20
216.8609
 42
0.01955851524
  0
VERTEX
  8
LAYER_1
 10
0.4394
 20
217.6012
  0
SEQEND
  0
POLYLINE
  8
LAYER_1
 40
0.05
 41
0.05
 66
1
 10
0
 20
0
 30
0
  0
VERTEX
  8
LAYER_1
 10
-11.3166
 20
218.2044
  0
VERTEX
  8
LAYER_1
 10
-13.8074
 20
218.2044
 42
-0.1126267973
  0
VERTEX
  8
LAYER_1
 10
-13.6562
 20
218.9079
 42
-0.1394755972
  0
VERTEX
  8
LAYER_1
 10
-13.2507
 20
219.3934
 42
-0.1317755903
  0
VERTEX
  8
LAYER_1
 10
-12.676
 20
219.5824
 42
-0.01996342929
  0
VERTEX
  8
LAYER_1
 10
-12.562
 20
219.5866
 42
-0.137467943
  0
VERTEX
  8
LAYER_1
 10
-11.8991
 20
219.4101
 42
-0.150691583
  0
VERTEX
  8
LAYER_1
 10
-11.4672
 20
218.9079
 42
-0.1174358853
  0
VERTEX
  8
LAYER_1
 10
-11.3166
 20
218.2044
  0
SEQEND
  0
POLYLINE
  8
LAYER_1
 40
0.05
 41
0.05
 66
1
 10
0
 20
0
 30
0
 70
1
  0
VERTEX
  8
LAYER_1
 10
-9.7064
 20
217.0861
  0
VERTEX
  8
LAYER_1
 10
-9.7064
 20
217.7772
 42
0.07162688635
  0
VERTEX
  8
LAYER_1
 10
-9.8733
 20
218.9838
 42
0.08028639799
  0
VERTEX
  8
LAYER_1
 10
-10.2989
 20
219.866
 42
0.08656554483
  0
VERTEX
  8
LAYER_1
 10
-10.9135
 20
220.4722
 42
0.08455920349
  0
VERTEX
  8
LAYER_1
 10
-11.6929
 20
220.8316
 42
0.0690272402
  0
VERTEX
  8
LAYER_1
 10
-12.562
 20
220.9436
 42
0.08516353756
  0
VERTEX
  8
LAYER_1
 10
-13.5923
 20
220.7733
 42
0.2152031234
  0
VERTEX
  8
LAYER_1
 10
-15.1128
 20
219.2869
 42
0.07250104967
  0
VERTEX
  8
LAYER_1
 10
-15.3825
 20
218.2229
 42
0.02934729607
  0
VERTEX
  8
LAYER_1
 10
-15.4177
 20
217.6012
 42
0.06683108421
  0
VERTEX
  8
LAYER_1
 10
-15.2459
 20
216.2162
 42
0.08313278328
  0
VERTEX
  8
LAYER_1
 10
-14.8229
 20
215.3116
 42
0.1842921907
  0
VERTEX
  8
LAYER_1
 10
-13.3775
 20
214.3604
 42
0.06412633437
  0
VERTEX
  8
LAYER_1
 10
-12.386
 20
214.2464
 42
0.07682422262
  0
VERTEX
  8
LAYER_1
 10
-11.1942
 20
214.4123
 42
0.08470351081
  0
VERTEX
  8
LAYER_1
 10
-10.383
 20
214.8416
 42
0.03764758722
  0
VERTEX
  8
LAYER_1
 10
-9.8948
 20
215.2768
  0
VERTEX
  8
LAYER_1
 10
-10.8887
 20
216.2442
 42
-0.1072414833
  0
VERTEX
  8
LAYER_1
 10
-11.6397
 20
215.7366
 42
-0.09138316631
  0
VERTEX
  8
LAYER_1
 10
-12.3732
 20
215.6285
 42
-0.1206829104
  0
VERTEX
  8
LAYER_1
 10
-13.1336
 20
215.8026
 42
-0.1906913474
  0
VERTEX
  8
LAYER_1
 10
-13.7142
 20
216.4979
 42
-0.08636576904
  0
VERTEX
  8
LAYER_1
 10
-13.8074
 20
217.0861
  0
SEQEND
  0
POLYLINE
  8
LAYER_1
 40
0.05
 41
0.05
 66
1
 10
0
 20
0
 30
0
 70
1
  0
VERTEX
  8
LAYER_1
 10
-16.9018
 20
223.2773
  0
VERTEX
  8
LAYER_1
 10
-18.5517
 20
223.2773
  0
VERTEX
  8
LAYER_1
 10
-18.5517
 20
221.9455
  0
VERTEX
  8
LAYER_1
 10
-16.9018
 20
221.9455
  0
SEQEND
  0
POLYLINE
  8
LAYER_1
 40
0.05
 41
0.05
 66
1
 10
0
 20
0
 30
0
 70
1
  0
VERTEX
  8
LAYER_1
 10
-16.9146
 20
220.79
  0
VERTEX
  8
LAYER_1
 10
-18.5499
 20
220.79
  0
VERTEX
  8
LAYER_1
 10
-18.5499
 20
214.3218
  0
VERTEX
  8
LAYER_1
 10
-16.9146
 20
214.3218
  0
SEQEND
  0
POLYLINE
  8
LAYER_1
 40
0.05
 41
0.05
 66
1
 10
0
 20
0
 30
0
  0
VERTEX
  8
LAYER_1
 10
-19.8205
 20
215.1386
  0
VERTEX
  8
LAYER_1
 10
-20.9274
 20
216.2318
 42
-0.124077159
  0
VERTEX
  8
LAYER_1
 10
-21.5761
 20
215.7751
 42
-0.08032586337
  0
VERTEX
  8
LAYER_1
 10
-21.984
 20
215.7164
 42
-0.1386946894
  0
VERTEX
  8
LAYER_1
 10
-22.625
 20
215.8856
 42
-0.08219094685
  0
VERTEX
  8
LAYER_1
 10
-22.9149
 20
216.1436
 42
-0.1253393202
  0
VERTEX
  8
LAYER_1
 10
-23.215
 20
216.8347
 42
-0.05211869655
  0
VERTEX
  8
LAYER_1
 10
-23.2797
 20
217.6012
 42
-0.0435450793
  0
VERTEX
  8
LAYER_1
 10
-23.2306
 20
218.2793
 42
-0.1072750387
  0
VERTEX
  8
LAYER_1
 10
-22.9604
 20
218.9857
 42
-0.01439054395
  0
VERTEX
  8
LAYER_1
 10
-22.9149
 20
219.0461
 42
-0.143045989
  0
VERTEX
  8
LAYER_1
 10
-22.387
 20
219.4143
 42
-0.07949646803
  0
VERTEX
  8
LAYER_1
 10
-21.984
 20
219.4733
 42
-0.1421227284
  0
VERTEX
  8
LAYER_1
 10
-21.3214
 20
219.2962
 42
-0.06971561642
  0
VERTEX
  8
LAYER_1
 10
-20.9274
 20
218.9586
  0
VERTEX
  8
LAYER_1
 10
-19.8205
 20
220.0637
 42
0.08882909472
  0
VERTEX
  8
LAYER_1
 10
-20.632
 20
220.6645
 42
0.08605806955
  0
VERTEX
  8
LAYER_1
 10
-21.5364
 20
220.9189
 42
0.02865290108
  0
VERTEX
  8
LAYER_1
 10
-21.984
 20
220.9436
 42
0.0806713287
  0
VERTEX
  8
LAYER_1
 10
-23.0569
 20
220.7735
 42
0.08357777431
  0
VERTEX
  8
LAYER_1
 10
-23.8317
 20
220.3573
 42
0.09024198391
  0
VERTEX
  8
LAYER_1
 10
-24.4186
 20
219.692
 42
0.07835989587
  0
VERTEX
  8
LAYER_1
 10
-24.7811
 20
218.801
 42
0.06322906838
  0
VERTEX
  8
LAYER_1
 10
-24.9151
 20
217.6012
 42
0.06782520219
  0
VERTEX
  8
LAYER_1
 10
-24.7438
 20
216.2613
 42
0.08255819328
  0
VERTEX
  8
LAYER_1
 10
-24.3104
 20
215.3428
 42
0.1768050018
  0
VERTEX
  8
LAYER_1
 10
-22.8675
 20
214.3604
 42
0.06691738143
  0
VERTEX
  8
LAYER_1
 10
-21.984
 20
214.2464
 42
0.08460493823
  0
VERTEX
  8
LAYER_1
 10
-20.8976
 20
214.4205
 42
0.08609823032
  0
VERTEX
  8
LAYER_1
 10
-20.1139
 20
214.8669
 42
0.0305516797
  0
VERTEX
  8
LAYER_1
 10
-19.8205
 20
215.1386
  0
SEQEND
  0
ENDBLK
  0
BLOCK
  8
LAYER_1
  2
AIGNBL01020005
 70
64
 10
0
 20
0
 30
0
  3
AIGNBL01020005
  0
POLYLINE
  8
LAYER_1
 40
0.05
 41
0.05
 66
1
 10
0
 20
0
 30
0
 70
1
  0
VERTEX
  8
LAYER_1
 10
0.3288
 20
212.6806
  0
VERTEX
  8
LAYER_1
 10
0.0009
 20
212.6806
  0
VERTEX
  8
LAYER_1
 10
-0.2479
 20
211.9109
  0
VERTEX
  8
LAYER_1
 10
-0.5066
 20
212.6806
  0
VERTEX
  8
LAYER_1
 10
-0.8342
 20
212.6806
  0
VERTEX
  8
LAYER_1
 10
-0.4084
 20
211.5234
  0
VERTEX
  8
LAYER_1
 10
-0.4611
 20
211.3704
 42
-0.3961336399
  0
VERTEX
  8
LAYER_1
 10
-0.6165
 20
211.2581
  0
VERTEX
  8
LAYER_1
 10
-0.6882
 20
211.2581
  0
VERTEX
  8
LAYER_1
 10
-0.6882
 20
210.9783
  0
VERTEX
  8
LAYER_1
 10
-0.5662
 20
210.9783
 42
0.2034440672
  0
VERTEX
  8
LAYER_1
 10
-0.2985
 20
211.0741
 42
0.1004639661
  0
VERTEX
  8
LAYER_1
 10
-0.2048
 20
211.2343
  0
SEQEND
  0
POLYLINE
  8
LAYER_1
 40
0.05
 41
0.05
 66
1
 10
0
 20
0
 30
0
 70
1
  0
VERTEX
  8
LAYER_1
 10
-0.8704
 20
211.4352
  0
VERTEX
  8
LAYER_1
 10
-0.8704
 20
211.6977
  0
VERTEX
  8
LAYER_1
 10
-0.9899
 20
211.6977
 42
-0.4751531158
  0
VERTEX
  8
LAYER_1
 10
-1.0998
 20
211.8103
  0
VERTEX
  8
LAYER_1
 10
-1.0998
 20
213.137
  0
VERTEX
  8
LAYER_1
 10
-1.4109
 20
213.137
  0
VERTEX
  8
LAYER_1
 10
-1.4109
 20
211.7914
 42
0.2572712742
  0
VERTEX
  8
LAYER_1
 10
-1.2491
 20
211.4844
 42
0.1351549622
  0
VERTEX
  8
LAYER_1
 10
-1.0475
 20
211.4352
  0
SEQEND
  0
POLYLINE
  8
LAYER_1
 40
0.05
 41
0.05
 66
1
 10
0
 20
0
 30
0
 70
1
  0
VERTEX
  8
LAYER_1
 10
-1.9739
 20
211.894
 42
-0.2469446344
  0
VERTEX
  8
LAYER_1
 10
-2.0214
 20
211.7363
 42
-0.2123665607
  0
VERTEX
  8
LAYER_1
 10
-2.2057
 20
211.6763
 42
-0.2053891319
  0
VERTEX
  8
LAYER_1
 10
-2.3584
 20
211.7231
 42
-0.2060051203
  0
VERTEX
  8
LAYER_1
 10
-2.3949
 20
211.8176
 42
-0.4725599787
  0
VERTEX
  8
LAYER_1
 10
-2.2105
 20
211.9609
  0
VERTEX
  8
LAYER_1
 10
-1.9739
 20
211.9609
  0
SEQEND
  0
POLYLINE
  8
LAYER_1
 40
0.05
 41
0.05
 66
1
 10
0
 20
0
 30
0
 70
1
  0
VERTEX
  8
LAYER_1
 10
-1.6624
 20
211.4352
  0
VERTEX
  8
LAYER_1
 10
-1.6624
 20
212.2551
 42
0.2451162416
  0
VERTEX
  8
LAYER_1
 10
-1.8225
 20
212.6039
 42
0.1630344424
  0
VERTEX
  8
LAYER_1
 10
-2.194
 20
212.6947
 42
0.223003002
  0
VERTEX
  8
LAYER_1
 10
-2.6298
 20
212.5302
 42
0.006267388191
  0
VERTEX
  8
LAYER_1
 10
-2.6412
 20
212.5179
  0
VERTEX
  8
LAYER_1
 10
-2.4452
 20
212.3243
 42
-0.2474228759
  0
VERTEX
  8
LAYER_1
 10
-2.2057
 20
212.4322
 42
-0.1875116517
  0
VERTEX
  8
LAYER_1
 10
-2.0297
 20
212.3865
 42
-0.2385471677
  0
VERTEX
  8
LAYER_1
 10
-1.9739
 20
212.2358
  0
VERTEX
  8
LAYER_1
 10
-1.9739
 20
212.1738
  0
VERTEX
  8
LAYER_1
 10
-2.2633
 20
212.1738
 42
0.2343493414
  0
VERTEX
  8
LAYER_1
 10
-2.6354
 20
212.0142
 42
0.1534284984
  0
VERTEX
  8
LAYER_1
 10
-2.6942
 20
211.8127
 42
0.1895201048
  0
VERTEX
  8
LAYER_1
 10
-2.5912
 20
211.533
 42
0.2074502918
  0
VERTEX
  8
LAYER_1
 10
-2.2729
 20
211.4228
 42
0.2214267061
  0
VERTEX
  8
LAYER_1
 10
-1.9663
 20
211.5426
  0
VERTEX
  8
LAYER_1
 10
-1.9663
 20
211.4352
  0
SEQEND
  0
POLYLINE
  8
LAYER_1
 40
0.05
 41
0.05
 66
1
 10
0
 20
0
 30
0
 70
1
  0
VERTEX
  8
LAYER_1
 10
-2.8758
 20
211.4352
  0
VERTEX
  8
LAYER_1
 10
-2.8758
 20
211.6977
  0
VERTEX
  8
LAYER_1
 10
-2.9884
 20
211.6977
 42
-0.4616084329
  0
VERTEX
  8
LAYER_1
 10
-3.0963
 20
211.8103
  0
VERTEX
  8
LAYER_1
 10
-3.0963
 20
212.4081
  0
VERTEX
  8
LAYER_1
 10
-2.8758
 20
212.4081
  0
VERTEX
  8
LAYER_1
 10
-2.8758
 20
212.6444
  0
VERTEX
  8
LAYER_1
 10
-3.0963
 20
212.6444
  0
VERTEX
  8
LAYER_1
 10
-3.0963
 20
213.0127
  0
VERTEX
  8
LAYER_1
 10
-3.407
 20
213.0127
  0
VERTEX
  8
LAYER_1
 10
-3.407
 20
212.6444
  0
VERTEX
  8
LAYER_1
 10
-3.539
 20
212.6444
  0
VERTEX
  8
LAYER_1
 10
-3.539
 20
212.4081
  0
VERTEX
  8
LAYER_1
 10
-3.407
 20
212.4081
  0
VERTEX
  8
LAYER_1
 10
-3.407
 20
211.7914
 42
0.2563568817
  0
VERTEX
  8
LAYER_1
 10
-3.2458
 20
211.4844
 42
0.1357760723
  0
VERTEX
  8
LAYER_1
 10
-3.0456
 20
211.4352
  0
SEQEND
  0
POLYLINE
  8
LAYER_1
 40
0.05
 41
0.05
 66
1
 10
0
 20
0
 30
0
 70
1
  0
VERTEX
  8
LAYER_1
 10
-3.8091
 20
213.137
  0
VERTEX
  8
LAYER_1
 10
-4.1419
 20
213.137
  0
VERTEX
  8
LAYER_1
 10
-4.1419
 20
211.4352
  0
VERTEX
  8
LAYER_1
 10
-3.8091
 20
211.4352
  0
SEQEND
  0
POLYLINE
  8
LAYER_1
 40
0.05
 41
0.05
 66
1
 10
0
 20
0
 30
0
 70
1
  0
VERTEX
  8
LAYER_1
 10
-5.0562
 20
211.4352
  0
VERTEX
  8
LAYER_1
 10
-5.0562
 20
212.231
 42
0.2072987281
  0
VERTEX
  8
LAYER_1
 10
-5.183
 20
212.5844
 42
0.2031043538
  0
VERTEX
  8
LAYER_1
 10
-5.4775
 20
212.6947
 42
0.201378382
  0
VERTEX
  8
LAYER_1
 10
-5.7886
 20
212.5658
  0
VERTEX
  8
LAYER_1
 10
-5.7886
 20
212.6806
  0
VERTEX
  8
LAYER_1
 10
-6.0925
 20
212.6806
  0
VERTEX
  8
LAYER_1
 10
-6.0925
 20
211.4352
  0
VERTEX
  8
LAYER_1
 10
-5.7814
 20
211.4352
  0
VERTEX
  8
LAYER_1
 10
-5.7814
 20
212.1883
 42
-0.4179621604
  0
VERTEX
  8
LAYER_1
 10
-5.573
 20
212.4149
 42
-0.4342829929
  0
VERTEX
  8
LAYER_1
 10
-5.3673
 20
212.1883
  0
VERTEX
  8
LAYER_1
 10
-5.3673
 20
211.4352
  0
SEQEND
  0
POLYLINE
  8
LAYER_1
 40
0.05
 41
0.05
 66
1
 10
0
 20
0
 30
0
 70
1
  0
VERTEX
  8
LAYER_1
 10
-6.437
 20
213.1467
  0
VERTEX
  8
LAYER_1
 10
-6.7553
 20
213.1467
  0
VERTEX
  8
LAYER_1
 10
-6.7553
 20
212.8931
  0
VERTEX
  8
LAYER_1
 10
-6.437
 20
212.8931
  0
SEQEND
  0
POLYLINE
  8
LAYER_1
 40
0.05
 41
0.05
 66
1
 10
0
 20
0
 30
0
 70
1
  0
VERTEX
  8
LAYER_1
 10
-6.4394
 20
212.6444
  0
VERTEX
  8
LAYER_1
 10
-6.7508
 20
212.6444
  0
VERTEX
  8
LAYER_1
 10
-6.7508
 20
211.4352
  0
VERTEX
  8
LAYER_1
 10
-6.4394
 20
211.4352
  0
SEQEND
  0
POLYLINE
  8
LAYER_1
 40
0.05
 41
0.05
 66
1
 10
0
 20
0
 30
0
  0
VERTEX
  8
LAYER_1
 10
-7.8994
 20
212.1738
  0
VERTEX
  8
LAYER_1
 10
-8.3735
 20
212.1738
 42
-0.1146919506
  0
VERTEX
  8
LAYER_1
 10
-8.3445
 20
212.3075
 42
-0.3018991672
  0
VERTEX
  8
LAYER_1
 10
-8.1365
 20
212.4363
 42
-0.2970494637
  0
VERTEX
  8
LAYER_1
 10
-7.9284
 20
212.3075
 42
-0.09886844151
  0
VERTEX
  8
LAYER_1
 10
-7.8994
 20
212.1738
  0
SEQEND
  0
POLYLINE
  8
LAYER_1
 40
0.05
 41
0.05
 66
1
 10
0
 20
0
 30
0
 70
1
  0
VERTEX
  8
LAYER_1
 10
-7.5932
 20
211.9609
  0
VERTEX
  8
LAYER_1
 10
-7.5932
 20
212.0925
 42
0.1891963687
  0
VERTEX
  8
LAYER_1
 10
-7.7571
 20
212.5502
 42
0.2074768028
  0
VERTEX
  8
LAYER_1
 10
-8.1365
 20
212.6947
 42
0.212635805
  0
VERTEX
  8
LAYER_1
 10
-8.5293
 20
212.5292
 42
0.1815550622
  0
VERTEX
  8
LAYER_1
 10
-8.6787
 20
212.1059
 42
0.01190200981
  0
VERTEX
  8
LAYER_1
 10
-8.6797
 20
212.0591
 42
0.1802869298
  0
VERTEX
  8
LAYER_1
 10
-8.5263
 20
211.5744
 42
0.2020040623
  0
VERTEX
  8
LAYER_1
 10
-8.158
 20
211.4223
 42
0.01696202641
  0
VERTEX
  8
LAYER_1
 10
-8.103
 20
211.4207
 42
0.2069028033
  0
VERTEX
  8
LAYER_1
 10
-7.6557
 20
211.5904
 42
0.01111068861
  0
VERTEX
  8
LAYER_1
 10
-7.629
 20
211.6167
  0
VERTEX
  8
LAYER_1
 10
-7.8181
 20
211.801
 42
-0.224324849
  0
VERTEX
  8
LAYER_1
 10
-8.1003
 20
211.6839
 42
-0.4264622019
  0
VERTEX
  8
LAYER_1
 10
-8.3735
 20
211.9609
  0
SEQEND
  0
POLYLINE
  8
LAYER_1
 40
0.05
 41
0.05
 66
1
 10
0
 20
0
 30
0
  0
VERTEX
  8
LAYER_1
 10
-9.2778
 20
212.0591
 42
-0.1438386142
  0
VERTEX
  8
LAYER_1
 10
-9.3235
 20
211.7869
 42
-0.2886460427
  0
VERTEX
  8
LAYER_1
 10
-9.4911
 20
211.7004
 42
-0.3841580528
  0
VERTEX
  8
LAYER_1
 10
-9.6851
 20
211.8609
 42
-0.05455021257
  0
VERTEX
  8
LAYER_1
 10
-9.7016
 20
212.0591
 42
-0.1483049254
  0
VERTEX
  8
LAYER_1
 10
-9.6559
 20
212.3323
 42
-0.2855556046
  0
VERTEX
  8
LAYER_1
 10
-9.4911
 20
212.4149
 42
-0.3794480357
  0
VERTEX
  8
LAYER_1
 10
-9.2951
 20
212.2564
 42
-0.05697683845
  0
VERTEX
  8
LAYER_1
 10
-9.2778
 20
212.0591
  0
SEQEND
  0
POLYLINE
  8
LAYER_1
 40
0.05
 41
0.05
 66
1
 10
0
 20
0
 30
0
 70
1
  0
VERTEX
  8
LAYER_1
 10
-8.9667
 20
211.4352
  0
VERTEX
  8
LAYER_1
 10
-8.9667
 20
213.137
  0
VERTEX
  8
LAYER_1
 10
-9.2778
 20
213.137
  0
VERTEX
  8
LAYER_1
 10
-9.2778
 20
212.5707
 42
0.2300395261
  0
VERTEX
  8
LAYER_1
 10
-9.582
 20
212.6947
 42
0.1954770263
  0
VERTEX
  8
LAYER_1
 10
-9.8835
 20
212.5824
 42
0.1230294745
  0
VERTEX
  8
LAYER_1
 10
-9.9795
 20
212.4101
 42
0.0747779445
  0
VERTEX
  8
LAYER_1
 10
-10.013
 20
212.0591
 42
0.0994778514
  0
VERTEX
  8
LAYER_1
 10
-9.9681
 20
211.6705
 42
0.1088456143
  0
VERTEX
  8
LAYER_1
 10
-9.8835
 20
211.533
 42
0.2047870903
  0
VERTEX
  8
LAYER_1
 10
-9.5796
 20
211.4207
 42
0.2301062358
  0
VERTEX
  8
LAYER_1
 10
-9.2709
 20
211.5523
  0
VERTEX
  8
LAYER_1
 10
-9.2709
 20
211.4352
  0
SEQEND
  0
POLYLINE
  8
LAYER_1
 40
0.05
 41
0.05
 66
1
 10
0
 20
0
 30
0
 70
1
  0
VERTEX
  8
LAYER_1
 10
-10.6062
 20
211.894
 42
-0.2466163696
  0
VERTEX
  8
LAYER_1
 10
-10.6541
 20
211.7363
 42
-0.212724989
  0
VERTEX
  8
LAYER_1
 10
-10.8384
 20
211.6763
 42
-0.2059659062
  0
VERTEX
  8
LAYER_1
 10
-10.9909
 20
211.7231
 42
-0.2055032453
  0
VERTEX
  8
LAYER_1
 10
-11.0272
 20
211.8176
 42
-0.4727797621
  0
VERTEX
  8
LAYER_1
 10
-10.8433
 20
211.9609
  0
VERTEX
  8
LAYER_1
 10
-10.6062
 20
211.9609
  0
SEQEND
  0
POLYLINE
  8
LAYER_1
 40
0.05
 41
0.05
 66
1
 10
0
 20
0
 30
0
 70
1
  0
VERTEX
  8
LAYER_1
 10
-10.2952
 20
211.4352
  0
VERTEX
  8
LAYER_1
 10
-10.2952
 20
212.2551
 42
0.2449717567
  0
VERTEX
  8
LAYER_1
 10
-10.4551
 20
212.6039
 42
0.1631604865
  0
VERTEX
  8
LAYER_1
 10
-10.8267
 20
212.6947
 42
0.223003002
  0
VERTEX
  8
LAYER_1
 10
-11.2625
 20
212.5302
 42
0.006267388191
  0
VERTEX
  8
LAYER_1
 10
-11.2739
 20
212.5179
  0
VERTEX
  8
LAYER_1
 10
-11.0779
 20
212.3243
 42
-0.2470834876
  0
VERTEX
  8
LAYER_1
 10
-10.8384
 20
212.4322
 42
-0.1872740545
  0
VERTEX
  8
LAYER_1
 10
-10.6621
 20
212.3865
 42
-0.238797369
  0
VERTEX
  8
LAYER_1
 10
-10.6062
 20
212.2358
  0
VERTEX
  8
LAYER_1
 10
-10.6062
 20
212.1738
  0
VERTEX
  8
LAYER_1
 10
-10.896
 20
212.1738
 42
0.2346153399
  0
VERTEX
  8
LAYER_1
 10
-11.268
 20
212.0142
 42
0.1531846975
  0
VERTEX
  8
LAYER_1
 10
-11.3266
 20
211.8127
 42
0.1894880782
  0
VERTEX
  8
LAYER_1
 10
-11.2239
 20
211.533
 42
0.2078362131
  0
VERTEX
  8
LAYER_1
 10
-10.9053
 20
211.4228
 42
0.2218282602
  0
VERTEX
  8
LAYER_1
 10
-10.599
 20
211.5426
  0
VERTEX
  8
LAYER_1
 10
-10.599
 20
211.4352
  0
SEQEND
  0
POLYLINE
  8
LAYER_1
 40
0.05
 41
0.05
 66
1
 10
0
 20
0
 30
0
 70
1
  0
VERTEX
  8
LAYER_1
 10
-11.5733
 20
211.4352
  0
VERTEX
  8
LAYER_1
 10
-11.5733
 20
212.231
 42
0.205542241
  0
VERTEX
  8
LAYER_1
 10
-11.7097
 20
212.5844
 42
0.1987814349
  0
VERTEX
  8
LAYER_1
 10
-12.016
 20
212.6947
 42
0.2182066523
  0
VERTEX
  8
LAYER_1
 10
-12.3894
 20
212.5369
 42
0.2491445422
  0
VERTEX
  8
LAYER_1
 10
-12.7198
 20
212.6947
 42
0.1964079247
  0
VERTEX
  8
LAYER_1
 10
-13.0309
 20
212.5658
  0
VERTEX
  8
LAYER_1
 10
-13.0309
 20
212.6806
  0
VERTEX
  8
LAYER_1
 10
-13.3348
 20
212.6806
  0
VERTEX
  8
LAYER_1
 10
-13.3348
 20
211.4352
  0
VERTEX
  8
LAYER_1
 10
-13.0233
 20
211.4352
  0
VERTEX
  8
LAYER_1
 10
-13.0233
 20
212.1883
 42
-0.4179659679
  0
VERTEX
  8
LAYER_1
 10
-12.8152
 20
212.4149
 42
-0.4342681599
  0
VERTEX
  8
LAYER_1
 10
-12.6096
 20
212.1883
  0
VERTEX
  8
LAYER_1
 10
-12.6096
 20
211.4352
  0
VERTEX
  8
LAYER_1
 10
-12.2985
 20
211.4352
  0
VERTEX
  8
LAYER_1
 10
-12.2985
 20
212.1951
 42
-0.4176164983
  0
VERTEX
  8
LAYER_1
 10
-12.0904
 20
212.4149
 42
-0.4347166888
  0
VERTEX
  8
LAYER_1
 10
-11.8844
 20
212.1883
  0
VERTEX
  8
LAYER_1
 10
-11.8844
 20
211.4352
  0
SEQEND
  0
POLYLINE
  8
LAYER_1
 40
0.05
 41
0.05
 66
1
 10
0
 20
0
 30
0
  0
VERTEX
  8
LAYER_1
 10
-13.8973
 20
212.0229
 42
-0.1159545013
  0
VERTEX
  8
LAYER_1
 10
-13.9445
 20
211.7201
 42
-0.3130236509
  0
VERTEX
  8
LAYER_1
 10
-14.1916
 20
211.5736
 42
-0.3150185863
  0
VERTEX
  8
LAYER_1
 10
-14.446
 20
211.7323
 42
-0.1052799031
  0
VERTEX
  8
LAYER_1
 10
-14.4882
 20
212.0229
 42
-0.113922501
  0
VERTEX
  8
LAYER_1
 10
-14.4424
 20
212.3219
 42
-0.3163703602
  0
VERTEX
  8
LAYER_1
 10
-14.1916
 20
212.4725
 42
-0.3164274474
  0
VERTEX
  8
LAYER_1
 10
-13.9391
 20
212.3138
 42
-0.1034386904
  0
VERTEX
  8
LAYER_1
 10
-13.8973
 20
212.0229
  0
SEQEND
  0
POLYLINE
  8
LAYER_1
 40
0.05
 41
0.05
 66
1
 10
0
 20
0
 30
0
 70
1
  0
VERTEX
  8
LAYER_1
 10
-13.7247
 20
211.4352
  0
VERTEX
  8
LAYER_1
 10
-13.7247
 20
213.137
  0
VERTEX
  8
LAYER_1
 10
-13.8973
 20
213.137
  0
VERTEX
  8
LAYER_1
 10
-13.8973
 20
212.4749
 42
0.2525818121
  0
VERTEX
  8
LAYER_1
 10
-14.2298
 20
212.6258
 42
0.1886393528
  0
VERTEX
  8
LAYER_1
 10
-14.5171
 20
212.5224
 42
0.1172978386
  0
VERTEX
  8
LAYER_1
 10
-14.6205
 20
212.3434
 42
0.07876818405
  0
VERTEX
  8
LAYER_1
 10
-14.6608
 20
212.0229
 42
0.09207329595
  0
VERTEX
  8
LAYER_1
 10
-14.6127
 20
211.6805
 42
0.1077667615
  0
VERTEX
  8
LAYER_1
 10
-14.5171
 20
211.5234
 42
0.198210181
  0
VERTEX
  8
LAYER_1
 10
-14.2298
 20
211.4207
 42
0.2515984765
  0
VERTEX
  8
LAYER_1
 10
-13.8949
 20
211.5761
  0
VERTEX
  8
LAYER_1
 10
-13.8949
 20
211.4352
  0
SEQEND
  0
POLYLINE
  8
LAYER_1
 40
0.05
 41
0.05
 66
1
 10
0
 20
0
 30
0
 70
1
  0
VERTEX
  8
LAYER_1
 10
-15.0173
 20
211.4352
  0
VERTEX
  8
LAYER_1
 10
-15.0173
 20
212.1883
 42
0.202703885
  0
VERTEX
  8
LAYER_1
 10
-15.1393
 20
212.5155
 42
0.2046678658
  0
VERTEX
  8
LAYER_1
 10
-15.4411
 20
212.6258
 42
0.2165707378
  0
VERTEX
  8
LAYER_1
 10
-15.7711
 20
212.4818
  0
VERTEX
  8
LAYER_1
 10
-15.7711
 20
212.6113
  0
VERTEX
  8
LAYER_1
 10
-15.9434
 20
212.6113
  0
VERTEX
  8
LAYER_1
 10
-15.9434
 20
211.4352
  0
VERTEX
  8
LAYER_1
 10
-15.7711
 20
211.4352
  0
VERTEX
  8
LAYER_1
 10
-15.7711
 20
212.1593
 42
-0.2837547598
  0
VERTEX
  8
LAYER_1
 10
-15.6189
 20
212.4442
 42
-0.1086336204
  0
VERTEX
  8
LAYER_1
 10
-15.479
 20
212.4725
 42
-0.442304779
  0
VERTEX
  8
LAYER_1
 10
-15.1896
 20
212.1593
  0
VERTEX
  8
LAYER_1
 10
-15.1896
 20
211.4352
  0
SEQEND
  0
POLYLINE
  8
LAYER_1
 40
0.05
 41
0.05
 66
1
 10
0
 20
0
 30
0
 70
1
  0
VERTEX
  8
LAYER_1
 10
-16.5346
 20
211.8506
 42
-0.2101171453
  0
VERTEX
  8
LAYER_1
 10
-16.5945
 20
211.6477
 42
-0.2061049303
  0
VERTEX
  8
LAYER_1
 10
-16.8553
 20
211.5688
 42
-0.1622506966
  0
VERTEX
  8
LAYER_1
 10
-17.0584
 20
211.615
 42
-0.2627350918
  0
VERTEX
  8
LAYER_1
 10
-17.1282
 20
211.77
 42
-0.376646919
  0
VERTEX
  8
LAYER_1
 10
-16.9692
 20
211.9668
 42
-0.05118405332
  0
VERTEX
  8
LAYER_1
 10
-16.8625
 20
211.9774
  0
VERTEX
  8
LAYER_1
 10
-16.5346
 20
211.9774
  0
SEQEND
  0
POLYLINE
  8
LAYER_1
 40
0.05
 41
0.05
 66
1
 10
0
 20
0
 30
0
 70
1
  0
VERTEX
  8
LAYER_1
 10
-16.362
 20
211.4352
  0
VERTEX
  8
LAYER_1
 10
-16.362
 20
212.233
 42
0.2623610217
  0
VERTEX
  8
LAYER_1
 10
-16.5224
 20
212.5561
 42
0.1450933816
  0
VERTEX
  8
LAYER_1
 10
-16.8336
 20
212.6258
 42
0.2362276322
  0
VERTEX
  8
LAYER_1
 10
-17.2355
 20
212.4672
 42
0.01170794038
  0
VERTEX
  8
LAYER_1
 10
-17.2501
 20
212.4487
  0
VERTEX
  8
LAYER_1
 10
-17.133
 20
212.3409
 42
-0.2755800686
  0
VERTEX
  8
LAYER_1
 10
-16.8364
 20
212.4776
 42
-0.1517468402
  0
VERTEX
  8
LAYER_1
 10
-16.6283
 20
212.4308
 42
-0.2800643637
  0
VERTEX
  8
LAYER_1
 10
-16.5346
 20
212.2193
  0
VERTEX
  8
LAYER_1
 10
-16.5346
 20
212.1066
  0
VERTEX
  8
LAYER_1
 10
-16.8863
 20
212.1066
 42
0.2378691362
  0
VERTEX
  8
LAYER_1
 10
-17.2451
 20
211.9523
 42
0.1477379502
  0
VERTEX
  8
LAYER_1
 10
-17.2956
 20
211.7673
 42
0.1985438552
  0
VERTEX
  8
LAYER_1
 10
-17.207
 20
211.5282
 42
0.2224112685
  0
VERTEX
  8
LAYER_1
 10
-16.8742
 20
211.4207
 42
0.21971579
  0
VERTEX
  8
LAYER_1
 10
-16.5346
 20
211.5471
  0
VERTEX
  8
LAYER_1
 10
-16.5346
 20
211.4352
  0
SEQEND
  0
POLYLINE
  8
LAYER_1
 40
0.05
 41
0.05
 66
1
 10
0
 20
0
 30
0
 70
1
  0
VERTEX
  8
LAYER_1
 10
-17.6211
 20
211.4352
  0
VERTEX
  8
LAYER_1
 10
-17.6211
 20
212.1903
 42
0.2366048602
  0
VERTEX
  8
LAYER_1
 10
-17.7848
 20
212.5524
 42
0.1585996094
  0
VERTEX
  8
LAYER_1
 10
-18.0449
 20
212.6258
 42
0.2174282511
  0
VERTEX
  8
LAYER_1
 10
-18.3749
 20
212.4818
  0
VERTEX
  8
LAYER_1
 10
-18.3749
 20
213.137
  0
VERTEX
  8
LAYER_1
 10
-18.5475
 20
213.137
  0
VERTEX
  8
LAYER_1
 10
-18.5475
 20
211.4352
  0
VERTEX
  8
LAYER_1
 10
-18.3749
 20
211.4352
  0
VERTEX
  8
LAYER_1
 10
-18.3749
 20
212.1617
 42
-0.2889308341
  0
VERTEX
  8
LAYER_1
 10
-18.2221
 20
212.4453
 42
-0.1047577161
  0
VERTEX
  8
LAYER_1
 10
-18.0807
 20
212.4725
 42
-0.4463558923
  0
VERTEX
  8
LAYER_1
 10
-17.7934
 20
212.1617
  0
VERTEX
  8
LAYER_1
 10
-17.7934
 20
211.4352
  0
SEQEND
  0
ENDBLK
  0
BLOCK
  8
LAYER_1
  2
AIGNBL01020007
 70
64
 10
0
 20
0
 30
0
  3
AIGNBL01020007
  0
INSERT
  8
LAYER_1
  2
AIGNBL01030008
 10
0
 20
0
 30
0
  0
INSERT
  8
LAYER_1
  2
AIGNBL01030009
 10
0
 20
0
 30
0
  0
ENDBLK
  0
BLOCK
  8
LAYER_1
  2
AIGNBL0102000D
 70
64
 10
0
 20
0
 30
0
  3
AIGNBL0102000D
  0
INSERT
  8
LAYER_1
  2
AIGNBL0103000E
 10
0
 20
0
 30
0
  0
INSERT
  8
LAYER_1
  2
AIGNBL01030010
 10
0
 20
0
 30
0
  0
ENDBLK
  0
BLOCK
  8
LAYER_1
  2
AIGNBL01020012
 70
64
 10
0
 20
0
 30
0
  3
AIGNBL01020012
  0
INSERT
  8
LAYER_1
  2
AIGNBL01030013
 10
0
 20
0
 30
0
  0
INSERT
  8
LAYER_1
  2
AIGNBL01030015
 10
0
 20
0
 30
0
  0
ENDBLK
  0
BLOCK
  8
LAYER_1
  2
AIGNBL01020017
 70
64
 10
0
 20
0
 30
0
  3
AIGNBL01020017
  0
INSERT
  8
LAYER_1
  2
AIGNBL01030018
 10
0
 20
0
 30
0
  0
INSERT
  8
LAYER_1
  2
AIGNBL01030019
 10
0
 20
0
 30
0
  0
ENDBLK
  0
BLOCK
  8
LAYER_1
  2
AIGNBL01020023
 70
64
 10
0
 20
0
 30
0
  3
AIGNBL01020023
  0
INSERT
  8
LAYER_1
  2
AIGNBL01030024
 10
0
 20
0
 30
0
  0
ENDBLK
  0
BLOCK
  8
LAYER_1
  2
AIGNBL0102002C
 70
64
 10
0
 20
0
 30
0
  3
AIGNBL0102002C
  0
INSERT
  8
LAYER_1
  2
AIGNBL0103002D
 10
0
 20
0
 30
0
  0
INSERT
  8
LAYER_1
  2
AIGNBL0103002E
 10
0
 20
0
 30
0
  0
INSERT
  8
LAYER_1
  2
AIGNBL0103002F
 10
0
 20
0
 30
0
  0
INSERT
  8
LAYER_1
  2
AIGNBL01030030
 10
0
 20
0
 30
0
  0
INSERT
  8
LAYER_1
  2
AIGNBL01030031
 10
0
 20
0
 30
0
  0
INSERT
  8
LAYER_1
  2
AIGNBL01030032
 10
0
 20
0
 30
0
  0
INSERT
  8
LAYER_1
  2
AIGNBL01030033
 10
0
 20
0
 30
0
  0
INSERT
  8
LAYER_1
  2
AIGNBL01030034
 10
0
 20
0
 30
0
  0
INSERT
  8
LAYER_1
  2
AIGNBL01030035
 10
0
 20
0
 30
0
  0
INSERT
  8
LAYER_1
  2
AIGNBL01030036
 10
0
 20
0
 30
0
  0
INSERT
  8
LAYER_1
  2
AIGNBL01030037
 10
0
 20
0
 30
0
  0
INSERT
  8
LAYER_1
  2
AIGNBL01030038
 10
0
 20
0
 30
0
  0
INSERT
  8
LAYER_1
  2
AIGNBL01030039
 10
0
 20
0
 30
0
  0
INSERT
  8
LAYER_1
  2
AIGNBL0103003A
 10
0
 20
0
 30
0
  0
INSERT
  8
LAYER_1
  2
AIGNBL0103003B
 10
0
 20
0
 30
0
  0
INSERT
  8
LAYER_1
  2
AIGNBL0103003C
 10
0
 20
0
 30
0
  0
INSERT
  8
LAYER_1
  2
AIGNBL0103003D
 10
0
 20
0
 30
0
  0
INSERT
  8
LAYER_1
  2
AIGNBL0103003E
 10
0
 20
0
 30
0
  0
INSERT
  8
LAYER_1
  2
AIGNBL0103003F
 10
0
 20
0
 30
0
  0
INSERT
  8
LAYER_1
  2
AIGNBL01030040
 10
0
 20
0
 30
0
  0
INSERT
  8
LAYER_1
  2
AIGNBL01030041
 10
0
 20
0
 30
0
  0
INSERT
  8
LAYER_1
  2
AIGNBL01030042
 10
0
 20
0
 30
0
  0
INSERT
  8
LAYER_1
  2
AIGNBL01030043
 10
0
 20
0
 30
0
  0
ENDBLK
  0
BLOCK
  8
LAYER_1
  2
AIGNBL01010002
 70
64
 10
0
 20
0
 30
0
  3
AIGNBL01010002
  0
POLYLINE
  8
LAYER_1
 40
0.7056
 41
0.7056
 66
1
 10
0
 20
0
 30
0
 70
1
  0
VERTEX
  8
LAYER_1
 10
251.6749
 20
230.337
  0
VERTEX
  8
LAYER_1
 10
251.6749
 20
33.3285
  0
VERTEX
  8
LAYER_1
 10
-30.3177
 20
33.3285
  0
VERTEX
  8
LAYER_1
 10
-30.3177
 20
230.337
  0
SEQEND
  0
ENDBLK
  0
BLOCK
  8
LAYER_1
  2
AIGNBL01010003
 70
64
 10
0
 20
0
 30
0
  3
AIGNBL01010003
  0
INSERT
  8
LAYER_1
  2
AIGNBL01020004
 10
0
 20
0
 30
0
  0
POLYLINE
  8
LAYER_1
 40
0.05
 41
0.05
 66
1
 10
0
 20
0
 30
0
  0
VERTEX
  8
LAYER_1
 10
-6.457
 20
223.2684
  0
VERTEX
  8
LAYER_1
 10
-8.0924
 20
223.2684
  0
VERTEX
  8
LAYER_1
 10
-8.0924
 20
216.1939
 42
0.1050424825
  0
VERTEX
  8
LAYER_1
 10
-7.9127
 20
215.3316
 42
0.1079536646
  0
VERTEX
  8
LAYER_1
 10
-7.4796
 20
214.75
 42
0.105678841
  0
VERTEX
  8
LAYER_1
 10
-6.8587
 20
214.4154
 42
0.04706827067
  0
VERTEX
  8
LAYER_1
 10
-6.4597
 20
214.3359
  0
VERTEX
  8
LAYER_1
 10
-6.457
 20
223.2684
  0
SEQEND
  0
INSERT
  8
LAYER_1
  2
AIGNBL01020005
 10
0
 20
0
 30
0
  0
ENDBLK
  0
BLOCK
  8
LAYER_1
  2
AIGNBL01010006
 70
64
 10
0
 20
0
 30
0
  3
AIGNBL01010006
  0
POLYLINE
  8
LAYER_1
 40
0.1411
 41
0.1411
 66
1
 10
0
 20
0
 30
0
  0
VERTEX
  8
LAYER_1
 10
68.9722
 20
126.6458
  0
VERTEX
  8
LAYER_1
 10
69.316
 20
126.7678
  0
VERTEX
  8
LAYER_1
 10
69.4325
 20
126.7981
  0
VERTEX
  8
LAYER_1
 10
69.7487
 20
126.9459
  0
VERTEX
  8
LAYER_1
 10
69.9155
 20
127.1109
  0
VERTEX
  8
LAYER_1
 10
69.9499
 20
127.2556
  0
VERTEX
  8
LAYER_1
 10
69.9244
 20
127.3528
  0
VERTEX
  8
LAYER_1
 10
69.737
 20
127.607
  0
VERTEX
  8
LAYER_1
 10
69.3856
 20
127.8144
  0
VERTEX
  8
LAYER_1
 10
68.9253
 20
127.9419
  0
VERTEX
  8
LAYER_1
 10
68.4196
 20
127.9784
  0
VERTEX
  8
LAYER_1
 10
67.9462
 20
127.9078
  0
VERTEX
  8
LAYER_1
 10
67.5742
 20
127.7497
  0
VERTEX
  8
LAYER_1
 10
67.3599
 20
127.525
  0
VERTEX
  8
LAYER_1
 10
67.3406
 20
127.3073
  0
VERTEX
  8
LAYER_1
 10
67.4364
 20
127.1071
  0
VERTEX
  8
LAYER_1
 10
67.6148
 20
126.9118
  0
VERTEX
  8
LAYER_1
 10
67.7271
 20
126.7995
  0
SEQEND
  0
POLYLINE
  8
LAYER_1
 40
0.1411
 41
0.1411
 66
1
 10
0
 20
0
 30
0
 70
1
  0
VERTEX
  8
LAYER_1
 10
76.0043
 20
141.2434
  0
VERTEX
  8
LAYER_1
 10
75.9354
 20
141.2458
  0
VERTEX
  8
LAYER_1
 10
40.5383
 20
134.4056
  0
VERTEX
  8
LAYER_1
 10
40.4611
 20
134.3615
  0
VERTEX
  8
LAYER_1
 10
40.3812
 20
134.2895
  0
VERTEX
  8
LAYER_1
 10
40.3385
 20
134.2009
  0
VERTEX
  8
LAYER_1
 10
40.3378
 20
134.1041
  0
VERTEX
  8
LAYER_1
 10
41.342
 20
129.3303
  0
VERTEX
  8
LAYER_1
 10
41.3761
 20
129.2548
  0
VERTEX
  8
LAYER_1
 10
53.539
 20
116.2106
  0
VERTEX
  8
LAYER_1
 10
53.8563
 20
115.853
  0
VERTEX
  8
LAYER_1
 10
54.5929
 20
115.1833
  0
VERTEX
  8
LAYER_1
 10
55.3363
 20
114.7768
  0
VERTEX
  8
LAYER_1
 10
56.1759
 20
114.4688
  0
VERTEX
  8
LAYER_1
 10
57.0758
 20
114.2686
  0
VERTEX
  8
LAYER_1
 10
58.0311
 20
114.1732
  0
VERTEX
  8
LAYER_1
 10
58.9985
 20
114.1863
  0
VERTEX
  8
LAYER_1
 10
59.955
 20
114.309
  0
VERTEX
  8
LAYER_1
 10
60.4745
 20
114.4233
  0
VERTEX
  8
LAYER_1
 10
60.9858
 20
114.5749
  0
VERTEX
  8
LAYER_1
 10
90.2898
 20
124.6477
  0
VERTEX
  8
LAYER_1
 10
90.6012
 20
124.7634
  0
VERTEX
  8
LAYER_1
 10
90.7514
 20
124.8365
  0
VERTEX
  8
LAYER_1
 10
90.8851
 20
124.9061
  0
VERTEX
  8
LAYER_1
 10
91.2964
 20
125.2113
  0
VERTEX
  8
LAYER_1
 10
91.5741
 20
125.5662
  0
VERTEX
  8
LAYER_1
 10
91.6809
 20
125.8232
  0
VERTEX
  8
LAYER_1
 10
92.4168
 20
130.7496
  0
VERTEX
  8
LAYER_1
 10
92.3299
 20
131.4518
  0
VERTEX
  8
LAYER_1
 10
91.8083
 20
132.157
  0
VERTEX
  8
LAYER_1
 10
90.9657
 20
132.7681
  0
SEQEND
  0
POLYLINE
  8
LAYER_1
 40
0.1411
 41
0.1411
 66
1
 10
0
 20
0
 30
0
  0
VERTEX
  8
LAYER_1
 10
92.4168
 20
130.7496
  0
VERTEX
  8
LAYER_1
 10
92.0578
 20
130.1557
  0
VERTEX
  8
LAYER_1
 10
91.6037
 20
129.8525
  0
VERTEX
  8
LAYER_1
 10
91.0215
 20
129.6286
  0
VERTEX
  8
LAYER_1
 10
60.4042
 20
120.2545
  0
VERTEX
  8
LAYER_1
 10
59.3716
 20
120.0127
  0
VERTEX
  8
LAYER_1
 10
58.2226
 20
119.8852
  0
VERTEX
  8
LAYER_1
 10
57.0072
 20
119.8921
  0
VERTEX
  8
LAYER_1
 10
55.8152
 20
120.0464
  0
VERTEX
  8
LAYER_1
 10
54.7252
 20
120.3468
  0
VERTEX
  8
LAYER_1
 10
53.8064
 20
120.7596
  0
VERTEX
  8
LAYER_1
 10
53.0998
 20
121.2543
  0
VERTEX
  8
LAYER_1
 10
52.614
 20
121.7834
  0
VERTEX
  8
LAYER_1
 10
40.3378
 20
134.1041
  0
SEQEND
  0
POLYLINE
  8
LAYER_1
 40
0.1411
 41
0.1411
 66
1
 10
0
 20
0
 30
0
 70
1
  0
VERTEX
  8
LAYER_1
 10
74.2129
 20
140.7477
  0
VERTEX
  8
LAYER_1
 10
74.5608
 20
140.7532
  0
VERTEX
  8
LAYER_1
 10
74.8674
 20
140.6643
  0
VERTEX
  8
LAYER_1
 10
88.6588
 20
132.5969
  0
VERTEX
  8
LAYER_1
 10
88.8738
 20
132.4736
  0
VERTEX
  8
LAYER_1
 10
89.1453
 20
132.2937
  0
VERTEX
  8
LAYER_1
 10
89.4733
 20
132.0774
  0
VERTEX
  8
LAYER_1
 10
89.5387
 20
131.9513
  0
VERTEX
  8
LAYER_1
 10
89.6283
 20
131.7835
  0
VERTEX
  8
LAYER_1
 10
89.6827
 20
131.6764
  0
VERTEX
  8
LAYER_1
 10
89.6896
 20
131.6082
  0
VERTEX
  8
LAYER_1
 10
89.6751
 20
131.5114
  0
VERTEX
  8
LAYER_1
 10
89.5553
 20
131.2816
  0
VERTEX
  8
LAYER_1
 10
89.2342
 20
131.1241
  0
VERTEX
  8
LAYER_1
 10
89.1081
 20
131.0811
  0
VERTEX
  8
LAYER_1
 10
58.8455
 20
122.2844
  0
VERTEX
  8
LAYER_1
 10
57.9959
 20
122.1314
  0
VERTEX
  8
LAYER_1
 10
57.0234
 20
122.2017
  0
VERTEX
  8
LAYER_1
 10
56.1208
 20
122.5476
  0
VERTEX
  8
LAYER_1
 10
55.8875
 20
122.6985
  0
VERTEX
  8
LAYER_1
 10
55.5079
 20
123.1132
  0
VERTEX
  8
LAYER_1
 10
55.2592
 20
123.4295
  0
VERTEX
  8
LAYER_1
 10
43.1248
 20
134.4645
  0
VERTEX
  8
LAYER_1
 10
43.1641
 20
134.6557
  0
VERTEX
  8
LAYER_1
 10
43.4955
 20
134.7956
  0
SEQEND
  0
POLYLINE
  8
LAYER_1
 40
0.1411
 41
0.1411
 66
1
 10
0
 20
0
 30
0
  0
VERTEX
  8
LAYER_1
 10
74.4775
 20
140.1585
  0
VERTEX
  8
LAYER_1
 10
77.0337
 20
138.6269
  0
VERTEX
  8
LAYER_1
 10
77.966
 20
137.8393
  0
VERTEX
  8
LAYER_1
 10
78.9147
 20
136.6766
  0
VERTEX
  8
LAYER_1
 10
79.9579
 20
134.8975
  0
VERTEX
  8
LAYER_1
 10
80.7923
 20
133.7379
  0
VERTEX
  8
LAYER_1
 10
81.8382
 20
132.6996
  0
VERTEX
  8
LAYER_1
 10
83.2686
 20
131.7356
  0
VERTEX
  8
LAYER_1
 10
84.8803
 20
130.8041
  0
VERTEX
  8
LAYER_1
 10
86.0289
 20
130.2088
  0
SEQEND
  0
POLYLINE
  8
LAYER_1
 40
0.1411
 41
0.1411
 66
1
 10
0
 20
0
 30
0
  0
VERTEX
  8
LAYER_1
 10
74.5608
 20
140.7532
  0
VERTEX
  8
LAYER_1
 10
74.4775
 20
140.1585
  0
VERTEX
  8
LAYER_1
 10
43.4594
 20
134.0321
  0
SEQEND
  0
POLYLINE
  8
LAYER_1
 40
0.1411
 41
0.1411
 66
1
 10
0
 20
0
 30
0
 70
1
  0
VERTEX
  8
LAYER_1
 10
70.3551
 20
128.1865
  0
VERTEX
  8
LAYER_1
 10
69.9637
 20
128.4338
  0
VERTEX
  8
LAYER_1
 10
69.4579
 20
128.6206
  0
VERTEX
  8
LAYER_1
 10
69.0783
 20
128.6995
  0
VERTEX
  8
LAYER_1
 10
68.4919
 20
128.748
  0
VERTEX
  8
LAYER_1
 10
67.9159
 20
128.7105
  0
VERTEX
  8
LAYER_1
 10
67.395
 20
128.5923
  0
VERTEX
  8
LAYER_1
 10
66.9789
 20
128.3994
  0
VERTEX
  8
LAYER_1
 10
66.6915
 20
128.1507
  0
VERTEX
  8
LAYER_1
 10
66.5682
 20
127.8571
  0
VERTEX
  8
LAYER_1
 10
66.624
 20
127.5498
  0
VERTEX
  8
LAYER_1
 10
66.6819
 20
127.4465
  0
VERTEX
  8
LAYER_1
 10
66.8562
 20
127.2474
  0
VERTEX
  8
LAYER_1
 10
67.107
 20
127.0658
  0
VERTEX
  8
LAYER_1
 10
67.5866
 20
126.8429
  0
VERTEX
  8
LAYER_1
 10
67.7699
 20
126.7843
  0
VERTEX
  8
LAYER_1
 10
68.3638
 20
126.6693
  0
VERTEX
  8
LAYER_1
 10
68.9722
 20
126.6458
  0
VERTEX
  8
LAYER_1
 10
69.5585
 20
126.7147
  0
VERTEX
  8
LAYER_1
 10
70.0539
 20
126.8725
  0
VERTEX
  8
LAYER_1
 10
70.4253
 20
127.103
  0
VERTEX
  8
LAYER_1
 10
70.6382
 20
127.3845
  0
VERTEX
  8
LAYER_1
 10
70.6761
 20
127.6918
  0
VERTEX
  8
LAYER_1
 10
70.6024
 20
127.9009
  0
SEQEND
  0
POLYLINE
  8
LAYER_1
 40
0.1411
 41
0.1411
 66
1
 10
0
 20
0
 30
0
 70
1
  0
VERTEX
  8
LAYER_1
 10
64.9263
 20
133.7992
  0
VERTEX
  8
LAYER_1
 10
64.8126
 20
133.8113
  0
VERTEX
  8
LAYER_1
 10
64.6527
 20
133.7965
  0
VERTEX
  8
LAYER_1
 10
64.5156
 20
133.7445
  0
VERTEX
  8
LAYER_1
 10
64.4378
 20
133.6887
  0
VERTEX
  8
LAYER_1
 10
64.3757
 20
133.616
  0
VERTEX
  8
LAYER_1
 10
64.3358
 20
133.546
  0
VERTEX
  8
LAYER_1
 10
64.3124
 20
133.4678
  0
VERTEX
  8
LAYER_1
 10
64.3
 20
133.3848
  0
VERTEX
  8
LAYER_1
 10
64.3117
 20
133.2411
  0
VERTEX
  8
LAYER_1
 10
64.3585
 20
133.094
  0
VERTEX
  8
LAYER_1
 10
64.4123
 20
133.0017
  0
VERTEX
  8
LAYER_1
 10
64.4694
 20
132.9139
  0
VERTEX
  8
LAYER_1
 10
64.5439
 20
132.8312
  0
VERTEX
  8
LAYER_1
 10
64.6265
 20
132.7595
  0
VERTEX
  8
LAYER_1
 10
64.7106
 20
132.7044
  0
VERTEX
  8
LAYER_1
 10
64.7954
 20
132.6582
  0
VERTEX
  8
LAYER_1
 10
64.896
 20
132.6245
  0
VERTEX
  8
LAYER_1
 10
64.9979
 20
132.6048
  0
VERTEX
  8
LAYER_1
 10
65.0944
 20
132.6038
  0
VERTEX
  8
LAYER_1
 10
65.1833
 20
132.6183
  0
VERTEX
  8
LAYER_1
 10
65.2756
 20
132.6472
  0
VERTEX
  8
LAYER_1
 10
65.3576
 20
132.6951
  0
VERTEX
  8
LAYER_1
 10
65.4224
 20
132.7502
  0
VERTEX
  8
LAYER_1
 10
65.4747
 20
132.8174
  0
VERTEX
  8
LAYER_1
 10
65.5168
 20
132.8959
  0
VERTEX
  8
LAYER_1
 10
65.545
 20
132.9862
  0
VERTEX
  8
LAYER_1
 10
65.5567
 20
133.0737
  0
VERTEX
  8
LAYER_1
 10
65.5533
 20
133.1653
  0
VERTEX
  8
LAYER_1
 10
65.5333
 20
133.2618
  0
VERTEX
  8
LAYER_1
 10
65.4975
 20
133.3562
  0
VERTEX
  8
LAYER_1
 10
65.4162
 20
133.494
  0
VERTEX
  8
LAYER_1
 10
65.3052
 20
133.6132
  0
VERTEX
  8
LAYER_1
 10
65.2239
 20
133.6766
  0
VERTEX
  8
LAYER_1
 10
65.1337
 20
133.7286
  0
VERTEX
  8
LAYER_1
 10
65.0386
 20
133.7675
  0
SEQEND
  0
POLYLINE
  8
LAYER_1
 40
0.1411
 41
0.1411
 66
1
 10
0
 20
0
 30
0
  0
VERTEX
  8
LAYER_1
 10
64.3062
 20
133.2994
  0
VERTEX
  8
LAYER_1
 10
64.3544
 20
133.3831
  0
VERTEX
  8
LAYER_1
 10
64.4026
 20
133.4451
  0
VERTEX
  8
LAYER_1
 10
64.4584
 20
133.4926
  0
VERTEX
  8
LAYER_1
 10
64.5749
 20
133.5381
  0
VERTEX
  8
LAYER_1
 10
64.7051
 20
133.5505
  0
VERTEX
  8
LAYER_1
 10
64.765
 20
133.545
  0
VERTEX
  8
LAYER_1
 10
64.8939
 20
133.514
  0
VERTEX
  8
LAYER_1
 10
65.1123
 20
133.3869
  0
VERTEX
  8
LAYER_1
 10
65.2715
 20
133.1788
  0
VERTEX
  8
LAYER_1
 10
65.2997
 20
133.0958
  0
VERTEX
  8
LAYER_1
 10
65.3135
 20
133.022
  0
VERTEX
  8
LAYER_1
 10
65.2542
 20
132.7692
  0
VERTEX
  8
LAYER_1
 10
65.1778
 20
132.7154
  0
VERTEX
  8
LAYER_1
 10
65.0882
 20
132.6548
  0
VERTEX
  8
LAYER_1
 10
64.9979
 20
132.6048
  0
SEQEND
  0
POLYLINE
  8
LAYER_1
 40
0.1411
 41
0.1411
 66
1
 10
0
 20
0
 30
0
 70
1
  0
VERTEX
  8
LAYER_1
 10
62.1068
 20
137.0683
  0
VERTEX
  8
LAYER_1
 10
61.8822
 20
137.0593
  0
VERTEX
  8
LAYER_1
 10
61.6741
 20
137.0311
  0
VERTEX
  8
LAYER_1
 10
61.5025
 20
136.9891
  0
VERTEX
  8
LAYER_1
 10
61.3523
 20
136.9339
  0
VERTEX
  8
LAYER_1
 10
61.2207
 20
136.8643
  0
VERTEX
  8
LAYER_1
 10
61.1312
 20
136.7813
  0
VERTEX
  8
LAYER_1
 10
61.0698
 20
136.6235
  0
VERTEX
  8
LAYER_1
 10
61.1029
 20
136.5174
  0
VERTEX
  8
LAYER_1
 10
61.1932
 20
136.4154
  0
VERTEX
  8
LAYER_1
 10
61.3075
 20
136.34
  0
VERTEX
  8
LAYER_1
 10
61.4522
 20
136.2759
  0
VERTEX
  8
LAYER_1
 10
61.6252
 20
136.2205
  0
VERTEX
  8
LAYER_1
 10
61.8133
 20
136.1808
  0
VERTEX
  8
LAYER_1
 10
62.195
 20
136.1522
  0
VERTEX
  8
LAYER_1
 10
62.4554
 20
136.1646
  0
VERTEX
  8
LAYER_1
 10
62.7793
 20
136.226
  0
VERTEX
  8
LAYER_1
 10
62.9729
 20
136.3004
  0
VERTEX
  8
LAYER_1
 10
63.0198
 20
136.3307
  0
VERTEX
  8
LAYER_1
 10
63.1417
 20
136.4134
  0
VERTEX
  8
LAYER_1
 10
63.2203
 20
136.567
  0
VERTEX
  8
LAYER_1
 10
63.1879
 20
136.7083
  0
VERTEX
  8
LAYER_1
 10
63.1017
 20
136.802
  0
VERTEX
  8
LAYER_1
 10
62.9908
 20
136.8774
  0
VERTEX
  8
LAYER_1
 10
62.8454
 20
136.945
  0
VERTEX
  8
LAYER_1
 10
62.6746
 20
136.998
  0
VERTEX
  8
LAYER_1
 10
62.4789
 20
137.0404
  0
SEQEND
  0
INSERT
  8
LAYER_1
  2
AIGNBL01020007
 10
0
 20
0
 30
0
  0
POLYLINE
  8
LAYER_1
 40
0.1411
 41
0.1411
 66
1
 10
0
 20
0
 30
0
  0
VERTEX
  8
LAYER_1
 10
61.6252
 20
136.2205
  0
VERTEX
  8
LAYER_1
 10
61.3799
 20
136.3521
  0
VERTEX
  8
LAYER_1
 10
61.2786
 20
136.4134
  0
VERTEX
  8
LAYER_1
 10
61.2504
 20
136.4416
  0
VERTEX
  8
LAYER_1
 10
61.2373
 20
136.483
  0
VERTEX
  8
LAYER_1
 10
61.2579
 20
136.5705
  0
VERTEX
  8
LAYER_1
 10
61.2889
 20
136.6187
  0
SEQEND
  0
POLYLINE
  8
LAYER_1
 40
0.1411
 41
0.1411
 66
1
 10
0
 20
0
 30
0
  0
VERTEX
  8
LAYER_1
 10
62.9798
 20
136.3273
  0
VERTEX
  8
LAYER_1
 10
62.7345
 20
136.4537
  0
SEQEND
  0
POLYLINE
  8
LAYER_1
 40
0.1411
 41
0.1411
 66
1
 10
0
 20
0
 30
0
  0
VERTEX
  8
LAYER_1
 10
62.8764
 20
136.7024
  0
VERTEX
  8
LAYER_1
 10
62.9729
 20
136.6356
  0
VERTEX
  8
LAYER_1
 10
63.0418
 20
136.5588
  0
SEQEND
  0
POLYLINE
  8
LAYER_1
 40
0.1411
 41
0.1411
 66
1
 10
0
 20
0
 30
0
  0
VERTEX
  8
LAYER_1
 10
62.7345
 20
136.4537
  0
VERTEX
  8
LAYER_1
 10
62.4341
 20
136.5236
  0
VERTEX
  8
LAYER_1
 10
62.091
 20
136.547
  0
SEQEND
  0
POLYLINE
  8
LAYER_1
 40
0.1411
 41
0.1411
 66
1
 10
0
 20
0
 30
0
  0
VERTEX
  8
LAYER_1
 10
61.6024
 20
136.7951
  0
VERTEX
  8
LAYER_1
 10
61.7526
 20
136.8323
  0
VERTEX
  8
LAYER_1
 10
61.9339
 20
136.8564
  0
VERTEX
  8
LAYER_1
 10
62.1227
 20
136.8643
  0
VERTEX
  8
LAYER_1
 10
62.2811
 20
136.8592
  0
VERTEX
  8
LAYER_1
 10
62.4368
 20
136.8402
  0
VERTEX
  8
LAYER_1
 10
62.6022
 20
136.8068
  0
VERTEX
  8
LAYER_1
 10
62.7538
 20
136.7579
  0
VERTEX
  8
LAYER_1
 10
62.8764
 20
136.7024
  0
SEQEND
  0
POLYLINE
  8
LAYER_1
 40
0.1411
 41
0.1411
 66
1
 10
0
 20
0
 30
0
  0
VERTEX
  8
LAYER_1
 10
61.2889
 20
136.6187
  0
VERTEX
  8
LAYER_1
 10
61.3668
 20
136.688
  0
SEQEND
  0
POLYLINE
  8
LAYER_1
 40
0.1411
 41
0.1411
 66
1
 10
0
 20
0
 30
0
  0
VERTEX
  8
LAYER_1
 10
61.2889
 20
136.6187
  0
VERTEX
  8
LAYER_1
 10
61.3668
 20
136.688
  0
VERTEX
  8
LAYER_1
 10
61.477
 20
136.7507
  0
SEQEND
  0
POLYLINE
  8
LAYER_1
 40
0.1411
 41
0.1411
 66
1
 10
0
 20
0
 30
0
  0
VERTEX
  8
LAYER_1
 10
62.091
 20
136.547
  0
VERTEX
  8
LAYER_1
 10
61.7464
 20
136.5078
  0
VERTEX
  8
LAYER_1
 10
61.455
 20
136.4099
  0
SEQEND
  0
ENDBLK
  0
BLOCK
  8
LAYER_1
  2
AIGNBL0101000A
 70
64
 10
0
 20
0
 30
0
  3
AIGNBL0101000A
  0
POLYLINE
  8
LAYER_1
 40
0.05
 41
0.05
 62
255
 66
1
 10
0
 20
0
 30
0
 70
1
  0
VERTEX
  8
LAYER_1
 10
59.8854
 20
116.6733
 42
0.4142216865
  0
VERTEX
  8
LAYER_1
 10
59.4553
 20
117.1036
 42
0.4142412362
  0
VERTEX
  8
LAYER_1
 10
59.0253
 20
116.6733
  0
VERTEX
  8
LAYER_1
 10
59.0253
 20
115.7015
 42
0.4142472894
  0
VERTEX
  8
LAYER_1
 10
59.4553
 20
115.2715
 42
0.4142277237
  0
VERTEX
  8
LAYER_1
 10
59.8854
 20
115.7015
  0
SEQEND
  0
POLYLINE
  8
LAYER_1
  6
AIGENLINE001
 40
0.1764
 41
0.1764
 66
1
 10
0
 20
0
 30
0
 70
129
  0
VERTEX
  8
LAYER_1
 10
59.8854
 20
116.6733
 42
0.4142216865
  0
VERTEX
  8
LAYER_1
 10
59.4553
 20
117.1036
 42
0.4142412362
  0
VERTEX
  8
LAYER_1
 10
59.0253
 20
116.6733
  0
VERTEX
  8
LAYER_1
 10
59.0253
 20
115.7015
 42
0.4142472894
  0
VERTEX
  8
LAYER_1
 10
59.4553
 20
115.2715
 42
0.4142277237
  0
VERTEX
  8
LAYER_1
 10
59.8854
 20
115.7015
  0
SEQEND
  0
ENDBLK
  0
BLOCK
  8
LAYER_1
  2
AIGNBL0101000B
 70
64
 10
0
 20
0
 30
0
  3
AIGNBL0101000B
  0
POLYLINE
  8
LAYER_1
 40
0.05
 41
0.05
 62
255
 66
1
 10
0
 20
0
 30
0
 70
1
  0
VERTEX
  8
LAYER_1
 10
89.9411
 20
126.2779
 42
0.4141917152
  0
VERTEX
  8
LAYER_1
 10
89.5112
 20
126.7079
 42
0.414246291
  0
VERTEX
  8
LAYER_1
 10
89.0812
 20
126.2779
  0
VERTEX
  8
LAYER_1
 10
89.0812
 20
125.3057
 42
0.4142394665
  0
VERTEX
  8
LAYER_1
 10
89.5112
 20
124.8758
 42
0.4141848795
  0
VERTEX
  8
LAYER_1
 10
89.9411
 20
125.3057
  0
SEQEND
  0
POLYLINE
  8
LAYER_1
  6
AIGENLINE002
 40
0.1764
 41
0.1764
 66
1
 10
0
 20
0
 30
0
 70
129
  0
VERTEX
  8
LAYER_1
 10
89.9411
 20
126.2779
 42
0.4141917152
  0
VERTEX
  8
LAYER_1
 10
89.5112
 20
126.7079
 42
0.414246291
  0
VERTEX
  8
LAYER_1
 10
89.0812
 20
126.2779
  0
VERTEX
  8
LAYER_1
 10
89.0812
 20
125.3057
 42
0.4142394665
  0
VERTEX
  8
LAYER_1
 10
89.5112
 20
124.8758
 42
0.4141848795
  0
VERTEX
  8
LAYER_1
 10
89.9411
 20
125.3057
  0
SEQEND
  0
ENDBLK
  0
BLOCK
  8
LAYER_1
  2
AIGNBL0101000C
 70
64
 10
0
 20
0
 30
0
  3
AIGNBL0101000C
  0
INSERT
  8
LAYER_1
  2
AIGNBL0102000D
 10
0
 20
0
 30
0
  0
ENDBLK
  0
BLOCK
  8
LAYER_1
  2
AIGNBL01010011
 70
64
 10
0
 20
0
 30
0
  3
AIGNBL01010011
  0
INSERT
  8
LAYER_1
  2
AIGNBL01020012
 10
0
 20
0
 30
0
  0
ENDBLK
  0
BLOCK
  8
LAYER_1
  2
AIGNBL01010016
 70
64
 10
0
 20
0
 30
0
  3
AIGNBL01010016
  0
POLYLINE
  8
LAYER_1
 40
0.1411
 41
0.1411
 66
1
 10
0
 20
0
 30
0
  0
VERTEX
  8
LAYER_1
 10
163.3768
 20
129.8208
  0
VERTEX
  8
LAYER_1
 10
163.7199
 20
129.9428
  0
VERTEX
  8
LAYER_1
 10
163.837
 20
129.9731
  0
VERTEX
  8
LAYER_1
 10
164.1533
 20
130.1209
  0
VERTEX
  8
LAYER_1
 10
164.32
 20
130.2859
  0
VERTEX
  8
LAYER_1
 10
164.3538
 20
130.4306
  0
VERTEX
  8
LAYER_1
 10
164.3283
 20
130.5278
  0
VERTEX
  8
LAYER_1
 10
164.1409
 20
130.782
  0
VERTEX
  8
LAYER_1
 10
163.7902
 20
130.9894
  0
VERTEX
  8
LAYER_1
 10
163.3299
 20
131.1169
  0
VERTEX
  8
LAYER_1
 10
162.8242
 20
131.1534
  0
VERTEX
  8
LAYER_1
 10
162.3501
 20
131.0828
  0
VERTEX
  8
LAYER_1
 10
161.9787
 20
130.9247
  0
VERTEX
  8
LAYER_1
 10
161.7645
 20
130.7
  0
VERTEX
  8
LAYER_1
 10
161.7452
 20
130.4823
  0
VERTEX
  8
LAYER_1
 10
161.8403
 20
130.2821
  0
VERTEX
  8
LAYER_1
 10
162.0194
 20
130.0868
  0
VERTEX
  8
LAYER_1
 10
162.131
 20
129.9745
  0
SEQEND
  0
POLYLINE
  8
LAYER_1
 40
0.1411
 41
0.1411
 66
1
 10
0
 20
0
 30
0
 70
1
  0
VERTEX
  8
LAYER_1
 10
170.4089
 20
144.4184
  0
VERTEX
  8
LAYER_1
 10
170.3393
 20
144.4208
  0
VERTEX
  8
LAYER_1
 10
134.9423
 20
137.5806
  0
VERTEX
  8
LAYER_1
 10
134.8652
 20
137.5368
  0
VERTEX
  8
LAYER_1
 10
134.7852
 20
137.4645
  0
VERTEX
  8
LAYER_1
 10
134.7432
 20
137.3756
  0
VERTEX
  8
LAYER_1
 10
134.7418
 20
137.2791
  0
VERTEX
  8
LAYER_1
 10
135.7464
 20
132.5053
  0
VERTEX
  8
LAYER_1
 10
135.7802
 20
132.4298
  0
VERTEX
  8
LAYER_1
 10
147.9434
 20
119.3856
  0
VERTEX
  8
LAYER_1
 10
148.2604
 20
119.028
  0
VERTEX
  8
LAYER_1
 10
148.9969
 20
118.3583
  0
VERTEX
  8
LAYER_1
 10
149.7411
 20
117.9518
  0
VERTEX
  8
LAYER_1
 10
150.5803
 20
117.6438
  0
VERTEX
  8
LAYER_1
 10
151.4802
 20
117.4436
  0
VERTEX
  8
LAYER_1
 10
152.4351
 20
117.3482
  0
VERTEX
  8
LAYER_1
 10
153.4025
 20
117.3613
  0
VERTEX
  8
LAYER_1
 10
154.3596
 20
117.484
  0
VERTEX
  8
LAYER_1
 10
154.8791
 20
117.5983
  0
VERTEX
  8
LAYER_1
 10
155.3903
 20
117.7499
  0
VERTEX
  8
LAYER_1
 10
184.6943
 20
127.8227
  0
VERTEX
  8
LAYER_1
 10
185.0051
 20
127.9384
  0
VERTEX
  8
LAYER_1
 10
185.156
 20
128.0115
  0
VERTEX
  8
LAYER_1
 10
185.2896
 20
128.0811
  0
VERTEX
  8
LAYER_1
 10
185.701
 20
128.3863
  0
VERTEX
  8
LAYER_1
 10
185.978
 20
128.7412
  0
VERTEX
  8
LAYER_1
 10
186.0848
 20
128.9982
  0
VERTEX
  8
LAYER_1
 10
186.8206
 20
133.9246
  0
VERTEX
  8
LAYER_1
 10
186.7338
 20
134.6268
  0
VERTEX
  8
LAYER_1
 10
186.2122
 20
135.332
  0
VERTEX
  8
LAYER_1
 10
185.3696
 20
135.9431
  0
SEQEND
  0
POLYLINE
  8
LAYER_1
 40
0.1411
 41
0.1411
 66
1
 10
0
 20
0
 30
0
  0
VERTEX
  8
LAYER_1
 10
186.8206
 20
133.9246
  0
VERTEX
  8
LAYER_1
 10
186.4623
 20
133.3307
  0
VERTEX
  8
LAYER_1
 10
186.0076
 20
133.0275
  0
VERTEX
  8
LAYER_1
 10
185.4254
 20
132.8036
  0
VERTEX
  8
LAYER_1
 10
154.8081
 20
123.4295
  0
VERTEX
  8
LAYER_1
 10
153.776
 20
123.1877
  0
VERTEX
  8
LAYER_1
 10
152.6274
 20
123.0602
  0
VERTEX
  8
LAYER_1
 10
151.4113
 20
123.0671
  0
VERTEX
  8
LAYER_1
 10
150.2193
 20
123.2214
  0
VERTEX
  8
LAYER_1
 10
149.1299
 20
123.5218
  0
VERTEX
  8
LAYER_1
 10
148.2108
 20
123.9346
  0
VERTEX
  8
LAYER_1
 10
147.5038
 20
124.4293
  0
VERTEX
  8
LAYER_1
 10
147.0181
 20
124.9584
  0
VERTEX
  8
LAYER_1
 10
134.7418
 20
137.2791
  0
SEQEND
  0
POLYLINE
  8
LAYER_1
 40
0.1411
 41
0.1411
 66
1
 10
0
 20
0
 30
0
 70
1
  0
VERTEX
  8
LAYER_1
 10
168.6174
 20
143.9227
  0
VERTEX
  8
LAYER_1
 10
168.9654
 20
143.9282
  0
VERTEX
  8
LAYER_1
 10
169.2713
 20
143.8393
  0
VERTEX
  8
LAYER_1
 10
183.0627
 20
135.7719
  0
VERTEX
  8
LAYER_1
 10
183.2777
 20
135.6486
  0
VERTEX
  8
LAYER_1
 10
183.5499
 20
135.4687
  0
VERTEX
  8
LAYER_1
 10
183.8778
 20
135.2524
  0
VERTEX
  8
LAYER_1
 10
183.9433
 20
135.1263
  0
VERTEX
  8
LAYER_1
 10
184.0329
 20
134.9585
  0
VERTEX
  8
LAYER_1
 10
184.0866
 20
134.8514
  0
VERTEX
  8
LAYER_1
 10
184.0942
 20
134.7832
  0
VERTEX
  8
LAYER_1
 10
184.079
 20
134.6864
  0
VERTEX
  8
LAYER_1
 10
183.9598
 20
134.4566
  0
VERTEX
  8
LAYER_1
 10
183.6381
 20
134.2991
  0
VERTEX
  8
LAYER_1
 10
183.512
 20
134.2561
  0
VERTEX
  8
LAYER_1
 10
153.2502
 20
125.4594
  0
VERTEX
  8
LAYER_1
 10
152.4
 20
125.3064
  0
VERTEX
  8
LAYER_1
 10
151.4278
 20
125.3767
  0
VERTEX
  8
LAYER_1
 10
150.5252
 20
125.7226
  0
VERTEX
  8
LAYER_1
 10
150.2916
 20
125.8735
  0
VERTEX
  8
LAYER_1
 10
149.9126
 20
126.2882
  0
VERTEX
  8
LAYER_1
 10
149.6632
 20
126.6045
  0
VERTEX
  8
LAYER_1
 10
137.5289
 20
137.6395
  0
VERTEX
  8
LAYER_1
 10
137.5682
 20
137.8303
  0
VERTEX
  8
LAYER_1
 10
137.8996
 20
137.9706
  0
SEQEND
  0
POLYLINE
  8
LAYER_1
 40
0.1411
 41
0.1411
 66
1
 10
0
 20
0
 30
0
  0
VERTEX
  8
LAYER_1
 10
168.8813
 20
143.3335
  0
VERTEX
  8
LAYER_1
 10
171.4376
 20
141.8019
  0
VERTEX
  8
LAYER_1
 10
172.3705
 20
141.0143
  0
VERTEX
  8
LAYER_1
 10
173.3186
 20
139.8512
  0
VERTEX
  8
LAYER_1
 10
174.3625
 20
138.0722
  0
VERTEX
  8
LAYER_1
 10
175.1969
 20
136.9133
  0
VERTEX
  8
LAYER_1
 10
176.2428
 20
135.8746
  0
VERTEX
  8
LAYER_1
 10
177.6725
 20
134.9106
  0
VERTEX
  8
LAYER_1
 10
179.2848
 20
133.9791
  0
VERTEX
  8
LAYER_1
 10
180.4327
 20
133.3838
  0
SEQEND
  0
POLYLINE
  8
LAYER_1
 40
0.1411
 41
0.1411
 66
1
 10
0
 20
0
 30
0
  0
VERTEX
  8
LAYER_1
 10
168.9654
 20
143.9282
  0
VERTEX
  8
LAYER_1
 10
168.8813
 20
143.3335
  0
VERTEX
  8
LAYER_1
 10
137.8638
 20
137.2071
  0
SEQEND
  0
POLYLINE
  8
LAYER_1
 40
0.1411
 41
0.1411
 66
1
 10
0
 20
0
 30
0
 70
1
  0
VERTEX
  8
LAYER_1
 10
164.7596
 20
131.3615
  0
VERTEX
  8
LAYER_1
 10
164.3676
 20
131.6088
  0
VERTEX
  8
LAYER_1
 10
163.8625
 20
131.7956
  0
VERTEX
  8
LAYER_1
 10
163.4822
 20
131.8745
  0
VERTEX
  8
LAYER_1
 10
162.8958
 20
131.923
  0
VERTEX
  8
LAYER_1
 10
162.3198
 20
131.8855
  0
VERTEX
  8
LAYER_1
 10
161.7989
 20
131.7673
  0
VERTEX
  8
LAYER_1
 10
161.3827
 20
131.5744
  0
VERTEX
  8
LAYER_1
 10
161.0954
 20
131.3257
  0
VERTEX
  8
LAYER_1
 10
160.9728
 20
131.0321
  0
VERTEX
  8
LAYER_1
 10
161.0286
 20
130.7248
  0
VERTEX
  8
LAYER_1
 10
161.0858
 20
130.6215
  0
VERTEX
  8
LAYER_1
 10
161.2601
 20
130.4224
  0
VERTEX
  8
LAYER_1
 10
161.5109
 20
130.2408
  0
VERTEX
  8
LAYER_1
 10
161.9905
 20
130.0179
  0
VERTEX
  8
LAYER_1
 10
162.1744
 20
129.9593
  0
VERTEX
  8
LAYER_1
 10
162.7677
 20
129.8443
  0
VERTEX
  8
LAYER_1
 10
163.3768
 20
129.8208
  0
VERTEX
  8
LAYER_1
 10
163.9624
 20
129.8897
  0
VERTEX
  8
LAYER_1
 10
164.4578
 20
130.0475
  0
VERTEX
  8
LAYER_1
 10
164.8292
 20
130.278
  0
VERTEX
  8
LAYER_1
 10
165.0421
 20
130.5595
  0
VERTEX
  8
LAYER_1
 10
165.0807
 20
130.8668
  0
VERTEX
  8
LAYER_1
 10
165.0063
 20
131.0759
  0
SEQEND
  0
POLYLINE
  8
LAYER_1
 40
0.1411
 41
0.1411
 66
1
 10
0
 20
0
 30
0
 70
1
  0
VERTEX
  8
LAYER_1
 10
159.3308
 20
136.9742
  0
VERTEX
  8
LAYER_1
 10
159.2165
 20
136.9863
  0
VERTEX
  8
LAYER_1
 10
159.0573
 20
136.9715
  0
VERTEX
  8
LAYER_1
 10
158.9195
 20
136.9195
  0
VERTEX
  8
LAYER_1
 10
158.8423
 20
136.8637
  0
VERTEX
  8
LAYER_1
 10
158.7796
 20
136.791
  0
VERTEX
  8
LAYER_1
 10
158.7404
 20
136.721
  0
VERTEX
  8
LAYER_1
 10
158.7162
 20
136.6428
  0
VERTEX
  8
LAYER_1
 10
158.7045
 20
136.5598
  0
VERTEX
  8
LAYER_1
 10
158.7162
 20
136.4161
  0
VERTEX
  8
LAYER_1
 10
158.7624
 20
136.269
  0
VERTEX
  8
LAYER_1
 10
158.8168
 20
136.1767
  0
VERTEX
  8
LAYER_1
 10
158.8733
 20
136.0889
  0
VERTEX
  8
LAYER_1
 10
158.9477
 20
136.0062
  0
VERTEX
  8
LAYER_1
 10
159.0304
 20
135.9345
  0
VERTEX
  8
LAYER_1
 10
159.1152
 20
135.8794
  0
VERTEX
  8
LAYER_1
 10
159.1999
 20
135.8332
  0
VERTEX
  8
LAYER_1
 10
159.2998
 20
135.7995
  0
VERTEX
  8
LAYER_1
 10
159.4018
 20
135.7798
  0
VERTEX
  8
LAYER_1
 10
159.4983
 20
135.7788
  0
VERTEX
  8
LAYER_1
 10
159.5878
 20
135.7933
  0
VERTEX
  8
LAYER_1
 10
159.6802
 20
135.8222
  0
VERTEX
  8
LAYER_1
 10
159.7615
 20
135.8701
  0
VERTEX
  8
LAYER_1
 10
159.8269
 20
135.9252
  0
VERTEX
  8
LAYER_1
 10
159.8786
 20
135.9924
  0
VERTEX
  8
LAYER_1
 10
159.9213
 20
136.0709
  0
VERTEX
  8
LAYER_1
 10
159.9489
 20
136.1612
  0
VERTEX
  8
LAYER_1
 10
159.9613
 20
136.2487
  0
VERTEX
  8
LAYER_1
 10
159.9572
 20
136.3403
  0
VERTEX
  8
LAYER_1
 10
159.9372
 20
136.4368
  0
VERTEX
  8
LAYER_1
 10
159.902
 20
136.5312
  0
VERTEX
  8
LAYER_1
 10
159.8207
 20
136.669
  0
VERTEX
  8
LAYER_1
 10
159.7091
 20
136.7882
  0
VERTEX
  8
LAYER_1
 10
159.6278
 20
136.8516
  0
VERTEX
  8
LAYER_1
 10
159.5375
 20
136.9036
  0
VERTEX
  8
LAYER_1
 10
159.4432
 20
136.9429
  0
SEQEND
  0
POLYLINE
  8
LAYER_1
 40
0.1411
 41
0.1411
 66
1
 10
0
 20
0
 30
0
  0
VERTEX
  8
LAYER_1
 10
158.7107
 20
136.4744
  0
VERTEX
  8
LAYER_1
 10
158.759
 20
136.5581
  0
VERTEX
  8
LAYER_1
 10
158.8072
 20
136.6201
  0
VERTEX
  8
LAYER_1
 10
158.8623
 20
136.6676
  0
VERTEX
  8
LAYER_1
 10
158.9788
 20
136.7131
  0
VERTEX
  8
LAYER_1
 10
159.1097
 20
136.7255
  0
VERTEX
  8
LAYER_1
 10
159.1696
 20
136.72
  0
VERTEX
  8
LAYER_1
 10
159.2978
 20
136.689
  0
VERTEX
  8
LAYER_1
 10
159.5162
 20
136.5619
  0
VERTEX
  8
LAYER_1
 10
159.6754
 20
136.3538
  0
VERTEX
  8
LAYER_1
 10
159.7036
 20
136.2708
  0
VERTEX
  8
LAYER_1
 10
159.7174
 20
136.197
  0
VERTEX
  8
LAYER_1
 10
159.6581
 20
135.9442
  0
VERTEX
  8
LAYER_1
 10
159.5816
 20
135.8904
  0
VERTEX
  8
LAYER_1
 10
159.4928
 20
135.8298
  0
VERTEX
  8
LAYER_1
 10
159.4018
 20
135.7798
  0
SEQEND
  0
POLYLINE
  8
LAYER_1
 40
0.1411
 41
0.1411
 66
1
 10
0
 20
0
 30
0
 70
1
  0
VERTEX
  8
LAYER_1
 10
156.5107
 20
140.2433
  0
VERTEX
  8
LAYER_1
 10
156.2868
 20
140.2343
  0
VERTEX
  8
LAYER_1
 10
156.0787
 20
140.2061
  0
VERTEX
  8
LAYER_1
 10
155.9064
 20
140.1641
  0
VERTEX
  8
LAYER_1
 10
155.7569
 20
140.1089
  0
VERTEX
  8
LAYER_1
 10
155.6246
 20
140.0393
  0
VERTEX
  8
LAYER_1
 10
155.535
 20
139.9563
  0
VERTEX
  8
LAYER_1
 10
155.4744
 20
139.7982
  0
VERTEX
  8
LAYER_1
 10
155.5068
 20
139.6928
  0
VERTEX
  8
LAYER_1
 10
155.597
 20
139.5901
  0
VERTEX
  8
LAYER_1
 10
155.7121
 20
139.515
  0
VERTEX
  8
LAYER_1
 10
155.8561
 20
139.4509
  0
VERTEX
  8
LAYER_1
 10
156.0298
 20
139.3958
  0
VERTEX
  8
LAYER_1
 10
156.2172
 20
139.3558
  0
VERTEX
  8
LAYER_1
 10
156.5989
 20
139.3272
  0
VERTEX
  8
LAYER_1
 10
156.8593
 20
139.34
  0
VERTEX
  8
LAYER_1
 10
157.1839
 20
139.401
  0
VERTEX
  8
LAYER_1
 10
157.3775
 20
139.475
  0
VERTEX
  8
LAYER_1
 10
157.4236
 20
139.5054
  0
VERTEX
  8
LAYER_1
 10
157.5463
 20
139.588
  0
VERTEX
  8
LAYER_1
 10
157.6248
 20
139.742
  0
VERTEX
  8
LAYER_1
 10
157.5924
 20
139.8833
  0
VERTEX
  8
LAYER_1
 10
157.5056
 20
139.9773
  0
VERTEX
  8
LAYER_1
 10
157.3954
 20
140.0524
  0
VERTEX
  8
LAYER_1
 10
157.2493
 20
140.12
  0
VERTEX
  8
LAYER_1
 10
157.0791
 20
140.173
  0
VERTEX
  8
LAYER_1
 10
156.8834
 20
140.2154
  0
SEQEND
  0
INSERT
  8
LAYER_1
  2
AIGNBL01020017
 10
0
 20
0
 30
0
  0
POLYLINE
  8
LAYER_1
 40
0.1411
 41
0.1411
 66
1
 10
0
 20
0
 30
0
  0
VERTEX
  8
LAYER_1
 10
156.0298
 20
139.3958
  0
VERTEX
  8
LAYER_1
 10
155.7838
 20
139.5274
  0
VERTEX
  8
LAYER_1
 10
155.6825
 20
139.588
  0
VERTEX
  8
LAYER_1
 10
155.6542
 20
139.617
  0
VERTEX
  8
LAYER_1
 10
155.6411
 20
139.6576
  0
VERTEX
  8
LAYER_1
 10
155.6625
 20
139.7451
  0
VERTEX
  8
LAYER_1
 10
155.6928
 20
139.7934
  0
SEQEND
  0
POLYLINE
  8
LAYER_1
 40
0.1411
 41
0.1411
 66
1
 10
0
 20
0
 30
0
  0
VERTEX
  8
LAYER_1
 10
157.3844
 20
139.5023
  0
VERTEX
  8
LAYER_1
 10
157.1384
 20
139.6287
  0
SEQEND
  0
POLYLINE
  8
LAYER_1
 40
0.1411
 41
0.1411
 66
1
 10
0
 20
0
 30
0
  0
VERTEX
  8
LAYER_1
 10
157.281
 20
139.8774
  0
VERTEX
  8
LAYER_1
 10
157.3775
 20
139.8106
  0
VERTEX
  8
LAYER_1
 10
157.4464
 20
139.7334
  0
SEQEND
  0
POLYLINE
  8
LAYER_1
 40
0.1411
 41
0.1411
 66
1
 10
0
 20
0
 30
0
  0
VERTEX
  8
LAYER_1
 10
157.1384
 20
139.6287
  0
VERTEX
  8
LAYER_1
 10
156.838
 20
139.6986
  0
VERTEX
  8
LAYER_1
 10
156.4948
 20
139.722
  0
SEQEND
  0
POLYLINE
  8
LAYER_1
 40
0.1411
 41
0.1411
 66
1
 10
0
 20
0
 30
0
  0
VERTEX
  8
LAYER_1
 10
156.007
 20
139.9704
  0
VERTEX
  8
LAYER_1
 10
156.1572
 20
140.0073
  0
VERTEX
  8
LAYER_1
 10
156.3377
 20
140.0311
  0
VERTEX
  8
LAYER_1
 10
156.5265
 20
140.0393
  0
VERTEX
  8
LAYER_1
 10
156.6857
 20
140.0338
  0
VERTEX
  8
LAYER_1
 10
156.8414
 20
140.0152
  0
VERTEX
  8
LAYER_1
 10
157.0061
 20
139.9822
  0
VERTEX
  8
LAYER_1
 10
157.1584
 20
139.9332
  0
VERTEX
  8
LAYER_1
 10
157.281
 20
139.8774
  0
SEQEND
  0
POLYLINE
  8
LAYER_1
 40
0.1411
 41
0.1411
 66
1
 10
0
 20
0
 30
0
  0
VERTEX
  8
LAYER_1
 10
155.6928
 20
139.7934
  0
VERTEX
  8
LAYER_1
 10
155.7707
 20
139.863
  0
SEQEND
  0
POLYLINE
  8
LAYER_1
 40
0.1411
 41
0.1411
 66
1
 10
0
 20
0
 30
0
  0
VERTEX
  8
LAYER_1
 10
155.6928
 20
139.7934
  0
VERTEX
  8
LAYER_1
 10
155.7707
 20
139.863
  0
VERTEX
  8
LAYER_1
 10
155.8809
 20
139.9257
  0
SEQEND
  0
POLYLINE
  8
LAYER_1
 40
0.1411
 41
0.1411
 66
1
 10
0
 20
0
 30
0
  0
VERTEX
  8
LAYER_1
 10
156.4948
 20
139.722
  0
VERTEX
  8
LAYER_1
 10
156.1503
 20
139.6824
  0
VERTEX
  8
LAYER_1
 10
155.8589
 20
139.5853
  0
SEQEND
  0
ENDBLK
  0
BLOCK
  8
LAYER_1
  2
AIGNBL0101001A
 70
64
 10
0
 20
0
 30
0
  3
AIGNBL0101001A
  0
POLYLINE
  8
LAYER_1
 40
0.1764
 41
0.1764
 66
1
 10
0
 20
0
 30
0
 70
1
  0
VERTEX
  8
LAYER_1
 10
154.1377
 20
99.6639
 42
0.3970411845
  0
VERTEX
  8
LAYER_1
 10
154.332
 20
99.865
  0
VERTEX
  8
LAYER_1
 10
154.332
 20
100.4183
  0
VERTEX
  8
LAYER_1
 10
154.1377
 20
100.0683
  0
SEQEND
  0
POLYLINE
  8
LAYER_1
 40
0.1764
 41
0.1764
 66
1
 10
0
 20
0
 30
0
 70
1
  0
VERTEX
  8
LAYER_1
 10
154.569
 20
99.6639
 42
-0.3960817931
  0
VERTEX
  8
LAYER_1
 10
154.374
 20
99.865
  0
VERTEX
  8
LAYER_1
 10
154.374
 20
100.4183
  0
VERTEX
  8
LAYER_1
 10
154.569
 20
100.0683
  0
SEQEND
  0
POLYLINE
  8
LAYER_1
 40
0.3528
 41
0.3528
 66
1
 10
0
 20
0
 30
0
 70
1
  0
VERTEX
  8
LAYER_1
 10
154.569
 20
93.0672
  0
VERTEX
  8
LAYER_1
 10
154.569
 20
100.0683
  0
VERTEX
  8
LAYER_1
 10
154.3534
 20
100.4562
  0
VERTEX
  8
LAYER_1
 10
154.1377
 20
100.0683
  0
VERTEX
  8
LAYER_1
 10
154.1377
 20
93.0672
  0
VERTEX
  8
LAYER_1
 10
153.7574
 20
93.0672
 42
0.4143144101
  0
VERTEX
  8
LAYER_1
 10
153.5534
 20
92.8632
  0
VERTEX
  8
LAYER_1
 10
153.5534
 20
92.62
 42
-0.1876487631
  0
VERTEX
  8
LAYER_1
 10
153.8986
 20
91.6595
 42
0.0240619001
  0
VERTEX
  8
LAYER_1
 10
153.4705
 20
87.7767
 42
0.04057949137
  0
VERTEX
  8
LAYER_1
 10
153.5203
 20
85.8841
 42
0.03903143293
  0
VERTEX
  8
LAYER_1
 10
153.6354
 20
85.3429
 42
0.09931580138
  0
VERTEX
  8
LAYER_1
 10
153.8986
 20
84.8303
 42
0.1405861981
  0
VERTEX
  8
LAYER_1
 10
154.038
 20
84.7577
 42
0.06344783956
  0
VERTEX
  8
LAYER_1
 10
154.3534
 20
84.7345
 42
0.1960572984
  0
VERTEX
  8
LAYER_1
 10
154.8074
 20
84.8303
 42
0.0731342026
  0
VERTEX
  8
LAYER_1
 10
154.9814
 20
85.105
 42
0.04709852131
  0
VERTEX
  8
LAYER_1
 10
155.1126
 20
85.4957
 42
0.03216054014
  0
VERTEX
  8
LAYER_1
 10
155.2058
 20
86.0431
 42
0.02353216087
  0
VERTEX
  8
LAYER_1
 10
155.2521
 20
86.8244
 42
0.01736586071
  0
VERTEX
  8
LAYER_1
 10
155.2293
 20
87.9
 42
0.0130360173
  0
VERTEX
  8
LAYER_1
 10
155.1126
 20
89.3373
 42
0.01193025735
  0
VERTEX
  8
LAYER_1
 10
154.8074
 20
91.6595
 42
-0.1236177234
  0
VERTEX
  8
LAYER_1
 10
154.981
 20
92.3753
 42
-0.05619055073
  0
VERTEX
  8
LAYER_1
 10
155.1526
 20
92.62
  0
VERTEX
  8
LAYER_1
 10
155.1526
 20
92.8632
 42
0.4142415592
  0
VERTEX
  8
LAYER_1
 10
154.9487
 20
93.0672
  0
SEQEND
  0
POLYLINE
  8
LAYER_1
 40
0.1764
 41
0.1764
 66
1
 10
0
 20
0
 30
0
  0
VERTEX
  8
LAYER_1
 10
154.1377
 20
93.0672
  0
VERTEX
  8
LAYER_1
 10
154.569
 20
93.0672
  0
SEQEND
  0
ENDBLK
  0
BLOCK
  8
LAYER_1
  2
AIGNBL0101001B
 70
64
 10
0
 20
0
 30
0
  3
AIGNBL0101001B
  0
POLYLINE
  8
LAYER_1
 40
0.1764
 41
0.1764
 66
1
 10
0
 20
0
 30
0
 70
1
  0
VERTEX
  8
LAYER_1
 10
183.8331
 20
109.378
 42
0.3965307956
  0
VERTEX
  8
LAYER_1
 10
184.028
 20
109.5792
  0
VERTEX
  8
LAYER_1
 10
184.028
 20
110.1321
  0
VERTEX
  8
LAYER_1
 10
183.8331
 20
109.7821
  0
SEQEND
  0
POLYLINE
  8
LAYER_1
 40
0.1764
 41
0.1764
 66
1
 10
0
 20
0
 30
0
 70
1
  0
VERTEX
  8
LAYER_1
 10
184.2644
 20
109.378
 42
-0.3965389667
  0
VERTEX
  8
LAYER_1
 10
184.0694
 20
109.5792
  0
VERTEX
  8
LAYER_1
 10
184.0694
 20
110.1321
  0
VERTEX
  8
LAYER_1
 10
184.2644
 20
109.7821
  0
SEQEND
  0
POLYLINE
  8
LAYER_1
 40
0.3528
 41
0.3528
 66
1
 10
0
 20
0
 30
0
 70
1
  0
VERTEX
  8
LAYER_1
 10
184.2644
 20
102.781
  0
VERTEX
  8
LAYER_1
 10
184.2644
 20
109.7821
  0
VERTEX
  8
LAYER_1
 10
184.0487
 20
110.17
  0
VERTEX
  8
LAYER_1
 10
183.8331
 20
109.7821
  0
VERTEX
  8
LAYER_1
 10
183.8331
 20
102.781
  0
VERTEX
  8
LAYER_1
 10
183.4527
 20
102.781
 42
0.4142371334
  0
VERTEX
  8
LAYER_1
 10
183.2488
 20
102.577
  0
VERTEX
  8
LAYER_1
 10
183.2488
 20
102.3341
 42
-0.1878452839
  0
VERTEX
  8
LAYER_1
 10
183.5947
 20
101.3733
 42
0.02406804917
  0
VERTEX
  8
LAYER_1
 10
183.1666
 20
97.4908
 42
0.0405878939
  0
VERTEX
  8
LAYER_1
 10
183.2163
 20
95.5982
 42
0.03903548798
  0
VERTEX
  8
LAYER_1
 10
183.3314
 20
95.057
 42
0.09931240382
  0
VERTEX
  8
LAYER_1
 10
183.5947
 20
94.5444
 42
0.1421323567
  0
VERTEX
  8
LAYER_1
 10
183.7336
 20
94.4717
 42
0.06344255824
  0
VERTEX
  8
LAYER_1
 10
184.0487
 20
94.4487
 42
0.1974621428
  0
VERTEX
  8
LAYER_1
 10
184.5028
 20
94.5444
 42
0.07318642327
  0
VERTEX
  8
LAYER_1
 10
184.677
 20
94.8191
 42
0.04714704572
  0
VERTEX
  8
LAYER_1
 10
184.8083
 20
95.2099
 42
0.03219249017
  0
VERTEX
  8
LAYER_1
 10
184.9015
 20
95.7572
 42
0.02354931972
  0
VERTEX
  8
LAYER_1
 10
184.9478
 20
96.5385
 42
0.01737075247
  0
VERTEX
  8
LAYER_1
 10
184.9249
 20
97.614
 42
0.01303150921
  0
VERTEX
  8
LAYER_1
 10
184.8081
 20
99.0513
 42
0.01191546396
  0
VERTEX
  8
LAYER_1
 10
184.5028
 20
101.3733
 42
-0.1237841483
  0
VERTEX
  8
LAYER_1
 10
184.6766
 20
102.0892
 42
-0.05632512564
  0
VERTEX
  8
LAYER_1
 10
184.8487
 20
102.3341
  0
VERTEX
  8
LAYER_1
 10
184.8487
 20
102.577
 42
0.41427788
  0
VERTEX
  8
LAYER_1
 10
184.6447
 20
102.781
  0
SEQEND
  0
POLYLINE
  8
LAYER_1
 40
0.1764
 41
0.1764
 66
1
 10
0
 20
0
 30
0
  0
VERTEX
  8
LAYER_1
 10
183.8331
 20
102.781
  0
VERTEX
  8
LAYER_1
 10
184.2644
 20
102.781
  0
SEQEND
  0
ENDBLK
  0
BLOCK
  8
LAYER_1
  2
AIGNBL0101001C
 70
64
 10
0
 20
0
 30
0
  3
AIGNBL0101001C
  0
POLYLINE
  8
LAYER_1
 40
0.1764
 41
0.1764
 66
1
 10
0
 20
0
 30
0
 70
1
  0
VERTEX
  8
LAYER_1
 10
155.2553
 20
107.6468
 42
-0.1739429496
  0
VERTEX
  8
LAYER_1
 10
155.2068
 20
107.5286
 42
-0.09738118002
  0
VERTEX
  8
LAYER_1
 10
155.0584
 20
107.4192
 42
-0.06170309644
  0
VERTEX
  8
LAYER_1
 10
154.7821
 20
107.3248
 42
-0.05465364355
  0
VERTEX
  8
LAYER_1
 10
154.3327
 20
107.2782
 42
-0.1135283428
  0
VERTEX
  8
LAYER_1
 10
153.5727
 20
107.437
 42
-0.2347726981
  0
VERTEX
  8
LAYER_1
 10
153.4087
 20
107.6468
 42
-0.1738603926
  0
VERTEX
  8
LAYER_1
 10
153.4572
 20
107.7652
 42
-0.09750880823
  0
VERTEX
  8
LAYER_1
 10
153.6057
 20
107.8747
 42
-0.06176695092
  0
VERTEX
  8
LAYER_1
 10
153.8824
 20
107.9692
 42
-0.05459938785
  0
VERTEX
  8
LAYER_1
 10
154.3327
 20
108.0158
 42
-0.1137241702
  0
VERTEX
  8
LAYER_1
 10
155.0914
 20
107.8569
 42
-0.2347518526
  0
SEQEND
  0
POLYLINE
  8
LAYER_1
 40
0.1764
 41
0.1764
 66
1
 10
0
 20
0
 30
0
 70
1
  0
VERTEX
  8
LAYER_1
 10
154.6118
 20
107.6468
 42
-0.2463246411
  0
VERTEX
  8
LAYER_1
 10
154.5604
 20
107.5823
 42
-0.1254864182
  0
VERTEX
  8
LAYER_1
 10
154.3327
 20
107.5352
 42
-0.1277426015
  0
VERTEX
  8
LAYER_1
 10
154.1021
 20
107.5834
 42
-0.2802286359
  0
VERTEX
  8
LAYER_1
 10
154.0523
 20
107.6468
 42
-0.2471927899
  0
VERTEX
  8
LAYER_1
 10
154.104
 20
107.7117
 42
-0.1252599392
  0
VERTEX
  8
LAYER_1
 10
154.3327
 20
107.7588
 42
-0.1285835831
  0
VERTEX
  8
LAYER_1
 10
154.5623
 20
107.7106
 42
-0.2796428721
  0
SEQEND
  0
ENDBLK
  0
BLOCK
  8
LAYER_1
  2
AIGNBL0101001D
 70
64
 10
0
 20
0
 30
0
  3
AIGNBL0101001D
  0
POLYLINE
  8
LAYER_1
 40
0.1764
 41
0.1764
 66
1
 10
0
 20
0
 30
0
  0
VERTEX
  8
LAYER_1
 10
154.62
 20
102.9415
 42
-0.2701665867
  0
VERTEX
  8
LAYER_1
 10
154.7282
 20
102.7162
 42
-0.4010909573
  0
VERTEX
  8
LAYER_1
 10
154.3485
 20
102.3703
 42
-0.3787080715
  0
VERTEX
  8
LAYER_1
 10
153.982
 20
102.7197
 42
-0.2139494387
  0
VERTEX
  8
LAYER_1
 10
154.0798
 20
102.9532
  0
SEQEND
  0
POLYLINE
  8
LAYER_1
 40
0.1764
 41
0.1764
 66
1
 10
0
 20
0
 30
0
 70
1
  0
VERTEX
  8
LAYER_1
 10
154.3727
 20
104.2493
 42
-0.401454832
  0
VERTEX
  8
LAYER_1
 10
154.1046
 20
104.5387
 42
-0.3799596385
  0
VERTEX
  8
LAYER_1
 10
154.3802
 20
104.8198
 42
-0.4041840555
  0
VERTEX
  8
LAYER_1
 10
154.6448
 20
104.5318
 42
-0.3843233919
  0
SEQEND
  0
POLYLINE
  8
LAYER_1
 40
0.1764
 41
0.1764
 66
1
 10
0
 20
0
 30
0
  0
VERTEX
  8
LAYER_1
 10
154.6186
 20
102.8265
 42
-0.3746786577
  0
VERTEX
  8
LAYER_1
 10
154.3417
 20
102.5398
 42
-0.4023841244
  0
VERTEX
  8
LAYER_1
 10
154.0778
 20
102.8275
  0
SEQEND
  0
POLYLINE
  8
LAYER_1
 40
0.1764
 41
0.1764
 66
1
 10
0
 20
0
 30
0
  0
VERTEX
  8
LAYER_1
 10
154.618
 20
103.039
 42
-0.3752283876
  0
VERTEX
  8
LAYER_1
 10
154.3417
 20
102.7524
 42
-0.4002618943
  0
VERTEX
  8
LAYER_1
 10
154.0771
 20
103.04
  0
SEQEND
  0
POLYLINE
  8
LAYER_1
 40
0.1764
 41
0.1764
 66
1
 10
0
 20
0
 30
0
  0
VERTEX
  8
LAYER_1
 10
154.6269
 20
103.2709
 42
-0.3859157265
  0
VERTEX
  8
LAYER_1
 10
154.3506
 20
102.9842
 42
-0.4003128505
  0
VERTEX
  8
LAYER_1
 10
154.086
 20
103.2719
  0
SEQEND
  0
POLYLINE
  8
LAYER_1
 40
0.1764
 41
0.1764
 66
1
 10
0
 20
0
 30
0
  0
VERTEX
  8
LAYER_1
 10
154.6173
 20
103.4821
 42
-0.3835221641
  0
VERTEX
  8
LAYER_1
 10
154.3479
 20
103.2033
 42
-0.4063856577
  0
VERTEX
  8
LAYER_1
 10
154.0888
 20
103.4831
  0
SEQEND
  0
POLYLINE
  8
LAYER_1
 40
0.1764
 41
0.1764
 66
1
 10
0
 20
0
 30
0
  0
VERTEX
  8
LAYER_1
 10
154.6352
 20
103.6926
 42
-0.3755582694
  0
VERTEX
  8
LAYER_1
 10
154.3589
 20
103.4052
 42
-0.3987588724
  0
VERTEX
  8
LAYER_1
 10
154.0915
 20
103.6946
  0
SEQEND
  0
POLYLINE
  8
LAYER_1
 40
0.1764
 41
0.1764
 66
1
 10
0
 20
0
 30
0
  0
VERTEX
  8
LAYER_1
 10
154.6331
 20
103.8717
 42
-0.3796881214
  0
VERTEX
  8
LAYER_1
 10
154.3603
 20
103.5892
 42
-0.408733168
  0
VERTEX
  8
LAYER_1
 10
154.0991
 20
103.8745
  0
SEQEND
  0
POLYLINE
  8
LAYER_1
 40
0.1764
 41
0.1764
 66
1
 10
0
 20
0
 30
0
  0
VERTEX
  8
LAYER_1
 10
154.6324
 20
104.0384
 42
-0.3837465476
  0
VERTEX
  8
LAYER_1
 10
154.3623
 20
103.7539
 42
-0.4052953185
  0
VERTEX
  8
LAYER_1
 10
154.0984
 20
104.0419
  0
SEQEND
  0
POLYLINE
  8
LAYER_1
 40
0.1764
 41
0.1764
 66
1
 10
0
 20
0
 30
0
  0
VERTEX
  8
LAYER_1
 10
154.6448
 20
104.2107
 42
-0.3867442422
  0
VERTEX
  8
LAYER_1
 10
154.3727
 20
103.9275
 42
-0.4052464249
  0
VERTEX
  8
LAYER_1
 10
154.1115
 20
104.2141
  0
SEQEND
  0
POLYLINE
  8
LAYER_1
 40
0.1764
 41
0.1764
 66
1
 10
0
 20
0
 30
0
  0
VERTEX
  8
LAYER_1
 10
154.7316
 20
102.4158
 42
-0.4038831384
  0
VERTEX
  8
LAYER_1
 10
154.352
 20
102.0703
 42
-0.3785008003
  0
VERTEX
  8
LAYER_1
 10
153.9854
 20
102.4192
  0
SEQEND
  0
POLYLINE
  8
LAYER_1
 40
0.1764
 41
0.1764
 66
1
 10
0
 20
0
 30
0
  0
VERTEX
  8
LAYER_1
 10
154.7316
 20
102.4158
  0
VERTEX
  8
LAYER_1
 10
154.7282
 20
102.7162
  0
SEQEND
  0
POLYLINE
  8
LAYER_1
 40
0.1764
 41
0.1764
 66
1
 10
0
 20
0
 30
0
  0
VERTEX
  8
LAYER_1
 10
153.9854
 20
102.4192
  0
VERTEX
  8
LAYER_1
 10
153.982
 20
102.7197
  0
SEQEND
  0
POLYLINE
  8
LAYER_1
 40
0.1764
 41
0.1764
 66
1
 10
0
 20
0
 30
0
  0
VERTEX
  8
LAYER_1
 10
154.6448
 20
104.5318
  0
VERTEX
  8
LAYER_1
 10
154.6124
 20
102.8926
  0
SEQEND
  0
POLYLINE
  8
LAYER_1
 40
0.1764
 41
0.1764
 66
1
 10
0
 20
0
 30
0
  0
VERTEX
  8
LAYER_1
 10
154.1046
 20
104.5387
  0
VERTEX
  8
LAYER_1
 10
154.0778
 20
102.8275
  0
SEQEND
  0
ENDBLK
  0
BLOCK
  8
LAYER_1
  2
AIGNBL0101001E
 70
64
 10
0
 20
0
 30
0
  3
AIGNBL0101001E
  0
POLYLINE
  8
LAYER_1
 40
0.1764
 41
0.1764
 66
1
 10
0
 20
0
 30
0
  0
VERTEX
  8
LAYER_1
 10
156.2764
 20
112.5582
  0
VERTEX
  8
LAYER_1
 10
184.0928
 20
122.4986
  0
SEQEND
  0
POLYLINE
  8
LAYER_1
 40
0.1764
 41
0.1764
 66
1
 10
0
 20
0
 30
0
  0
VERTEX
  8
LAYER_1
 10
184.0094
 20
121.3473
  0
VERTEX
  8
LAYER_1
 10
184.7171
 20
121.605
 42
0.3315096625
  0
VERTEX
  8
LAYER_1
 10
185.023
 20
122.0329
  0
VERTEX
  8
LAYER_1
 10
185.1194
 20
123.249
  0
VERTEX
  8
LAYER_1
 10
185.1684
 20
123.8567
 42
0.1730055132
  0
VERTEX
  8
LAYER_1
 10
185.1654
 20
124.3276
 42
0.1763598241
  0
VERTEX
  8
LAYER_1
 10
185.0795
 20
124.4251
  0
VERTEX
  8
LAYER_1
 10
184.5731
 20
124.6911
  0
VERTEX
  8
LAYER_1
 10
184.4015
 20
124.7814
 42
0.2218733751
  0
VERTEX
  8
LAYER_1
 10
183.8661
 20
124.8179
  0
VERTEX
  8
LAYER_1
 10
183.4389
 20
124.6732
 42
0.2159084801
  0
VERTEX
  8
LAYER_1
 10
183.3278
 20
124.5849
 42
0.4227159015
  0
VERTEX
  8
LAYER_1
 10
183.401
 20
124.4413
  0
SEQEND
  0
POLYLINE
  8
LAYER_1
 40
0.1764
 41
0.1764
 66
1
 10
0
 20
0
 30
0
  0
VERTEX
  8
LAYER_1
 10
156.2537
 20
112.7211
  0
VERTEX
  8
LAYER_1
 10
183.966
 20
122.5696
  0
VERTEX
  8
LAYER_1
 10
184.0928
 20
122.4986
  0
VERTEX
  8
LAYER_1
 10
184.1514
 20
123.3082
 42
0.1512265088
  0
VERTEX
  8
LAYER_1
 10
184.1577
 20
123.9696
 42
0.1892732768
  0
VERTEX
  8
LAYER_1
 10
184.0742
 20
124.0792
  0
VERTEX
  8
LAYER_1
 10
183.5726
 20
124.3493
  0
VERTEX
  8
LAYER_1
 10
183.401
 20
124.4413
  0
SEQEND
  0
POLYLINE
  8
LAYER_1
 40
0.1764
 41
0.1764
 66
1
 10
0
 20
0
 30
0
  0
VERTEX
  8
LAYER_1
 10
183.3108
 20
124.5326
  0
VERTEX
  8
LAYER_1
 10
183.297
 20
124.3903
 42
0.3619719453
  0
VERTEX
  8
LAYER_1
 10
183.3907
 20
124.2736
  0
VERTEX
  8
LAYER_1
 10
183.5609
 20
124.1812
 42
-0.2591974973
  0
VERTEX
  8
LAYER_1
 10
184.0048
 20
123.8997
 42
-0.09945553815
  0
VERTEX
  8
LAYER_1
 10
184.0398
 20
123.7219
 42
-0.02316621223
  0
VERTEX
  8
LAYER_1
 10
184.0336
 20
123.5053
  0
VERTEX
  8
LAYER_1
 10
183.966
 20
122.5696
  0
SEQEND
  0
POLYLINE
  8
LAYER_1
 40
0.1764
 41
0.1764
 66
1
 10
0
 20
0
 30
0
 70
1
  0
VERTEX
  8
LAYER_1
 10
183.7063
 20
124.5919
 42
0.2261752044
  0
VERTEX
  8
LAYER_1
 10
183.7614
 20
124.5063
 42
0.162811727
  0
VERTEX
  8
LAYER_1
 10
183.9619
 20
124.4586
 42
0.1466137221
  0
VERTEX
  8
LAYER_1
 10
184.1487
 20
124.5176
 42
0.2492385556
  0
VERTEX
  8
LAYER_1
 10
184.2051
 20
124.6153
 42
0.226851166
  0
VERTEX
  8
LAYER_1
 10
184.1497
 20
124.7004
 42
0.1615812152
  0
VERTEX
  8
LAYER_1
 10
183.9488
 20
124.7479
 42
0.1469497531
  0
VERTEX
  8
LAYER_1
 10
183.7627
 20
124.6891
 42
0.2469263515
  0
SEQEND
  0
POLYLINE
  8
LAYER_1
 40
0.1764
 41
0.1764
 66
1
 10
0
 20
0
 30
0
  0
VERTEX
  8
LAYER_1
 10
154.948
 20
111.1119
  0
VERTEX
  8
LAYER_1
 10
154.9514
 20
111.1088
  0
SEQEND
  0
POLYLINE
  8
LAYER_1
 40
0.1764
 41
0.1764
 66
1
 10
0
 20
0
 30
0
  0
VERTEX
  8
LAYER_1
 10
154.8887
 20
114.486
  0
VERTEX
  8
LAYER_1
 10
154.8012
 20
114.4657
  0
VERTEX
  8
LAYER_1
 10
154.6717
 20
114.4612
  0
VERTEX
  8
LAYER_1
 10
154.6572
 20
114.4626
  0
VERTEX
  8
LAYER_1
 10
154.5477
 20
114.4915
  0
VERTEX
  8
LAYER_1
 10
154.538
 20
114.4971
  0
VERTEX
  8
LAYER_1
 10
154.5353
 20
114.4981
  0
VERTEX
  8
LAYER_1
 10
154.4932
 20
114.5281
  0
VERTEX
  8
LAYER_1
 10
154.4664
 20
114.5839
  0
VERTEX
  8
LAYER_1
 10
154.4657
 20
114.588
  0
VERTEX
  8
LAYER_1
 10
154.465
 20
114.5904
  0
VERTEX
  8
LAYER_1
 10
154.4719
 20
114.6287
  0
VERTEX
  8
LAYER_1
 10
154.476
 20
114.6373
  0
VERTEX
  8
LAYER_1
 10
154.5229
 20
114.6927
  0
VERTEX
  8
LAYER_1
 10
154.569
 20
114.7237
  0
VERTEX
  8
LAYER_1
 10
154.6193
 20
114.7472
  0
VERTEX
  8
LAYER_1
 10
154.6841
 20
114.7665
  0
VERTEX
  8
LAYER_1
 10
154.7447
 20
114.7775
  0
VERTEX
  8
LAYER_1
 10
154.8067
 20
114.7823
  0
VERTEX
  8
LAYER_1
 10
154.8736
 20
114.7789
  0
VERTEX
  8
LAYER_1
 10
154.9259
 20
114.7699
  0
VERTEX
  8
LAYER_1
 10
154.9769
 20
114.7527
  0
VERTEX
  8
LAYER_1
 10
154.9776
 20
114.7527
  0
VERTEX
  8
LAYER_1
 10
154.9852
 20
114.7492
 42
-0.3166555147
  0
VERTEX
  8
LAYER_1
 10
155.0672
 20
114.6548
  0
VERTEX
  8
LAYER_1
 10
155.0672
 20
114.6528
  0
VERTEX
  8
LAYER_1
 10
155.0679
 20
114.6507
  0
VERTEX
  8
LAYER_1
 10
155.0679
 20
114.6473
 42
-0.2177924694
  0
VERTEX
  8
LAYER_1
 10
155.019
 20
114.557
  0
VERTEX
  8
LAYER_1
 10
155.0183
 20
114.5567
  0
VERTEX
  8
LAYER_1
 10
155.0134
 20
114.5515
 42
-0.08927218845
  0
VERTEX
  8
LAYER_1
 10
154.8956
 20
114.4888
  0
SEQEND
  0
POLYLINE
  8
LAYER_1
 40
0.1764
 41
0.1764
 66
1
 10
0
 20
0
 30
0
  0
VERTEX
  8
LAYER_1
 10
156.3956
 20
111.3048
  0
VERTEX
  8
LAYER_1
 10
155.4131
 20
110.9472
  0
VERTEX
  8
LAYER_1
 10
155.3593
 20
110.9307
 42
-0.1747686218
  0
VERTEX
  8
LAYER_1
 10
155.1278
 20
110.9459
  0
VERTEX
  8
LAYER_1
 10
155.0768
 20
110.9762
  0
VERTEX
  8
LAYER_1
 10
155.0755
 20
110.9782
  0
VERTEX
  8
LAYER_1
 10
155.0699
 20
110.9817
  0
VERTEX
  8
LAYER_1
 10
155.0658
 20
110.9862
  0
VERTEX
  8
LAYER_1
 10
155.0651
 20
110.9869
  0
VERTEX
  8
LAYER_1
 10
155.052
 20
110.9975
  0
VERTEX
  8
LAYER_1
 10
155.0458
 20
111.0037
  0
VERTEX
  8
LAYER_1
 10
155.0431
 20
111.0072
  0
VERTEX
  8
LAYER_1
 10
155.001
 20
111.0682
  0
VERTEX
  8
LAYER_1
 10
155.001
 20
111.0688
  0
VERTEX
  8
LAYER_1
 10
154.9838
 20
111.1112
  0
VERTEX
  8
LAYER_1
 10
154.9735
 20
111.1629
  0
VERTEX
  8
LAYER_1
 10
154.8777
 20
111.268
  0
VERTEX
  8
LAYER_1
 10
154.8887
 20
111.216
 42
0.1164450176
  0
VERTEX
  8
LAYER_1
 10
154.9466
 20
111.1147
  0
VERTEX
  8
LAYER_1
 10
155.0376
 20
111.0127
  0
SEQEND
  0
POLYLINE
  8
LAYER_1
 40
0.1764
 41
0.1764
 66
1
 10
0
 20
0
 30
0
  0
VERTEX
  8
LAYER_1
 10
154.022
 20
114.4609
  0
VERTEX
  8
LAYER_1
 10
154.0454
 20
114.2759
  0
VERTEX
  8
LAYER_1
 10
154.0564
 20
114.237
  0
VERTEX
  8
LAYER_1
 10
154.0564
 20
114.2366
  0
VERTEX
  8
LAYER_1
 10
154.0619
 20
114.2256
  0
VERTEX
  8
LAYER_1
 10
154.0626
 20
114.2256
  0
VERTEX
  8
LAYER_1
 10
154.0654
 20
114.2215
  0
VERTEX
  8
LAYER_1
 10
154.066
 20
114.2215
  0
VERTEX
  8
LAYER_1
 10
154.086
 20
114.1953
  0
VERTEX
  8
LAYER_1
 10
154.2135
 20
114.0609
 42
-0.2092168055
  0
VERTEX
  8
LAYER_1
 10
154.6145
 20
113.4635
  0
VERTEX
  8
LAYER_1
 10
154.702
 20
112.7314
  0
VERTEX
  8
LAYER_1
 10
154.8777
 20
111.268
  0
SEQEND
  0
POLYLINE
  8
LAYER_1
 40
0.1764
 41
0.1764
 66
1
 10
0
 20
0
 30
0
  0
VERTEX
  8
LAYER_1
 10
154.9735
 20
111.1629
  0
VERTEX
  8
LAYER_1
 10
154.8109
 20
112.5203
 42
0.04951656793
  0
VERTEX
  8
LAYER_1
 10
154.6309
 20
113.711
 42
0.1320738238
  0
VERTEX
  8
LAYER_1
 10
154.5677
 20
113.8528
  0
VERTEX
  8
LAYER_1
 10
154.1914
 20
114.2476
  0
VERTEX
  8
LAYER_1
 10
154.0626
 20
114.3827
 42
-0.1970606967
  0
VERTEX
  8
LAYER_1
 10
154.022
 20
114.4674
  0
VERTEX
  8
LAYER_1
 10
154.022
 20
114.4692
  0
VERTEX
  8
LAYER_1
 10
154.022
 20
114.4791
 42
-0.1287004232
  0
VERTEX
  8
LAYER_1
 10
154.0447
 20
114.5549
 42
-0.1985721496
  0
VERTEX
  8
LAYER_1
 10
154.2728
 20
114.712
  0
VERTEX
  8
LAYER_1
 10
154.8805
 20
114.9181
 42
-0.1124450113
  0
VERTEX
  8
LAYER_1
 10
155.2215
 20
114.9539
  0
VERTEX
  8
LAYER_1
 10
155.2222
 20
114.9539
  0
VERTEX
  8
LAYER_1
 10
155.3456
 20
114.9267
  0
VERTEX
  8
LAYER_1
 10
155.358
 20
114.9222
 42
-0.1191680328
  0
VERTEX
  8
LAYER_1
 10
155.4634
 20
114.8581
  0
VERTEX
  8
LAYER_1
 10
155.595
 20
114.7265
  0
VERTEX
  8
LAYER_1
 10
155.9808
 20
114.3389
 42
-0.09942023844
  0
VERTEX
  8
LAYER_1
 10
156.0459
 20
114.1753
 42
-0.02622848694
  0
VERTEX
  8
LAYER_1
 10
156.1558
 20
113.5669
 42
-0.008885385551
  0
VERTEX
  8
LAYER_1
 10
156.2764
 20
112.5582
  0
SEQEND
  0
POLYLINE
  8
LAYER_1
 40
0.1764
 41
0.1764
 66
1
 10
0
 20
0
 30
0
  0
VERTEX
  8
LAYER_1
 10
154.0447
 20
114.2786
  0
VERTEX
  8
LAYER_1
 10
154.0447
 20
114.2807
  0
SEQEND
  0
POLYLINE
  8
LAYER_1
 40
0.1764
 41
0.1764
 66
1
 10
0
 20
0
 30
0
  0
VERTEX
  8
LAYER_1
 10
155.0183
 20
114.5567
  0
VERTEX
  8
LAYER_1
 10
155.0086
 20
114.5625
  0
VERTEX
  8
LAYER_1
 10
155.0079
 20
114.5625
  0
VERTEX
  8
LAYER_1
 10
154.9928
 20
114.5701
  0
VERTEX
  8
LAYER_1
 10
154.9921
 20
114.5701
  0
VERTEX
  8
LAYER_1
 10
154.9838
 20
114.5722
  0
VERTEX
  8
LAYER_1
 10
154.9811
 20
114.5735
  0
VERTEX
  8
LAYER_1
 10
154.9756
 20
114.5763
  0
VERTEX
  8
LAYER_1
 10
154.9694
 20
114.578
  0
VERTEX
  8
LAYER_1
 10
154.9638
 20
114.5804
  0
VERTEX
  8
LAYER_1
 10
154.9597
 20
114.5808
  0
VERTEX
  8
LAYER_1
 10
154.9569
 20
114.5811
  0
VERTEX
  8
LAYER_1
 10
154.9514
 20
114.5832
  0
VERTEX
  8
LAYER_1
 10
154.9487
 20
114.5832
  0
VERTEX
  8
LAYER_1
 10
154.939
 20
114.5859
  0
VERTEX
  8
LAYER_1
 10
154.937
 20
114.5866
  0
VERTEX
  8
LAYER_1
 10
154.9308
 20
114.5873
  0
VERTEX
  8
LAYER_1
 10
154.9287
 20
114.5884
  0
VERTEX
  8
LAYER_1
 10
154.9108
 20
114.5911
  0
VERTEX
  8
LAYER_1
 10
154.9094
 20
114.5911
  0
VERTEX
  8
LAYER_1
 10
154.8667
 20
114.5952
  0
VERTEX
  8
LAYER_1
 10
154.866
 20
114.5956
  0
VERTEX
  8
LAYER_1
 10
154.8453
 20
114.5963
  0
VERTEX
  8
LAYER_1
 10
154.8446
 20
114.5963
  0
VERTEX
  8
LAYER_1
 10
154.8364
 20
114.5959
  0
VERTEX
  8
LAYER_1
 10
154.8343
 20
114.5963
  0
VERTEX
  8
LAYER_1
 10
154.8233
 20
114.5963
  0
VERTEX
  8
LAYER_1
 10
154.8212
 20
114.5963
  0
VERTEX
  8
LAYER_1
 10
154.8136
 20
114.5959
  0
VERTEX
  8
LAYER_1
 10
154.8123
 20
114.5959
  0
VERTEX
  8
LAYER_1
 10
154.8061
 20
114.5956
  0
VERTEX
  8
LAYER_1
 10
154.7985
 20
114.5952
  0
VERTEX
  8
LAYER_1
 10
154.7909
 20
114.5942
  0
VERTEX
  8
LAYER_1
 10
154.7833
 20
114.5935
  0
VERTEX
  8
LAYER_1
 10
154.7806
 20
114.5935
  0
VERTEX
  8
LAYER_1
 10
154.7688
 20
114.5918
  0
VERTEX
  8
LAYER_1
 10
154.7682
 20
114.5918
  0
VERTEX
  8
LAYER_1
 10
154.7461
 20
114.5887
  0
VERTEX
  8
LAYER_1
 10
154.7041
 20
114.5811
  0
VERTEX
  8
LAYER_1
 10
154.6848
 20
114.5749
  0
VERTEX
  8
LAYER_1
 10
154.6841
 20
114.5749
  0
VERTEX
  8
LAYER_1
 10
154.6738
 20
114.5722
  0
VERTEX
  8
LAYER_1
 10
154.6717
 20
114.5715
  0
VERTEX
  8
LAYER_1
 10
154.6676
 20
114.5701
  0
VERTEX
  8
LAYER_1
 10
154.6648
 20
114.5694
  0
VERTEX
  8
LAYER_1
 10
154.6607
 20
114.5673
  0
VERTEX
  8
LAYER_1
 10
154.6476
 20
114.5632
  0
VERTEX
  8
LAYER_1
 10
154.6455
 20
114.5625
  0
VERTEX
  8
LAYER_1
 10
154.6414
 20
114.5611
  0
VERTEX
  8
LAYER_1
 10
154.6352
 20
114.5584
  0
VERTEX
  8
LAYER_1
 10
154.6345
 20
114.5577
  0
VERTEX
  8
LAYER_1
 10
154.6255
 20
114.5542
  0
VERTEX
  8
LAYER_1
 10
154.6242
 20
114.5536
  0
VERTEX
  8
LAYER_1
 10
154.618
 20
114.5515
  0
VERTEX
  8
LAYER_1
 10
154.6166
 20
114.5505
  0
VERTEX
  8
LAYER_1
 10
154.6069
 20
114.546
  0
VERTEX
  8
LAYER_1
 10
154.5897
 20
114.5363
  0
VERTEX
  8
LAYER_1
 10
154.5511
 20
114.5119
  0
VERTEX
  8
LAYER_1
 10
154.5353
 20
114.4981
  0
SEQEND
  0
POLYLINE
  8
LAYER_1
 40
0.1764
 41
0.1764
 66
1
 10
0
 20
0
 30
0
  0
VERTEX
  8
LAYER_1
 10
156.3956
 20
111.3048
  0
VERTEX
  8
LAYER_1
 10
184.0094
 20
121.3473
  0
SEQEND
  0
ENDBLK
  0
BLOCK
  8
LAYER_1
  2
AIGNBL0101001F
 70
64
 10
0
 20
0
 30
0
  3
AIGNBL0101001F
  0
POLYLINE
  8
LAYER_1
 40
0.1764
 41
0.1764
 66
1
 10
0
 20
0
 30
0
 70
1
  0
VERTEX
  8
LAYER_1
 10
184.9927
 20
117.3482
 42
-0.17384136
  0
VERTEX
  8
LAYER_1
 10
184.9442
 20
117.2298
 42
-0.09744746859
  0
VERTEX
  8
LAYER_1
 10
184.7958
 20
117.1204
 42
-0.06175355921
  0
VERTEX
  8
LAYER_1
 10
184.5195
 20
117.0259
 42
-0.0546715688
  0
VERTEX
  8
LAYER_1
 10
184.0701
 20
116.9793
 42
-0.1135913938
  0
VERTEX
  8
LAYER_1
 10
183.3101
 20
117.1382
 42
-0.2348205677
  0
VERTEX
  8
LAYER_1
 10
183.1461
 20
117.3482
 42
-0.1739958568
  0
VERTEX
  8
LAYER_1
 10
183.1946
 20
117.4664
 42
-0.09742039102
  0
VERTEX
  8
LAYER_1
 10
183.3431
 20
117.5758
 42
-0.06169968557
  0
VERTEX
  8
LAYER_1
 10
183.6198
 20
117.6702
 42
-0.05457552502
  0
VERTEX
  8
LAYER_1
 10
184.0701
 20
117.7168
 42
-0.1136400147
  0
VERTEX
  8
LAYER_1
 10
184.8288
 20
117.558
 42
-0.2346882168
  0
SEQEND
  0
POLYLINE
  8
LAYER_1
 40
0.1764
 41
0.1764
 66
1
 10
0
 20
0
 30
0
 70
1
  0
VERTEX
  8
LAYER_1
 10
184.3491
 20
117.3482
 42
-0.2471062931
  0
VERTEX
  8
LAYER_1
 10
184.2977
 20
117.2833
 42
-0.1257387458
  0
VERTEX
  8
LAYER_1
 10
184.0701
 20
117.2363
 42
-0.1279339777
  0
VERTEX
  8
LAYER_1
 10
183.8394
 20
117.2844
 42
-0.2772988224
  0
VERTEX
  8
LAYER_1
 10
183.7896
 20
117.3482
 42
-0.2465520675
  0
VERTEX
  8
LAYER_1
 10
183.8413
 20
117.4127
 42
-0.1249547253
  0
VERTEX
  8
LAYER_1
 10
184.0701
 20
117.4598
 42
-0.1283399077
  0
VERTEX
  8
LAYER_1
 10
184.2996
 20
117.4116
 42
-0.2796177787
  0
SEQEND
  0
ENDBLK
  0
BLOCK
  8
LAYER_1
  2
AIGNBL01010020
 70
64
 10
0
 20
0
 30
0
  3
AIGNBL01010020
  0
POLYLINE
  8
LAYER_1
 40
0.1764
 41
0.1764
 66
1
 10
0
 20
0
 30
0
  0
VERTEX
  8
LAYER_1
 10
184.3154
 20
112.6553
 42
-0.2707654147
  0
VERTEX
  8
LAYER_1
 10
184.4242
 20
112.43
 42
-0.3998795856
  0
VERTEX
  8
LAYER_1
 10
184.0446
 20
112.0845
 42
-0.3782225929
  0
VERTEX
  8
LAYER_1
 10
183.6773
 20
112.4338
 42
-0.2119696479
  0
VERTEX
  8
LAYER_1
 10
183.7752
 20
112.667
  0
SEQEND
  0
POLYLINE
  8
LAYER_1
 40
0.1764
 41
0.1764
 66
1
 10
0
 20
0
 30
0
 70
1
  0
VERTEX
  8
LAYER_1
 10
184.0687
 20
113.9631
 42
-0.4022628258
  0
VERTEX
  8
LAYER_1
 10
183.8007
 20
114.2525
 42
-0.3802118536
  0
VERTEX
  8
LAYER_1
 10
184.0763
 20
114.5339
 42
-0.4031874313
  0
VERTEX
  8
LAYER_1
 10
184.3409
 20
114.2456
 42
-0.3834563368
  0
SEQEND
  0
POLYLINE
  8
LAYER_1
 40
0.1764
 41
0.1764
 66
1
 10
0
 20
0
 30
0
  0
VERTEX
  8
LAYER_1
 10
184.314
 20
112.5406
 42
-0.374082956
  0
VERTEX
  8
LAYER_1
 10
184.0377
 20
112.2536
 42
-0.4008565656
  0
VERTEX
  8
LAYER_1
 10
183.7731
 20
112.5416
  0
SEQEND
  0
POLYLINE
  8
LAYER_1
 40
0.1764
 41
0.1764
 66
1
 10
0
 20
0
 30
0
  0
VERTEX
  8
LAYER_1
 10
184.314
 20
112.7532
 42
-0.3755369792
  0
VERTEX
  8
LAYER_1
 10
184.0377
 20
112.4665
 42
-0.4008209416
  0
VERTEX
  8
LAYER_1
 10
183.7731
 20
112.7538
  0
SEQEND
  0
POLYLINE
  8
LAYER_1
 40
0.1764
 41
0.1764
 66
1
 10
0
 20
0
 30
0
  0
VERTEX
  8
LAYER_1
 10
184.3229
 20
112.9847
 42
-0.3855958303
  0
VERTEX
  8
LAYER_1
 10
184.0466
 20
112.698
 42
-0.4006242013
  0
VERTEX
  8
LAYER_1
 10
183.7814
 20
112.986
  0
SEQEND
  0
POLYLINE
  8
LAYER_1
 40
0.1764
 41
0.1764
 66
1
 10
0
 20
0
 30
0
  0
VERTEX
  8
LAYER_1
 10
184.3133
 20
113.1962
 42
-0.3837277421
  0
VERTEX
  8
LAYER_1
 10
184.0439
 20
112.9175
 42
-0.4082241845
  0
VERTEX
  8
LAYER_1
 10
183.7848
 20
113.1969
  0
SEQEND
  0
POLYLINE
  8
LAYER_1
 40
0.1764
 41
0.1764
 66
1
 10
0
 20
0
 30
0
  0
VERTEX
  8
LAYER_1
 10
184.3305
 20
113.4063
 42
-0.3754078186
  0
VERTEX
  8
LAYER_1
 10
184.0549
 20
113.119
 42
-0.3979712814
  0
VERTEX
  8
LAYER_1
 10
183.7869
 20
113.4084
  0
SEQEND
  0
POLYLINE
  8
LAYER_1
 40
0.1764
 41
0.1764
 66
1
 10
0
 20
0
 30
0
  0
VERTEX
  8
LAYER_1
 10
184.3291
 20
113.5858
 42
-0.379545476
  0
VERTEX
  8
LAYER_1
 10
184.0563
 20
113.303
 42
-0.4082736773
  0
VERTEX
  8
LAYER_1
 10
183.7945
 20
113.5886
  0
SEQEND
  0
POLYLINE
  8
LAYER_1
 40
0.1764
 41
0.1764
 66
1
 10
0
 20
0
 30
0
  0
VERTEX
  8
LAYER_1
 10
184.3278
 20
113.7522
 42
-0.3827912801
  0
VERTEX
  8
LAYER_1
 10
184.0584
 20
113.4677
 42
-0.4037123289
  0
VERTEX
  8
LAYER_1
 10
183.7938
 20
113.7557
  0
SEQEND
  0
POLYLINE
  8
LAYER_1
 40
0.1764
 41
0.1764
 66
1
 10
0
 20
0
 30
0
  0
VERTEX
  8
LAYER_1
 10
184.3409
 20
113.9248
 42
-0.3869634966
  0
VERTEX
  8
LAYER_1
 10
184.068
 20
113.6413
 42
-0.4044492765
  0
VERTEX
  8
LAYER_1
 10
183.8069
 20
113.9279
  0
SEQEND
  0
POLYLINE
  8
LAYER_1
 40
0.1764
 41
0.1764
 66
1
 10
0
 20
0
 30
0
  0
VERTEX
  8
LAYER_1
 10
184.4277
 20
112.1296
 42
-0.4042003248
  0
VERTEX
  8
LAYER_1
 10
184.0473
 20
111.7844
 42
-0.3791691659
  0
VERTEX
  8
LAYER_1
 10
183.6808
 20
112.1334
  0
SEQEND
  0
POLYLINE
  8
LAYER_1
 40
0.1764
 41
0.1764
 66
1
 10
0
 20
0
 30
0
  0
VERTEX
  8
LAYER_1
 10
184.4277
 20
112.1296
  0
VERTEX
  8
LAYER_1
 10
184.4242
 20
112.43
  0
SEQEND
  0
POLYLINE
  8
LAYER_1
 40
0.1764
 41
0.1764
 66
1
 10
0
 20
0
 30
0
  0
VERTEX
  8
LAYER_1
 10
183.6808
 20
112.1334
  0
VERTEX
  8
LAYER_1
 10
183.6773
 20
112.4338
  0
SEQEND
  0
POLYLINE
  8
LAYER_1
 40
0.1764
 41
0.1764
 66
1
 10
0
 20
0
 30
0
  0
VERTEX
  8
LAYER_1
 10
184.3409
 20
114.2456
  0
VERTEX
  8
LAYER_1
 10
184.3078
 20
112.6064
  0
SEQEND
  0
POLYLINE
  8
LAYER_1
 40
0.1764
 41
0.1764
 66
1
 10
0
 20
0
 30
0
  0
VERTEX
  8
LAYER_1
 10
183.8007
 20
114.2525
  0
VERTEX
  8
LAYER_1
 10
183.7731
 20
112.5416
  0
SEQEND
  0
ENDBLK
  0
BLOCK
  8
LAYER_1
  2
AIGNBL01010021
 70
64
 10
0
 20
0
 30
0
  3
AIGNBL01010021
  0
POLYLINE
  8
LAYER_1
 40
0.1764
 41
0.1764
 66
1
 10
0
 20
0
 30
0
  0
VERTEX
  8
LAYER_1
 10
174.9819
 20
172.4918
  0
VERTEX
  8
LAYER_1
 10
83.2225
 20
172.4918
  0
SEQEND
  0
POLYLINE
  8
LAYER_1
 40
0.1764
 41
0.1764
 66
1
 10
0
 20
0
 30
0
  0
VERTEX
  8
LAYER_1
 10
83.2225
 20
176.7174
  0
VERTEX
  8
LAYER_1
 10
174.9805
 20
176.7174
  0
SEQEND
  0
POLYLINE
  8
LAYER_1
 40
0.1764
 41
0.1764
 66
1
 10
0
 20
0
 30
0
  0
VERTEX
  8
LAYER_1
 10
83.2225
 20
172.4918
  0
VERTEX
  8
LAYER_1
 10
80.2008
 20
172.4918
 42
-0.4142154468
  0
VERTEX
  8
LAYER_1
 10
78.9933
 20
173.6993
  0
SEQEND
  0
POLYLINE
  8
LAYER_1
 40
0.1764
 41
0.1764
 66
1
 10
0
 20
0
 30
0
  0
VERTEX
  8
LAYER_1
 10
83.2225
 20
172.4918
  0
VERTEX
  8
LAYER_1
 10
83.2225
 20
176.7182
  0
SEQEND
  0
POLYLINE
  8
LAYER_1
 40
0.1764
 41
0.1764
 66
1
 10
0
 20
0
 30
0
  0
VERTEX
  8
LAYER_1
 10
83.2225
 20
176.7174
  0
VERTEX
  8
LAYER_1
 10
83.2225
 20
181.5612
  0
SEQEND
  0
POLYLINE
  8
LAYER_1
 40
0.1764
 41
0.1764
 66
1
 10
0
 20
0
 30
0
  0
VERTEX
  8
LAYER_1
 10
78.9933
 20
181.5477
  0
VERTEX
  8
LAYER_1
 10
78.9933
 20
181.5612
  0
SEQEND
  0
POLYLINE
  8
LAYER_1
 40
0.1764
 41
0.1764
 66
1
 10
0
 20
0
 30
0
  0
VERTEX
  8
LAYER_1
 10
78.9933
 20
173.7002
  0
VERTEX
  8
LAYER_1
 10
78.9933
 20
181.5612
  0
SEQEND
  0
POLYLINE
  8
LAYER_1
 40
0.1764
 41
0.1764
 66
1
 10
0
 20
0
 30
0
  0
VERTEX
  8
LAYER_1
 10
78.9933
 20
181.5612
  0
VERTEX
  8
LAYER_1
 10
78.9933
 20
182.1506
  0
VERTEX
  8
LAYER_1
 10
83.2225
 20
182.1506
  0
VERTEX
  8
LAYER_1
 10
83.2225
 20
181.5612
  0
SEQEND
  0
POLYLINE
  8
LAYER_1
 40
0.1764
 41
0.1764
 66
1
 10
0
 20
0
 30
0
  0
VERTEX
  8
LAYER_1
 10
178.0019
 20
172.4918
 42
0.3928587931
  0
VERTEX
  8
LAYER_1
 10
179.2111
 20
173.6993
  0
SEQEND
  0
POLYLINE
  8
LAYER_1
 40
0.1764
 41
0.1764
 66
1
 10
0
 20
0
 30
0
  0
VERTEX
  8
LAYER_1
 10
174.9819
 20
172.4918
  0
VERTEX
  8
LAYER_1
 10
178.0019
 20
172.4918
  0
SEQEND
  0
POLYLINE
  8
LAYER_1
 40
0.1764
 41
0.1764
 66
1
 10
0
 20
0
 30
0
  0
VERTEX
  8
LAYER_1
 10
174.9819
 20
172.4918
  0
VERTEX
  8
LAYER_1
 10
174.9819
 20
176.7182
  0
SEQEND
  0
POLYLINE
  8
LAYER_1
 40
0.1764
 41
0.1764
 66
1
 10
0
 20
0
 30
0
  0
VERTEX
  8
LAYER_1
 10
174.9819
 20
176.7174
  0
VERTEX
  8
LAYER_1
 10
174.9819
 20
181.5612
  0
SEQEND
  0
POLYLINE
  8
LAYER_1
 40
0.1764
 41
0.1764
 66
1
 10
0
 20
0
 30
0
  0
VERTEX
  8
LAYER_1
 10
174.9819
 20
181.5612
  0
VERTEX
  8
LAYER_1
 10
174.9819
 20
182.1506
  0
VERTEX
  8
LAYER_1
 10
179.2111
 20
182.1506
  0
VERTEX
  8
LAYER_1
 10
179.2111
 20
181.5612
  0
SEQEND
  0
POLYLINE
  8
LAYER_1
 40
0.1764
 41
0.1764
 66
1
 10
0
 20
0
 30
0
  0
VERTEX
  8
LAYER_1
 10
179.2111
 20
173.7002
  0
VERTEX
  8
LAYER_1
 10
179.2111
 20
181.5612
  0
SEQEND
  0
POLYLINE
  8
LAYER_1
 40
0.1764
 41
0.1764
 66
1
 10
0
 20
0
 30
0
  0
VERTEX
  8
LAYER_1
 10
48.602
 20
174.0085
  0
VERTEX
  8
LAYER_1
 10
48.602
 20
172.8008
  0
VERTEX
  8
LAYER_1
 10
47.9974
 20
172.8008
  0
VERTEX
  8
LAYER_1
 10
47.9974
 20
174.0085
  0
SEQEND
  0
POLYLINE
  8
LAYER_1
 40
0.1764
 41
0.1764
 66
1
 10
0
 20
0
 30
0
  0
VERTEX
  8
LAYER_1
 10
47.9974
 20
174.0085
  0
VERTEX
  8
LAYER_1
 10
47.9974
 20
181.7048
 42
-0.08117199122
  0
VERTEX
  8
LAYER_1
 10
48.0441
 20
182.1181
 42
-0.369689506
  0
VERTEX
  8
LAYER_1
 10
48.602
 20
182.4614
  0
SEQEND
  0
POLYLINE
  8
LAYER_1
 40
0.1764
 41
0.1764
 66
1
 10
0
 20
0
 30
0
  0
VERTEX
  8
LAYER_1
 10
48.3287
 20
182.4614
  0
VERTEX
  8
LAYER_1
 10
48.6003
 20
182.4614
  0
SEQEND
  0
POLYLINE
  8
LAYER_1
 40
0.1764
 41
0.1764
 66
1
 10
0
 20
0
 30
0
  0
VERTEX
  8
LAYER_1
 10
47.9991
 20
181.8704
  0
VERTEX
  8
LAYER_1
 10
48.0009
 20
181.9298
  0
VERTEX
  8
LAYER_1
 10
48.0043
 20
181.9841
  0
VERTEX
  8
LAYER_1
 10
48.0246
 20
182.0997
  0
VERTEX
  8
LAYER_1
 10
48.0568
 20
182.199
  0
VERTEX
  8
LAYER_1
 10
48.0977
 20
182.2915
  0
VERTEX
  8
LAYER_1
 10
48.1487
 20
182.3646
  0
VERTEX
  8
LAYER_1
 10
48.2046
 20
182.4173
  0
VERTEX
  8
LAYER_1
 10
48.2658
 20
182.4495
  0
VERTEX
  8
LAYER_1
 10
48.3287
 20
182.4614
  0
SEQEND
  0
POLYLINE
  8
LAYER_1
 40
0.1764
 41
0.1764
 66
1
 10
0
 20
0
 30
0
  0
VERTEX
  8
LAYER_1
 10
49.2066
 20
181.8568
 42
0.09663941423
  0
VERTEX
  8
LAYER_1
 10
48.9047
 20
181.8093
 42
0.2214733883
  0
VERTEX
  8
LAYER_1
 10
48.6531
 20
181.5503
 42
0.09468681122
  0
VERTEX
  8
LAYER_1
 10
48.6003
 20
181.1774
  0
VERTEX
  8
LAYER_1
 10
48.6003
 20
174.0085
  0
SEQEND
  0
POLYLINE
  8
LAYER_1
 40
0.1764
 41
0.1764
 66
1
 10
0
 20
0
 30
0
  0
VERTEX
  8
LAYER_1
 10
48.602
 20
182.4614
  0
VERTEX
  8
LAYER_1
 10
51.6627
 20
182.4614
  0
VERTEX
  8
LAYER_1
 10
51.6627
 20
181.8568
  0
VERTEX
  8
LAYER_1
 10
49.2049
 20
181.8568
  0
SEQEND
  0
POLYLINE
  8
LAYER_1
 40
0.1764
 41
0.1764
 66
1
 10
0
 20
0
 30
0
  0
VERTEX
  8
LAYER_1
 10
68.5481
 20
174.6879
  0
VERTEX
  8
LAYER_1
 10
68.5481
 20
180.5728
  0
SEQEND
  0
POLYLINE
  8
LAYER_1
 40
0.05
 41
0.05
 66
1
 10
0
 20
0
 30
0
  0
VERTEX
  8
LAYER_1
 10
69.141
 20
175.109
  0
VERTEX
  8
LAYER_1
 10
68.5226
 20
172.8008
  0
VERTEX
  8
LAYER_1
 10
67.9028
 20
175.109
  0
SEQEND
  0
POLYLINE
  8
LAYER_1
 40
0.05
 41
0.05
 66
1
 10
0
 20
0
 30
0
  0
VERTEX
  8
LAYER_1
 10
69.141
 20
180.1516
  0
VERTEX
  8
LAYER_1
 10
68.5226
 20
182.4597
  0
VERTEX
  8
LAYER_1
 10
67.9028
 20
180.1516
  0
SEQEND
  0
POLYLINE
  8
LAYER_1
 40
0.1764
 41
0.1764
 66
1
 10
0
 20
0
 30
0
  0
VERTEX
  8
LAYER_1
 10
68.5481
 20
182.4597
  0
VERTEX
  8
LAYER_1
 10
74.9375
 20
182.4597
  0
SEQEND
  0
POLYLINE
  8
LAYER_1
 40
0.1764
 41
0.1764
 66
1
 10
0
 20
0
 30
0
  0
VERTEX
  8
LAYER_1
 10
74.9375
 20
172.8008
  0
VERTEX
  8
LAYER_1
 10
68.5481
 20
172.8008
  0
SEQEND
  0
TEXT
  8
LAYER_1
 10
67.0104
 20
175.6485
 11
67.0104
 21
175.6485
 40
5.3564
 41
0.5
 50
89.99999999
  1
80
  0
POLYLINE
  8
LAYER_1
 40
0.1764
 41
0.1764
 66
1
 10
0
 20
0
 30
0
  0
VERTEX
  8
LAYER_1
 10
80.8802
 20
192.2561
  0
VERTEX
  8
LAYER_1
 10
177.3225
 20
192.2561
  0
SEQEND
  0
POLYLINE
  8
LAYER_1
 40
0.05
 41
0.05
 66
1
 10
0
 20
0
 30
0
  0
VERTEX
  8
LAYER_1
 10
81.3015
 20
191.6634
  0
VERTEX
  8
LAYER_1
 10
78.9933
 20
192.2816
  0
VERTEX
  8
LAYER_1
 10
81.3015
 20
192.9007
  0
SEQEND
  0
POLYLINE
  8
LAYER_1
 40
0.05
 41
0.05
 66
1
 10
0
 20
0
 30
0
  0
VERTEX
  8
LAYER_1
 10
176.9012
 20
191.6634
  0
VERTEX
  8
LAYER_1
 10
179.2111
 20
192.2816
  0
VERTEX
  8
LAYER_1
 10
176.9012
 20
192.9007
  0
SEQEND
  0
POLYLINE
  8
LAYER_1
 40
0.1764
 41
0.1764
 66
1
 10
0
 20
0
 30
0
  0
VERTEX
  8
LAYER_1
 10
179.2111
 20
192.2561
  0
VERTEX
  8
LAYER_1
 10
179.2111
 20
185.8676
  0
SEQEND
  0
POLYLINE
  8
LAYER_1
 40
0.1764
 41
0.1764
 66
1
 10
0
 20
0
 30
0
  0
VERTEX
  8
LAYER_1
 10
78.9933
 20
185.8667
  0
VERTEX
  8
LAYER_1
 10
78.9933
 20
192.2561
  0
SEQEND
  0
TEXT
  8
LAYER_1
 10
125.1396
 20
193.7916
 11
125.1396
 21
193.7916
 40
5.3564
 41
0.5
  1
830
  0
POLYLINE
  8
LAYER_1
 40
0.1764
 41
0.1764
 66
1
 10
0
 20
0
 30
0
  0
VERTEX
  8
LAYER_1
 10
49.3408
 20
192.8327
  0
VERTEX
  8
LAYER_1
 10
50.9254
 20
192.8327
  0
SEQEND
  0
POLYLINE
  8
LAYER_1
 40
0.05
 41
0.05
 66
1
 10
0
 20
0
 30
0
  0
VERTEX
  8
LAYER_1
 10
49.6364
 20
192.4182
  0
VERTEX
  8
LAYER_1
 10
48.0195
 20
192.8506
  0
VERTEX
  8
LAYER_1
 10
49.6364
 20
193.2836
  0
SEQEND
  0
POLYLINE
  8
LAYER_1
 40
0.05
 41
0.05
 66
1
 10
0
 20
0
 30
0
  0
VERTEX
  8
LAYER_1
 10
50.63
 20
192.4182
  0
VERTEX
  8
LAYER_1
 10
52.2469
 20
192.8506
  0
VERTEX
  8
LAYER_1
 10
50.63
 20
193.2836
  0
SEQEND
  0
POLYLINE
  8
LAYER_1
 40
0.1764
 41
0.1764
 66
1
 10
0
 20
0
 30
0
  0
VERTEX
  8
LAYER_1
 10
52.2469
 20
192.8327
  0
VERTEX
  8
LAYER_1
 10
52.2469
 20
186.4441
  0
SEQEND
  0
POLYLINE
  8
LAYER_1
 40
0.1764
 41
0.1764
 66
1
 10
0
 20
0
 30
0
  0
VERTEX
  8
LAYER_1
 10
48.0195
 20
186.4432
  0
VERTEX
  8
LAYER_1
 10
48.0195
 20
192.8327
  0
SEQEND
  0
TEXT
  8
LAYER_1
 10
48.1511
 20
194.3683
 11
48.1511
 21
194.3683
 40
5.3564
 41
0.5
  1
35
  0
ENDBLK
  0
BLOCK
  8
LAYER_1
  2
AIGNBL01010022
 70
64
 10
0
 20
0
 30
0
  3
AIGNBL01010022
  0
INSERT
  8
LAYER_1
  2
AIGNBL01020023
 10
0
 20
0
 30
0
  0
INSERT
  8
LAYER_1
  2
AIGNBL0102002C
 10
0
 20
0
 30
0
  0
ENDBLK
  0
ENDSEC
  0
SECTION
  2
ENTITIES
  0
TEXT
  8
LAYER_1
 10
-26.2556
 20
43.1712
 11
-26.2556
 21
43.1712
 40
3.2995
 41
0.5
  1
仕様
  0
POLYLINE
  8
LAYER_1
 40
0.3528
 41
0.3528
 66
1
 10
0
 20
0
 30
0
  0
VERTEX
  8
LAYER_1
 10
250.6748
 20
51.9507
  0
VERTEX
  8
LAYER_1
 10
-29.3178
 20
51.9507
  0
SEQEND
  0
INSERT
  8
LAYER_1
  2
AIGNBL01010002
 10
0
 20
0
 30
0
  0
POLYLINE
  8
LAYER_1
 40
0.3528
 41
0.3528
 66
1
 10
0
 20
0
 30
0
  0
VERTEX
  8
LAYER_1
 10
-29.3178
 20
229.3369
  0
VERTEX
  8
LAYER_1
 10
-29.3178
 20
34.3283
  0
VERTEX
  8
LAYER_1
 10
250.6748
 20
34.3283
  0
VERTEX
  8
LAYER_1
 10
250.6748
 20
229.3369
  0
VERTEX
  8
LAYER_1
 10
-29.3178
 20
229.3369
  0
SEQEND
  0
POLYLINE
  8
LAYER_1
 40
0.3528
 41
0.3528
 66
1
 10
0
 20
0
 30
0
  0
VERTEX
  8
LAYER_1
 10
250.6748
 20
60.4597
  0
VERTEX
  8
LAYER_1
 10
-29.3178
 20
60.4597
  0
SEQEND
  0
POLYLINE
  8
LAYER_1
 40
0.3528
 41
0.3528
 66
1
 10
0
 20
0
 30
0
  0
VERTEX
  8
LAYER_1
 10
250.6748
 20
43.4416
  0
VERTEX
  8
LAYER_1
 10
143.534
 20
43.4416
  0
SEQEND
  0
TEXT
  8
LAYER_1
 10
188.1725
 20
45.7175
 11
188.1725
 21
45.7175
 40
3.7615
 41
0.5
  1
-
  0
TEXT
  8
LAYER_1
 10
182.8808
 20
49.4743
 11
182.8808
 21
49.4743
 40
2.1997
 41
0.5
  1
縮尺
  0
POLYLINE
  8
LAYER_1
 40
0.3528
 41
0.3528
 66
1
 10
0
 20
0
 30
0
  0
VERTEX
  8
LAYER_1
 10
181.3526
 20
43.4416
  0
VERTEX
  8
LAYER_1
 10
181.3526
 20
51.9507
  0
SEQEND
  0
TEXT
  8
LAYER_1
 10
144.2327
 20
57.9834
 11
144.2327
 21
57.9834
 40
2.1997
 41
0.5
  1
品番
  0
TEXT
  8
LAYER_1
 10
-28.1609
 20
57.9834
 11
-28.1609
 21
57.9834
 40
2.1997
 41
0.5
  1
品名
  0
TEXT
  8
LAYER_1
 10
144.2327
 20
49.4743
 11
144.2327
 21
49.4743
 40
2.1997
 41
0.5
  1
重量
  0
TEXT
  8
LAYER_1
 10
150.2547
 20
54.1514
 11
150.2547
 21
54.1514
 40
5.9385
 41
0.5
  1
CIE-OPPSF100
  0
TEXT
  8
LAYER_1
 10
149.5454
 20
45.7175
 11
149.5454
 21
45.7175
 40
3.7615
 41
0.5
  1
-
  0
POLYLINE
  8
LAYER_1
 40
0.3528
 41
0.3528
 66
1
 10
0
 20
0
 30
0
  0
VERTEX
  8
LAYER_1
 10
143.534
 20
34.9539
  0
VERTEX
  8
LAYER_1
 10
143.534
 20
60.4597
  0
SEQEND
  0
TEXT
  8
LAYER_1
 10
-15.3178
 20
54.8911
 11
-15.3178
 21
54.8911
 40
4.1465
 41
0.5
  1
タオルレール（CIE-OPC100洗面器用）
  0
INSERT
  8
LAYER_1
  2
AIGNBL01010003
 10
0
 20
0
 30
0
  0
TEXT
  8
LAYER_1
 10
-15.6835
 20
43.4923
 11
-15.6835
 21
43.4923
 40
3.1177
 41
0.5
  1
●クロムメッキ●ビス・プラグ・ワッシャー付き
  0
TEXT
  8
LAYER_1
 10
237.263
 20
63.2582
 11
237.263
 21
63.2582
 40
2.9618
 41
0.5
  1
単位：mm
  0
INSERT
  8
LAYER_1
  2
AIGNBL01010006
 10
0
 20
0
 30
0
  0
INSERT
  8
LAYER_1
  2
AIGNBL0101000A
 10
0
 20
0
 30
0
  0
INSERT
  8
LAYER_1
  2
AIGNBL0101000B
 10
0
 20
0
 30
0
  0
POLYLINE
  8
LAYER_1
 40
0.1764
 41
0.1764
 66
1
 10
0
 20
0
 30
0
 70
1
  0
VERTEX
  8
LAYER_1
 10
60.0459
 20
106.8055
  0
VERTEX
  8
LAYER_1
 10
58.8434
 20
106.8193
  0
VERTEX
  8
LAYER_1
 10
59.0873
 20
107.097
  0
VERTEX
  8
LAYER_1
 10
58.8648
 20
108.6535
  0
VERTEX
  8
LAYER_1
 10
59.108
 20
108.9005
  0
VERTEX
  8
LAYER_1
 10
59.8296
 20
108.8922
  0
VERTEX
  8
LAYER_1
 10
60.0673
 20
108.639
  0
VERTEX
  8
LAYER_1
 10
59.8089
 20
107.0891
  0
SEQEND
  0
POLYLINE
  8
LAYER_1
 40
0.1764
 41
0.1764
 66
1
 10
0
 20
0
 30
0
 70
1
  0
VERTEX
  8
LAYER_1
 10
90.1237
 20
116.3819
  0
VERTEX
  8
LAYER_1
 10
88.9214
 20
116.3677
  0
VERTEX
  8
LAYER_1
 10
89.1584
 20
116.6509
  0
VERTEX
  8
LAYER_1
 10
88.8986
 20
118.2012
  0
VERTEX
  8
LAYER_1
 10
89.1363
 20
118.4548
  0
VERTEX
  8
LAYER_1
 10
89.8577
 20
118.4634
  0
VERTEX
  8
LAYER_1
 10
90.101
 20
118.2157
  0
VERTEX
  8
LAYER_1
 10
89.8798
 20
116.6595
  0
SEQEND
  0
POLYLINE
  8
LAYER_1
  6
AIGENLINE003
 40
0.1764
 41
0.1764
 62
251
 66
1
 10
0
 20
0
 30
0
 70
128
  0
VERTEX
  8
LAYER_1
 10
59.4553
 20
105.8829
  0
VERTEX
  8
LAYER_1
 10
59.4553
 20
116.2417
  0
SEQEND
  0
POLYLINE
  8
LAYER_1
  6
AIGENLINE003
 40
0.1764
 41
0.1764
 62
251
 66
1
 10
0
 20
0
 30
0
 70
128
  0
VERTEX
  8
LAYER_1
 10
89.5112
 20
115.3683
  0
VERTEX
  8
LAYER_1
 10
89.5112
 20
125.9403
  0
SEQEND
  0
INSERT
  8
LAYER_1
  2
AIGNBL0101000C
 10
0
 20
0
 30
0
  0
INSERT
  8
LAYER_1
  2
AIGNBL01010011
 10
0
 20
0
 30
0
  0
INSERT
  8
LAYER_1
  2
AIGNBL01010016
 10
0
 20
0
 30
0
  0
POLYLINE
  8
LAYER_1
 40
0.1764
 41
0.1764
 66
1
 10
0
 20
0
 30
0
  0
VERTEX
  8
LAYER_1
 10
153.7202
 20
118.3952
  0
VERTEX
  8
LAYER_1
 10
153.9641
 20
118.6725
  0
VERTEX
  8
LAYER_1
 10
153.7422
 20
120.229
  0
VERTEX
  8
LAYER_1
 10
153.9854
 20
120.4764
  0
VERTEX
  8
LAYER_1
 10
154.7068
 20
120.4681
  0
VERTEX
  8
LAYER_1
 10
154.9445
 20
120.2145
  0
VERTEX
  8
LAYER_1
 10
154.6855
 20
118.6649
  0
VERTEX
  8
LAYER_1
 10
154.9225
 20
118.3811
  0
SEQEND
  0
INSERT
  8
LAYER_1
  2
AIGNBL0101001A
 10
0
 20
0
 30
0
  0
INSERT
  8
LAYER_1
  2
AIGNBL0101001B
 10
0
 20
0
 30
0
  0
POLYLINE
  8
LAYER_1
  6
AIGENLINE003
 40
0.1764
 41
0.1764
 62
251
 66
1
 10
0
 20
0
 30
0
 70
128
  0
VERTEX
  8
LAYER_1
 10
154.332
 20
100.5971
  0
VERTEX
  8
LAYER_1
 10
154.332
 20
118.9653
  0
SEQEND
  0
POLYLINE
  8
LAYER_1
  6
AIGENLINE003
 40
0.1764
 41
0.1764
 62
251
 66
1
 10
0
 20
0
 30
0
 70
128
  0
VERTEX
  8
LAYER_1
 10
184.028
 20
110.7009
  0
VERTEX
  8
LAYER_1
 10
184.028
 20
129.0691
  0
SEQEND
  0
INSERT
  8
LAYER_1
  2
AIGNBL0101001C
 10
0
 20
0
 30
0
  0
INSERT
  8
LAYER_1
  2
AIGNBL0101001D
 10
0
 20
0
 30
0
  0
POLYLINE
  8
LAYER_1
 40
0.1764
 41
0.1764
 66
1
 10
0
 20
0
 30
0
  0
VERTEX
  8
LAYER_1
 10
154.9225
 20
118.3811
 42
-0.07456158383
  0
VERTEX
  8
LAYER_1
 10
154.6815
 20
118.2878
 42
-0.05917419448
  0
VERTEX
  8
LAYER_1
 10
154.3327
 20
118.2488
 42
-0.1256170998
  0
VERTEX
  8
LAYER_1
 10
153.7202
 20
118.3952
  0
SEQEND
  0
POLYLINE
  8
LAYER_1
 40
0.1764
 41
0.1764
 66
1
 10
0
 20
0
 30
0
  0
VERTEX
  8
LAYER_1
 10
183.4155
 20
128.5565
  0
VERTEX
  8
LAYER_1
 10
183.6594
 20
128.8338
  0
VERTEX
  8
LAYER_1
 10
183.4376
 20
130.39
  0
VERTEX
  8
LAYER_1
 10
183.6808
 20
130.6373
  0
VERTEX
  8
LAYER_1
 10
184.4022
 20
130.6291
  0
VERTEX
  8
LAYER_1
 10
184.6399
 20
130.3758
  0
VERTEX
  8
LAYER_1
 10
184.3808
 20
128.8259
  0
VERTEX
  8
LAYER_1
 10
184.6178
 20
128.542
  0
SEQEND
  0
POLYLINE
  8
LAYER_1
 40
0.1764
 41
0.1764
 66
1
 10
0
 20
0
 30
0
  0
VERTEX
  8
LAYER_1
 10
184.6178
 20
128.542
 42
-0.07439547755
  0
VERTEX
  8
LAYER_1
 10
184.3768
 20
128.449
 42
-0.05900037152
  0
VERTEX
  8
LAYER_1
 10
184.028
 20
128.4101
 42
-0.1256170998
  0
VERTEX
  8
LAYER_1
 10
183.4155
 20
128.5565
  0
SEQEND
  0
INSERT
  8
LAYER_1
  2
AIGNBL0101001E
 10
0
 20
0
 30
0
  0
INSERT
  8
LAYER_1
  2
AIGNBL0101001F
 10
0
 20
0
 30
0
  0
INSERT
  8
LAYER_1
  2
AIGNBL01010020
 10
0
 20
0
 30
0
  0
TEXT
  8
LAYER_1
 10
35.16
 20
75.655
 11
35.16
 21
75.655
 40
4.3448
 41
0.5
  1
1.タオルレール取り付け穴にプラグを押し込んでください。
  0
TEXT
  8
LAYER_1
 10
136.76
 20
75.655
 11
136.76
 21
75.655
 40
4.3448
 41
0.5
  1
2.タオルレールを付属のビスとワッシャーで取り付けてください。
  0
INSERT
  8
LAYER_1
  2
AIGNBL01010021
 10
0
 20
0
 30
0
  0
TEXT
  8
LAYER_1
 10
176.0254
 20
39.5359
 11
176.0254
 21
39.5359
 40
3.3853
 41
0.5
  1
●TEL 0120-65-1232●FAX 06-6532-1580
  0
TEXT
  8
LAYER_1
 10
176.0254
 20
36.0212
 11
176.0254
 21
36.0212
 40
3.3853
 41
0.5
  1
hits@hiratatile.co.jp
  0
TEXT
  8
LAYER_1
 10
240.3591
 20
225.8432
 11
240.3591
 21
225.8432
 40
2.0732
 41
0.5
  1
160804RT
  0
INSERT
  8
LAYER_1
  2
AIGNBL01010022
 10
0
 20
0
 30
0
  0
ENDSEC
  0
EOF
