  0
SECTION
  2
HEADER
  9
$ACADVER
  1
AC1009
  9
$LUNITS
 70
2
  9
$LUPREC
 70
4
  9
$LTSCALE
 40
1.0
  9
$EXTMIN
 10
-30.3177
 20
33.3285
 30
0
  9
$EXTMAX
 10
251.6749
 20
230.337
 30
0
  0
ENDSEC
  0
SECTION
  2
TABLES
  0
TABLE
  2
LTYPE
 70
256
  0
LTYPE
  2
AIGENLINE001
 70
64
  3
generate AI->DXF Converter
 72
65
 73
6
 40
1.4111
 49
0.7056
 49
-0.7056
 49
0
 49
0
 49
0
 49
0
  0
ENDTAB
  0
TABLE
  2
LAYER
 70
1
  0
LAYER
  2
LAYER_1
 70
64
 62
7
  6
CONTINUOUS
  0
ENDTAB
  0
TABLE
  2
STYLE
 70
6
  0
STYLE
  2
STANDARD
 70
0
 40
0
 50
0
 71
0
 41
0
 42
0
  3
TXT
  4
BIGFONT
  0
ENDTAB
  0
ENDSEC
  0
SECTION
  2
BLOCKS
  0
BLOCK
  8
LAYER_1
  2
AIGNBL01040009
 70
64
 10
0
 20
0
 30
0
  3
AIGNBL01040009
  0
POLYLINE
  8
LAYER_1
 40
0.05
 41
0.05
 66
1
 10
0
 20
0
 30
0
 70
1
  0
VERTEX
  8
LAYER_1
 10
105.4311
 20
39.1418
  0
VERTEX
  8
LAYER_1
 10
104.9422
 20
37.9567
  0
VERTEX
  8
LAYER_1
 10
104.3142
 20
37.9567
  0
VERTEX
  8
LAYER_1
 10
105.9137
 20
41.7225
  0
VERTEX
  8
LAYER_1
 10
106.6468
 20
41.7225
  0
VERTEX
  8
LAYER_1
 10
108.2533
 20
37.9567
  0
VERTEX
  8
LAYER_1
 10
107.6032
 20
37.9567
  0
VERTEX
  8
LAYER_1
 10
107.1006
 20
39.1418
  0
SEQEND
  0
POLYLINE
  8
LAYER_1
 40
0.05
 41
0.05
 66
1
 10
0
 20
0
 30
0
 70
1
  0
VERTEX
  8
LAYER_1
 10
106.9748
 20
39.5207
  0
VERTEX
  8
LAYER_1
 10
106.5138
 20
40.6056
  0
VERTEX
  8
LAYER_1
 10
106.2692
 20
41.2926
  0
VERTEX
  8
LAYER_1
 10
106.2555
 20
41.2926
  0
VERTEX
  8
LAYER_1
 10
106.0178
 20
40.6101
  0
VERTEX
  8
LAYER_1
 10
105.5571
 20
39.5207
  0
SEQEND
  0
ENDBLK
  0
BLOCK
  8
LAYER_1
  2
AIGNBL0104000A
 70
64
 10
0
 20
0
 30
0
  3
AIGNBL0104000A
  0
POLYLINE
  8
LAYER_1
 40
0.05
 41
0.05
 66
1
 10
0
 20
0
 30
0
 70
1
  0
VERTEX
  8
LAYER_1
 10
112.6186
 20
37.4034
 42
-0.0155848755
  0
VERTEX
  8
LAYER_1
 10
110.8164
 20
37.8395
  0
VERTEX
  8
LAYER_1
 10
110.5298
 20
37.895
 42
-0.08356944747
  0
VERTEX
  8
LAYER_1
 10
109.6658
 20
38.0612
 42
-0.0975043791
  0
VERTEX
  8
LAYER_1
 10
109.0046
 20
38.4671
 42
-0.2129077902
  0
VERTEX
  8
LAYER_1
 10
108.4559
 20
39.7998
 42
-0.0968494152
  0
VERTEX
  8
LAYER_1
 10
108.6005
 20
40.5732
 42
-0.2046438079
  0
VERTEX
  8
LAYER_1
 10
109.648
 20
41.5974
 42
-0.09824750395
  0
VERTEX
  8
LAYER_1
 10
110.649
 20
41.7838
 42
-0.08554009695
  0
VERTEX
  8
LAYER_1
 10
111.5176
 20
41.6425
 42
-0.1004336034
  0
VERTEX
  8
LAYER_1
 10
112.1827
 20
41.2483
 42
-0.2141019095
  0
VERTEX
  8
LAYER_1
 10
112.7581
 20
39.8784
 42
-0.09540850229
  0
VERTEX
  8
LAYER_1
 10
112.6192
 20
39.1106
 42
-0.2143210227
  0
VERTEX
  8
LAYER_1
 10
111.5963
 20
38.1321
 42
-0.02338900436
  0
VERTEX
  8
LAYER_1
 10
111.4172
 20
38.0738
  0
VERTEX
  8
LAYER_1
 10
111.4172
 20
38.0514
 42
0.01711211955
  0
VERTEX
  8
LAYER_1
 10
112.7936
 20
37.8113
  0
SEQEND
  0
POLYLINE
  8
LAYER_1
 40
0.05
 41
0.05
 66
1
 10
0
 20
0
 30
0
 70
1
  0
VERTEX
  8
LAYER_1
 10
112.1159
 20
39.857
 42
0.1071543648
  0
VERTEX
  8
LAYER_1
 10
111.9646
 20
40.5618
 42
0.2976507644
  0
VERTEX
  8
LAYER_1
 10
110.6276
 20
41.3873
 42
0.1072356843
  0
VERTEX
  8
LAYER_1
 10
109.9378
 20
41.2478
 42
0.2385874916
  0
VERTEX
  8
LAYER_1
 10
109.1508
 20
40.2422
 42
0.05751786988
  0
VERTEX
  8
LAYER_1
 10
109.1052
 20
39.8122
 42
0.2180663696
  0
VERTEX
  8
LAYER_1
 10
109.6358
 20
38.6168
 42
0.1772758138
  0
VERTEX
  8
LAYER_1
 10
110.5997
 20
38.2912
 42
0.1075185771
  0
VERTEX
  8
LAYER_1
 10
111.2811
 20
38.4302
 42
0.2370926009
  0
VERTEX
  8
LAYER_1
 10
112.0682
 20
39.4298
 42
0.05601310134
  0
SEQEND
  0
ENDBLK
  0
BLOCK
  8
LAYER_1
  2
AIGNBL0104000B
 70
64
 10
0
 20
0
 30
0
  3
AIGNBL0104000B
  0
POLYLINE
  8
LAYER_1
 40
0.05
 41
0.05
 66
1
 10
0
 20
0
 30
0
 70
1
  0
VERTEX
  8
LAYER_1
 10
114.0855
 20
41.7225
  0
VERTEX
  8
LAYER_1
 10
114.0855
 20
39.4932
 42
0.1145199457
  0
VERTEX
  8
LAYER_1
 10
114.2194
 20
38.8274
 42
0.1464896694
  0
VERTEX
  8
LAYER_1
 10
114.5697
 20
38.4422
 42
0.1362580474
  0
VERTEX
  8
LAYER_1
 10
115.1821
 20
38.2912
 42
0.1219300979
  0
VERTEX
  8
LAYER_1
 10
115.8052
 20
38.4259
 42
0.1503016186
  0
VERTEX
  8
LAYER_1
 10
116.177
 20
38.7949
 42
0.1256239276
  0
VERTEX
  8
LAYER_1
 10
116.3276
 20
39.4932
  0
VERTEX
  8
LAYER_1
 10
116.3276
 20
41.7225
  0
VERTEX
  8
LAYER_1
 10
116.9422
 20
41.7225
  0
VERTEX
  8
LAYER_1
 10
116.9422
 20
39.5266
 42
-0.09997665689
  0
VERTEX
  8
LAYER_1
 10
116.8073
 20
38.7839
 42
-0.1215019174
  0
VERTEX
  8
LAYER_1
 10
116.434
 20
38.2772
 42
-0.1106228669
  0
VERTEX
  8
LAYER_1
 10
115.8085
 20
37.9706
 42
-0.06128517916
  0
VERTEX
  8
LAYER_1
 10
115.161
 20
37.895
 42
-0.09418763513
  0
VERTEX
  8
LAYER_1
 10
114.3419
 20
38.0331
 42
-0.2431628294
  0
VERTEX
  8
LAYER_1
 10
113.5384
 20
38.9438
 42
-0.06320488118
  0
VERTEX
  8
LAYER_1
 10
113.4709
 20
39.5045
  0
VERTEX
  8
LAYER_1
 10
113.4709
 20
41.7225
  0
SEQEND
  0
ENDBLK
  0
BLOCK
  8
LAYER_1
  2
AIGNBL0104000C
 70
64
 10
0
 20
0
 30
0
  3
AIGNBL0104000C
  0
POLYLINE
  8
LAYER_1
 40
0.05
 41
0.05
 66
1
 10
0
 20
0
 30
0
 70
1
  0
VERTEX
  8
LAYER_1
 10
118.6885
 20
39.1418
  0
VERTEX
  8
LAYER_1
 10
118.1993
 20
37.9567
  0
VERTEX
  8
LAYER_1
 10
117.5712
 20
37.9567
  0
VERTEX
  8
LAYER_1
 10
119.1705
 20
41.7225
  0
VERTEX
  8
LAYER_1
 10
119.9036
 20
41.7225
  0
VERTEX
  8
LAYER_1
 10
121.51
 20
37.9567
  0
VERTEX
  8
LAYER_1
 10
120.8606
 20
37.9567
  0
VERTEX
  8
LAYER_1
 10
120.358
 20
39.1418
  0
SEQEND
  0
POLYLINE
  8
LAYER_1
 40
0.05
 41
0.05
 66
1
 10
0
 20
0
 30
0
 70
1
  0
VERTEX
  8
LAYER_1
 10
120.2319
 20
39.5207
  0
VERTEX
  8
LAYER_1
 10
119.7706
 20
40.6056
  0
VERTEX
  8
LAYER_1
 10
119.526
 20
41.2926
  0
VERTEX
  8
LAYER_1
 10
119.5122
 20
41.2926
  0
VERTEX
  8
LAYER_1
 10
119.2748
 20
40.6101
  0
VERTEX
  8
LAYER_1
 10
118.8139
 20
39.5207
  0
SEQEND
  0
ENDBLK
  0
BLOCK
  8
LAYER_1
  2
AIGNBL0104000D
 70
64
 10
0
 20
0
 30
0
  3
AIGNBL0104000D
  0
POLYLINE
  8
LAYER_1
 40
0.05
 41
0.05
 66
1
 10
0
 20
0
 30
0
 70
1
  0
VERTEX
  8
LAYER_1
 10
122.5508
 20
41.6777
 42
-0.03246092253
  0
VERTEX
  8
LAYER_1
 10
123.7176
 20
41.7508
 42
-0.08084549745
  0
VERTEX
  8
LAYER_1
 10
124.6741
 20
41.619
 42
-0.07819914268
  0
VERTEX
  8
LAYER_1
 10
125.0374
 20
41.4379
 42
-0.2484709269
  0
VERTEX
  8
LAYER_1
 10
125.4491
 20
40.6497
 42
-0.226147
  0
VERTEX
  8
LAYER_1
 10
125.086
 20
39.8456
 42
-0.109727648
  0
VERTEX
  8
LAYER_1
 10
124.4577
 20
39.5323
 42
-0.06565380896
  0
VERTEX
  8
LAYER_1
 10
123.6473
 20
39.4319
 42
-0.06238309955
  0
VERTEX
  8
LAYER_1
 10
123.1588
 20
39.4653
  0
VERTEX
  8
LAYER_1
 10
123.1588
 20
37.9567
  0
VERTEX
  8
LAYER_1
 10
122.5508
 20
37.9567
  0
SEQEND
  0
POLYLINE
  8
LAYER_1
 40
0.05
 41
0.05
 66
1
 10
0
 20
0
 30
0
 70
1
  0
VERTEX
  8
LAYER_1
 10
123.1588
 20
39.8622
 42
0.04203451964
  0
VERTEX
  8
LAYER_1
 10
123.6611
 20
39.8229
 42
0.1032111168
  0
VERTEX
  8
LAYER_1
 10
124.3803
 20
39.9502
 42
0.1555938032
  0
VERTEX
  8
LAYER_1
 10
124.7451
 20
40.2546
 42
0.1352673748
  0
VERTEX
  8
LAYER_1
 10
124.8421
 20
40.6273
 42
0.1737047371
  0
VERTEX
  8
LAYER_1
 10
124.7073
 20
41.0346
 42
0.1517050813
  0
VERTEX
  8
LAYER_1
 10
124.2862
 20
41.2941
 42
0.06879756253
  0
VERTEX
  8
LAYER_1
 10
123.7317
 20
41.3649
 42
0.06336983159
  0
VERTEX
  8
LAYER_1
 10
123.1588
 20
41.3257
  0
SEQEND
  0
ENDBLK
  0
BLOCK
  8
LAYER_1
  2
AIGNBL0104000E
 70
64
 10
0
 20
0
 30
0
  3
AIGNBL0104000E
  0
POLYLINE
  8
LAYER_1
 40
0.05
 41
0.05
 66
1
 10
0
 20
0
 30
0
 70
1
  0
VERTEX
  8
LAYER_1
 10
127.0011
 20
41.4207
 42
-0.2767461975
  0
VERTEX
  8
LAYER_1
 10
126.8616
 20
41.1806
 42
-0.1265294091
  0
VERTEX
  8
LAYER_1
 10
126.6094
 20
41.1189
 42
-0.2237518698
  0
VERTEX
  8
LAYER_1
 10
126.2991
 20
41.2513
 42
-0.1708341408
  0
VERTEX
  8
LAYER_1
 10
126.2391
 20
41.4207
 42
-0.2643879937
  0
VERTEX
  8
LAYER_1
 10
126.3885
 20
41.6678
 42
-0.1290073663
  0
VERTEX
  8
LAYER_1
 10
126.6232
 20
41.7277
 42
-0.225342086
  0
VERTEX
  8
LAYER_1
 10
126.94
 20
41.597
 42
-0.1691136206
  0
SEQEND
  0
POLYLINE
  8
LAYER_1
 40
0.05
 41
0.05
 66
1
 10
0
 20
0
 30
0
 70
1
  0
VERTEX
  8
LAYER_1
 10
126.3156
 20
37.9567
  0
VERTEX
  8
LAYER_1
 10
126.3156
 20
40.6607
  0
VERTEX
  8
LAYER_1
 10
126.9302
 20
40.6607
  0
VERTEX
  8
LAYER_1
 10
126.9302
 20
37.9567
  0
SEQEND
  0
ENDBLK
  0
BLOCK
  8
LAYER_1
  2
AIGNBL0104000F
 70
64
 10
0
 20
0
 30
0
  3
AIGNBL0104000F
  0
POLYLINE
  8
LAYER_1
 40
0.05
 41
0.05
 66
1
 10
0
 20
0
 30
0
 70
1
  0
VERTEX
  8
LAYER_1
 10
128.8019
 20
39.1418
  0
VERTEX
  8
LAYER_1
 10
128.3137
 20
37.9567
  0
VERTEX
  8
LAYER_1
 10
127.6846
 20
37.9567
  0
VERTEX
  8
LAYER_1
 10
129.2842
 20
41.7225
  0
VERTEX
  8
LAYER_1
 10
130.018
 20
41.7225
  0
VERTEX
  8
LAYER_1
 10
131.6245
 20
37.9567
  0
VERTEX
  8
LAYER_1
 10
130.9747
 20
37.9567
  0
VERTEX
  8
LAYER_1
 10
130.4721
 20
39.1418
  0
SEQEND
  0
POLYLINE
  8
LAYER_1
 40
0.05
 41
0.05
 66
1
 10
0
 20
0
 30
0
 70
1
  0
VERTEX
  8
LAYER_1
 10
130.346
 20
39.5207
  0
VERTEX
  8
LAYER_1
 10
129.885
 20
40.6056
  0
VERTEX
  8
LAYER_1
 10
129.6411
 20
41.2926
  0
VERTEX
  8
LAYER_1
 10
129.6263
 20
41.2926
  0
VERTEX
  8
LAYER_1
 10
129.3893
 20
40.6101
  0
VERTEX
  8
LAYER_1
 10
128.9283
 20
39.5207
  0
SEQEND
  0
ENDBLK
  0
BLOCK
  8
LAYER_1
  2
AIGNBL01030008
 70
64
 10
0
 20
0
 30
0
  3
AIGNBL01030008
  0
INSERT
  8
LAYER_1
  2
AIGNBL01040009
 10
0
 20
0
 30
0
  0
INSERT
  8
LAYER_1
  2
AIGNBL0104000A
 10
0
 20
0
 30
0
  0
INSERT
  8
LAYER_1
  2
AIGNBL0104000B
 10
0
 20
0
 30
0
  0
INSERT
  8
LAYER_1
  2
AIGNBL0104000C
 10
0
 20
0
 30
0
  0
INSERT
  8
LAYER_1
  2
AIGNBL0104000D
 10
0
 20
0
 30
0
  0
INSERT
  8
LAYER_1
  2
AIGNBL0104000E
 10
0
 20
0
 30
0
  0
INSERT
  8
LAYER_1
  2
AIGNBL0104000F
 10
0
 20
0
 30
0
  0
ENDBLK
  0
BLOCK
  8
LAYER_1
  2
AIGNBL01030011
 70
64
 10
0
 20
0
 30
0
  3
AIGNBL01030011
  0
POLYLINE
  8
LAYER_1
 40
0.05
 41
0.05
 66
1
 10
0
 20
0
 30
0
 70
1
  0
VERTEX
  8
LAYER_1
 10
104.4241
 20
36.0574
  0
VERTEX
  8
LAYER_1
 10
104.9773
 20
36.0574
  0
VERTEX
  8
LAYER_1
 10
104.9773
 20
35.9637
  0
VERTEX
  8
LAYER_1
 10
104.319
 20
35.9637
  0
VERTEX
  8
LAYER_1
 10
104.319
 20
36.9969
  0
VERTEX
  8
LAYER_1
 10
104.9598
 20
36.9969
  0
VERTEX
  8
LAYER_1
 10
104.9598
 20
36.9035
  0
VERTEX
  8
LAYER_1
 10
104.4241
 20
36.9035
  0
VERTEX
  8
LAYER_1
 10
104.4241
 20
36.549
  0
VERTEX
  8
LAYER_1
 10
104.9246
 20
36.549
  0
VERTEX
  8
LAYER_1
 10
104.9246
 20
36.4557
  0
VERTEX
  8
LAYER_1
 10
104.4241
 20
36.4557
  0
SEQEND
  0
ENDBLK
  0
BLOCK
  8
LAYER_1
  2
AIGNBL01030012
 70
64
 10
0
 20
0
 30
0
  3
AIGNBL01030012
  0
POLYLINE
  8
LAYER_1
 40
0.05
 41
0.05
 66
1
 10
0
 20
0
 30
0
 70
1
  0
VERTEX
  8
LAYER_1
 10
106.117
 20
36.117
  0
VERTEX
  8
LAYER_1
 10
106.1197
 20
36.117
  0
VERTEX
  8
LAYER_1
 10
106.1197
 20
36.9969
  0
VERTEX
  8
LAYER_1
 10
106.2248
 20
36.9969
  0
VERTEX
  8
LAYER_1
 10
106.2248
 20
35.9637
  0
VERTEX
  8
LAYER_1
 10
106.0939
 20
35.9637
  0
VERTEX
  8
LAYER_1
 10
105.4927
 20
36.8525
  0
VERTEX
  8
LAYER_1
 10
105.4893
 20
36.8525
  0
VERTEX
  8
LAYER_1
 10
105.4893
 20
35.9637
  0
VERTEX
  8
LAYER_1
 10
105.3845
 20
35.9637
  0
VERTEX
  8
LAYER_1
 10
105.3845
 20
36.9969
  0
VERTEX
  8
LAYER_1
 10
105.5158
 20
36.9969
  0
SEQEND
  0
ENDBLK
  0
BLOCK
  8
LAYER_1
  2
AIGNBL01030013
 70
64
 10
0
 20
0
 30
0
  3
AIGNBL01030013
  0
POLYLINE
  8
LAYER_1
 40
0.05
 41
0.05
 66
1
 10
0
 20
0
 30
0
 70
1
  0
VERTEX
  8
LAYER_1
 10
106.6978
 20
36.1756
  0
VERTEX
  8
LAYER_1
 10
106.7523
 20
36.0725
 42
0.1804993832
  0
VERTEX
  8
LAYER_1
 10
106.8656
 20
36.0309
  0
VERTEX
  8
LAYER_1
 10
106.9548
 20
36.0505
  0
VERTEX
  8
LAYER_1
 10
107.011
 20
36.1039
  0
VERTEX
  8
LAYER_1
 10
107.0399
 20
36.1804
  0
VERTEX
  8
LAYER_1
 10
107.0482
 20
36.27
  0
VERTEX
  8
LAYER_1
 10
107.0482
 20
36.9969
  0
VERTEX
  8
LAYER_1
 10
107.1533
 20
36.9969
  0
VERTEX
  8
LAYER_1
 10
107.1533
 20
36.2614
  0
VERTEX
  8
LAYER_1
 10
107.1419
 20
36.1535
  0
VERTEX
  8
LAYER_1
 10
107.1006
 20
36.0485
  0
VERTEX
  8
LAYER_1
 10
107.0158
 20
35.9689
  0
VERTEX
  8
LAYER_1
 10
106.877
 20
35.9375
 42
-0.1845892347
  0
VERTEX
  8
LAYER_1
 10
106.6923
 20
35.9974
 42
-0.176191571
  0
VERTEX
  8
LAYER_1
 10
106.6
 20
36.149
  0
SEQEND
  0
ENDBLK
  0
BLOCK
  8
LAYER_1
  2
AIGNBL01030014
 70
64
 10
0
 20
0
 30
0
  3
AIGNBL01030014
  0
POLYLINE
  8
LAYER_1
 40
0.05
 41
0.05
 66
1
 10
0
 20
0
 30
0
 70
1
  0
VERTEX
  8
LAYER_1
 10
108.6416
 20
36.4805
 42
-0.10394313
  0
VERTEX
  8
LAYER_1
 10
108.6005
 20
36.2631
 42
-0.1002538824
  0
VERTEX
  8
LAYER_1
 10
108.4879
 20
36.0915
  0
VERTEX
  8
LAYER_1
 10
108.317
 20
35.9785
 42
-0.09506675375
  0
VERTEX
  8
LAYER_1
 10
108.1031
 20
35.9375
 42
-0.1010866674
  0
VERTEX
  8
LAYER_1
 10
107.8895
 20
35.9785
 42
-0.1005668876
  0
VERTEX
  8
LAYER_1
 10
107.7186
 20
36.0915
 42
-0.09506076213
  0
VERTEX
  8
LAYER_1
 10
107.6053
 20
36.2631
 42
-0.09316585798
  0
VERTEX
  8
LAYER_1
 10
107.5646
 20
36.4805
 42
-0.1029152058
  0
VERTEX
  8
LAYER_1
 10
107.6053
 20
36.6978
 42
-0.1008913794
  0
VERTEX
  8
LAYER_1
 10
107.7186
 20
36.8694
 42
-0.09625543395
  0
VERTEX
  8
LAYER_1
 10
107.8895
 20
36.9824
 42
-0.09521573462
  0
VERTEX
  8
LAYER_1
 10
108.1031
 20
37.0234
 42
-0.101175466
  0
VERTEX
  8
LAYER_1
 10
108.317
 20
36.9824
 42
-0.09853409661
  0
VERTEX
  8
LAYER_1
 10
108.4879
 20
36.8694
 42
-0.09556553869
  0
VERTEX
  8
LAYER_1
 10
108.6005
 20
36.6978
 42
-0.09420719768
  0
SEQEND
  0
POLYLINE
  8
LAYER_1
 40
0.05
 41
0.05
 66
1
 10
0
 20
0
 30
0
 70
1
  0
VERTEX
  8
LAYER_1
 10
108.5306
 20
36.4798
  0
VERTEX
  8
LAYER_1
 10
108.5017
 20
36.6517
  0
VERTEX
  8
LAYER_1
 10
108.4169
 20
36.795
  0
VERTEX
  8
LAYER_1
 10
108.2819
 20
36.8932
  0
VERTEX
  8
LAYER_1
 10
108.1031
 20
36.93
  0
VERTEX
  8
LAYER_1
 10
107.9243
 20
36.8932
  0
VERTEX
  8
LAYER_1
 10
107.7896
 20
36.795
  0
VERTEX
  8
LAYER_1
 10
107.7048
 20
36.6517
  0
VERTEX
  8
LAYER_1
 10
107.6755
 20
36.4798
  0
VERTEX
  8
LAYER_1
 10
107.7048
 20
36.3079
  0
VERTEX
  8
LAYER_1
 10
107.7896
 20
36.1649
  0
VERTEX
  8
LAYER_1
 10
107.9243
 20
36.0674
 42
0.1008280473
  0
VERTEX
  8
LAYER_1
 10
108.1031
 20
36.0309
  0
VERTEX
  8
LAYER_1
 10
108.2819
 20
36.0674
  0
VERTEX
  8
LAYER_1
 10
108.4169
 20
36.1649
  0
VERTEX
  8
LAYER_1
 10
108.5017
 20
36.3079
  0
SEQEND
  0
ENDBLK
  0
BLOCK
  8
LAYER_1
  2
AIGNBL01030015
 70
64
 10
0
 20
0
 30
0
  3
AIGNBL01030015
  0
POLYLINE
  8
LAYER_1
 40
0.05
 41
0.05
 66
1
 10
0
 20
0
 30
0
 70
1
  0
VERTEX
  8
LAYER_1
 10
109.4163
 20
35.9637
  0
VERTEX
  8
LAYER_1
 10
109.3116
 20
35.9637
  0
VERTEX
  8
LAYER_1
 10
109.3116
 20
36.4091
  0
VERTEX
  8
LAYER_1
 10
108.9247
 20
36.9969
  0
VERTEX
  8
LAYER_1
 10
109.056
 20
36.9969
  0
VERTEX
  8
LAYER_1
 10
109.3671
 20
36.4967
  0
VERTEX
  8
LAYER_1
 10
109.6806
 20
36.9969
  0
VERTEX
  8
LAYER_1
 10
109.8029
 20
36.9969
  0
VERTEX
  8
LAYER_1
 10
109.4163
 20
36.4091
  0
SEQEND
  0
ENDBLK
  0
BLOCK
  8
LAYER_1
  2
AIGNBL01030016
 70
64
 10
0
 20
0
 30
0
  3
AIGNBL01030016
  0
POLYLINE
  8
LAYER_1
 40
0.05
 41
0.05
 66
1
 10
0
 20
0
 30
0
 70
1
  0
VERTEX
  8
LAYER_1
 10
110.7079
 20
36.9969
  0
VERTEX
  8
LAYER_1
 10
111.0155
 20
36.9969
  0
VERTEX
  8
LAYER_1
 10
111.1341
 20
36.9845
  0
VERTEX
  8
LAYER_1
 10
111.2409
 20
36.9421
  0
VERTEX
  8
LAYER_1
 10
111.3187
 20
36.8611
  0
VERTEX
  8
LAYER_1
 10
111.3483
 20
36.733
 42
-0.1790346201
  0
VERTEX
  8
LAYER_1
 10
111.2984
 20
36.5907
 42
-0.1642259289
  0
VERTEX
  8
LAYER_1
 10
111.1651
 20
36.5111
  0
VERTEX
  8
LAYER_1
 10
111.1651
 20
36.5084
 42
-0.1734673322
  0
VERTEX
  8
LAYER_1
 10
111.3318
 20
36.4302
 42
-0.1921994171
  0
VERTEX
  8
LAYER_1
 10
111.3979
 20
36.2496
  0
VERTEX
  8
LAYER_1
 10
111.3708
 20
36.1325
  0
VERTEX
  8
LAYER_1
 10
111.2946
 20
36.0419
  0
VERTEX
  8
LAYER_1
 10
111.1737
 20
35.9844
  0
VERTEX
  8
LAYER_1
 10
111.0138
 20
35.9637
  0
VERTEX
  8
LAYER_1
 10
110.7079
 20
35.9637
  0
SEQEND
  0
POLYLINE
  8
LAYER_1
 40
0.05
 41
0.05
 66
1
 10
0
 20
0
 30
0
 70
1
  0
VERTEX
  8
LAYER_1
 10
110.813
 20
36.5445
  0
VERTEX
  8
LAYER_1
 10
111.0245
 20
36.5445
  0
VERTEX
  8
LAYER_1
 10
111.1013
 20
36.5535
  0
VERTEX
  8
LAYER_1
 10
111.1716
 20
36.5831
  0
VERTEX
  8
LAYER_1
 10
111.2236
 20
36.6396
  0
VERTEX
  8
LAYER_1
 10
111.2433
 20
36.7258
  0
VERTEX
  8
LAYER_1
 10
111.2236
 20
36.8095
  0
VERTEX
  8
LAYER_1
 10
111.1706
 20
36.8656
  0
VERTEX
  8
LAYER_1
 10
111.0917
 20
36.897
  0
VERTEX
  8
LAYER_1
 10
110.9952
 20
36.9066
  0
VERTEX
  8
LAYER_1
 10
110.813
 20
36.9066
  0
SEQEND
  0
POLYLINE
  8
LAYER_1
 40
0.05
 41
0.05
 66
1
 10
0
 20
0
 30
0
 70
1
  0
VERTEX
  8
LAYER_1
 10
110.813
 20
36.0543
  0
VERTEX
  8
LAYER_1
 10
111.0087
 20
36.0543
  0
VERTEX
  8
LAYER_1
 10
111.1172
 20
36.0653
  0
VERTEX
  8
LAYER_1
 10
111.2078
 20
36.1001
  0
VERTEX
  8
LAYER_1
 10
111.2695
 20
36.1632
  0
VERTEX
  8
LAYER_1
 10
111.2929
 20
36.2559
 42
0.2557371221
  0
VERTEX
  8
LAYER_1
 10
111.2236
 20
36.4081
 42
0.1381508151
  0
VERTEX
  8
LAYER_1
 10
111.0276
 20
36.4584
  0
VERTEX
  8
LAYER_1
 10
110.813
 20
36.4584
  0
SEQEND
  0
ENDBLK
  0
BLOCK
  8
LAYER_1
  2
AIGNBL01030017
 70
64
 10
0
 20
0
 30
0
  3
AIGNBL01030017
  0
POLYLINE
  8
LAYER_1
 40
0.05
 41
0.05
 66
1
 10
0
 20
0
 30
0
 70
1
  0
VERTEX
  8
LAYER_1
 10
111.83
 20
35.9637
  0
VERTEX
  8
LAYER_1
 10
111.7146
 20
35.9637
  0
VERTEX
  8
LAYER_1
 10
112.1614
 20
36.9969
  0
VERTEX
  8
LAYER_1
 10
112.2637
 20
36.9969
  0
VERTEX
  8
LAYER_1
 10
112.7071
 20
35.9637
  0
VERTEX
  8
LAYER_1
 10
112.5903
 20
35.9637
  0
VERTEX
  8
LAYER_1
 10
112.4763
 20
36.2352
  0
VERTEX
  8
LAYER_1
 10
111.9423
 20
36.2352
  0
SEQEND
  0
POLYLINE
  8
LAYER_1
 40
0.05
 41
0.05
 66
1
 10
0
 20
0
 30
0
 70
1
  0
VERTEX
  8
LAYER_1
 10
111.9815
 20
36.3316
  0
VERTEX
  8
LAYER_1
 10
112.437
 20
36.3316
  0
VERTEX
  8
LAYER_1
 10
112.2093
 20
36.8804
  0
SEQEND
  0
ENDBLK
  0
BLOCK
  8
LAYER_1
  2
AIGNBL01030018
 70
64
 10
0
 20
0
 30
0
  3
AIGNBL01030018
  0
POLYLINE
  8
LAYER_1
 40
0.05
 41
0.05
 66
1
 10
0
 20
0
 30
0
 70
1
  0
VERTEX
  8
LAYER_1
 10
113.3916
 20
35.9637
  0
VERTEX
  8
LAYER_1
 10
113.2865
 20
35.9637
  0
VERTEX
  8
LAYER_1
 10
113.2865
 20
36.9035
  0
VERTEX
  8
LAYER_1
 10
112.9403
 20
36.9035
  0
VERTEX
  8
LAYER_1
 10
112.9403
 20
36.9969
  0
VERTEX
  8
LAYER_1
 10
113.7372
 20
36.9969
  0
VERTEX
  8
LAYER_1
 10
113.7372
 20
36.9035
  0
VERTEX
  8
LAYER_1
 10
113.3916
 20
36.9035
  0
SEQEND
  0
ENDBLK
  0
BLOCK
  8
LAYER_1
  2
AIGNBL01030019
 70
64
 10
0
 20
0
 30
0
  3
AIGNBL01030019
  0
POLYLINE
  8
LAYER_1
 40
0.05
 41
0.05
 66
1
 10
0
 20
0
 30
0
 70
1
  0
VERTEX
  8
LAYER_1
 10
114.0934
 20
36.9969
  0
VERTEX
  8
LAYER_1
 10
114.1981
 20
36.9969
  0
VERTEX
  8
LAYER_1
 10
114.1981
 20
36.549
  0
VERTEX
  8
LAYER_1
 10
114.7618
 20
36.549
  0
VERTEX
  8
LAYER_1
 10
114.7618
 20
36.9969
  0
VERTEX
  8
LAYER_1
 10
114.8668
 20
36.9969
  0
VERTEX
  8
LAYER_1
 10
114.8668
 20
35.9637
  0
VERTEX
  8
LAYER_1
 10
114.7618
 20
35.9637
  0
VERTEX
  8
LAYER_1
 10
114.7618
 20
36.4529
  0
VERTEX
  8
LAYER_1
 10
114.1981
 20
36.4529
  0
VERTEX
  8
LAYER_1
 10
114.1981
 20
35.9637
  0
VERTEX
  8
LAYER_1
 10
114.0934
 20
35.9637
  0
SEQEND
  0
ENDBLK
  0
BLOCK
  8
LAYER_1
  2
AIGNBL0103001A
 70
64
 10
0
 20
0
 30
0
  3
AIGNBL0103001A
  0
POLYLINE
  8
LAYER_1
 40
0.05
 41
0.05
 66
1
 10
0
 20
0
 30
0
 70
1
  0
VERTEX
  8
LAYER_1
 10
115.4473
 20
35.9637
  0
VERTEX
  8
LAYER_1
 10
115.3423
 20
35.9637
  0
VERTEX
  8
LAYER_1
 10
115.3423
 20
36.9969
  0
VERTEX
  8
LAYER_1
 10
115.6461
 20
36.9969
  0
VERTEX
  8
LAYER_1
 10
115.7867
 20
36.9824
  0
VERTEX
  8
LAYER_1
 10
115.8993
 20
36.9349
  0
VERTEX
  8
LAYER_1
 10
115.9727
 20
36.8494
  0
VERTEX
  8
LAYER_1
 10
115.9989
 20
36.7213
  0
VERTEX
  8
LAYER_1
 10
115.9789
 20
36.6176
  0
VERTEX
  8
LAYER_1
 10
115.9235
 20
36.5366
  0
VERTEX
  8
LAYER_1
 10
115.8401
 20
36.4818
  0
VERTEX
  8
LAYER_1
 10
115.735
 20
36.4557
  0
VERTEX
  8
LAYER_1
 10
116.0371
 20
35.9637
  0
VERTEX
  8
LAYER_1
 10
115.9086
 20
35.9637
  0
VERTEX
  8
LAYER_1
 10
115.6227
 20
36.4467
  0
VERTEX
  8
LAYER_1
 10
115.4473
 20
36.4467
  0
SEQEND
  0
POLYLINE
  8
LAYER_1
 40
0.05
 41
0.05
 66
1
 10
0
 20
0
 30
0
 70
1
  0
VERTEX
  8
LAYER_1
 10
115.4473
 20
36.5373
  0
VERTEX
  8
LAYER_1
 10
115.6299
 20
36.5373
 42
0.1654500383
  0
VERTEX
  8
LAYER_1
 10
115.8256
 20
36.5831
 42
0.2503949893
  0
VERTEX
  8
LAYER_1
 10
115.8942
 20
36.7213
  0
VERTEX
  8
LAYER_1
 10
115.8749
 20
36.8071
  0
VERTEX
  8
LAYER_1
 10
115.8225
 20
36.8643
  0
VERTEX
  8
LAYER_1
 10
115.7409
 20
36.8963
  0
VERTEX
  8
LAYER_1
 10
115.6344
 20
36.9066
  0
VERTEX
  8
LAYER_1
 10
115.4473
 20
36.9066
  0
SEQEND
  0
ENDBLK
  0
BLOCK
  8
LAYER_1
  2
AIGNBL0103001B
 70
64
 10
0
 20
0
 30
0
  3
AIGNBL0103001B
  0
POLYLINE
  8
LAYER_1
 40
0.05
 41
0.05
 66
1
 10
0
 20
0
 30
0
 70
1
  0
VERTEX
  8
LAYER_1
 10
117.4393
 20
36.4805
 42
-0.1005163161
  0
VERTEX
  8
LAYER_1
 10
117.3986
 20
36.2631
 42
-0.1003846159
  0
VERTEX
  8
LAYER_1
 10
117.2853
 20
36.0915
 42
-0.09584766738
  0
VERTEX
  8
LAYER_1
 10
117.1147
 20
35.9785
 42
-0.09506713234
  0
VERTEX
  8
LAYER_1
 10
116.9008
 20
35.9375
 42
-0.101175466
  0
VERTEX
  8
LAYER_1
 10
116.6869
 20
35.9785
 42
-0.09967088569
  0
VERTEX
  8
LAYER_1
 10
116.5163
 20
36.0915
 42
-0.09574135652
  0
VERTEX
  8
LAYER_1
 10
116.4033
 20
36.2631
 42
-0.09293305267
  0
VERTEX
  8
LAYER_1
 10
116.3627
 20
36.4805
 42
-0.1024980643
  0
VERTEX
  8
LAYER_1
 10
116.4033
 20
36.6978
 42
-0.1015030268
  0
VERTEX
  8
LAYER_1
 10
116.5163
 20
36.8694
 42
-0.09577113234
  0
VERTEX
  8
LAYER_1
 10
116.6869
 20
36.9824
 42
-0.09506675375
  0
VERTEX
  8
LAYER_1
 10
116.9008
 20
37.0234
 42
-0.1014233705
  0
VERTEX
  8
LAYER_1
 10
117.1147
 20
36.9824
 42
-0.1017041996
  0
VERTEX
  8
LAYER_1
 10
117.2853
 20
36.8694
 42
-0.09506500802
  0
VERTEX
  8
LAYER_1
 10
117.3986
 20
36.6978
 42
-0.09299771213
  0
SEQEND
  0
POLYLINE
  8
LAYER_1
 40
0.05
 41
0.05
 66
1
 10
0
 20
0
 30
0
 70
1
  0
VERTEX
  8
LAYER_1
 10
117.3284
 20
36.4798
  0
VERTEX
  8
LAYER_1
 10
117.2991
 20
36.6517
  0
VERTEX
  8
LAYER_1
 10
117.2143
 20
36.795
  0
VERTEX
  8
LAYER_1
 10
117.0796
 20
36.8932
  0
VERTEX
  8
LAYER_1
 10
116.9008
 20
36.93
  0
VERTEX
  8
LAYER_1
 10
116.722
 20
36.8932
  0
VERTEX
  8
LAYER_1
 10
116.587
 20
36.795
  0
VERTEX
  8
LAYER_1
 10
116.5022
 20
36.6517
  0
VERTEX
  8
LAYER_1
 10
116.4733
 20
36.4798
  0
VERTEX
  8
LAYER_1
 10
116.5022
 20
36.3079
  0
VERTEX
  8
LAYER_1
 10
116.587
 20
36.1649
  0
VERTEX
  8
LAYER_1
 10
116.722
 20
36.0674
  0
VERTEX
  8
LAYER_1
 10
116.9008
 20
36.0309
 42
0.1157330551
  0
VERTEX
  8
LAYER_1
 10
117.0796
 20
36.0674
  0
VERTEX
  8
LAYER_1
 10
117.2143
 20
36.1649
  0
VERTEX
  8
LAYER_1
 10
117.2991
 20
36.3079
  0
SEQEND
  0
ENDBLK
  0
BLOCK
  8
LAYER_1
  2
AIGNBL0103001C
 70
64
 10
0
 20
0
 30
0
  3
AIGNBL0103001C
  0
POLYLINE
  8
LAYER_1
 40
0.05
 41
0.05
 66
1
 10
0
 20
0
 30
0
 70
1
  0
VERTEX
  8
LAYER_1
 10
118.881
 20
36.4805
 42
-0.1041417444
  0
VERTEX
  8
LAYER_1
 10
118.84
 20
36.2631
 42
-0.1002538824
  0
VERTEX
  8
LAYER_1
 10
118.7274
 20
36.0915
 42
-0.09536265516
  0
VERTEX
  8
LAYER_1
 10
118.5565
 20
35.9785
 42
-0.09506675375
  0
VERTEX
  8
LAYER_1
 10
118.3426
 20
35.9375
 42
-0.101822328
  0
VERTEX
  8
LAYER_1
 10
118.129
 20
35.9785
 42
-0.102112669
  0
VERTEX
  8
LAYER_1
 10
117.9581
 20
36.0915
 42
-0.09462334812
  0
VERTEX
  8
LAYER_1
 10
117.8447
 20
36.2631
 42
-0.09290316602
  0
VERTEX
  8
LAYER_1
 10
117.8041
 20
36.4805
 42
-0.1018782207
  0
VERTEX
  8
LAYER_1
 10
117.8447
 20
36.6978
 42
-0.1006850025
  0
VERTEX
  8
LAYER_1
 10
117.9581
 20
36.8694
 42
-0.09625543395
  0
VERTEX
  8
LAYER_1
 10
118.129
 20
36.9824
 42
-0.09528409444
  0
VERTEX
  8
LAYER_1
 10
118.3426
 20
37.0234
 42
-0.101175466
  0
VERTEX
  8
LAYER_1
 10
118.5565
 20
36.9824
 42
-0.09853409661
  0
VERTEX
  8
LAYER_1
 10
118.7274
 20
36.8694
 42
-0.09556553869
  0
VERTEX
  8
LAYER_1
 10
118.84
 20
36.6978
 42
-0.09400765476
  0
SEQEND
  0
POLYLINE
  8
LAYER_1
 40
0.05
 41
0.05
 66
1
 10
0
 20
0
 30
0
 70
1
  0
VERTEX
  8
LAYER_1
 10
118.7701
 20
36.4798
  0
VERTEX
  8
LAYER_1
 10
118.7412
 20
36.6517
  0
VERTEX
  8
LAYER_1
 10
118.6564
 20
36.795
  0
VERTEX
  8
LAYER_1
 10
118.5214
 20
36.8932
  0
VERTEX
  8
LAYER_1
 10
118.3426
 20
36.93
  0
VERTEX
  8
LAYER_1
 10
118.1638
 20
36.8932
  0
VERTEX
  8
LAYER_1
 10
118.0291
 20
36.795
  0
VERTEX
  8
LAYER_1
 10
117.9443
 20
36.6517
  0
VERTEX
  8
LAYER_1
 10
117.9151
 20
36.4798
  0
VERTEX
  8
LAYER_1
 10
117.9443
 20
36.3079
  0
VERTEX
  8
LAYER_1
 10
118.0291
 20
36.1649
  0
VERTEX
  8
LAYER_1
 10
118.1638
 20
36.0674
 42
0.1008280473
  0
VERTEX
  8
LAYER_1
 10
118.3426
 20
36.0309
  0
VERTEX
  8
LAYER_1
 10
118.5214
 20
36.0674
  0
VERTEX
  8
LAYER_1
 10
118.6564
 20
36.1649
  0
VERTEX
  8
LAYER_1
 10
118.7412
 20
36.3079
  0
SEQEND
  0
ENDBLK
  0
BLOCK
  8
LAYER_1
  2
AIGNBL0103001D
 70
64
 10
0
 20
0
 30
0
  3
AIGNBL0103001D
  0
POLYLINE
  8
LAYER_1
 40
0.05
 41
0.05
 66
1
 10
0
 20
0
 30
0
 70
1
  0
VERTEX
  8
LAYER_1
 10
119.8119
 20
36.1418
  0
VERTEX
  8
LAYER_1
 10
119.8136
 20
36.1418
  0
VERTEX
  8
LAYER_1
 10
120.1592
 20
36.9969
  0
VERTEX
  8
LAYER_1
 10
120.3201
 20
36.9969
  0
VERTEX
  8
LAYER_1
 10
120.3201
 20
35.9637
  0
VERTEX
  8
LAYER_1
 10
120.2146
 20
35.9637
  0
VERTEX
  8
LAYER_1
 10
120.2146
 20
36.8611
  0
VERTEX
  8
LAYER_1
 10
120.2119
 20
36.8611
  0
VERTEX
  8
LAYER_1
 10
119.8384
 20
35.9637
  0
VERTEX
  8
LAYER_1
 10
119.783
 20
35.9637
  0
VERTEX
  8
LAYER_1
 10
119.4092
 20
36.8611
  0
VERTEX
  8
LAYER_1
 10
119.4064
 20
36.8611
  0
VERTEX
  8
LAYER_1
 10
119.4064
 20
35.9637
  0
VERTEX
  8
LAYER_1
 10
119.3014
 20
35.9637
  0
VERTEX
  8
LAYER_1
 10
119.3014
 20
36.9969
  0
VERTEX
  8
LAYER_1
 10
119.4619
 20
36.9969
  0
SEQEND
  0
ENDBLK
  0
BLOCK
  8
LAYER_1
  2
AIGNBL0103001E
 70
64
 10
0
 20
0
 30
0
  3
AIGNBL0103001E
  0
POLYLINE
  8
LAYER_1
 40
0.05
 41
0.05
 66
1
 10
0
 20
0
 30
0
 70
1
  0
VERTEX
  8
LAYER_1
 10
121.4666
 20
36.0574
  0
VERTEX
  8
LAYER_1
 10
122.0199
 20
36.0574
  0
VERTEX
  8
LAYER_1
 10
122.0199
 20
35.9637
  0
VERTEX
  8
LAYER_1
 10
121.3615
 20
35.9637
  0
VERTEX
  8
LAYER_1
 10
121.3615
 20
36.9969
  0
VERTEX
  8
LAYER_1
 10
122.0023
 20
36.9969
  0
VERTEX
  8
LAYER_1
 10
122.0023
 20
36.9035
  0
VERTEX
  8
LAYER_1
 10
121.4666
 20
36.9035
  0
VERTEX
  8
LAYER_1
 10
121.4666
 20
36.549
  0
VERTEX
  8
LAYER_1
 10
121.9672
 20
36.549
  0
VERTEX
  8
LAYER_1
 10
121.9672
 20
36.4557
  0
VERTEX
  8
LAYER_1
 10
121.4666
 20
36.4557
  0
SEQEND
  0
ENDBLK
  0
BLOCK
  8
LAYER_1
  2
AIGNBL0103001F
 70
64
 10
0
 20
0
 30
0
  3
AIGNBL0103001F
  0
POLYLINE
  8
LAYER_1
 40
0.05
 41
0.05
 66
1
 10
0
 20
0
 30
0
 70
1
  0
VERTEX
  8
LAYER_1
 10
122.765
 20
36.5797
  0
VERTEX
  8
LAYER_1
 10
123.0472
 20
36.9969
  0
VERTEX
  8
LAYER_1
 10
123.1723
 20
36.9969
  0
VERTEX
  8
LAYER_1
 10
122.8298
 20
36.5053
  0
VERTEX
  8
LAYER_1
 10
123.2091
 20
35.9637
  0
VERTEX
  8
LAYER_1
 10
123.0779
 20
35.9637
  0
VERTEX
  8
LAYER_1
 10
122.7623
 20
36.4295
  0
VERTEX
  8
LAYER_1
 10
122.4488
 20
35.9637
  0
VERTEX
  8
LAYER_1
 10
122.3172
 20
35.9637
  0
VERTEX
  8
LAYER_1
 10
122.6969
 20
36.5066
  0
VERTEX
  8
LAYER_1
 10
122.351
 20
36.9969
  0
VERTEX
  8
LAYER_1
 10
122.4825
 20
36.9969
  0
SEQEND
  0
ENDBLK
  0
BLOCK
  8
LAYER_1
  2
AIGNBL01030020
 70
64
 10
0
 20
0
 30
0
  3
AIGNBL01030020
  0
POLYLINE
  8
LAYER_1
 40
0.05
 41
0.05
 66
1
 10
0
 20
0
 30
0
 70
1
  0
VERTEX
  8
LAYER_1
 10
123.5753
 20
36.9969
  0
VERTEX
  8
LAYER_1
 10
123.8675
 20
36.9969
  0
VERTEX
  8
LAYER_1
 10
124.0105
 20
36.9804
  0
VERTEX
  8
LAYER_1
 10
124.1203
 20
36.929
  0
VERTEX
  8
LAYER_1
 10
124.1913
 20
36.8429
  0
VERTEX
  8
LAYER_1
 10
124.2158
 20
36.7213
  0
VERTEX
  8
LAYER_1
 10
124.1906
 20
36.5993
  0
VERTEX
  8
LAYER_1
 10
124.119
 20
36.5132
  0
VERTEX
  8
LAYER_1
 10
124.0081
 20
36.4615
  0
VERTEX
  8
LAYER_1
 10
123.8644
 20
36.444
  0
VERTEX
  8
LAYER_1
 10
123.6804
 20
36.444
  0
VERTEX
  8
LAYER_1
 10
123.6804
 20
35.9637
  0
VERTEX
  8
LAYER_1
 10
123.5753
 20
35.9637
  0
SEQEND
  0
POLYLINE
  8
LAYER_1
 40
0.05
 41
0.05
 66
1
 10
0
 20
0
 30
0
 70
1
  0
VERTEX
  8
LAYER_1
 10
123.6804
 20
36.5328
  0
VERTEX
  8
LAYER_1
 10
123.8582
 20
36.5328
 42
0.1829203509
  0
VERTEX
  8
LAYER_1
 10
124.0466
 20
36.581
 42
0.2345943979
  0
VERTEX
  8
LAYER_1
 10
124.111
 20
36.7213
 42
0.2650437466
  0
VERTEX
  8
LAYER_1
 10
124.0446
 20
36.8622
 42
0.1264027561
  0
VERTEX
  8
LAYER_1
 10
123.8582
 20
36.9066
  0
VERTEX
  8
LAYER_1
 10
123.6804
 20
36.9066
  0
SEQEND
  0
ENDBLK
  0
BLOCK
  8
LAYER_1
  2
AIGNBL01030021
 70
64
 10
0
 20
0
 30
0
  3
AIGNBL01030021
  0
POLYLINE
  8
LAYER_1
 40
0.05
 41
0.05
 66
1
 10
0
 20
0
 30
0
 70
1
  0
VERTEX
  8
LAYER_1
 10
124.7281
 20
36.0574
  0
VERTEX
  8
LAYER_1
 10
125.2813
 20
36.0574
  0
VERTEX
  8
LAYER_1
 10
125.2813
 20
35.9637
  0
VERTEX
  8
LAYER_1
 10
124.623
 20
35.9637
  0
VERTEX
  8
LAYER_1
 10
124.623
 20
36.9969
  0
VERTEX
  8
LAYER_1
 10
125.2638
 20
36.9969
  0
VERTEX
  8
LAYER_1
 10
125.2638
 20
36.9035
  0
VERTEX
  8
LAYER_1
 10
124.7281
 20
36.9035
  0
VERTEX
  8
LAYER_1
 10
124.7281
 20
36.549
  0
VERTEX
  8
LAYER_1
 10
125.2286
 20
36.549
  0
VERTEX
  8
LAYER_1
 10
125.2286
 20
36.4557
  0
VERTEX
  8
LAYER_1
 10
124.7281
 20
36.4557
  0
SEQEND
  0
ENDBLK
  0
BLOCK
  8
LAYER_1
  2
AIGNBL01030022
 70
64
 10
0
 20
0
 30
0
  3
AIGNBL01030022
  0
POLYLINE
  8
LAYER_1
 40
0.05
 41
0.05
 66
1
 10
0
 20
0
 30
0
 70
1
  0
VERTEX
  8
LAYER_1
 10
125.7933
 20
35.9637
  0
VERTEX
  8
LAYER_1
 10
125.6882
 20
35.9637
  0
VERTEX
  8
LAYER_1
 10
125.6882
 20
36.9969
  0
VERTEX
  8
LAYER_1
 10
125.9921
 20
36.9969
  0
VERTEX
  8
LAYER_1
 10
126.1326
 20
36.9824
  0
VERTEX
  8
LAYER_1
 10
126.2453
 20
36.9349
  0
VERTEX
  8
LAYER_1
 10
126.319
 20
36.8494
  0
VERTEX
  8
LAYER_1
 10
126.3449
 20
36.7213
  0
VERTEX
  8
LAYER_1
 10
126.3249
 20
36.6176
  0
VERTEX
  8
LAYER_1
 10
126.2694
 20
36.5366
  0
VERTEX
  8
LAYER_1
 10
126.186
 20
36.4818
  0
VERTEX
  8
LAYER_1
 10
126.0809
 20
36.4557
  0
VERTEX
  8
LAYER_1
 10
126.3831
 20
35.9637
  0
VERTEX
  8
LAYER_1
 10
126.2546
 20
35.9637
  0
VERTEX
  8
LAYER_1
 10
125.9687
 20
36.4467
  0
VERTEX
  8
LAYER_1
 10
125.7933
 20
36.4467
  0
SEQEND
  0
POLYLINE
  8
LAYER_1
 40
0.05
 41
0.05
 66
1
 10
0
 20
0
 30
0
 70
1
  0
VERTEX
  8
LAYER_1
 10
125.7933
 20
36.5373
  0
VERTEX
  8
LAYER_1
 10
125.9759
 20
36.5373
 42
0.1663801652
  0
VERTEX
  8
LAYER_1
 10
126.1716
 20
36.5831
 42
0.2503091692
  0
VERTEX
  8
LAYER_1
 10
126.2401
 20
36.7213
  0
VERTEX
  8
LAYER_1
 10
126.2212
 20
36.8071
  0
VERTEX
  8
LAYER_1
 10
126.1685
 20
36.8643
  0
VERTEX
  8
LAYER_1
 10
126.0868
 20
36.8963
  0
VERTEX
  8
LAYER_1
 10
125.9804
 20
36.9066
  0
VERTEX
  8
LAYER_1
 10
125.7933
 20
36.9066
  0
SEQEND
  0
ENDBLK
  0
BLOCK
  8
LAYER_1
  2
AIGNBL01030023
 70
64
 10
0
 20
0
 30
0
  3
AIGNBL01030023
  0
POLYLINE
  8
LAYER_1
 40
0.05
 41
0.05
 66
1
 10
0
 20
0
 30
0
 70
1
  0
VERTEX
  8
LAYER_1
 10
126.8688
 20
35.9637
  0
VERTEX
  8
LAYER_1
 10
126.7641
 20
35.9637
  0
VERTEX
  8
LAYER_1
 10
126.7641
 20
36.9969
  0
VERTEX
  8
LAYER_1
 10
126.8688
 20
36.9969
  0
SEQEND
  0
ENDBLK
  0
BLOCK
  8
LAYER_1
  2
AIGNBL01030024
 70
64
 10
0
 20
0
 30
0
  3
AIGNBL01030024
  0
POLYLINE
  8
LAYER_1
 40
0.05
 41
0.05
 66
1
 10
0
 20
0
 30
0
 70
1
  0
VERTEX
  8
LAYER_1
 10
127.4497
 20
36.0574
  0
VERTEX
  8
LAYER_1
 10
128.0026
 20
36.0574
  0
VERTEX
  8
LAYER_1
 10
128.0026
 20
35.9637
  0
VERTEX
  8
LAYER_1
 10
127.3446
 20
35.9637
  0
VERTEX
  8
LAYER_1
 10
127.3446
 20
36.9969
  0
VERTEX
  8
LAYER_1
 10
127.9854
 20
36.9969
  0
VERTEX
  8
LAYER_1
 10
127.9854
 20
36.9035
  0
VERTEX
  8
LAYER_1
 10
127.4497
 20
36.9035
  0
VERTEX
  8
LAYER_1
 10
127.4497
 20
36.549
  0
VERTEX
  8
LAYER_1
 10
127.9503
 20
36.549
  0
VERTEX
  8
LAYER_1
 10
127.9503
 20
36.4557
  0
VERTEX
  8
LAYER_1
 10
127.4497
 20
36.4557
  0
SEQEND
  0
ENDBLK
  0
BLOCK
  8
LAYER_1
  2
AIGNBL01030025
 70
64
 10
0
 20
0
 30
0
  3
AIGNBL01030025
  0
POLYLINE
  8
LAYER_1
 40
0.05
 41
0.05
 66
1
 10
0
 20
0
 30
0
 70
1
  0
VERTEX
  8
LAYER_1
 10
129.1426
 20
36.117
  0
VERTEX
  8
LAYER_1
 10
129.1454
 20
36.117
  0
VERTEX
  8
LAYER_1
 10
129.1454
 20
36.9969
  0
VERTEX
  8
LAYER_1
 10
129.2504
 20
36.9969
  0
VERTEX
  8
LAYER_1
 10
129.2504
 20
35.9637
  0
VERTEX
  8
LAYER_1
 10
129.1192
 20
35.9637
  0
VERTEX
  8
LAYER_1
 10
128.518
 20
36.8525
  0
VERTEX
  8
LAYER_1
 10
128.5149
 20
36.8525
  0
VERTEX
  8
LAYER_1
 10
128.5149
 20
35.9637
  0
VERTEX
  8
LAYER_1
 10
128.4098
 20
35.9637
  0
VERTEX
  8
LAYER_1
 10
128.4098
 20
36.9969
  0
VERTEX
  8
LAYER_1
 10
128.5414
 20
36.9969
  0
SEQEND
  0
ENDBLK
  0
BLOCK
  8
LAYER_1
  2
AIGNBL01030026
 70
64
 10
0
 20
0
 30
0
  3
AIGNBL01030026
  0
POLYLINE
  8
LAYER_1
 40
0.05
 41
0.05
 66
1
 10
0
 20
0
 30
0
 70
1
  0
VERTEX
  8
LAYER_1
 10
130.5961
 20
36.1315
  0
VERTEX
  8
LAYER_1
 10
130.5324
 20
36.0571
  0
VERTEX
  8
LAYER_1
 10
130.4463
 20
35.9954
  0
VERTEX
  8
LAYER_1
 10
130.3381
 20
35.953
  0
VERTEX
  8
LAYER_1
 10
130.2092
 20
35.9375
 42
-0.1009408553
  0
VERTEX
  8
LAYER_1
 10
129.9932
 20
35.9785
 42
-0.1036559164
  0
VERTEX
  8
LAYER_1
 10
129.8227
 20
36.0915
 42
-0.09812017057
  0
VERTEX
  8
LAYER_1
 10
129.7111
 20
36.2631
 42
-0.09255697562
  0
VERTEX
  8
LAYER_1
 10
129.6707
 20
36.4805
 42
-0.1035456296
  0
VERTEX
  8
LAYER_1
 10
129.7117
 20
36.6978
 42
-0.1005534539
  0
VERTEX
  8
LAYER_1
 10
129.8244
 20
36.8694
 42
-0.09536265516
  0
VERTEX
  8
LAYER_1
 10
129.9953
 20
36.9824
 42
-0.09506675375
  0
VERTEX
  8
LAYER_1
 10
130.2092
 20
37.0234
  0
VERTEX
  8
LAYER_1
 10
130.3208
 20
37.0114
  0
VERTEX
  8
LAYER_1
 10
130.4239
 20
36.9779
  0
VERTEX
  8
LAYER_1
 10
130.5113
 20
36.9263
  0
VERTEX
  8
LAYER_1
 10
130.5771
 20
36.8584
  0
VERTEX
  8
LAYER_1
 10
130.4896
 20
36.794
  0
VERTEX
  8
LAYER_1
 10
130.4463
 20
36.8439
  0
VERTEX
  8
LAYER_1
 10
130.3829
 20
36.8877
  0
VERTEX
  8
LAYER_1
 10
130.3033
 20
36.9183
  0
VERTEX
  8
LAYER_1
 10
130.2106
 20
36.93
  0
VERTEX
  8
LAYER_1
 10
130.0304
 20
36.8935
  0
VERTEX
  8
LAYER_1
 10
129.8954
 20
36.7954
  0
VERTEX
  8
LAYER_1
 10
129.8106
 20
36.652
  0
VERTEX
  8
LAYER_1
 10
129.7817
 20
36.4805
  0
VERTEX
  8
LAYER_1
 10
129.8116
 20
36.3089
  0
VERTEX
  8
LAYER_1
 10
129.8971
 20
36.1656
  0
VERTEX
  8
LAYER_1
 10
130.0321
 20
36.0674
 42
0.1009931409
  0
VERTEX
  8
LAYER_1
 10
130.2106
 20
36.0309
  0
VERTEX
  8
LAYER_1
 10
130.3798
 20
36.0674
 42
0.1319081761
  0
VERTEX
  8
LAYER_1
 10
130.5141
 20
36.1842
  0
SEQEND
  0
ENDBLK
  0
BLOCK
  8
LAYER_1
  2
AIGNBL01030027
 70
64
 10
0
 20
0
 30
0
  3
AIGNBL01030027
  0
POLYLINE
  8
LAYER_1
 40
0.05
 41
0.05
 66
1
 10
0
 20
0
 30
0
 70
1
  0
VERTEX
  8
LAYER_1
 10
131.0832
 20
36.0574
  0
VERTEX
  8
LAYER_1
 10
131.6365
 20
36.0574
  0
VERTEX
  8
LAYER_1
 10
131.6365
 20
35.9637
  0
VERTEX
  8
LAYER_1
 10
130.9782
 20
35.9637
  0
VERTEX
  8
LAYER_1
 10
130.9782
 20
36.9969
  0
VERTEX
  8
LAYER_1
 10
131.619
 20
36.9969
  0
VERTEX
  8
LAYER_1
 10
131.619
 20
36.9035
  0
VERTEX
  8
LAYER_1
 10
131.0832
 20
36.9035
  0
VERTEX
  8
LAYER_1
 10
131.0832
 20
36.549
  0
VERTEX
  8
LAYER_1
 10
131.5838
 20
36.549
  0
VERTEX
  8
LAYER_1
 10
131.5838
 20
36.4557
  0
VERTEX
  8
LAYER_1
 10
131.0832
 20
36.4557
  0
SEQEND
  0
ENDBLK
  0
BLOCK
  8
LAYER_1
  2
AIGNBL01020004
 70
64
 10
0
 20
0
 30
0
  3
AIGNBL01020004
  0
POLYLINE
  8
LAYER_1
 40
0.05
 41
0.05
 66
1
 10
0
 20
0
 30
0
  0
VERTEX
  8
LAYER_1
 10
-1.196
 20
217.6012
 42
-0.07434374488
  0
VERTEX
  8
LAYER_1
 10
-1.3046
 20
216.4751
 42
-0.1312981164
  0
VERTEX
  8
LAYER_1
 10
-1.5732
 20
216.0054
 42
-0.208619006
  0
VERTEX
  8
LAYER_1
 10
-2.3408
 20
215.7164
 42
-0.1980855618
  0
VERTEX
  8
LAYER_1
 10
-3.0956
 20
216.0054
 42
-0.1359059684
  0
VERTEX
  8
LAYER_1
 10
-3.3746
 20
216.5106
 42
-0.06699191066
  0
VERTEX
  8
LAYER_1
 10
-3.4732
 20
217.6012
 42
-0.07470238595
  0
VERTEX
  8
LAYER_1
 10
-3.3644
 20
218.7157
 42
-0.1310826725
  0
VERTEX
  8
LAYER_1
 10
-3.0956
 20
219.1845
 42
-0.2061520596
  0
VERTEX
  8
LAYER_1
 10
-2.3408
 20
219.4732
 42
-0.1977437771
  0
VERTEX
  8
LAYER_1
 10
-1.5732
 20
219.1845
 42
-0.1358673357
  0
VERTEX
  8
LAYER_1
 10
-1.2943
 20
218.6804
 42
-0.06720044206
  0
VERTEX
  8
LAYER_1
 10
-1.196
 20
217.6012
  0
SEQEND
  0
POLYLINE
  8
LAYER_1
 40
0.05
 41
0.05
 66
1
 10
0
 20
0
 30
0
  0
VERTEX
  8
LAYER_1
 10
0.4394
 20
217.6012
 42
0.0577585355
  0
VERTEX
  8
LAYER_1
 10
0.3194
 20
218.9609
 42
0.1358747382
  0
VERTEX
  8
LAYER_1
 10
-0.303
 20
220.1395
 42
0.1777268905
  0
VERTEX
  8
LAYER_1
 10
-1.8892
 20
220.9154
 42
0.03495822391
  0
VERTEX
  8
LAYER_1
 10
-2.3408
 20
220.9436
 42
0.07961804251
  0
VERTEX
  8
LAYER_1
 10
-3.315
 20
220.7962
 42
0.1217450219
  0
VERTEX
  8
LAYER_1
 10
-4.3662
 20
220.1395
 42
0.09150776818
  0
VERTEX
  8
LAYER_1
 10
-4.8465
 20
219.4067
 42
0.07735978812
  0
VERTEX
  8
LAYER_1
 10
-5.0776
 20
218.3847
 42
0.03281807239
  0
VERTEX
  8
LAYER_1
 10
-5.1082
 20
217.6012
 42
0.05725233541
  0
VERTEX
  8
LAYER_1
 10
-4.9885
 20
216.2362
 42
0.1359864428
  0
VERTEX
  8
LAYER_1
 10
-4.3662
 20
215.0504
 42
0.175204158
  0
VERTEX
  8
LAYER_1
 10
-2.7508
 20
214.2702
 42
0.03231924249
  0
VERTEX
  8
LAYER_1
 10
-2.3408
 20
214.2463
 42
0.07899302184
  0
VERTEX
  8
LAYER_1
 10
-1.3625
 20
214.3937
 42
0.1216861451
  0
VERTEX
  8
LAYER_1
 10
-0.303
 20
215.0504
 42
0.09340304456
  0
VERTEX
  8
LAYER_1
 10
0.1681
 20
215.7463
 42
0.0774645698
  0
VERTEX
  8
LAYER_1
 10
0.4017
 20
216.7223
 42
0.02212089617
  0
VERTEX
  8
LAYER_1
 10
0.4394
 20
217.6012
  0
SEQEND
  0
POLYLINE
  8
LAYER_1
 40
0.05
 41
0.05
 66
1
 10
0
 20
0
 30
0
  0
VERTEX
  8
LAYER_1
 10
-11.3166
 20
218.2044
  0
VERTEX
  8
LAYER_1
 10
-13.8074
 20
218.2044
 42
-0.1153546446
  0
VERTEX
  8
LAYER_1
 10
-13.6562
 20
218.9079
 42
-0.3007040875
  0
VERTEX
  8
LAYER_1
 10
-12.562
 20
219.5866
 42
-0.1235431447
  0
VERTEX
  8
LAYER_1
 10
-11.9621
 20
219.4464
 42
-0.1667603161
  0
VERTEX
  8
LAYER_1
 10
-11.4672
 20
218.9079
 42
-0.1143399212
  0
VERTEX
  8
LAYER_1
 10
-11.3166
 20
218.2044
  0
SEQEND
  0
POLYLINE
  8
LAYER_1
 40
0.05
 41
0.05
 66
1
 10
0
 20
0
 30
0
 70
1
  0
VERTEX
  8
LAYER_1
 10
-9.7064
 20
217.0861
  0
VERTEX
  8
LAYER_1
 10
-9.7064
 20
217.7772
 42
0.0677042249
  0
VERTEX
  8
LAYER_1
 10
-9.852
 20
218.9102
 42
0.07767771487
  0
VERTEX
  8
LAYER_1
 10
-10.2392
 20
219.7789
 42
0.1724975422
  0
VERTEX
  8
LAYER_1
 10
-11.5857
 20
220.7996
 42
0.07776532921
  0
VERTEX
  8
LAYER_1
 10
-12.562
 20
220.9436
 42
0.0796960513
  0
VERTEX
  8
LAYER_1
 10
-13.5247
 20
220.7966
 42
0.168887661
  0
VERTEX
  8
LAYER_1
 10
-14.846
 20
219.7874
 42
0.07658055294
  0
VERTEX
  8
LAYER_1
 10
-15.2466
 20
218.9066
 42
0.07097127065
  0
VERTEX
  8
LAYER_1
 10
-15.4177
 20
217.6012
 42
0.05685454964
  0
VERTEX
  8
LAYER_1
 10
-15.2934
 20
216.4004
 42
0.07540481703
  0
VERTEX
  8
LAYER_1
 10
-14.9492
 20
215.5069
 42
0.1774924504
  0
VERTEX
  8
LAYER_1
 10
-13.6777
 20
214.4527
 42
0.08958127581
  0
VERTEX
  8
LAYER_1
 10
-12.386
 20
214.2463
 42
0.07080596686
  0
VERTEX
  8
LAYER_1
 10
-11.2943
 20
214.3814
 42
0.08369033087
  0
VERTEX
  8
LAYER_1
 10
-10.4805
 20
214.7708
 42
0.04417423811
  0
VERTEX
  8
LAYER_1
 10
-9.8948
 20
215.2768
  0
VERTEX
  8
LAYER_1
 10
-10.8887
 20
216.2442
 42
-0.09875545259
  0
VERTEX
  8
LAYER_1
 10
-11.5612
 20
215.7667
 42
-0.1006814841
  0
VERTEX
  8
LAYER_1
 10
-12.3732
 20
215.6285
 42
-0.1070981108
  0
VERTEX
  8
LAYER_1
 10
-13.0555
 20
215.7638
 42
-0.2542521374
  0
VERTEX
  8
LAYER_1
 10
-13.7778
 20
216.7415
 42
-0.04997815034
  0
VERTEX
  8
LAYER_1
 10
-13.8074
 20
217.0861
  0
SEQEND
  0
POLYLINE
  8
LAYER_1
 40
0.05
 41
0.05
 66
1
 10
0
 20
0
 30
0
 70
1
  0
VERTEX
  8
LAYER_1
 10
-16.9018
 20
223.2773
  0
VERTEX
  8
LAYER_1
 10
-18.5517
 20
223.2773
  0
VERTEX
  8
LAYER_1
 10
-18.5517
 20
221.9454
  0
VERTEX
  8
LAYER_1
 10
-16.9018
 20
221.9454
  0
SEQEND
  0
POLYLINE
  8
LAYER_1
 40
0.05
 41
0.05
 66
1
 10
0
 20
0
 30
0
 70
1
  0
VERTEX
  8
LAYER_1
 10
-16.9146
 20
220.79
  0
VERTEX
  8
LAYER_1
 10
-18.5499
 20
220.79
  0
VERTEX
  8
LAYER_1
 10
-18.5499
 20
214.3218
  0
VERTEX
  8
LAYER_1
 10
-16.9146
 20
214.3218
  0
SEQEND
  0
POLYLINE
  8
LAYER_1
 40
0.05
 41
0.05
 66
1
 10
0
 20
0
 30
0
  0
VERTEX
  8
LAYER_1
 10
-19.8205
 20
215.1386
  0
VERTEX
  8
LAYER_1
 10
-20.9274
 20
216.2317
 42
-0.1123773458
  0
VERTEX
  8
LAYER_1
 10
-21.5025
 20
215.8017
 42
-0.09517045223
  0
VERTEX
  8
LAYER_1
 10
-21.984
 20
215.7164
 42
-0.2295666259
  0
VERTEX
  8
LAYER_1
 10
-22.9149
 20
216.1436
 42
-0.1146247369
  0
VERTEX
  8
LAYER_1
 10
-23.2025
 20
216.7765
 42
-0.05302023055
  0
VERTEX
  8
LAYER_1
 10
-23.2797
 20
217.6012
 42
-0.07909887362
  0
VERTEX
  8
LAYER_1
 10
-23.1547
 20
218.5928
 42
-0.092262399
  0
VERTEX
  8
LAYER_1
 10
-22.9149
 20
219.0461
 42
-0.2338488836
  0
VERTEX
  8
LAYER_1
 10
-21.984
 20
219.4732
 42
-0.128883052
  0
VERTEX
  8
LAYER_1
 10
-21.3835
 20
219.3322
 42
-0.07812769659
  0
VERTEX
  8
LAYER_1
 10
-20.9274
 20
218.9585
  0
VERTEX
  8
LAYER_1
 10
-19.8205
 20
220.0637
 42
0.170273791
  0
VERTEX
  8
LAYER_1
 10
-21.4399
 20
220.9062
 42
0.04126809408
  0
VERTEX
  8
LAYER_1
 10
-21.984
 20
220.9436
 42
0.07342899762
  0
VERTEX
  8
LAYER_1
 10
-22.9625
 20
220.804
 42
0.1715306153
  0
VERTEX
  8
LAYER_1
 10
-24.3547
 20
219.7917
 42
0.07792315428
  0
VERTEX
  8
LAYER_1
 10
-24.7438
 20
218.9398
 42
0.07121572719
  0
VERTEX
  8
LAYER_1
 10
-24.9151
 20
217.6012
 42
0.06071119945
  0
VERTEX
  8
LAYER_1
 10
-24.7811
 20
216.4004
 42
0.07599045696
  0
VERTEX
  8
LAYER_1
 10
-24.4186
 20
215.5069
 42
0.1707838222
  0
VERTEX
  8
LAYER_1
 10
-23.1195
 20
214.4409
 42
0.08917342928
  0
VERTEX
  8
LAYER_1
 10
-21.984
 20
214.2463
 42
0.07667723183
  0
VERTEX
  8
LAYER_1
 10
-21.0013
 20
214.3855
 42
0.1303789466
  0
VERTEX
  8
LAYER_1
 10
-19.8205
 20
215.1386
  0
SEQEND
  0
ENDBLK
  0
BLOCK
  8
LAYER_1
  2
AIGNBL01020005
 70
64
 10
0
 20
0
 30
0
  3
AIGNBL01020005
  0
POLYLINE
  8
LAYER_1
 40
0.05
 41
0.05
 66
1
 10
0
 20
0
 30
0
 70
1
  0
VERTEX
  8
LAYER_1
 10
0.3288
 20
212.6805
  0
VERTEX
  8
LAYER_1
 10
0.0009
 20
212.6805
  0
VERTEX
  8
LAYER_1
 10
-0.2479
 20
211.9109
  0
VERTEX
  8
LAYER_1
 10
-0.5066
 20
212.6805
  0
VERTEX
  8
LAYER_1
 10
-0.8342
 20
212.6805
  0
VERTEX
  8
LAYER_1
 10
-0.4084
 20
211.5234
  0
VERTEX
  8
LAYER_1
 10
-0.4611
 20
211.3704
 42
-0.396721792
  0
VERTEX
  8
LAYER_1
 10
-0.6165
 20
211.2581
  0
VERTEX
  8
LAYER_1
 10
-0.6882
 20
211.2581
  0
VERTEX
  8
LAYER_1
 10
-0.6882
 20
210.9783
  0
VERTEX
  8
LAYER_1
 10
-0.5662
 20
210.9783
 42
0.2067482179
  0
VERTEX
  8
LAYER_1
 10
-0.2985
 20
211.0741
  0
VERTEX
  8
LAYER_1
 10
-0.2048
 20
211.2343
  0
SEQEND
  0
POLYLINE
  8
LAYER_1
 40
0.05
 41
0.05
 66
1
 10
0
 20
0
 30
0
 70
1
  0
VERTEX
  8
LAYER_1
 10
-0.8704
 20
211.4352
  0
VERTEX
  8
LAYER_1
 10
-0.8704
 20
211.6977
  0
VERTEX
  8
LAYER_1
 10
-0.9899
 20
211.6977
 42
-0.4758158184
  0
VERTEX
  8
LAYER_1
 10
-1.0998
 20
211.8103
  0
VERTEX
  8
LAYER_1
 10
-1.0998
 20
213.137
  0
VERTEX
  8
LAYER_1
 10
-1.4109
 20
213.137
  0
VERTEX
  8
LAYER_1
 10
-1.4109
 20
211.7914
 42
0.4199153803
  0
VERTEX
  8
LAYER_1
 10
-1.0475
 20
211.4352
  0
SEQEND
  0
POLYLINE
  8
LAYER_1
 40
0.05
 41
0.05
 66
1
 10
0
 20
0
 30
0
 70
1
  0
VERTEX
  8
LAYER_1
 10
-1.9739
 20
211.894
 42
-0.2612643935
  0
VERTEX
  8
LAYER_1
 10
-2.0214
 20
211.7363
 42
-0.1972145384
  0
VERTEX
  8
LAYER_1
 10
-2.2057
 20
211.6763
 42
-0.4351815088
  0
VERTEX
  8
LAYER_1
 10
-2.3949
 20
211.8175
 42
-0.4650020324
  0
VERTEX
  8
LAYER_1
 10
-2.2105
 20
211.9609
  0
VERTEX
  8
LAYER_1
 10
-1.9739
 20
211.9609
  0
SEQEND
  0
POLYLINE
  8
LAYER_1
 40
0.05
 41
0.05
 66
1
 10
0
 20
0
 30
0
 70
1
  0
VERTEX
  8
LAYER_1
 10
-1.6624
 20
211.4352
  0
VERTEX
  8
LAYER_1
 10
-1.6624
 20
212.2551
 42
0.2205564812
  0
VERTEX
  8
LAYER_1
 10
-1.7881
 20
212.5772
 42
0.1806009816
  0
VERTEX
  8
LAYER_1
 10
-2.194
 20
212.6947
 42
0.2375604919
  0
VERTEX
  8
LAYER_1
 10
-2.6412
 20
212.5179
  0
VERTEX
  8
LAYER_1
 10
-2.4452
 20
212.3243
 42
-0.2464065653
  0
VERTEX
  8
LAYER_1
 10
-2.2057
 20
212.4322
 42
-0.4684872669
  0
VERTEX
  8
LAYER_1
 10
-1.9739
 20
212.2358
  0
VERTEX
  8
LAYER_1
 10
-1.9739
 20
212.1738
  0
VERTEX
  8
LAYER_1
 10
-2.2633
 20
212.1738
 42
0.2103132122
  0
VERTEX
  8
LAYER_1
 10
-2.6081
 20
212.0486
 42
0.18506809
  0
VERTEX
  8
LAYER_1
 10
-2.6942
 20
211.8127
 42
0.1945609364
  0
VERTEX
  8
LAYER_1
 10
-2.5912
 20
211.533
 42
0.1980708175
  0
VERTEX
  8
LAYER_1
 10
-2.2729
 20
211.4228
 42
0.2246292991
  0
VERTEX
  8
LAYER_1
 10
-1.9663
 20
211.5426
  0
VERTEX
  8
LAYER_1
 10
-1.9663
 20
211.4352
  0
SEQEND
  0
POLYLINE
  8
LAYER_1
 40
0.05
 41
0.05
 66
1
 10
0
 20
0
 30
0
 70
1
  0
VERTEX
  8
LAYER_1
 10
-2.8758
 20
211.4352
  0
VERTEX
  8
LAYER_1
 10
-2.8758
 20
211.6977
  0
VERTEX
  8
LAYER_1
 10
-2.9884
 20
211.6977
 42
-0.496954413
  0
VERTEX
  8
LAYER_1
 10
-3.0963
 20
211.8103
  0
VERTEX
  8
LAYER_1
 10
-3.0963
 20
212.4081
  0
VERTEX
  8
LAYER_1
 10
-2.8758
 20
212.4081
  0
VERTEX
  8
LAYER_1
 10
-2.8758
 20
212.6444
  0
VERTEX
  8
LAYER_1
 10
-3.0963
 20
212.6444
  0
VERTEX
  8
LAYER_1
 10
-3.0963
 20
213.0126
  0
VERTEX
  8
LAYER_1
 10
-3.407
 20
213.0126
  0
VERTEX
  8
LAYER_1
 10
-3.407
 20
212.6444
  0
VERTEX
  8
LAYER_1
 10
-3.539
 20
212.6444
  0
VERTEX
  8
LAYER_1
 10
-3.539
 20
212.4081
  0
VERTEX
  8
LAYER_1
 10
-3.407
 20
212.4081
  0
VERTEX
  8
LAYER_1
 10
-3.407
 20
211.7914
 42
0.4187763975
  0
VERTEX
  8
LAYER_1
 10
-3.0456
 20
211.4352
  0
SEQEND
  0
POLYLINE
  8
LAYER_1
 40
0.05
 41
0.05
 66
1
 10
0
 20
0
 30
0
 70
1
  0
VERTEX
  8
LAYER_1
 10
-3.8091
 20
213.137
  0
VERTEX
  8
LAYER_1
 10
-4.1419
 20
213.137
  0
VERTEX
  8
LAYER_1
 10
-4.1419
 20
211.4352
  0
VERTEX
  8
LAYER_1
 10
-3.8091
 20
211.4352
  0
SEQEND
  0
POLYLINE
  8
LAYER_1
 40
0.05
 41
0.05
 66
1
 10
0
 20
0
 30
0
 70
1
  0
VERTEX
  8
LAYER_1
 10
-5.0562
 20
211.4352
  0
VERTEX
  8
LAYER_1
 10
-5.0562
 20
212.231
 42
0.2135728393
  0
VERTEX
  8
LAYER_1
 10
-5.183
 20
212.5844
 42
0.1976836271
  0
VERTEX
  8
LAYER_1
 10
-5.4775
 20
212.6947
 42
0.2038428178
  0
VERTEX
  8
LAYER_1
 10
-5.7886
 20
212.5658
  0
VERTEX
  8
LAYER_1
 10
-5.7886
 20
212.6805
  0
VERTEX
  8
LAYER_1
 10
-6.0925
 20
212.6805
  0
VERTEX
  8
LAYER_1
 10
-6.0925
 20
211.4352
  0
VERTEX
  8
LAYER_1
 10
-5.7814
 20
211.4352
  0
VERTEX
  8
LAYER_1
 10
-5.7814
 20
212.1882
 42
-0.4265123439
  0
VERTEX
  8
LAYER_1
 10
-5.573
 20
212.4149
 42
-0.4361688158
  0
VERTEX
  8
LAYER_1
 10
-5.3673
 20
212.1882
  0
VERTEX
  8
LAYER_1
 10
-5.3673
 20
211.4352
  0
SEQEND
  0
POLYLINE
  8
LAYER_1
 40
0.05
 41
0.05
 66
1
 10
0
 20
0
 30
0
 70
1
  0
VERTEX
  8
LAYER_1
 10
-6.437
 20
213.1467
  0
VERTEX
  8
LAYER_1
 10
-6.7553
 20
213.1467
  0
VERTEX
  8
LAYER_1
 10
-6.7553
 20
212.8931
  0
VERTEX
  8
LAYER_1
 10
-6.437
 20
212.8931
  0
SEQEND
  0
POLYLINE
  8
LAYER_1
 40
0.05
 41
0.05
 66
1
 10
0
 20
0
 30
0
 70
1
  0
VERTEX
  8
LAYER_1
 10
-6.4394
 20
212.6444
  0
VERTEX
  8
LAYER_1
 10
-6.7508
 20
212.6444
  0
VERTEX
  8
LAYER_1
 10
-6.7508
 20
211.4352
  0
VERTEX
  8
LAYER_1
 10
-6.4394
 20
211.4352
  0
SEQEND
  0
POLYLINE
  8
LAYER_1
 40
0.05
 41
0.05
 66
1
 10
0
 20
0
 30
0
  0
VERTEX
  8
LAYER_1
 10
-7.8994
 20
212.1738
  0
VERTEX
  8
LAYER_1
 10
-8.3735
 20
212.1738
  0
VERTEX
  8
LAYER_1
 10
-8.3445
 20
212.3074
 42
-0.3006254692
  0
VERTEX
  8
LAYER_1
 10
-8.1365
 20
212.4363
 42
-0.3004502708
  0
VERTEX
  8
LAYER_1
 10
-7.9284
 20
212.3074
  0
VERTEX
  8
LAYER_1
 10
-7.8994
 20
212.1738
  0
SEQEND
  0
POLYLINE
  8
LAYER_1
 40
0.05
 41
0.05
 66
1
 10
0
 20
0
 30
0
 70
1
  0
VERTEX
  8
LAYER_1
 10
-7.5932
 20
211.9609
  0
VERTEX
  8
LAYER_1
 10
-7.5932
 20
212.0925
 42
0.1727949422
  0
VERTEX
  8
LAYER_1
 10
-7.7261
 20
212.5161
 42
0.2293242446
  0
VERTEX
  8
LAYER_1
 10
-8.1365
 20
212.6947
 42
0.4082688927
  0
VERTEX
  8
LAYER_1
 10
-8.6757
 20
212.151
 42
0.02665393029
  0
VERTEX
  8
LAYER_1
 10
-8.6797
 20
212.0591
 42
0.1685110564
  0
VERTEX
  8
LAYER_1
 10
-8.5537
 20
211.6061
 42
0.2404561047
  0
VERTEX
  8
LAYER_1
 10
-8.103
 20
211.4207
 42
0.2250390665
  0
VERTEX
  8
LAYER_1
 10
-7.629
 20
211.6167
  0
VERTEX
  8
LAYER_1
 10
-7.8181
 20
211.801
 42
-0.2242451699
  0
VERTEX
  8
LAYER_1
 10
-8.1003
 20
211.6839
 42
-0.4312737558
  0
VERTEX
  8
LAYER_1
 10
-8.3735
 20
211.9609
  0
SEQEND
  0
POLYLINE
  8
LAYER_1
 40
0.05
 41
0.05
 66
1
 10
0
 20
0
 30
0
  0
VERTEX
  8
LAYER_1
 10
-9.2778
 20
212.0591
 42
-0.253040373
  0
VERTEX
  8
LAYER_1
 10
-9.3737
 20
211.7317
 42
-0.1751487426
  0
VERTEX
  8
LAYER_1
 10
-9.4911
 20
211.7004
 42
-0.3550784466
  0
VERTEX
  8
LAYER_1
 10
-9.6774
 20
211.8331
 42
-0.1590539016
  0
VERTEX
  8
LAYER_1
 10
-9.7016
 20
212.0591
 42
-0.2613372193
  0
VERTEX
  8
LAYER_1
 10
-9.6054
 20
212.3859
 42
-0.1728730088
  0
VERTEX
  8
LAYER_1
 10
-9.4911
 20
212.4149
 42
-0.3508351005
  0
VERTEX
  8
LAYER_1
 10
-9.3031
 20
212.2839
 42
-0.1617280931
  0
VERTEX
  8
LAYER_1
 10
-9.2778
 20
212.0591
  0
SEQEND
  0
POLYLINE
  8
LAYER_1
 40
0.05
 41
0.05
 66
1
 10
0
 20
0
 30
0
 70
1
  0
VERTEX
  8
LAYER_1
 10
-8.9667
 20
211.4352
  0
VERTEX
  8
LAYER_1
 10
-8.9667
 20
213.137
  0
VERTEX
  8
LAYER_1
 10
-9.2778
 20
213.137
  0
VERTEX
  8
LAYER_1
 10
-9.2778
 20
212.5707
 42
0.2263222596
  0
VERTEX
  8
LAYER_1
 10
-9.582
 20
212.6947
 42
0.2021447193
  0
VERTEX
  8
LAYER_1
 10
-9.8835
 20
212.5824
 42
0.1955994833
  0
VERTEX
  8
LAYER_1
 10
-10.0116
 20
212.1647
 42
0.01858076917
  0
VERTEX
  8
LAYER_1
 10
-10.013
 20
212.0591
 42
0.1992737425
  0
VERTEX
  8
LAYER_1
 10
-9.8835
 20
211.533
 42
0.1967798833
  0
VERTEX
  8
LAYER_1
 10
-9.5796
 20
211.4207
 42
0.2368398509
  0
VERTEX
  8
LAYER_1
 10
-9.2709
 20
211.5523
  0
VERTEX
  8
LAYER_1
 10
-9.2709
 20
211.4352
  0
SEQEND
  0
POLYLINE
  8
LAYER_1
 40
0.05
 41
0.05
 66
1
 10
0
 20
0
 30
0
 70
1
  0
VERTEX
  8
LAYER_1
 10
-10.6062
 20
211.894
 42
-0.2606176184
  0
VERTEX
  8
LAYER_1
 10
-10.6541
 20
211.7363
 42
-0.1975146001
  0
VERTEX
  8
LAYER_1
 10
-10.8384
 20
211.6763
 42
-0.4358674545
  0
VERTEX
  8
LAYER_1
 10
-11.0272
 20
211.8175
 42
-0.4654392595
  0
VERTEX
  8
LAYER_1
 10
-10.8433
 20
211.9609
  0
VERTEX
  8
LAYER_1
 10
-10.6062
 20
211.9609
  0
SEQEND
  0
POLYLINE
  8
LAYER_1
 40
0.05
 41
0.05
 66
1
 10
0
 20
0
 30
0
 70
1
  0
VERTEX
  8
LAYER_1
 10
-10.2951
 20
211.4352
  0
VERTEX
  8
LAYER_1
 10
-10.2951
 20
212.2551
 42
0.2204713638
  0
VERTEX
  8
LAYER_1
 10
-10.4207
 20
212.5772
 42
0.1806796456
  0
VERTEX
  8
LAYER_1
 10
-10.8267
 20
212.6947
 42
0.2375604919
  0
VERTEX
  8
LAYER_1
 10
-11.2739
 20
212.5179
  0
VERTEX
  8
LAYER_1
 10
-11.0779
 20
212.3243
 42
-0.2460763492
  0
VERTEX
  8
LAYER_1
 10
-10.8384
 20
212.4322
 42
-0.4683426501
  0
VERTEX
  8
LAYER_1
 10
-10.6062
 20
212.2358
  0
VERTEX
  8
LAYER_1
 10
-10.6062
 20
212.1738
  0
VERTEX
  8
LAYER_1
 10
-10.896
 20
212.1738
 42
0.2105830771
  0
VERTEX
  8
LAYER_1
 10
-11.2407
 20
212.0486
 42
0.1847749138
  0
VERTEX
  8
LAYER_1
 10
-11.3266
 20
211.8127
 42
0.1946881207
  0
VERTEX
  8
LAYER_1
 10
-11.2239
 20
211.533
 42
0.1984095291
  0
VERTEX
  8
LAYER_1
 10
-10.9053
 20
211.4228
 42
0.2251045156
  0
VERTEX
  8
LAYER_1
 10
-10.599
 20
211.5426
  0
VERTEX
  8
LAYER_1
 10
-10.599
 20
211.4352
  0
SEQEND
  0
POLYLINE
  8
LAYER_1
 40
0.05
 41
0.05
 66
1
 10
0
 20
0
 30
0
 70
1
  0
VERTEX
  8
LAYER_1
 10
-11.5733
 20
211.4352
  0
VERTEX
  8
LAYER_1
 10
-11.5733
 20
212.231
 42
0.2096424971
  0
VERTEX
  8
LAYER_1
 10
-11.7097
 20
212.5844
 42
0.1904514856
  0
VERTEX
  8
LAYER_1
 10
-12.016
 20
212.6947
 42
0.2238328308
  0
VERTEX
  8
LAYER_1
 10
-12.3894
 20
212.5369
 42
0.2475119635
  0
VERTEX
  8
LAYER_1
 10
-12.7198
 20
212.6947
 42
0.1995172237
  0
VERTEX
  8
LAYER_1
 10
-13.0309
 20
212.5658
  0
VERTEX
  8
LAYER_1
 10
-13.0309
 20
212.6805
  0
VERTEX
  8
LAYER_1
 10
-13.3348
 20
212.6805
  0
VERTEX
  8
LAYER_1
 10
-13.3348
 20
211.4352
  0
VERTEX
  8
LAYER_1
 10
-13.0233
 20
211.4352
  0
VERTEX
  8
LAYER_1
 10
-13.0233
 20
212.1882
 42
-0.4265481482
  0
VERTEX
  8
LAYER_1
 10
-12.8153
 20
212.4149
 42
-0.4361688158
  0
VERTEX
  8
LAYER_1
 10
-12.6096
 20
212.1882
  0
VERTEX
  8
LAYER_1
 10
-12.6096
 20
211.4352
  0
VERTEX
  8
LAYER_1
 10
-12.2985
 20
211.4352
  0
VERTEX
  8
LAYER_1
 10
-12.2985
 20
212.1951
 42
-0.4236814191
  0
VERTEX
  8
LAYER_1
 10
-12.0904
 20
212.4149
 42
-0.4367319455
  0
VERTEX
  8
LAYER_1
 10
-11.8844
 20
212.1882
  0
VERTEX
  8
LAYER_1
 10
-11.8844
 20
211.4352
  0
SEQEND
  0
POLYLINE
  8
LAYER_1
 40
0.05
 41
0.05
 66
1
 10
0
 20
0
 30
0
  0
VERTEX
  8
LAYER_1
 10
-13.8973
 20
212.0229
 42
-0.2061577285
  0
VERTEX
  8
LAYER_1
 10
-14.0003
 20
211.6401
 42
-0.1860547104
  0
VERTEX
  8
LAYER_1
 10
-14.1915
 20
211.5736
 42
-0.2912351062
  0
VERTEX
  8
LAYER_1
 10
-14.4327
 20
211.7044
 42
-0.1074256356
  0
VERTEX
  8
LAYER_1
 10
-14.4882
 20
212.0229
 42
-0.2074793493
  0
VERTEX
  8
LAYER_1
 10
-14.3843
 20
212.406
 42
-0.1847812498
  0
VERTEX
  8
LAYER_1
 10
-14.1915
 20
212.4725
 42
-0.2924886932
  0
VERTEX
  8
LAYER_1
 10
-13.9523
 20
212.3416
 42
-0.1065173685
  0
VERTEX
  8
LAYER_1
 10
-13.8973
 20
212.0229
  0
SEQEND
  0
POLYLINE
  8
LAYER_1
 40
0.05
 41
0.05
 66
1
 10
0
 20
0
 30
0
 70
1
  0
VERTEX
  8
LAYER_1
 10
-13.7247
 20
211.4352
  0
VERTEX
  8
LAYER_1
 10
-13.7247
 20
213.137
  0
VERTEX
  8
LAYER_1
 10
-13.8973
 20
213.137
  0
VERTEX
  8
LAYER_1
 10
-13.8973
 20
212.4749
 42
0.2526586678
  0
VERTEX
  8
LAYER_1
 10
-14.2298
 20
212.6258
 42
0.19617536
  0
VERTEX
  8
LAYER_1
 10
-14.5171
 20
212.5224
 42
0.2062736322
  0
VERTEX
  8
LAYER_1
 10
-14.6608
 20
212.0229
 42
0.1925049638
  0
VERTEX
  8
LAYER_1
 10
-14.5171
 20
211.5234
 42
0.1893263809
  0
VERTEX
  8
LAYER_1
 10
-14.2298
 20
211.4207
 42
0.2549957718
  0
VERTEX
  8
LAYER_1
 10
-13.8949
 20
211.5761
  0
VERTEX
  8
LAYER_1
 10
-13.8949
 20
211.4352
  0
SEQEND
  0
POLYLINE
  8
LAYER_1
 40
0.05
 41
0.05
 66
1
 10
0
 20
0
 30
0
 70
1
  0
VERTEX
  8
LAYER_1
 10
-15.0173
 20
211.4352
  0
VERTEX
  8
LAYER_1
 10
-15.0173
 20
212.1882
 42
0.2089360908
  0
VERTEX
  8
LAYER_1
 10
-15.1393
 20
212.5156
 42
0.1977212202
  0
VERTEX
  8
LAYER_1
 10
-15.4411
 20
212.6258
 42
0.2189458741
  0
VERTEX
  8
LAYER_1
 10
-15.7711
 20
212.4818
  0
VERTEX
  8
LAYER_1
 10
-15.7711
 20
212.6113
  0
VERTEX
  8
LAYER_1
 10
-15.9434
 20
212.6113
  0
VERTEX
  8
LAYER_1
 10
-15.9434
 20
211.4352
  0
VERTEX
  8
LAYER_1
 10
-15.7711
 20
211.4352
  0
VERTEX
  8
LAYER_1
 10
-15.7711
 20
212.1593
 42
-0.4284576329
  0
VERTEX
  8
LAYER_1
 10
-15.479
 20
212.4725
 42
-0.4466039224
  0
VERTEX
  8
LAYER_1
 10
-15.1896
 20
212.1593
  0
VERTEX
  8
LAYER_1
 10
-15.1896
 20
211.4352
  0
SEQEND
  0
POLYLINE
  8
LAYER_1
 40
0.05
 41
0.05
 66
1
 10
0
 20
0
 30
0
 70
1
  0
VERTEX
  8
LAYER_1
 10
-16.5346
 20
211.8506
 42
-0.2283736068
  0
VERTEX
  8
LAYER_1
 10
-16.5945
 20
211.6477
 42
-0.1936527339
  0
VERTEX
  8
LAYER_1
 10
-16.8553
 20
211.5688
 42
-0.4421173513
  0
VERTEX
  8
LAYER_1
 10
-17.1281
 20
211.77
 42
-0.3470924647
  0
VERTEX
  8
LAYER_1
 10
-16.9968
 20
211.9592
 42
-0.1261120874
  0
VERTEX
  8
LAYER_1
 10
-16.8625
 20
211.9774
  0
VERTEX
  8
LAYER_1
 10
-16.5346
 20
211.9774
  0
SEQEND
  0
POLYLINE
  8
LAYER_1
 40
0.05
 41
0.05
 66
1
 10
0
 20
0
 30
0
 70
1
  0
VERTEX
  8
LAYER_1
 10
-16.362
 20
211.4352
  0
VERTEX
  8
LAYER_1
 10
-16.362
 20
212.233
 42
0.2383829599
  0
VERTEX
  8
LAYER_1
 10
-16.4898
 20
212.5337
 42
0.1599209503
  0
VERTEX
  8
LAYER_1
 10
-16.8336
 20
212.6258
 42
0.2578644009
  0
VERTEX
  8
LAYER_1
 10
-17.2501
 20
212.4487
  0
VERTEX
  8
LAYER_1
 10
-17.133
 20
212.3409
 42
-0.2730960706
  0
VERTEX
  8
LAYER_1
 10
-16.8364
 20
212.4776
 42
-0.4521672334
  0
VERTEX
  8
LAYER_1
 10
-16.5346
 20
212.2193
  0
VERTEX
  8
LAYER_1
 10
-16.5346
 20
212.1066
  0
VERTEX
  8
LAYER_1
 10
-16.8863
 20
212.1066
 42
0.2189203862
  0
VERTEX
  8
LAYER_1
 10
-17.2226
 20
211.9822
 42
0.17494127
  0
VERTEX
  8
LAYER_1
 10
-17.2956
 20
211.7673
 42
0.2075768001
  0
VERTEX
  8
LAYER_1
 10
-17.2071
 20
211.5282
 42
0.2128603639
  0
VERTEX
  8
LAYER_1
 10
-16.8742
 20
211.4207
 42
0.2247839487
  0
VERTEX
  8
LAYER_1
 10
-16.5346
 20
211.5471
  0
VERTEX
  8
LAYER_1
 10
-16.5346
 20
211.4352
  0
SEQEND
  0
POLYLINE
  8
LAYER_1
 40
0.05
 41
0.05
 66
1
 10
0
 20
0
 30
0
 70
1
  0
VERTEX
  8
LAYER_1
 10
-17.6211
 20
211.4352
  0
VERTEX
  8
LAYER_1
 10
-17.6211
 20
212.1903
 42
0.4657729105
  0
VERTEX
  8
LAYER_1
 10
-18.0449
 20
212.6258
 42
0.2190712165
  0
VERTEX
  8
LAYER_1
 10
-18.3749
 20
212.4818
  0
VERTEX
  8
LAYER_1
 10
-18.3749
 20
213.137
  0
VERTEX
  8
LAYER_1
 10
-18.5475
 20
213.137
  0
VERTEX
  8
LAYER_1
 10
-18.5475
 20
211.4352
  0
VERTEX
  8
LAYER_1
 10
-18.3749
 20
211.4352
  0
VERTEX
  8
LAYER_1
 10
-18.3749
 20
212.1617
 42
-0.4350388577
  0
VERTEX
  8
LAYER_1
 10
-18.0807
 20
212.4725
 42
-0.4517618327
  0
VERTEX
  8
LAYER_1
 10
-17.7934
 20
212.1617
  0
VERTEX
  8
LAYER_1
 10
-17.7934
 20
211.4352
  0
SEQEND
  0
ENDBLK
  0
BLOCK
  8
LAYER_1
  2
AIGNBL01020007
 70
64
 10
0
 20
0
 30
0
  3
AIGNBL01020007
  0
INSERT
  8
LAYER_1
  2
AIGNBL01030008
 10
0
 20
0
 30
0
  0
ENDBLK
  0
BLOCK
  8
LAYER_1
  2
AIGNBL01020010
 70
64
 10
0
 20
0
 30
0
  3
AIGNBL01020010
  0
INSERT
  8
LAYER_1
  2
AIGNBL01030011
 10
0
 20
0
 30
0
  0
INSERT
  8
LAYER_1
  2
AIGNBL01030012
 10
0
 20
0
 30
0
  0
INSERT
  8
LAYER_1
  2
AIGNBL01030013
 10
0
 20
0
 30
0
  0
INSERT
  8
LAYER_1
  2
AIGNBL01030014
 10
0
 20
0
 30
0
  0
INSERT
  8
LAYER_1
  2
AIGNBL01030015
 10
0
 20
0
 30
0
  0
INSERT
  8
LAYER_1
  2
AIGNBL01030016
 10
0
 20
0
 30
0
  0
INSERT
  8
LAYER_1
  2
AIGNBL01030017
 10
0
 20
0
 30
0
  0
INSERT
  8
LAYER_1
  2
AIGNBL01030018
 10
0
 20
0
 30
0
  0
INSERT
  8
LAYER_1
  2
AIGNBL01030019
 10
0
 20
0
 30
0
  0
INSERT
  8
LAYER_1
  2
AIGNBL0103001A
 10
0
 20
0
 30
0
  0
INSERT
  8
LAYER_1
  2
AIGNBL0103001B
 10
0
 20
0
 30
0
  0
INSERT
  8
LAYER_1
  2
AIGNBL0103001C
 10
0
 20
0
 30
0
  0
INSERT
  8
LAYER_1
  2
AIGNBL0103001D
 10
0
 20
0
 30
0
  0
INSERT
  8
LAYER_1
  2
AIGNBL0103001E
 10
0
 20
0
 30
0
  0
INSERT
  8
LAYER_1
  2
AIGNBL0103001F
 10
0
 20
0
 30
0
  0
INSERT
  8
LAYER_1
  2
AIGNBL01030020
 10
0
 20
0
 30
0
  0
INSERT
  8
LAYER_1
  2
AIGNBL01030021
 10
0
 20
0
 30
0
  0
INSERT
  8
LAYER_1
  2
AIGNBL01030022
 10
0
 20
0
 30
0
  0
INSERT
  8
LAYER_1
  2
AIGNBL01030023
 10
0
 20
0
 30
0
  0
INSERT
  8
LAYER_1
  2
AIGNBL01030024
 10
0
 20
0
 30
0
  0
INSERT
  8
LAYER_1
  2
AIGNBL01030025
 10
0
 20
0
 30
0
  0
INSERT
  8
LAYER_1
  2
AIGNBL01030026
 10
0
 20
0
 30
0
  0
INSERT
  8
LAYER_1
  2
AIGNBL01030027
 10
0
 20
0
 30
0
  0
ENDBLK
  0
BLOCK
  8
LAYER_1
  2
AIGNBL01010002
 70
64
 10
0
 20
0
 30
0
  3
AIGNBL01010002
  0
POLYLINE
  8
LAYER_1
 40
0.7056
 41
0.7056
 66
1
 10
0
 20
0
 30
0
 70
1
  0
VERTEX
  8
LAYER_1
 10
251.6749
 20
230.337
  0
VERTEX
  8
LAYER_1
 10
251.6749
 20
33.3285
  0
VERTEX
  8
LAYER_1
 10
-30.3177
 20
33.3285
  0
VERTEX
  8
LAYER_1
 10
-30.3177
 20
230.337
  0
SEQEND
  0
ENDBLK
  0
BLOCK
  8
LAYER_1
  2
AIGNBL01010003
 70
64
 10
0
 20
0
 30
0
  3
AIGNBL01010003
  0
INSERT
  8
LAYER_1
  2
AIGNBL01020004
 10
0
 20
0
 30
0
  0
POLYLINE
  8
LAYER_1
 40
0.05
 41
0.05
 66
1
 10
0
 20
0
 30
0
  0
VERTEX
  8
LAYER_1
 10
-6.457
 20
223.2684
  0
VERTEX
  8
LAYER_1
 10
-8.0924
 20
223.2684
  0
VERTEX
  8
LAYER_1
 10
-8.0924
 20
216.1939
 42
0.09304299953
  0
VERTEX
  8
LAYER_1
 10
-7.9518
 20
215.4241
 42
0.2872011141
  0
VERTEX
  8
LAYER_1
 10
-6.4597
 20
214.3359
  0
VERTEX
  8
LAYER_1
 10
-6.457
 20
223.2684
  0
SEQEND
  0
INSERT
  8
LAYER_1
  2
AIGNBL01020005
 10
0
 20
0
 30
0
  0
ENDBLK
  0
BLOCK
  8
LAYER_1
  2
AIGNBL01010006
 70
64
 10
0
 20
0
 30
0
  3
AIGNBL01010006
  0
INSERT
  8
LAYER_1
  2
AIGNBL01020007
 10
0
 20
0
 30
0
  0
INSERT
  8
LAYER_1
  2
AIGNBL01020010
 10
0
 20
0
 30
0
  0
ENDBLK
  0
BLOCK
  8
LAYER_1
  2
AIGNBL01010028
 70
64
 10
0
 20
0
 30
0
  3
AIGNBL01010028
  0
POLYLINE
  8
LAYER_1
 40
0.1058
 41
0.1058
 66
1
 10
0
 20
0
 30
0
  0
VERTEX
  8
LAYER_1
 10
53.9685
 20
177.6493
 42
0.4142443516
  0
VERTEX
  8
LAYER_1
 10
52.2017
 20
179.416
 42
0.4141870405
  0
VERTEX
  8
LAYER_1
 10
50.4355
 20
177.6493
 42
0.414174664
  0
VERTEX
  8
LAYER_1
 10
52.2017
 20
175.8826
 42
0.4142319726
  0
VERTEX
  8
LAYER_1
 10
53.9685
 20
177.6493
  0
SEQEND
  0
POLYLINE
  8
LAYER_1
 40
0.1058
 41
0.1058
 66
1
 10
0
 20
0
 30
0
  0
VERTEX
  8
LAYER_1
 10
54.4293
 20
161.6221
 42
0.4142111277
  0
VERTEX
  8
LAYER_1
 10
52.2017
 20
163.8494
 42
0.4141893183
  0
VERTEX
  8
LAYER_1
 10
49.9744
 20
161.6221
 42
0.4141799067
  0
VERTEX
  8
LAYER_1
 10
52.2017
 20
159.3949
 42
0.4142017166
  0
VERTEX
  8
LAYER_1
 10
54.4293
 20
161.6221
  0
SEQEND
  0
POLYLINE
  8
LAYER_1
 40
0.1058
 41
0.1058
 66
1
 10
0
 20
0
 30
0
  0
VERTEX
  8
LAYER_1
 10
55.4534
 20
161.6221
 42
0.4142599933
  0
VERTEX
  8
LAYER_1
 10
52.2019
 20
164.8737
 42
0.4142639222
  0
VERTEX
  8
LAYER_1
 10
48.9504
 20
161.6221
 42
0.4142574744
  0
VERTEX
  8
LAYER_1
 10
52.2019
 20
158.3706
 42
0.4142535455
  0
VERTEX
  8
LAYER_1
 10
55.4534
 20
161.6221
  0
SEQEND
  0
ENDBLK
  0
BLOCK
  8
LAYER_1
  2
AIGNBL01010029
 70
64
 10
0
 20
0
 30
0
  3
AIGNBL01010029
  0
POLYLINE
  8
LAYER_1
 40
0.2646
 41
0.2646
 66
1
 10
0
 20
0
 30
0
  0
VERTEX
  8
LAYER_1
 10
109.1675
 20
92.4926
 42
0.2019017194
  0
VERTEX
  8
LAYER_1
 10
109.0868
 20
92.6952
 42
0.2018420158
  0
VERTEX
  8
LAYER_1
 10
108.8861
 20
92.7794
  0
SEQEND
  0
ENDBLK
  0
BLOCK
  8
LAYER_1
  2
AIGNBL0101002A
 70
64
 10
0
 20
0
 30
0
  3
AIGNBL0101002A
  0
POLYLINE
  8
LAYER_1
 40
0.2646
 41
0.2646
 66
1
 10
0
 20
0
 30
0
  0
VERTEX
  8
LAYER_1
 10
24.4999
 20
92.7796
 42
0.2010596331
  0
VERTEX
  8
LAYER_1
 10
24.2991
 20
92.6954
 42
0.2013229915
  0
VERTEX
  8
LAYER_1
 10
24.2184
 20
92.4928
  0
SEQEND
  0
POLYLINE
  8
LAYER_1
 40
0.2646
 41
0.2646
 66
1
 10
0
 20
0
 30
0
  0
VERTEX
  8
LAYER_1
 10
109.1676
 20
184.3572
 42
0.4145556696
  0
VERTEX
  8
LAYER_1
 10
108.8861
 20
184.6386
  0
SEQEND
  0
ENDBLK
  0
BLOCK
  8
LAYER_1
  2
AIGNBL0101002B
 70
64
 10
0
 20
0
 30
0
  3
AIGNBL0101002B
  0
POLYLINE
  8
LAYER_1
 40
0.2646
 41
0.2646
 66
1
 10
0
 20
0
 30
0
  0
VERTEX
  8
LAYER_1
 10
108.8859
 20
138.6566
 42
0.414644975
  0
VERTEX
  8
LAYER_1
 10
109.1674
 20
138.9381
  0
SEQEND
  0
ENDBLK
  0
BLOCK
  8
LAYER_1
  2
AIGNBL0101002C
 70
64
 10
0
 20
0
 30
0
  3
AIGNBL0101002C
  0
POLYLINE
  8
LAYER_1
 40
0.2646
 41
0.2646
 66
1
 10
0
 20
0
 30
0
  0
VERTEX
  8
LAYER_1
 10
24.2183
 20
138.9382
 42
0.4139143329
  0
VERTEX
  8
LAYER_1
 10
24.4997
 20
138.6568
  0
SEQEND
  0
ENDBLK
  0
BLOCK
  8
LAYER_1
  2
AIGNBL0101002D
 70
64
 10
0
 20
0
 30
0
  3
AIGNBL0101002D
  0
POLYLINE
  8
LAYER_1
 40
0.2646
 41
0.2646
 66
1
 10
0
 20
0
 30
0
  0
VERTEX
  8
LAYER_1
 10
24.4999
 20
184.6388
 42
0.4139387521
  0
VERTEX
  8
LAYER_1
 10
24.2184
 20
184.3574
  0
SEQEND
  0
ENDBLK
  0
BLOCK
  8
LAYER_1
  2
AIGNBL0101002E
 70
64
 10
0
 20
0
 30
0
  3
AIGNBL0101002E
  0
POLYLINE
  8
LAYER_1
 40
0.2646
 41
0.2646
 66
1
 10
0
 20
0
 30
0
  0
VERTEX
  8
LAYER_1
 10
107.6826
 20
182.821
 42
0.4145731584
  0
VERTEX
  8
LAYER_1
 10
107.4012
 20
183.1025
  0
SEQEND
  0
ENDBLK
  0
BLOCK
  8
LAYER_1
  2
AIGNBL0101002F
 70
64
 10
0
 20
0
 30
0
  3
AIGNBL0101002F
  0
POLYLINE
  8
LAYER_1
 40
0.2646
 41
0.2646
 66
1
 10
0
 20
0
 30
0
  0
VERTEX
  8
LAYER_1
 10
107.401
 20
140.1416
 42
0.4145409128
  0
VERTEX
  8
LAYER_1
 10
107.6824
 20
140.423
  0
SEQEND
  0
ENDBLK
  0
BLOCK
  8
LAYER_1
  2
AIGNBL01010030
 70
64
 10
0
 20
0
 30
0
  3
AIGNBL01010030
  0
POLYLINE
  8
LAYER_1
 40
0.2646
 41
0.2646
 66
1
 10
0
 20
0
 30
0
  0
VERTEX
  8
LAYER_1
 10
25.7032
 20
140.4232
 42
0.4140269403
  0
VERTEX
  8
LAYER_1
 10
25.9847
 20
140.1417
  0
SEQEND
  0
ENDBLK
  0
BLOCK
  8
LAYER_1
  2
AIGNBL01010031
 70
64
 10
0
 20
0
 30
0
  3
AIGNBL01010031
  0
POLYLINE
  8
LAYER_1
 40
0.2646
 41
0.2646
 66
1
 10
0
 20
0
 30
0
  0
VERTEX
  8
LAYER_1
 10
25.9848
 20
183.1027
 42
0.41394814
  0
VERTEX
  8
LAYER_1
 10
25.7034
 20
182.8212
  0
SEQEND
  0
ENDBLK
  0
BLOCK
  8
LAYER_1
  2
AIGNBL01010032
 70
64
 10
0
 20
0
 30
0
  3
AIGNBL01010032
  0
POLYLINE
  8
LAYER_1
 40
0.1058
 41
0.1058
 66
1
 10
0
 20
0
 30
0
  0
VERTEX
  8
LAYER_1
 10
78.7005
 20
173.3481
 42
0.414497582
  0
VERTEX
  8
LAYER_1
 10
78.4191
 20
173.6295
  0
SEQEND
  0
ENDBLK
  0
BLOCK
  8
LAYER_1
  2
AIGNBL01010033
 70
64
 10
0
 20
0
 30
0
  3
AIGNBL01010033
  0
POLYLINE
  8
LAYER_1
 40
0.1058
 41
0.1058
 66
1
 10
0
 20
0
 30
0
  0
VERTEX
  8
LAYER_1
 10
78.4189
 20
140.1416
 42
0.4145269067
  0
VERTEX
  8
LAYER_1
 10
78.7003
 20
140.423
  0
SEQEND
  0
ENDBLK
  0
BLOCK
  8
LAYER_1
  2
AIGNBL01010034
 70
64
 10
0
 20
0
 30
0
  3
AIGNBL01010034
  0
POLYLINE
  8
LAYER_1
 40
0.2646
 41
0.2646
 66
1
 10
0
 20
0
 30
0
  0
VERTEX
  8
LAYER_1
 10
25.7032
 20
140.4232
 42
0.4140269403
  0
VERTEX
  8
LAYER_1
 10
25.9847
 20
140.1417
  0
SEQEND
  0
ENDBLK
  0
BLOCK
  8
LAYER_1
  2
AIGNBL01010035
 70
64
 10
0
 20
0
 30
0
  3
AIGNBL01010035
  0
POLYLINE
  8
LAYER_1
 40
0.1058
 41
0.1058
 66
1
 10
0
 20
0
 30
0
  0
VERTEX
  8
LAYER_1
 10
25.9848
 20
173.6297
 42
0.4138866162
  0
VERTEX
  8
LAYER_1
 10
25.7034
 20
173.3483
  0
SEQEND
  0
ENDBLK
  0
BLOCK
  8
LAYER_1
  2
AIGNBL01010036
 70
64
 10
0
 20
0
 30
0
  3
AIGNBL01010036
  0
POLYLINE
  8
LAYER_1
 40
0.2646
 41
0.2646
 66
1
 10
0
 20
0
 30
0
  0
VERTEX
  8
LAYER_1
 10
39.6566
 20
86.1229
 42
0.4141087572
  0
VERTEX
  8
LAYER_1
 10
40.6552
 20
87.1215
 42
0.4141154163
  0
VERTEX
  8
LAYER_1
 10
39.6566
 20
88.1201
  0
SEQEND
  0
ENDBLK
  0
BLOCK
  8
LAYER_1
  2
AIGNBL01010037
 70
64
 10
0
 20
0
 30
0
  3
AIGNBL01010037
  0
POLYLINE
  8
LAYER_1
 40
0.2646
 41
0.2646
 66
1
 10
0
 20
0
 30
0
  0
VERTEX
  8
LAYER_1
 10
38.6837
 20
88.1199
 42
0.4141253884
  0
VERTEX
  8
LAYER_1
 10
37.6851
 20
87.1213
 42
0.4141011803
  0
VERTEX
  8
LAYER_1
 10
38.6837
 20
86.1227
  0
SEQEND
  0
ENDBLK
  0
BLOCK
  8
LAYER_1
  2
AIGNBL01010038
 70
64
 10
0
 20
0
 30
0
  3
AIGNBL01010038
  0
POLYLINE
  8
LAYER_1
 40
0.2646
 41
0.2646
 66
1
 10
0
 20
0
 30
0
  0
VERTEX
  8
LAYER_1
 10
67.2049
 20
86.1229
 42
0.4141252803
  0
VERTEX
  8
LAYER_1
 10
68.2035
 20
87.1215
 42
0.4141319403
  0
VERTEX
  8
LAYER_1
 10
67.2049
 20
88.1201
  0
SEQEND
  0
ENDBLK
  0
BLOCK
  8
LAYER_1
  2
AIGNBL01010039
 70
64
 10
0
 20
0
 30
0
  3
AIGNBL01010039
  0
POLYLINE
  8
LAYER_1
 40
0.2646
 41
0.2646
 66
1
 10
0
 20
0
 30
0
  0
VERTEX
  8
LAYER_1
 10
66.1809
 20
88.1199
 42
0.4141332732
  0
VERTEX
  8
LAYER_1
 10
65.1823
 20
87.1213
 42
0.4141090637
  0
VERTEX
  8
LAYER_1
 10
66.1809
 20
86.1227
  0
SEQEND
  0
ENDBLK
  0
BLOCK
  8
LAYER_1
  2
AIGNBL0101003A
 70
64
 10
0
 20
0
 30
0
  3
AIGNBL0101003A
  0
POLYLINE
  8
LAYER_1
 40
0.2646
 41
0.2646
 66
1
 10
0
 20
0
 30
0
  0
VERTEX
  8
LAYER_1
 10
96.6991
 20
86.1229
 42
0.4141179212
  0
VERTEX
  8
LAYER_1
 10
97.6977
 20
87.1215
 42
0.4141245807
  0
VERTEX
  8
LAYER_1
 10
96.6991
 20
88.1201
  0
SEQEND
  0
ENDBLK
  0
BLOCK
  8
LAYER_1
  2
AIGNBL0101003B
 70
64
 10
0
 20
0
 30
0
  3
AIGNBL0101003B
  0
POLYLINE
  8
LAYER_1
 40
0.2646
 41
0.2646
 66
1
 10
0
 20
0
 30
0
  0
VERTEX
  8
LAYER_1
 10
95.675
 20
88.1199
 42
0.4141249019
  0
VERTEX
  8
LAYER_1
 10
94.6764
 20
87.1213
 42
0.4141006939
  0
VERTEX
  8
LAYER_1
 10
95.675
 20
86.1227
  0
SEQEND
  0
ENDBLK
  0
BLOCK
  8
LAYER_1
  2
AIGNBL0101003C
 70
64
 10
0
 20
0
 30
0
  3
AIGNBL0101003C
  0
POLYLINE
  8
LAYER_1
 40
0.2646
 41
0.2646
 66
1
 10
0
 20
0
 30
0
  0
VERTEX
  8
LAYER_1
 10
221.9791
 20
138.6566
 42
0.4146096147
  0
VERTEX
  8
LAYER_1
 10
222.2606
 20
138.9381
  0
SEQEND
  0
ENDBLK
  0
BLOCK
  8
LAYER_1
  2
AIGNBL0101003D
 70
64
 10
0
 20
0
 30
0
  3
AIGNBL0101003D
  0
POLYLINE
  8
LAYER_1
 40
0.2646
 41
0.2646
 66
1
 10
0
 20
0
 30
0
  0
VERTEX
  8
LAYER_1
 10
137.3114
 20
138.9382
 42
0.4139496551
  0
VERTEX
  8
LAYER_1
 10
137.5929
 20
138.6568
  0
SEQEND
  0
ENDBLK
  0
BLOCK
  8
LAYER_1
  2
AIGNBL0101003E
 70
64
 10
0
 20
0
 30
0
  3
AIGNBL0101003E
  0
POLYLINE
  8
LAYER_1
 40
0.2646
 41
0.2646
 66
1
 10
0
 20
0
 30
0
  0
VERTEX
  8
LAYER_1
 10
137.5931
 20
184.6388
 42
0.413974018
  0
VERTEX
  8
LAYER_1
 10
137.3116
 20
184.3574
  0
SEQEND
  0
ENDBLK
  0
BLOCK
  8
LAYER_1
  2
AIGNBL0101003F
 70
64
 10
0
 20
0
 30
0
  3
AIGNBL0101003F
  0
POLYLINE
  8
LAYER_1
 40
0.3528
 41
0.3528
 66
1
 10
0
 20
0
 30
0
  0
VERTEX
  8
LAYER_1
 10
161.3112
 20
161.6388
  0
VERTEX
  8
LAYER_1
 10
161.3112
 20
184.6388
  0
VERTEX
  8
LAYER_1
 10
171.3112
 20
184.6388
  0
VERTEX
  8
LAYER_1
 10
171.3112
 20
161.6388
  0
SEQEND
  0
POLYLINE
  8
LAYER_1
 40
0.3528
 41
0.3528
 66
1
 10
0
 20
0
 30
0
  0
VERTEX
  8
LAYER_1
 10
171.3112
 20
161.6388
 42
-0.4142112589
  0
VERTEX
  8
LAYER_1
 10
166.3112
 20
156.6388
 42
-0.414214318
  0
VERTEX
  8
LAYER_1
 10
161.3112
 20
161.6388
  0
SEQEND
  0
ENDBLK
  0
BLOCK
  8
LAYER_1
  2
AIGNBL01010040
 70
64
 10
0
 20
0
 30
0
  3
AIGNBL01010040
  0
POLYLINE
  8
LAYER_1
  6
AIGENLINE001
 40
0.1764
 41
0.1764
 62
1
 66
1
 10
0
 20
0
 30
0
 70
128
  0
VERTEX
  8
LAYER_1
 10
47.1763
 20
161.6388
  0
VERTEX
  8
LAYER_1
 10
47.1763
 20
184.6388
  0
VERTEX
  8
LAYER_1
 10
57.1763
 20
184.6388
  0
VERTEX
  8
LAYER_1
 10
57.1763
 20
161.6388
  0
SEQEND
  0
POLYLINE
  8
LAYER_1
  6
AIGENLINE001
 40
0.1764
 41
0.1764
 62
1
 66
1
 10
0
 20
0
 30
0
 70
128
  0
VERTEX
  8
LAYER_1
 10
57.1763
 20
161.6388
 42
-0.4142104172
  0
VERTEX
  8
LAYER_1
 10
52.1763
 20
156.6388
 42
-0.4142151598
  0
VERTEX
  8
LAYER_1
 10
47.1763
 20
161.6388
  0
SEQEND
  0
ENDBLK
  0
ENDSEC
  0
SECTION
  2
ENTITIES
  0
TEXT
  8
LAYER_1
 10
-26.2556
 20
43.1712
 11
-26.2556
 21
43.1712
 40
3.5846
 41
0.5
  1
仕様
  0
POLYLINE
  8
LAYER_1
 40
0.3528
 41
0.3528
 66
1
 10
0
 20
0
 30
0
  0
VERTEX
  8
LAYER_1
 10
250.6748
 20
51.9507
  0
VERTEX
  8
LAYER_1
 10
-29.3346
 20
51.9507
  0
SEQEND
  0
INSERT
  8
LAYER_1
  2
AIGNBL01010002
 10
0
 20
0
 30
0
  0
POLYLINE
  8
LAYER_1
 40
0.3528
 41
0.3528
 66
1
 10
0
 20
0
 30
0
  0
VERTEX
  8
LAYER_1
 10
-29.3178
 20
229.3369
  0
VERTEX
  8
LAYER_1
 10
-29.3178
 20
34.3283
  0
VERTEX
  8
LAYER_1
 10
250.6748
 20
34.3283
  0
VERTEX
  8
LAYER_1
 10
250.6748
 20
229.3369
  0
VERTEX
  8
LAYER_1
 10
-29.3178
 20
229.3369
  0
SEQEND
  0
POLYLINE
  8
LAYER_1
 40
0.3528
 41
0.3528
 66
1
 10
0
 20
0
 30
0
  0
VERTEX
  8
LAYER_1
 10
250.6748
 20
60.4597
  0
VERTEX
  8
LAYER_1
 10
-29.3346
 20
60.4597
  0
SEQEND
  0
POLYLINE
  8
LAYER_1
 40
0.3528
 41
0.3528
 66
1
 10
0
 20
0
 30
0
  0
VERTEX
  8
LAYER_1
 10
250.6748
 20
43.4416
  0
VERTEX
  8
LAYER_1
 10
100.3837
 20
43.4416
  0
SEQEND
  0
TEXT
  8
LAYER_1
 10
188.1725
 20
45.6854
 11
188.1725
 21
45.6854
 40
4.2657
 41
0.5
  1
-
  0
TEXT
  8
LAYER_1
 10
182.8808
 20
49.4743
 11
182.8808
 21
49.4743
 40
2.3897
 41
0.5
  1
縮尺
  0
POLYLINE
  8
LAYER_1
 40
0.3528
 41
0.3528
 66
1
 10
0
 20
0
 30
0
  0
VERTEX
  8
LAYER_1
 10
181.3526
 20
43.4416
  0
VERTEX
  8
LAYER_1
 10
181.3526
 20
51.9507
  0
SEQEND
  0
TEXT
  8
LAYER_1
 10
101.641
 20
57.9834
 11
101.641
 21
57.9834
 40
2.3897
 41
0.5
  1
品番
  0
TEXT
  8
LAYER_1
 10
-28.1609
 20
57.9834
 11
-28.1609
 21
57.9834
 40
2.3897
 41
0.5
  1
品名
  0
TEXT
  8
LAYER_1
 10
101.641
 20
49.4743
 11
101.641
 21
49.4743
 40
2.3897
 41
0.5
  1
重量
  0
TEXT
  8
LAYER_1
 10
105.0013
 20
54.1714
 11
105.0013
 21
54.1714
 40
4.6883
 41
0.5
  1
CIE-PNLA85/
  0
TEXT
  8
LAYER_1
 10
107.1887
 20
45.6854
 11
107.1887
 21
45.6854
 40
4.2657
 41
0.5
  1
25kg
  0
POLYLINE
  8
LAYER_1
 40
0.3528
 41
0.3528
 66
1
 10
0
 20
0
 30
0
  0
VERTEX
  8
LAYER_1
 10
100.3837
 20
34.9539
  0
VERTEX
  8
LAYER_1
 10
100.3837
 20
60.4597
  0
SEQEND
  0
TEXT
  8
LAYER_1
 10
-15.3656
 20
54.891
 11
-15.3656
 21
54.891
 40
4.7023
 41
0.5
  1
プリニオ洗面台900mm
  0
INSERT
  8
LAYER_1
  2
AIGNBL01010003
 10
0
 20
0
 30
0
  0
TEXT
  8
LAYER_1
 10
237.263
 20
63.2582
 11
237.263
 21
63.2582
 40
3.3588
 41
0.5
  1
単位：mm
  0
TEXT
  8
LAYER_1
 10
-21.7499
 20
202.4877
 11
-21.7499
 21
202.4877
 40
2.8225
 41
0.5
  1
※陶器製品は寸法公差が発生します。
  0
TEXT
  8
LAYER_1
 10
-21.7499
 20
197.7378
 11
-21.7499
 21
197.7378
 40
2.8225
 41
0.5
  1
※カウンター置き設置の場合も壁固定が必要です。
  0
TEXT
  8
LAYER_1
 10
-21.7499
 20
192.9877
 11
-21.7499
 21
192.9877
 40
2.8225
 41
0.5
  1
※カウンターの強度にご留意ください。
  0
TEXT
  8
LAYER_1
 10
134.702
 20
39.5359
 11
134.702
 21
39.5359
 40
3.8391
 41
0.5
  1
●TEL 0120-65-1232●FAX 06-6532-1580
  0
TEXT
  8
LAYER_1
 10
134.702
 20
35.9926
 11
134.702
 21
35.9926
 40
3.8391
 41
0.5
  1
hits@hiratatile.co.jp
  0
TEXT
  8
LAYER_1
 10
240.3591
 20
225.8257
 11
240.3591
 21
225.8257
 40
2.3512
 41
0.5
  1
170628RT
  0
INSERT
  8
LAYER_1
  2
AIGNBL01010006
 10
0
 20
0
 30
0
  0
INSERT
  8
LAYER_1
  2
AIGNBL01010028
 10
0
 20
0
 30
0
  0
POLYLINE
  8
LAYER_1
 40
0.2646
 41
0.2646
 66
1
 10
0
 20
0
 30
0
  0
VERTEX
  8
LAYER_1
 10
24.5255
 20
92.7796
  0
VERTEX
  8
LAYER_1
 10
108.9115
 20
92.7796
  0
SEQEND
  0
INSERT
  8
LAYER_1
  2
AIGNBL01010029
 10
0
 20
0
 30
0
  0
POLYLINE
  8
LAYER_1
 40
0.2646
 41
0.2646
 66
1
 10
0
 20
0
 30
0
  0
VERTEX
  8
LAYER_1
 10
109.2187
 20
92.4723
  0
VERTEX
  8
LAYER_1
 10
108.9116
 20
77.0595
  0
VERTEX
  8
LAYER_1
 10
24.5255
 20
77.0595
  0
VERTEX
  8
LAYER_1
 10
24.2184
 20
92.4723
  0
SEQEND
  0
INSERT
  8
LAYER_1
  2
AIGNBL0101002A
 10
0
 20
0
 30
0
  0
POLYLINE
  8
LAYER_1
 40
0.2646
 41
0.2646
 66
1
 10
0
 20
0
 30
0
  0
VERTEX
  8
LAYER_1
 10
109.2187
 20
184.3316
  0
VERTEX
  8
LAYER_1
 10
109.2187
 20
138.9128
  0
SEQEND
  0
INSERT
  8
LAYER_1
  2
AIGNBL0101002B
 10
0
 20
0
 30
0
  0
POLYLINE
  8
LAYER_1
 40
0.2646
 41
0.2646
 66
1
 10
0
 20
0
 30
0
  0
VERTEX
  8
LAYER_1
 10
108.9116
 20
138.6054
  0
VERTEX
  8
LAYER_1
 10
24.5255
 20
138.6054
  0
SEQEND
  0
INSERT
  8
LAYER_1
  2
AIGNBL0101002C
 10
0
 20
0
 30
0
  0
POLYLINE
  8
LAYER_1
 40
0.2646
 41
0.2646
 66
1
 10
0
 20
0
 30
0
  0
VERTEX
  8
LAYER_1
 10
24.2183
 20
138.9127
  0
VERTEX
  8
LAYER_1
 10
24.2183
 20
184.3315
  0
SEQEND
  0
INSERT
  8
LAYER_1
  2
AIGNBL0101002D
 10
0
 20
0
 30
0
  0
POLYLINE
  8
LAYER_1
 40
0.2646
 41
0.2646
 66
1
 10
0
 20
0
 30
0
  0
VERTEX
  8
LAYER_1
 10
24.5255
 20
184.6388
  0
VERTEX
  8
LAYER_1
 10
108.9115
 20
184.6388
  0
SEQEND
  0
INSERT
  8
LAYER_1
  2
AIGNBL0101002E
 10
0
 20
0
 30
0
  0
POLYLINE
  8
LAYER_1
 40
0.2646
 41
0.2646
 66
1
 10
0
 20
0
 30
0
  0
VERTEX
  8
LAYER_1
 10
107.7338
 20
182.7954
  0
VERTEX
  8
LAYER_1
 10
107.7338
 20
140.3976
  0
SEQEND
  0
INSERT
  8
LAYER_1
  2
AIGNBL0101002F
 10
0
 20
0
 30
0
  0
POLYLINE
  8
LAYER_1
 40
0.2646
 41
0.2646
 66
1
 10
0
 20
0
 30
0
  0
VERTEX
  8
LAYER_1
 10
107.4266
 20
140.0904
  0
VERTEX
  8
LAYER_1
 10
26.0106
 20
140.0904
  0
SEQEND
  0
INSERT
  8
LAYER_1
  2
AIGNBL01010030
 10
0
 20
0
 30
0
  0
POLYLINE
  8
LAYER_1
 40
0.2646
 41
0.2646
 66
1
 10
0
 20
0
 30
0
  0
VERTEX
  8
LAYER_1
 10
25.7032
 20
140.3976
  0
VERTEX
  8
LAYER_1
 10
25.7032
 20
182.7954
  0
SEQEND
  0
INSERT
  8
LAYER_1
  2
AIGNBL01010031
 10
0
 20
0
 30
0
  0
POLYLINE
  8
LAYER_1
 40
0.2646
 41
0.2646
 66
1
 10
0
 20
0
 30
0
  0
VERTEX
  8
LAYER_1
 10
26.0105
 20
183.1027
  0
VERTEX
  8
LAYER_1
 10
107.4265
 20
183.1027
  0
SEQEND
  0
INSERT
  8
LAYER_1
  2
AIGNBL01010032
 10
0
 20
0
 30
0
  0
POLYLINE
  8
LAYER_1
 40
0.1058
 41
0.1058
 66
1
 10
0
 20
0
 30
0
  0
VERTEX
  8
LAYER_1
 10
78.7005
 20
173.3225
  0
VERTEX
  8
LAYER_1
 10
78.7005
 20
140.3978
  0
SEQEND
  0
INSERT
  8
LAYER_1
  2
AIGNBL01010033
 10
0
 20
0
 30
0
  0
POLYLINE
  8
LAYER_1
 40
0.1058
 41
0.1058
 66
1
 10
0
 20
0
 30
0
  0
VERTEX
  8
LAYER_1
 10
78.4445
 20
140.0904
  0
VERTEX
  8
LAYER_1
 10
26.0102
 20
140.0904
  0
SEQEND
  0
INSERT
  8
LAYER_1
  2
AIGNBL01010034
 10
0
 20
0
 30
0
  0
POLYLINE
  8
LAYER_1
 40
0.2646
 41
0.2646
 66
1
 10
0
 20
0
 30
0
  0
VERTEX
  8
LAYER_1
 10
25.7032
 20
140.3976
  0
VERTEX
  8
LAYER_1
 10
25.7032
 20
173.3223
  0
SEQEND
  0
INSERT
  8
LAYER_1
  2
AIGNBL01010035
 10
0
 20
0
 30
0
  0
POLYLINE
  8
LAYER_1
 40
0.1058
 41
0.1058
 66
1
 10
0
 20
0
 30
0
  0
VERTEX
  8
LAYER_1
 10
26.0105
 20
173.6297
  0
VERTEX
  8
LAYER_1
 10
78.4447
 20
173.6297
  0
SEQEND
  0
INSERT
  8
LAYER_1
  2
AIGNBL01010036
 10
0
 20
0
 30
0
  0
POLYLINE
  8
LAYER_1
 40
0.2646
 41
0.2646
 66
1
 10
0
 20
0
 30
0
  0
VERTEX
  8
LAYER_1
 10
39.6822
 20
88.0687
  0
VERTEX
  8
LAYER_1
 10
38.7093
 20
88.0687
  0
SEQEND
  0
INSERT
  8
LAYER_1
  2
AIGNBL01010037
 10
0
 20
0
 30
0
  0
POLYLINE
  8
LAYER_1
 40
0.2646
 41
0.2646
 66
1
 10
0
 20
0
 30
0
  0
VERTEX
  8
LAYER_1
 10
38.7093
 20
86.0717
  0
VERTEX
  8
LAYER_1
 10
39.6822
 20
86.0717
  0
SEQEND
  0
INSERT
  8
LAYER_1
  2
AIGNBL01010038
 10
0
 20
0
 30
0
  0
POLYLINE
  8
LAYER_1
 40
0.2646
 41
0.2646
 66
1
 10
0
 20
0
 30
0
  0
VERTEX
  8
LAYER_1
 10
67.2306
 20
88.0687
  0
VERTEX
  8
LAYER_1
 10
66.2063
 20
88.0687
  0
SEQEND
  0
INSERT
  8
LAYER_1
  2
AIGNBL01010039
 10
0
 20
0
 30
0
  0
POLYLINE
  8
LAYER_1
 40
0.2646
 41
0.2646
 66
1
 10
0
 20
0
 30
0
  0
VERTEX
  8
LAYER_1
 10
66.2064
 20
86.0717
  0
VERTEX
  8
LAYER_1
 10
67.2307
 20
86.0717
  0
SEQEND
  0
INSERT
  8
LAYER_1
  2
AIGNBL0101003A
 10
0
 20
0
 30
0
  0
POLYLINE
  8
LAYER_1
 40
0.2646
 41
0.2646
 66
1
 10
0
 20
0
 30
0
  0
VERTEX
  8
LAYER_1
 10
96.7247
 20
88.0687
  0
VERTEX
  8
LAYER_1
 10
95.7004
 20
88.0687
  0
SEQEND
  0
INSERT
  8
LAYER_1
  2
AIGNBL0101003B
 10
0
 20
0
 30
0
  0
POLYLINE
  8
LAYER_1
 40
0.2646
 41
0.2646
 66
1
 10
0
 20
0
 30
0
  0
VERTEX
  8
LAYER_1
 10
95.7006
 20
86.0717
  0
VERTEX
  8
LAYER_1
 10
96.7249
 20
86.0717
  0
SEQEND
  0
POLYLINE
  8
LAYER_1
 40
0.2646
 41
0.2646
 66
1
 10
0
 20
0
 30
0
  0
VERTEX
  8
LAYER_1
 10
170.6137
 20
77.0596
  0
VERTEX
  8
LAYER_1
 10
170.5623
 20
77.0596
  0
VERTEX
  8
LAYER_1
 10
170.4089
 20
77.0596
  0
VERTEX
  8
LAYER_1
 10
170.1527
 20
77.0596
  0
VERTEX
  8
LAYER_1
 10
169.7432
 20
77.0596
  0
VERTEX
  8
LAYER_1
 10
169.1799
 20
77.0596
  0
VERTEX
  8
LAYER_1
 10
168.4632
 20
77.0596
  0
VERTEX
  8
LAYER_1
 10
167.5926
 20
77.0596
  0
VERTEX
  8
LAYER_1
 10
166.5683
 20
77.0596
  0
VERTEX
  8
LAYER_1
 10
165.2883
 20
77.0596
  0
VERTEX
  8
LAYER_1
 10
163.8545
 20
77.0596
  0
VERTEX
  8
LAYER_1
 10
163.0864
 20
77.0596
  0
VERTEX
  8
LAYER_1
 10
162.2159
 20
77.0596
  0
VERTEX
  8
LAYER_1
 10
161.3454
 20
77.0596
  0
VERTEX
  8
LAYER_1
 10
160.3725
 20
77.0596
  0
VERTEX
  8
LAYER_1
 10
159.3486
 20
77.0596
  0
VERTEX
  8
LAYER_1
 10
158.2733
 20
77.0596
  0
VERTEX
  8
LAYER_1
 10
157.1467
 20
77.0596
  0
VERTEX
  8
LAYER_1
 10
155.969
 20
77.0596
  0
VERTEX
  8
LAYER_1
 10
154.689
 20
77.0596
  0
VERTEX
  8
LAYER_1
 10
153.3575
 20
77.0596
  0
VERTEX
  8
LAYER_1
 10
151.9751
 20
77.0596
  0
VERTEX
  8
LAYER_1
 10
150.4903
 20
77.0596
  0
SEQEND
  0
POLYLINE
  8
LAYER_1
 40
0.2646
 41
0.2646
 66
1
 10
0
 20
0
 30
0
  0
VERTEX
  8
LAYER_1
 10
150.4901
 20
77.0596
  0
VERTEX
  8
LAYER_1
 10
150.0806
 20
77.0596
  0
SEQEND
  0
POLYLINE
  8
LAYER_1
 40
0.2646
 41
0.2646
 66
1
 10
0
 20
0
 30
0
  0
VERTEX
  8
LAYER_1
 10
149.7732
 20
77.0596
  0
VERTEX
  8
LAYER_1
 10
149.1589
 20
77.0596
  0
SEQEND
  0
POLYLINE
  8
LAYER_1
 40
0.2646
 41
0.2646
 66
1
 10
0
 20
0
 30
0
  0
VERTEX
  8
LAYER_1
 10
148.8515
 20
77.0596
  0
VERTEX
  8
LAYER_1
 10
148.1858
 20
77.0596
  0
SEQEND
  0
POLYLINE
  8
LAYER_1
 40
0.2646
 41
0.2646
 66
1
 10
0
 20
0
 30
0
  0
VERTEX
  8
LAYER_1
 10
147.8786
 20
77.0596
  0
VERTEX
  8
LAYER_1
 10
147.2643
 20
77.0596
  0
SEQEND
  0
POLYLINE
  8
LAYER_1
 40
0.2646
 41
0.2646
 66
1
 10
0
 20
0
 30
0
  0
VERTEX
  8
LAYER_1
 10
146.9058
 20
77.0596
  0
VERTEX
  8
LAYER_1
 10
146.2914
 20
77.0596
  0
SEQEND
  0
POLYLINE
  8
LAYER_1
 40
0.2646
 41
0.2646
 66
1
 10
0
 20
0
 30
0
  0
VERTEX
  8
LAYER_1
 10
145.9841
 20
77.0596
  0
VERTEX
  8
LAYER_1
 10
145.3183
 20
77.0596
  0
SEQEND
  0
POLYLINE
  8
LAYER_1
 40
0.2646
 41
0.2646
 66
1
 10
0
 20
0
 30
0
  0
VERTEX
  8
LAYER_1
 10
145.0111
 20
77.0596
  0
VERTEX
  8
LAYER_1
 10
144.6016
 20
77.0596
  0
SEQEND
  0
POLYLINE
  8
LAYER_1
 40
0.2646
 41
0.2646
 66
1
 10
0
 20
0
 30
0
  0
VERTEX
  8
LAYER_1
 10
150.4903
 20
77.0596
  0
VERTEX
  8
LAYER_1
 10
142.5534
 20
77.0596
  0
VERTEX
  8
LAYER_1
 10
140.5562
 20
77.0596
  0
VERTEX
  8
LAYER_1
 10
138.6618
 20
77.0596
  0
VERTEX
  8
LAYER_1
 10
136.8184
 20
77.0596
  0
VERTEX
  8
LAYER_1
 10
135.0774
 20
77.0596
  0
VERTEX
  8
LAYER_1
 10
133.4388
 20
77.0596
  0
VERTEX
  8
LAYER_1
 10
131.954
 20
77.0596
  0
VERTEX
  8
LAYER_1
 10
130.5711
 20
77.0596
  0
VERTEX
  8
LAYER_1
 10
129.2911
 20
77.0596
  0
VERTEX
  8
LAYER_1
 10
128.1649
 20
77.0596
  0
VERTEX
  8
LAYER_1
 10
127.192
 20
77.0596
  0
VERTEX
  8
LAYER_1
 10
126.3725
 20
77.0596
  0
VERTEX
  8
LAYER_1
 10
125.7067
 20
77.0596
  0
VERTEX
  8
LAYER_1
 10
125.2458
 20
77.0596
  0
VERTEX
  8
LAYER_1
 10
124.9386
 20
77.0596
  0
VERTEX
  8
LAYER_1
 10
124.8876
 20
77.0596
  0
VERTEX
  8
LAYER_1
 10
124.8876
 20
77.111
  0
VERTEX
  8
LAYER_1
 10
124.8362
 20
77.2134
  0
VERTEX
  8
LAYER_1
 10
124.8362
 20
77.4182
  0
VERTEX
  8
LAYER_1
 10
124.8362
 20
77.7254
  0
VERTEX
  8
LAYER_1
 10
124.8362
 20
78.0839
  0
VERTEX
  8
LAYER_1
 10
124.8362
 20
78.4421
  0
VERTEX
  8
LAYER_1
 10
124.8362
 20
79.4149
  0
VERTEX
  8
LAYER_1
 10
124.7852
 20
80.5926
  0
VERTEX
  8
LAYER_1
 10
124.7852
 20
81.8731
  0
VERTEX
  8
LAYER_1
 10
124.7338
 20
84.6893
  0
VERTEX
  8
LAYER_1
 10
124.6829
 20
87.4542
  0
VERTEX
  8
LAYER_1
 10
124.6829
 20
88.7342
  0
VERTEX
  8
LAYER_1
 10
124.6315
 20
89.9119
  0
VERTEX
  8
LAYER_1
 10
124.6315
 20
90.8852
  0
VERTEX
  8
LAYER_1
 10
124.6315
 20
91.2948
  0
VERTEX
  8
LAYER_1
 10
124.6315
 20
91.6019
  0
VERTEX
  8
LAYER_1
 10
124.6315
 20
91.9091
  0
VERTEX
  8
LAYER_1
 10
124.6315
 20
92.1138
  0
VERTEX
  8
LAYER_1
 10
124.6315
 20
92.2162
  0
VERTEX
  8
LAYER_1
 10
124.6315
 20
92.2677
  0
SEQEND
  0
POLYLINE
  8
LAYER_1
 40
0.2646
 41
0.2646
 66
1
 10
0
 20
0
 30
0
  0
VERTEX
  8
LAYER_1
 10
170.6137
 20
92.2675
  0
VERTEX
  8
LAYER_1
 10
170.6137
 20
92.2161
  0
VERTEX
  8
LAYER_1
 10
170.6137
 20
92.1137
  0
VERTEX
  8
LAYER_1
 10
170.6137
 20
91.909
  0
VERTEX
  8
LAYER_1
 10
170.6137
 20
91.6018
  0
VERTEX
  8
LAYER_1
 10
170.6137
 20
91.2946
  0
VERTEX
  8
LAYER_1
 10
170.6137
 20
90.8851
  0
VERTEX
  8
LAYER_1
 10
170.6137
 20
89.9122
  0
VERTEX
  8
LAYER_1
 10
170.6137
 20
88.7346
  0
VERTEX
  8
LAYER_1
 10
170.6137
 20
87.4541
  0
VERTEX
  8
LAYER_1
 10
170.6137
 20
84.6892
  0
VERTEX
  8
LAYER_1
 10
170.6137
 20
81.873
  0
VERTEX
  8
LAYER_1
 10
170.6137
 20
80.5929
  0
VERTEX
  8
LAYER_1
 10
170.6137
 20
79.4152
  0
VERTEX
  8
LAYER_1
 10
170.6137
 20
78.4419
  0
VERTEX
  8
LAYER_1
 10
170.6137
 20
78.0838
  0
VERTEX
  8
LAYER_1
 10
170.6137
 20
77.7252
  0
VERTEX
  8
LAYER_1
 10
170.6137
 20
77.4181
  0
VERTEX
  8
LAYER_1
 10
170.6137
 20
77.2133
  0
VERTEX
  8
LAYER_1
 10
170.6137
 20
77.1109
  0
VERTEX
  8
LAYER_1
 10
170.6137
 20
77.0595
  0
SEQEND
  0
POLYLINE
  8
LAYER_1
 40
0.2646
 41
0.2646
 66
1
 10
0
 20
0
 30
0
  0
VERTEX
  8
LAYER_1
 10
144.6015
 20
77.0596
  0
VERTEX
  8
LAYER_1
 10
145.0111
 20
77.0596
  0
SEQEND
  0
POLYLINE
  8
LAYER_1
 40
0.2646
 41
0.2646
 66
1
 10
0
 20
0
 30
0
  0
VERTEX
  8
LAYER_1
 10
145.3184
 20
77.0596
  0
VERTEX
  8
LAYER_1
 10
145.9841
 20
77.0596
  0
SEQEND
  0
POLYLINE
  8
LAYER_1
 40
0.2646
 41
0.2646
 66
1
 10
0
 20
0
 30
0
  0
VERTEX
  8
LAYER_1
 10
146.2913
 20
77.0596
  0
VERTEX
  8
LAYER_1
 10
146.9056
 20
77.0596
  0
SEQEND
  0
POLYLINE
  8
LAYER_1
 40
0.2646
 41
0.2646
 66
1
 10
0
 20
0
 30
0
  0
VERTEX
  8
LAYER_1
 10
147.2641
 20
77.0596
  0
VERTEX
  8
LAYER_1
 10
147.8785
 20
77.0596
  0
SEQEND
  0
POLYLINE
  8
LAYER_1
 40
0.2646
 41
0.2646
 66
1
 10
0
 20
0
 30
0
  0
VERTEX
  8
LAYER_1
 10
148.1859
 20
77.0596
  0
VERTEX
  8
LAYER_1
 10
148.8516
 20
77.0596
  0
SEQEND
  0
POLYLINE
  8
LAYER_1
 40
0.2646
 41
0.2646
 66
1
 10
0
 20
0
 30
0
  0
VERTEX
  8
LAYER_1
 10
149.1588
 20
77.0596
  0
VERTEX
  8
LAYER_1
 10
149.7731
 20
77.0596
  0
SEQEND
  0
POLYLINE
  8
LAYER_1
 40
0.2646
 41
0.2646
 66
1
 10
0
 20
0
 30
0
  0
VERTEX
  8
LAYER_1
 10
150.0805
 20
77.0596
  0
VERTEX
  8
LAYER_1
 10
150.49
 20
77.0596
  0
SEQEND
  0
POLYLINE
  8
LAYER_1
 40
0.2646
 41
0.2646
 66
1
 10
0
 20
0
 30
0
  0
VERTEX
  8
LAYER_1
 10
125.6044
 20
76.8548
  0
SEQEND
  0
POLYLINE
  8
LAYER_1
 40
0.2646
 41
0.2646
 66
1
 10
0
 20
0
 30
0
  0
VERTEX
  8
LAYER_1
 10
124.8875
 20
77.0596
  0
SEQEND
  0
POLYLINE
  8
LAYER_1
 40
0.2646
 41
0.2646
 66
1
 10
0
 20
0
 30
0
  0
VERTEX
  8
LAYER_1
 10
147.5714
 20
77.0596
  0
SEQEND
  0
POLYLINE
  8
LAYER_1
 40
0.2646
 41
0.2646
 66
1
 10
0
 20
0
 30
0
  0
VERTEX
  8
LAYER_1
 10
124.8875
 20
77.0596
  0
SEQEND
  0
POLYLINE
  8
LAYER_1
 40
0.2646
 41
0.2646
 66
1
 10
0
 20
0
 30
0
  0
VERTEX
  8
LAYER_1
 10
169.1288
 20
92.4723
  0
SEQEND
  0
POLYLINE
  8
LAYER_1
 40
0.2646
 41
0.2646
 66
1
 10
0
 20
0
 30
0
  0
VERTEX
  8
LAYER_1
 10
126.1164
 20
92.4723
  0
SEQEND
  0
POLYLINE
  8
LAYER_1
 40
0.2646
 41
0.2646
 66
1
 10
0
 20
0
 30
0
  0
VERTEX
  8
LAYER_1
 10
149.9268
 20
77.6228
  0
VERTEX
  8
LAYER_1
 10
149.2101
 20
77.6228
  0
SEQEND
  0
POLYLINE
  8
LAYER_1
 40
0.2646
 41
0.2646
 66
1
 10
0
 20
0
 30
0
  0
VERTEX
  8
LAYER_1
 10
148.9027
 20
77.6228
  0
VERTEX
  8
LAYER_1
 10
148.237
 20
77.6228
  0
SEQEND
  0
POLYLINE
  8
LAYER_1
 40
0.2646
 41
0.2646
 66
1
 10
0
 20
0
 30
0
  0
VERTEX
  8
LAYER_1
 10
147.9298
 20
77.6228
  0
VERTEX
  8
LAYER_1
 10
147.3155
 20
77.6228
  0
SEQEND
  0
POLYLINE
  8
LAYER_1
 40
0.2646
 41
0.2646
 66
1
 10
0
 20
0
 30
0
  0
VERTEX
  8
LAYER_1
 10
147.0081
 20
77.6228
  0
VERTEX
  8
LAYER_1
 10
146.3424
 20
77.6228
  0
SEQEND
  0
POLYLINE
  8
LAYER_1
 40
0.2646
 41
0.2646
 66
1
 10
0
 20
0
 30
0
  0
VERTEX
  8
LAYER_1
 10
146.0353
 20
77.6228
  0
VERTEX
  8
LAYER_1
 10
145.3186
 20
77.6228
  0
SEQEND
  0
POLYLINE
  8
LAYER_1
 40
0.2646
 41
0.2646
 66
1
 10
0
 20
0
 30
0
  0
VERTEX
  8
LAYER_1
 10
151.3094
 20
78.6982
  0
VERTEX
  8
LAYER_1
 10
150.6437
 20
78.6982
  0
SEQEND
  0
POLYLINE
  8
LAYER_1
 40
0.2646
 41
0.2646
 66
1
 10
0
 20
0
 30
0
  0
VERTEX
  8
LAYER_1
 10
150.3365
 20
78.6982
  0
VERTEX
  8
LAYER_1
 10
149.6707
 20
78.6982
  0
SEQEND
  0
POLYLINE
  8
LAYER_1
 40
0.2646
 41
0.2646
 66
1
 10
0
 20
0
 30
0
  0
VERTEX
  8
LAYER_1
 10
149.3636
 20
78.6982
  0
VERTEX
  8
LAYER_1
 10
148.7493
 20
78.6982
  0
SEQEND
  0
POLYLINE
  8
LAYER_1
 40
0.2646
 41
0.2646
 66
1
 10
0
 20
0
 30
0
  0
VERTEX
  8
LAYER_1
 10
148.3907
 20
78.6982
  0
VERTEX
  8
LAYER_1
 10
147.7764
 20
78.6982
  0
SEQEND
  0
POLYLINE
  8
LAYER_1
 40
0.2646
 41
0.2646
 66
1
 10
0
 20
0
 30
0
  0
VERTEX
  8
LAYER_1
 10
147.469
 20
78.6982
  0
VERTEX
  8
LAYER_1
 10
146.8032
 20
78.6982
  0
SEQEND
  0
POLYLINE
  8
LAYER_1
 40
0.2646
 41
0.2646
 66
1
 10
0
 20
0
 30
0
  0
VERTEX
  8
LAYER_1
 10
146.4961
 20
78.6982
  0
VERTEX
  8
LAYER_1
 10
145.8818
 20
78.6982
  0
SEQEND
  0
POLYLINE
  8
LAYER_1
 40
0.2646
 41
0.2646
 66
1
 10
0
 20
0
 30
0
  0
VERTEX
  8
LAYER_1
 10
145.5744
 20
78.6982
  0
VERTEX
  8
LAYER_1
 10
144.9087
 20
78.6982
  0
SEQEND
  0
POLYLINE
  8
LAYER_1
 40
0.2646
 41
0.2646
 66
1
 10
0
 20
0
 30
0
  0
VERTEX
  8
LAYER_1
 10
144.6015
 20
78.6982
  0
VERTEX
  8
LAYER_1
 10
143.9358
 20
78.6982
  0
SEQEND
  0
POLYLINE
  8
LAYER_1
 40
0.2646
 41
0.2646
 66
1
 10
0
 20
0
 30
0
  0
VERTEX
  8
LAYER_1
 10
169.3848
 20
92.7796
  0
VERTEX
  8
LAYER_1
 10
125.9117
 20
92.7796
  0
SEQEND
  0
POLYLINE
  8
LAYER_1
 40
0.2646
 41
0.2646
 66
1
 10
0
 20
0
 30
0
  0
VERTEX
  8
LAYER_1
 10
166.3637
 20
91.2434
  0
VERTEX
  8
LAYER_1
 10
165.7494
 20
91.2434
  0
SEQEND
  0
POLYLINE
  8
LAYER_1
 40
0.2646
 41
0.2646
 66
1
 10
0
 20
0
 30
0
  0
VERTEX
  8
LAYER_1
 10
165.442
 20
91.2434
  0
VERTEX
  8
LAYER_1
 10
164.7762
 20
91.2434
  0
SEQEND
  0
POLYLINE
  8
LAYER_1
 40
0.2646
 41
0.2646
 66
1
 10
0
 20
0
 30
0
  0
VERTEX
  8
LAYER_1
 10
164.4691
 20
91.2434
  0
VERTEX
  8
LAYER_1
 10
163.8034
 20
91.2434
  0
SEQEND
  0
POLYLINE
  8
LAYER_1
 40
0.2646
 41
0.2646
 66
1
 10
0
 20
0
 30
0
  0
VERTEX
  8
LAYER_1
 10
163.4962
 20
91.2434
  0
VERTEX
  8
LAYER_1
 10
162.8819
 20
91.2434
  0
SEQEND
  0
POLYLINE
  8
LAYER_1
 40
0.2646
 41
0.2646
 66
1
 10
0
 20
0
 30
0
  0
VERTEX
  8
LAYER_1
 10
166.3637
 20
90.2705
  0
VERTEX
  8
LAYER_1
 10
165.7494
 20
90.2705
  0
SEQEND
  0
POLYLINE
  8
LAYER_1
 40
0.2646
 41
0.2646
 66
1
 10
0
 20
0
 30
0
  0
VERTEX
  8
LAYER_1
 10
165.442
 20
90.2705
  0
VERTEX
  8
LAYER_1
 10
164.7762
 20
90.2705
  0
SEQEND
  0
POLYLINE
  8
LAYER_1
 40
0.2646
 41
0.2646
 66
1
 10
0
 20
0
 30
0
  0
VERTEX
  8
LAYER_1
 10
164.4691
 20
90.2705
  0
VERTEX
  8
LAYER_1
 10
163.8034
 20
90.2705
  0
SEQEND
  0
POLYLINE
  8
LAYER_1
 40
0.2646
 41
0.2646
 66
1
 10
0
 20
0
 30
0
  0
VERTEX
  8
LAYER_1
 10
163.4962
 20
90.2705
  0
VERTEX
  8
LAYER_1
 10
162.8819
 20
90.2705
  0
VERTEX
  8
LAYER_1
 10
162.8819
 20
90.6291
  0
SEQEND
  0
POLYLINE
  8
LAYER_1
 40
0.2646
 41
0.2646
 66
1
 10
0
 20
0
 30
0
  0
VERTEX
  8
LAYER_1
 10
162.8817
 20
90.9362
  0
VERTEX
  8
LAYER_1
 10
162.8817
 20
91.2434
  0
SEQEND
  0
POLYLINE
  8
LAYER_1
 40
0.2646
 41
0.2646
 66
1
 10
0
 20
0
 30
0
  0
VERTEX
  8
LAYER_1
 10
166.3637
 20
90.2705
  0
VERTEX
  8
LAYER_1
 10
166.3637
 20
90.6291
  0
SEQEND
  0
POLYLINE
  8
LAYER_1
 40
0.2646
 41
0.2646
 66
1
 10
0
 20
0
 30
0
  0
VERTEX
  8
LAYER_1
 10
166.3637
 20
90.9362
  0
VERTEX
  8
LAYER_1
 10
166.3637
 20
91.2434
  0
SEQEND
  0
POLYLINE
  8
LAYER_1
 40
0.2646
 41
0.2646
 66
1
 10
0
 20
0
 30
0
  0
VERTEX
  8
LAYER_1
 10
169.6408
 20
77.0596
  0
VERTEX
  8
LAYER_1
 10
169.6408
 20
77.5206
  0
SEQEND
  0
POLYLINE
  8
LAYER_1
 40
0.2646
 41
0.2646
 66
1
 10
0
 20
0
 30
0
  0
VERTEX
  8
LAYER_1
 10
169.6408
 20
77.8789
  0
VERTEX
  8
LAYER_1
 10
169.6408
 20
78.4932
  0
SEQEND
  0
POLYLINE
  8
LAYER_1
 40
0.2646
 41
0.2646
 66
1
 10
0
 20
0
 30
0
  0
VERTEX
  8
LAYER_1
 10
169.6408
 20
78.8006
  0
VERTEX
  8
LAYER_1
 10
169.6408
 20
79.4663
  0
SEQEND
  0
POLYLINE
  8
LAYER_1
 40
0.2646
 41
0.2646
 66
1
 10
0
 20
0
 30
0
  0
VERTEX
  8
LAYER_1
 10
169.6408
 20
79.7735
  0
VERTEX
  8
LAYER_1
 10
169.6408
 20
80.3878
  0
SEQEND
  0
POLYLINE
  8
LAYER_1
 40
0.2646
 41
0.2646
 66
1
 10
0
 20
0
 30
0
  0
VERTEX
  8
LAYER_1
 10
169.6408
 20
80.6952
  0
VERTEX
  8
LAYER_1
 10
169.6408
 20
81.3609
  0
SEQEND
  0
POLYLINE
  8
LAYER_1
 40
0.2646
 41
0.2646
 66
1
 10
0
 20
0
 30
0
  0
VERTEX
  8
LAYER_1
 10
169.6408
 20
81.6681
  0
VERTEX
  8
LAYER_1
 10
169.6408
 20
82.2824
  0
SEQEND
  0
POLYLINE
  8
LAYER_1
 40
0.2646
 41
0.2646
 66
1
 10
0
 20
0
 30
0
  0
VERTEX
  8
LAYER_1
 10
169.6408
 20
82.641
  0
VERTEX
  8
LAYER_1
 10
169.6408
 20
83.2553
  0
SEQEND
  0
POLYLINE
  8
LAYER_1
 40
0.2646
 41
0.2646
 66
1
 10
0
 20
0
 30
0
  0
VERTEX
  8
LAYER_1
 10
169.6408
 20
83.5627
  0
VERTEX
  8
LAYER_1
 10
169.6408
 20
84.2284
  0
SEQEND
  0
POLYLINE
  8
LAYER_1
 40
0.2646
 41
0.2646
 66
1
 10
0
 20
0
 30
0
  0
VERTEX
  8
LAYER_1
 10
169.6408
 20
84.5355
  0
VERTEX
  8
LAYER_1
 10
169.6408
 20
85.1499
  0
SEQEND
  0
POLYLINE
  8
LAYER_1
 40
0.2646
 41
0.2646
 66
1
 10
0
 20
0
 30
0
  0
VERTEX
  8
LAYER_1
 10
169.6408
 20
85.4572
  0
VERTEX
  8
LAYER_1
 10
169.6408
 20
86.123
  0
SEQEND
  0
POLYLINE
  8
LAYER_1
 40
0.2646
 41
0.2646
 66
1
 10
0
 20
0
 30
0
  0
VERTEX
  8
LAYER_1
 10
169.6408
 20
86.4301
  0
VERTEX
  8
LAYER_1
 10
169.6408
 20
87.0444
  0
SEQEND
  0
POLYLINE
  8
LAYER_1
 40
0.2646
 41
0.2646
 66
1
 10
0
 20
0
 30
0
  0
VERTEX
  8
LAYER_1
 10
169.6408
 20
87.4031
  0
VERTEX
  8
LAYER_1
 10
169.6408
 20
88.0174
  0
SEQEND
  0
POLYLINE
  8
LAYER_1
 40
0.2646
 41
0.2646
 66
1
 10
0
 20
0
 30
0
  0
VERTEX
  8
LAYER_1
 10
169.6408
 20
88.3247
  0
VERTEX
  8
LAYER_1
 10
169.6408
 20
88.9905
  0
SEQEND
  0
POLYLINE
  8
LAYER_1
 40
0.2646
 41
0.2646
 66
1
 10
0
 20
0
 30
0
  0
VERTEX
  8
LAYER_1
 10
169.6408
 20
89.2976
  0
VERTEX
  8
LAYER_1
 10
169.6408
 20
89.7586
  0
SEQEND
  0
POLYLINE
  8
LAYER_1
 40
0.2646
 41
0.2646
 66
1
 10
0
 20
0
 30
0
  0
VERTEX
  8
LAYER_1
 10
168.2071
 20
91.2434
  0
VERTEX
  8
LAYER_1
 10
168.7704
 20
91.2434
  0
VERTEX
  8
LAYER_1
 10
168.9752
 20
91.3458
  0
VERTEX
  8
LAYER_1
 10
169.0775
 20
91.5505
  0
VERTEX
  8
LAYER_1
 10
169.129
 20
92.4725
  0
VERTEX
  8
LAYER_1
 10
169.1799
 20
92.6772
  0
VERTEX
  8
LAYER_1
 10
169.3847
 20
92.7796
  0
SEQEND
  0
POLYLINE
  8
LAYER_1
 40
0.2646
 41
0.2646
 66
1
 10
0
 20
0
 30
0
  0
VERTEX
  8
LAYER_1
 10
167.8998
 20
91.2434
  0
VERTEX
  8
LAYER_1
 10
167.2341
 20
91.2434
  0
SEQEND
  0
POLYLINE
  8
LAYER_1
 40
0.2646
 41
0.2646
 66
1
 10
0
 20
0
 30
0
  0
VERTEX
  8
LAYER_1
 10
166.9269
 20
91.2434
  0
VERTEX
  8
LAYER_1
 10
166.3636
 20
91.2434
  0
SEQEND
  0
POLYLINE
  8
LAYER_1
 40
0.2646
 41
0.2646
 66
1
 10
0
 20
0
 30
0
  0
VERTEX
  8
LAYER_1
 10
162.8817
 20
91.2434
  0
VERTEX
  8
LAYER_1
 10
162.5232
 20
91.2434
  0
SEQEND
  0
POLYLINE
  8
LAYER_1
 40
0.2646
 41
0.2646
 66
1
 10
0
 20
0
 30
0
  0
VERTEX
  8
LAYER_1
 10
162.2161
 20
91.2434
  0
VERTEX
  8
LAYER_1
 10
161.5503
 20
91.2434
  0
SEQEND
  0
POLYLINE
  8
LAYER_1
 40
0.2646
 41
0.2646
 66
1
 10
0
 20
0
 30
0
  0
VERTEX
  8
LAYER_1
 10
161.2432
 20
91.2434
  0
VERTEX
  8
LAYER_1
 10
160.5774
 20
91.2434
  0
SEQEND
  0
POLYLINE
  8
LAYER_1
 40
0.2646
 41
0.2646
 66
1
 10
0
 20
0
 30
0
  0
VERTEX
  8
LAYER_1
 10
160.2703
 20
91.2434
  0
VERTEX
  8
LAYER_1
 10
159.9117
 20
91.2434
  0
SEQEND
  0
POLYLINE
  8
LAYER_1
 40
0.2646
 41
0.2646
 66
1
 10
0
 20
0
 30
0
  0
VERTEX
  8
LAYER_1
 10
160.6287
 20
77.1108
  0
VERTEX
  8
LAYER_1
 10
160.6801
 20
77.8275
  0
SEQEND
  0
POLYLINE
  8
LAYER_1
 40
0.2646
 41
0.2646
 66
1
 10
0
 20
0
 30
0
  0
VERTEX
  8
LAYER_1
 10
160.6799
 20
78.1349
  0
VERTEX
  8
LAYER_1
 10
160.7313
 20
78.8006
  0
SEQEND
  0
POLYLINE
  8
LAYER_1
 40
0.2646
 41
0.2646
 66
1
 10
0
 20
0
 30
0
  0
VERTEX
  8
LAYER_1
 10
160.7311
 20
79.1078
  0
VERTEX
  8
LAYER_1
 10
160.7825
 20
79.7221
  0
SEQEND
  0
POLYLINE
  8
LAYER_1
 40
0.2646
 41
0.2646
 66
1
 10
0
 20
0
 30
0
  0
VERTEX
  8
LAYER_1
 10
160.8335
 20
80.0295
  0
VERTEX
  8
LAYER_1
 10
160.8335
 20
80.6953
  0
SEQEND
  0
POLYLINE
  8
LAYER_1
 40
0.2646
 41
0.2646
 66
1
 10
0
 20
0
 30
0
  0
VERTEX
  8
LAYER_1
 10
160.8847
 20
81.0024
  0
VERTEX
  8
LAYER_1
 10
160.8847
 20
81.6167
  0
SEQEND
  0
POLYLINE
  8
LAYER_1
 40
0.2646
 41
0.2646
 66
1
 10
0
 20
0
 30
0
  0
VERTEX
  8
LAYER_1
 10
160.9359
 20
81.9753
  0
VERTEX
  8
LAYER_1
 10
160.9359
 20
82.5896
  0
SEQEND
  0
POLYLINE
  8
LAYER_1
 40
0.2646
 41
0.2646
 66
1
 10
0
 20
0
 30
0
  0
VERTEX
  8
LAYER_1
 10
160.9871
 20
82.897
  0
VERTEX
  8
LAYER_1
 10
161.0386
 20
83.5113
  0
SEQEND
  0
POLYLINE
  8
LAYER_1
 40
0.2646
 41
0.2646
 66
1
 10
0
 20
0
 30
0
  0
VERTEX
  8
LAYER_1
 10
161.0383
 20
83.8699
  0
VERTEX
  8
LAYER_1
 10
161.0898
 20
84.4842
  0
SEQEND
  0
POLYLINE
  8
LAYER_1
 40
0.2646
 41
0.2646
 66
1
 10
0
 20
0
 30
0
  0
VERTEX
  8
LAYER_1
 10
161.0896
 20
84.7916
  0
VERTEX
  8
LAYER_1
 10
161.141
 20
85.4573
  0
SEQEND
  0
POLYLINE
  8
LAYER_1
 40
0.2646
 41
0.2646
 66
1
 10
0
 20
0
 30
0
  0
VERTEX
  8
LAYER_1
 10
161.1408
 20
85.7645
  0
VERTEX
  8
LAYER_1
 10
161.1922
 20
86.3788
  0
SEQEND
  0
POLYLINE
  8
LAYER_1
 40
0.2646
 41
0.2646
 66
1
 10
0
 20
0
 30
0
  0
VERTEX
  8
LAYER_1
 10
161.192
 20
86.6862
  0
VERTEX
  8
LAYER_1
 10
161.2434
 20
87.3519
  0
SEQEND
  0
POLYLINE
  8
LAYER_1
 40
0.2646
 41
0.2646
 66
1
 10
0
 20
0
 30
0
  0
VERTEX
  8
LAYER_1
 10
161.2432
 20
87.6591
  0
VERTEX
  8
LAYER_1
 10
161.2946
 20
88.2734
  0
SEQEND
  0
POLYLINE
  8
LAYER_1
 40
0.2646
 41
0.2646
 66
1
 10
0
 20
0
 30
0
  0
VERTEX
  8
LAYER_1
 10
161.2944
 20
88.632
  0
VERTEX
  8
LAYER_1
 10
161.3458
 20
89.2463
  0
SEQEND
  0
POLYLINE
  8
LAYER_1
 40
0.2646
 41
0.2646
 66
1
 10
0
 20
0
 30
0
  0
VERTEX
  8
LAYER_1
 10
161.3968
 20
89.5536
  0
VERTEX
  8
LAYER_1
 10
161.3968
 20
90.2703
  0
VERTEX
  8
LAYER_1
 10
160.5777
 20
90.2703
  0
VERTEX
  8
LAYER_1
 10
160.5777
 20
89.9122
  0
SEQEND
  0
POLYLINE
  8
LAYER_1
 40
0.2646
 41
0.2646
 66
1
 10
0
 20
0
 30
0
  0
VERTEX
  8
LAYER_1
 10
160.5263
 20
89.5536
  0
VERTEX
  8
LAYER_1
 10
160.5263
 20
88.9393
  0
SEQEND
  0
POLYLINE
  8
LAYER_1
 40
0.2646
 41
0.2646
 66
1
 10
0
 20
0
 30
0
  0
VERTEX
  8
LAYER_1
 10
160.4751
 20
88.632
  0
VERTEX
  8
LAYER_1
 10
160.4751
 20
87.9662
  0
SEQEND
  0
POLYLINE
  8
LAYER_1
 40
0.2646
 41
0.2646
 66
1
 10
0
 20
0
 30
0
  0
VERTEX
  8
LAYER_1
 10
160.4239
 20
87.6591
  0
VERTEX
  8
LAYER_1
 10
160.4239
 20
87.0448
  0
SEQEND
  0
POLYLINE
  8
LAYER_1
 40
0.2646
 41
0.2646
 66
1
 10
0
 20
0
 30
0
  0
VERTEX
  8
LAYER_1
 10
160.3727
 20
86.7374
  0
VERTEX
  8
LAYER_1
 10
160.3727
 20
86.0716
  0
SEQEND
  0
POLYLINE
  8
LAYER_1
 40
0.2646
 41
0.2646
 66
1
 10
0
 20
0
 30
0
  0
VERTEX
  8
LAYER_1
 10
160.3215
 20
85.7645
  0
VERTEX
  8
LAYER_1
 10
160.3215
 20
85.1502
  0
SEQEND
  0
POLYLINE
  8
LAYER_1
 40
0.2646
 41
0.2646
 66
1
 10
0
 20
0
 30
0
  0
VERTEX
  8
LAYER_1
 10
160.2703
 20
84.7916
  0
VERTEX
  8
LAYER_1
 10
160.2703
 20
84.1773
  0
SEQEND
  0
POLYLINE
  8
LAYER_1
 40
0.2646
 41
0.2646
 66
1
 10
0
 20
0
 30
0
  0
VERTEX
  8
LAYER_1
 10
160.2191
 20
83.8699
  0
VERTEX
  8
LAYER_1
 10
160.2191
 20
83.2042
  0
SEQEND
  0
POLYLINE
  8
LAYER_1
 40
0.2646
 41
0.2646
 66
1
 10
0
 20
0
 30
0
  0
VERTEX
  8
LAYER_1
 10
160.1679
 20
82.897
  0
VERTEX
  8
LAYER_1
 10
160.1679
 20
82.2827
  0
SEQEND
  0
POLYLINE
  8
LAYER_1
 40
0.2646
 41
0.2646
 66
1
 10
0
 20
0
 30
0
  0
VERTEX
  8
LAYER_1
 10
160.1166
 20
81.9753
  0
VERTEX
  8
LAYER_1
 10
160.1166
 20
81.3096
  0
SEQEND
  0
POLYLINE
  8
LAYER_1
 40
0.2646
 41
0.2646
 66
1
 10
0
 20
0
 30
0
  0
VERTEX
  8
LAYER_1
 10
160.0655
 20
81.0024
  0
VERTEX
  8
LAYER_1
 10
160.0655
 20
80.3881
  0
SEQEND
  0
POLYLINE
  8
LAYER_1
 40
0.2646
 41
0.2646
 66
1
 10
0
 20
0
 30
0
  0
VERTEX
  8
LAYER_1
 10
160.0143
 20
80.0807
  0
VERTEX
  8
LAYER_1
 10
160.0143
 20
79.6712
  0
SEQEND
  0
POLYLINE
  8
LAYER_1
 40
0.2646
 41
0.2646
 66
1
 10
0
 20
0
 30
0
  0
VERTEX
  8
LAYER_1
 10
169.2312
 20
90.2705
  0
VERTEX
  8
LAYER_1
 10
168.924
 20
90.2705
  0
SEQEND
  0
POLYLINE
  8
LAYER_1
 40
0.2646
 41
0.2646
 66
1
 10
0
 20
0
 30
0
  0
VERTEX
  8
LAYER_1
 10
168.6167
 20
90.2705
  0
VERTEX
  8
LAYER_1
 10
167.951
 20
90.2705
  0
SEQEND
  0
POLYLINE
  8
LAYER_1
 40
0.2646
 41
0.2646
 66
1
 10
0
 20
0
 30
0
  0
VERTEX
  8
LAYER_1
 10
167.6438
 20
90.2705
  0
VERTEX
  8
LAYER_1
 10
167.0295
 20
90.2705
  0
SEQEND
  0
POLYLINE
  8
LAYER_1
 40
0.2646
 41
0.2646
 66
1
 10
0
 20
0
 30
0
  0
VERTEX
  8
LAYER_1
 10
166.6709
 20
90.2705
  0
VERTEX
  8
LAYER_1
 10
166.3638
 20
90.2705
  0
SEQEND
  0
POLYLINE
  8
LAYER_1
 40
0.2646
 41
0.2646
 66
1
 10
0
 20
0
 30
0
  0
VERTEX
  8
LAYER_1
 10
169.2312
 20
90.2705
  0
VERTEX
  8
LAYER_1
 10
169.385
 20
90.2191
  0
VERTEX
  8
LAYER_1
 10
169.4874
 20
90.1167
  0
VERTEX
  8
LAYER_1
 10
169.5897
 20
89.9634
  0
VERTEX
  8
LAYER_1
 10
169.6407
 20
89.7586
  0
SEQEND
  0
POLYLINE
  8
LAYER_1
 40
0.2646
 41
0.2646
 66
1
 10
0
 20
0
 30
0
  0
VERTEX
  8
LAYER_1
 10
151.3094
 20
78.6982
  0
VERTEX
  8
LAYER_1
 10
151.9237
 20
78.7496
  0
SEQEND
  0
POLYLINE
  8
LAYER_1
 40
0.2646
 41
0.2646
 66
1
 10
0
 20
0
 30
0
  0
VERTEX
  8
LAYER_1
 10
152.2311
 20
78.7494
  0
VERTEX
  8
LAYER_1
 10
152.8454
 20
78.8008
  0
SEQEND
  0
POLYLINE
  8
LAYER_1
 40
0.2646
 41
0.2646
 66
1
 10
0
 20
0
 30
0
  0
VERTEX
  8
LAYER_1
 10
153.204
 20
78.8518
  0
VERTEX
  8
LAYER_1
 10
153.8183
 20
78.9032
  0
SEQEND
  0
POLYLINE
  8
LAYER_1
 40
0.2646
 41
0.2646
 66
1
 10
0
 20
0
 30
0
  0
VERTEX
  8
LAYER_1
 10
154.1257
 20
78.903
  0
VERTEX
  8
LAYER_1
 10
154.74
 20
78.9544
  0
SEQEND
  0
POLYLINE
  8
LAYER_1
 40
0.2646
 41
0.2646
 66
1
 10
0
 20
0
 30
0
  0
VERTEX
  8
LAYER_1
 10
155.0986
 20
79.0054
  0
VERTEX
  8
LAYER_1
 10
155.7129
 20
79.0568
  0
SEQEND
  0
POLYLINE
  8
LAYER_1
 40
0.2646
 41
0.2646
 66
1
 10
0
 20
0
 30
0
  0
VERTEX
  8
LAYER_1
 10
156.0202
 20
79.0566
  0
VERTEX
  8
LAYER_1
 10
156.686
 20
79.108
  0
SEQEND
  0
POLYLINE
  8
LAYER_1
 40
0.2646
 41
0.2646
 66
1
 10
0
 20
0
 30
0
  0
VERTEX
  8
LAYER_1
 10
156.9931
 20
79.159
  0
VERTEX
  8
LAYER_1
 10
157.6074
 20
79.159
  0
SEQEND
  0
POLYLINE
  8
LAYER_1
 40
0.2646
 41
0.2646
 66
1
 10
0
 20
0
 30
0
  0
VERTEX
  8
LAYER_1
 10
157.9148
 20
79.2102
  0
VERTEX
  8
LAYER_1
 10
158.5291
 20
79.2616
  0
SEQEND
  0
POLYLINE
  8
LAYER_1
 40
0.2646
 41
0.2646
 66
1
 10
0
 20
0
 30
0
  0
VERTEX
  8
LAYER_1
 10
150.8997
 20
77.0596
  0
VERTEX
  8
LAYER_1
 10
150.8997
 20
77.162
  0
VERTEX
  8
LAYER_1
 10
151.5655
 20
77.7254
  0
VERTEX
  8
LAYER_1
 10
152.0774
 20
77.7254
  0
SEQEND
  0
POLYLINE
  8
LAYER_1
 40
0.2646
 41
0.2646
 66
1
 10
0
 20
0
 30
0
  0
VERTEX
  8
LAYER_1
 10
152.3847
 20
77.7765
  0
VERTEX
  8
LAYER_1
 10
153.0504
 20
77.8279
  0
SEQEND
  0
POLYLINE
  8
LAYER_1
 40
0.2646
 41
0.2646
 66
1
 10
0
 20
0
 30
0
  0
VERTEX
  8
LAYER_1
 10
153.3576
 20
77.8277
  0
VERTEX
  8
LAYER_1
 10
153.9719
 20
77.8791
  0
SEQEND
  0
POLYLINE
  8
LAYER_1
 40
0.2646
 41
0.2646
 66
1
 10
0
 20
0
 30
0
  0
VERTEX
  8
LAYER_1
 10
154.2793
 20
77.9301
  0
VERTEX
  8
LAYER_1
 10
154.945
 20
77.9815
  0
SEQEND
  0
POLYLINE
  8
LAYER_1
 40
0.2646
 41
0.2646
 66
1
 10
0
 20
0
 30
0
  0
VERTEX
  8
LAYER_1
 10
155.2522
 20
77.9813
  0
VERTEX
  8
LAYER_1
 10
155.8665
 20
78.0327
  0
SEQEND
  0
POLYLINE
  8
LAYER_1
 40
0.2646
 41
0.2646
 66
1
 10
0
 20
0
 30
0
  0
VERTEX
  8
LAYER_1
 10
156.1739
 20
78.0837
  0
VERTEX
  8
LAYER_1
 10
156.8396
 20
78.1351
  0
SEQEND
  0
POLYLINE
  8
LAYER_1
 40
0.2646
 41
0.2646
 66
1
 10
0
 20
0
 30
0
  0
VERTEX
  8
LAYER_1
 10
157.1467
 20
78.1349
  0
VERTEX
  8
LAYER_1
 10
157.7611
 20
78.1863
  0
SEQEND
  0
POLYLINE
  8
LAYER_1
 40
0.2646
 41
0.2646
 66
1
 10
0
 20
0
 30
0
  0
VERTEX
  8
LAYER_1
 10
158.1197
 20
78.2373
  0
VERTEX
  8
LAYER_1
 10
158.5806
 20
78.2373
  0
SEQEND
  0
POLYLINE
  8
LAYER_1
 40
0.2646
 41
0.2646
 66
1
 10
0
 20
0
 30
0
  0
VERTEX
  8
LAYER_1
 10
158.9901
 20
79.7223
  0
VERTEX
  8
LAYER_1
 10
158.9387
 20
79.5685
  0
VERTEX
  8
LAYER_1
 10
158.8363
 20
79.4151
  0
VERTEX
  8
LAYER_1
 10
158.683
 20
79.3127
  0
VERTEX
  8
LAYER_1
 10
158.5292
 20
79.2613
  0
SEQEND
  0
POLYLINE
  8
LAYER_1
 40
0.2646
 41
0.2646
 66
1
 10
0
 20
0
 30
0
  0
VERTEX
  8
LAYER_1
 10
160.0143
 20
79.6711
  0
VERTEX
  8
LAYER_1
 10
159.9628
 20
79.4149
  0
VERTEX
  8
LAYER_1
 10
159.9119
 20
79.2101
  0
SEQEND
  0
POLYLINE
  8
LAYER_1
 40
0.2646
 41
0.2646
 66
1
 10
0
 20
0
 30
0
  0
VERTEX
  8
LAYER_1
 10
159.707
 20
78.9542
  0
VERTEX
  8
LAYER_1
 10
159.5532
 20
78.698
  0
VERTEX
  8
LAYER_1
 10
159.2975
 20
78.4932
  0
SEQEND
  0
POLYLINE
  8
LAYER_1
 40
0.2646
 41
0.2646
 66
1
 10
0
 20
0
 30
0
  0
VERTEX
  8
LAYER_1
 10
158.9901
 20
78.3397
  0
VERTEX
  8
LAYER_1
 10
158.8363
 20
78.2883
  0
VERTEX
  8
LAYER_1
 10
158.5292
 20
78.2373
  0
SEQEND
  0
POLYLINE
  8
LAYER_1
 40
0.2646
 41
0.2646
 66
1
 10
0
 20
0
 30
0
  0
VERTEX
  8
LAYER_1
 10
159.5534
 20
89.2976
  0
VERTEX
  8
LAYER_1
 10
159.502
 20
88.9391
  0
SEQEND
  0
POLYLINE
  8
LAYER_1
 40
0.2646
 41
0.2646
 66
1
 10
0
 20
0
 30
0
  0
VERTEX
  8
LAYER_1
 10
159.5022
 20
88.632
  0
VERTEX
  8
LAYER_1
 10
159.4508
 20
88.0176
  0
SEQEND
  0
POLYLINE
  8
LAYER_1
 40
0.2646
 41
0.2646
 66
1
 10
0
 20
0
 30
0
  0
VERTEX
  8
LAYER_1
 10
159.451
 20
87.6591
  0
VERTEX
  8
LAYER_1
 10
159.3996
 20
87.0448
  0
SEQEND
  0
POLYLINE
  8
LAYER_1
 40
0.2646
 41
0.2646
 66
1
 10
0
 20
0
 30
0
  0
VERTEX
  8
LAYER_1
 10
159.3998
 20
86.7374
  0
VERTEX
  8
LAYER_1
 10
159.3484
 20
86.0716
  0
SEQEND
  0
POLYLINE
  8
LAYER_1
 40
0.2646
 41
0.2646
 66
1
 10
0
 20
0
 30
0
  0
VERTEX
  8
LAYER_1
 10
159.3486
 20
85.7645
  0
VERTEX
  8
LAYER_1
 10
159.2972
 20
85.1502
  0
SEQEND
  0
POLYLINE
  8
LAYER_1
 40
0.2646
 41
0.2646
 66
1
 10
0
 20
0
 30
0
  0
VERTEX
  8
LAYER_1
 10
159.2974
 20
84.8428
  0
VERTEX
  8
LAYER_1
 10
159.246
 20
84.1771
  0
SEQEND
  0
POLYLINE
  8
LAYER_1
 40
0.2646
 41
0.2646
 66
1
 10
0
 20
0
 30
0
  0
VERTEX
  8
LAYER_1
 10
159.2462
 20
83.8699
  0
VERTEX
  8
LAYER_1
 10
159.1948
 20
83.2556
  0
SEQEND
  0
POLYLINE
  8
LAYER_1
 40
0.2646
 41
0.2646
 66
1
 10
0
 20
0
 30
0
  0
VERTEX
  8
LAYER_1
 10
159.1949
 20
82.897
  0
VERTEX
  8
LAYER_1
 10
159.1435
 20
82.2827
  0
SEQEND
  0
POLYLINE
  8
LAYER_1
 40
0.2646
 41
0.2646
 66
1
 10
0
 20
0
 30
0
  0
VERTEX
  8
LAYER_1
 10
159.1438
 20
81.9753
  0
VERTEX
  8
LAYER_1
 10
159.0923
 20
81.3096
  0
SEQEND
  0
POLYLINE
  8
LAYER_1
 40
0.2646
 41
0.2646
 66
1
 10
0
 20
0
 30
0
  0
VERTEX
  8
LAYER_1
 10
159.0926
 20
81.0024
  0
VERTEX
  8
LAYER_1
 10
159.0412
 20
80.3881
  0
SEQEND
  0
POLYLINE
  8
LAYER_1
 40
0.2646
 41
0.2646
 66
1
 10
0
 20
0
 30
0
  0
VERTEX
  8
LAYER_1
 10
159.0414
 20
80.0807
  0
VERTEX
  8
LAYER_1
 10
158.99
 20
79.7221
  0
SEQEND
  0
POLYLINE
  8
LAYER_1
 40
0.2646
 41
0.2646
 66
1
 10
0
 20
0
 30
0
  0
VERTEX
  8
LAYER_1
 10
162.3697
 20
89.8097
  0
VERTEX
  8
LAYER_1
 10
162.3697
 20
89.2978
  0
SEQEND
  0
POLYLINE
  8
LAYER_1
 40
0.2646
 41
0.2646
 66
1
 10
0
 20
0
 30
0
  0
VERTEX
  8
LAYER_1
 10
162.3185
 20
88.9904
  0
VERTEX
  8
LAYER_1
 10
162.3185
 20
88.3247
  0
SEQEND
  0
POLYLINE
  8
LAYER_1
 40
0.2646
 41
0.2646
 66
1
 10
0
 20
0
 30
0
  0
VERTEX
  8
LAYER_1
 10
162.2673
 20
88.0175
  0
VERTEX
  8
LAYER_1
 10
162.2673
 20
87.4032
  0
SEQEND
  0
POLYLINE
  8
LAYER_1
 40
0.2646
 41
0.2646
 66
1
 10
0
 20
0
 30
0
  0
VERTEX
  8
LAYER_1
 10
162.2161
 20
87.0958
  0
VERTEX
  8
LAYER_1
 10
162.1647
 20
86.4301
  0
SEQEND
  0
POLYLINE
  8
LAYER_1
 40
0.2646
 41
0.2646
 66
1
 10
0
 20
0
 30
0
  0
VERTEX
  8
LAYER_1
 10
162.1649
 20
86.1229
  0
VERTEX
  8
LAYER_1
 10
162.1135
 20
85.5086
  0
SEQEND
  0
POLYLINE
  8
LAYER_1
 40
0.2646
 41
0.2646
 66
1
 10
0
 20
0
 30
0
  0
VERTEX
  8
LAYER_1
 10
162.1136
 20
85.15
  0
VERTEX
  8
LAYER_1
 10
162.0622
 20
84.5357
  0
SEQEND
  0
POLYLINE
  8
LAYER_1
 40
0.2646
 41
0.2646
 66
1
 10
0
 20
0
 30
0
  0
VERTEX
  8
LAYER_1
 10
162.0625
 20
84.2283
  0
VERTEX
  8
LAYER_1
 10
162.011
 20
83.5626
  0
SEQEND
  0
POLYLINE
  8
LAYER_1
 40
0.2646
 41
0.2646
 66
1
 10
0
 20
0
 30
0
  0
VERTEX
  8
LAYER_1
 10
162.0113
 20
83.2554
  0
VERTEX
  8
LAYER_1
 10
161.9599
 20
82.6411
  0
SEQEND
  0
POLYLINE
  8
LAYER_1
 40
0.2646
 41
0.2646
 66
1
 10
0
 20
0
 30
0
  0
VERTEX
  8
LAYER_1
 10
161.96
 20
82.3337
  0
VERTEX
  8
LAYER_1
 10
161.9086
 20
81.668
  0
SEQEND
  0
POLYLINE
  8
LAYER_1
 40
0.2646
 41
0.2646
 66
1
 10
0
 20
0
 30
0
  0
VERTEX
  8
LAYER_1
 10
161.9088
 20
81.3608
  0
VERTEX
  8
LAYER_1
 10
161.8574
 20
80.7465
  0
SEQEND
  0
POLYLINE
  8
LAYER_1
 40
0.2646
 41
0.2646
 66
1
 10
0
 20
0
 30
0
  0
VERTEX
  8
LAYER_1
 10
161.8576
 20
80.4392
  0
VERTEX
  8
LAYER_1
 10
161.8062
 20
79.7734
  0
SEQEND
  0
POLYLINE
  8
LAYER_1
 40
0.2646
 41
0.2646
 66
1
 10
0
 20
0
 30
0
  0
VERTEX
  8
LAYER_1
 10
161.7552
 20
79.4663
  0
VERTEX
  8
LAYER_1
 10
161.7552
 20
78.852
  0
SEQEND
  0
POLYLINE
  8
LAYER_1
 40
0.2646
 41
0.2646
 66
1
 10
0
 20
0
 30
0
  0
VERTEX
  8
LAYER_1
 10
161.704
 20
78.4933
  0
VERTEX
  8
LAYER_1
 10
161.704
 20
77.879
  0
SEQEND
  0
POLYLINE
  8
LAYER_1
 40
0.2646
 41
0.2646
 66
1
 10
0
 20
0
 30
0
  0
VERTEX
  8
LAYER_1
 10
161.6528
 20
77.5717
  0
VERTEX
  8
LAYER_1
 10
161.6528
 20
77.0597
  0
SEQEND
  0
POLYLINE
  8
LAYER_1
 40
0.2646
 41
0.2646
 66
1
 10
0
 20
0
 30
0
  0
VERTEX
  8
LAYER_1
 10
162.3697
 20
89.8097
  0
VERTEX
  8
LAYER_1
 10
162.4211
 20
89.9635
  0
VERTEX
  8
LAYER_1
 10
162.5235
 20
90.1169
  0
VERTEX
  8
LAYER_1
 10
162.6769
 20
90.2192
  0
VERTEX
  8
LAYER_1
 10
162.8816
 20
90.2707
  0
SEQEND
  0
POLYLINE
  8
LAYER_1
 40
0.2646
 41
0.2646
 66
1
 10
0
 20
0
 30
0
  0
VERTEX
  8
LAYER_1
 10
159.6046
 20
90.9874
  0
VERTEX
  8
LAYER_1
 10
159.707
 20
91.1922
  0
VERTEX
  8
LAYER_1
 10
159.9118
 20
91.2436
  0
SEQEND
  0
POLYLINE
  8
LAYER_1
 40
0.2646
 41
0.2646
 66
1
 10
0
 20
0
 30
0
  0
VERTEX
  8
LAYER_1
 10
143.9871
 20
77.0596
  0
SEQEND
  0
POLYLINE
  8
LAYER_1
 40
0.2646
 41
0.2646
 66
1
 10
0
 20
0
 30
0
  0
VERTEX
  8
LAYER_1
 10
143.9871
 20
77.0596
  0
VERTEX
  8
LAYER_1
 10
143.9871
 20
77.111
  0
SEQEND
  0
POLYLINE
  8
LAYER_1
 40
0.2646
 41
0.2646
 66
1
 10
0
 20
0
 30
0
  0
VERTEX
  8
LAYER_1
 10
143.9871
 20
77.1108
  0
SEQEND
  0
POLYLINE
  8
LAYER_1
 40
0.2646
 41
0.2646
 66
1
 10
0
 20
0
 30
0
  0
VERTEX
  8
LAYER_1
 10
143.9871
 20
77.1108
  0
VERTEX
  8
LAYER_1
 10
143.9357
 20
77.1108
  0
SEQEND
  0
POLYLINE
  8
LAYER_1
 40
0.2646
 41
0.2646
 66
1
 10
0
 20
0
 30
0
  0
VERTEX
  8
LAYER_1
 10
143.9358
 20
77.1108
  0
SEQEND
  0
POLYLINE
  8
LAYER_1
 40
0.2646
 41
0.2646
 66
1
 10
0
 20
0
 30
0
  0
VERTEX
  8
LAYER_1
 10
143.9358
 20
77.1108
  0
VERTEX
  8
LAYER_1
 10
143.9358
 20
77.1622
  0
SEQEND
  0
POLYLINE
  8
LAYER_1
 40
0.2646
 41
0.2646
 66
1
 10
0
 20
0
 30
0
  0
VERTEX
  8
LAYER_1
 10
143.9358
 20
77.162
  0
SEQEND
  0
POLYLINE
  8
LAYER_1
 40
0.2646
 41
0.2646
 66
1
 10
0
 20
0
 30
0
  0
VERTEX
  8
LAYER_1
 10
143.9358
 20
77.162
  0
SEQEND
  0
POLYLINE
  8
LAYER_1
 40
0.2646
 41
0.2646
 66
1
 10
0
 20
0
 30
0
  0
VERTEX
  8
LAYER_1
 10
143.9358
 20
77.162
  0
VERTEX
  8
LAYER_1
 10
143.8844
 20
77.162
  0
SEQEND
  0
POLYLINE
  8
LAYER_1
 40
0.2646
 41
0.2646
 66
1
 10
0
 20
0
 30
0
  0
VERTEX
  8
LAYER_1
 10
143.8846
 20
77.162
  0
SEQEND
  0
POLYLINE
  8
LAYER_1
 40
0.2646
 41
0.2646
 66
1
 10
0
 20
0
 30
0
  0
VERTEX
  8
LAYER_1
 10
143.8846
 20
77.162
  0
VERTEX
  8
LAYER_1
 10
143.8846
 20
77.2134
  0
SEQEND
  0
POLYLINE
  8
LAYER_1
 40
0.2646
 41
0.2646
 66
1
 10
0
 20
0
 30
0
  0
VERTEX
  8
LAYER_1
 10
143.8846
 20
77.2132
  0
SEQEND
  0
POLYLINE
  8
LAYER_1
 40
0.2646
 41
0.2646
 66
1
 10
0
 20
0
 30
0
  0
VERTEX
  8
LAYER_1
 10
143.8846
 20
77.2132
  0
SEQEND
  0
POLYLINE
  8
LAYER_1
 40
0.2646
 41
0.2646
 66
1
 10
0
 20
0
 30
0
  0
VERTEX
  8
LAYER_1
 10
143.8846
 20
77.2132
  0
VERTEX
  8
LAYER_1
 10
143.8332
 20
77.2132
  0
SEQEND
  0
POLYLINE
  8
LAYER_1
 40
0.2646
 41
0.2646
 66
1
 10
0
 20
0
 30
0
  0
VERTEX
  8
LAYER_1
 10
143.8334
 20
77.2132
  0
SEQEND
  0
POLYLINE
  8
LAYER_1
 40
0.2646
 41
0.2646
 66
1
 10
0
 20
0
 30
0
  0
VERTEX
  8
LAYER_1
 10
143.8334
 20
77.2132
  0
VERTEX
  8
LAYER_1
 10
143.8334
 20
77.2646
  0
SEQEND
  0
POLYLINE
  8
LAYER_1
 40
0.2646
 41
0.2646
 66
1
 10
0
 20
0
 30
0
  0
VERTEX
  8
LAYER_1
 10
143.8334
 20
77.2644
  0
SEQEND
  0
POLYLINE
  8
LAYER_1
 40
0.2646
 41
0.2646
 66
1
 10
0
 20
0
 30
0
  0
VERTEX
  8
LAYER_1
 10
143.8334
 20
77.2644
  0
SEQEND
  0
POLYLINE
  8
LAYER_1
 40
0.2646
 41
0.2646
 66
1
 10
0
 20
0
 30
0
  0
VERTEX
  8
LAYER_1
 10
143.8334
 20
77.2644
  0
VERTEX
  8
LAYER_1
 10
143.782
 20
77.2644
  0
SEQEND
  0
POLYLINE
  8
LAYER_1
 40
0.2646
 41
0.2646
 66
1
 10
0
 20
0
 30
0
  0
VERTEX
  8
LAYER_1
 10
143.7823
 20
77.2644
  0
SEQEND
  0
POLYLINE
  8
LAYER_1
 40
0.2646
 41
0.2646
 66
1
 10
0
 20
0
 30
0
  0
VERTEX
  8
LAYER_1
 10
143.7823
 20
77.2644
  0
SEQEND
  0
POLYLINE
  8
LAYER_1
 40
0.2646
 41
0.2646
 66
1
 10
0
 20
0
 30
0
  0
VERTEX
  8
LAYER_1
 10
143.7823
 20
77.2644
  0
VERTEX
  8
LAYER_1
 10
143.7823
 20
77.3159
  0
VERTEX
  8
LAYER_1
 10
143.7308
 20
77.3159
  0
SEQEND
  0
POLYLINE
  8
LAYER_1
 40
0.2646
 41
0.2646
 66
1
 10
0
 20
0
 30
0
  0
VERTEX
  8
LAYER_1
 10
143.731
 20
77.3156
  0
SEQEND
  0
POLYLINE
  8
LAYER_1
 40
0.2646
 41
0.2646
 66
1
 10
0
 20
0
 30
0
  0
VERTEX
  8
LAYER_1
 10
143.731
 20
77.3156
  0
SEQEND
  0
POLYLINE
  8
LAYER_1
 40
0.2646
 41
0.2646
 66
1
 10
0
 20
0
 30
0
  0
VERTEX
  8
LAYER_1
 10
143.731
 20
77.3156
  0
SEQEND
  0
POLYLINE
  8
LAYER_1
 40
0.2646
 41
0.2646
 66
1
 10
0
 20
0
 30
0
  0
VERTEX
  8
LAYER_1
 10
143.731
 20
77.3156
  0
VERTEX
  8
LAYER_1
 10
143.6796
 20
77.3156
  0
SEQEND
  0
POLYLINE
  8
LAYER_1
 40
0.2646
 41
0.2646
 66
1
 10
0
 20
0
 30
0
  0
VERTEX
  8
LAYER_1
 10
143.6798
 20
77.3156
  0
SEQEND
  0
POLYLINE
  8
LAYER_1
 40
0.2646
 41
0.2646
 66
1
 10
0
 20
0
 30
0
  0
VERTEX
  8
LAYER_1
 10
143.6798
 20
77.3156
  0
VERTEX
  8
LAYER_1
 10
143.6798
 20
77.3671
  0
VERTEX
  8
LAYER_1
 10
143.6284
 20
77.3671
  0
SEQEND
  0
POLYLINE
  8
LAYER_1
 40
0.2646
 41
0.2646
 66
1
 10
0
 20
0
 30
0
  0
VERTEX
  8
LAYER_1
 10
143.6286
 20
77.3668
  0
SEQEND
  0
POLYLINE
  8
LAYER_1
 40
0.2646
 41
0.2646
 66
1
 10
0
 20
0
 30
0
  0
VERTEX
  8
LAYER_1
 10
143.6286
 20
77.3668
  0
SEQEND
  0
POLYLINE
  8
LAYER_1
 40
0.2646
 41
0.2646
 66
1
 10
0
 20
0
 30
0
  0
VERTEX
  8
LAYER_1
 10
143.6286
 20
77.3668
  0
SEQEND
  0
POLYLINE
  8
LAYER_1
 40
0.2646
 41
0.2646
 66
1
 10
0
 20
0
 30
0
  0
VERTEX
  8
LAYER_1
 10
143.6286
 20
77.3668
  0
VERTEX
  8
LAYER_1
 10
143.5772
 20
77.3668
  0
SEQEND
  0
POLYLINE
  8
LAYER_1
 40
0.2646
 41
0.2646
 66
1
 10
0
 20
0
 30
0
  0
VERTEX
  8
LAYER_1
 10
143.5774
 20
77.3668
  0
SEQEND
  0
POLYLINE
  8
LAYER_1
 40
0.2646
 41
0.2646
 66
1
 10
0
 20
0
 30
0
  0
VERTEX
  8
LAYER_1
 10
143.5774
 20
77.3668
  0
SEQEND
  0
POLYLINE
  8
LAYER_1
 40
0.2646
 41
0.2646
 66
1
 10
0
 20
0
 30
0
  0
VERTEX
  8
LAYER_1
 10
143.5774
 20
77.3668
  0
SEQEND
  0
POLYLINE
  8
LAYER_1
 40
0.2646
 41
0.2646
 66
1
 10
0
 20
0
 30
0
  0
VERTEX
  8
LAYER_1
 10
143.5774
 20
77.3668
  0
VERTEX
  8
LAYER_1
 10
143.526
 20
77.3668
  0
SEQEND
  0
POLYLINE
  8
LAYER_1
 40
0.2646
 41
0.2646
 66
1
 10
0
 20
0
 30
0
  0
VERTEX
  8
LAYER_1
 10
143.5262
 20
77.3668
  0
SEQEND
  0
POLYLINE
  8
LAYER_1
 40
0.2646
 41
0.2646
 66
1
 10
0
 20
0
 30
0
  0
VERTEX
  8
LAYER_1
 10
143.5262
 20
77.3668
  0
SEQEND
  0
POLYLINE
  8
LAYER_1
 40
0.2646
 41
0.2646
 66
1
 10
0
 20
0
 30
0
  0
VERTEX
  8
LAYER_1
 10
143.5262
 20
77.3668
  0
SEQEND
  0
POLYLINE
  8
LAYER_1
 40
0.2646
 41
0.2646
 66
1
 10
0
 20
0
 30
0
  0
VERTEX
  8
LAYER_1
 10
143.5262
 20
77.3668
  0
VERTEX
  8
LAYER_1
 10
143.4748
 20
77.3668
  0
SEQEND
  0
POLYLINE
  8
LAYER_1
 40
0.2646
 41
0.2646
 66
1
 10
0
 20
0
 30
0
  0
VERTEX
  8
LAYER_1
 10
143.475
 20
77.3668
  0
SEQEND
  0
POLYLINE
  8
LAYER_1
 40
0.2646
 41
0.2646
 66
1
 10
0
 20
0
 30
0
  0
VERTEX
  8
LAYER_1
 10
150.6437
 20
78.1861
  0
VERTEX
  8
LAYER_1
 10
151.0533
 20
78.5957
  0
VERTEX
  8
LAYER_1
 10
151.3094
 20
78.6981
  0
SEQEND
  0
POLYLINE
  8
LAYER_1
 40
0.2646
 41
0.2646
 66
1
 10
0
 20
0
 30
0
  0
VERTEX
  8
LAYER_1
 10
150.3877
 20
77.9813
  0
VERTEX
  8
LAYER_1
 10
149.9267
 20
77.6228
  0
SEQEND
  0
POLYLINE
  8
LAYER_1
 40
0.2646
 41
0.2646
 66
1
 10
0
 20
0
 30
0
  0
VERTEX
  8
LAYER_1
 10
143.9358
 20
78.6982
  0
VERTEX
  8
LAYER_1
 10
144.2944
 20
78.5444
  0
VERTEX
  8
LAYER_1
 10
144.7039
 20
78.1862
  0
SEQEND
  0
POLYLINE
  8
LAYER_1
 40
0.2646
 41
0.2646
 66
1
 10
0
 20
0
 30
0
  0
VERTEX
  8
LAYER_1
 10
144.9088
 20
77.9813
  0
VERTEX
  8
LAYER_1
 10
145.3183
 20
77.6228
  0
SEQEND
  0
POLYLINE
  8
LAYER_1
 40
0.2646
 41
0.2646
 66
1
 10
0
 20
0
 30
0
  0
VERTEX
  8
LAYER_1
 10
159.6046
 20
90.9874
  0
VERTEX
  8
LAYER_1
 10
159.6046
 20
90.2707
  0
SEQEND
  0
POLYLINE
  8
LAYER_1
 40
0.2646
 41
0.2646
 66
1
 10
0
 20
0
 30
0
  0
VERTEX
  8
LAYER_1
 10
159.5534
 20
89.9633
  0
VERTEX
  8
LAYER_1
 10
159.5534
 20
89.2976
  0
SEQEND
  0
POLYLINE
  8
LAYER_1
 40
0.2646
 41
0.2646
 66
1
 10
0
 20
0
 30
0
  0
VERTEX
  8
LAYER_1
 10
129.5472
 20
77.0596
  0
VERTEX
  8
LAYER_1
 10
129.5472
 20
77.5206
  0
SEQEND
  0
POLYLINE
  8
LAYER_1
 40
0.2646
 41
0.2646
 66
1
 10
0
 20
0
 30
0
  0
VERTEX
  8
LAYER_1
 10
128.5743
 20
77.0596
  0
VERTEX
  8
LAYER_1
 10
128.5743
 20
77.5206
  0
SEQEND
  0
POLYLINE
  8
LAYER_1
 40
0.2646
 41
0.2646
 66
1
 10
0
 20
0
 30
0
  0
VERTEX
  8
LAYER_1
 10
126.1164
 20
92.5748
  0
VERTEX
  8
LAYER_1
 10
126.1164
 20
92.1138
  0
SEQEND
  0
POLYLINE
  8
LAYER_1
 40
0.2646
 41
0.2646
 66
1
 10
0
 20
0
 30
0
  0
VERTEX
  8
LAYER_1
 10
126.1677
 20
91.8067
  0
VERTEX
  8
LAYER_1
 10
126.1677
 20
91.1924
  0
SEQEND
  0
POLYLINE
  8
LAYER_1
 40
0.2646
 41
0.2646
 66
1
 10
0
 20
0
 30
0
  0
VERTEX
  8
LAYER_1
 10
126.2189
 20
90.8338
  0
VERTEX
  8
LAYER_1
 10
126.2703
 20
90.2195
  0
SEQEND
  0
POLYLINE
  8
LAYER_1
 40
0.2646
 41
0.2646
 66
1
 10
0
 20
0
 30
0
  0
VERTEX
  8
LAYER_1
 10
126.2701
 20
89.9121
  0
VERTEX
  8
LAYER_1
 10
126.3215
 20
89.2463
  0
SEQEND
  0
POLYLINE
  8
LAYER_1
 40
0.2646
 41
0.2646
 66
1
 10
0
 20
0
 30
0
  0
VERTEX
  8
LAYER_1
 10
126.3725
 20
88.9392
  0
VERTEX
  8
LAYER_1
 10
126.3725
 20
88.3249
  0
SEQEND
  0
POLYLINE
  8
LAYER_1
 40
0.2646
 41
0.2646
 66
1
 10
0
 20
0
 30
0
  0
VERTEX
  8
LAYER_1
 10
126.4237
 20
88.0175
  0
VERTEX
  8
LAYER_1
 10
126.4751
 20
87.3518
  0
SEQEND
  0
POLYLINE
  8
LAYER_1
 40
0.2646
 41
0.2646
 66
1
 10
0
 20
0
 30
0
  0
VERTEX
  8
LAYER_1
 10
126.4749
 20
87.0446
  0
VERTEX
  8
LAYER_1
 10
126.5263
 20
86.4303
  0
SEQEND
  0
POLYLINE
  8
LAYER_1
 40
0.2646
 41
0.2646
 66
1
 10
0
 20
0
 30
0
  0
VERTEX
  8
LAYER_1
 10
126.5261
 20
86.1229
  0
VERTEX
  8
LAYER_1
 10
126.5775
 20
85.4572
  0
SEQEND
  0
POLYLINE
  8
LAYER_1
 40
0.2646
 41
0.2646
 66
1
 10
0
 20
0
 30
0
  0
VERTEX
  8
LAYER_1
 10
126.6285
 20
85.15
  0
VERTEX
  8
LAYER_1
 10
126.6799
 20
84.5357
  0
SEQEND
  0
POLYLINE
  8
LAYER_1
 40
0.2646
 41
0.2646
 66
1
 10
0
 20
0
 30
0
  0
VERTEX
  8
LAYER_1
 10
126.6797
 20
84.1771
  0
VERTEX
  8
LAYER_1
 10
126.7311
 20
83.5628
  0
SEQEND
  0
POLYLINE
  8
LAYER_1
 40
0.2646
 41
0.2646
 66
1
 10
0
 20
0
 30
0
  0
VERTEX
  8
LAYER_1
 10
126.7309
 20
83.2554
  0
VERTEX
  8
LAYER_1
 10
126.7823
 20
82.6411
  0
SEQEND
  0
POLYLINE
  8
LAYER_1
 40
0.2646
 41
0.2646
 66
1
 10
0
 20
0
 30
0
  0
VERTEX
  8
LAYER_1
 10
126.8333
 20
82.2825
  0
VERTEX
  8
LAYER_1
 10
126.8847
 20
81.6682
  0
SEQEND
  0
POLYLINE
  8
LAYER_1
 40
0.2646
 41
0.2646
 66
1
 10
0
 20
0
 30
0
  0
VERTEX
  8
LAYER_1
 10
126.8845
 20
81.3608
  0
VERTEX
  8
LAYER_1
 10
126.9359
 20
80.6951
  0
SEQEND
  0
POLYLINE
  8
LAYER_1
 40
0.2646
 41
0.2646
 66
1
 10
0
 20
0
 30
0
  0
VERTEX
  8
LAYER_1
 10
126.9358
 20
80.388
  0
VERTEX
  8
LAYER_1
 10
126.9872
 20
79.927
  0
SEQEND
  0
POLYLINE
  8
LAYER_1
 40
0.2646
 41
0.2646
 66
1
 10
0
 20
0
 30
0
  0
VERTEX
  8
LAYER_1
 10
125.758
 20
82.9482
  0
VERTEX
  8
LAYER_1
 10
125.8094
 20
82.5387
  0
SEQEND
  0
POLYLINE
  8
LAYER_1
 40
0.2646
 41
0.2646
 66
1
 10
0
 20
0
 30
0
  0
VERTEX
  8
LAYER_1
 10
125.8092
 20
82.2313
  0
VERTEX
  8
LAYER_1
 10
125.8606
 20
81.5656
  0
SEQEND
  0
POLYLINE
  8
LAYER_1
 40
0.2646
 41
0.2646
 66
1
 10
0
 20
0
 30
0
  0
VERTEX
  8
LAYER_1
 10
125.9116
 20
81.2584
  0
VERTEX
  8
LAYER_1
 10
125.9116
 20
80.6441
  0
SEQEND
  0
POLYLINE
  8
LAYER_1
 40
0.2646
 41
0.2646
 66
1
 10
0
 20
0
 30
0
  0
VERTEX
  8
LAYER_1
 10
125.9628
 20
80.3367
  0
VERTEX
  8
LAYER_1
 10
125.9628
 20
79.8758
  0
SEQEND
  0
POLYLINE
  8
LAYER_1
 40
0.2646
 41
0.2646
 66
1
 10
0
 20
0
 30
0
  0
VERTEX
  8
LAYER_1
 10
127.4478
 20
79.4663
  0
VERTEX
  8
LAYER_1
 10
127.294
 20
79.5177
  0
VERTEX
  8
LAYER_1
 10
127.1406
 20
79.6201
  0
VERTEX
  8
LAYER_1
 10
127.0383
 20
79.7734
  0
VERTEX
  8
LAYER_1
 10
126.9868
 20
79.9272
  0
SEQEND
  0
POLYLINE
  8
LAYER_1
 40
0.2646
 41
0.2646
 66
1
 10
0
 20
0
 30
0
  0
VERTEX
  8
LAYER_1
 10
127.4478
 20
78.4933
  0
VERTEX
  8
LAYER_1
 10
127.1406
 20
78.4933
  0
VERTEX
  8
LAYER_1
 10
126.9868
 20
78.5448
  0
SEQEND
  0
POLYLINE
  8
LAYER_1
 40
0.2646
 41
0.2646
 66
1
 10
0
 20
0
 30
0
  0
VERTEX
  8
LAYER_1
 10
126.6797
 20
78.6982
  0
VERTEX
  8
LAYER_1
 10
126.4235
 20
78.9029
  0
VERTEX
  8
LAYER_1
 10
126.2701
 20
79.1591
  0
SEQEND
  0
POLYLINE
  8
LAYER_1
 40
0.2646
 41
0.2646
 66
1
 10
0
 20
0
 30
0
  0
VERTEX
  8
LAYER_1
 10
126.0652
 20
79.415
  0
VERTEX
  8
LAYER_1
 10
126.0138
 20
79.6198
  0
VERTEX
  8
LAYER_1
 10
125.9629
 20
79.876
  0
SEQEND
  0
POLYLINE
  8
LAYER_1
 40
0.2646
 41
0.2646
 66
1
 10
0
 20
0
 30
0
  0
VERTEX
  8
LAYER_1
 10
125.9116
 20
92.7796
  0
VERTEX
  8
LAYER_1
 10
126.014
 20
92.7282
  0
VERTEX
  8
LAYER_1
 10
126.1164
 20
92.5748
  0
SEQEND
  0
POLYLINE
  8
LAYER_1
 40
0.2646
 41
0.2646
 66
1
 10
0
 20
0
 30
0
  0
VERTEX
  8
LAYER_1
 10
143.9358
 20
78.6982
  0
VERTEX
  8
LAYER_1
 10
143.4749
 20
78.6982
  0
SEQEND
  0
POLYLINE
  8
LAYER_1
 40
0.2646
 41
0.2646
 66
1
 10
0
 20
0
 30
0
  0
VERTEX
  8
LAYER_1
 10
143.1678
 20
78.6982
  0
VERTEX
  8
LAYER_1
 10
142.502
 20
78.7496
  0
SEQEND
  0
POLYLINE
  8
LAYER_1
 40
0.2646
 41
0.2646
 66
1
 10
0
 20
0
 30
0
  0
VERTEX
  8
LAYER_1
 10
142.1949
 20
78.7494
  0
VERTEX
  8
LAYER_1
 10
141.5806
 20
78.8008
  0
SEQEND
  0
POLYLINE
  8
LAYER_1
 40
0.2646
 41
0.2646
 66
1
 10
0
 20
0
 30
0
  0
VERTEX
  8
LAYER_1
 10
141.222
 20
78.8006
  0
VERTEX
  8
LAYER_1
 10
140.6077
 20
78.852
  0
SEQEND
  0
POLYLINE
  8
LAYER_1
 40
0.2646
 41
0.2646
 66
1
 10
0
 20
0
 30
0
  0
VERTEX
  8
LAYER_1
 10
140.3003
 20
78.8518
  0
VERTEX
  8
LAYER_1
 10
139.6346
 20
78.9032
  0
SEQEND
  0
POLYLINE
  8
LAYER_1
 40
0.2646
 41
0.2646
 66
1
 10
0
 20
0
 30
0
  0
VERTEX
  8
LAYER_1
 10
139.3274
 20
78.903
  0
VERTEX
  8
LAYER_1
 10
138.7131
 20
78.9544
  0
SEQEND
  0
POLYLINE
  8
LAYER_1
 40
0.2646
 41
0.2646
 66
1
 10
0
 20
0
 30
0
  0
VERTEX
  8
LAYER_1
 10
138.4057
 20
78.9542
  0
VERTEX
  8
LAYER_1
 10
137.7399
 20
78.9542
  0
SEQEND
  0
POLYLINE
  8
LAYER_1
 40
0.2646
 41
0.2646
 66
1
 10
0
 20
0
 30
0
  0
VERTEX
  8
LAYER_1
 10
137.4328
 20
79.0054
  0
VERTEX
  8
LAYER_1
 10
136.8185
 20
79.0054
  0
SEQEND
  0
POLYLINE
  8
LAYER_1
 40
0.2646
 41
0.2646
 66
1
 10
0
 20
0
 30
0
  0
VERTEX
  8
LAYER_1
 10
136.4599
 20
79.0566
  0
VERTEX
  8
LAYER_1
 10
135.8456
 20
79.0566
  0
SEQEND
  0
POLYLINE
  8
LAYER_1
 40
0.2646
 41
0.2646
 66
1
 10
0
 20
0
 30
0
  0
VERTEX
  8
LAYER_1
 10
135.5382
 20
79.1078
  0
VERTEX
  8
LAYER_1
 10
134.9239
 20
79.1078
  0
SEQEND
  0
POLYLINE
  8
LAYER_1
 40
0.2646
 41
0.2646
 66
1
 10
0
 20
0
 30
0
  0
VERTEX
  8
LAYER_1
 10
134.5653
 20
79.1078
  0
VERTEX
  8
LAYER_1
 10
133.951
 20
79.1593
  0
SEQEND
  0
POLYLINE
  8
LAYER_1
 40
0.2646
 41
0.2646
 66
1
 10
0
 20
0
 30
0
  0
VERTEX
  8
LAYER_1
 10
133.6436
 20
79.159
  0
VERTEX
  8
LAYER_1
 10
132.9779
 20
79.2104
  0
SEQEND
  0
POLYLINE
  8
LAYER_1
 40
0.2646
 41
0.2646
 66
1
 10
0
 20
0
 30
0
  0
VERTEX
  8
LAYER_1
 10
132.6707
 20
79.2102
  0
VERTEX
  8
LAYER_1
 10
132.0564
 20
79.2616
  0
SEQEND
  0
POLYLINE
  8
LAYER_1
 40
0.2646
 41
0.2646
 66
1
 10
0
 20
0
 30
0
  0
VERTEX
  8
LAYER_1
 10
131.749
 20
79.2614
  0
VERTEX
  8
LAYER_1
 10
131.0833
 20
79.3128
  0
SEQEND
  0
POLYLINE
  8
LAYER_1
 40
0.2646
 41
0.2646
 66
1
 10
0
 20
0
 30
0
  0
VERTEX
  8
LAYER_1
 10
130.7761
 20
79.3127
  0
VERTEX
  8
LAYER_1
 10
130.1618
 20
79.3641
  0
SEQEND
  0
POLYLINE
  8
LAYER_1
 40
0.2646
 41
0.2646
 66
1
 10
0
 20
0
 30
0
  0
VERTEX
  8
LAYER_1
 10
129.8032
 20
79.3638
  0
VERTEX
  8
LAYER_1
 10
129.1889
 20
79.3638
  0
SEQEND
  0
POLYLINE
  8
LAYER_1
 40
0.2646
 41
0.2646
 66
1
 10
0
 20
0
 30
0
  0
VERTEX
  8
LAYER_1
 10
128.8815
 20
79.415
  0
VERTEX
  8
LAYER_1
 10
128.2158
 20
79.415
  0
SEQEND
  0
POLYLINE
  8
LAYER_1
 40
0.2646
 41
0.2646
 66
1
 10
0
 20
0
 30
0
  0
VERTEX
  8
LAYER_1
 10
127.9086
 20
79.4663
  0
VERTEX
  8
LAYER_1
 10
127.4477
 20
79.4663
  0
SEQEND
  0
POLYLINE
  8
LAYER_1
 40
0.2646
 41
0.2646
 66
1
 10
0
 20
0
 30
0
  0
VERTEX
  8
LAYER_1
 10
128.8303
 20
78.391
  0
VERTEX
  8
LAYER_1
 10
128.3184
 20
78.4424
  0
SEQEND
  0
POLYLINE
  8
LAYER_1
 40
0.2646
 41
0.2646
 66
1
 10
0
 20
0
 30
0
  0
VERTEX
  8
LAYER_1
 10
127.9598
 20
78.4421
  0
VERTEX
  8
LAYER_1
 10
127.3965
 20
78.4936
  0
SEQEND
  0
POLYLINE
  8
LAYER_1
 40
0.2646
 41
0.2646
 66
1
 10
0
 20
0
 30
0
  0
VERTEX
  8
LAYER_1
 10
129.5472
 20
77.5205
  0
VERTEX
  8
LAYER_1
 10
129.5986
 20
77.7252
  0
VERTEX
  8
LAYER_1
 10
129.701
 20
77.879
  0
VERTEX
  8
LAYER_1
 10
129.8543
 20
77.9814
  0
VERTEX
  8
LAYER_1
 10
130.0591
 20
78.0324
  0
SEQEND
  0
POLYLINE
  8
LAYER_1
 40
0.2646
 41
0.2646
 66
1
 10
0
 20
0
 30
0
  0
VERTEX
  8
LAYER_1
 10
128.5743
 20
77.5205
  0
VERTEX
  8
LAYER_1
 10
128.6257
 20
77.9814
  0
VERTEX
  8
LAYER_1
 10
128.8305
 20
78.3909
  0
SEQEND
  0
POLYLINE
  8
LAYER_1
 40
0.2646
 41
0.2646
 66
1
 10
0
 20
0
 30
0
  0
VERTEX
  8
LAYER_1
 10
146.5985
 20
77.0596
  0
VERTEX
  8
LAYER_1
 10
147.0595
 20
77.0596
  0
SEQEND
  0
POLYLINE
  8
LAYER_1
 40
0.2646
 41
0.2646
 66
1
 10
0
 20
0
 30
0
  0
VERTEX
  8
LAYER_1
 10
147.3666
 20
77.0596
  0
VERTEX
  8
LAYER_1
 10
147.8275
 20
77.0596
  0
SEQEND
  0
POLYLINE
  8
LAYER_1
 40
0.2646
 41
0.2646
 66
1
 10
0
 20
0
 30
0
  0
VERTEX
  8
LAYER_1
 10
145.3184
 20
77.6228
  0
VERTEX
  8
LAYER_1
 10
145.3184
 20
77.0595
  0
SEQEND
  0
POLYLINE
  8
LAYER_1
 40
0.2646
 41
0.2646
 66
1
 10
0
 20
0
 30
0
  0
VERTEX
  8
LAYER_1
 10
149.9268
 20
77.6228
  0
VERTEX
  8
LAYER_1
 10
149.9268
 20
77.0595
  0
SEQEND
  0
POLYLINE
  8
LAYER_1
 40
0.2646
 41
0.2646
 66
1
 10
0
 20
0
 30
0
  0
VERTEX
  8
LAYER_1
 10
124.6315
 20
92.2675
  0
VERTEX
  8
LAYER_1
 10
124.6829
 20
92.4723
  0
VERTEX
  8
LAYER_1
 10
124.7853
 20
92.6261
  0
VERTEX
  8
LAYER_1
 10
124.9901
 20
92.7285
  0
VERTEX
  8
LAYER_1
 10
125.0925
 20
92.7794
  0
VERTEX
  8
LAYER_1
 10
125.1434
 20
92.7794
  0
VERTEX
  8
LAYER_1
 10
125.2458
 20
92.7794
  0
VERTEX
  8
LAYER_1
 10
125.553
 20
92.7794
  0
VERTEX
  8
LAYER_1
 10
125.9115
 20
92.7794
  0
VERTEX
  8
LAYER_1
 10
169.3846
 20
92.7794
  0
VERTEX
  8
LAYER_1
 10
169.7432
 20
92.7794
  0
VERTEX
  8
LAYER_1
 10
169.9994
 20
92.7794
  0
VERTEX
  8
LAYER_1
 10
170.1018
 20
92.7794
  0
VERTEX
  8
LAYER_1
 10
170.1527
 20
92.7794
  0
VERTEX
  8
LAYER_1
 10
170.2551
 20
92.7285
  0
VERTEX
  8
LAYER_1
 10
170.4599
 20
92.6261
  0
VERTEX
  8
LAYER_1
 10
170.5627
 20
92.4723
  0
VERTEX
  8
LAYER_1
 10
170.6137
 20
92.2675
  0
SEQEND
  0
POLYLINE
  8
LAYER_1
 40
0.1058
 41
0.1058
 66
1
 10
0
 20
0
 30
0
  0
VERTEX
  8
LAYER_1
 10
147.6226
 20
76.2234
  0
VERTEX
  8
LAYER_1
 10
147.6226
 20
101.4449
  0
SEQEND
  0
POLYLINE
  8
LAYER_1
 40
0.1058
 41
0.1058
 66
1
 10
0
 20
0
 30
0
  0
VERTEX
  8
LAYER_1
 10
148.2371
 20
101.3423
  0
VERTEX
  8
LAYER_1
 10
163.248
 20
101.3423
  0
SEQEND
  0
POLYLINE
  8
LAYER_1
 40
0.1058
 41
0.1058
 66
1
 10
0
 20
0
 30
0
  0
VERTEX
  8
LAYER_1
 10
169.9992
 20
101.3423
  0
VERTEX
  8
LAYER_1
 10
161.96
 20
101.3423
  0
SEQEND
  0
POLYLINE
  8
LAYER_1
 40
0.05
 41
0.05
 66
1
 10
0
 20
0
 30
0
 70
1
  0
VERTEX
  8
LAYER_1
 10
147.6225
 20
101.3425
  0
VERTEX
  8
LAYER_1
 10
148.2372
 20
101.2401
  0
VERTEX
  8
LAYER_1
 10
148.2372
 20
101.4445
  0
SEQEND
  0
POLYLINE
  8
LAYER_1
 66
1
 10
0
 20
0
 30
0
 70
1
  0
VERTEX
  8
LAYER_1
 10
148.2371
 20
101.4447
  0
VERTEX
  8
LAYER_1
 10
148.2371
 20
101.2399
  0
VERTEX
  8
LAYER_1
 10
147.6228
 20
101.3423
  0
SEQEND
  0
POLYLINE
  8
LAYER_1
 40
0.05
 41
0.05
 66
1
 10
0
 20
0
 30
0
 70
1
  0
VERTEX
  8
LAYER_1
 10
169.9994
 20
101.24
  0
VERTEX
  8
LAYER_1
 10
170.6137
 20
101.3424
  0
VERTEX
  8
LAYER_1
 10
169.9994
 20
101.4448
  0
SEQEND
  0
POLYLINE
  8
LAYER_1
 66
1
 10
0
 20
0
 30
0
 70
1
  0
VERTEX
  8
LAYER_1
 10
169.9992
 20
101.4447
  0
VERTEX
  8
LAYER_1
 10
169.9992
 20
101.2399
  0
VERTEX
  8
LAYER_1
 10
170.6135
 20
101.3423
  0
SEQEND
  0
TEXT
  8
LAYER_1
 10
155.5698
 20
102.1603
 11
155.5698
 21
102.1603
 40
4.6934
 41
0.5
  1
230
  0
POLYLINE
  8
LAYER_1
 40
0.1058
 41
0.1058
 66
1
 10
0
 20
0
 30
0
  0
VERTEX
  8
LAYER_1
 10
147.6226
 20
101.3423
  0
VERTEX
  8
LAYER_1
 10
147.6226
 20
78.6814
  0
SEQEND
  0
POLYLINE
  8
LAYER_1
 40
0.1058
 41
0.1058
 66
1
 10
0
 20
0
 30
0
  0
VERTEX
  8
LAYER_1
 10
124.6315
 20
93.3771
  0
VERTEX
  8
LAYER_1
 10
124.6315
 20
106.053
  0
SEQEND
  0
POLYLINE
  8
LAYER_1
 40
0.1058
 41
0.1058
 66
1
 10
0
 20
0
 30
0
  0
VERTEX
  8
LAYER_1
 10
170.5625
 20
93.3771
  0
VERTEX
  8
LAYER_1
 10
170.5625
 20
106.053
  0
SEQEND
  0
POLYLINE
  8
LAYER_1
 40
0.1058
 41
0.1058
 66
1
 10
0
 20
0
 30
0
  0
VERTEX
  8
LAYER_1
 10
125.1948
 20
105.8996
  0
VERTEX
  8
LAYER_1
 10
144.7038
 20
105.8996
  0
SEQEND
  0
POLYLINE
  8
LAYER_1
 40
0.1058
 41
0.1058
 66
1
 10
0
 20
0
 30
0
  0
VERTEX
  8
LAYER_1
 10
169.9481
 20
105.8996
  0
VERTEX
  8
LAYER_1
 10
143.2932
 20
105.8996
  0
SEQEND
  0
POLYLINE
  8
LAYER_1
 40
0.05
 41
0.05
 66
1
 10
0
 20
0
 30
0
 70
1
  0
VERTEX
  8
LAYER_1
 10
124.6316
 20
105.8996
  0
VERTEX
  8
LAYER_1
 10
125.1949
 20
105.7972
  0
VERTEX
  8
LAYER_1
 10
125.1949
 20
106.002
  0
SEQEND
  0
POLYLINE
  8
LAYER_1
 66
1
 10
0
 20
0
 30
0
 70
1
  0
VERTEX
  8
LAYER_1
 10
125.1948
 20
106.002
  0
VERTEX
  8
LAYER_1
 10
125.1948
 20
105.7972
  0
VERTEX
  8
LAYER_1
 10
124.6314
 20
105.8996
  0
SEQEND
  0
POLYLINE
  8
LAYER_1
 40
0.05
 41
0.05
 66
1
 10
0
 20
0
 30
0
 70
1
  0
VERTEX
  8
LAYER_1
 10
169.948
 20
105.7971
  0
VERTEX
  8
LAYER_1
 10
170.5627
 20
105.8995
  0
VERTEX
  8
LAYER_1
 10
169.948
 20
106.0023
  0
SEQEND
  0
POLYLINE
  8
LAYER_1
 66
1
 10
0
 20
0
 30
0
 70
1
  0
VERTEX
  8
LAYER_1
 10
169.9481
 20
106.002
  0
VERTEX
  8
LAYER_1
 10
169.9481
 20
105.7972
  0
VERTEX
  8
LAYER_1
 10
170.5624
 20
105.8996
  0
SEQEND
  0
TEXT
  8
LAYER_1
 10
143.4222
 20
107.3488
 11
143.4222
 21
107.3488
 40
4.6934
 41
0.5
  1
460
  0
POLYLINE
  8
LAYER_1
 40
0.1058
 41
0.1058
 66
1
 10
0
 20
0
 30
0
  0
VERTEX
  8
LAYER_1
 10
159.6046
 20
92.097
  0
VERTEX
  8
LAYER_1
 10
159.6046
 20
96.4495
  0
SEQEND
  0
POLYLINE
  8
LAYER_1
 40
0.1058
 41
0.1058
 66
1
 10
0
 20
0
 30
0
  0
VERTEX
  8
LAYER_1
 10
170.6137
 20
93.3771
  0
VERTEX
  8
LAYER_1
 10
170.6137
 20
96.4496
  0
SEQEND
  0
POLYLINE
  8
LAYER_1
 40
0.1058
 41
0.1058
 66
1
 10
0
 20
0
 30
0
  0
VERTEX
  8
LAYER_1
 10
160.2191
 20
96.347
  0
VERTEX
  8
LAYER_1
 10
168.5692
 20
96.347
  0
SEQEND
  0
POLYLINE
  8
LAYER_1
 40
0.1058
 41
0.1058
 66
1
 10
0
 20
0
 30
0
  0
VERTEX
  8
LAYER_1
 10
169.9992
 20
96.347
  0
VERTEX
  8
LAYER_1
 10
167.8487
 20
96.347
  0
SEQEND
  0
POLYLINE
  8
LAYER_1
 40
0.05
 41
0.05
 66
1
 10
0
 20
0
 30
0
 70
1
  0
VERTEX
  8
LAYER_1
 10
159.6048
 20
96.3469
  0
VERTEX
  8
LAYER_1
 10
160.2191
 20
96.245
  0
VERTEX
  8
LAYER_1
 10
160.2191
 20
96.4493
  0
SEQEND
  0
POLYLINE
  8
LAYER_1
 66
1
 10
0
 20
0
 30
0
 70
1
  0
VERTEX
  8
LAYER_1
 10
160.2191
 20
96.4494
  0
VERTEX
  8
LAYER_1
 10
160.2191
 20
96.2447
  0
VERTEX
  8
LAYER_1
 10
159.6048
 20
96.3471
  0
SEQEND
  0
POLYLINE
  8
LAYER_1
 40
0.05
 41
0.05
 66
1
 10
0
 20
0
 30
0
 70
1
  0
VERTEX
  8
LAYER_1
 10
169.9994
 20
96.2448
  0
VERTEX
  8
LAYER_1
 10
170.6137
 20
96.3467
  0
VERTEX
  8
LAYER_1
 10
169.9994
 20
96.4496
  0
SEQEND
  0
POLYLINE
  8
LAYER_1
 66
1
 10
0
 20
0
 30
0
 70
1
  0
VERTEX
  8
LAYER_1
 10
169.9992
 20
96.4494
  0
VERTEX
  8
LAYER_1
 10
169.9992
 20
96.2447
  0
VERTEX
  8
LAYER_1
 10
170.6135
 20
96.3471
  0
SEQEND
  0
TEXT
  8
LAYER_1
 10
161.5886
 20
97.1221
 11
161.5886
 21
97.1221
 40
4.6934
 41
0.5
  1
100
  0
POLYLINE
  8
LAYER_1
 40
0.1058
 41
0.1058
 66
1
 10
0
 20
0
 30
0
  0
VERTEX
  8
LAYER_1
 10
159.6046
 20
96.3982
  0
VERTEX
  8
LAYER_1
 10
159.6046
 20
96.4497
  0
SEQEND
  0
POLYLINE
  8
LAYER_1
 40
0.1058
 41
0.1058
 66
1
 10
0
 20
0
 30
0
  0
VERTEX
  8
LAYER_1
 10
126.1164
 20
96.3982
  0
VERTEX
  8
LAYER_1
 10
126.1164
 20
96.4497
  0
SEQEND
  0
POLYLINE
  8
LAYER_1
 40
0.1058
 41
0.1058
 66
1
 10
0
 20
0
 30
0
  0
VERTEX
  8
LAYER_1
 10
159.0414
 20
96.347
  0
VERTEX
  8
LAYER_1
 10
145.6767
 20
96.347
  0
SEQEND
  0
POLYLINE
  8
LAYER_1
 40
0.1058
 41
0.1058
 66
1
 10
0
 20
0
 30
0
  0
VERTEX
  8
LAYER_1
 10
126.6797
 20
96.347
  0
VERTEX
  8
LAYER_1
 10
145.6767
 20
96.347
  0
SEQEND
  0
POLYLINE
  8
LAYER_1
 40
0.05
 41
0.05
 66
1
 10
0
 20
0
 30
0
 70
1
  0
VERTEX
  8
LAYER_1
 10
159.0415
 20
96.2448
  0
VERTEX
  8
LAYER_1
 10
159.6048
 20
96.3467
  0
VERTEX
  8
LAYER_1
 10
159.0415
 20
96.4496
  0
SEQEND
  0
POLYLINE
  8
LAYER_1
 66
1
 10
0
 20
0
 30
0
 70
1
  0
VERTEX
  8
LAYER_1
 10
159.0414
 20
96.4494
  0
VERTEX
  8
LAYER_1
 10
159.0414
 20
96.2447
  0
VERTEX
  8
LAYER_1
 10
159.6047
 20
96.3471
  0
SEQEND
  0
POLYLINE
  8
LAYER_1
 40
0.05
 41
0.05
 66
1
 10
0
 20
0
 30
0
 70
1
  0
VERTEX
  8
LAYER_1
 10
126.1163
 20
96.3469
  0
VERTEX
  8
LAYER_1
 10
126.6796
 20
96.245
  0
VERTEX
  8
LAYER_1
 10
126.6796
 20
96.4493
  0
SEQEND
  0
POLYLINE
  8
LAYER_1
 66
1
 10
0
 20
0
 30
0
 70
1
  0
VERTEX
  8
LAYER_1
 10
126.6797
 20
96.4494
  0
VERTEX
  8
LAYER_1
 10
126.6797
 20
96.2447
  0
VERTEX
  8
LAYER_1
 10
126.1163
 20
96.3471
  0
SEQEND
  0
TEXT
  8
LAYER_1
 10
136.0721
 20
97.6553
 11
136.0721
 21
97.6553
 40
4.6934
 41
0.5
  1
335
  0
POLYLINE
  8
LAYER_1
 40
0.1058
 41
0.1058
 66
1
 10
0
 20
0
 30
0
  0
VERTEX
  8
LAYER_1
 10
126.1164
 20
93.6332
  0
VERTEX
  8
LAYER_1
 10
126.1164
 20
96.347
  0
SEQEND
  0
POLYLINE
  8
LAYER_1
 40
0.1058
 41
0.1058
 66
1
 10
0
 20
0
 30
0
  0
VERTEX
  8
LAYER_1
 10
159.6046
 20
92.0458
  0
VERTEX
  8
LAYER_1
 10
159.6046
 20
96.3469
  0
SEQEND
  0
POLYLINE
  8
LAYER_1
 40
0.1058
 41
0.1058
 66
1
 10
0
 20
0
 30
0
  0
VERTEX
  8
LAYER_1
 10
123.6299
 20
92.7796
  0
VERTEX
  8
LAYER_1
 10
118.0484
 20
92.7796
  0
SEQEND
  0
POLYLINE
  8
LAYER_1
 40
0.1058
 41
0.1058
 66
1
 10
0
 20
0
 30
0
  0
VERTEX
  8
LAYER_1
 10
123.3739
 20
77.0596
  0
VERTEX
  8
LAYER_1
 10
118.0485
 20
77.0596
  0
SEQEND
  0
POLYLINE
  8
LAYER_1
 40
0.1058
 41
0.1058
 66
1
 10
0
 20
0
 30
0
  0
VERTEX
  8
LAYER_1
 10
118.151
 20
92.1651
  0
VERTEX
  8
LAYER_1
 10
118.151
 20
81.66
  0
SEQEND
  0
POLYLINE
  8
LAYER_1
 40
0.1058
 41
0.1058
 66
1
 10
0
 20
0
 30
0
  0
VERTEX
  8
LAYER_1
 10
118.151
 20
77.6741
  0
VERTEX
  8
LAYER_1
 10
118.151
 20
82.1799
  0
SEQEND
  0
POLYLINE
  8
LAYER_1
 40
0.05
 41
0.05
 66
1
 10
0
 20
0
 30
0
 70
1
  0
VERTEX
  8
LAYER_1
 10
118.0486
 20
92.1651
  0
VERTEX
  8
LAYER_1
 10
118.2534
 20
92.1651
  0
VERTEX
  8
LAYER_1
 10
118.151
 20
92.7794
  0
SEQEND
  0
POLYLINE
  8
LAYER_1
 66
1
 10
0
 20
0
 30
0
 70
1
  0
VERTEX
  8
LAYER_1
 10
118.0486
 20
92.1651
  0
VERTEX
  8
LAYER_1
 10
118.2534
 20
92.1651
  0
VERTEX
  8
LAYER_1
 10
118.151
 20
92.7794
  0
SEQEND
  0
POLYLINE
  8
LAYER_1
 40
0.05
 41
0.05
 66
1
 10
0
 20
0
 30
0
 70
1
  0
VERTEX
  8
LAYER_1
 10
118.0486
 20
77.6741
  0
VERTEX
  8
LAYER_1
 10
118.151
 20
77.0598
  0
VERTEX
  8
LAYER_1
 10
118.2534
 20
77.6741
  0
SEQEND
  0
POLYLINE
  8
LAYER_1
 66
1
 10
0
 20
0
 30
0
 70
1
  0
VERTEX
  8
LAYER_1
 10
118.0486
 20
77.6741
  0
VERTEX
  8
LAYER_1
 10
118.2534
 20
77.6741
  0
VERTEX
  8
LAYER_1
 10
118.151
 20
77.0598
  0
SEQEND
  0
TEXT
  8
LAYER_1
 10
116.9371
 20
82.3665
 11
116.9371
 21
82.3665
 40
4.6934
 41
0.5
 50
89.99999999
  1
155
  0
POLYLINE
  8
LAYER_1
 40
0.1058
 41
0.1058
 66
1
 10
0
 20
0
 30
0
  0
VERTEX
  8
LAYER_1
 10
118.151
 20
77.0596
  0
VERTEX
  8
LAYER_1
 10
123.4764
 20
77.0596
  0
SEQEND
  0
POLYLINE
  8
LAYER_1
 40
0.1058
 41
0.1058
 66
1
 10
0
 20
0
 30
0
  0
VERTEX
  8
LAYER_1
 10
118.151
 20
92.7796
  0
VERTEX
  8
LAYER_1
 10
123.6812
 20
92.7796
  0
SEQEND
  0
POLYLINE
  8
LAYER_1
 40
0.1058
 41
0.1058
 66
1
 10
0
 20
0
 30
0
  0
VERTEX
  8
LAYER_1
 10
124.6315
 20
105.8996
  0
VERTEX
  8
LAYER_1
 10
124.6315
 20
93.3261
  0
SEQEND
  0
POLYLINE
  8
LAYER_1
 40
0.2646
 41
0.2646
 66
1
 10
0
 20
0
 30
0
  0
VERTEX
  8
LAYER_1
 10
147.5714
 20
78.6982
  0
VERTEX
  8
LAYER_1
 10
143.3727
 20
78.6982
  0
SEQEND
  0
POLYLINE
  8
LAYER_1
 40
0.2646
 41
0.2646
 66
1
 10
0
 20
0
 30
0
  0
VERTEX
  8
LAYER_1
 10
147.5714
 20
92.7796
  0
VERTEX
  8
LAYER_1
 10
143.3727
 20
92.7796
  0
SEQEND
  0
POLYLINE
  8
LAYER_1
 40
0.1058
 41
0.1058
 66
1
 10
0
 20
0
 30
0
  0
VERTEX
  8
LAYER_1
 10
143.5262
 20
79.2614
  0
VERTEX
  8
LAYER_1
 10
143.5262
 20
88.6437
  0
SEQEND
  0
POLYLINE
  8
LAYER_1
 40
0.1058
 41
0.1058
 66
1
 10
0
 20
0
 30
0
  0
VERTEX
  8
LAYER_1
 10
143.5262
 20
92.1651
  0
VERTEX
  8
LAYER_1
 10
143.5262
 20
88.427
  0
SEQEND
  0
POLYLINE
  8
LAYER_1
 40
0.05
 41
0.05
 66
1
 10
0
 20
0
 30
0
 70
1
  0
VERTEX
  8
LAYER_1
 10
143.424
 20
79.2613
  0
VERTEX
  8
LAYER_1
 10
143.5259
 20
78.698
  0
VERTEX
  8
LAYER_1
 10
143.6288
 20
79.2613
  0
SEQEND
  0
POLYLINE
  8
LAYER_1
 66
1
 10
0
 20
0
 30
0
 70
1
  0
VERTEX
  8
LAYER_1
 10
143.4238
 20
79.2614
  0
VERTEX
  8
LAYER_1
 10
143.6286
 20
79.2614
  0
VERTEX
  8
LAYER_1
 10
143.5262
 20
78.6981
  0
SEQEND
  0
POLYLINE
  8
LAYER_1
 40
0.05
 41
0.05
 66
1
 10
0
 20
0
 30
0
 70
1
  0
VERTEX
  8
LAYER_1
 10
143.424
 20
92.1651
  0
VERTEX
  8
LAYER_1
 10
143.6288
 20
92.1651
  0
VERTEX
  8
LAYER_1
 10
143.5259
 20
92.7794
  0
SEQEND
  0
POLYLINE
  8
LAYER_1
 66
1
 10
0
 20
0
 30
0
 70
1
  0
VERTEX
  8
LAYER_1
 10
143.4238
 20
92.1651
  0
VERTEX
  8
LAYER_1
 10
143.6286
 20
92.1651
  0
VERTEX
  8
LAYER_1
 10
143.5262
 20
92.7794
  0
SEQEND
  0
TEXT
  8
LAYER_1
 10
142.0347
 20
82.6927
 11
142.0347
 21
82.6927
 40
4.6934
 41
0.5
 50
89.99999999
  1
140
  0
POLYLINE
  8
LAYER_1
 40
0.2646
 41
0.2646
 66
1
 10
0
 20
0
 30
0
  0
VERTEX
  8
LAYER_1
 10
143.475
 20
77.3668
  0
VERTEX
  8
LAYER_1
 10
143.1164
 20
77.4183
  0
SEQEND
  0
POLYLINE
  8
LAYER_1
 40
0.2646
 41
0.2646
 66
1
 10
0
 20
0
 30
0
  0
VERTEX
  8
LAYER_1
 10
142.8093
 20
77.418
  0
VERTEX
  8
LAYER_1
 10
142.1436
 20
77.418
  0
SEQEND
  0
POLYLINE
  8
LAYER_1
 40
0.2646
 41
0.2646
 66
1
 10
0
 20
0
 30
0
  0
VERTEX
  8
LAYER_1
 10
141.8364
 20
77.4693
  0
VERTEX
  8
LAYER_1
 10
141.2221
 20
77.4693
  0
SEQEND
  0
POLYLINE
  8
LAYER_1
 40
0.2646
 41
0.2646
 66
1
 10
0
 20
0
 30
0
  0
VERTEX
  8
LAYER_1
 10
140.9147
 20
77.5205
  0
VERTEX
  8
LAYER_1
 10
140.249
 20
77.5205
  0
SEQEND
  0
POLYLINE
  8
LAYER_1
 40
0.2646
 41
0.2646
 66
1
 10
0
 20
0
 30
0
  0
VERTEX
  8
LAYER_1
 10
139.9419
 20
77.5717
  0
VERTEX
  8
LAYER_1
 10
139.3276
 20
77.5717
  0
SEQEND
  0
POLYLINE
  8
LAYER_1
 40
0.2646
 41
0.2646
 66
1
 10
0
 20
0
 30
0
  0
VERTEX
  8
LAYER_1
 10
138.9689
 20
77.5717
  0
VERTEX
  8
LAYER_1
 10
138.3546
 20
77.6231
  0
SEQEND
  0
POLYLINE
  8
LAYER_1
 40
0.2646
 41
0.2646
 66
1
 10
0
 20
0
 30
0
  0
VERTEX
  8
LAYER_1
 10
138.0472
 20
77.6228
  0
VERTEX
  8
LAYER_1
 10
137.3815
 20
77.6743
  0
SEQEND
  0
POLYLINE
  8
LAYER_1
 40
0.2646
 41
0.2646
 66
1
 10
0
 20
0
 30
0
  0
VERTEX
  8
LAYER_1
 10
137.0744
 20
77.6741
  0
VERTEX
  8
LAYER_1
 10
136.46
 20
77.7255
  0
SEQEND
  0
POLYLINE
  8
LAYER_1
 40
0.2646
 41
0.2646
 66
1
 10
0
 20
0
 30
0
  0
VERTEX
  8
LAYER_1
 10
136.1527
 20
77.7253
  0
VERTEX
  8
LAYER_1
 10
135.4869
 20
77.7767
  0
SEQEND
  0
POLYLINE
  8
LAYER_1
 40
0.2646
 41
0.2646
 66
1
 10
0
 20
0
 30
0
  0
VERTEX
  8
LAYER_1
 10
135.1798
 20
77.7765
  0
VERTEX
  8
LAYER_1
 10
134.5655
 20
77.8279
  0
SEQEND
  0
POLYLINE
  8
LAYER_1
 40
0.2646
 41
0.2646
 66
1
 10
0
 20
0
 30
0
  0
VERTEX
  8
LAYER_1
 10
134.2581
 20
77.8277
  0
VERTEX
  8
LAYER_1
 10
133.5923
 20
77.8277
  0
SEQEND
  0
POLYLINE
  8
LAYER_1
 40
0.2646
 41
0.2646
 66
1
 10
0
 20
0
 30
0
  0
VERTEX
  8
LAYER_1
 10
133.2852
 20
77.8789
  0
VERTEX
  8
LAYER_1
 10
132.6709
 20
77.8789
  0
SEQEND
  0
POLYLINE
  8
LAYER_1
 40
0.2646
 41
0.2646
 66
1
 10
0
 20
0
 30
0
  0
VERTEX
  8
LAYER_1
 10
132.3123
 20
77.9301
  0
VERTEX
  8
LAYER_1
 10
131.698
 20
77.9301
  0
SEQEND
  0
POLYLINE
  8
LAYER_1
 40
0.2646
 41
0.2646
 66
1
 10
0
 20
0
 30
0
  0
VERTEX
  8
LAYER_1
 10
131.3906
 20
77.9301
  0
VERTEX
  8
LAYER_1
 10
130.7248
 20
77.9815
  0
SEQEND
  0
POLYLINE
  8
LAYER_1
 40
0.2646
 41
0.2646
 66
1
 10
0
 20
0
 30
0
  0
VERTEX
  8
LAYER_1
 10
130.4177
 20
77.9813
  0
VERTEX
  8
LAYER_1
 10
130.0591
 20
78.0327
  0
SEQEND
  0
POLYLINE
  8
LAYER_1
 40
0.1058
 41
0.1058
 66
1
 10
0
 20
0
 30
0
  0
VERTEX
  8
LAYER_1
 10
24.2183
 20
137.3225
  0
VERTEX
  8
LAYER_1
 10
24.2183
 20
131.9971
  0
SEQEND
  0
POLYLINE
  8
LAYER_1
 40
0.1058
 41
0.1058
 66
1
 10
0
 20
0
 30
0
  0
VERTEX
  8
LAYER_1
 10
109.2187
 20
137.3225
  0
VERTEX
  8
LAYER_1
 10
109.2187
 20
131.9971
  0
SEQEND
  0
POLYLINE
  8
LAYER_1
 40
0.1058
 41
0.1058
 66
1
 10
0
 20
0
 30
0
  0
VERTEX
  8
LAYER_1
 10
24.8327
 20
132.1508
  0
VERTEX
  8
LAYER_1
 10
63.9023
 20
132.1508
  0
SEQEND
  0
POLYLINE
  8
LAYER_1
 40
0.1058
 41
0.1058
 66
1
 10
0
 20
0
 30
0
  0
VERTEX
  8
LAYER_1
 10
108.6043
 20
132.1508
  0
VERTEX
  8
LAYER_1
 10
63.3713
 20
132.1508
  0
SEQEND
  0
POLYLINE
  8
LAYER_1
 40
0.05
 41
0.05
 66
1
 10
0
 20
0
 30
0
 70
1
  0
VERTEX
  8
LAYER_1
 10
24.2181
 20
132.1507
  0
VERTEX
  8
LAYER_1
 10
24.8328
 20
132.0483
  0
VERTEX
  8
LAYER_1
 10
24.8328
 20
132.2021
  0
SEQEND
  0
POLYLINE
  8
LAYER_1
 66
1
 10
0
 20
0
 30
0
 70
1
  0
VERTEX
  8
LAYER_1
 10
24.8327
 20
132.202
  0
VERTEX
  8
LAYER_1
 10
24.8327
 20
132.0482
  0
VERTEX
  8
LAYER_1
 10
24.2184
 20
132.1506
  0
SEQEND
  0
POLYLINE
  8
LAYER_1
 40
0.05
 41
0.05
 66
1
 10
0
 20
0
 30
0
 70
1
  0
VERTEX
  8
LAYER_1
 10
108.6044
 20
132.0482
  0
VERTEX
  8
LAYER_1
 10
109.2187
 20
132.1506
  0
VERTEX
  8
LAYER_1
 10
108.6044
 20
132.202
  0
SEQEND
  0
POLYLINE
  8
LAYER_1
 66
1
 10
0
 20
0
 30
0
 70
1
  0
VERTEX
  8
LAYER_1
 10
108.6043
 20
132.202
  0
VERTEX
  8
LAYER_1
 10
108.6043
 20
132.0482
  0
VERTEX
  8
LAYER_1
 10
109.2186
 20
132.1506
  0
SEQEND
  0
TEXT
  8
LAYER_1
 10
63.7917
 20
132.8181
 11
63.7917
 21
132.8181
 40
4.6934
 41
0.5
  1
850
  0
POLYLINE
  8
LAYER_1
 40
0.1058
 41
0.1058
 66
1
 10
0
 20
0
 30
0
  0
VERTEX
  8
LAYER_1
 10
78.7005
 20
156.9369
  0
VERTEX
  8
LAYER_1
 10
78.7005
 20
169.9943
  0
SEQEND
  0
POLYLINE
  8
LAYER_1
 40
0.1058
 41
0.1058
 66
1
 10
0
 20
0
 30
0
  0
VERTEX
  8
LAYER_1
 10
25.7032
 20
156.9369
  0
VERTEX
  8
LAYER_1
 10
25.7032
 20
169.9943
  0
SEQEND
  0
POLYLINE
  8
LAYER_1
 40
0.1058
 41
0.1058
 66
1
 10
0
 20
0
 30
0
  0
VERTEX
  8
LAYER_1
 10
78.1372
 20
169.8406
  0
VERTEX
  8
LAYER_1
 10
47.5643
 20
169.8406
  0
SEQEND
  0
POLYLINE
  8
LAYER_1
 40
0.1058
 41
0.1058
 66
1
 10
0
 20
0
 30
0
  0
VERTEX
  8
LAYER_1
 10
26.3177
 20
169.8406
  0
VERTEX
  8
LAYER_1
 10
49.3597
 20
169.8406
  0
SEQEND
  0
POLYLINE
  8
LAYER_1
 40
0.05
 41
0.05
 66
1
 10
0
 20
0
 30
0
 70
1
  0
VERTEX
  8
LAYER_1
 10
78.1372
 20
169.7383
  0
VERTEX
  8
LAYER_1
 10
78.7006
 20
169.8402
  0
VERTEX
  8
LAYER_1
 10
78.1372
 20
169.943
  0
SEQEND
  0
POLYLINE
  8
LAYER_1
 66
1
 10
0
 20
0
 30
0
 70
1
  0
VERTEX
  8
LAYER_1
 10
78.1372
 20
169.943
  0
VERTEX
  8
LAYER_1
 10
78.1372
 20
169.7382
  0
VERTEX
  8
LAYER_1
 10
78.7006
 20
169.8406
  0
SEQEND
  0
POLYLINE
  8
LAYER_1
 40
0.05
 41
0.05
 66
1
 10
0
 20
0
 30
0
 70
1
  0
VERTEX
  8
LAYER_1
 10
25.7032
 20
169.8404
  0
VERTEX
  8
LAYER_1
 10
26.3175
 20
169.7384
  0
VERTEX
  8
LAYER_1
 10
26.3175
 20
169.9428
  0
SEQEND
  0
POLYLINE
  8
LAYER_1
 66
1
 10
0
 20
0
 30
0
 70
1
  0
VERTEX
  8
LAYER_1
 10
26.3177
 20
169.943
  0
VERTEX
  8
LAYER_1
 10
26.3177
 20
169.7382
  0
VERTEX
  8
LAYER_1
 10
25.7033
 20
169.8406
  0
SEQEND
  0
TEXT
  8
LAYER_1
 10
58.2689
 20
166.171
 11
58.2689
 21
166.171
 40
4.6934
 41
0.5
  1
525
  0
POLYLINE
  8
LAYER_1
 40
0.1058
 41
0.1058
 66
1
 10
0
 20
0
 30
0
  0
VERTEX
  8
LAYER_1
 10
52.2787
 20
173.6297
  0
VERTEX
  8
LAYER_1
 10
75.4746
 20
173.6297
  0
SEQEND
  0
POLYLINE
  8
LAYER_1
 40
0.1058
 41
0.1058
 66
1
 10
0
 20
0
 30
0
  0
VERTEX
  8
LAYER_1
 10
52.2787
 20
140.0904
  0
VERTEX
  8
LAYER_1
 10
75.4746
 20
140.0904
  0
SEQEND
  0
POLYLINE
  8
LAYER_1
 40
0.1058
 41
0.1058
 66
1
 10
0
 20
0
 30
0
  0
VERTEX
  8
LAYER_1
 10
75.3722
 20
173.0153
  0
VERTEX
  8
LAYER_1
 10
75.3722
 20
159.702
  0
SEQEND
  0
POLYLINE
  8
LAYER_1
 40
0.1058
 41
0.1058
 66
1
 10
0
 20
0
 30
0
  0
VERTEX
  8
LAYER_1
 10
75.3722
 20
140.7048
  0
VERTEX
  8
LAYER_1
 10
75.3722
 20
161.0461
  0
SEQEND
  0
POLYLINE
  8
LAYER_1
 40
0.05
 41
0.05
 66
1
 10
0
 20
0
 30
0
 70
1
  0
VERTEX
  8
LAYER_1
 10
75.2699
 20
173.0153
  0
VERTEX
  8
LAYER_1
 10
75.4747
 20
173.0153
  0
VERTEX
  8
LAYER_1
 10
75.3719
 20
173.6296
  0
SEQEND
  0
POLYLINE
  8
LAYER_1
 66
1
 10
0
 20
0
 30
0
 70
1
  0
VERTEX
  8
LAYER_1
 10
75.2698
 20
173.0153
  0
VERTEX
  8
LAYER_1
 10
75.4746
 20
173.0153
  0
VERTEX
  8
LAYER_1
 10
75.3722
 20
173.6296
  0
SEQEND
  0
POLYLINE
  8
LAYER_1
 40
0.05
 41
0.05
 66
1
 10
0
 20
0
 30
0
 70
1
  0
VERTEX
  8
LAYER_1
 10
75.2699
 20
140.7048
  0
VERTEX
  8
LAYER_1
 10
75.3719
 20
140.0905
  0
VERTEX
  8
LAYER_1
 10
75.4747
 20
140.7048
  0
SEQEND
  0
POLYLINE
  8
LAYER_1
 66
1
 10
0
 20
0
 30
0
 70
1
  0
VERTEX
  8
LAYER_1
 10
75.2698
 20
140.7048
  0
VERTEX
  8
LAYER_1
 10
75.4746
 20
140.7048
  0
VERTEX
  8
LAYER_1
 10
75.3722
 20
140.0905
  0
SEQEND
  0
TEXT
  8
LAYER_1
 10
73.8325
 20
153.916
 11
73.8325
 21
153.916
 40
4.6934
 41
0.5
 50
89.99999999
  1
335
  0
POLYLINE
  8
LAYER_1
 40
0.1058
 41
0.1058
 66
1
 10
0
 20
0
 30
0
  0
VERTEX
  8
LAYER_1
 10
78.7005
 20
169.7894
  0
VERTEX
  8
LAYER_1
 10
78.7005
 20
169.7379
  0
SEQEND
  0
POLYLINE
  8
LAYER_1
 40
0.1058
 41
0.1058
 66
1
 10
0
 20
0
 30
0
  0
VERTEX
  8
LAYER_1
 10
107.7338
 20
169.7894
  0
VERTEX
  8
LAYER_1
 10
107.7338
 20
169.7379
  0
SEQEND
  0
POLYLINE
  8
LAYER_1
 40
0.1058
 41
0.1058
 66
1
 10
0
 20
0
 30
0
  0
VERTEX
  8
LAYER_1
 10
79.315
 20
169.8406
  0
VERTEX
  8
LAYER_1
 10
97.4321
 20
169.8406
  0
SEQEND
  0
POLYLINE
  8
LAYER_1
 40
0.1058
 41
0.1058
 66
1
 10
0
 20
0
 30
0
  0
VERTEX
  8
LAYER_1
 10
107.1194
 20
169.8406
  0
VERTEX
  8
LAYER_1
 10
96.0591
 20
169.8406
  0
SEQEND
  0
POLYLINE
  8
LAYER_1
 40
0.05
 41
0.05
 66
1
 10
0
 20
0
 30
0
 70
1
  0
VERTEX
  8
LAYER_1
 10
78.7005
 20
169.8404
  0
VERTEX
  8
LAYER_1
 10
79.3148
 20
169.7384
  0
VERTEX
  8
LAYER_1
 10
79.3148
 20
169.9428
  0
SEQEND
  0
POLYLINE
  8
LAYER_1
 66
1
 10
0
 20
0
 30
0
 70
1
  0
VERTEX
  8
LAYER_1
 10
79.315
 20
169.943
  0
VERTEX
  8
LAYER_1
 10
79.315
 20
169.7382
  0
VERTEX
  8
LAYER_1
 10
78.7007
 20
169.8406
  0
SEQEND
  0
POLYLINE
  8
LAYER_1
 40
0.05
 41
0.05
 66
1
 10
0
 20
0
 30
0
 70
1
  0
VERTEX
  8
LAYER_1
 10
107.1193
 20
169.7383
  0
VERTEX
  8
LAYER_1
 10
107.734
 20
169.8402
  0
VERTEX
  8
LAYER_1
 10
107.1193
 20
169.943
  0
SEQEND
  0
POLYLINE
  8
LAYER_1
 66
1
 10
0
 20
0
 30
0
 70
1
  0
VERTEX
  8
LAYER_1
 10
107.1194
 20
169.943
  0
VERTEX
  8
LAYER_1
 10
107.1194
 20
169.7382
  0
VERTEX
  8
LAYER_1
 10
107.7337
 20
169.8406
  0
SEQEND
  0
TEXT
  8
LAYER_1
 10
90.3241
 20
165.2305
 11
90.3241
 21
165.2305
 40
4.6934
 41
0.5
  1
290
  0
POLYLINE
  8
LAYER_1
 40
0.1058
 41
0.1058
 66
1
 10
0
 20
0
 30
0
  0
VERTEX
  8
LAYER_1
 10
52.2787
 20
177.6237
  0
VERTEX
  8
LAYER_1
 10
52.3297
 20
177.6237
  0
SEQEND
  0
POLYLINE
  8
LAYER_1
 40
0.1058
 41
0.1058
 66
1
 10
0
 20
0
 30
0
  0
VERTEX
  8
LAYER_1
 10
52.1763
 20
184.6388
  0
VERTEX
  8
LAYER_1
 10
52.0739
 20
184.6388
  0
SEQEND
  0
POLYLINE
  8
LAYER_1
 40
0.1058
 41
0.1058
 66
1
 10
0
 20
0
 30
0
  0
VERTEX
  8
LAYER_1
 10
44.5095
 20
178.2382
  0
VERTEX
  8
LAYER_1
 10
44.5095
 20
179.2625
  0
SEQEND
  0
POLYLINE
  8
LAYER_1
 40
0.1058
 41
0.1058
 66
1
 10
0
 20
0
 30
0
  0
VERTEX
  8
LAYER_1
 10
44.5095
 20
184.0244
  0
VERTEX
  8
LAYER_1
 10
44.5095
 20
182.9491
  0
SEQEND
  0
POLYLINE
  8
LAYER_1
 40
0.05
 41
0.05
 66
1
 10
0
 20
0
 30
0
 70
1
  0
VERTEX
  8
LAYER_1
 10
44.4071
 20
178.2381
  0
VERTEX
  8
LAYER_1
 10
44.5095
 20
177.6238
  0
VERTEX
  8
LAYER_1
 10
44.6119
 20
178.2381
  0
SEQEND
  0
POLYLINE
  8
LAYER_1
 66
1
 10
0
 20
0
 30
0
 70
1
  0
VERTEX
  8
LAYER_1
 10
44.4071
 20
178.2382
  0
VERTEX
  8
LAYER_1
 10
44.6119
 20
178.2382
  0
VERTEX
  8
LAYER_1
 10
44.5095
 20
177.6239
  0
SEQEND
  0
POLYLINE
  8
LAYER_1
 40
0.05
 41
0.05
 66
1
 10
0
 20
0
 30
0
 70
1
  0
VERTEX
  8
LAYER_1
 10
44.4071
 20
184.0242
  0
VERTEX
  8
LAYER_1
 10
44.6119
 20
184.0242
  0
VERTEX
  8
LAYER_1
 10
44.5095
 20
184.639
  0
SEQEND
  0
POLYLINE
  8
LAYER_1
 66
1
 10
0
 20
0
 30
0
 70
1
  0
VERTEX
  8
LAYER_1
 10
44.4071
 20
184.0244
  0
VERTEX
  8
LAYER_1
 10
44.6119
 20
184.0244
  0
VERTEX
  8
LAYER_1
 10
44.5095
 20
184.6387
  0
SEQEND
  0
TEXT
  8
LAYER_1
 10
43.961
 20
178.1085
 11
43.961
 21
178.1085
 40
4.6934
 41
0.5
 50
89.99999999
  1
70
  0
POLYLINE
  8
LAYER_1
 40
0.1058
 41
0.1058
 66
1
 10
0
 20
0
 30
0
  0
VERTEX
  8
LAYER_1
 10
52.2274
 20
177.675
  0
VERTEX
  8
LAYER_1
 10
52.2274
 20
177.7264
  0
SEQEND
  0
POLYLINE
  8
LAYER_1
 40
0.1058
 41
0.1058
 66
1
 10
0
 20
0
 30
0
  0
VERTEX
  8
LAYER_1
 10
52.7907
 20
177.6237
  0
VERTEX
  8
LAYER_1
 10
54.5317
 20
177.6237
  0
SEQEND
  0
POLYLINE
  8
LAYER_1
 40
0.05
 41
0.05
 66
1
 10
0
 20
0
 30
0
 70
1
  0
VERTEX
  8
LAYER_1
 10
52.2276
 20
177.6238
  0
VERTEX
  8
LAYER_1
 10
52.7909
 20
177.5214
  0
VERTEX
  8
LAYER_1
 10
52.7909
 20
177.7262
  0
SEQEND
  0
POLYLINE
  8
LAYER_1
 66
1
 10
0
 20
0
 30
0
 70
1
  0
VERTEX
  8
LAYER_1
 10
52.7907
 20
177.7261
  0
VERTEX
  8
LAYER_1
 10
52.7907
 20
177.5214
  0
VERTEX
  8
LAYER_1
 10
52.2274
 20
177.6238
  0
SEQEND
  0
POLYLINE
  8
LAYER_1
 40
0.1058
 41
0.1058
 66
1
 10
0
 20
0
 30
0
  0
VERTEX
  8
LAYER_1
 10
52.2274
 20
177.675
  0
VERTEX
  8
LAYER_1
 10
52.2274
 20
177.7264
  0
SEQEND
  0
POLYLINE
  8
LAYER_1
 40
0.1058
 41
0.1058
 66
1
 10
0
 20
0
 30
0
  0
VERTEX
  8
LAYER_1
 10
51.613
 20
177.6237
  0
VERTEX
  8
LAYER_1
 10
49.9234
 20
177.6237
  0
SEQEND
  0
POLYLINE
  8
LAYER_1
  6
AIGENLINE001
 40
0.1058
 41
0.1058
 66
1
 10
0
 20
0
 30
0
 70
128
  0
VERTEX
  8
LAYER_1
 10
49.7278
 20
177.6237
  0
VERTEX
  8
LAYER_1
 10
44.6897
 20
177.6237
  0
SEQEND
  0
POLYLINE
  8
LAYER_1
 40
0.05
 41
0.05
 66
1
 10
0
 20
0
 30
0
 70
1
  0
VERTEX
  8
LAYER_1
 10
51.6129
 20
177.5213
  0
VERTEX
  8
LAYER_1
 10
52.2276
 20
177.6237
  0
VERTEX
  8
LAYER_1
 10
51.6129
 20
177.7265
  0
SEQEND
  0
POLYLINE
  8
LAYER_1
 66
1
 10
0
 20
0
 30
0
 70
1
  0
VERTEX
  8
LAYER_1
 10
51.613
 20
177.7261
  0
VERTEX
  8
LAYER_1
 10
51.613
 20
177.5214
  0
VERTEX
  8
LAYER_1
 10
52.2273
 20
177.6238
  0
SEQEND
  0
POLYLINE
  8
LAYER_1
 40
0.1058
 41
0.1058
 66
1
 10
0
 20
0
 30
0
  0
VERTEX
  8
LAYER_1
 10
18.6177
 20
184.6388
  0
VERTEX
  8
LAYER_1
 10
18.5663
 20
184.6388
  0
SEQEND
  0
POLYLINE
  8
LAYER_1
 40
0.1058
 41
0.1058
 66
1
 10
0
 20
0
 30
0
  0
VERTEX
  8
LAYER_1
 10
52.1763
 20
161.5965
  0
VERTEX
  8
LAYER_1
 10
18.5667
 20
161.5965
  0
SEQEND
  0
POLYLINE
  8
LAYER_1
 40
0.1058
 41
0.1058
 66
1
 10
0
 20
0
 30
0
  0
VERTEX
  8
LAYER_1
 10
18.6689
 20
184.0244
  0
VERTEX
  8
LAYER_1
 10
18.6689
 20
175.9341
  0
SEQEND
  0
POLYLINE
  8
LAYER_1
 40
0.1058
 41
0.1058
 66
1
 10
0
 20
0
 30
0
  0
VERTEX
  8
LAYER_1
 10
18.6689
 20
162.211
  0
VERTEX
  8
LAYER_1
 10
18.6689
 20
176.7366
  0
SEQEND
  0
POLYLINE
  8
LAYER_1
 40
0.05
 41
0.05
 66
1
 10
0
 20
0
 30
0
 70
1
  0
VERTEX
  8
LAYER_1
 10
18.5664
 20
184.0242
  0
VERTEX
  8
LAYER_1
 10
18.7717
 20
184.0242
  0
VERTEX
  8
LAYER_1
 10
18.6688
 20
184.639
  0
SEQEND
  0
POLYLINE
  8
LAYER_1
 66
1
 10
0
 20
0
 30
0
 70
1
  0
VERTEX
  8
LAYER_1
 10
18.5665
 20
184.0244
  0
VERTEX
  8
LAYER_1
 10
18.7713
 20
184.0244
  0
VERTEX
  8
LAYER_1
 10
18.6689
 20
184.6387
  0
SEQEND
  0
POLYLINE
  8
LAYER_1
 40
0.05
 41
0.05
 66
1
 10
0
 20
0
 30
0
 70
1
  0
VERTEX
  8
LAYER_1
 10
18.5664
 20
162.2109
  0
VERTEX
  8
LAYER_1
 10
18.6688
 20
161.5966
  0
VERTEX
  8
LAYER_1
 10
18.7717
 20
162.2109
  0
SEQEND
  0
POLYLINE
  8
LAYER_1
 66
1
 10
0
 20
0
 30
0
 70
1
  0
VERTEX
  8
LAYER_1
 10
18.5665
 20
162.211
  0
VERTEX
  8
LAYER_1
 10
18.7713
 20
162.211
  0
VERTEX
  8
LAYER_1
 10
18.6689
 20
161.5967
  0
SEQEND
  0
TEXT
  8
LAYER_1
 10
16.8802
 20
174.1401
 11
16.8802
 21
174.1401
 40
4.6934
 41
0.5
 50
89.99999999
  1
230
  0
POLYLINE
  8
LAYER_1
 40
0.1058
 41
0.1058
 66
1
 10
0
 20
0
 30
0
  0
VERTEX
  8
LAYER_1
 10
52.2274
 20
161.5965
  0
VERTEX
  8
LAYER_1
 10
18.6688
 20
161.5965
  0
SEQEND
  0
POLYLINE
  8
LAYER_1
 40
0.1058
 41
0.1058
 66
1
 10
0
 20
0
 30
0
  0
VERTEX
  8
LAYER_1
 10
23.1741
 20
184.6388
  0
VERTEX
  8
LAYER_1
 10
18.6688
 20
184.6388
  0
SEQEND
  0
POLYLINE
  8
LAYER_1
 40
0.1058
 41
0.1058
 66
1
 10
0
 20
0
 30
0
  0
VERTEX
  8
LAYER_1
 10
52.2274
 20
161.5453
  0
VERTEX
  8
LAYER_1
 10
52.2274
 20
156.7833
  0
SEQEND
  0
POLYLINE
  8
LAYER_1
 40
0.1058
 41
0.1058
 66
1
 10
0
 20
0
 30
0
  0
VERTEX
  8
LAYER_1
 10
24.2183
 20
161.5453
  0
VERTEX
  8
LAYER_1
 10
24.2183
 20
156.7833
  0
SEQEND
  0
POLYLINE
  8
LAYER_1
 40
0.1058
 41
0.1058
 66
1
 10
0
 20
0
 30
0
  0
VERTEX
  8
LAYER_1
 10
51.613
 20
156.8856
  0
VERTEX
  8
LAYER_1
 10
33.8934
 20
156.8856
  0
SEQEND
  0
POLYLINE
  8
LAYER_1
 40
0.1058
 41
0.1058
 66
1
 10
0
 20
0
 30
0
  0
VERTEX
  8
LAYER_1
 10
24.8327
 20
156.8856
  0
VERTEX
  8
LAYER_1
 10
35.3811
 20
156.8856
  0
SEQEND
  0
POLYLINE
  8
LAYER_1
 40
0.05
 41
0.05
 66
1
 10
0
 20
0
 30
0
 70
1
  0
VERTEX
  8
LAYER_1
 10
51.6129
 20
156.7834
  0
VERTEX
  8
LAYER_1
 10
52.2276
 20
156.8854
  0
VERTEX
  8
LAYER_1
 10
51.6129
 20
156.9882
  0
SEQEND
  0
POLYLINE
  8
LAYER_1
 66
1
 10
0
 20
0
 30
0
 70
1
  0
VERTEX
  8
LAYER_1
 10
51.613
 20
156.9881
  0
VERTEX
  8
LAYER_1
 10
51.613
 20
156.7833
  0
VERTEX
  8
LAYER_1
 10
52.2273
 20
156.8857
  0
SEQEND
  0
POLYLINE
  8
LAYER_1
 40
0.05
 41
0.05
 66
1
 10
0
 20
0
 30
0
 70
1
  0
VERTEX
  8
LAYER_1
 10
24.2181
 20
156.8855
  0
VERTEX
  8
LAYER_1
 10
24.8328
 20
156.7836
  0
VERTEX
  8
LAYER_1
 10
24.8328
 20
156.9879
  0
SEQEND
  0
POLYLINE
  8
LAYER_1
 66
1
 10
0
 20
0
 30
0
 70
1
  0
VERTEX
  8
LAYER_1
 10
24.8327
 20
156.9881
  0
VERTEX
  8
LAYER_1
 10
24.8327
 20
156.7833
  0
VERTEX
  8
LAYER_1
 10
24.2184
 20
156.8857
  0
SEQEND
  0
TEXT
  8
LAYER_1
 10
35.3297
 20
152.4095
 11
35.3297
 21
152.4095
 40
4.6934
 41
0.5
  1
290
  0
POLYLINE
  8
LAYER_1
 40
0.1058
 41
0.1058
 66
1
 10
0
 20
0
 30
0
  0
VERTEX
  8
LAYER_1
 10
52.2274
 20
156.8856
  0
VERTEX
  8
LAYER_1
 10
52.2274
 20
161.5967
  0
SEQEND
  0
POLYLINE
  8
LAYER_1
 40
0.1058
 41
0.1058
 66
1
 10
0
 20
0
 30
0
  0
VERTEX
  8
LAYER_1
 10
24.2185
 20
137.3737
  0
VERTEX
  8
LAYER_1
 10
24.2185
 20
132.1507
  0
SEQEND
  0
POLYLINE
  8
LAYER_1
 40
0.1058
 41
0.1058
 66
1
 10
0
 20
0
 30
0
  0
VERTEX
  8
LAYER_1
 10
109.2185
 20
137.3737
  0
VERTEX
  8
LAYER_1
 10
109.2185
 20
132.1507
  0
SEQEND
  0
POLYLINE
  8
LAYER_1
 40
0.1058
 41
0.1058
 66
1
 10
0
 20
0
 30
0
  0
VERTEX
  8
LAYER_1
 10
110.2368
 20
184.6388
  0
VERTEX
  8
LAYER_1
 10
116.2279
 20
184.6388
  0
SEQEND
  0
POLYLINE
  8
LAYER_1
 40
0.1058
 41
0.1058
 66
1
 10
0
 20
0
 30
0
  0
VERTEX
  8
LAYER_1
 10
110.2368
 20
138.6054
  0
VERTEX
  8
LAYER_1
 10
116.2279
 20
138.6054
  0
SEQEND
  0
POLYLINE
  8
LAYER_1
 40
0.1058
 41
0.1058
 66
1
 10
0
 20
0
 30
0
  0
VERTEX
  8
LAYER_1
 10
116.0742
 20
184.0244
  0
VERTEX
  8
LAYER_1
 10
116.0742
 20
164.4638
  0
SEQEND
  0
POLYLINE
  8
LAYER_1
 40
0.1058
 41
0.1058
 66
1
 10
0
 20
0
 30
0
  0
VERTEX
  8
LAYER_1
 10
116.0742
 20
139.2199
  0
VERTEX
  8
LAYER_1
 10
116.0742
 20
158.729
  0
SEQEND
  0
POLYLINE
  8
LAYER_1
 40
0.05
 41
0.05
 66
1
 10
0
 20
0
 30
0
 70
1
  0
VERTEX
  8
LAYER_1
 10
115.9716
 20
184.0242
  0
VERTEX
  8
LAYER_1
 10
116.1768
 20
184.0242
  0
VERTEX
  8
LAYER_1
 10
116.074
 20
184.639
  0
SEQEND
  0
POLYLINE
  8
LAYER_1
 66
1
 10
0
 20
0
 30
0
 70
1
  0
VERTEX
  8
LAYER_1
 10
115.9718
 20
184.0244
  0
VERTEX
  8
LAYER_1
 10
116.1766
 20
184.0244
  0
VERTEX
  8
LAYER_1
 10
116.0742
 20
184.6387
  0
SEQEND
  0
POLYLINE
  8
LAYER_1
 40
0.05
 41
0.05
 66
1
 10
0
 20
0
 30
0
 70
1
  0
VERTEX
  8
LAYER_1
 10
115.9716
 20
139.22
  0
VERTEX
  8
LAYER_1
 10
116.074
 20
138.6053
  0
VERTEX
  8
LAYER_1
 10
116.1768
 20
139.22
  0
SEQEND
  0
POLYLINE
  8
LAYER_1
 66
1
 10
0
 20
0
 30
0
 70
1
  0
VERTEX
  8
LAYER_1
 10
115.9718
 20
139.2199
  0
VERTEX
  8
LAYER_1
 10
116.1766
 20
139.2199
  0
VERTEX
  8
LAYER_1
 10
116.0742
 20
138.6056
  0
SEQEND
  0
TEXT
  8
LAYER_1
 10
117.4429
 20
158.7804
 11
117.4429
 21
158.7804
 40
4.6934
 41
0.5
 50
89.99999999
  1
460
  0
POLYLINE
  8
LAYER_1
 40
0.1058
 41
0.1058
 66
1
 10
0
 20
0
 30
0
  0
VERTEX
  8
LAYER_1
 10
116.0742
 20
138.6054
  0
VERTEX
  8
LAYER_1
 10
110.1345
 20
138.6054
  0
SEQEND
  0
POLYLINE
  8
LAYER_1
 40
0.1058
 41
0.1058
 66
1
 10
0
 20
0
 30
0
  0
VERTEX
  8
LAYER_1
 10
116.0742
 20
184.6388
  0
VERTEX
  8
LAYER_1
 10
110.1345
 20
184.6388
  0
SEQEND
  0
POLYLINE
  8
LAYER_1
 40
0.1058
 41
0.1058
 66
1
 10
0
 20
0
 30
0
  0
VERTEX
  8
LAYER_1
 10
107.7338
 20
140.6024
  0
VERTEX
  8
LAYER_1
 10
107.7338
 20
142.1896
  0
SEQEND
  0
POLYLINE
  8
LAYER_1
 40
0.1058
 41
0.1058
 66
1
 10
0
 20
0
 30
0
  0
VERTEX
  8
LAYER_1
 10
109.2187
 20
139.1687
  0
VERTEX
  8
LAYER_1
 10
109.2187
 20
142.1897
  0
SEQEND
  0
POLYLINE
  8
LAYER_1
 40
0.1058
 41
0.1058
 66
1
 10
0
 20
0
 30
0
  0
VERTEX
  8
LAYER_1
 10
108.3483
 20
142.0874
  0
VERTEX
  8
LAYER_1
 10
108.6045
 20
142.0874
  0
SEQEND
  0
POLYLINE
  8
LAYER_1
 40
0.1058
 41
0.1058
 66
1
 10
0
 20
0
 30
0
  0
VERTEX
  8
LAYER_1
 10
109.2187
 20
142.0874
  0
VERTEX
  8
LAYER_1
 10
109.8331
 20
142.0874
  0
SEQEND
  0
POLYLINE
  8
LAYER_1
 40
0.05
 41
0.05
 66
1
 10
0
 20
0
 30
0
 70
1
  0
VERTEX
  8
LAYER_1
 10
107.734
 20
142.0874
  0
VERTEX
  8
LAYER_1
 10
108.3483
 20
141.985
  0
VERTEX
  8
LAYER_1
 10
108.3483
 20
142.1898
  0
SEQEND
  0
POLYLINE
  8
LAYER_1
 66
1
 10
0
 20
0
 30
0
 70
1
  0
VERTEX
  8
LAYER_1
 10
108.3483
 20
142.1898
  0
VERTEX
  8
LAYER_1
 10
108.3483
 20
141.985
  0
VERTEX
  8
LAYER_1
 10
107.734
 20
142.0874
  0
SEQEND
  0
POLYLINE
  8
LAYER_1
 40
0.05
 41
0.05
 66
1
 10
0
 20
0
 30
0
 70
1
  0
VERTEX
  8
LAYER_1
 10
108.6044
 20
141.9849
  0
VERTEX
  8
LAYER_1
 10
109.2187
 20
142.0872
  0
VERTEX
  8
LAYER_1
 10
108.6044
 20
142.1901
  0
SEQEND
  0
POLYLINE
  8
LAYER_1
 66
1
 10
0
 20
0
 30
0
 70
1
  0
VERTEX
  8
LAYER_1
 10
108.6043
 20
142.1898
  0
VERTEX
  8
LAYER_1
 10
108.6043
 20
141.985
  0
VERTEX
  8
LAYER_1
 10
109.2186
 20
142.0874
  0
SEQEND
  0
TEXT
  8
LAYER_1
 10
109.5259
 20
140.7185
 11
109.5259
 21
140.7185
 40
4.6934
 41
0.5
  1
15
  0
POLYLINE
  8
LAYER_1
 40
0.2646
 41
0.2646
 66
1
 10
0
 20
0
 30
0
  0
VERTEX
  8
LAYER_1
 10
39.2213
 20
88.0175
  0
VERTEX
  8
LAYER_1
 10
39.2213
 20
86.9422
  0
SEQEND
  0
POLYLINE
  8
LAYER_1
 40
0.1058
 41
0.1058
 66
1
 10
0
 20
0
 30
0
  0
VERTEX
  8
LAYER_1
 10
38.6069
 20
87.0958
  0
VERTEX
  8
LAYER_1
 10
35.1763
 20
87.0958
  0
SEQEND
  0
POLYLINE
  8
LAYER_1
 40
0.1058
 41
0.1058
 66
1
 10
0
 20
0
 30
0
  0
VERTEX
  8
LAYER_1
 10
24.8327
 20
87.0958
  0
VERTEX
  8
LAYER_1
 10
28.2123
 20
87.0958
  0
SEQEND
  0
POLYLINE
  8
LAYER_1
 40
0.05
 41
0.05
 66
1
 10
0
 20
0
 30
0
 70
1
  0
VERTEX
  8
LAYER_1
 10
38.607
 20
86.9933
  0
VERTEX
  8
LAYER_1
 10
39.2213
 20
87.0957
  0
VERTEX
  8
LAYER_1
 10
38.607
 20
87.1985
  0
SEQEND
  0
POLYLINE
  8
LAYER_1
 66
1
 10
0
 20
0
 30
0
 70
1
  0
VERTEX
  8
LAYER_1
 10
38.6069
 20
87.1982
  0
VERTEX
  8
LAYER_1
 10
38.6069
 20
86.9935
  0
VERTEX
  8
LAYER_1
 10
39.2212
 20
87.0959
  0
SEQEND
  0
POLYLINE
  8
LAYER_1
 40
0.05
 41
0.05
 66
1
 10
0
 20
0
 30
0
 70
1
  0
VERTEX
  8
LAYER_1
 10
24.2181
 20
87.0958
  0
VERTEX
  8
LAYER_1
 10
24.8328
 20
86.9934
  0
VERTEX
  8
LAYER_1
 10
24.8328
 20
87.1982
  0
SEQEND
  0
POLYLINE
  8
LAYER_1
 66
1
 10
0
 20
0
 30
0
 70
1
  0
VERTEX
  8
LAYER_1
 10
24.8327
 20
87.1982
  0
VERTEX
  8
LAYER_1
 10
24.8327
 20
86.9935
  0
VERTEX
  8
LAYER_1
 10
24.2184
 20
87.0959
  0
SEQEND
  0
TEXT
  8
LAYER_1
 10
28.0588
 20
85.6755
 11
28.0588
 21
85.6755
 40
4.6934
 41
0.5
  1
140
  0
POLYLINE
  8
LAYER_1
 40
0.2646
 41
0.2646
 66
1
 10
0
 20
0
 30
0
  0
VERTEX
  8
LAYER_1
 10
39.2213
 20
87.147
  0
VERTEX
  8
LAYER_1
 10
39.2213
 20
87.1984
  0
SEQEND
  0
POLYLINE
  8
LAYER_1
 40
0.2646
 41
0.2646
 66
1
 10
0
 20
0
 30
0
  0
VERTEX
  8
LAYER_1
 10
66.7185
 20
87.147
  0
VERTEX
  8
LAYER_1
 10
66.7185
 20
87.1984
  0
SEQEND
  0
POLYLINE
  8
LAYER_1
 40
0.1058
 41
0.1058
 66
1
 10
0
 20
0
 30
0
  0
VERTEX
  8
LAYER_1
 10
39.7846
 20
87.0958
  0
VERTEX
  8
LAYER_1
 10
49.4625
 20
87.0958
  0
SEQEND
  0
POLYLINE
  8
LAYER_1
 40
0.1058
 41
0.1058
 66
1
 10
0
 20
0
 30
0
  0
VERTEX
  8
LAYER_1
 10
66.1041
 20
87.0958
  0
VERTEX
  8
LAYER_1
 10
56.4776
 20
87.0958
  0
SEQEND
  0
POLYLINE
  8
LAYER_1
 40
0.05
 41
0.05
 66
1
 10
0
 20
0
 30
0
 70
1
  0
VERTEX
  8
LAYER_1
 10
39.2213
 20
87.0958
  0
VERTEX
  8
LAYER_1
 10
39.7846
 20
86.9934
  0
VERTEX
  8
LAYER_1
 10
39.7846
 20
87.1982
  0
SEQEND
  0
POLYLINE
  8
LAYER_1
 66
1
 10
0
 20
0
 30
0
 70
1
  0
VERTEX
  8
LAYER_1
 10
39.7846
 20
87.1982
  0
VERTEX
  8
LAYER_1
 10
39.7846
 20
86.9935
  0
VERTEX
  8
LAYER_1
 10
39.2213
 20
87.0959
  0
SEQEND
  0
POLYLINE
  8
LAYER_1
 40
0.05
 41
0.05
 66
1
 10
0
 20
0
 30
0
 70
1
  0
VERTEX
  8
LAYER_1
 10
66.1039
 20
86.9933
  0
VERTEX
  8
LAYER_1
 10
66.7186
 20
87.0957
  0
VERTEX
  8
LAYER_1
 10
66.1039
 20
87.1985
  0
SEQEND
  0
POLYLINE
  8
LAYER_1
 66
1
 10
0
 20
0
 30
0
 70
1
  0
VERTEX
  8
LAYER_1
 10
66.1041
 20
87.1982
  0
VERTEX
  8
LAYER_1
 10
66.1041
 20
86.9935
  0
VERTEX
  8
LAYER_1
 10
66.7184
 20
87.0959
  0
SEQEND
  0
TEXT
  8
LAYER_1
 10
49.3089
 20
85.6755
 11
49.3089
 21
85.6755
 40
4.6934
 41
0.5
  1
275
  0
POLYLINE
  8
LAYER_1
 40
0.2646
 41
0.2646
 66
1
 10
0
 20
0
 30
0
  0
VERTEX
  8
LAYER_1
 10
66.7185
 20
87.147
  0
VERTEX
  8
LAYER_1
 10
66.7185
 20
87.1984
  0
SEQEND
  0
POLYLINE
  8
LAYER_1
 40
0.2646
 41
0.2646
 66
1
 10
0
 20
0
 30
0
  0
VERTEX
  8
LAYER_1
 10
96.2127
 20
87.147
  0
VERTEX
  8
LAYER_1
 10
96.2127
 20
87.1984
  0
SEQEND
  0
POLYLINE
  8
LAYER_1
 40
0.1058
 41
0.1058
 66
1
 10
0
 20
0
 30
0
  0
VERTEX
  8
LAYER_1
 10
67.333
 20
87.0958
  0
VERTEX
  8
LAYER_1
 10
80.1492
 20
87.0958
  0
SEQEND
  0
POLYLINE
  8
LAYER_1
 40
0.1058
 41
0.1058
 66
1
 10
0
 20
0
 30
0
  0
VERTEX
  8
LAYER_1
 10
95.5982
 20
87.0958
  0
VERTEX
  8
LAYER_1
 10
88.5382
 20
87.0958
  0
SEQEND
  0
POLYLINE
  8
LAYER_1
 40
0.05
 41
0.05
 66
1
 10
0
 20
0
 30
0
 70
1
  0
VERTEX
  8
LAYER_1
 10
66.7186
 20
87.0958
  0
VERTEX
  8
LAYER_1
 10
67.3329
 20
86.9934
  0
VERTEX
  8
LAYER_1
 10
67.3329
 20
87.1982
  0
SEQEND
  0
POLYLINE
  8
LAYER_1
 66
1
 10
0
 20
0
 30
0
 70
1
  0
VERTEX
  8
LAYER_1
 10
67.333
 20
87.1982
  0
VERTEX
  8
LAYER_1
 10
67.333
 20
86.9935
  0
VERTEX
  8
LAYER_1
 10
66.7187
 20
87.0959
  0
SEQEND
  0
POLYLINE
  8
LAYER_1
 40
0.05
 41
0.05
 66
1
 10
0
 20
0
 30
0
 70
1
  0
VERTEX
  8
LAYER_1
 10
95.5981
 20
86.9933
  0
VERTEX
  8
LAYER_1
 10
96.2129
 20
87.0957
  0
VERTEX
  8
LAYER_1
 10
95.5981
 20
87.1985
  0
SEQEND
  0
POLYLINE
  8
LAYER_1
 66
1
 10
0
 20
0
 30
0
 70
1
  0
VERTEX
  8
LAYER_1
 10
95.5982
 20
87.1982
  0
VERTEX
  8
LAYER_1
 10
95.5982
 20
86.9935
  0
VERTEX
  8
LAYER_1
 10
96.2125
 20
87.0959
  0
SEQEND
  0
TEXT
  8
LAYER_1
 10
80.5099
 20
85.6755
 11
80.5099
 21
85.6755
 40
4.6934
 41
0.5
  1
295
  0
POLYLINE
  8
LAYER_1
 40
0.2646
 41
0.2646
 66
1
 10
0
 20
0
 30
0
  0
VERTEX
  8
LAYER_1
 10
96.2127
 20
86.9934
  0
VERTEX
  8
LAYER_1
 10
96.2127
 20
86.942
  0
SEQEND
  0
POLYLINE
  8
LAYER_1
 40
0.2646
 41
0.2646
 66
1
 10
0
 20
0
 30
0
  0
VERTEX
  8
LAYER_1
 10
109.0652
 20
84.8428
  0
VERTEX
  8
LAYER_1
 10
109.0652
 20
87.1981
  0
SEQEND
  0
POLYLINE
  8
LAYER_1
 40
0.1058
 41
0.1058
 66
1
 10
0
 20
0
 30
0
  0
VERTEX
  8
LAYER_1
 10
96.8271
 20
87.0958
  0
VERTEX
  8
LAYER_1
 10
99.1824
 20
87.0958
  0
SEQEND
  0
POLYLINE
  8
LAYER_1
 40
0.1058
 41
0.1058
 66
1
 10
0
 20
0
 30
0
  0
VERTEX
  8
LAYER_1
 10
108.4507
 20
87.0958
  0
VERTEX
  8
LAYER_1
 10
106.1463
 20
87.0958
  0
SEQEND
  0
POLYLINE
  8
LAYER_1
 40
0.05
 41
0.05
 66
1
 10
0
 20
0
 30
0
 70
1
  0
VERTEX
  8
LAYER_1
 10
96.2128
 20
87.0958
  0
VERTEX
  8
LAYER_1
 10
96.8271
 20
86.9934
  0
VERTEX
  8
LAYER_1
 10
96.8271
 20
87.1982
  0
SEQEND
  0
POLYLINE
  8
LAYER_1
 66
1
 10
0
 20
0
 30
0
 70
1
  0
VERTEX
  8
LAYER_1
 10
96.8271
 20
87.1982
  0
VERTEX
  8
LAYER_1
 10
96.8271
 20
86.9935
  0
VERTEX
  8
LAYER_1
 10
96.2128
 20
87.0959
  0
SEQEND
  0
POLYLINE
  8
LAYER_1
 40
0.05
 41
0.05
 66
1
 10
0
 20
0
 30
0
 70
1
  0
VERTEX
  8
LAYER_1
 10
108.4508
 20
86.9933
  0
VERTEX
  8
LAYER_1
 10
109.0651
 20
87.0957
  0
VERTEX
  8
LAYER_1
 10
108.4508
 20
87.1985
  0
SEQEND
  0
POLYLINE
  8
LAYER_1
 66
1
 10
0
 20
0
 30
0
 70
1
  0
VERTEX
  8
LAYER_1
 10
108.4507
 20
87.1982
  0
VERTEX
  8
LAYER_1
 10
108.4507
 20
86.9935
  0
VERTEX
  8
LAYER_1
 10
109.065
 20
87.0959
  0
SEQEND
  0
TEXT
  8
LAYER_1
 10
98.8853
 20
85.6083
 11
98.8853
 21
85.6083
 40
4.6934
 41
0.5
  1
130
  0
POLYLINE
  8
LAYER_1
 40
0.1058
 41
0.1058
 66
1
 10
0
 20
0
 30
0
  0
VERTEX
  8
LAYER_1
 10
109.2187
 20
94.1283
  0
VERTEX
  8
LAYER_1
 10
109.2187
 20
98.276
  0
SEQEND
  0
POLYLINE
  8
LAYER_1
 40
0.1058
 41
0.1058
 66
1
 10
0
 20
0
 30
0
  0
VERTEX
  8
LAYER_1
 10
24.2183
 20
94.6404
  0
VERTEX
  8
LAYER_1
 10
24.2183
 20
98.2757
  0
SEQEND
  0
POLYLINE
  8
LAYER_1
 40
0.1058
 41
0.1058
 66
1
 10
0
 20
0
 30
0
  0
VERTEX
  8
LAYER_1
 10
108.6043
 20
98.1735
  0
VERTEX
  8
LAYER_1
 10
60.3031
 20
98.1735
  0
SEQEND
  0
POLYLINE
  8
LAYER_1
 40
0.1058
 41
0.1058
 66
1
 10
0
 20
0
 30
0
  0
VERTEX
  8
LAYER_1
 10
24.8327
 20
98.1735
  0
VERTEX
  8
LAYER_1
 10
63.9023
 20
98.1735
  0
SEQEND
  0
POLYLINE
  8
LAYER_1
 40
0.05
 41
0.05
 66
1
 10
0
 20
0
 30
0
 70
1
  0
VERTEX
  8
LAYER_1
 10
108.6044
 20
98.0711
  0
VERTEX
  8
LAYER_1
 10
109.2187
 20
98.1735
  0
VERTEX
  8
LAYER_1
 10
108.6044
 20
98.2759
  0
SEQEND
  0
POLYLINE
  8
LAYER_1
 66
1
 10
0
 20
0
 30
0
 70
1
  0
VERTEX
  8
LAYER_1
 10
108.6043
 20
98.2759
  0
VERTEX
  8
LAYER_1
 10
108.6043
 20
98.0711
  0
VERTEX
  8
LAYER_1
 10
109.2186
 20
98.1735
  0
SEQEND
  0
POLYLINE
  8
LAYER_1
 40
0.05
 41
0.05
 66
1
 10
0
 20
0
 30
0
 70
1
  0
VERTEX
  8
LAYER_1
 10
24.2181
 20
98.1736
  0
VERTEX
  8
LAYER_1
 10
24.8328
 20
98.0712
  0
VERTEX
  8
LAYER_1
 10
24.8328
 20
98.2756
  0
SEQEND
  0
POLYLINE
  8
LAYER_1
 66
1
 10
0
 20
0
 30
0
 70
1
  0
VERTEX
  8
LAYER_1
 10
24.8327
 20
98.2759
  0
VERTEX
  8
LAYER_1
 10
24.8327
 20
98.0711
  0
VERTEX
  8
LAYER_1
 10
24.2184
 20
98.1735
  0
SEQEND
  0
TEXT
  8
LAYER_1
 10
60.6162
 20
99.394
 11
60.6162
 21
99.394
 40
4.6934
 41
0.5
  1
850
  0
POLYLINE
  8
LAYER_1
 40
0.2646
 41
0.2646
 66
1
 10
0
 20
0
 30
0
  0
VERTEX
  8
LAYER_1
 10
25.7544
 20
92.4723
  0
SEQEND
  0
POLYLINE
  8
LAYER_1
 40
0.2646
 41
0.2646
 66
1
 10
0
 20
0
 30
0
  0
VERTEX
  8
LAYER_1
 10
25.8056
 20
91.5506
  0
VERTEX
  8
LAYER_1
 10
25.7542
 20
92.4721
  0
VERTEX
  8
LAYER_1
 10
25.7033
 20
92.6773
  0
VERTEX
  8
LAYER_1
 10
25.4471
 20
92.7797
  0
SEQEND
  0
POLYLINE
  8
LAYER_1
 40
0.2646
 41
0.2646
 66
1
 10
0
 20
0
 30
0
  0
VERTEX
  8
LAYER_1
 10
48.4895
 20
78.6982
  0
VERTEX
  8
LAYER_1
 10
47.9776
 20
78.7496
  0
SEQEND
  0
POLYLINE
  8
LAYER_1
 40
0.2646
 41
0.2646
 66
1
 10
0
 20
0
 30
0
  0
VERTEX
  8
LAYER_1
 10
47.6702
 20
78.7494
  0
VERTEX
  8
LAYER_1
 10
47.0045
 20
78.7494
  0
SEQEND
  0
POLYLINE
  8
LAYER_1
 40
0.2646
 41
0.2646
 66
1
 10
0
 20
0
 30
0
  0
VERTEX
  8
LAYER_1
 10
46.6973
 20
78.8006
  0
VERTEX
  8
LAYER_1
 10
46.083
 20
78.8006
  0
SEQEND
  0
POLYLINE
  8
LAYER_1
 40
0.2646
 41
0.2646
 66
1
 10
0
 20
0
 30
0
  0
VERTEX
  8
LAYER_1
 10
45.7756
 20
78.8006
  0
VERTEX
  8
LAYER_1
 10
45.1099
 20
78.852
  0
SEQEND
  0
POLYLINE
  8
LAYER_1
 40
0.2646
 41
0.2646
 66
1
 10
0
 20
0
 30
0
  0
VERTEX
  8
LAYER_1
 10
44.8027
 20
78.8518
  0
VERTEX
  8
LAYER_1
 10
44.1884
 20
78.8518
  0
SEQEND
  0
POLYLINE
  8
LAYER_1
 40
0.2646
 41
0.2646
 66
1
 10
0
 20
0
 30
0
  0
VERTEX
  8
LAYER_1
 10
43.881
 20
78.903
  0
VERTEX
  8
LAYER_1
 10
43.2153
 20
78.903
  0
SEQEND
  0
POLYLINE
  8
LAYER_1
 40
0.2646
 41
0.2646
 66
1
 10
0
 20
0
 30
0
  0
VERTEX
  8
LAYER_1
 10
42.9082
 20
78.903
  0
VERTEX
  8
LAYER_1
 10
42.2938
 20
78.9544
  0
SEQEND
  0
POLYLINE
  8
LAYER_1
 40
0.2646
 41
0.2646
 66
1
 10
0
 20
0
 30
0
  0
VERTEX
  8
LAYER_1
 10
41.9352
 20
78.9542
  0
VERTEX
  8
LAYER_1
 10
41.3209
 20
78.9542
  0
SEQEND
  0
POLYLINE
  8
LAYER_1
 40
0.2646
 41
0.2646
 66
1
 10
0
 20
0
 30
0
  0
VERTEX
  8
LAYER_1
 10
41.0135
 20
79.0054
  0
VERTEX
  8
LAYER_1
 10
40.3478
 20
79.0054
  0
SEQEND
  0
POLYLINE
  8
LAYER_1
 40
0.2646
 41
0.2646
 66
1
 10
0
 20
0
 30
0
  0
VERTEX
  8
LAYER_1
 10
40.0406
 20
79.0054
  0
VERTEX
  8
LAYER_1
 10
39.4263
 20
79.0568
  0
SEQEND
  0
POLYLINE
  8
LAYER_1
 40
0.2646
 41
0.2646
 66
1
 10
0
 20
0
 30
0
  0
VERTEX
  8
LAYER_1
 10
39.119
 20
79.0566
  0
VERTEX
  8
LAYER_1
 10
38.4532
 20
79.108
  0
SEQEND
  0
POLYLINE
  8
LAYER_1
 40
0.2646
 41
0.2646
 66
1
 10
0
 20
0
 30
0
  0
VERTEX
  8
LAYER_1
 10
38.146
 20
79.1078
  0
VERTEX
  8
LAYER_1
 10
37.5317
 20
79.1078
  0
SEQEND
  0
POLYLINE
  8
LAYER_1
 40
0.2646
 41
0.2646
 66
1
 10
0
 20
0
 30
0
  0
VERTEX
  8
LAYER_1
 10
37.1731
 20
79.1078
  0
VERTEX
  8
LAYER_1
 10
36.5588
 20
79.1593
  0
SEQEND
  0
POLYLINE
  8
LAYER_1
 40
0.2646
 41
0.2646
 66
1
 10
0
 20
0
 30
0
  0
VERTEX
  8
LAYER_1
 10
36.2515
 20
79.159
  0
VERTEX
  8
LAYER_1
 10
35.5857
 20
79.2104
  0
SEQEND
  0
POLYLINE
  8
LAYER_1
 40
0.2646
 41
0.2646
 66
1
 10
0
 20
0
 30
0
  0
VERTEX
  8
LAYER_1
 10
35.2786
 20
79.2102
  0
VERTEX
  8
LAYER_1
 10
34.6643
 20
79.2102
  0
SEQEND
  0
POLYLINE
  8
LAYER_1
 40
0.2646
 41
0.2646
 66
1
 10
0
 20
0
 30
0
  0
VERTEX
  8
LAYER_1
 10
34.3569
 20
79.2614
  0
VERTEX
  8
LAYER_1
 10
33.6911
 20
79.2614
  0
SEQEND
  0
POLYLINE
  8
LAYER_1
 40
0.2646
 41
0.2646
 66
1
 10
0
 20
0
 30
0
  0
VERTEX
  8
LAYER_1
 10
33.384
 20
79.2614
  0
VERTEX
  8
LAYER_1
 10
32.7697
 20
79.3128
  0
SEQEND
  0
POLYLINE
  8
LAYER_1
 40
0.2646
 41
0.2646
 66
1
 10
0
 20
0
 30
0
  0
VERTEX
  8
LAYER_1
 10
32.4111
 20
79.3127
  0
VERTEX
  8
LAYER_1
 10
31.7968
 20
79.3127
  0
SEQEND
  0
POLYLINE
  8
LAYER_1
 40
0.2646
 41
0.2646
 66
1
 10
0
 20
0
 30
0
  0
VERTEX
  8
LAYER_1
 10
31.4894
 20
79.3638
  0
VERTEX
  8
LAYER_1
 10
30.8236
 20
79.3638
  0
SEQEND
  0
POLYLINE
  8
LAYER_1
 40
0.2646
 41
0.2646
 66
1
 10
0
 20
0
 30
0
  0
VERTEX
  8
LAYER_1
 10
30.5165
 20
79.3638
  0
VERTEX
  8
LAYER_1
 10
29.9022
 20
79.4152
  0
SEQEND
  0
POLYLINE
  8
LAYER_1
 40
0.2646
 41
0.2646
 66
1
 10
0
 20
0
 30
0
  0
VERTEX
  8
LAYER_1
 10
29.5948
 20
79.415
  0
VERTEX
  8
LAYER_1
 10
28.9291
 20
79.415
  0
SEQEND
  0
POLYLINE
  8
LAYER_1
 40
0.2646
 41
0.2646
 66
1
 10
0
 20
0
 30
0
  0
VERTEX
  8
LAYER_1
 10
28.6219
 20
79.4663
  0
VERTEX
  8
LAYER_1
 10
28.0076
 20
79.4663
  0
SEQEND
  0
POLYLINE
  8
LAYER_1
 40
0.2646
 41
0.2646
 66
1
 10
0
 20
0
 30
0
  0
VERTEX
  8
LAYER_1
 10
27.649
 20
79.4663
  0
VERTEX
  8
LAYER_1
 10
27.1371
 20
79.5177
  0
SEQEND
  0
POLYLINE
  8
LAYER_1
 40
0.2646
 41
0.2646
 66
1
 10
0
 20
0
 30
0
  0
VERTEX
  8
LAYER_1
 10
48.4895
 20
77.7253
  0
VERTEX
  8
LAYER_1
 10
47.9776
 20
77.7253
  0
SEQEND
  0
POLYLINE
  8
LAYER_1
 40
0.2646
 41
0.2646
 66
1
 10
0
 20
0
 30
0
  0
VERTEX
  8
LAYER_1
 10
47.619
 20
77.7253
  0
VERTEX
  8
LAYER_1
 10
47.0047
 20
77.7767
  0
SEQEND
  0
POLYLINE
  8
LAYER_1
 40
0.2646
 41
0.2646
 66
1
 10
0
 20
0
 30
0
  0
VERTEX
  8
LAYER_1
 10
46.6973
 20
77.7765
  0
VERTEX
  8
LAYER_1
 10
46.0316
 20
77.8279
  0
SEQEND
  0
POLYLINE
  8
LAYER_1
 40
0.2646
 41
0.2646
 66
1
 10
0
 20
0
 30
0
  0
VERTEX
  8
LAYER_1
 10
45.7244
 20
77.8277
  0
VERTEX
  8
LAYER_1
 10
45.1101
 20
77.8277
  0
SEQEND
  0
POLYLINE
  8
LAYER_1
 40
0.2646
 41
0.2646
 66
1
 10
0
 20
0
 30
0
  0
VERTEX
  8
LAYER_1
 10
44.8027
 20
77.8277
  0
VERTEX
  8
LAYER_1
 10
44.137
 20
77.8791
  0
SEQEND
  0
POLYLINE
  8
LAYER_1
 40
0.2646
 41
0.2646
 66
1
 10
0
 20
0
 30
0
  0
VERTEX
  8
LAYER_1
 10
43.8298
 20
77.8789
  0
VERTEX
  8
LAYER_1
 10
43.2155
 20
77.9303
  0
SEQEND
  0
POLYLINE
  8
LAYER_1
 40
0.2646
 41
0.2646
 66
1
 10
0
 20
0
 30
0
  0
VERTEX
  8
LAYER_1
 10
42.8569
 20
77.9301
  0
VERTEX
  8
LAYER_1
 10
42.2426
 20
77.9301
  0
SEQEND
  0
POLYLINE
  8
LAYER_1
 40
0.2646
 41
0.2646
 66
1
 10
0
 20
0
 30
0
  0
VERTEX
  8
LAYER_1
 10
41.9352
 20
77.9813
  0
VERTEX
  8
LAYER_1
 10
41.2695
 20
77.9813
  0
SEQEND
  0
POLYLINE
  8
LAYER_1
 40
0.2646
 41
0.2646
 66
1
 10
0
 20
0
 30
0
  0
VERTEX
  8
LAYER_1
 10
40.9623
 20
77.9813
  0
VERTEX
  8
LAYER_1
 10
40.348
 20
78.0327
  0
SEQEND
  0
POLYLINE
  8
LAYER_1
 40
0.2646
 41
0.2646
 66
1
 10
0
 20
0
 30
0
  0
VERTEX
  8
LAYER_1
 10
40.0406
 20
78.0325
  0
VERTEX
  8
LAYER_1
 10
39.3749
 20
78.0325
  0
SEQEND
  0
POLYLINE
  8
LAYER_1
 40
0.2646
 41
0.2646
 66
1
 10
0
 20
0
 30
0
  0
VERTEX
  8
LAYER_1
 10
39.0678
 20
78.0837
  0
VERTEX
  8
LAYER_1
 10
38.4534
 20
78.0837
  0
SEQEND
  0
POLYLINE
  8
LAYER_1
 40
0.2646
 41
0.2646
 66
1
 10
0
 20
0
 30
0
  0
VERTEX
  8
LAYER_1
 10
38.0949
 20
78.0837
  0
VERTEX
  8
LAYER_1
 10
37.4806
 20
78.1351
  0
SEQEND
  0
POLYLINE
  8
LAYER_1
 40
0.2646
 41
0.2646
 66
1
 10
0
 20
0
 30
0
  0
VERTEX
  8
LAYER_1
 10
37.1731
 20
78.1349
  0
VERTEX
  8
LAYER_1
 10
36.5074
 20
78.1349
  0
SEQEND
  0
POLYLINE
  8
LAYER_1
 40
0.2646
 41
0.2646
 66
1
 10
0
 20
0
 30
0
  0
VERTEX
  8
LAYER_1
 10
36.2003
 20
78.1861
  0
VERTEX
  8
LAYER_1
 10
35.5859
 20
78.1861
  0
SEQEND
  0
POLYLINE
  8
LAYER_1
 40
0.2646
 41
0.2646
 66
1
 10
0
 20
0
 30
0
  0
VERTEX
  8
LAYER_1
 10
35.2786
 20
78.1861
  0
VERTEX
  8
LAYER_1
 10
34.6128
 20
78.2375
  0
SEQEND
  0
POLYLINE
  8
LAYER_1
 40
0.2646
 41
0.2646
 66
1
 10
0
 20
0
 30
0
  0
VERTEX
  8
LAYER_1
 10
34.3057
 20
78.2373
  0
VERTEX
  8
LAYER_1
 10
33.6914
 20
78.2373
  0
SEQEND
  0
POLYLINE
  8
LAYER_1
 40
0.2646
 41
0.2646
 66
1
 10
0
 20
0
 30
0
  0
VERTEX
  8
LAYER_1
 10
33.3328
 20
78.2885
  0
VERTEX
  8
LAYER_1
 10
32.7184
 20
78.2885
  0
SEQEND
  0
POLYLINE
  8
LAYER_1
 40
0.2646
 41
0.2646
 66
1
 10
0
 20
0
 30
0
  0
VERTEX
  8
LAYER_1
 10
32.4111
 20
78.2885
  0
VERTEX
  8
LAYER_1
 10
31.7453
 20
78.3399
  0
SEQEND
  0
POLYLINE
  8
LAYER_1
 40
0.2646
 41
0.2646
 66
1
 10
0
 20
0
 30
0
  0
VERTEX
  8
LAYER_1
 10
31.4382
 20
78.3397
  0
VERTEX
  8
LAYER_1
 10
30.8239
 20
78.3397
  0
SEQEND
  0
POLYLINE
  8
LAYER_1
 40
0.2646
 41
0.2646
 66
1
 10
0
 20
0
 30
0
  0
VERTEX
  8
LAYER_1
 10
30.5165
 20
78.391
  0
VERTEX
  8
LAYER_1
 10
29.8508
 20
78.391
  0
SEQEND
  0
POLYLINE
  8
LAYER_1
 40
0.2646
 41
0.2646
 66
1
 10
0
 20
0
 30
0
  0
VERTEX
  8
LAYER_1
 10
29.5436
 20
78.391
  0
VERTEX
  8
LAYER_1
 10
28.9293
 20
78.4424
  0
SEQEND
  0
POLYLINE
  8
LAYER_1
 40
0.2646
 41
0.2646
 66
1
 10
0
 20
0
 30
0
  0
VERTEX
  8
LAYER_1
 10
28.5707
 20
78.4421
  0
VERTEX
  8
LAYER_1
 10
27.9564
 20
78.4936
  0
SEQEND
  0
POLYLINE
  8
LAYER_1
 40
0.2646
 41
0.2646
 66
1
 10
0
 20
0
 30
0
  0
VERTEX
  8
LAYER_1
 10
27.649
 20
78.4933
  0
VERTEX
  8
LAYER_1
 10
27.1371
 20
78.4933
  0
SEQEND
  0
POLYLINE
  8
LAYER_1
 40
0.2646
 41
0.2646
 66
1
 10
0
 20
0
 30
0
  0
VERTEX
  8
LAYER_1
 10
26.6761
 20
79.9783
  0
VERTEX
  8
LAYER_1
 10
26.6761
 20
79.7735
  0
VERTEX
  8
LAYER_1
 10
26.8299
 20
79.6197
  0
VERTEX
  8
LAYER_1
 10
26.9833
 20
79.5173
  0
VERTEX
  8
LAYER_1
 10
27.1371
 20
79.5173
  0
SEQEND
  0
POLYLINE
  8
LAYER_1
 40
0.2646
 41
0.2646
 66
1
 10
0
 20
0
 30
0
  0
VERTEX
  8
LAYER_1
 10
25.652
 20
79.9271
  0
VERTEX
  8
LAYER_1
 10
25.7034
 20
79.6199
  0
VERTEX
  8
LAYER_1
 10
25.7544
 20
79.4661
  0
SEQEND
  0
POLYLINE
  8
LAYER_1
 40
0.2646
 41
0.2646
 66
1
 10
0
 20
0
 30
0
  0
VERTEX
  8
LAYER_1
 10
25.908
 20
79.159
  0
VERTEX
  8
LAYER_1
 10
26.1128
 20
78.9028
  0
VERTEX
  8
LAYER_1
 10
26.369
 20
78.7495
  0
SEQEND
  0
POLYLINE
  8
LAYER_1
 40
0.2646
 41
0.2646
 66
1
 10
0
 20
0
 30
0
  0
VERTEX
  8
LAYER_1
 10
26.6761
 20
78.5958
  0
VERTEX
  8
LAYER_1
 10
26.8299
 20
78.5444
  0
VERTEX
  8
LAYER_1
 10
27.1371
 20
78.4934
  0
SEQEND
  0
POLYLINE
  8
LAYER_1
 40
0.2646
 41
0.2646
 66
1
 10
0
 20
0
 30
0
  0
VERTEX
  8
LAYER_1
 10
25.8056
 20
91.5506
  0
VERTEX
  8
LAYER_1
 10
25.8566
 20
91.1411
  0
SEQEND
  0
POLYLINE
  8
LAYER_1
 40
0.2646
 41
0.2646
 66
1
 10
0
 20
0
 30
0
  0
VERTEX
  8
LAYER_1
 10
25.8568
 20
90.8338
  0
VERTEX
  8
LAYER_1
 10
25.9082
 20
90.2195
  0
SEQEND
  0
POLYLINE
  8
LAYER_1
 40
0.2646
 41
0.2646
 66
1
 10
0
 20
0
 30
0
  0
VERTEX
  8
LAYER_1
 10
25.9592
 20
89.8609
  0
VERTEX
  8
LAYER_1
 10
26.0106
 20
89.2466
  0
SEQEND
  0
POLYLINE
  8
LAYER_1
 40
0.2646
 41
0.2646
 66
1
 10
0
 20
0
 30
0
  0
VERTEX
  8
LAYER_1
 10
26.0105
 20
88.9392
  0
VERTEX
  8
LAYER_1
 10
26.0619
 20
88.2735
  0
SEQEND
  0
POLYLINE
  8
LAYER_1
 40
0.2646
 41
0.2646
 66
1
 10
0
 20
0
 30
0
  0
VERTEX
  8
LAYER_1
 10
26.0616
 20
87.9663
  0
VERTEX
  8
LAYER_1
 10
26.1126
 20
87.352
  0
SEQEND
  0
POLYLINE
  8
LAYER_1
 40
0.2646
 41
0.2646
 66
1
 10
0
 20
0
 30
0
  0
VERTEX
  8
LAYER_1
 10
26.164
 20
87.0446
  0
VERTEX
  8
LAYER_1
 10
26.2154
 20
86.3789
  0
SEQEND
  0
POLYLINE
  8
LAYER_1
 40
0.2646
 41
0.2646
 66
1
 10
0
 20
0
 30
0
  0
VERTEX
  8
LAYER_1
 10
26.2153
 20
86.0717
  0
VERTEX
  8
LAYER_1
 10
26.2667
 20
85.4574
  0
SEQEND
  0
POLYLINE
  8
LAYER_1
 40
0.2646
 41
0.2646
 66
1
 10
0
 20
0
 30
0
  0
VERTEX
  8
LAYER_1
 10
26.2665
 20
85.15
  0
VERTEX
  8
LAYER_1
 10
26.3179
 20
84.4843
  0
SEQEND
  0
POLYLINE
  8
LAYER_1
 40
0.2646
 41
0.2646
 66
1
 10
0
 20
0
 30
0
  0
VERTEX
  8
LAYER_1
 10
26.3689
 20
84.1771
  0
VERTEX
  8
LAYER_1
 10
26.4203
 20
83.5628
  0
SEQEND
  0
POLYLINE
  8
LAYER_1
 40
0.2646
 41
0.2646
 66
1
 10
0
 20
0
 30
0
  0
VERTEX
  8
LAYER_1
 10
26.4201
 20
83.2042
  0
VERTEX
  8
LAYER_1
 10
26.4715
 20
82.5899
  0
SEQEND
  0
POLYLINE
  8
LAYER_1
 40
0.2646
 41
0.2646
 66
1
 10
0
 20
0
 30
0
  0
VERTEX
  8
LAYER_1
 10
26.4713
 20
82.2825
  0
VERTEX
  8
LAYER_1
 10
26.5227
 20
81.6168
  0
SEQEND
  0
POLYLINE
  8
LAYER_1
 40
0.2646
 41
0.2646
 66
1
 10
0
 20
0
 30
0
  0
VERTEX
  8
LAYER_1
 10
26.5737
 20
81.3097
  0
VERTEX
  8
LAYER_1
 10
26.6247
 20
80.6953
  0
SEQEND
  0
POLYLINE
  8
LAYER_1
 40
0.2646
 41
0.2646
 66
1
 10
0
 20
0
 30
0
  0
VERTEX
  8
LAYER_1
 10
26.6249
 20
80.388
  0
VERTEX
  8
LAYER_1
 10
26.6763
 20
79.9784
  0
SEQEND
  0
POLYLINE
  8
LAYER_1
 40
0.2646
 41
0.2646
 66
1
 10
0
 20
0
 30
0
  0
VERTEX
  8
LAYER_1
 10
25.4984
 20
77.0596
  0
VERTEX
  8
LAYER_1
 10
25.4984
 20
77.4182
  0
SEQEND
  0
POLYLINE
  8
LAYER_1
 40
0.2646
 41
0.2646
 66
1
 10
0
 20
0
 30
0
  0
VERTEX
  8
LAYER_1
 10
25.4984
 20
77.7253
  0
VERTEX
  8
LAYER_1
 10
25.4984
 20
78.3396
  0
SEQEND
  0
POLYLINE
  8
LAYER_1
 40
0.2646
 41
0.2646
 66
1
 10
0
 20
0
 30
0
  0
VERTEX
  8
LAYER_1
 10
25.4984
 20
78.647
  0
VERTEX
  8
LAYER_1
 10
25.447
 20
79.3127
  0
SEQEND
  0
POLYLINE
  8
LAYER_1
 40
0.2646
 41
0.2646
 66
1
 10
0
 20
0
 30
0
  0
VERTEX
  8
LAYER_1
 10
25.4472
 20
79.6198
  0
VERTEX
  8
LAYER_1
 10
25.4472
 20
80.2342
  0
SEQEND
  0
POLYLINE
  8
LAYER_1
 40
0.2646
 41
0.2646
 66
1
 10
0
 20
0
 30
0
  0
VERTEX
  8
LAYER_1
 10
25.4472
 20
80.5928
  0
VERTEX
  8
LAYER_1
 10
25.4472
 20
81.2071
  0
SEQEND
  0
POLYLINE
  8
LAYER_1
 40
0.2646
 41
0.2646
 66
1
 10
0
 20
0
 30
0
  0
VERTEX
  8
LAYER_1
 10
25.4472
 20
81.5145
  0
VERTEX
  8
LAYER_1
 10
25.3958
 20
82.1802
  0
SEQEND
  0
POLYLINE
  8
LAYER_1
 40
0.2646
 41
0.2646
 66
1
 10
0
 20
0
 30
0
  0
VERTEX
  8
LAYER_1
 10
25.396
 20
82.4874
  0
VERTEX
  8
LAYER_1
 10
25.396
 20
83.1017
  0
SEQEND
  0
POLYLINE
  8
LAYER_1
 40
0.2646
 41
0.2646
 66
1
 10
0
 20
0
 30
0
  0
VERTEX
  8
LAYER_1
 10
25.396
 20
83.409
  0
VERTEX
  8
LAYER_1
 10
25.396
 20
83.7676
  0
VERTEX
  8
LAYER_1
 10
25.396
 20
83.409
  0
SEQEND
  0
POLYLINE
  8
LAYER_1
 40
0.2646
 41
0.2646
 66
1
 10
0
 20
0
 30
0
  0
VERTEX
  8
LAYER_1
 10
25.4472
 20
83.1018
  0
VERTEX
  8
LAYER_1
 10
25.4986
 20
82.4361
  0
SEQEND
  0
POLYLINE
  8
LAYER_1
 40
0.2646
 41
0.2646
 66
1
 10
0
 20
0
 30
0
  0
VERTEX
  8
LAYER_1
 10
25.4984
 20
82.1289
  0
VERTEX
  8
LAYER_1
 10
25.5494
 20
81.5146
  0
SEQEND
  0
POLYLINE
  8
LAYER_1
 40
0.2646
 41
0.2646
 66
1
 10
0
 20
0
 30
0
  0
VERTEX
  8
LAYER_1
 10
25.5496
 20
81.2072
  0
VERTEX
  8
LAYER_1
 10
25.601
 20
80.5415
  0
SEQEND
  0
POLYLINE
  8
LAYER_1
 40
0.2646
 41
0.2646
 66
1
 10
0
 20
0
 30
0
  0
VERTEX
  8
LAYER_1
 10
25.652
 20
80.2343
  0
VERTEX
  8
LAYER_1
 10
25.652
 20
79.8758
  0
SEQEND
  0
POLYLINE
  8
LAYER_1
 40
0.2646
 41
0.2646
 66
1
 10
0
 20
0
 30
0
  0
VERTEX
  8
LAYER_1
 10
107.3242
 20
91.2434
  0
VERTEX
  8
LAYER_1
 10
107.017
 20
91.2434
  0
SEQEND
  0
POLYLINE
  8
LAYER_1
 40
0.2646
 41
0.2646
 66
1
 10
0
 20
0
 30
0
  0
VERTEX
  8
LAYER_1
 10
106.6585
 20
91.2434
  0
VERTEX
  8
LAYER_1
 10
106.0442
 20
91.2434
  0
SEQEND
  0
POLYLINE
  8
LAYER_1
 40
0.2646
 41
0.2646
 66
1
 10
0
 20
0
 30
0
  0
VERTEX
  8
LAYER_1
 10
105.7368
 20
91.2434
  0
VERTEX
  8
LAYER_1
 10
105.0711
 20
91.2434
  0
SEQEND
  0
POLYLINE
  8
LAYER_1
 40
0.2646
 41
0.2646
 66
1
 10
0
 20
0
 30
0
  0
VERTEX
  8
LAYER_1
 10
104.7639
 20
91.2434
  0
VERTEX
  8
LAYER_1
 10
104.1496
 20
91.2434
  0
SEQEND
  0
POLYLINE
  8
LAYER_1
 40
0.2646
 41
0.2646
 66
1
 10
0
 20
0
 30
0
  0
VERTEX
  8
LAYER_1
 10
103.8422
 20
91.2434
  0
VERTEX
  8
LAYER_1
 10
103.1765
 20
91.2434
  0
SEQEND
  0
POLYLINE
  8
LAYER_1
 40
0.2646
 41
0.2646
 66
1
 10
0
 20
0
 30
0
  0
VERTEX
  8
LAYER_1
 10
102.8693
 20
91.2434
  0
VERTEX
  8
LAYER_1
 10
102.255
 20
91.2434
  0
SEQEND
  0
POLYLINE
  8
LAYER_1
 40
0.2646
 41
0.2646
 66
1
 10
0
 20
0
 30
0
  0
VERTEX
  8
LAYER_1
 10
101.8965
 20
91.2434
  0
VERTEX
  8
LAYER_1
 10
101.2822
 20
91.2434
  0
SEQEND
  0
POLYLINE
  8
LAYER_1
 40
0.2646
 41
0.2646
 66
1
 10
0
 20
0
 30
0
  0
VERTEX
  8
LAYER_1
 10
100.9748
 20
91.2434
  0
VERTEX
  8
LAYER_1
 10
100.309
 20
91.2434
  0
SEQEND
  0
POLYLINE
  8
LAYER_1
 40
0.2646
 41
0.2646
 66
1
 10
0
 20
0
 30
0
  0
VERTEX
  8
LAYER_1
 10
100.0018
 20
91.2434
  0
VERTEX
  8
LAYER_1
 10
99.3875
 20
91.2434
  0
SEQEND
  0
POLYLINE
  8
LAYER_1
 40
0.2646
 41
0.2646
 66
1
 10
0
 20
0
 30
0
  0
VERTEX
  8
LAYER_1
 10
99.0801
 20
91.2434
  0
VERTEX
  8
LAYER_1
 10
98.4144
 20
91.2434
  0
SEQEND
  0
POLYLINE
  8
LAYER_1
 40
0.2646
 41
0.2646
 66
1
 10
0
 20
0
 30
0
  0
VERTEX
  8
LAYER_1
 10
98.1073
 20
91.2434
  0
VERTEX
  8
LAYER_1
 10
97.493
 20
91.2434
  0
SEQEND
  0
POLYLINE
  8
LAYER_1
 40
0.2646
 41
0.2646
 66
1
 10
0
 20
0
 30
0
  0
VERTEX
  8
LAYER_1
 10
97.1344
 20
91.2434
  0
VERTEX
  8
LAYER_1
 10
96.5201
 20
91.2434
  0
SEQEND
  0
POLYLINE
  8
LAYER_1
 40
0.2646
 41
0.2646
 66
1
 10
0
 20
0
 30
0
  0
VERTEX
  8
LAYER_1
 10
96.2127
 20
91.2434
  0
VERTEX
  8
LAYER_1
 10
95.5469
 20
91.2434
  0
SEQEND
  0
POLYLINE
  8
LAYER_1
 40
0.2646
 41
0.2646
 66
1
 10
0
 20
0
 30
0
  0
VERTEX
  8
LAYER_1
 10
95.2398
 20
91.2434
  0
VERTEX
  8
LAYER_1
 10
94.6254
 20
91.2434
  0
SEQEND
  0
POLYLINE
  8
LAYER_1
 40
0.2646
 41
0.2646
 66
1
 10
0
 20
0
 30
0
  0
VERTEX
  8
LAYER_1
 10
94.3181
 20
91.2434
  0
VERTEX
  8
LAYER_1
 10
93.6523
 20
91.2434
  0
SEQEND
  0
POLYLINE
  8
LAYER_1
 40
0.2646
 41
0.2646
 66
1
 10
0
 20
0
 30
0
  0
VERTEX
  8
LAYER_1
 10
93.3452
 20
91.2434
  0
VERTEX
  8
LAYER_1
 10
92.7309
 20
91.2434
  0
SEQEND
  0
POLYLINE
  8
LAYER_1
 40
0.2646
 41
0.2646
 66
1
 10
0
 20
0
 30
0
  0
VERTEX
  8
LAYER_1
 10
92.3723
 20
91.2434
  0
VERTEX
  8
LAYER_1
 10
91.758
 20
91.2434
  0
SEQEND
  0
POLYLINE
  8
LAYER_1
 40
0.2646
 41
0.2646
 66
1
 10
0
 20
0
 30
0
  0
VERTEX
  8
LAYER_1
 10
91.4506
 20
91.2434
  0
VERTEX
  8
LAYER_1
 10
90.7849
 20
91.2434
  0
SEQEND
  0
POLYLINE
  8
LAYER_1
 40
0.2646
 41
0.2646
 66
1
 10
0
 20
0
 30
0
  0
VERTEX
  8
LAYER_1
 10
90.4777
 20
91.2434
  0
VERTEX
  8
LAYER_1
 10
89.8634
 20
91.2434
  0
SEQEND
  0
POLYLINE
  8
LAYER_1
 40
0.2646
 41
0.2646
 66
1
 10
0
 20
0
 30
0
  0
VERTEX
  8
LAYER_1
 10
89.556
 20
91.2434
  0
VERTEX
  8
LAYER_1
 10
88.8902
 20
91.2434
  0
SEQEND
  0
POLYLINE
  8
LAYER_1
 40
0.2646
 41
0.2646
 66
1
 10
0
 20
0
 30
0
  0
VERTEX
  8
LAYER_1
 10
88.5831
 20
91.2434
  0
VERTEX
  8
LAYER_1
 10
87.9688
 20
91.2434
  0
SEQEND
  0
POLYLINE
  8
LAYER_1
 40
0.2646
 41
0.2646
 66
1
 10
0
 20
0
 30
0
  0
VERTEX
  8
LAYER_1
 10
87.6102
 20
91.2434
  0
VERTEX
  8
LAYER_1
 10
86.9959
 20
91.2434
  0
SEQEND
  0
POLYLINE
  8
LAYER_1
 40
0.2646
 41
0.2646
 66
1
 10
0
 20
0
 30
0
  0
VERTEX
  8
LAYER_1
 10
86.6885
 20
91.2434
  0
VERTEX
  8
LAYER_1
 10
86.0228
 20
91.2434
  0
SEQEND
  0
POLYLINE
  8
LAYER_1
 40
0.2646
 41
0.2646
 66
1
 10
0
 20
0
 30
0
  0
VERTEX
  8
LAYER_1
 10
85.7156
 20
91.2434
  0
VERTEX
  8
LAYER_1
 10
85.1013
 20
91.2434
  0
SEQEND
  0
POLYLINE
  8
LAYER_1
 40
0.2646
 41
0.2646
 66
1
 10
0
 20
0
 30
0
  0
VERTEX
  8
LAYER_1
 10
84.7427
 20
91.2434
  0
VERTEX
  8
LAYER_1
 10
84.1284
 20
91.2434
  0
SEQEND
  0
POLYLINE
  8
LAYER_1
 40
0.2646
 41
0.2646
 66
1
 10
0
 20
0
 30
0
  0
VERTEX
  8
LAYER_1
 10
83.821
 20
91.2434
  0
VERTEX
  8
LAYER_1
 10
83.1553
 20
91.2434
  0
SEQEND
  0
POLYLINE
  8
LAYER_1
 40
0.2646
 41
0.2646
 66
1
 10
0
 20
0
 30
0
  0
VERTEX
  8
LAYER_1
 10
82.8481
 20
91.2434
  0
VERTEX
  8
LAYER_1
 10
82.2338
 20
91.2434
  0
SEQEND
  0
POLYLINE
  8
LAYER_1
 40
0.2646
 41
0.2646
 66
1
 10
0
 20
0
 30
0
  0
VERTEX
  8
LAYER_1
 10
81.9264
 20
91.2434
  0
VERTEX
  8
LAYER_1
 10
81.2607
 20
91.2434
  0
SEQEND
  0
POLYLINE
  8
LAYER_1
 40
0.2646
 41
0.2646
 66
1
 10
0
 20
0
 30
0
  0
VERTEX
  8
LAYER_1
 10
80.9536
 20
91.2434
  0
VERTEX
  8
LAYER_1
 10
80.3392
 20
91.2434
  0
SEQEND
  0
POLYLINE
  8
LAYER_1
 40
0.2646
 41
0.2646
 66
1
 10
0
 20
0
 30
0
  0
VERTEX
  8
LAYER_1
 10
79.9806
 20
91.2434
  0
VERTEX
  8
LAYER_1
 10
79.3663
 20
91.2434
  0
SEQEND
  0
POLYLINE
  8
LAYER_1
 40
0.2646
 41
0.2646
 66
1
 10
0
 20
0
 30
0
  0
VERTEX
  8
LAYER_1
 10
79.0589
 20
91.2434
  0
VERTEX
  8
LAYER_1
 10
78.7004
 20
91.2434
  0
SEQEND
  0
POLYLINE
  8
LAYER_1
 40
0.2646
 41
0.2646
 66
1
 10
0
 20
0
 30
0
  0
VERTEX
  8
LAYER_1
 10
107.9386
 20
77.0596
  0
VERTEX
  8
LAYER_1
 10
107.9386
 20
77.7763
  0
SEQEND
  0
POLYLINE
  8
LAYER_1
 40
0.2646
 41
0.2646
 66
1
 10
0
 20
0
 30
0
  0
VERTEX
  8
LAYER_1
 10
107.9386
 20
78.1349
  0
VERTEX
  8
LAYER_1
 10
107.9386
 20
78.7492
  0
SEQEND
  0
POLYLINE
  8
LAYER_1
 40
0.2646
 41
0.2646
 66
1
 10
0
 20
0
 30
0
  0
VERTEX
  8
LAYER_1
 10
107.9899
 20
79.0566
  0
VERTEX
  8
LAYER_1
 10
107.9899
 20
79.7223
  0
SEQEND
  0
POLYLINE
  8
LAYER_1
 40
0.2646
 41
0.2646
 66
1
 10
0
 20
0
 30
0
  0
VERTEX
  8
LAYER_1
 10
107.9899
 20
80.0295
  0
VERTEX
  8
LAYER_1
 10
107.9899
 20
80.6438
  0
SEQEND
  0
POLYLINE
  8
LAYER_1
 40
0.2646
 41
0.2646
 66
1
 10
0
 20
0
 30
0
  0
VERTEX
  8
LAYER_1
 10
107.9899
 20
80.9512
  0
VERTEX
  8
LAYER_1
 10
107.9899
 20
81.6169
  0
SEQEND
  0
POLYLINE
  8
LAYER_1
 40
0.2646
 41
0.2646
 66
1
 10
0
 20
0
 30
0
  0
VERTEX
  8
LAYER_1
 10
108.041
 20
81.9241
  0
VERTEX
  8
LAYER_1
 10
108.041
 20
82.5384
  0
SEQEND
  0
POLYLINE
  8
LAYER_1
 40
0.2646
 41
0.2646
 66
1
 10
0
 20
0
 30
0
  0
VERTEX
  8
LAYER_1
 10
108.041
 20
82.897
  0
VERTEX
  8
LAYER_1
 10
108.041
 20
83.5113
  0
SEQEND
  0
POLYLINE
  8
LAYER_1
 40
0.2646
 41
0.2646
 66
1
 10
0
 20
0
 30
0
  0
VERTEX
  8
LAYER_1
 10
108.041
 20
83.8187
  0
VERTEX
  8
LAYER_1
 10
108.0925
 20
84.4844
  0
SEQEND
  0
POLYLINE
  8
LAYER_1
 40
0.2646
 41
0.2646
 66
1
 10
0
 20
0
 30
0
  0
VERTEX
  8
LAYER_1
 10
108.0922
 20
84.7916
  0
VERTEX
  8
LAYER_1
 10
108.0922
 20
85.4059
  0
SEQEND
  0
POLYLINE
  8
LAYER_1
 40
0.2646
 41
0.2646
 66
1
 10
0
 20
0
 30
0
  0
VERTEX
  8
LAYER_1
 10
108.0922
 20
85.7133
  0
VERTEX
  8
LAYER_1
 10
108.0922
 20
86.379
  0
SEQEND
  0
POLYLINE
  8
LAYER_1
 40
0.2646
 41
0.2646
 66
1
 10
0
 20
0
 30
0
  0
VERTEX
  8
LAYER_1
 10
108.0922
 20
86.6862
  0
VERTEX
  8
LAYER_1
 10
108.1437
 20
87.3005
  0
SEQEND
  0
POLYLINE
  8
LAYER_1
 40
0.2646
 41
0.2646
 66
1
 10
0
 20
0
 30
0
  0
VERTEX
  8
LAYER_1
 10
108.1434
 20
87.6591
  0
VERTEX
  8
LAYER_1
 10
108.1434
 20
88.2734
  0
SEQEND
  0
POLYLINE
  8
LAYER_1
 40
0.2646
 41
0.2646
 66
1
 10
0
 20
0
 30
0
  0
VERTEX
  8
LAYER_1
 10
108.1434
 20
88.5808
  0
VERTEX
  8
LAYER_1
 10
108.1434
 20
89.2465
  0
SEQEND
  0
POLYLINE
  8
LAYER_1
 40
0.2646
 41
0.2646
 66
1
 10
0
 20
0
 30
0
  0
VERTEX
  8
LAYER_1
 10
108.1434
 20
89.5536
  0
VERTEX
  8
LAYER_1
 10
108.1949
 20
90.2703
  0
VERTEX
  8
LAYER_1
 10
107.7339
 20
90.2703
  0
SEQEND
  0
POLYLINE
  8
LAYER_1
 40
0.2646
 41
0.2646
 66
1
 10
0
 20
0
 30
0
  0
VERTEX
  8
LAYER_1
 10
107.4266
 20
90.2705
  0
VERTEX
  8
LAYER_1
 10
106.8123
 20
90.2705
  0
SEQEND
  0
POLYLINE
  8
LAYER_1
 40
0.2646
 41
0.2646
 66
1
 10
0
 20
0
 30
0
  0
VERTEX
  8
LAYER_1
 10
106.5049
 20
90.2705
  0
VERTEX
  8
LAYER_1
 10
105.8392
 20
90.2705
  0
SEQEND
  0
POLYLINE
  8
LAYER_1
 40
0.2646
 41
0.2646
 66
1
 10
0
 20
0
 30
0
  0
VERTEX
  8
LAYER_1
 10
105.532
 20
90.2705
  0
VERTEX
  8
LAYER_1
 10
104.9177
 20
90.2705
  0
SEQEND
  0
POLYLINE
  8
LAYER_1
 40
0.2646
 41
0.2646
 66
1
 10
0
 20
0
 30
0
  0
VERTEX
  8
LAYER_1
 10
104.5591
 20
90.2705
  0
VERTEX
  8
LAYER_1
 10
103.9448
 20
90.2705
  0
SEQEND
  0
POLYLINE
  8
LAYER_1
 40
0.2646
 41
0.2646
 66
1
 10
0
 20
0
 30
0
  0
VERTEX
  8
LAYER_1
 10
103.6374
 20
90.2705
  0
VERTEX
  8
LAYER_1
 10
102.9717
 20
90.2705
  0
SEQEND
  0
POLYLINE
  8
LAYER_1
 40
0.2646
 41
0.2646
 66
1
 10
0
 20
0
 30
0
  0
VERTEX
  8
LAYER_1
 10
102.6645
 20
90.2705
  0
VERTEX
  8
LAYER_1
 10
102.0502
 20
90.2705
  0
SEQEND
  0
POLYLINE
  8
LAYER_1
 40
0.2646
 41
0.2646
 66
1
 10
0
 20
0
 30
0
  0
VERTEX
  8
LAYER_1
 10
101.7428
 20
90.2705
  0
VERTEX
  8
LAYER_1
 10
101.0771
 20
90.2705
  0
SEQEND
  0
POLYLINE
  8
LAYER_1
 40
0.2646
 41
0.2646
 66
1
 10
0
 20
0
 30
0
  0
VERTEX
  8
LAYER_1
 10
100.7699
 20
90.2705
  0
VERTEX
  8
LAYER_1
 10
100.1556
 20
90.2705
  0
SEQEND
  0
POLYLINE
  8
LAYER_1
 40
0.2646
 41
0.2646
 66
1
 10
0
 20
0
 30
0
  0
VERTEX
  8
LAYER_1
 10
99.797
 20
90.2705
  0
VERTEX
  8
LAYER_1
 10
99.1827
 20
90.2705
  0
SEQEND
  0
POLYLINE
  8
LAYER_1
 40
0.2646
 41
0.2646
 66
1
 10
0
 20
0
 30
0
  0
VERTEX
  8
LAYER_1
 10
98.8753
 20
90.2705
  0
VERTEX
  8
LAYER_1
 10
98.2096
 20
90.2705
  0
SEQEND
  0
POLYLINE
  8
LAYER_1
 40
0.2646
 41
0.2646
 66
1
 10
0
 20
0
 30
0
  0
VERTEX
  8
LAYER_1
 10
97.9024
 20
90.2705
  0
VERTEX
  8
LAYER_1
 10
97.2881
 20
90.2705
  0
SEQEND
  0
POLYLINE
  8
LAYER_1
 40
0.2646
 41
0.2646
 66
1
 10
0
 20
0
 30
0
  0
VERTEX
  8
LAYER_1
 10
96.9808
 20
90.2705
  0
VERTEX
  8
LAYER_1
 10
96.315
 20
90.2705
  0
SEQEND
  0
POLYLINE
  8
LAYER_1
 40
0.2646
 41
0.2646
 66
1
 10
0
 20
0
 30
0
  0
VERTEX
  8
LAYER_1
 10
96.0078
 20
90.2705
  0
VERTEX
  8
LAYER_1
 10
95.3935
 20
90.2705
  0
SEQEND
  0
POLYLINE
  8
LAYER_1
 40
0.2646
 41
0.2646
 66
1
 10
0
 20
0
 30
0
  0
VERTEX
  8
LAYER_1
 10
95.0349
 20
90.2705
  0
VERTEX
  8
LAYER_1
 10
94.4206
 20
90.2705
  0
SEQEND
  0
POLYLINE
  8
LAYER_1
 40
0.2646
 41
0.2646
 66
1
 10
0
 20
0
 30
0
  0
VERTEX
  8
LAYER_1
 10
94.1133
 20
90.2705
  0
VERTEX
  8
LAYER_1
 10
93.4475
 20
90.2705
  0
SEQEND
  0
POLYLINE
  8
LAYER_1
 40
0.2646
 41
0.2646
 66
1
 10
0
 20
0
 30
0
  0
VERTEX
  8
LAYER_1
 10
93.1404
 20
90.2705
  0
VERTEX
  8
LAYER_1
 10
92.5261
 20
90.2705
  0
SEQEND
  0
POLYLINE
  8
LAYER_1
 40
0.2646
 41
0.2646
 66
1
 10
0
 20
0
 30
0
  0
VERTEX
  8
LAYER_1
 10
92.2187
 20
90.2705
  0
VERTEX
  8
LAYER_1
 10
91.5529
 20
90.2705
  0
SEQEND
  0
POLYLINE
  8
LAYER_1
 40
0.2646
 41
0.2646
 66
1
 10
0
 20
0
 30
0
  0
VERTEX
  8
LAYER_1
 10
91.2458
 20
90.2705
  0
VERTEX
  8
LAYER_1
 10
90.6315
 20
90.2705
  0
SEQEND
  0
POLYLINE
  8
LAYER_1
 40
0.2646
 41
0.2646
 66
1
 10
0
 20
0
 30
0
  0
VERTEX
  8
LAYER_1
 10
90.2729
 20
90.2705
  0
VERTEX
  8
LAYER_1
 10
89.6585
 20
90.2705
  0
SEQEND
  0
POLYLINE
  8
LAYER_1
 40
0.2646
 41
0.2646
 66
1
 10
0
 20
0
 30
0
  0
VERTEX
  8
LAYER_1
 10
89.3512
 20
90.2705
  0
VERTEX
  8
LAYER_1
 10
88.6854
 20
90.2705
  0
SEQEND
  0
POLYLINE
  8
LAYER_1
 40
0.2646
 41
0.2646
 66
1
 10
0
 20
0
 30
0
  0
VERTEX
  8
LAYER_1
 10
88.3783
 20
90.2705
  0
VERTEX
  8
LAYER_1
 10
87.764
 20
90.2705
  0
SEQEND
  0
POLYLINE
  8
LAYER_1
 40
0.2646
 41
0.2646
 66
1
 10
0
 20
0
 30
0
  0
VERTEX
  8
LAYER_1
 10
87.4054
 20
90.2705
  0
VERTEX
  8
LAYER_1
 10
86.7911
 20
90.2705
  0
SEQEND
  0
POLYLINE
  8
LAYER_1
 40
0.2646
 41
0.2646
 66
1
 10
0
 20
0
 30
0
  0
VERTEX
  8
LAYER_1
 10
86.4837
 20
90.2705
  0
VERTEX
  8
LAYER_1
 10
85.818
 20
90.2705
  0
SEQEND
  0
POLYLINE
  8
LAYER_1
 40
0.2646
 41
0.2646
 66
1
 10
0
 20
0
 30
0
  0
VERTEX
  8
LAYER_1
 10
85.5108
 20
90.2705
  0
VERTEX
  8
LAYER_1
 10
84.8965
 20
90.2705
  0
SEQEND
  0
POLYLINE
  8
LAYER_1
 40
0.2646
 41
0.2646
 66
1
 10
0
 20
0
 30
0
  0
VERTEX
  8
LAYER_1
 10
84.5891
 20
90.2705
  0
VERTEX
  8
LAYER_1
 10
83.9233
 20
90.2705
  0
SEQEND
  0
POLYLINE
  8
LAYER_1
 40
0.2646
 41
0.2646
 66
1
 10
0
 20
0
 30
0
  0
VERTEX
  8
LAYER_1
 10
83.6162
 20
90.2705
  0
VERTEX
  8
LAYER_1
 10
83.0019
 20
90.2705
  0
SEQEND
  0
POLYLINE
  8
LAYER_1
 40
0.2646
 41
0.2646
 66
1
 10
0
 20
0
 30
0
  0
VERTEX
  8
LAYER_1
 10
82.6433
 20
90.2705
  0
VERTEX
  8
LAYER_1
 10
82.029
 20
90.2705
  0
SEQEND
  0
POLYLINE
  8
LAYER_1
 40
0.2646
 41
0.2646
 66
1
 10
0
 20
0
 30
0
  0
VERTEX
  8
LAYER_1
 10
81.7216
 20
90.2705
  0
VERTEX
  8
LAYER_1
 10
81.0559
 20
90.2705
  0
SEQEND
  0
POLYLINE
  8
LAYER_1
 40
0.2646
 41
0.2646
 66
1
 10
0
 20
0
 30
0
  0
VERTEX
  8
LAYER_1
 10
80.7487
 20
90.2705
  0
VERTEX
  8
LAYER_1
 10
80.1344
 20
90.2705
  0
SEQEND
  0
POLYLINE
  8
LAYER_1
 40
0.2646
 41
0.2646
 66
1
 10
0
 20
0
 30
0
  0
VERTEX
  8
LAYER_1
 10
79.827
 20
90.2705
  0
VERTEX
  8
LAYER_1
 10
79.366
 20
90.2705
  0
VERTEX
  8
LAYER_1
 10
79.366
 20
89.861
  0
SEQEND
  0
POLYLINE
  8
LAYER_1
 40
0.2646
 41
0.2646
 66
1
 10
0
 20
0
 30
0
  0
VERTEX
  8
LAYER_1
 10
79.3662
 20
89.5536
  0
VERTEX
  8
LAYER_1
 10
79.3148
 20
88.9393
  0
SEQEND
  0
POLYLINE
  8
LAYER_1
 40
0.2646
 41
0.2646
 66
1
 10
0
 20
0
 30
0
  0
VERTEX
  8
LAYER_1
 10
79.315
 20
88.632
  0
VERTEX
  8
LAYER_1
 10
79.2636
 20
87.9662
  0
SEQEND
  0
POLYLINE
  8
LAYER_1
 40
0.2646
 41
0.2646
 66
1
 10
0
 20
0
 30
0
  0
VERTEX
  8
LAYER_1
 10
79.2638
 20
87.6591
  0
VERTEX
  8
LAYER_1
 10
79.2123
 20
87.0448
  0
SEQEND
  0
POLYLINE
  8
LAYER_1
 40
0.2646
 41
0.2646
 66
1
 10
0
 20
0
 30
0
  0
VERTEX
  8
LAYER_1
 10
79.2126
 20
86.6862
  0
VERTEX
  8
LAYER_1
 10
79.1611
 20
86.0719
  0
SEQEND
  0
POLYLINE
  8
LAYER_1
 40
0.2646
 41
0.2646
 66
1
 10
0
 20
0
 30
0
  0
VERTEX
  8
LAYER_1
 10
79.1614
 20
85.7645
  0
VERTEX
  8
LAYER_1
 10
79.11
 20
85.0988
  0
SEQEND
  0
POLYLINE
  8
LAYER_1
 40
0.2646
 41
0.2646
 66
1
 10
0
 20
0
 30
0
  0
VERTEX
  8
LAYER_1
 10
79.0589
 20
84.7916
  0
VERTEX
  8
LAYER_1
 10
79.0589
 20
84.1773
  0
SEQEND
  0
POLYLINE
  8
LAYER_1
 40
0.2646
 41
0.2646
 66
1
 10
0
 20
0
 30
0
  0
VERTEX
  8
LAYER_1
 10
79.0077
 20
83.8699
  0
VERTEX
  8
LAYER_1
 10
79.0077
 20
83.2042
  0
SEQEND
  0
POLYLINE
  8
LAYER_1
 40
0.2646
 41
0.2646
 66
1
 10
0
 20
0
 30
0
  0
VERTEX
  8
LAYER_1
 10
78.9565
 20
82.897
  0
VERTEX
  8
LAYER_1
 10
78.9565
 20
82.2827
  0
SEQEND
  0
POLYLINE
  8
LAYER_1
 40
0.2646
 41
0.2646
 66
1
 10
0
 20
0
 30
0
  0
VERTEX
  8
LAYER_1
 10
78.9053
 20
81.9753
  0
VERTEX
  8
LAYER_1
 10
78.9053
 20
81.3096
  0
SEQEND
  0
POLYLINE
  8
LAYER_1
 40
0.2646
 41
0.2646
 66
1
 10
0
 20
0
 30
0
  0
VERTEX
  8
LAYER_1
 10
78.8541
 20
81.0024
  0
VERTEX
  8
LAYER_1
 10
78.8541
 20
80.3881
  0
SEQEND
  0
POLYLINE
  8
LAYER_1
 40
0.2646
 41
0.2646
 66
1
 10
0
 20
0
 30
0
  0
VERTEX
  8
LAYER_1
 10
78.8029
 20
80.0295
  0
VERTEX
  8
LAYER_1
 10
78.8029
 20
79.671
  0
SEQEND
  0
POLYLINE
  8
LAYER_1
 40
0.2646
 41
0.2646
 66
1
 10
0
 20
0
 30
0
  0
VERTEX
  8
LAYER_1
 10
55.9142
 20
78.6982
  0
VERTEX
  8
LAYER_1
 10
56.4776
 20
78.7496
  0
SEQEND
  0
POLYLINE
  8
LAYER_1
 40
0.2646
 41
0.2646
 66
1
 10
0
 20
0
 30
0
  0
VERTEX
  8
LAYER_1
 10
56.7847
 20
78.7494
  0
VERTEX
  8
LAYER_1
 10
57.399
 20
78.7494
  0
SEQEND
  0
POLYLINE
  8
LAYER_1
 40
0.2646
 41
0.2646
 66
1
 10
0
 20
0
 30
0
  0
VERTEX
  8
LAYER_1
 10
57.7064
 20
78.7494
  0
VERTEX
  8
LAYER_1
 10
58.3721
 20
78.7494
  0
SEQEND
  0
POLYLINE
  8
LAYER_1
 40
0.2646
 41
0.2646
 66
1
 10
0
 20
0
 30
0
  0
VERTEX
  8
LAYER_1
 10
58.6793
 20
78.8006
  0
VERTEX
  8
LAYER_1
 10
59.2936
 20
78.8006
  0
SEQEND
  0
POLYLINE
  8
LAYER_1
 40
0.2646
 41
0.2646
 66
1
 10
0
 20
0
 30
0
  0
VERTEX
  8
LAYER_1
 10
59.6522
 20
78.8006
  0
VERTEX
  8
LAYER_1
 10
60.2665
 20
78.8006
  0
SEQEND
  0
POLYLINE
  8
LAYER_1
 40
0.2646
 41
0.2646
 66
1
 10
0
 20
0
 30
0
  0
VERTEX
  8
LAYER_1
 10
60.5739
 20
78.8518
  0
VERTEX
  8
LAYER_1
 10
61.2396
 20
78.8518
  0
SEQEND
  0
POLYLINE
  8
LAYER_1
 40
0.2646
 41
0.2646
 66
1
 10
0
 20
0
 30
0
  0
VERTEX
  8
LAYER_1
 10
61.5468
 20
78.8518
  0
VERTEX
  8
LAYER_1
 10
62.1611
 20
78.8518
  0
SEQEND
  0
POLYLINE
  8
LAYER_1
 40
0.2646
 41
0.2646
 66
1
 10
0
 20
0
 30
0
  0
VERTEX
  8
LAYER_1
 10
62.4685
 20
78.8518
  0
VERTEX
  8
LAYER_1
 10
63.1342
 20
78.9032
  0
SEQEND
  0
POLYLINE
  8
LAYER_1
 40
0.2646
 41
0.2646
 66
1
 10
0
 20
0
 30
0
  0
VERTEX
  8
LAYER_1
 10
63.4414
 20
78.903
  0
VERTEX
  8
LAYER_1
 10
64.0557
 20
78.903
  0
SEQEND
  0
POLYLINE
  8
LAYER_1
 40
0.2646
 41
0.2646
 66
1
 10
0
 20
0
 30
0
  0
VERTEX
  8
LAYER_1
 10
64.4143
 20
78.903
  0
VERTEX
  8
LAYER_1
 10
65.0286
 20
78.9544
  0
SEQEND
  0
POLYLINE
  8
LAYER_1
 40
0.2646
 41
0.2646
 66
1
 10
0
 20
0
 30
0
  0
VERTEX
  8
LAYER_1
 10
65.336
 20
78.9542
  0
VERTEX
  8
LAYER_1
 10
66.0017
 20
78.9542
  0
SEQEND
  0
POLYLINE
  8
LAYER_1
 40
0.2646
 41
0.2646
 66
1
 10
0
 20
0
 30
0
  0
VERTEX
  8
LAYER_1
 10
66.3089
 20
78.9542
  0
VERTEX
  8
LAYER_1
 10
66.9232
 20
79.0056
  0
SEQEND
  0
POLYLINE
  8
LAYER_1
 40
0.2646
 41
0.2646
 66
1
 10
0
 20
0
 30
0
  0
VERTEX
  8
LAYER_1
 10
67.2306
 20
79.0054
  0
VERTEX
  8
LAYER_1
 10
67.8963
 20
79.0054
  0
SEQEND
  0
POLYLINE
  8
LAYER_1
 40
0.2646
 41
0.2646
 66
1
 10
0
 20
0
 30
0
  0
VERTEX
  8
LAYER_1
 10
68.2035
 20
79.0054
  0
VERTEX
  8
LAYER_1
 10
68.8178
 20
79.0568
  0
SEQEND
  0
POLYLINE
  8
LAYER_1
 40
0.2646
 41
0.2646
 66
1
 10
0
 20
0
 30
0
  0
VERTEX
  8
LAYER_1
 10
69.1764
 20
79.0566
  0
VERTEX
  8
LAYER_1
 10
69.7907
 20
79.0566
  0
SEQEND
  0
POLYLINE
  8
LAYER_1
 40
0.2646
 41
0.2646
 66
1
 10
0
 20
0
 30
0
  0
VERTEX
  8
LAYER_1
 10
70.0981
 20
79.0566
  0
VERTEX
  8
LAYER_1
 10
70.7638
 20
79.0566
  0
SEQEND
  0
POLYLINE
  8
LAYER_1
 40
0.2646
 41
0.2646
 66
1
 10
0
 20
0
 30
0
  0
VERTEX
  8
LAYER_1
 10
71.071
 20
79.1078
  0
VERTEX
  8
LAYER_1
 10
71.6853
 20
79.1078
  0
SEQEND
  0
POLYLINE
  8
LAYER_1
 40
0.2646
 41
0.2646
 66
1
 10
0
 20
0
 30
0
  0
VERTEX
  8
LAYER_1
 10
71.9927
 20
79.1078
  0
VERTEX
  8
LAYER_1
 10
72.6584
 20
79.1078
  0
SEQEND
  0
POLYLINE
  8
LAYER_1
 40
0.2646
 41
0.2646
 66
1
 10
0
 20
0
 30
0
  0
VERTEX
  8
LAYER_1
 10
72.9655
 20
79.159
  0
VERTEX
  8
LAYER_1
 10
73.5798
 20
79.159
  0
SEQEND
  0
POLYLINE
  8
LAYER_1
 40
0.2646
 41
0.2646
 66
1
 10
0
 20
0
 30
0
  0
VERTEX
  8
LAYER_1
 10
73.9384
 20
79.159
  0
VERTEX
  8
LAYER_1
 10
74.5527
 20
79.159
  0
SEQEND
  0
POLYLINE
  8
LAYER_1
 40
0.2646
 41
0.2646
 66
1
 10
0
 20
0
 30
0
  0
VERTEX
  8
LAYER_1
 10
74.8601
 20
79.159
  0
VERTEX
  8
LAYER_1
 10
75.5258
 20
79.2104
  0
SEQEND
  0
POLYLINE
  8
LAYER_1
 40
0.2646
 41
0.2646
 66
1
 10
0
 20
0
 30
0
  0
VERTEX
  8
LAYER_1
 10
75.833
 20
79.2102
  0
VERTEX
  8
LAYER_1
 10
76.4474
 20
79.2102
  0
SEQEND
  0
POLYLINE
  8
LAYER_1
 40
0.2646
 41
0.2646
 66
1
 10
0
 20
0
 30
0
  0
VERTEX
  8
LAYER_1
 10
76.7547
 20
79.2102
  0
VERTEX
  8
LAYER_1
 10
77.3181
 20
79.2616
  0
SEQEND
  0
POLYLINE
  8
LAYER_1
 40
0.2646
 41
0.2646
 66
1
 10
0
 20
0
 30
0
  0
VERTEX
  8
LAYER_1
 10
56.2215
 20
77.7253
  0
VERTEX
  8
LAYER_1
 10
56.631
 20
77.7253
  0
SEQEND
  0
POLYLINE
  8
LAYER_1
 40
0.2646
 41
0.2646
 66
1
 10
0
 20
0
 30
0
  0
VERTEX
  8
LAYER_1
 10
56.9383
 20
77.7253
  0
VERTEX
  8
LAYER_1
 10
57.5527
 20
77.7253
  0
SEQEND
  0
POLYLINE
  8
LAYER_1
 40
0.2646
 41
0.2646
 66
1
 10
0
 20
0
 30
0
  0
VERTEX
  8
LAYER_1
 10
57.9112
 20
77.7253
  0
VERTEX
  8
LAYER_1
 10
58.5255
 20
77.7767
  0
SEQEND
  0
POLYLINE
  8
LAYER_1
 40
0.2646
 41
0.2646
 66
1
 10
0
 20
0
 30
0
  0
VERTEX
  8
LAYER_1
 10
58.8329
 20
77.7765
  0
VERTEX
  8
LAYER_1
 10
59.4986
 20
77.7765
  0
SEQEND
  0
POLYLINE
  8
LAYER_1
 40
0.2646
 41
0.2646
 66
1
 10
0
 20
0
 30
0
  0
VERTEX
  8
LAYER_1
 10
59.8058
 20
77.7765
  0
VERTEX
  8
LAYER_1
 10
60.4202
 20
77.8279
  0
SEQEND
  0
POLYLINE
  8
LAYER_1
 40
0.2646
 41
0.2646
 66
1
 10
0
 20
0
 30
0
  0
VERTEX
  8
LAYER_1
 10
60.7275
 20
77.8277
  0
VERTEX
  8
LAYER_1
 10
61.3933
 20
77.8277
  0
SEQEND
  0
POLYLINE
  8
LAYER_1
 40
0.2646
 41
0.2646
 66
1
 10
0
 20
0
 30
0
  0
VERTEX
  8
LAYER_1
 10
61.7004
 20
77.8277
  0
VERTEX
  8
LAYER_1
 10
62.3147
 20
77.8791
  0
SEQEND
  0
POLYLINE
  8
LAYER_1
 40
0.2646
 41
0.2646
 66
1
 10
0
 20
0
 30
0
  0
VERTEX
  8
LAYER_1
 10
62.6733
 20
77.8789
  0
VERTEX
  8
LAYER_1
 10
63.2876
 20
77.8789
  0
SEQEND
  0
POLYLINE
  8
LAYER_1
 40
0.2646
 41
0.2646
 66
1
 10
0
 20
0
 30
0
  0
VERTEX
  8
LAYER_1
 10
63.595
 20
77.8789
  0
VERTEX
  8
LAYER_1
 10
64.2607
 20
77.9303
  0
SEQEND
  0
POLYLINE
  8
LAYER_1
 40
0.2646
 41
0.2646
 66
1
 10
0
 20
0
 30
0
  0
VERTEX
  8
LAYER_1
 10
64.5679
 20
77.9301
  0
VERTEX
  8
LAYER_1
 10
65.1822
 20
77.9301
  0
SEQEND
  0
POLYLINE
  8
LAYER_1
 40
0.2646
 41
0.2646
 66
1
 10
0
 20
0
 30
0
  0
VERTEX
  8
LAYER_1
 10
65.4896
 20
77.9301
  0
VERTEX
  8
LAYER_1
 10
66.1553
 20
77.9815
  0
SEQEND
  0
POLYLINE
  8
LAYER_1
 40
0.2646
 41
0.2646
 66
1
 10
0
 20
0
 30
0
  0
VERTEX
  8
LAYER_1
 10
66.4625
 20
77.9813
  0
VERTEX
  8
LAYER_1
 10
67.0768
 20
77.9813
  0
SEQEND
  0
POLYLINE
  8
LAYER_1
 40
0.2646
 41
0.2646
 66
1
 10
0
 20
0
 30
0
  0
VERTEX
  8
LAYER_1
 10
67.4354
 20
77.9813
  0
VERTEX
  8
LAYER_1
 10
68.0497
 20
77.9813
  0
SEQEND
  0
POLYLINE
  8
LAYER_1
 40
0.2646
 41
0.2646
 66
1
 10
0
 20
0
 30
0
  0
VERTEX
  8
LAYER_1
 10
68.3571
 20
78.0325
  0
VERTEX
  8
LAYER_1
 10
69.0228
 20
78.0325
  0
SEQEND
  0
POLYLINE
  8
LAYER_1
 40
0.2646
 41
0.2646
 66
1
 10
0
 20
0
 30
0
  0
VERTEX
  8
LAYER_1
 10
69.33
 20
78.0325
  0
VERTEX
  8
LAYER_1
 10
69.9443
 20
78.0325
  0
SEQEND
  0
POLYLINE
  8
LAYER_1
 40
0.2646
 41
0.2646
 66
1
 10
0
 20
0
 30
0
  0
VERTEX
  8
LAYER_1
 10
70.2516
 20
78.0837
  0
VERTEX
  8
LAYER_1
 10
70.9174
 20
78.0837
  0
SEQEND
  0
POLYLINE
  8
LAYER_1
 40
0.2646
 41
0.2646
 66
1
 10
0
 20
0
 30
0
  0
VERTEX
  8
LAYER_1
 10
71.2245
 20
78.0837
  0
VERTEX
  8
LAYER_1
 10
71.8389
 20
78.0837
  0
SEQEND
  0
POLYLINE
  8
LAYER_1
 40
0.2646
 41
0.2646
 66
1
 10
0
 20
0
 30
0
  0
VERTEX
  8
LAYER_1
 10
72.1975
 20
78.1349
  0
VERTEX
  8
LAYER_1
 10
72.8118
 20
78.1349
  0
SEQEND
  0
POLYLINE
  8
LAYER_1
 40
0.2646
 41
0.2646
 66
1
 10
0
 20
0
 30
0
  0
VERTEX
  8
LAYER_1
 10
73.1192
 20
78.1349
  0
VERTEX
  8
LAYER_1
 10
73.7849
 20
78.1349
  0
SEQEND
  0
POLYLINE
  8
LAYER_1
 40
0.2646
 41
0.2646
 66
1
 10
0
 20
0
 30
0
  0
VERTEX
  8
LAYER_1
 10
74.092
 20
78.1349
  0
VERTEX
  8
LAYER_1
 10
74.7064
 20
78.1863
  0
SEQEND
  0
POLYLINE
  8
LAYER_1
 40
0.2646
 41
0.2646
 66
1
 10
0
 20
0
 30
0
  0
VERTEX
  8
LAYER_1
 10
75.0137
 20
78.1861
  0
VERTEX
  8
LAYER_1
 10
75.6795
 20
78.1861
  0
SEQEND
  0
POLYLINE
  8
LAYER_1
 40
0.2646
 41
0.2646
 66
1
 10
0
 20
0
 30
0
  0
VERTEX
  8
LAYER_1
 10
75.9867
 20
78.1861
  0
VERTEX
  8
LAYER_1
 10
76.601
 20
78.2375
  0
SEQEND
  0
POLYLINE
  8
LAYER_1
 40
0.2646
 41
0.2646
 66
1
 10
0
 20
0
 30
0
  0
VERTEX
  8
LAYER_1
 10
76.9595
 20
78.2373
  0
VERTEX
  8
LAYER_1
 10
77.3181
 20
78.2373
  0
SEQEND
  0
POLYLINE
  8
LAYER_1
 40
0.2646
 41
0.2646
 66
1
 10
0
 20
0
 30
0
  0
VERTEX
  8
LAYER_1
 10
77.318
 20
79.2614
  0
VERTEX
  8
LAYER_1
 10
77.5228
 20
79.2614
  0
VERTEX
  8
LAYER_1
 10
77.6766
 20
79.3638
  0
VERTEX
  8
LAYER_1
 10
77.7789
 20
79.5176
  0
VERTEX
  8
LAYER_1
 10
77.7789
 20
79.7224
  0
SEQEND
  0
POLYLINE
  8
LAYER_1
 40
0.2646
 41
0.2646
 66
1
 10
0
 20
0
 30
0
  0
VERTEX
  8
LAYER_1
 10
77.318
 20
78.2373
  0
VERTEX
  8
LAYER_1
 10
77.6251
 20
78.2887
  0
VERTEX
  8
LAYER_1
 10
77.8299
 20
78.3397
  0
SEQEND
  0
POLYLINE
  8
LAYER_1
 40
0.2646
 41
0.2646
 66
1
 10
0
 20
0
 30
0
  0
VERTEX
  8
LAYER_1
 10
78.0861
 20
78.4933
  0
VERTEX
  8
LAYER_1
 10
78.3422
 20
78.6471
  0
VERTEX
  8
LAYER_1
 10
78.547
 20
78.9029
  0
SEQEND
  0
POLYLINE
  8
LAYER_1
 40
0.2646
 41
0.2646
 66
1
 10
0
 20
0
 30
0
  0
VERTEX
  8
LAYER_1
 10
78.7005
 20
79.2102
  0
VERTEX
  8
LAYER_1
 10
78.7519
 20
79.364
  0
VERTEX
  8
LAYER_1
 10
78.8029
 20
79.6712
  0
SEQEND
  0
POLYLINE
  8
LAYER_1
 40
0.2646
 41
0.2646
 66
1
 10
0
 20
0
 30
0
  0
VERTEX
  8
LAYER_1
 10
78.4445
 20
90.9874
  0
VERTEX
  8
LAYER_1
 10
78.3931
 20
90.2707
  0
SEQEND
  0
POLYLINE
  8
LAYER_1
 40
0.2646
 41
0.2646
 66
1
 10
0
 20
0
 30
0
  0
VERTEX
  8
LAYER_1
 10
78.3421
 20
89.9633
  0
VERTEX
  8
LAYER_1
 10
78.3421
 20
89.2976
  0
SEQEND
  0
POLYLINE
  8
LAYER_1
 40
0.2646
 41
0.2646
 66
1
 10
0
 20
0
 30
0
  0
VERTEX
  8
LAYER_1
 10
78.2909
 20
88.9904
  0
VERTEX
  8
LAYER_1
 10
78.2909
 20
88.3761
  0
SEQEND
  0
POLYLINE
  8
LAYER_1
 40
0.2646
 41
0.2646
 66
1
 10
0
 20
0
 30
0
  0
VERTEX
  8
LAYER_1
 10
78.2397
 20
88.0687
  0
VERTEX
  8
LAYER_1
 10
78.2397
 20
87.403
  0
SEQEND
  0
POLYLINE
  8
LAYER_1
 40
0.2646
 41
0.2646
 66
1
 10
0
 20
0
 30
0
  0
VERTEX
  8
LAYER_1
 10
78.1884
 20
87.0958
  0
VERTEX
  8
LAYER_1
 10
78.1884
 20
86.4815
  0
SEQEND
  0
POLYLINE
  8
LAYER_1
 40
0.2646
 41
0.2646
 66
1
 10
0
 20
0
 30
0
  0
VERTEX
  8
LAYER_1
 10
78.1372
 20
86.1229
  0
VERTEX
  8
LAYER_1
 10
78.1372
 20
85.5086
  0
SEQEND
  0
POLYLINE
  8
LAYER_1
 40
0.2646
 41
0.2646
 66
1
 10
0
 20
0
 30
0
  0
VERTEX
  8
LAYER_1
 10
78.0861
 20
85.2012
  0
VERTEX
  8
LAYER_1
 10
78.0861
 20
84.5355
  0
SEQEND
  0
POLYLINE
  8
LAYER_1
 40
0.2646
 41
0.2646
 66
1
 10
0
 20
0
 30
0
  0
VERTEX
  8
LAYER_1
 10
78.0349
 20
84.2283
  0
VERTEX
  8
LAYER_1
 10
78.0349
 20
83.614
  0
SEQEND
  0
POLYLINE
  8
LAYER_1
 40
0.2646
 41
0.2646
 66
1
 10
0
 20
0
 30
0
  0
VERTEX
  8
LAYER_1
 10
77.9836
 20
83.3067
  0
VERTEX
  8
LAYER_1
 10
77.9836
 20
82.6409
  0
SEQEND
  0
POLYLINE
  8
LAYER_1
 40
0.2646
 41
0.2646
 66
1
 10
0
 20
0
 30
0
  0
VERTEX
  8
LAYER_1
 10
77.9324
 20
82.3337
  0
VERTEX
  8
LAYER_1
 10
77.9324
 20
81.7194
  0
SEQEND
  0
POLYLINE
  8
LAYER_1
 40
0.2646
 41
0.2646
 66
1
 10
0
 20
0
 30
0
  0
VERTEX
  8
LAYER_1
 10
77.8812
 20
81.3608
  0
VERTEX
  8
LAYER_1
 10
77.8812
 20
80.7465
  0
SEQEND
  0
POLYLINE
  8
LAYER_1
 40
0.2646
 41
0.2646
 66
1
 10
0
 20
0
 30
0
  0
VERTEX
  8
LAYER_1
 10
77.83
 20
80.4392
  0
VERTEX
  8
LAYER_1
 10
77.7786
 20
79.7225
  0
SEQEND
  0
POLYLINE
  8
LAYER_1
 40
0.2646
 41
0.2646
 66
1
 10
0
 20
0
 30
0
  0
VERTEX
  8
LAYER_1
 10
78.7005
 20
91.2434
  0
VERTEX
  8
LAYER_1
 10
78.4957
 20
91.192
  0
VERTEX
  8
LAYER_1
 10
78.4443
 20
90.9872
  0
SEQEND
  0
POLYLINE
  8
LAYER_1
 40
0.2646
 41
0.2646
 66
1
 10
0
 20
0
 30
0
  0
VERTEX
  8
LAYER_1
 10
52.2787
 20
78.6982
  0
VERTEX
  8
LAYER_1
 10
55.7093
 20
78.6982
  0
SEQEND
  0
POLYLINE
  8
LAYER_1
 40
0.2646
 41
0.2646
 66
1
 10
0
 20
0
 30
0
  0
VERTEX
  8
LAYER_1
 10
108.8603
 20
92.7796
  0
VERTEX
  8
LAYER_1
 10
55.4532
 20
92.7796
  0
SEQEND
  0
POLYLINE
  8
LAYER_1
 40
0.2646
 41
0.2646
 66
1
 10
0
 20
0
 30
0
  0
VERTEX
  8
LAYER_1
 10
107.6826
 20
92.4723
  0
SEQEND
  0
POLYLINE
  8
LAYER_1
 40
0.2646
 41
0.2646
 66
1
 10
0
 20
0
 30
0
  0
VERTEX
  8
LAYER_1
 10
107.6314
 20
91.5506
  0
VERTEX
  8
LAYER_1
 10
107.6828
 20
92.4721
  0
VERTEX
  8
LAYER_1
 10
107.7852
 20
92.6773
  0
VERTEX
  8
LAYER_1
 10
107.99
 20
92.7797
  0
VERTEX
  8
LAYER_1
 10
107.7852
 20
92.6773
  0
VERTEX
  8
LAYER_1
 10
107.6828
 20
92.4721
  0
VERTEX
  8
LAYER_1
 10
107.6314
 20
91.5506
  0
VERTEX
  8
LAYER_1
 10
107.529
 20
91.3459
  0
VERTEX
  8
LAYER_1
 10
107.3243
 20
91.2435
  0
VERTEX
  8
LAYER_1
 10
107.529
 20
91.3459
  0
VERTEX
  8
LAYER_1
 10
107.6314
 20
91.5506
  0
SEQEND
  0
POLYLINE
  8
LAYER_1
 40
0.1058
 41
0.1058
 66
1
 10
0
 20
0
 30
0
  0
VERTEX
  8
LAYER_1
 10
55.9142
 20
159.8555
  0
VERTEX
  8
LAYER_1
 10
54.7875
 20
160.3674
  0
SEQEND
  0
POLYLINE
  8
LAYER_1
 40
0.1058
 41
0.1058
 66
1
 10
0
 20
0
 30
0
  0
VERTEX
  8
LAYER_1
 10
49.616
 20
162.8255
  0
VERTEX
  8
LAYER_1
 10
49.1041
 20
163.0816
  0
SEQEND
  0
TEXT
  8
LAYER_1
 10
57.1525
 20
157.6341
 11
57.1525
 21
157.6341
 40
4.6934
 41
0.5
 50
334.6326757
  1
45
  0
POLYLINE
  8
LAYER_1
 40
0.1058
 41
0.1058
 66
1
 10
0
 20
0
 30
0
  0
VERTEX
  8
LAYER_1
 10
50.1793
 20
162.5694
  0
VERTEX
  8
LAYER_1
 10
54.2246
 20
160.6236
  0
SEQEND
  0
POLYLINE
  8
LAYER_1
 40
0.05
 41
0.05
 66
1
 10
0
 20
0
 30
0
 70
1
  0
VERTEX
  8
LAYER_1
 10
49.616
 20
162.7231
  0
VERTEX
  8
LAYER_1
 10
50.1793
 20
162.5698
  0
VERTEX
  8
LAYER_1
 10
49.6669
 20
162.9279
  0
SEQEND
  0
POLYLINE
  8
LAYER_1
 66
1
 10
0
 20
0
 30
0
 70
1
  0
VERTEX
  8
LAYER_1
 10
49.6672
 20
162.9278
  0
VERTEX
  8
LAYER_1
 10
49.6162
 20
162.7231
  0
VERTEX
  8
LAYER_1
 10
50.1791
 20
162.5693
  0
SEQEND
  0
POLYLINE
  8
LAYER_1
 40
0.05
 41
0.05
 66
1
 10
0
 20
0
 30
0
 70
1
  0
VERTEX
  8
LAYER_1
 10
54.7367
 20
160.3165
  0
VERTEX
  8
LAYER_1
 10
54.8386
 20
160.4699
  0
VERTEX
  8
LAYER_1
 10
54.2243
 20
160.6237
  0
SEQEND
  0
POLYLINE
  8
LAYER_1
 66
1
 10
0
 20
0
 30
0
 70
1
  0
VERTEX
  8
LAYER_1
 10
54.8389
 20
160.47
  0
VERTEX
  8
LAYER_1
 10
54.7365
 20
160.3162
  0
VERTEX
  8
LAYER_1
 10
54.2246
 20
160.6238
  0
SEQEND
  0
POLYLINE
  8
LAYER_1
 40
0.2646
 41
0.2646
 66
1
 10
0
 20
0
 30
0
  0
VERTEX
  8
LAYER_1
 10
96.2639
 20
87.0958
  0
VERTEX
  8
LAYER_1
 10
96.3663
 20
87.0958
  0
SEQEND
  0
POLYLINE
  8
LAYER_1
 40
0.05
 41
0.05
 66
1
 10
0
 20
0
 30
0
 70
1
  0
VERTEX
  8
LAYER_1
 10
96.1103
 20
86.4815
  0
VERTEX
  8
LAYER_1
 10
96.3151
 20
86.4815
  0
VERTEX
  8
LAYER_1
 10
96.2127
 20
87.0958
  0
SEQEND
  0
POLYLINE
  8
LAYER_1
 66
1
 10
0
 20
0
 30
0
 70
1
  0
VERTEX
  8
LAYER_1
 10
96.1102
 20
86.4814
  0
VERTEX
  8
LAYER_1
 10
96.315
 20
86.4814
  0
VERTEX
  8
LAYER_1
 10
96.2126
 20
87.0957
  0
SEQEND
  0
POLYLINE
  8
LAYER_1
 40
0.1058
 41
0.1058
 66
1
 10
0
 20
0
 30
0
  0
VERTEX
  8
LAYER_1
 10
22.7441
 20
92.7796
  0
VERTEX
  8
LAYER_1
 10
17.1116
 20
92.7796
  0
SEQEND
  0
POLYLINE
  8
LAYER_1
 40
0.1058
 41
0.1058
 66
1
 10
0
 20
0
 30
0
  0
VERTEX
  8
LAYER_1
 10
22.4881
 20
77.0596
  0
VERTEX
  8
LAYER_1
 10
17.1117
 20
77.0596
  0
SEQEND
  0
POLYLINE
  8
LAYER_1
 40
0.1058
 41
0.1058
 66
1
 10
0
 20
0
 30
0
  0
VERTEX
  8
LAYER_1
 10
17.2652
 20
92.1651
  0
VERTEX
  8
LAYER_1
 10
17.2652
 20
81.5046
  0
SEQEND
  0
POLYLINE
  8
LAYER_1
 40
0.1058
 41
0.1058
 66
1
 10
0
 20
0
 30
0
  0
VERTEX
  8
LAYER_1
 10
17.2652
 20
77.6741
  0
VERTEX
  8
LAYER_1
 10
17.2652
 20
82.1799
  0
SEQEND
  0
POLYLINE
  8
LAYER_1
 40
0.05
 41
0.05
 66
1
 10
0
 20
0
 30
0
 70
1
  0
VERTEX
  8
LAYER_1
 10
17.1628
 20
92.1651
  0
VERTEX
  8
LAYER_1
 10
17.3676
 20
92.1651
  0
VERTEX
  8
LAYER_1
 10
17.2652
 20
92.7794
  0
SEQEND
  0
POLYLINE
  8
LAYER_1
 66
1
 10
0
 20
0
 30
0
 70
1
  0
VERTEX
  8
LAYER_1
 10
17.1627
 20
92.1651
  0
VERTEX
  8
LAYER_1
 10
17.3675
 20
92.1651
  0
VERTEX
  8
LAYER_1
 10
17.2651
 20
92.7794
  0
SEQEND
  0
POLYLINE
  8
LAYER_1
 40
0.05
 41
0.05
 66
1
 10
0
 20
0
 30
0
 70
1
  0
VERTEX
  8
LAYER_1
 10
17.1628
 20
77.6741
  0
VERTEX
  8
LAYER_1
 10
17.2652
 20
77.0598
  0
VERTEX
  8
LAYER_1
 10
17.3676
 20
77.6741
  0
SEQEND
  0
POLYLINE
  8
LAYER_1
 66
1
 10
0
 20
0
 30
0
 70
1
  0
VERTEX
  8
LAYER_1
 10
17.1627
 20
77.6741
  0
VERTEX
  8
LAYER_1
 10
17.3675
 20
77.6741
  0
VERTEX
  8
LAYER_1
 10
17.2651
 20
77.0598
  0
SEQEND
  0
TEXT
  8
LAYER_1
 10
16.1482
 20
81.8725
 11
16.1482
 21
81.8725
 40
4.6934
 41
0.5
 50
89.99999999
  1
155
  0
POLYLINE
  8
LAYER_1
 40
0.1058
 41
0.1058
 66
1
 10
0
 20
0
 30
0
  0
VERTEX
  8
LAYER_1
 10
17.2652
 20
77.0596
  0
VERTEX
  8
LAYER_1
 10
20.6448
 20
77.0596
  0
SEQEND
  0
POLYLINE
  8
LAYER_1
 40
0.1058
 41
0.1058
 66
1
 10
0
 20
0
 30
0
  0
VERTEX
  8
LAYER_1
 10
17.2652
 20
92.7796
  0
VERTEX
  8
LAYER_1
 10
20.6448
 20
92.7796
  0
SEQEND
  0
POLYLINE
  8
LAYER_1
 40
0.2646
 41
0.2646
 66
1
 10
0
 20
0
 30
0
  0
VERTEX
  8
LAYER_1
 10
125.8604
 20
77.0596
  0
VERTEX
  8
LAYER_1
 10
125.8604
 20
77.111
  0
VERTEX
  8
LAYER_1
 10
125.8604
 20
77.2134
  0
VERTEX
  8
LAYER_1
 10
125.8604
 20
77.4182
  0
VERTEX
  8
LAYER_1
 10
125.8604
 20
77.7254
  0
VERTEX
  8
LAYER_1
 10
125.8604
 20
77.8277
  0
SEQEND
  0
POLYLINE
  8
LAYER_1
 40
0.2646
 41
0.2646
 66
1
 10
0
 20
0
 30
0
  0
VERTEX
  8
LAYER_1
 10
125.8604
 20
78.1861
  0
VERTEX
  8
LAYER_1
 10
125.8604
 20
78.4423
  0
VERTEX
  8
LAYER_1
 10
125.809
 20
78.8004
  0
SEQEND
  0
POLYLINE
  8
LAYER_1
 40
0.2646
 41
0.2646
 66
1
 10
0
 20
0
 30
0
  0
VERTEX
  8
LAYER_1
 10
125.8092
 20
79.1078
  0
VERTEX
  8
LAYER_1
 10
125.8092
 20
79.415
  0
VERTEX
  8
LAYER_1
 10
125.8092
 20
79.7736
  0
SEQEND
  0
POLYLINE
  8
LAYER_1
 40
0.2646
 41
0.2646
 66
1
 10
0
 20
0
 30
0
  0
VERTEX
  8
LAYER_1
 10
125.8092
 20
80.0807
  0
VERTEX
  8
LAYER_1
 10
125.8092
 20
80.5926
  0
VERTEX
  8
LAYER_1
 10
125.8092
 20
80.695
  0
SEQEND
  0
POLYLINE
  8
LAYER_1
 40
0.2646
 41
0.2646
 66
1
 10
0
 20
0
 30
0
  0
VERTEX
  8
LAYER_1
 10
125.8092
 20
81.0024
  0
VERTEX
  8
LAYER_1
 10
125.8092
 20
81.6681
  0
SEQEND
  0
POLYLINE
  8
LAYER_1
 40
0.2646
 41
0.2646
 66
1
 10
0
 20
0
 30
0
  0
VERTEX
  8
LAYER_1
 10
125.758
 20
81.9753
  0
VERTEX
  8
LAYER_1
 10
125.758
 20
82.5896
  0
SEQEND
  0
POLYLINE
  8
LAYER_1
 40
0.2646
 41
0.2646
 66
1
 10
0
 20
0
 30
0
  0
VERTEX
  8
LAYER_1
 10
125.758
 20
82.9482
  0
VERTEX
  8
LAYER_1
 10
125.758
 20
83.5625
  0
SEQEND
  0
POLYLINE
  8
LAYER_1
 40
0.2646
 41
0.2646
 66
1
 10
0
 20
0
 30
0
  0
VERTEX
  8
LAYER_1
 10
125.758
 20
83.8699
  0
VERTEX
  8
LAYER_1
 10
125.758
 20
84.689
  0
SEQEND
  0
POLYLINE
  8
LAYER_1
 40
0.2646
 41
0.2646
 66
1
 10
0
 20
0
 30
0
  0
VERTEX
  8
LAYER_1
 10
55.1462
 20
77.0596
  0
VERTEX
  8
LAYER_1
 10
54.7366
 20
77.0596
  0
SEQEND
  0
POLYLINE
  8
LAYER_1
 40
0.2646
 41
0.2646
 66
1
 10
0
 20
0
 30
0
  0
VERTEX
  8
LAYER_1
 10
54.4293
 20
77.0596
  0
VERTEX
  8
LAYER_1
 10
53.815
 20
77.0596
  0
SEQEND
  0
POLYLINE
  8
LAYER_1
 40
0.2646
 41
0.2646
 66
1
 10
0
 20
0
 30
0
  0
VERTEX
  8
LAYER_1
 10
53.5076
 20
77.0596
  0
VERTEX
  8
LAYER_1
 10
52.8419
 20
77.0596
  0
SEQEND
  0
POLYLINE
  8
LAYER_1
 40
0.2646
 41
0.2646
 66
1
 10
0
 20
0
 30
0
  0
VERTEX
  8
LAYER_1
 10
52.5347
 20
77.0596
  0
VERTEX
  8
LAYER_1
 10
51.9204
 20
77.0596
  0
SEQEND
  0
POLYLINE
  8
LAYER_1
 40
0.2646
 41
0.2646
 66
1
 10
0
 20
0
 30
0
  0
VERTEX
  8
LAYER_1
 10
51.5618
 20
77.0596
  0
VERTEX
  8
LAYER_1
 10
50.9475
 20
77.0596
  0
SEQEND
  0
POLYLINE
  8
LAYER_1
 40
0.2646
 41
0.2646
 66
1
 10
0
 20
0
 30
0
  0
VERTEX
  8
LAYER_1
 10
50.6401
 20
77.0596
  0
VERTEX
  8
LAYER_1
 10
49.9744
 20
77.0596
  0
SEQEND
  0
POLYLINE
  8
LAYER_1
 40
0.2646
 41
0.2646
 66
1
 10
0
 20
0
 30
0
  0
VERTEX
  8
LAYER_1
 10
49.6672
 20
77.0596
  0
VERTEX
  8
LAYER_1
 10
49.2577
 20
77.0596
  0
VERTEX
  8
LAYER_1
 10
49.6672
 20
77.0596
  0
SEQEND
  0
POLYLINE
  8
LAYER_1
 40
0.2646
 41
0.2646
 66
1
 10
0
 20
0
 30
0
  0
VERTEX
  8
LAYER_1
 10
49.9744
 20
77.0596
  0
VERTEX
  8
LAYER_1
 10
50.6402
 20
77.0596
  0
SEQEND
  0
POLYLINE
  8
LAYER_1
 40
0.2646
 41
0.2646
 66
1
 10
0
 20
0
 30
0
  0
VERTEX
  8
LAYER_1
 10
50.9474
 20
77.0596
  0
VERTEX
  8
LAYER_1
 10
51.5617
 20
77.0596
  0
SEQEND
  0
POLYLINE
  8
LAYER_1
 40
0.2646
 41
0.2646
 66
1
 10
0
 20
0
 30
0
  0
VERTEX
  8
LAYER_1
 10
51.9202
 20
77.0596
  0
VERTEX
  8
LAYER_1
 10
52.5346
 20
77.0596
  0
SEQEND
  0
POLYLINE
  8
LAYER_1
 40
0.2646
 41
0.2646
 66
1
 10
0
 20
0
 30
0
  0
VERTEX
  8
LAYER_1
 10
52.8419
 20
77.0596
  0
VERTEX
  8
LAYER_1
 10
53.5076
 20
77.0596
  0
SEQEND
  0
POLYLINE
  8
LAYER_1
 40
0.2646
 41
0.2646
 66
1
 10
0
 20
0
 30
0
  0
VERTEX
  8
LAYER_1
 10
53.8148
 20
77.0596
  0
VERTEX
  8
LAYER_1
 10
54.4291
 20
77.0596
  0
SEQEND
  0
POLYLINE
  8
LAYER_1
 40
0.2646
 41
0.2646
 66
1
 10
0
 20
0
 30
0
  0
VERTEX
  8
LAYER_1
 10
54.7365
 20
77.0596
  0
VERTEX
  8
LAYER_1
 10
55.1461
 20
77.0596
  0
SEQEND
  0
POLYLINE
  8
LAYER_1
 40
0.2646
 41
0.2646
 66
1
 10
0
 20
0
 30
0
  0
VERTEX
  8
LAYER_1
 10
52.2274
 20
77.0596
  0
SEQEND
  0
POLYLINE
  8
LAYER_1
 40
0.2646
 41
0.2646
 66
1
 10
0
 20
0
 30
0
  0
VERTEX
  8
LAYER_1
 10
54.5829
 20
77.6228
  0
VERTEX
  8
LAYER_1
 10
53.8662
 20
77.6228
  0
SEQEND
  0
POLYLINE
  8
LAYER_1
 40
0.2646
 41
0.2646
 66
1
 10
0
 20
0
 30
0
  0
VERTEX
  8
LAYER_1
 10
53.5588
 20
77.6228
  0
VERTEX
  8
LAYER_1
 10
52.8931
 20
77.6228
  0
SEQEND
  0
POLYLINE
  8
LAYER_1
 40
0.2646
 41
0.2646
 66
1
 10
0
 20
0
 30
0
  0
VERTEX
  8
LAYER_1
 10
52.5859
 20
77.6228
  0
VERTEX
  8
LAYER_1
 10
51.9716
 20
77.6228
  0
SEQEND
  0
POLYLINE
  8
LAYER_1
 40
0.2646
 41
0.2646
 66
1
 10
0
 20
0
 30
0
  0
VERTEX
  8
LAYER_1
 10
51.6642
 20
77.6228
  0
VERTEX
  8
LAYER_1
 10
50.9985
 20
77.6228
  0
SEQEND
  0
POLYLINE
  8
LAYER_1
 40
0.2646
 41
0.2646
 66
1
 10
0
 20
0
 30
0
  0
VERTEX
  8
LAYER_1
 10
50.6913
 20
77.6228
  0
VERTEX
  8
LAYER_1
 10
49.9746
 20
77.6228
  0
SEQEND
  0
POLYLINE
  8
LAYER_1
 40
0.2646
 41
0.2646
 66
1
 10
0
 20
0
 30
0
  0
VERTEX
  8
LAYER_1
 10
55.9655
 20
78.6982
  0
VERTEX
  8
LAYER_1
 10
55.2997
 20
78.6982
  0
SEQEND
  0
POLYLINE
  8
LAYER_1
 40
0.2646
 41
0.2646
 66
1
 10
0
 20
0
 30
0
  0
VERTEX
  8
LAYER_1
 10
54.9925
 20
78.6982
  0
VERTEX
  8
LAYER_1
 10
54.3268
 20
78.6982
  0
SEQEND
  0
POLYLINE
  8
LAYER_1
 40
0.2646
 41
0.2646
 66
1
 10
0
 20
0
 30
0
  0
VERTEX
  8
LAYER_1
 10
54.0196
 20
78.6982
  0
VERTEX
  8
LAYER_1
 10
53.4053
 20
78.6982
  0
SEQEND
  0
POLYLINE
  8
LAYER_1
 40
0.2646
 41
0.2646
 66
1
 10
0
 20
0
 30
0
  0
VERTEX
  8
LAYER_1
 10
53.0468
 20
78.6982
  0
VERTEX
  8
LAYER_1
 10
52.4324
 20
78.6982
  0
SEQEND
  0
POLYLINE
  8
LAYER_1
 40
0.2646
 41
0.2646
 66
1
 10
0
 20
0
 30
0
  0
VERTEX
  8
LAYER_1
 10
52.1251
 20
78.6982
  0
VERTEX
  8
LAYER_1
 10
51.4593
 20
78.6982
  0
SEQEND
  0
POLYLINE
  8
LAYER_1
 40
0.2646
 41
0.2646
 66
1
 10
0
 20
0
 30
0
  0
VERTEX
  8
LAYER_1
 10
51.1522
 20
78.6982
  0
VERTEX
  8
LAYER_1
 10
50.5379
 20
78.6982
  0
SEQEND
  0
POLYLINE
  8
LAYER_1
 40
0.2646
 41
0.2646
 66
1
 10
0
 20
0
 30
0
  0
VERTEX
  8
LAYER_1
 10
50.2304
 20
78.6982
  0
VERTEX
  8
LAYER_1
 10
49.5647
 20
78.6982
  0
SEQEND
  0
POLYLINE
  8
LAYER_1
 40
0.2646
 41
0.2646
 66
1
 10
0
 20
0
 30
0
  0
VERTEX
  8
LAYER_1
 10
49.2576
 20
78.6982
  0
VERTEX
  8
LAYER_1
 10
48.5918
 20
78.6982
  0
SEQEND
  0
POLYLINE
  8
LAYER_1
 40
0.2646
 41
0.2646
 66
1
 10
0
 20
0
 30
0
  0
VERTEX
  8
LAYER_1
 10
55.5558
 20
77.0596
  0
VERTEX
  8
LAYER_1
 10
55.5558
 20
77.162
  0
VERTEX
  8
LAYER_1
 10
56.2215
 20
77.7254
  0
SEQEND
  0
POLYLINE
  8
LAYER_1
 40
0.2646
 41
0.2646
 66
1
 10
0
 20
0
 30
0
  0
VERTEX
  8
LAYER_1
 10
55.2998
 20
78.2373
  0
VERTEX
  8
LAYER_1
 10
55.7093
 20
78.5959
  0
VERTEX
  8
LAYER_1
 10
55.9655
 20
78.6983
  0
SEQEND
  0
POLYLINE
  8
LAYER_1
 40
0.2646
 41
0.2646
 66
1
 10
0
 20
0
 30
0
  0
VERTEX
  8
LAYER_1
 10
55.0437
 20
78.0325
  0
VERTEX
  8
LAYER_1
 10
54.5828
 20
77.623
  0
SEQEND
  0
POLYLINE
  8
LAYER_1
 40
0.2646
 41
0.2646
 66
1
 10
0
 20
0
 30
0
  0
VERTEX
  8
LAYER_1
 10
48.5919
 20
78.6982
  0
VERTEX
  8
LAYER_1
 10
48.9505
 20
78.5958
  0
VERTEX
  8
LAYER_1
 10
49.36
 20
78.1862
  0
SEQEND
  0
POLYLINE
  8
LAYER_1
 40
0.2646
 41
0.2646
 66
1
 10
0
 20
0
 30
0
  0
VERTEX
  8
LAYER_1
 10
49.5648
 20
77.9813
  0
VERTEX
  8
LAYER_1
 10
49.9744
 20
77.6228
  0
SEQEND
  0
POLYLINE
  8
LAYER_1
 40
0.2646
 41
0.2646
 66
1
 10
0
 20
0
 30
0
  0
VERTEX
  8
LAYER_1
 10
51.2546
 20
77.0596
  0
VERTEX
  8
LAYER_1
 10
51.7155
 20
77.0596
  0
SEQEND
  0
POLYLINE
  8
LAYER_1
 40
0.2646
 41
0.2646
 66
1
 10
0
 20
0
 30
0
  0
VERTEX
  8
LAYER_1
 10
52.0226
 20
77.0596
  0
VERTEX
  8
LAYER_1
 10
52.4836
 20
77.0596
  0
SEQEND
  0
POLYLINE
  8
LAYER_1
 40
0.2646
 41
0.2646
 66
1
 10
0
 20
0
 30
0
  0
VERTEX
  8
LAYER_1
 10
49.9744
 20
77.6228
  0
VERTEX
  8
LAYER_1
 10
49.9744
 20
77.0595
  0
SEQEND
  0
POLYLINE
  8
LAYER_1
 40
0.2646
 41
0.2646
 66
1
 10
0
 20
0
 30
0
  0
VERTEX
  8
LAYER_1
 10
54.5829
 20
77.6228
  0
VERTEX
  8
LAYER_1
 10
54.5829
 20
77.0595
  0
SEQEND
  0
POLYLINE
  8
LAYER_1
 40
0.2646
 41
0.2646
 66
1
 10
0
 20
0
 30
0
  0
VERTEX
  8
LAYER_1
 10
49.2576
 20
77.0596
  0
VERTEX
  8
LAYER_1
 10
49.0014
 20
77.3158
  0
SEQEND
  0
POLYLINE
  8
LAYER_1
 40
0.2646
 41
0.2646
 66
1
 10
0
 20
0
 30
0
  0
VERTEX
  8
LAYER_1
 10
48.7455
 20
77.4693
  0
VERTEX
  8
LAYER_1
 10
48.4893
 20
77.7255
  0
SEQEND
  0
TEXT
  8
LAYER_1
 10
-15.3927
 20
46.1333
 11
-15.3927
 21
46.1333
 40
4.0305
 41
0.5
  1
●サイズ：W850×D460×H155mm　●重量：25kg　
  0
TEXT
  8
LAYER_1
 10
-15.3927
 20
41.3832
 11
-15.3927
 21
41.3832
 40
4.0305
 41
0.5
  1
●設置方法：フレーム置き・カウンター置き（取付ボルト付属）●水栓取付穴：1穴（35mm）　
  0
TEXT
  8
LAYER_1
 10
-15.3927
 20
36.6334
 11
-15.3927
 21
36.6334
 40
3.387
 41
0.5
  1
●オーバーフローなし●排水金具別途●背面釉薬なし
  0
TEXT
  8
LAYER_1
 10
49.04
 20
180.149
 11
49.04
 21
180.149
 40
3.3588
 41
0.5
  1
35
  0
POLYLINE
  8
LAYER_1
 40
0.2646
 41
0.2646
 66
1
 10
0
 20
0
 30
0
  0
VERTEX
  8
LAYER_1
 10
222.2607
 20
184.3572
 42
0.4145203694
  0
VERTEX
  8
LAYER_1
 10
221.9793
 20
184.6386
  0
SEQEND
  0
POLYLINE
  8
LAYER_1
 40
0.2646
 41
0.2646
 66
1
 10
0
 20
0
 30
0
  0
VERTEX
  8
LAYER_1
 10
222.3119
 20
184.3316
  0
VERTEX
  8
LAYER_1
 10
222.3119
 20
138.9128
  0
SEQEND
  0
INSERT
  8
LAYER_1
  2
AIGNBL0101003C
 10
0
 20
0
 30
0
  0
POLYLINE
  8
LAYER_1
 40
0.2646
 41
0.2646
 66
1
 10
0
 20
0
 30
0
  0
VERTEX
  8
LAYER_1
 10
222.0047
 20
138.6054
  0
VERTEX
  8
LAYER_1
 10
137.6186
 20
138.6054
  0
SEQEND
  0
INSERT
  8
LAYER_1
  2
AIGNBL0101003D
 10
0
 20
0
 30
0
  0
POLYLINE
  8
LAYER_1
 40
0.2646
 41
0.2646
 66
1
 10
0
 20
0
 30
0
  0
VERTEX
  8
LAYER_1
 10
137.3114
 20
138.9127
  0
VERTEX
  8
LAYER_1
 10
137.3114
 20
184.3315
  0
SEQEND
  0
INSERT
  8
LAYER_1
  2
AIGNBL0101003E
 10
0
 20
0
 30
0
  0
POLYLINE
  8
LAYER_1
 40
0.2646
 41
0.2646
 66
1
 10
0
 20
0
 30
0
  0
VERTEX
  8
LAYER_1
 10
137.6186
 20
184.6388
  0
VERTEX
  8
LAYER_1
 10
222.0047
 20
184.6388
  0
SEQEND
  0
POLYLINE
  8
LAYER_1
 40
0.1058
 41
0.1058
 66
1
 10
0
 20
0
 30
0
  0
VERTEX
  8
LAYER_1
 10
131.7109
 20
184.6388
  0
VERTEX
  8
LAYER_1
 10
131.6594
 20
184.6388
  0
SEQEND
  0
POLYLINE
  8
LAYER_1
 40
0.1058
 41
0.1058
 66
1
 10
0
 20
0
 30
0
  0
VERTEX
  8
LAYER_1
 10
131.7621
 20
184.0244
  0
VERTEX
  8
LAYER_1
 10
131.7621
 20
175.9341
  0
SEQEND
  0
POLYLINE
  8
LAYER_1
 40
0.1058
 41
0.1058
 66
1
 10
0
 20
0
 30
0
  0
VERTEX
  8
LAYER_1
 10
131.7621
 20
162.211
  0
VERTEX
  8
LAYER_1
 10
131.7621
 20
176.7366
  0
SEQEND
  0
POLYLINE
  8
LAYER_1
 40
0.05
 41
0.05
 66
1
 10
0
 20
0
 30
0
 70
1
  0
VERTEX
  8
LAYER_1
 10
131.6596
 20
184.0242
  0
VERTEX
  8
LAYER_1
 10
131.8648
 20
184.0242
  0
VERTEX
  8
LAYER_1
 10
131.762
 20
184.639
  0
SEQEND
  0
POLYLINE
  8
LAYER_1
 66
1
 10
0
 20
0
 30
0
 70
1
  0
VERTEX
  8
LAYER_1
 10
131.6597
 20
184.0244
  0
VERTEX
  8
LAYER_1
 10
131.8644
 20
184.0244
  0
VERTEX
  8
LAYER_1
 10
131.762
 20
184.6387
  0
SEQEND
  0
POLYLINE
  8
LAYER_1
 40
0.05
 41
0.05
 66
1
 10
0
 20
0
 30
0
 70
1
  0
VERTEX
  8
LAYER_1
 10
131.6596
 20
162.2109
  0
VERTEX
  8
LAYER_1
 10
131.762
 20
161.5966
  0
VERTEX
  8
LAYER_1
 10
131.8648
 20
162.2109
  0
SEQEND
  0
POLYLINE
  8
LAYER_1
 66
1
 10
0
 20
0
 30
0
 70
1
  0
VERTEX
  8
LAYER_1
 10
131.6597
 20
162.211
  0
VERTEX
  8
LAYER_1
 10
131.8644
 20
162.211
  0
VERTEX
  8
LAYER_1
 10
131.762
 20
161.5967
  0
SEQEND
  0
TEXT
  8
LAYER_1
 10
129.9733
 20
174.1401
 11
129.9733
 21
174.1401
 40
4.6934
 41
0.5
 50
89.99999999
  1
230
  0
TEXT
  8
LAYER_1
 10
185.7366
 20
168.1619
 11
185.7366
 21
168.1619
 40
4.6934
 41
0.5
 50
89.99999999
  1
280
  0
POLYLINE
  8
LAYER_1
 40
0.1058
 41
0.1058
 66
1
 10
0
 20
0
 30
0
  0
VERTEX
  8
LAYER_1
 10
160.3105
 20
161.5965
  0
VERTEX
  8
LAYER_1
 10
131.762
 20
161.5965
  0
SEQEND
  0
POLYLINE
  8
LAYER_1
 40
0.1058
 41
0.1058
 66
1
 10
0
 20
0
 30
0
  0
VERTEX
  8
LAYER_1
 10
136.2673
 20
184.6388
  0
VERTEX
  8
LAYER_1
 10
131.762
 20
184.6388
  0
SEQEND
  0
POLYLINE
  8
LAYER_1
 40
0.1058
 41
0.1058
 66
1
 10
0
 20
0
 30
0
  0
VERTEX
  8
LAYER_1
 10
180.8598
 20
184.6388
  0
VERTEX
  8
LAYER_1
 10
180.9112
 20
184.6388
  0
SEQEND
  0
POLYLINE
  8
LAYER_1
 40
0.1058
 41
0.1058
 66
1
 10
0
 20
0
 30
0
  0
VERTEX
  8
LAYER_1
 10
180.8085
 20
183.8921
  0
VERTEX
  8
LAYER_1
 10
180.8085
 20
174.0613
  0
SEQEND
  0
POLYLINE
  8
LAYER_1
 40
0.1058
 41
0.1058
 66
1
 10
0
 20
0
 30
0
  0
VERTEX
  8
LAYER_1
 10
180.8085
 20
157.3856
  0
VERTEX
  8
LAYER_1
 10
180.8085
 20
175.0364
  0
SEQEND
  0
POLYLINE
  8
LAYER_1
 40
0.05
 41
0.05
 66
1
 10
0
 20
0
 30
0
 70
1
  0
VERTEX
  8
LAYER_1
 10
180.911
 20
183.892
  0
VERTEX
  8
LAYER_1
 10
180.7058
 20
183.892
  0
VERTEX
  8
LAYER_1
 10
180.8086
 20
184.639
  0
SEQEND
  0
POLYLINE
  8
LAYER_1
 66
1
 10
0
 20
0
 30
0
 70
1
  0
VERTEX
  8
LAYER_1
 10
180.911
 20
183.8921
  0
VERTEX
  8
LAYER_1
 10
180.7062
 20
183.8921
  0
VERTEX
  8
LAYER_1
 10
180.8086
 20
184.6386
  0
SEQEND
  0
POLYLINE
  8
LAYER_1
 40
0.05
 41
0.05
 66
1
 10
0
 20
0
 30
0
 70
1
  0
VERTEX
  8
LAYER_1
 10
180.911
 20
157.3856
  0
VERTEX
  8
LAYER_1
 10
180.8086
 20
156.6391
  0
VERTEX
  8
LAYER_1
 10
180.7058
 20
157.3856
  0
SEQEND
  0
POLYLINE
  8
LAYER_1
 66
1
 10
0
 20
0
 30
0
 70
1
  0
VERTEX
  8
LAYER_1
 10
180.911
 20
157.3856
  0
VERTEX
  8
LAYER_1
 10
180.7062
 20
157.3856
  0
VERTEX
  8
LAYER_1
 10
180.8086
 20
156.6391
  0
SEQEND
  0
POLYLINE
  8
LAYER_1
 40
0.1058
 41
0.1058
 66
1
 10
0
 20
0
 30
0
  0
VERTEX
  8
LAYER_1
 10
168.9925
 20
156.639
  0
VERTEX
  8
LAYER_1
 10
180.8086
 20
156.639
  0
SEQEND
  0
POLYLINE
  8
LAYER_1
 40
0.1058
 41
0.1058
 66
1
 10
0
 20
0
 30
0
  0
VERTEX
  8
LAYER_1
 10
176.3034
 20
184.6388
  0
VERTEX
  8
LAYER_1
 10
180.8086
 20
184.6388
  0
SEQEND
  0
POLYLINE
  8
LAYER_1
 40
0.1058
 41
0.1058
 66
1
 10
0
 20
0
 30
0
  0
VERTEX
  8
LAYER_1
 10
137.3114
 20
161.5453
  0
VERTEX
  8
LAYER_1
 10
137.3114
 20
156.7833
  0
SEQEND
  0
POLYLINE
  8
LAYER_1
 40
0.1058
 41
0.1058
 66
1
 10
0
 20
0
 30
0
  0
VERTEX
  8
LAYER_1
 10
222.3119
 20
139.1687
  0
VERTEX
  8
LAYER_1
 10
222.3119
 20
142.1897
  0
SEQEND
  0
POLYLINE
  8
LAYER_1
 40
0.0388
 41
0.0388
 66
1
 10
0
 20
0
 30
0
  0
VERTEX
  8
LAYER_1
 10
165.6872
 20
150.7145
  0
VERTEX
  8
LAYER_1
 10
157.0716
 20
150.7145
  0
SEQEND
  0
POLYLINE
  8
LAYER_1
 40
0.0388
 41
0.0388
 66
1
 10
0
 20
0
 30
0
  0
VERTEX
  8
LAYER_1
 10
137.9358
 20
150.7145
  0
VERTEX
  8
LAYER_1
 10
148.6508
 20
150.7145
  0
SEQEND
  0
POLYLINE
  8
LAYER_1
 40
0.05
 41
0.05
 66
1
 10
0
 20
0
 30
0
 70
1
  0
VERTEX
  8
LAYER_1
 10
165.687
 20
150.6108
  0
VERTEX
  8
LAYER_1
 10
166.3114
 20
150.7139
  0
VERTEX
  8
LAYER_1
 10
165.687
 20
150.8188
  0
SEQEND
  0
POLYLINE
  8
LAYER_1
 40
0.05
 41
0.05
 66
1
 10
0
 20
0
 30
0
 70
1
  0
VERTEX
  8
LAYER_1
 10
137.3114
 20
150.7145
  0
VERTEX
  8
LAYER_1
 10
137.9359
 20
150.611
  0
VERTEX
  8
LAYER_1
 10
137.9359
 20
150.8181
  0
SEQEND
  0
TEXT
  8
LAYER_1
 10
148.598
 20
149.3242
 11
148.598
 21
149.3242
 40
4.7676
 41
0.5
  1
290
  0
POLYLINE
  8
LAYER_1
 40
0.0388
 41
0.0388
 66
1
 10
0
 20
0
 30
0
  0
VERTEX
  8
LAYER_1
 10
166.3114
 20
150.7143
  0
VERTEX
  8
LAYER_1
 10
166.3114
 20
159.8109
  0
SEQEND
  0
POLYLINE
  8
LAYER_1
 40
0.0388
 41
0.0388
 66
1
 10
0
 20
0
 30
0
  0
VERTEX
  8
LAYER_1
 10
161.8891
 20
178.4054
  0
VERTEX
  8
LAYER_1
 10
163.422
 20
178.4054
  0
SEQEND
  0
POLYLINE
  8
LAYER_1
 40
0.0388
 41
0.0388
 66
1
 10
0
 20
0
 30
0
  0
VERTEX
  8
LAYER_1
 10
170.6742
 20
178.4054
  0
VERTEX
  8
LAYER_1
 10
169.3495
 20
178.4054
  0
SEQEND
  0
POLYLINE
  8
LAYER_1
 40
0.05
 41
0.05
 66
1
 10
0
 20
0
 30
0
 70
1
  0
VERTEX
  8
LAYER_1
 10
161.3116
 20
178.4052
  0
VERTEX
  8
LAYER_1
 10
161.889
 20
178.3246
  0
VERTEX
  8
LAYER_1
 10
161.889
 20
178.4864
  0
SEQEND
  0
POLYLINE
  8
LAYER_1
 40
0.05
 41
0.05
 66
1
 10
0
 20
0
 30
0
 70
1
  0
VERTEX
  8
LAYER_1
 10
171.3116
 20
178.405
  0
VERTEX
  8
LAYER_1
 10
170.6744
 20
178.487
  0
VERTEX
  8
LAYER_1
 10
170.6744
 20
178.3241
  0
SEQEND
  0
POLYLINE
  8
LAYER_1
 66
1
 10
0
 20
0
 30
0
  0
VERTEX
  8
LAYER_1
 10
171.3114
 20
178.4054
  0
VERTEX
  8
LAYER_1
 10
170.6742
 20
178.4867
  0
VERTEX
  8
LAYER_1
 10
170.6742
 20
178.3241
  0
VERTEX
  8
LAYER_1
 10
171.3114
 20
178.4054
  0
SEQEND
  0
TEXT
  8
LAYER_1
 10
163.5212
 20
177.3183
 11
163.5212
 21
177.3183
 40
3.7257
 41
0.5
  1
100
  0
INSERT
  8
LAYER_1
  2
AIGNBL0101003F
 10
0
 20
0
 30
0
  0
INSERT
  8
LAYER_1
  2
AIGNBL01010040
 10
0
 20
0
 30
0
  0
ENDSEC
  0
EOF
