  0
SECTION
  2
HEADER
  9
$ACADVER
  1
AC1009
  9
$LUNITS
 70
2
  9
$LUPREC
 70
4
  9
$LTSCALE
 40
1.0
  9
$EXTMIN
 10
-30.3177
 20
33.3285
 30
0
  9
$EXTMAX
 10
584.1028
 20
230.337
 30
0
  0
ENDSEC
  0
SECTION
  2
TABLES
  0
TABLE
  2
LTYPE
 70
256
  0
ENDTAB
  0
TABLE
  2
LAYER
 70
2
  0
LAYER
  2
LAYER_1
 70
64
 62
7
  6
CONTINUOUS
  0
LAYER
  2
LAYER_2
 70
64
 62
7
  6
CONTINUOUS
  0
ENDTAB
  0
TABLE
  2
STYLE
 70
6
  0
STYLE
  2
STANDARD
 70
0
 40
0
 50
0
 71
0
 41
0
 42
0
  3
TXT
  4
BIGFONT
  0
ENDTAB
  0
ENDSEC
  0
SECTION
  2
BLOCKS
  0
BLOCK
  8
LAYER_2
  2
AIGNBL0205000A
 70
64
 10
0
 20
0
 30
0
  3
AIGNBL0205000A
  0
POLYLINE
  8
LAYER_2
 40
0.05
 41
0.05
 66
1
 10
0
 20
0
 30
0
 70
1
  0
VERTEX
  8
LAYER_2
 10
-1.4275
 20
115.3129
  0
VERTEX
  8
LAYER_2
 10
-1.7348
 20
114.1656
  0
VERTEX
  8
LAYER_2
 10
-2.0424
 20
115.3129
  0
SEQEND
  0
ENDBLK
  0
BLOCK
  8
LAYER_2
  2
AIGNBL0205000B
 70
64
 10
0
 20
0
 30
0
  3
AIGNBL0205000B
  0
POLYLINE
  8
LAYER_2
 40
0.05
 41
0.05
 66
1
 10
0
 20
0
 30
0
 70
1
  0
VERTEX
  8
LAYER_2
 10
-1.4275
 20
134.9933
  0
VERTEX
  8
LAYER_2
 10
-1.7348
 20
136.1405
  0
VERTEX
  8
LAYER_2
 10
-2.0424
 20
134.9933
  0
SEQEND
  0
ENDBLK
  0
BLOCK
  8
LAYER_2
  2
AIGNBL02050010
 70
64
 10
0
 20
0
 30
0
  3
AIGNBL02050010
  0
POLYLINE
  8
LAYER_2
 40
0.05
 41
0.05
 66
1
 10
0
 20
0
 30
0
 70
1
  0
VERTEX
  8
LAYER_2
 10
-11.3171
 20
115.3129
  0
VERTEX
  8
LAYER_2
 10
-11.6244
 20
114.1656
  0
VERTEX
  8
LAYER_2
 10
-11.9321
 20
115.3129
  0
SEQEND
  0
ENDBLK
  0
BLOCK
  8
LAYER_2
  2
AIGNBL02050011
 70
64
 10
0
 20
0
 30
0
  3
AIGNBL02050011
  0
POLYLINE
  8
LAYER_2
 40
0.05
 41
0.05
 66
1
 10
0
 20
0
 30
0
 70
1
  0
VERTEX
  8
LAYER_2
 10
-11.3171
 20
156.0148
  0
VERTEX
  8
LAYER_2
 10
-11.6244
 20
157.1622
  0
VERTEX
  8
LAYER_2
 10
-11.9321
 20
156.0148
  0
SEQEND
  0
ENDBLK
  0
BLOCK
  8
LAYER_2
  2
AIGNBL02050016
 70
64
 10
0
 20
0
 30
0
  3
AIGNBL02050016
  0
POLYLINE
  8
LAYER_2
 40
0.05
 41
0.05
 66
1
 10
0
 20
0
 30
0
 70
1
  0
VERTEX
  8
LAYER_2
 10
39.0694
 20
108.9501
  0
VERTEX
  8
LAYER_2
 10
40.2167
 20
108.6428
  0
VERTEX
  8
LAYER_2
 10
39.0694
 20
108.3352
  0
SEQEND
  0
ENDBLK
  0
BLOCK
  8
LAYER_2
  2
AIGNBL02050017
 70
64
 10
0
 20
0
 30
0
  3
AIGNBL02050017
  0
POLYLINE
  8
LAYER_2
 40
0.05
 41
0.05
 66
1
 10
0
 20
0
 30
0
 70
1
  0
VERTEX
  8
LAYER_2
 10
9.6225
 20
108.9501
  0
VERTEX
  8
LAYER_2
 10
8.4751
 20
108.6428
  0
VERTEX
  8
LAYER_2
 10
9.6225
 20
108.3352
  0
SEQEND
  0
ENDBLK
  0
BLOCK
  8
LAYER_2
  2
AIGNBL0205001C
 70
64
 10
0
 20
0
 30
0
  3
AIGNBL0205001C
  0
POLYLINE
  8
LAYER_2
 40
0.05
 41
0.05
 66
1
 10
0
 20
0
 30
0
 70
1
  0
VERTEX
  8
LAYER_2
 10
175.2275
 20
144.7602
  0
VERTEX
  8
LAYER_2
 10
175.5348
 20
145.9074
  0
VERTEX
  8
LAYER_2
 10
175.8425
 20
144.7602
  0
SEQEND
  0
ENDBLK
  0
BLOCK
  8
LAYER_2
  2
AIGNBL0205001D
 70
64
 10
0
 20
0
 30
0
  3
AIGNBL0205001D
  0
POLYLINE
  8
LAYER_2
 40
0.05
 41
0.05
 66
1
 10
0
 20
0
 30
0
 70
1
  0
VERTEX
  8
LAYER_2
 10
175.2275
 20
115.3129
  0
VERTEX
  8
LAYER_2
 10
175.5348
 20
114.1656
  0
VERTEX
  8
LAYER_2
 10
175.8425
 20
115.3129
  0
SEQEND
  0
ENDBLK
  0
BLOCK
  8
LAYER_2
  2
AIGNBL02050022
 70
64
 10
0
 20
0
 30
0
  3
AIGNBL02050022
  0
POLYLINE
  8
LAYER_2
 40
0.05
 41
0.05
 66
1
 10
0
 20
0
 30
0
 70
1
  0
VERTEX
  8
LAYER_2
 10
159.9485
 20
144.7602
  0
VERTEX
  8
LAYER_2
 10
160.2559
 20
145.9074
  0
VERTEX
  8
LAYER_2
 10
160.5635
 20
144.7602
  0
SEQEND
  0
ENDBLK
  0
BLOCK
  8
LAYER_2
  2
AIGNBL02050023
 70
64
 10
0
 20
0
 30
0
  3
AIGNBL02050023
  0
POLYLINE
  8
LAYER_2
 40
0.05
 41
0.05
 66
1
 10
0
 20
0
 30
0
 70
1
  0
VERTEX
  8
LAYER_2
 10
159.9485
 20
132.4047
  0
VERTEX
  8
LAYER_2
 10
160.2559
 20
131.2574
  0
VERTEX
  8
LAYER_2
 10
160.5635
 20
132.4047
  0
SEQEND
  0
ENDBLK
  0
BLOCK
  8
LAYER_2
  2
AIGNBL02050028
 70
64
 10
0
 20
0
 30
0
  3
AIGNBL02050028
  0
POLYLINE
  8
LAYER_2
 40
0.05
 41
0.05
 66
1
 10
0
 20
0
 30
0
 70
1
  0
VERTEX
  8
LAYER_2
 10
168.3284
 20
137.4352
  0
VERTEX
  8
LAYER_2
 10
168.6357
 20
138.5824
  0
VERTEX
  8
LAYER_2
 10
168.9433
 20
137.4352
  0
SEQEND
  0
ENDBLK
  0
BLOCK
  8
LAYER_2
  2
AIGNBL02050029
 70
64
 10
0
 20
0
 30
0
  3
AIGNBL02050029
  0
POLYLINE
  8
LAYER_2
 40
0.05
 41
0.05
 66
1
 10
0
 20
0
 30
0
 70
1
  0
VERTEX
  8
LAYER_2
 10
168.3284
 20
115.3129
  0
VERTEX
  8
LAYER_2
 10
168.6357
 20
114.1656
  0
VERTEX
  8
LAYER_2
 10
168.9433
 20
115.3129
  0
SEQEND
  0
ENDBLK
  0
BLOCK
  8
LAYER_2
  2
AIGNBL0205002E
 70
64
 10
0
 20
0
 30
0
  3
AIGNBL0205002E
  0
POLYLINE
  8
LAYER_2
 40
0.05
 41
0.05
 66
1
 10
0
 20
0
 30
0
 70
1
  0
VERTEX
  8
LAYER_2
 10
168.3284
 20
155.9913
  0
VERTEX
  8
LAYER_2
 10
168.6357
 20
157.1387
  0
VERTEX
  8
LAYER_2
 10
168.9433
 20
155.9913
  0
SEQEND
  0
ENDBLK
  0
BLOCK
  8
LAYER_2
  2
AIGNBL0205002F
 70
64
 10
0
 20
0
 30
0
  3
AIGNBL0205002F
  0
POLYLINE
  8
LAYER_2
 40
0.05
 41
0.05
 66
1
 10
0
 20
0
 30
0
 70
1
  0
VERTEX
  8
LAYER_2
 10
168.3284
 20
139.7296
  0
VERTEX
  8
LAYER_2
 10
168.6357
 20
138.5824
  0
VERTEX
  8
LAYER_2
 10
168.9433
 20
139.7296
  0
SEQEND
  0
ENDBLK
  0
BLOCK
  8
LAYER_2
  2
AIGNBL02050034
 70
64
 10
0
 20
0
 30
0
  3
AIGNBL02050034
  0
POLYLINE
  8
LAYER_2
 40
0.05
 41
0.05
 66
1
 10
0
 20
0
 30
0
 70
1
  0
VERTEX
  8
LAYER_2
 10
51.2775
 20
101.7361
  0
VERTEX
  8
LAYER_2
 10
52.4247
 20
101.4288
  0
VERTEX
  8
LAYER_2
 10
51.2775
 20
101.1211
  0
SEQEND
  0
ENDBLK
  0
BLOCK
  8
LAYER_2
  2
AIGNBL02050035
 70
64
 10
0
 20
0
 30
0
  3
AIGNBL02050035
  0
POLYLINE
  8
LAYER_2
 40
0.05
 41
0.05
 66
1
 10
0
 20
0
 30
0
 70
1
  0
VERTEX
  8
LAYER_2
 10
9.6225
 20
101.7361
  0
VERTEX
  8
LAYER_2
 10
8.4751
 20
101.4288
  0
VERTEX
  8
LAYER_2
 10
9.6225
 20
101.1211
  0
SEQEND
  0
ENDBLK
  0
BLOCK
  8
LAYER_2
  2
AIGNBL0205003F
 70
64
 10
0
 20
0
 30
0
  3
AIGNBL0205003F
  0
POLYLINE
  8
LAYER_2
 40
0.05
 41
0.05
 66
1
 10
0
 20
0
 30
0
 70
1
  0
VERTEX
  8
LAYER_2
 10
7.1808
 20
163.5204
  0
VERTEX
  8
LAYER_2
 10
6.0334
 20
163.8277
  0
VERTEX
  8
LAYER_2
 10
7.1808
 20
164.1354
  0
SEQEND
  0
ENDBLK
  0
BLOCK
  8
LAYER_2
  2
AIGNBL02050040
 70
64
 10
0
 20
0
 30
0
  3
AIGNBL02050040
  0
POLYLINE
  8
LAYER_2
 40
0.05
 41
0.05
 66
1
 10
0
 20
0
 30
0
 70
1
  0
VERTEX
  8
LAYER_2
 10
24.4192
 20
163.5204
  0
VERTEX
  8
LAYER_2
 10
25.5667
 20
163.8277
  0
VERTEX
  8
LAYER_2
 10
24.4192
 20
164.1354
  0
SEQEND
  0
ENDBLK
  0
BLOCK
  8
LAYER_2
  2
AIGNBL02050045
 70
64
 10
0
 20
0
 30
0
  3
AIGNBL02050045
  0
POLYLINE
  8
LAYER_2
 40
0.05
 41
0.05
 66
1
 10
0
 20
0
 30
0
 70
1
  0
VERTEX
  8
LAYER_2
 10
-1.4275
 20
137.2877
  0
VERTEX
  8
LAYER_2
 10
-1.7348
 20
136.1405
  0
VERTEX
  8
LAYER_2
 10
-2.0424
 20
137.2877
  0
SEQEND
  0
ENDBLK
  0
BLOCK
  8
LAYER_2
  2
AIGNBL02050046
 70
64
 10
0
 20
0
 30
0
  3
AIGNBL02050046
  0
POLYLINE
  8
LAYER_2
 40
0.05
 41
0.05
 66
1
 10
0
 20
0
 30
0
 70
1
  0
VERTEX
  8
LAYER_2
 10
-1.4275
 20
139.8771
  0
VERTEX
  8
LAYER_2
 10
-1.7348
 20
141.0243
  0
VERTEX
  8
LAYER_2
 10
-2.0424
 20
139.8771
  0
SEQEND
  0
ENDBLK
  0
BLOCK
  8
LAYER_2
  2
AIGNBL0205004B
 70
64
 10
0
 20
0
 30
0
  3
AIGNBL0205004B
  0
POLYLINE
  8
LAYER_2
 40
0.05
 41
0.05
 66
1
 10
0
 20
0
 30
0
 70
1
  0
VERTEX
  8
LAYER_2
 10
-1.4275
 20
153.403
  0
VERTEX
  8
LAYER_2
 10
-1.7348
 20
152.2557
  0
VERTEX
  8
LAYER_2
 10
-2.0424
 20
153.403
  0
SEQEND
  0
ENDBLK
  0
BLOCK
  8
LAYER_2
  2
AIGNBL0205004C
 70
64
 10
0
 20
0
 30
0
  3
AIGNBL0205004C
  0
POLYLINE
  8
LAYER_2
 40
0.05
 41
0.05
 66
1
 10
0
 20
0
 30
0
 70
1
  0
VERTEX
  8
LAYER_2
 10
-1.4275
 20
155.9913
  0
VERTEX
  8
LAYER_2
 10
-1.7348
 20
157.1387
  0
VERTEX
  8
LAYER_2
 10
-2.0424
 20
155.9913
  0
SEQEND
  0
ENDBLK
  0
BLOCK
  8
LAYER_2
  2
AIGNBL02050051
 70
64
 10
0
 20
0
 30
0
  3
AIGNBL02050051
  0
POLYLINE
  8
LAYER_2
 40
0.05
 41
0.05
 66
1
 10
0
 20
0
 30
0
 70
1
  0
VERTEX
  8
LAYER_2
 10
-1.4275
 20
142.1715
  0
VERTEX
  8
LAYER_2
 10
-1.7348
 20
141.0243
  0
VERTEX
  8
LAYER_2
 10
-2.0424
 20
142.1715
  0
SEQEND
  0
ENDBLK
  0
BLOCK
  8
LAYER_2
  2
AIGNBL02050052
 70
64
 10
0
 20
0
 30
0
  3
AIGNBL02050052
  0
POLYLINE
  8
LAYER_2
 40
0.05
 41
0.05
 66
1
 10
0
 20
0
 30
0
 70
1
  0
VERTEX
  8
LAYER_2
 10
-1.4275
 20
151.1084
  0
VERTEX
  8
LAYER_2
 10
-1.7348
 20
152.2557
  0
VERTEX
  8
LAYER_2
 10
-2.0424
 20
151.1084
  0
SEQEND
  0
ENDBLK
  0
BLOCK
  8
LAYER_2
  2
AIGNBL02050059
 70
64
 10
0
 20
0
 30
0
  3
AIGNBL02050059
  0
POLYLINE
  8
LAYER_2
 40
0.05
 41
0.05
 66
1
 10
0
 20
0
 30
0
 70
1
  0
VERTEX
  8
LAYER_2
 10
203.7047
 20
115.3129
  0
VERTEX
  8
LAYER_2
 10
203.3974
 20
114.1656
  0
VERTEX
  8
LAYER_2
 10
203.0898
 20
115.3129
  0
SEQEND
  0
ENDBLK
  0
BLOCK
  8
LAYER_2
  2
AIGNBL0205005A
 70
64
 10
0
 20
0
 30
0
  3
AIGNBL0205005A
  0
POLYLINE
  8
LAYER_2
 40
0.05
 41
0.05
 66
1
 10
0
 20
0
 30
0
 70
1
  0
VERTEX
  8
LAYER_2
 10
203.7047
 20
134.9933
  0
VERTEX
  8
LAYER_2
 10
203.3974
 20
136.1405
  0
VERTEX
  8
LAYER_2
 10
203.0898
 20
134.9933
  0
SEQEND
  0
ENDBLK
  0
BLOCK
  8
LAYER_2
  2
AIGNBL0205005F
 70
64
 10
0
 20
0
 30
0
  3
AIGNBL0205005F
  0
POLYLINE
  8
LAYER_2
 40
0.05
 41
0.05
 66
1
 10
0
 20
0
 30
0
 70
1
  0
VERTEX
  8
LAYER_2
 10
191.5222
 20
115.3129
  0
VERTEX
  8
LAYER_2
 10
191.2149
 20
114.1656
  0
VERTEX
  8
LAYER_2
 10
190.9072
 20
115.3129
  0
SEQEND
  0
ENDBLK
  0
BLOCK
  8
LAYER_2
  2
AIGNBL02050060
 70
64
 10
0
 20
0
 30
0
  3
AIGNBL02050060
  0
POLYLINE
  8
LAYER_2
 40
0.05
 41
0.05
 66
1
 10
0
 20
0
 30
0
 70
1
  0
VERTEX
  8
LAYER_2
 10
191.5222
 20
156.0148
  0
VERTEX
  8
LAYER_2
 10
191.2149
 20
157.1622
  0
VERTEX
  8
LAYER_2
 10
190.9072
 20
156.0148
  0
SEQEND
  0
ENDBLK
  0
BLOCK
  8
LAYER_2
  2
AIGNBL02050065
 70
64
 10
0
 20
0
 30
0
  3
AIGNBL02050065
  0
POLYLINE
  8
LAYER_2
 40
0.05
 41
0.05
 66
1
 10
0
 20
0
 30
0
 70
1
  0
VERTEX
  8
LAYER_2
 10
227.11
 20
108.9501
  0
VERTEX
  8
LAYER_2
 10
228.2572
 20
108.6428
  0
VERTEX
  8
LAYER_2
 10
227.11
 20
108.3352
  0
SEQEND
  0
ENDBLK
  0
BLOCK
  8
LAYER_2
  2
AIGNBL02050066
 70
64
 10
0
 20
0
 30
0
  3
AIGNBL02050066
  0
POLYLINE
  8
LAYER_2
 40
0.05
 41
0.05
 66
1
 10
0
 20
0
 30
0
 70
1
  0
VERTEX
  8
LAYER_2
 10
214.7545
 20
108.9501
  0
VERTEX
  8
LAYER_2
 10
213.6073
 20
108.6428
  0
VERTEX
  8
LAYER_2
 10
214.7545
 20
108.3352
  0
SEQEND
  0
ENDBLK
  0
BLOCK
  8
LAYER_2
  2
AIGNBL0205006B
 70
64
 10
0
 20
0
 30
0
  3
AIGNBL0205006B
  0
POLYLINE
  8
LAYER_2
 40
0.05
 41
0.05
 66
1
 10
0
 20
0
 30
0
 70
1
  0
VERTEX
  8
LAYER_2
 10
212.3126
 20
163.5204
  0
VERTEX
  8
LAYER_2
 10
211.1654
 20
163.8277
  0
VERTEX
  8
LAYER_2
 10
212.3126
 20
164.1354
  0
SEQEND
  0
ENDBLK
  0
BLOCK
  8
LAYER_2
  2
AIGNBL0205006C
 70
64
 10
0
 20
0
 30
0
  3
AIGNBL0205006C
  0
POLYLINE
  8
LAYER_2
 40
0.05
 41
0.05
 66
1
 10
0
 20
0
 30
0
 70
1
  0
VERTEX
  8
LAYER_2
 10
229.5515
 20
163.5204
  0
VERTEX
  8
LAYER_2
 10
230.6988
 20
163.8277
  0
VERTEX
  8
LAYER_2
 10
229.5515
 20
164.1354
  0
SEQEND
  0
ENDBLK
  0
BLOCK
  8
LAYER_2
  2
AIGNBL02050071
 70
64
 10
0
 20
0
 30
0
  3
AIGNBL02050071
  0
POLYLINE
  8
LAYER_2
 40
0.05
 41
0.05
 66
1
 10
0
 20
0
 30
0
 70
1
  0
VERTEX
  8
LAYER_2
 10
203.7047
 20
137.2877
  0
VERTEX
  8
LAYER_2
 10
203.3974
 20
136.1405
  0
VERTEX
  8
LAYER_2
 10
203.0898
 20
137.2877
  0
SEQEND
  0
ENDBLK
  0
BLOCK
  8
LAYER_2
  2
AIGNBL02050072
 70
64
 10
0
 20
0
 30
0
  3
AIGNBL02050072
  0
POLYLINE
  8
LAYER_2
 40
0.05
 41
0.05
 66
1
 10
0
 20
0
 30
0
 70
1
  0
VERTEX
  8
LAYER_2
 10
203.7047
 20
139.8771
  0
VERTEX
  8
LAYER_2
 10
203.3974
 20
141.0243
  0
VERTEX
  8
LAYER_2
 10
203.0898
 20
139.8771
  0
SEQEND
  0
ENDBLK
  0
BLOCK
  8
LAYER_2
  2
AIGNBL02050077
 70
64
 10
0
 20
0
 30
0
  3
AIGNBL02050077
  0
POLYLINE
  8
LAYER_2
 40
0.05
 41
0.05
 66
1
 10
0
 20
0
 30
0
 70
1
  0
VERTEX
  8
LAYER_2
 10
203.7047
 20
153.403
  0
VERTEX
  8
LAYER_2
 10
203.3974
 20
152.2557
  0
VERTEX
  8
LAYER_2
 10
203.0898
 20
153.403
  0
SEQEND
  0
ENDBLK
  0
BLOCK
  8
LAYER_2
  2
AIGNBL02050078
 70
64
 10
0
 20
0
 30
0
  3
AIGNBL02050078
  0
POLYLINE
  8
LAYER_2
 40
0.05
 41
0.05
 66
1
 10
0
 20
0
 30
0
 70
1
  0
VERTEX
  8
LAYER_2
 10
203.7047
 20
155.9913
  0
VERTEX
  8
LAYER_2
 10
203.3974
 20
157.1387
  0
VERTEX
  8
LAYER_2
 10
203.0898
 20
155.9913
  0
SEQEND
  0
ENDBLK
  0
BLOCK
  8
LAYER_2
  2
AIGNBL0205007D
 70
64
 10
0
 20
0
 30
0
  3
AIGNBL0205007D
  0
POLYLINE
  8
LAYER_2
 40
0.05
 41
0.05
 66
1
 10
0
 20
0
 30
0
 70
1
  0
VERTEX
  8
LAYER_2
 10
203.7047
 20
142.1715
  0
VERTEX
  8
LAYER_2
 10
203.3974
 20
141.0243
  0
VERTEX
  8
LAYER_2
 10
203.0898
 20
142.1715
  0
SEQEND
  0
ENDBLK
  0
BLOCK
  8
LAYER_2
  2
AIGNBL0205007E
 70
64
 10
0
 20
0
 30
0
  3
AIGNBL0205007E
  0
POLYLINE
  8
LAYER_2
 40
0.05
 41
0.05
 66
1
 10
0
 20
0
 30
0
 70
1
  0
VERTEX
  8
LAYER_2
 10
203.7047
 20
151.1084
  0
VERTEX
  8
LAYER_2
 10
203.3974
 20
152.2557
  0
VERTEX
  8
LAYER_2
 10
203.0898
 20
151.1084
  0
SEQEND
  0
ENDBLK
  0
BLOCK
  8
LAYER_1
  2
AIGNBL01040008
 70
64
 10
0
 20
0
 30
0
  3
AIGNBL01040008
  0
POLYLINE
  8
LAYER_1
 40
0.05
 41
0.05
 66
1
 10
0
 20
0
 30
0
 70
1
  0
VERTEX
  8
LAYER_1
 10
303.1395
 20
179.3121
  0
VERTEX
  8
LAYER_1
 10
302.8835
 20
178.3559
  0
VERTEX
  8
LAYER_1
 10
302.6268
 20
179.3121
  0
SEQEND
  0
ENDBLK
  0
BLOCK
  8
LAYER_1
  2
AIGNBL01040009
 70
64
 10
0
 20
0
 30
0
  3
AIGNBL01040009
  0
POLYLINE
  8
LAYER_1
 40
0.05
 41
0.05
 66
1
 10
0
 20
0
 30
0
 70
1
  0
VERTEX
  8
LAYER_1
 10
303.1395
 20
219.0705
  0
VERTEX
  8
LAYER_1
 10
302.8835
 20
220.0265
  0
VERTEX
  8
LAYER_1
 10
302.6268
 20
219.0705
  0
SEQEND
  0
ENDBLK
  0
BLOCK
  8
LAYER_1
  2
AIGNBL0104000F
 70
64
 10
0
 20
0
 30
0
  3
AIGNBL0104000F
  0
POLYLINE
  8
LAYER_1
 40
0.05
 41
0.05
 66
1
 10
0
 20
0
 30
0
 70
1
  0
VERTEX
  8
LAYER_1
 10
303.1395
 20
131.8045
  0
VERTEX
  8
LAYER_1
 10
302.8835
 20
130.8482
  0
VERTEX
  8
LAYER_1
 10
302.6268
 20
131.8045
  0
SEQEND
  0
ENDBLK
  0
BLOCK
  8
LAYER_1
  2
AIGNBL01040010
 70
64
 10
0
 20
0
 30
0
  3
AIGNBL01040010
  0
POLYLINE
  8
LAYER_1
 40
0.05
 41
0.05
 66
1
 10
0
 20
0
 30
0
 70
1
  0
VERTEX
  8
LAYER_1
 10
303.1395
 20
136.2263
  0
VERTEX
  8
LAYER_1
 10
302.8835
 20
137.1827
  0
VERTEX
  8
LAYER_1
 10
302.6268
 20
136.2263
  0
SEQEND
  0
ENDBLK
  0
BLOCK
  8
LAYER_1
  2
AIGNBL01040016
 70
64
 10
0
 20
0
 30
0
  3
AIGNBL01040016
  0
POLYLINE
  8
LAYER_1
 40
0.05
 41
0.05
 66
1
 10
0
 20
0
 30
0
 70
1
  0
VERTEX
  8
LAYER_1
 10
303.1395
 20
120.1629
  0
VERTEX
  8
LAYER_1
 10
302.8835
 20
119.2065
  0
VERTEX
  8
LAYER_1
 10
302.6268
 20
120.1629
  0
SEQEND
  0
ENDBLK
  0
BLOCK
  8
LAYER_1
  2
AIGNBL01040017
 70
64
 10
0
 20
0
 30
0
  3
AIGNBL01040017
  0
POLYLINE
  8
LAYER_1
 40
0.05
 41
0.05
 66
1
 10
0
 20
0
 30
0
 70
1
  0
VERTEX
  8
LAYER_1
 10
303.1395
 20
124.5846
  0
VERTEX
  8
LAYER_1
 10
302.8835
 20
125.5407
  0
VERTEX
  8
LAYER_1
 10
302.6268
 20
124.5846
  0
SEQEND
  0
ENDBLK
  0
BLOCK
  8
LAYER_1
  2
AIGNBL0104001D
 70
64
 10
0
 20
0
 30
0
  3
AIGNBL0104001D
  0
POLYLINE
  8
LAYER_1
 40
0.05
 41
0.05
 66
1
 10
0
 20
0
 30
0
 70
1
  0
VERTEX
  8
LAYER_1
 10
303.1395
 20
103.0235
  0
VERTEX
  8
LAYER_1
 10
302.8835
 20
102.0675
  0
VERTEX
  8
LAYER_1
 10
302.6268
 20
103.0235
  0
SEQEND
  0
ENDBLK
  0
BLOCK
  8
LAYER_1
  2
AIGNBL0104001E
 70
64
 10
0
 20
0
 30
0
  3
AIGNBL0104001E
  0
POLYLINE
  8
LAYER_1
 40
0.05
 41
0.05
 66
1
 10
0
 20
0
 30
0
 70
1
  0
VERTEX
  8
LAYER_1
 10
303.1395
 20
105.1529
  0
VERTEX
  8
LAYER_1
 10
302.8835
 20
106.1089
  0
VERTEX
  8
LAYER_1
 10
302.6268
 20
105.1529
  0
SEQEND
  0
ENDBLK
  0
BLOCK
  8
LAYER_1
  2
AIGNBL01040024
 70
64
 10
0
 20
0
 30
0
  3
AIGNBL01040024
  0
POLYLINE
  8
LAYER_1
 40
0.05
 41
0.05
 66
1
 10
0
 20
0
 30
0
 70
1
  0
VERTEX
  8
LAYER_1
 10
311.2299
 20
110.7033
  0
VERTEX
  8
LAYER_1
 10
310.2736
 20
110.9593
  0
VERTEX
  8
LAYER_1
 10
311.2299
 20
111.2156
  0
SEQEND
  0
ENDBLK
  0
BLOCK
  8
LAYER_1
  2
AIGNBL01040025
 70
64
 10
0
 20
0
 30
0
  3
AIGNBL01040025
  0
POLYLINE
  8
LAYER_1
 40
0.05
 41
0.05
 66
1
 10
0
 20
0
 30
0
 70
1
  0
VERTEX
  8
LAYER_1
 10
332.8793
 20
110.7033
  0
VERTEX
  8
LAYER_1
 10
333.8353
 20
110.9593
  0
VERTEX
  8
LAYER_1
 10
332.8793
 20
111.2156
  0
SEQEND
  0
ENDBLK
  0
BLOCK
  8
LAYER_1
  2
AIGNBL0104002B
 70
64
 10
0
 20
0
 30
0
  3
AIGNBL0104002B
  0
POLYLINE
  8
LAYER_1
 40
0.05
 41
0.05
 66
1
 10
0
 20
0
 30
0
 70
1
  0
VERTEX
  8
LAYER_1
 10
311.5386
 20
225.5323
  0
VERTEX
  8
LAYER_1
 10
310.5822
 20
225.7885
  0
VERTEX
  8
LAYER_1
 10
311.5386
 20
226.0448
  0
SEQEND
  0
ENDBLK
  0
BLOCK
  8
LAYER_1
  2
AIGNBL0104002C
 70
64
 10
0
 20
0
 30
0
  3
AIGNBL0104002C
  0
POLYLINE
  8
LAYER_1
 40
0.05
 41
0.05
 66
1
 10
0
 20
0
 30
0
 70
1
  0
VERTEX
  8
LAYER_1
 10
332.7911
 20
225.5323
  0
VERTEX
  8
LAYER_1
 10
333.7471
 20
225.7885
  0
VERTEX
  8
LAYER_1
 10
332.7911
 20
226.0448
  0
SEQEND
  0
ENDBLK
  0
BLOCK
  8
LAYER_1
  2
AIGNBL01040032
 70
64
 10
0
 20
0
 30
0
  3
AIGNBL01040032
  0
POLYLINE
  8
LAYER_1
 40
0.05
 41
0.05
 66
1
 10
0
 20
0
 30
0
 70
1
  0
VERTEX
  8
LAYER_1
 10
309.4199
 20
143.9523
  0
VERTEX
  8
LAYER_1
 10
308.4635
 20
144.2086
  0
VERTEX
  8
LAYER_1
 10
309.4199
 20
144.4649
  0
SEQEND
  0
ENDBLK
  0
BLOCK
  8
LAYER_1
  2
AIGNBL01040033
 70
64
 10
0
 20
0
 30
0
  3
AIGNBL01040033
  0
POLYLINE
  8
LAYER_1
 40
0.05
 41
0.05
 66
1
 10
0
 20
0
 30
0
 70
1
  0
VERTEX
  8
LAYER_1
 10
334.9925
 20
143.9523
  0
VERTEX
  8
LAYER_1
 10
335.9485
 20
144.2086
  0
VERTEX
  8
LAYER_1
 10
334.9925
 20
144.4649
  0
SEQEND
  0
ENDBLK
  0
BLOCK
  8
LAYER_1
  2
AIGNBL01040039
 70
64
 10
0
 20
0
 30
0
  3
AIGNBL01040039
  0
POLYLINE
  8
LAYER_1
 40
0.05
 41
0.05
 66
1
 10
0
 20
0
 30
0
 70
1
  0
VERTEX
  8
LAYER_1
 10
310.5957
 20
93.976
  0
VERTEX
  8
LAYER_1
 10
309.6397
 20
94.232
  0
VERTEX
  8
LAYER_1
 10
310.5957
 20
94.4883
  0
SEQEND
  0
ENDBLK
  0
BLOCK
  8
LAYER_1
  2
AIGNBL0104003A
 70
64
 10
0
 20
0
 30
0
  3
AIGNBL0104003A
  0
POLYLINE
  8
LAYER_1
 40
0.05
 41
0.05
 66
1
 10
0
 20
0
 30
0
 70
1
  0
VERTEX
  8
LAYER_1
 10
333.8163
 20
93.976
  0
VERTEX
  8
LAYER_1
 10
334.7723
 20
94.232
  0
VERTEX
  8
LAYER_1
 10
333.8163
 20
94.4883
  0
SEQEND
  0
ENDBLK
  0
BLOCK
  8
LAYER_1
  2
AIGNBL01040040
 70
64
 10
0
 20
0
 30
0
  3
AIGNBL01040040
  0
POLYLINE
  8
LAYER_1
 40
0.05
 41
0.05
 66
1
 10
0
 20
0
 30
0
 70
1
  0
VERTEX
  8
LAYER_1
 10
364.8608
 20
45.8211
  0
VERTEX
  8
LAYER_1
 10
365.8168
 20
45.5648
  0
VERTEX
  8
LAYER_1
 10
364.8608
 20
45.3085
  0
SEQEND
  0
ENDBLK
  0
BLOCK
  8
LAYER_1
  2
AIGNBL01040041
 70
64
 10
0
 20
0
 30
0
  3
AIGNBL01040041
  0
POLYLINE
  8
LAYER_1
 40
0.05
 41
0.05
 66
1
 10
0
 20
0
 30
0
 70
1
  0
VERTEX
  8
LAYER_1
 10
310.5957
 20
45.8211
  0
VERTEX
  8
LAYER_1
 10
309.6397
 20
45.5648
  0
VERTEX
  8
LAYER_1
 10
310.5957
 20
45.3085
  0
SEQEND
  0
ENDBLK
  0
BLOCK
  8
LAYER_1
  2
AIGNBL01040047
 70
64
 10
0
 20
0
 30
0
  3
AIGNBL01040047
  0
POLYLINE
  8
LAYER_1
 40
0.05
 41
0.05
 66
1
 10
0
 20
0
 30
0
 70
1
  0
VERTEX
  8
LAYER_1
 10
371.3307
 20
95.6641
  0
VERTEX
  8
LAYER_1
 10
371.5866
 20
96.6201
  0
VERTEX
  8
LAYER_1
 10
371.8429
 20
95.6641
  0
SEQEND
  0
ENDBLK
  0
BLOCK
  8
LAYER_1
  2
AIGNBL01040048
 70
64
 10
0
 20
0
 30
0
  3
AIGNBL01040048
  0
POLYLINE
  8
LAYER_1
 40
0.05
 41
0.05
 66
1
 10
0
 20
0
 30
0
 70
1
  0
VERTEX
  8
LAYER_1
 10
371.3307
 20
72.4135
  0
VERTEX
  8
LAYER_1
 10
371.5866
 20
71.4575
  0
VERTEX
  8
LAYER_1
 10
371.8429
 20
72.4135
  0
SEQEND
  0
ENDBLK
  0
BLOCK
  8
LAYER_1
  2
AIGNBL0104004E
 70
64
 10
0
 20
0
 30
0
  3
AIGNBL0104004E
  0
POLYLINE
  8
LAYER_1
 40
0.05
 41
0.05
 66
1
 10
0
 20
0
 30
0
 70
1
  0
VERTEX
  8
LAYER_1
 10
550.7182
 20
93.1361
  0
VERTEX
  8
LAYER_1
 10
550.9741
 20
94.0921
  0
VERTEX
  8
LAYER_1
 10
551.2304
 20
93.1361
  0
SEQEND
  0
ENDBLK
  0
BLOCK
  8
LAYER_1
  2
AIGNBL0104004F
 70
64
 10
0
 20
0
 30
0
  3
AIGNBL0104004F
  0
POLYLINE
  8
LAYER_1
 40
0.05
 41
0.05
 66
1
 10
0
 20
0
 30
0
 70
1
  0
VERTEX
  8
LAYER_1
 10
550.7182
 20
74.9908
  0
VERTEX
  8
LAYER_1
 10
550.9741
 20
74.0348
  0
VERTEX
  8
LAYER_1
 10
551.2304
 20
74.9908
  0
SEQEND
  0
ENDBLK
  0
BLOCK
  8
LAYER_1
  2
AIGNBL01040055
 70
64
 10
0
 20
0
 30
0
  3
AIGNBL01040055
  0
POLYLINE
  8
LAYER_1
 40
0.05
 41
0.05
 66
1
 10
0
 20
0
 30
0
 70
1
  0
VERTEX
  8
LAYER_1
 10
331.3665
 20
172.0811
  0
VERTEX
  8
LAYER_1
 10
332.3229
 20
171.8252
  0
VERTEX
  8
LAYER_1
 10
331.3665
 20
171.5687
  0
SEQEND
  0
ENDBLK
  0
BLOCK
  8
LAYER_1
  2
AIGNBL01040056
 70
64
 10
0
 20
0
 30
0
  3
AIGNBL01040056
  0
POLYLINE
  8
LAYER_1
 40
0.05
 41
0.05
 66
1
 10
0
 20
0
 30
0
 70
1
  0
VERTEX
  8
LAYER_1
 10
313.2215
 20
172.0811
  0
VERTEX
  8
LAYER_1
 10
312.2655
 20
171.8252
  0
VERTEX
  8
LAYER_1
 10
313.2215
 20
171.5687
  0
SEQEND
  0
ENDBLK
  0
BLOCK
  8
LAYER_1
  2
AIGNBL0104005C
 70
64
 10
0
 20
0
 30
0
  3
AIGNBL0104005C
  0
POLYLINE
  8
LAYER_1
 40
0.05
 41
0.05
 66
1
 10
0
 20
0
 30
0
 70
1
  0
VERTEX
  8
LAYER_1
 10
578.8212
 20
106.718
  0
VERTEX
  8
LAYER_1
 10
579.0775
 20
107.674
  0
VERTEX
  8
LAYER_1
 10
579.3338
 20
106.718
  0
SEQEND
  0
ENDBLK
  0
BLOCK
  8
LAYER_1
  2
AIGNBL0104005D
 70
64
 10
0
 20
0
 30
0
  3
AIGNBL0104005D
  0
POLYLINE
  8
LAYER_1
 40
0.05
 41
0.05
 66
1
 10
0
 20
0
 30
0
 70
1
  0
VERTEX
  8
LAYER_1
 10
578.8212
 20
62.1147
  0
VERTEX
  8
LAYER_1
 10
579.0775
 20
61.1587
  0
VERTEX
  8
LAYER_1
 10
579.3338
 20
62.1147
  0
SEQEND
  0
ENDBLK
  0
BLOCK
  8
LAYER_1
  2
AIGNBL01040063
 70
64
 10
0
 20
0
 30
0
  3
AIGNBL01040063
  0
POLYLINE
  8
LAYER_1
 40
0.05
 41
0.05
 66
1
 10
0
 20
0
 30
0
 70
1
  0
VERTEX
  8
LAYER_1
 10
311.2844
 20
160.1802
  0
VERTEX
  8
LAYER_1
 10
310.3283
 20
160.4364
  0
VERTEX
  8
LAYER_1
 10
311.2844
 20
160.6927
  0
SEQEND
  0
ENDBLK
  0
BLOCK
  8
LAYER_1
  2
AIGNBL01040064
 70
64
 10
0
 20
0
 30
0
  3
AIGNBL01040064
  0
POLYLINE
  8
LAYER_1
 40
0.05
 41
0.05
 66
1
 10
0
 20
0
 30
0
 70
1
  0
VERTEX
  8
LAYER_1
 10
333.2999
 20
160.1802
  0
VERTEX
  8
LAYER_1
 10
334.2559
 20
160.4364
  0
VERTEX
  8
LAYER_1
 10
333.2999
 20
160.6927
  0
SEQEND
  0
ENDBLK
  0
BLOCK
  8
LAYER_1
  2
AIGNBL0104006A
 70
64
 10
0
 20
0
 30
0
  3
AIGNBL0104006A
  0
POLYLINE
  8
LAYER_1
 40
0.05
 41
0.05
 66
1
 10
0
 20
0
 30
0
 70
1
  0
VERTEX
  8
LAYER_1
 10
303.1395
 20
53.873
  0
VERTEX
  8
LAYER_1
 10
302.8835
 20
52.917
  0
VERTEX
  8
LAYER_1
 10
302.6268
 20
53.873
  0
SEQEND
  0
ENDBLK
  0
BLOCK
  8
LAYER_1
  2
AIGNBL0104006B
 70
64
 10
0
 20
0
 30
0
  3
AIGNBL0104006B
  0
POLYLINE
  8
LAYER_1
 40
0.05
 41
0.05
 66
1
 10
0
 20
0
 30
0
 70
1
  0
VERTEX
  8
LAYER_1
 10
303.1395
 20
95.0784
  0
VERTEX
  8
LAYER_1
 10
302.8835
 20
96.0344
  0
VERTEX
  8
LAYER_1
 10
302.6268
 20
95.0784
  0
SEQEND
  0
ENDBLK
  0
BLOCK
  8
LAYER_1
  2
AIGNBL01040071
 70
64
 10
0
 20
0
 30
0
  3
AIGNBL01040071
  0
POLYLINE
  8
LAYER_1
 40
0.05
 41
0.05
 66
1
 10
0
 20
0
 30
0
 70
1
  0
VERTEX
  8
LAYER_1
 10
303.1395
 20
154.0881
  0
VERTEX
  8
LAYER_1
 10
302.8835
 20
153.1321
  0
VERTEX
  8
LAYER_1
 10
302.6268
 20
154.0881
  0
SEQEND
  0
ENDBLK
  0
BLOCK
  8
LAYER_1
  2
AIGNBL01040072
 70
64
 10
0
 20
0
 30
0
  3
AIGNBL01040072
  0
POLYLINE
  8
LAYER_1
 40
0.05
 41
0.05
 66
1
 10
0
 20
0
 30
0
 70
1
  0
VERTEX
  8
LAYER_1
 10
303.1395
 20
153.5124
  0
VERTEX
  8
LAYER_1
 10
302.8835
 20
154.4684
  0
VERTEX
  8
LAYER_1
 10
302.6268
 20
153.5124
  0
SEQEND
  0
ENDBLK
  0
BLOCK
  8
LAYER_2
  2
AIGNBL02040009
 70
64
 10
0
 20
0
 30
0
  3
AIGNBL02040009
  0
POLYLINE
  8
LAYER_2
 40
0.1058
 41
0.1058
 66
1
 10
0
 20
0
 30
0
  0
VERTEX
  8
LAYER_2
 10
-1.722
 20
115.1034
  0
VERTEX
  8
LAYER_2
 10
-1.722
 20
135.2028
  0
SEQEND
  0
INSERT
  8
LAYER_2
  2
AIGNBL0205000A
 10
0
 20
0
 30
0
  0
INSERT
  8
LAYER_2
  2
AIGNBL0205000B
 10
0
 20
0
 30
0
  0
ENDBLK
  0
BLOCK
  8
LAYER_2
  2
AIGNBL0204000F
 70
64
 10
0
 20
0
 30
0
  3
AIGNBL0204000F
  0
POLYLINE
  8
LAYER_2
 40
0.1058
 41
0.1058
 66
1
 10
0
 20
0
 30
0
  0
VERTEX
  8
LAYER_2
 10
-11.6117
 20
115.1034
  0
VERTEX
  8
LAYER_2
 10
-11.6117
 20
156.2246
  0
SEQEND
  0
INSERT
  8
LAYER_2
  2
AIGNBL02050010
 10
0
 20
0
 30
0
  0
INSERT
  8
LAYER_2
  2
AIGNBL02050011
 10
0
 20
0
 30
0
  0
ENDBLK
  0
BLOCK
  8
LAYER_2
  2
AIGNBL02040015
 70
64
 10
0
 20
0
 30
0
  3
AIGNBL02040015
  0
POLYLINE
  8
LAYER_2
 40
0.1058
 41
0.1058
 66
1
 10
0
 20
0
 30
0
  0
VERTEX
  8
LAYER_2
 10
39.2789
 20
108.6556
  0
VERTEX
  8
LAYER_2
 10
9.4127
 20
108.6556
  0
SEQEND
  0
INSERT
  8
LAYER_2
  2
AIGNBL02050016
 10
0
 20
0
 30
0
  0
INSERT
  8
LAYER_2
  2
AIGNBL02050017
 10
0
 20
0
 30
0
  0
ENDBLK
  0
BLOCK
  8
LAYER_2
  2
AIGNBL0204001B
 70
64
 10
0
 20
0
 30
0
  3
AIGNBL0204001B
  0
POLYLINE
  8
LAYER_2
 40
0.1058
 41
0.1058
 66
1
 10
0
 20
0
 30
0
  0
VERTEX
  8
LAYER_2
 10
175.5221
 20
144.9696
  0
VERTEX
  8
LAYER_2
 10
175.5221
 20
115.1034
  0
SEQEND
  0
INSERT
  8
LAYER_2
  2
AIGNBL0205001C
 10
0
 20
0
 30
0
  0
INSERT
  8
LAYER_2
  2
AIGNBL0205001D
 10
0
 20
0
 30
0
  0
ENDBLK
  0
BLOCK
  8
LAYER_2
  2
AIGNBL02040021
 70
64
 10
0
 20
0
 30
0
  3
AIGNBL02040021
  0
POLYLINE
  8
LAYER_2
 40
0.1058
 41
0.1058
 66
1
 10
0
 20
0
 30
0
  0
VERTEX
  8
LAYER_2
 10
160.2431
 20
144.9696
  0
VERTEX
  8
LAYER_2
 10
160.2431
 20
132.1952
  0
SEQEND
  0
INSERT
  8
LAYER_2
  2
AIGNBL02050022
 10
0
 20
0
 30
0
  0
INSERT
  8
LAYER_2
  2
AIGNBL02050023
 10
0
 20
0
 30
0
  0
ENDBLK
  0
BLOCK
  8
LAYER_2
  2
AIGNBL02040027
 70
64
 10
0
 20
0
 30
0
  3
AIGNBL02040027
  0
POLYLINE
  8
LAYER_2
 40
0.1058
 41
0.1058
 66
1
 10
0
 20
0
 30
0
  0
VERTEX
  8
LAYER_2
 10
168.623
 20
137.6447
  0
VERTEX
  8
LAYER_2
 10
168.623
 20
115.1034
  0
SEQEND
  0
INSERT
  8
LAYER_2
  2
AIGNBL02050028
 10
0
 20
0
 30
0
  0
INSERT
  8
LAYER_2
  2
AIGNBL02050029
 10
0
 20
0
 30
0
  0
ENDBLK
  0
BLOCK
  8
LAYER_2
  2
AIGNBL0204002D
 70
64
 10
0
 20
0
 30
0
  3
AIGNBL0204002D
  0
POLYLINE
  8
LAYER_2
 40
0.1058
 41
0.1058
 66
1
 10
0
 20
0
 30
0
  0
VERTEX
  8
LAYER_2
 10
168.623
 20
156.2011
  0
VERTEX
  8
LAYER_2
 10
168.623
 20
139.5202
  0
SEQEND
  0
INSERT
  8
LAYER_2
  2
AIGNBL0205002E
 10
0
 20
0
 30
0
  0
INSERT
  8
LAYER_2
  2
AIGNBL0205002F
 10
0
 20
0
 30
0
  0
ENDBLK
  0
BLOCK
  8
LAYER_2
  2
AIGNBL02040033
 70
64
 10
0
 20
0
 30
0
  3
AIGNBL02040033
  0
POLYLINE
  8
LAYER_2
 40
0.1058
 41
0.1058
 66
1
 10
0
 20
0
 30
0
  0
VERTEX
  8
LAYER_2
 10
51.4873
 20
101.4415
  0
VERTEX
  8
LAYER_2
 10
9.4127
 20
101.4415
  0
SEQEND
  0
INSERT
  8
LAYER_2
  2
AIGNBL02050034
 10
0
 20
0
 30
0
  0
INSERT
  8
LAYER_2
  2
AIGNBL02050035
 10
0
 20
0
 30
0
  0
ENDBLK
  0
BLOCK
  8
LAYER_2
  2
AIGNBL02040039
 70
64
 10
0
 20
0
 30
0
  3
AIGNBL02040039
  0
POLYLINE
  8
LAYER_2
 40
0.05
 41
0.05
 66
1
 10
0
 20
0
 30
0
 70
1
  0
VERTEX
  8
LAYER_2
 10
53.5723
 20
163.5204
  0
VERTEX
  8
LAYER_2
 10
52.4247
 20
163.8277
  0
VERTEX
  8
LAYER_2
 10
53.5723
 20
164.1354
  0
SEQEND
  0
ENDBLK
  0
BLOCK
  8
LAYER_2
  2
AIGNBL0204003A
 70
64
 10
0
 20
0
 30
0
  3
AIGNBL0204003A
  0
POLYLINE
  8
LAYER_2
 40
0.05
 41
0.05
 66
1
 10
0
 20
0
 30
0
 70
1
  0
VERTEX
  8
LAYER_2
 10
153.8276
 20
163.5204
  0
VERTEX
  8
LAYER_2
 10
154.9749
 20
163.8277
  0
VERTEX
  8
LAYER_2
 10
153.8276
 20
164.1354
  0
SEQEND
  0
ENDBLK
  0
BLOCK
  8
LAYER_2
  2
AIGNBL0204003E
 70
64
 10
0
 20
0
 30
0
  3
AIGNBL0204003E
  0
POLYLINE
  8
LAYER_2
 40
0.1058
 41
0.1058
 66
1
 10
0
 20
0
 30
0
  0
VERTEX
  8
LAYER_2
 10
6.971
 20
163.815
  0
VERTEX
  8
LAYER_2
 10
24.629
 20
163.815
  0
SEQEND
  0
INSERT
  8
LAYER_2
  2
AIGNBL0205003F
 10
0
 20
0
 30
0
  0
INSERT
  8
LAYER_2
  2
AIGNBL02050040
 10
0
 20
0
 30
0
  0
ENDBLK
  0
BLOCK
  8
LAYER_2
  2
AIGNBL02040044
 70
64
 10
0
 20
0
 30
0
  3
AIGNBL02040044
  0
POLYLINE
  8
LAYER_2
 40
0.1058
 41
0.1058
 66
1
 10
0
 20
0
 30
0
  0
VERTEX
  8
LAYER_2
 10
-1.722
 20
137.0783
  0
VERTEX
  8
LAYER_2
 10
-1.722
 20
140.0865
  0
SEQEND
  0
INSERT
  8
LAYER_2
  2
AIGNBL02050045
 10
0
 20
0
 30
0
  0
INSERT
  8
LAYER_2
  2
AIGNBL02050046
 10
0
 20
0
 30
0
  0
ENDBLK
  0
BLOCK
  8
LAYER_2
  2
AIGNBL0204004A
 70
64
 10
0
 20
0
 30
0
  3
AIGNBL0204004A
  0
POLYLINE
  8
LAYER_2
 40
0.1058
 41
0.1058
 66
1
 10
0
 20
0
 30
0
  0
VERTEX
  8
LAYER_2
 10
-1.722
 20
153.1932
  0
VERTEX
  8
LAYER_2
 10
-1.722
 20
156.2011
  0
SEQEND
  0
INSERT
  8
LAYER_2
  2
AIGNBL0205004B
 10
0
 20
0
 30
0
  0
INSERT
  8
LAYER_2
  2
AIGNBL0205004C
 10
0
 20
0
 30
0
  0
ENDBLK
  0
BLOCK
  8
LAYER_2
  2
AIGNBL02040050
 70
64
 10
0
 20
0
 30
0
  3
AIGNBL02040050
  0
POLYLINE
  8
LAYER_2
 40
0.1058
 41
0.1058
 66
1
 10
0
 20
0
 30
0
  0
VERTEX
  8
LAYER_2
 10
-1.722
 20
141.962
  0
VERTEX
  8
LAYER_2
 10
-1.722
 20
151.3181
  0
SEQEND
  0
INSERT
  8
LAYER_2
  2
AIGNBL02050051
 10
0
 20
0
 30
0
  0
INSERT
  8
LAYER_2
  2
AIGNBL02050052
 10
0
 20
0
 30
0
  0
ENDBLK
  0
BLOCK
  8
LAYER_2
  2
AIGNBL02040058
 70
64
 10
0
 20
0
 30
0
  3
AIGNBL02040058
  0
POLYLINE
  8
LAYER_2
 40
0.1058
 41
0.1058
 66
1
 10
0
 20
0
 30
0
  0
VERTEX
  8
LAYER_2
 10
203.4102
 20
115.1034
  0
VERTEX
  8
LAYER_2
 10
203.4102
 20
135.2028
  0
SEQEND
  0
INSERT
  8
LAYER_2
  2
AIGNBL02050059
 10
0
 20
0
 30
0
  0
INSERT
  8
LAYER_2
  2
AIGNBL0205005A
 10
0
 20
0
 30
0
  0
ENDBLK
  0
BLOCK
  8
LAYER_2
  2
AIGNBL0204005E
 70
64
 10
0
 20
0
 30
0
  3
AIGNBL0204005E
  0
POLYLINE
  8
LAYER_2
 40
0.1058
 41
0.1058
 66
1
 10
0
 20
0
 30
0
  0
VERTEX
  8
LAYER_2
 10
191.2276
 20
115.1034
  0
VERTEX
  8
LAYER_2
 10
191.2276
 20
156.2246
  0
SEQEND
  0
INSERT
  8
LAYER_2
  2
AIGNBL0205005F
 10
0
 20
0
 30
0
  0
INSERT
  8
LAYER_2
  2
AIGNBL02050060
 10
0
 20
0
 30
0
  0
ENDBLK
  0
BLOCK
  8
LAYER_2
  2
AIGNBL02040064
 70
64
 10
0
 20
0
 30
0
  3
AIGNBL02040064
  0
POLYLINE
  8
LAYER_2
 40
0.1058
 41
0.1058
 66
1
 10
0
 20
0
 30
0
  0
VERTEX
  8
LAYER_2
 10
227.3195
 20
108.6556
  0
VERTEX
  8
LAYER_2
 10
214.545
 20
108.6556
  0
SEQEND
  0
INSERT
  8
LAYER_2
  2
AIGNBL02050065
 10
0
 20
0
 30
0
  0
INSERT
  8
LAYER_2
  2
AIGNBL02050066
 10
0
 20
0
 30
0
  0
ENDBLK
  0
BLOCK
  8
LAYER_2
  2
AIGNBL0204006A
 70
64
 10
0
 20
0
 30
0
  3
AIGNBL0204006A
  0
POLYLINE
  8
LAYER_2
 40
0.1058
 41
0.1058
 66
1
 10
0
 20
0
 30
0
  0
VERTEX
  8
LAYER_2
 10
212.1032
 20
163.815
  0
VERTEX
  8
LAYER_2
 10
229.761
 20
163.815
  0
SEQEND
  0
INSERT
  8
LAYER_2
  2
AIGNBL0205006B
 10
0
 20
0
 30
0
  0
INSERT
  8
LAYER_2
  2
AIGNBL0205006C
 10
0
 20
0
 30
0
  0
ENDBLK
  0
BLOCK
  8
LAYER_2
  2
AIGNBL02040070
 70
64
 10
0
 20
0
 30
0
  3
AIGNBL02040070
  0
POLYLINE
  8
LAYER_2
 40
0.1058
 41
0.1058
 66
1
 10
0
 20
0
 30
0
  0
VERTEX
  8
LAYER_2
 10
203.4102
 20
137.0783
  0
VERTEX
  8
LAYER_2
 10
203.4102
 20
140.0865
  0
SEQEND
  0
INSERT
  8
LAYER_2
  2
AIGNBL02050071
 10
0
 20
0
 30
0
  0
INSERT
  8
LAYER_2
  2
AIGNBL02050072
 10
0
 20
0
 30
0
  0
ENDBLK
  0
BLOCK
  8
LAYER_2
  2
AIGNBL02040076
 70
64
 10
0
 20
0
 30
0
  3
AIGNBL02040076
  0
POLYLINE
  8
LAYER_2
 40
0.1058
 41
0.1058
 66
1
 10
0
 20
0
 30
0
  0
VERTEX
  8
LAYER_2
 10
203.4102
 20
153.1932
  0
VERTEX
  8
LAYER_2
 10
203.4102
 20
156.2011
  0
SEQEND
  0
INSERT
  8
LAYER_2
  2
AIGNBL02050077
 10
0
 20
0
 30
0
  0
INSERT
  8
LAYER_2
  2
AIGNBL02050078
 10
0
 20
0
 30
0
  0
ENDBLK
  0
BLOCK
  8
LAYER_2
  2
AIGNBL0204007C
 70
64
 10
0
 20
0
 30
0
  3
AIGNBL0204007C
  0
POLYLINE
  8
LAYER_2
 40
0.1058
 41
0.1058
 66
1
 10
0
 20
0
 30
0
  0
VERTEX
  8
LAYER_2
 10
203.4102
 20
141.962
  0
VERTEX
  8
LAYER_2
 10
203.4102
 20
151.3181
  0
SEQEND
  0
INSERT
  8
LAYER_2
  2
AIGNBL0205007D
 10
0
 20
0
 30
0
  0
INSERT
  8
LAYER_2
  2
AIGNBL0205007E
 10
0
 20
0
 30
0
  0
ENDBLK
  0
BLOCK
  8
LAYER_2
  2
AIGNBL02040085
 70
64
 10
0
 20
0
 30
0
  3
AIGNBL02040085
  0
POLYLINE
  8
LAYER_2
 40
0.05
 41
0.05
 66
1
 10
0
 20
0
 30
0
 70
1
  0
VERTEX
  8
LAYER_2
 10
146.7545
 20
39.1418
  0
VERTEX
  8
LAYER_2
 10
146.2657
 20
37.9567
  0
VERTEX
  8
LAYER_2
 10
145.6376
 20
37.9567
  0
VERTEX
  8
LAYER_2
 10
147.2372
 20
41.7225
  0
VERTEX
  8
LAYER_2
 10
147.9703
 20
41.7225
  0
VERTEX
  8
LAYER_2
 10
149.5767
 20
37.9567
  0
VERTEX
  8
LAYER_2
 10
148.9267
 20
37.9567
  0
VERTEX
  8
LAYER_2
 10
148.424
 20
39.1418
  0
SEQEND
  0
POLYLINE
  8
LAYER_2
 40
0.05
 41
0.05
 66
1
 10
0
 20
0
 30
0
 70
1
  0
VERTEX
  8
LAYER_2
 10
148.2983
 20
39.5208
  0
VERTEX
  8
LAYER_2
 10
147.8373
 20
40.6056
 42
-0.02317247198
  0
VERTEX
  8
LAYER_2
 10
147.5927
 20
41.2926
  0
VERTEX
  8
LAYER_2
 10
147.5789
 20
41.2926
 42
-0.02064481114
  0
VERTEX
  8
LAYER_2
 10
147.3412
 20
40.6101
  0
VERTEX
  8
LAYER_2
 10
146.8806
 20
39.5208
  0
SEQEND
  0
ENDBLK
  0
BLOCK
  8
LAYER_2
  2
AIGNBL02040086
 70
64
 10
0
 20
0
 30
0
  3
AIGNBL02040086
  0
POLYLINE
  8
LAYER_2
 40
0.05
 41
0.05
 66
1
 10
0
 20
0
 30
0
 70
1
  0
VERTEX
  8
LAYER_2
 10
153.942
 20
37.4034
 42
-0.01525137561
  0
VERTEX
  8
LAYER_2
 10
152.1399
 20
37.8396
 42
0.09192818596
  0
VERTEX
  8
LAYER_2
 10
151.8533
 20
37.895
 42
-0.09256808484
  0
VERTEX
  8
LAYER_2
 10
150.8994
 20
38.0977
 42
-0.09799469934
  0
VERTEX
  8
LAYER_2
 10
150.2621
 20
38.5324
 42
-0.1630918382
  0
VERTEX
  8
LAYER_2
 10
149.7964
 20
39.5259
 42
-0.0316951694
  0
VERTEX
  8
LAYER_2
 10
149.7793
 20
39.7998
 42
-0.1055313794
  0
VERTEX
  8
LAYER_2
 10
149.9533
 20
40.6417
 42
-0.1619874109
  0
VERTEX
  8
LAYER_2
 10
150.7418
 20
41.4867
 42
-0.09224146328
  0
VERTEX
  8
LAYER_2
 10
151.5409
 20
41.7524
 42
-0.03717154931
  0
VERTEX
  8
LAYER_2
 10
151.9725
 20
41.7838
 42
-0.09530535683
  0
VERTEX
  8
LAYER_2
 10
152.9361
 20
41.6062
 42
-0.1001834594
  0
VERTEX
  8
LAYER_2
 10
153.5732
 20
41.1834
 42
-0.1611157059
  0
VERTEX
  8
LAYER_2
 10
154.06
 20
40.1825
 42
-0.03590950521
  0
VERTEX
  8
LAYER_2
 10
154.0816
 20
39.8784
 42
-0.1066899695
  0
VERTEX
  8
LAYER_2
 10
153.9052
 20
39.0236
 42
-0.2183856259
  0
VERTEX
  8
LAYER_2
 10
152.7953
 20
38.0897
 42
-0.006706171784
  0
VERTEX
  8
LAYER_2
 10
152.7407
 20
38.0738
  0
VERTEX
  8
LAYER_2
 10
152.7407
 20
38.0514
 42
0.01533555045
  0
VERTEX
  8
LAYER_2
 10
154.117
 20
37.8113
  0
SEQEND
  0
POLYLINE
  8
LAYER_2
 40
0.05
 41
0.05
 66
1
 10
0
 20
0
 30
0
 70
1
  0
VERTEX
  8
LAYER_2
 10
153.4394
 20
39.857
 42
0.1175610784
  0
VERTEX
  8
LAYER_2
 10
153.257
 20
40.6254
 42
0.1170135141
  0
VERTEX
  8
LAYER_2
 10
152.8315
 20
41.1234
 42
0.1200044572
  0
VERTEX
  8
LAYER_2
 10
152.2186
 20
41.3675
 42
0.03774262044
  0
VERTEX
  8
LAYER_2
 10
151.9511
 20
41.3873
 42
0.1153139376
  0
VERTEX
  8
LAYER_2
 10
151.2089
 20
41.2226
 42
0.1853550912
  0
VERTEX
  8
LAYER_2
 10
150.5507
 20
40.4882
 42
0.09859892291
  0
VERTEX
  8
LAYER_2
 10
150.4287
 20
39.8122
 42
0.1178359247
  0
VERTEX
  8
LAYER_2
 10
150.5964
 20
39.0734
 42
0.2866694251
  0
VERTEX
  8
LAYER_2
 10
151.9232
 20
38.2912
 42
0.1188197759
  0
VERTEX
  8
LAYER_2
 10
152.6722
 20
38.4633
 42
0.1796740134
  0
VERTEX
  8
LAYER_2
 10
153.3126
 20
39.18
 42
0.09850052237
  0
SEQEND
  0
ENDBLK
  0
BLOCK
  8
LAYER_2
  2
AIGNBL02040087
 70
64
 10
0
 20
0
 30
0
  3
AIGNBL02040087
  0
POLYLINE
  8
LAYER_2
 40
0.05
 41
0.05
 66
1
 10
0
 20
0
 30
0
 70
1
  0
VERTEX
  8
LAYER_2
 10
155.4089
 20
41.7225
  0
VERTEX
  8
LAYER_2
 10
155.4089
 20
39.4932
 42
0.1220213404
  0
VERTEX
  8
LAYER_2
 10
155.569
 20
38.7775
 42
0.2218709818
  0
VERTEX
  8
LAYER_2
 10
156.2104
 20
38.3206
 42
0.05223876895
  0
VERTEX
  8
LAYER_2
 10
156.5055
 20
38.2912
 42
0.1302821267
  0
VERTEX
  8
LAYER_2
 10
157.1748
 20
38.452
 42
0.1509367336
  0
VERTEX
  8
LAYER_2
 10
157.526
 20
38.8454
 42
0.1174732039
  0
VERTEX
  8
LAYER_2
 10
157.651
 20
39.4932
  0
VERTEX
  8
LAYER_2
 10
157.651
 20
41.7225
  0
VERTEX
  8
LAYER_2
 10
158.2656
 20
41.7225
  0
VERTEX
  8
LAYER_2
 10
158.2656
 20
39.5266
 42
-0.1106199636
  0
VERTEX
  8
LAYER_2
 10
158.0961
 20
38.708
 42
-0.1822316276
  0
VERTEX
  8
LAYER_2
 10
157.4057
 20
38.0637
 42
-0.09768689614
  0
VERTEX
  8
LAYER_2
 10
156.6028
 20
37.8972
 42
-0.01000776787
  0
VERTEX
  8
LAYER_2
 10
156.4845
 20
37.895
 42
-0.09899827608
  0
VERTEX
  8
LAYER_2
 10
155.612
 20
38.0554
 42
-0.1209605854
  0
VERTEX
  8
LAYER_2
 10
155.1093
 20
38.4366
 42
-0.1192983303
  0
VERTEX
  8
LAYER_2
 10
154.8407
 20
39.0317
 42
-0.05319533763
  0
VERTEX
  8
LAYER_2
 10
154.7943
 20
39.5046
  0
VERTEX
  8
LAYER_2
 10
154.7943
 20
41.7225
  0
SEQEND
  0
ENDBLK
  0
BLOCK
  8
LAYER_2
  2
AIGNBL02040088
 70
64
 10
0
 20
0
 30
0
  3
AIGNBL02040088
  0
POLYLINE
  8
LAYER_2
 40
0.05
 41
0.05
 66
1
 10
0
 20
0
 30
0
 70
1
  0
VERTEX
  8
LAYER_2
 10
160.0119
 20
39.1418
  0
VERTEX
  8
LAYER_2
 10
159.5227
 20
37.9567
  0
VERTEX
  8
LAYER_2
 10
158.8947
 20
37.9567
  0
VERTEX
  8
LAYER_2
 10
160.4939
 20
41.7225
  0
VERTEX
  8
LAYER_2
 10
161.227
 20
41.7225
  0
VERTEX
  8
LAYER_2
 10
162.8335
 20
37.9567
  0
VERTEX
  8
LAYER_2
 10
162.1841
 20
37.9567
  0
VERTEX
  8
LAYER_2
 10
161.6814
 20
39.1418
  0
SEQEND
  0
POLYLINE
  8
LAYER_2
 40
0.05
 41
0.05
 66
1
 10
0
 20
0
 30
0
 70
1
  0
VERTEX
  8
LAYER_2
 10
161.5553
 20
39.5208
  0
VERTEX
  8
LAYER_2
 10
161.094
 20
40.6056
 42
-0.02227599701
  0
VERTEX
  8
LAYER_2
 10
160.8494
 20
41.2926
  0
VERTEX
  8
LAYER_2
 10
160.8357
 20
41.2926
 42
-0.0206476565
  0
VERTEX
  8
LAYER_2
 10
160.5983
 20
40.6101
  0
VERTEX
  8
LAYER_2
 10
160.1373
 20
39.5208
  0
SEQEND
  0
ENDBLK
  0
BLOCK
  8
LAYER_2
  2
AIGNBL02040089
 70
64
 10
0
 20
0
 30
0
  3
AIGNBL02040089
  0
POLYLINE
  8
LAYER_2
 40
0.05
 41
0.05
 66
1
 10
0
 20
0
 30
0
 70
1
  0
VERTEX
  8
LAYER_2
 10
163.8742
 20
41.6777
 42
-0.03334485223
  0
VERTEX
  8
LAYER_2
 10
165.0411
 20
41.7508
 42
-0.08841555942
  0
VERTEX
  8
LAYER_2
 10
166.0872
 20
41.5858
 42
-0.06038484967
  0
VERTEX
  8
LAYER_2
 10
166.3609
 20
41.438
 42
-0.2471651456
  0
VERTEX
  8
LAYER_2
 10
166.7726
 20
40.6497
 42
-0.1483298328
  0
VERTEX
  8
LAYER_2
 10
166.6029
 20
40.0554
 42
-0.07223194904
  0
VERTEX
  8
LAYER_2
 10
166.4095
 20
39.8456
 42
-0.1209372404
  0
VERTEX
  8
LAYER_2
 10
165.7228
 20
39.517
 42
-0.06224269186
  0
VERTEX
  8
LAYER_2
 10
164.9708
 20
39.4319
 42
-0.05738783264
  0
VERTEX
  8
LAYER_2
 10
164.4823
 20
39.4653
  0
VERTEX
  8
LAYER_2
 10
164.4823
 20
37.9567
  0
VERTEX
  8
LAYER_2
 10
163.8742
 20
37.9567
  0
SEQEND
  0
POLYLINE
  8
LAYER_2
 40
0.05
 41
0.05
 66
1
 10
0
 20
0
 30
0
 70
1
  0
VERTEX
  8
LAYER_2
 10
164.4823
 20
39.8622
 42
0.05012782438
  0
VERTEX
  8
LAYER_2
 10
164.9846
 20
39.8229
 42
0.1135463519
  0
VERTEX
  8
LAYER_2
 10
165.7697
 20
39.9822
 42
0.1653329065
  0
VERTEX
  8
LAYER_2
 10
166.1074
 20
40.3302
 42
0.1044639943
  0
VERTEX
  8
LAYER_2
 10
166.1656
 20
40.6273
 42
0.2826437488
  0
VERTEX
  8
LAYER_2
 10
165.8147
 20
41.2103
 42
0.0629694601
  0
VERTEX
  8
LAYER_2
 10
165.549
 20
41.3107
 42
0.06259589917
  0
VERTEX
  8
LAYER_2
 10
165.0552
 20
41.3649
 42
0.05214717704
  0
VERTEX
  8
LAYER_2
 10
164.4823
 20
41.3256
  0
SEQEND
  0
ENDBLK
  0
BLOCK
  8
LAYER_2
  2
AIGNBL0204008A
 70
64
 10
0
 20
0
 30
0
  3
AIGNBL0204008A
  0
POLYLINE
  8
LAYER_2
 40
0.05
 41
0.05
 66
1
 10
0
 20
0
 30
0
 70
1
  0
VERTEX
  8
LAYER_2
 10
168.3246
 20
41.4207
 42
-0.3048675751
  0
VERTEX
  8
LAYER_2
 10
168.1582
 20
41.1661
 42
-0.1151020929
  0
VERTEX
  8
LAYER_2
 10
167.9329
 20
41.1189
 42
-0.2442513348
  0
VERTEX
  8
LAYER_2
 10
167.6028
 20
41.2794
 42
-0.1394546152
  0
VERTEX
  8
LAYER_2
 10
167.5626
 20
41.4207
 42
-0.287439772
  0
VERTEX
  8
LAYER_2
 10
167.7346
 20
41.6803
 42
-0.1179404017
  0
VERTEX
  8
LAYER_2
 10
167.9467
 20
41.7277
 42
-0.2416274379
  0
VERTEX
  8
LAYER_2
 10
168.2814
 20
41.5719
 42
-0.1426378456
  0
SEQEND
  0
POLYLINE
  8
LAYER_2
 40
0.05
 41
0.05
 66
1
 10
0
 20
0
 30
0
 70
1
  0
VERTEX
  8
LAYER_2
 10
167.639
 20
37.9567
  0
VERTEX
  8
LAYER_2
 10
167.639
 20
40.6607
  0
VERTEX
  8
LAYER_2
 10
168.2536
 20
40.6607
  0
VERTEX
  8
LAYER_2
 10
168.2536
 20
37.9567
  0
SEQEND
  0
ENDBLK
  0
BLOCK
  8
LAYER_2
  2
AIGNBL0204008B
 70
64
 10
0
 20
0
 30
0
  3
AIGNBL0204008B
  0
POLYLINE
  8
LAYER_2
 40
0.05
 41
0.05
 66
1
 10
0
 20
0
 30
0
 70
1
  0
VERTEX
  8
LAYER_2
 10
170.1254
 20
39.1418
  0
VERTEX
  8
LAYER_2
 10
169.6372
 20
37.9567
  0
VERTEX
  8
LAYER_2
 10
169.0081
 20
37.9567
  0
VERTEX
  8
LAYER_2
 10
170.6077
 20
41.7225
  0
VERTEX
  8
LAYER_2
 10
171.3415
 20
41.7225
  0
VERTEX
  8
LAYER_2
 10
172.9479
 20
37.9567
  0
VERTEX
  8
LAYER_2
 10
172.2982
 20
37.9567
  0
VERTEX
  8
LAYER_2
 10
171.7955
 20
39.1418
  0
SEQEND
  0
POLYLINE
  8
LAYER_2
 40
0.05
 41
0.05
 66
1
 10
0
 20
0
 30
0
 70
1
  0
VERTEX
  8
LAYER_2
 10
171.6695
 20
39.5208
  0
VERTEX
  8
LAYER_2
 10
171.2085
 20
40.6056
 42
-0.02430767271
  0
VERTEX
  8
LAYER_2
 10
170.9646
 20
41.2926
  0
VERTEX
  8
LAYER_2
 10
170.9498
 20
41.2926
 42
-0.02046602706
  0
VERTEX
  8
LAYER_2
 10
170.7127
 20
40.6101
  0
VERTEX
  8
LAYER_2
 10
170.2518
 20
39.5208
  0
SEQEND
  0
ENDBLK
  0
BLOCK
  8
LAYER_1
  2
AIGNBL01030007
 70
64
 10
0
 20
0
 30
0
  3
AIGNBL01030007
  0
POLYLINE
  8
LAYER_1
 40
0.0882
 41
0.0882
 66
1
 10
0
 20
0
 30
0
  0
VERTEX
  8
LAYER_1
 10
302.8942
 20
179.1372
  0
VERTEX
  8
LAYER_1
 10
302.8942
 20
219.2452
  0
SEQEND
  0
INSERT
  8
LAYER_1
  2
AIGNBL01040008
 10
0
 20
0
 30
0
  0
INSERT
  8
LAYER_1
  2
AIGNBL01040009
 10
0
 20
0
 30
0
  0
ENDBLK
  0
BLOCK
  8
LAYER_1
  2
AIGNBL0103000E
 70
64
 10
0
 20
0
 30
0
  3
AIGNBL0103000E
  0
POLYLINE
  8
LAYER_1
 40
0.0882
 41
0.0882
 66
1
 10
0
 20
0
 30
0
  0
VERTEX
  8
LAYER_1
 10
302.8942
 20
131.6295
  0
VERTEX
  8
LAYER_1
 10
302.8942
 20
136.4013
  0
SEQEND
  0
INSERT
  8
LAYER_1
  2
AIGNBL0104000F
 10
0
 20
0
 30
0
  0
INSERT
  8
LAYER_1
  2
AIGNBL01040010
 10
0
 20
0
 30
0
  0
ENDBLK
  0
BLOCK
  8
LAYER_1
  2
AIGNBL01030015
 70
64
 10
0
 20
0
 30
0
  3
AIGNBL01030015
  0
POLYLINE
  8
LAYER_1
 40
0.0882
 41
0.0882
 66
1
 10
0
 20
0
 30
0
  0
VERTEX
  8
LAYER_1
 10
302.8942
 20
119.9879
  0
VERTEX
  8
LAYER_1
 10
302.8942
 20
124.7593
  0
SEQEND
  0
INSERT
  8
LAYER_1
  2
AIGNBL01040016
 10
0
 20
0
 30
0
  0
INSERT
  8
LAYER_1
  2
AIGNBL01040017
 10
0
 20
0
 30
0
  0
ENDBLK
  0
BLOCK
  8
LAYER_1
  2
AIGNBL0103001C
 70
64
 10
0
 20
0
 30
0
  3
AIGNBL0103001C
  0
POLYLINE
  8
LAYER_1
 40
0.0882
 41
0.0882
 66
1
 10
0
 20
0
 30
0
  0
VERTEX
  8
LAYER_1
 10
302.8942
 20
102.8488
  0
VERTEX
  8
LAYER_1
 10
302.8942
 20
105.3276
  0
SEQEND
  0
INSERT
  8
LAYER_1
  2
AIGNBL0104001D
 10
0
 20
0
 30
0
  0
INSERT
  8
LAYER_1
  2
AIGNBL0104001E
 10
0
 20
0
 30
0
  0
ENDBLK
  0
BLOCK
  8
LAYER_1
  2
AIGNBL01030023
 70
64
 10
0
 20
0
 30
0
  3
AIGNBL01030023
  0
POLYLINE
  8
LAYER_1
 40
0.0882
 41
0.0882
 66
1
 10
0
 20
0
 30
0
  0
VERTEX
  8
LAYER_1
 10
311.0549
 20
110.9486
  0
VERTEX
  8
LAYER_1
 10
333.0539
 20
110.9486
  0
SEQEND
  0
INSERT
  8
LAYER_1
  2
AIGNBL01040024
 10
0
 20
0
 30
0
  0
INSERT
  8
LAYER_1
  2
AIGNBL01040025
 10
0
 20
0
 30
0
  0
ENDBLK
  0
BLOCK
  8
LAYER_1
  2
AIGNBL0103002A
 70
64
 10
0
 20
0
 30
0
  3
AIGNBL0103002A
  0
POLYLINE
  8
LAYER_1
 40
0.0882
 41
0.0882
 66
1
 10
0
 20
0
 30
0
  0
VERTEX
  8
LAYER_1
 10
311.3636
 20
225.7778
  0
VERTEX
  8
LAYER_1
 10
332.9657
 20
225.7778
  0
SEQEND
  0
INSERT
  8
LAYER_1
  2
AIGNBL0104002B
 10
0
 20
0
 30
0
  0
INSERT
  8
LAYER_1
  2
AIGNBL0104002C
 10
0
 20
0
 30
0
  0
ENDBLK
  0
BLOCK
  8
LAYER_1
  2
AIGNBL01030031
 70
64
 10
0
 20
0
 30
0
  3
AIGNBL01030031
  0
POLYLINE
  8
LAYER_1
 40
0.0882
 41
0.0882
 66
1
 10
0
 20
0
 30
0
  0
VERTEX
  8
LAYER_1
 10
309.2449
 20
144.1979
  0
VERTEX
  8
LAYER_1
 10
335.1671
 20
144.1979
  0
SEQEND
  0
INSERT
  8
LAYER_1
  2
AIGNBL01040032
 10
0
 20
0
 30
0
  0
INSERT
  8
LAYER_1
  2
AIGNBL01040033
 10
0
 20
0
 30
0
  0
ENDBLK
  0
BLOCK
  8
LAYER_1
  2
AIGNBL01030038
 70
64
 10
0
 20
0
 30
0
  3
AIGNBL01030038
  0
POLYLINE
  8
LAYER_1
 40
0.0882
 41
0.0882
 66
1
 10
0
 20
0
 30
0
  0
VERTEX
  8
LAYER_1
 10
310.421
 20
94.2213
  0
VERTEX
  8
LAYER_1
 10
333.991
 20
94.2213
  0
SEQEND
  0
INSERT
  8
LAYER_1
  2
AIGNBL01040039
 10
0
 20
0
 30
0
  0
INSERT
  8
LAYER_1
  2
AIGNBL0104003A
 10
0
 20
0
 30
0
  0
ENDBLK
  0
BLOCK
  8
LAYER_1
  2
AIGNBL0103003F
 70
64
 10
0
 20
0
 30
0
  3
AIGNBL0103003F
  0
POLYLINE
  8
LAYER_1
 40
0.0882
 41
0.0882
 66
1
 10
0
 20
0
 30
0
  0
VERTEX
  8
LAYER_1
 10
365.0354
 20
45.5755
  0
VERTEX
  8
LAYER_1
 10
310.421
 20
45.5755
  0
SEQEND
  0
INSERT
  8
LAYER_1
  2
AIGNBL01040040
 10
0
 20
0
 30
0
  0
INSERT
  8
LAYER_1
  2
AIGNBL01040041
 10
0
 20
0
 30
0
  0
ENDBLK
  0
BLOCK
  8
LAYER_1
  2
AIGNBL01030046
 70
64
 10
0
 20
0
 30
0
  3
AIGNBL01030046
  0
POLYLINE
  8
LAYER_1
 40
0.0882
 41
0.0882
 66
1
 10
0
 20
0
 30
0
  0
VERTEX
  8
LAYER_1
 10
371.5763
 20
95.8388
  0
VERTEX
  8
LAYER_1
 10
371.5763
 20
72.2388
  0
SEQEND
  0
INSERT
  8
LAYER_1
  2
AIGNBL01040047
 10
0
 20
0
 30
0
  0
INSERT
  8
LAYER_1
  2
AIGNBL01040048
 10
0
 20
0
 30
0
  0
ENDBLK
  0
BLOCK
  8
LAYER_1
  2
AIGNBL0103004D
 70
64
 10
0
 20
0
 30
0
  3
AIGNBL0103004D
  0
POLYLINE
  8
LAYER_1
 40
0.0882
 41
0.0882
 66
1
 10
0
 20
0
 30
0
  0
VERTEX
  8
LAYER_1
 10
550.9634
 20
93.3108
  0
VERTEX
  8
LAYER_1
 10
550.9634
 20
74.8161
  0
SEQEND
  0
INSERT
  8
LAYER_1
  2
AIGNBL0104004E
 10
0
 20
0
 30
0
  0
INSERT
  8
LAYER_1
  2
AIGNBL0104004F
 10
0
 20
0
 30
0
  0
ENDBLK
  0
BLOCK
  8
LAYER_1
  2
AIGNBL01030054
 70
64
 10
0
 20
0
 30
0
  3
AIGNBL01030054
  0
POLYLINE
  8
LAYER_1
 40
0.0882
 41
0.0882
 66
1
 10
0
 20
0
 30
0
  0
VERTEX
  8
LAYER_1
 10
331.5415
 20
171.8357
  0
VERTEX
  8
LAYER_1
 10
313.0469
 20
171.8357
  0
SEQEND
  0
INSERT
  8
LAYER_1
  2
AIGNBL01040055
 10
0
 20
0
 30
0
  0
INSERT
  8
LAYER_1
  2
AIGNBL01040056
 10
0
 20
0
 30
0
  0
ENDBLK
  0
BLOCK
  8
LAYER_1
  2
AIGNBL0103005B
 70
64
 10
0
 20
0
 30
0
  3
AIGNBL0103005B
  0
POLYLINE
  8
LAYER_1
 40
0.0882
 41
0.0882
 66
1
 10
0
 20
0
 30
0
  0
VERTEX
  8
LAYER_1
 10
579.0668
 20
106.8927
  0
VERTEX
  8
LAYER_1
 10
579.0668
 20
61.9401
  0
SEQEND
  0
INSERT
  8
LAYER_1
  2
AIGNBL0104005C
 10
0
 20
0
 30
0
  0
INSERT
  8
LAYER_1
  2
AIGNBL0104005D
 10
0
 20
0
 30
0
  0
ENDBLK
  0
BLOCK
  8
LAYER_1
  2
AIGNBL01030062
 70
64
 10
0
 20
0
 30
0
  3
AIGNBL01030062
  0
POLYLINE
  8
LAYER_1
 40
0.0882
 41
0.0882
 66
1
 10
0
 20
0
 30
0
  0
VERTEX
  8
LAYER_1
 10
311.1097
 20
160.4257
  0
VERTEX
  8
LAYER_1
 10
333.4746
 20
160.4257
  0
SEQEND
  0
INSERT
  8
LAYER_1
  2
AIGNBL01040063
 10
0
 20
0
 30
0
  0
INSERT
  8
LAYER_1
  2
AIGNBL01040064
 10
0
 20
0
 30
0
  0
ENDBLK
  0
BLOCK
  8
LAYER_1
  2
AIGNBL01030069
 70
64
 10
0
 20
0
 30
0
  3
AIGNBL01030069
  0
POLYLINE
  8
LAYER_1
 40
0.0882
 41
0.0882
 66
1
 10
0
 20
0
 30
0
  0
VERTEX
  8
LAYER_1
 10
302.8942
 20
53.6984
  0
VERTEX
  8
LAYER_1
 10
302.8942
 20
95.2531
  0
SEQEND
  0
INSERT
  8
LAYER_1
  2
AIGNBL0104006A
 10
0
 20
0
 30
0
  0
INSERT
  8
LAYER_1
  2
AIGNBL0104006B
 10
0
 20
0
 30
0
  0
ENDBLK
  0
BLOCK
  8
LAYER_1
  2
AIGNBL01030070
 70
64
 10
0
 20
0
 30
0
  3
AIGNBL01030070
  0
INSERT
  8
LAYER_1
  2
AIGNBL01040071
 10
0
 20
0
 30
0
  0
INSERT
  8
LAYER_1
  2
AIGNBL01040072
 10
0
 20
0
 30
0
  0
ENDBLK
  0
BLOCK
  8
LAYER_2
  2
AIGNBL02030008
 70
64
 10
0
 20
0
 30
0
  3
AIGNBL02030008
  0
INSERT
  8
LAYER_2
  2
AIGNBL02040009
 10
0
 20
0
 30
0
  0
ENDBLK
  0
BLOCK
  8
LAYER_2
  2
AIGNBL0203000E
 70
64
 10
0
 20
0
 30
0
  3
AIGNBL0203000E
  0
INSERT
  8
LAYER_2
  2
AIGNBL0204000F
 10
0
 20
0
 30
0
  0
ENDBLK
  0
BLOCK
  8
LAYER_2
  2
AIGNBL02030014
 70
64
 10
0
 20
0
 30
0
  3
AIGNBL02030014
  0
INSERT
  8
LAYER_2
  2
AIGNBL02040015
 10
0
 20
0
 30
0
  0
ENDBLK
  0
BLOCK
  8
LAYER_2
  2
AIGNBL0203001A
 70
64
 10
0
 20
0
 30
0
  3
AIGNBL0203001A
  0
INSERT
  8
LAYER_2
  2
AIGNBL0204001B
 10
0
 20
0
 30
0
  0
ENDBLK
  0
BLOCK
  8
LAYER_2
  2
AIGNBL02030020
 70
64
 10
0
 20
0
 30
0
  3
AIGNBL02030020
  0
INSERT
  8
LAYER_2
  2
AIGNBL02040021
 10
0
 20
0
 30
0
  0
ENDBLK
  0
BLOCK
  8
LAYER_2
  2
AIGNBL02030026
 70
64
 10
0
 20
0
 30
0
  3
AIGNBL02030026
  0
INSERT
  8
LAYER_2
  2
AIGNBL02040027
 10
0
 20
0
 30
0
  0
ENDBLK
  0
BLOCK
  8
LAYER_2
  2
AIGNBL0203002C
 70
64
 10
0
 20
0
 30
0
  3
AIGNBL0203002C
  0
INSERT
  8
LAYER_2
  2
AIGNBL0204002D
 10
0
 20
0
 30
0
  0
ENDBLK
  0
BLOCK
  8
LAYER_2
  2
AIGNBL02030032
 70
64
 10
0
 20
0
 30
0
  3
AIGNBL02030032
  0
INSERT
  8
LAYER_2
  2
AIGNBL02040033
 10
0
 20
0
 30
0
  0
ENDBLK
  0
BLOCK
  8
LAYER_2
  2
AIGNBL02030038
 70
64
 10
0
 20
0
 30
0
  3
AIGNBL02030038
  0
POLYLINE
  8
LAYER_2
 40
0.1058
 41
0.1058
 66
1
 10
0
 20
0
 30
0
  0
VERTEX
  8
LAYER_2
 10
53.3625
 20
163.815
  0
VERTEX
  8
LAYER_2
 10
154.0371
 20
163.815
  0
SEQEND
  0
INSERT
  8
LAYER_2
  2
AIGNBL02040039
 10
0
 20
0
 30
0
  0
INSERT
  8
LAYER_2
  2
AIGNBL0204003A
 10
0
 20
0
 30
0
  0
ENDBLK
  0
BLOCK
  8
LAYER_2
  2
AIGNBL0203003D
 70
64
 10
0
 20
0
 30
0
  3
AIGNBL0203003D
  0
INSERT
  8
LAYER_2
  2
AIGNBL0204003E
 10
0
 20
0
 30
0
  0
ENDBLK
  0
BLOCK
  8
LAYER_2
  2
AIGNBL02030043
 70
64
 10
0
 20
0
 30
0
  3
AIGNBL02030043
  0
INSERT
  8
LAYER_2
  2
AIGNBL02040044
 10
0
 20
0
 30
0
  0
ENDBLK
  0
BLOCK
  8
LAYER_2
  2
AIGNBL02030049
 70
64
 10
0
 20
0
 30
0
  3
AIGNBL02030049
  0
INSERT
  8
LAYER_2
  2
AIGNBL0204004A
 10
0
 20
0
 30
0
  0
ENDBLK
  0
BLOCK
  8
LAYER_2
  2
AIGNBL0203004F
 70
64
 10
0
 20
0
 30
0
  3
AIGNBL0203004F
  0
INSERT
  8
LAYER_2
  2
AIGNBL02040050
 10
0
 20
0
 30
0
  0
ENDBLK
  0
BLOCK
  8
LAYER_2
  2
AIGNBL02030057
 70
64
 10
0
 20
0
 30
0
  3
AIGNBL02030057
  0
INSERT
  8
LAYER_2
  2
AIGNBL02040058
 10
0
 20
0
 30
0
  0
ENDBLK
  0
BLOCK
  8
LAYER_2
  2
AIGNBL0203005D
 70
64
 10
0
 20
0
 30
0
  3
AIGNBL0203005D
  0
INSERT
  8
LAYER_2
  2
AIGNBL0204005E
 10
0
 20
0
 30
0
  0
ENDBLK
  0
BLOCK
  8
LAYER_2
  2
AIGNBL02030063
 70
64
 10
0
 20
0
 30
0
  3
AIGNBL02030063
  0
INSERT
  8
LAYER_2
  2
AIGNBL02040064
 10
0
 20
0
 30
0
  0
ENDBLK
  0
BLOCK
  8
LAYER_2
  2
AIGNBL02030069
 70
64
 10
0
 20
0
 30
0
  3
AIGNBL02030069
  0
INSERT
  8
LAYER_2
  2
AIGNBL0204006A
 10
0
 20
0
 30
0
  0
ENDBLK
  0
BLOCK
  8
LAYER_2
  2
AIGNBL0203006F
 70
64
 10
0
 20
0
 30
0
  3
AIGNBL0203006F
  0
INSERT
  8
LAYER_2
  2
AIGNBL02040070
 10
0
 20
0
 30
0
  0
ENDBLK
  0
BLOCK
  8
LAYER_2
  2
AIGNBL02030075
 70
64
 10
0
 20
0
 30
0
  3
AIGNBL02030075
  0
INSERT
  8
LAYER_2
  2
AIGNBL02040076
 10
0
 20
0
 30
0
  0
ENDBLK
  0
BLOCK
  8
LAYER_2
  2
AIGNBL0203007B
 70
64
 10
0
 20
0
 30
0
  3
AIGNBL0203007B
  0
INSERT
  8
LAYER_2
  2
AIGNBL0204007C
 10
0
 20
0
 30
0
  0
ENDBLK
  0
BLOCK
  8
LAYER_2
  2
AIGNBL02030081
 70
64
 10
0
 20
0
 30
0
  3
AIGNBL02030081
  0
POLYLINE
  8
LAYER_2
 40
0.05
 41
0.05
 66
1
 10
0
 20
0
 30
0
 70
1
  0
VERTEX
  8
LAYER_2
 10
21.1667
 20
146.5792
 42
-0.06018445208
  0
VERTEX
  8
LAYER_2
 10
22.4458
 20
145.9189
 42
-0.02628131627
  0
VERTEX
  8
LAYER_2
 10
22.6742
 20
145.7403
  0
VERTEX
  8
LAYER_2
 10
22.3709
 20
146.5792
  0
VERTEX
  8
LAYER_2
 10
22.6742
 20
147.4179
 42
-0.04020861359
  0
VERTEX
  8
LAYER_2
 10
22.2078
 20
147.0827
 42
-0.04741610156
  0
SEQEND
  0
ENDBLK
  0
BLOCK
  8
LAYER_2
  2
AIGNBL02030084
 70
64
 10
0
 20
0
 30
0
  3
AIGNBL02030084
  0
INSERT
  8
LAYER_2
  2
AIGNBL02040085
 10
0
 20
0
 30
0
  0
INSERT
  8
LAYER_2
  2
AIGNBL02040086
 10
0
 20
0
 30
0
  0
INSERT
  8
LAYER_2
  2
AIGNBL02040087
 10
0
 20
0
 30
0
  0
INSERT
  8
LAYER_2
  2
AIGNBL02040088
 10
0
 20
0
 30
0
  0
INSERT
  8
LAYER_2
  2
AIGNBL02040089
 10
0
 20
0
 30
0
  0
INSERT
  8
LAYER_2
  2
AIGNBL0204008A
 10
0
 20
0
 30
0
  0
INSERT
  8
LAYER_2
  2
AIGNBL0204008B
 10
0
 20
0
 30
0
  0
ENDBLK
  0
BLOCK
  8
LAYER_2
  2
AIGNBL0203008D
 70
64
 10
0
 20
0
 30
0
  3
AIGNBL0203008D
  0
POLYLINE
  8
LAYER_2
 40
0.05
 41
0.05
 66
1
 10
0
 20
0
 30
0
 70
1
  0
VERTEX
  8
LAYER_2
 10
145.7475
 20
36.0574
  0
VERTEX
  8
LAYER_2
 10
146.3008
 20
36.0574
  0
VERTEX
  8
LAYER_2
 10
146.3008
 20
35.9637
  0
VERTEX
  8
LAYER_2
 10
145.6424
 20
35.9637
  0
VERTEX
  8
LAYER_2
 10
145.6424
 20
36.9969
  0
VERTEX
  8
LAYER_2
 10
146.2832
 20
36.9969
  0
VERTEX
  8
LAYER_2
 10
146.2832
 20
36.9035
  0
VERTEX
  8
LAYER_2
 10
145.7475
 20
36.9035
  0
VERTEX
  8
LAYER_2
 10
145.7475
 20
36.549
  0
VERTEX
  8
LAYER_2
 10
146.2481
 20
36.549
  0
VERTEX
  8
LAYER_2
 10
146.2481
 20
36.4557
  0
VERTEX
  8
LAYER_2
 10
145.7475
 20
36.4557
  0
SEQEND
  0
ENDBLK
  0
BLOCK
  8
LAYER_2
  2
AIGNBL0203008E
 70
64
 10
0
 20
0
 30
0
  3
AIGNBL0203008E
  0
POLYLINE
  8
LAYER_2
 40
0.05
 41
0.05
 66
1
 10
0
 20
0
 30
0
 70
1
  0
VERTEX
  8
LAYER_2
 10
147.4404
 20
36.117
  0
VERTEX
  8
LAYER_2
 10
147.4432
 20
36.117
  0
VERTEX
  8
LAYER_2
 10
147.4432
 20
36.9969
  0
VERTEX
  8
LAYER_2
 10
147.5483
 20
36.9969
  0
VERTEX
  8
LAYER_2
 10
147.5483
 20
35.9637
  0
VERTEX
  8
LAYER_2
 10
147.4174
 20
35.9637
  0
VERTEX
  8
LAYER_2
 10
146.8162
 20
36.8525
  0
VERTEX
  8
LAYER_2
 10
146.8127
 20
36.8525
  0
VERTEX
  8
LAYER_2
 10
146.8127
 20
35.9637
  0
VERTEX
  8
LAYER_2
 10
146.708
 20
35.9637
  0
VERTEX
  8
LAYER_2
 10
146.708
 20
36.9969
  0
VERTEX
  8
LAYER_2
 10
146.8393
 20
36.9969
  0
SEQEND
  0
ENDBLK
  0
BLOCK
  8
LAYER_2
  2
AIGNBL0203008F
 70
64
 10
0
 20
0
 30
0
  3
AIGNBL0203008F
  0
POLYLINE
  8
LAYER_2
 40
0.05
 41
0.05
 66
1
 10
0
 20
0
 30
0
 70
1
  0
VERTEX
  8
LAYER_2
 10
148.0213
 20
36.1756
 42
0.1563325367
  0
VERTEX
  8
LAYER_2
 10
148.0757
 20
36.0726
 42
0.1919271311
  0
VERTEX
  8
LAYER_2
 10
148.1891
 20
36.0309
  0
VERTEX
  8
LAYER_2
 10
148.2783
 20
36.0505
  0
VERTEX
  8
LAYER_2
 10
148.3344
 20
36.1039
  0
VERTEX
  8
LAYER_2
 10
148.3634
 20
36.1804
  0
VERTEX
  8
LAYER_2
 10
148.3716
 20
36.27
  0
VERTEX
  8
LAYER_2
 10
148.3716
 20
36.9969
  0
VERTEX
  8
LAYER_2
 10
148.4767
 20
36.9969
  0
VERTEX
  8
LAYER_2
 10
148.4767
 20
36.2614
  0
VERTEX
  8
LAYER_2
 10
148.4654
 20
36.1535
 42
-0.09689434064
  0
VERTEX
  8
LAYER_2
 10
148.424
 20
36.0484
 42
-0.1145812533
  0
VERTEX
  8
LAYER_2
 10
148.3393
 20
35.9689
 42
-0.1249341208
  0
VERTEX
  8
LAYER_2
 10
148.2004
 20
35.9375
 42
-0.1797266639
  0
VERTEX
  8
LAYER_2
 10
148.0158
 20
35.9975
 42
-0.1772027805
  0
VERTEX
  8
LAYER_2
 10
147.9234
 20
36.149
  0
SEQEND
  0
ENDBLK
  0
BLOCK
  8
LAYER_2
  2
AIGNBL02030090
 70
64
 10
0
 20
0
 30
0
  3
AIGNBL02030090
  0
POLYLINE
  8
LAYER_2
 40
0.05
 41
0.05
 66
1
 10
0
 20
0
 30
0
 70
1
  0
VERTEX
  8
LAYER_2
 10
149.965
 20
36.4805
 42
-0.1019307791
  0
VERTEX
  8
LAYER_2
 10
149.924
 20
36.2631
 42
-0.09962254273
  0
VERTEX
  8
LAYER_2
 10
149.8114
 20
36.0915
 42
-0.09627361929
  0
VERTEX
  8
LAYER_2
 10
149.6405
 20
35.9785
 42
-0.09758594962
  0
VERTEX
  8
LAYER_2
 10
149.4265
 20
35.9375
 42
-0.1000844711
  0
VERTEX
  8
LAYER_2
 10
149.2129
 20
35.9785
 42
-0.09985105323
  0
VERTEX
  8
LAYER_2
 10
149.0421
 20
36.0915
 42
-0.09735230618
  0
VERTEX
  8
LAYER_2
 10
148.9287
 20
36.2631
 42
-0.09653980076
  0
VERTEX
  8
LAYER_2
 10
148.8881
 20
36.4805
 42
-0.1004594477
  0
VERTEX
  8
LAYER_2
 10
148.9287
 20
36.6978
 42
-0.1001669327
  0
VERTEX
  8
LAYER_2
 10
149.0421
 20
36.8694
 42
-0.09871200056
  0
VERTEX
  8
LAYER_2
 10
149.2129
 20
36.9824
 42
-0.09768823248
  0
VERTEX
  8
LAYER_2
 10
149.4265
 20
37.0234
 42
-0.1000514256
  0
VERTEX
  8
LAYER_2
 10
149.6405
 20
36.9824
 42
-0.0983303992
  0
VERTEX
  8
LAYER_2
 10
149.8114
 20
36.8694
 42
-0.09762598086
  0
VERTEX
  8
LAYER_2
 10
149.924
 20
36.6978
 42
-0.09788199595
  0
SEQEND
  0
POLYLINE
  8
LAYER_2
 40
0.05
 41
0.05
 66
1
 10
0
 20
0
 30
0
 70
1
  0
VERTEX
  8
LAYER_2
 10
149.8541
 20
36.4798
 42
0.08634913196
  0
VERTEX
  8
LAYER_2
 10
149.8251
 20
36.6517
 42
0.09663020944
  0
VERTEX
  8
LAYER_2
 10
149.7404
 20
36.795
 42
0.1032857511
  0
VERTEX
  8
LAYER_2
 10
149.6053
 20
36.8932
 42
0.1061320656
  0
VERTEX
  8
LAYER_2
 10
149.4265
 20
36.93
 42
0.1113757871
  0
VERTEX
  8
LAYER_2
 10
149.2477
 20
36.8932
 42
0.1056595975
  0
VERTEX
  8
LAYER_2
 10
149.113
 20
36.795
 42
0.09787799956
  0
VERTEX
  8
LAYER_2
 10
149.0283
 20
36.6517
 42
0.08491464556
  0
VERTEX
  8
LAYER_2
 10
148.999
 20
36.4798
 42
0.08693146424
  0
VERTEX
  8
LAYER_2
 10
149.0283
 20
36.3079
 42
0.1009797617
  0
VERTEX
  8
LAYER_2
 10
149.113
 20
36.1649
 42
0.09920321622
  0
VERTEX
  8
LAYER_2
 10
149.2477
 20
36.0674
 42
0.1060640085
  0
VERTEX
  8
LAYER_2
 10
149.4265
 20
36.0309
 42
0.1126980581
  0
VERTEX
  8
LAYER_2
 10
149.6053
 20
36.0674
 42
0.1035582302
  0
VERTEX
  8
LAYER_2
 10
149.7404
 20
36.1649
 42
0.09432567525
  0
VERTEX
  8
LAYER_2
 10
149.8251
 20
36.3079
 42
0.08466662837
  0
SEQEND
  0
ENDBLK
  0
BLOCK
  8
LAYER_2
  2
AIGNBL02030091
 70
64
 10
0
 20
0
 30
0
  3
AIGNBL02030091
  0
POLYLINE
  8
LAYER_2
 40
0.05
 41
0.05
 66
1
 10
0
 20
0
 30
0
 70
1
  0
VERTEX
  8
LAYER_2
 10
150.7398
 20
35.9637
  0
VERTEX
  8
LAYER_2
 10
150.6351
 20
35.9637
  0
VERTEX
  8
LAYER_2
 10
150.6351
 20
36.4091
  0
VERTEX
  8
LAYER_2
 10
150.2482
 20
36.9969
  0
VERTEX
  8
LAYER_2
 10
150.3795
 20
36.9969
  0
VERTEX
  8
LAYER_2
 10
150.6905
 20
36.4967
  0
VERTEX
  8
LAYER_2
 10
151.004
 20
36.9969
  0
VERTEX
  8
LAYER_2
 10
151.1263
 20
36.9969
  0
VERTEX
  8
LAYER_2
 10
150.7398
 20
36.4091
  0
SEQEND
  0
ENDBLK
  0
BLOCK
  8
LAYER_2
  2
AIGNBL02030092
 70
64
 10
0
 20
0
 30
0
  3
AIGNBL02030092
  0
POLYLINE
  8
LAYER_2
 40
0.05
 41
0.05
 66
1
 10
0
 20
0
 30
0
 70
1
  0
VERTEX
  8
LAYER_2
 10
152.0314
 20
36.9969
  0
VERTEX
  8
LAYER_2
 10
152.339
 20
36.9969
  0
VERTEX
  8
LAYER_2
 10
152.4575
 20
36.9845
  0
VERTEX
  8
LAYER_2
 10
152.5643
 20
36.9421
 42
-0.1168262011
  0
VERTEX
  8
LAYER_2
 10
152.6422
 20
36.8611
 42
-0.1230288266
  0
VERTEX
  8
LAYER_2
 10
152.6718
 20
36.733
 42
-0.1795449175
  0
VERTEX
  8
LAYER_2
 10
152.6219
 20
36.5907
 42
-0.1695619646
  0
VERTEX
  8
LAYER_2
 10
152.4885
 20
36.5111
  0
VERTEX
  8
LAYER_2
 10
152.4885
 20
36.5084
 42
-0.1719890535
  0
VERTEX
  8
LAYER_2
 10
152.6553
 20
36.4302
 42
-0.2018462152
  0
VERTEX
  8
LAYER_2
 10
152.7214
 20
36.2496
 42
-0.1251382371
  0
VERTEX
  8
LAYER_2
 10
152.6942
 20
36.1325
 42
-0.1153486961
  0
VERTEX
  8
LAYER_2
 10
152.6181
 20
36.0419
 42
-0.08656795839
  0
VERTEX
  8
LAYER_2
 10
152.4972
 20
35.9844
 42
-0.06557363107
  0
VERTEX
  8
LAYER_2
 10
152.3373
 20
35.9637
  0
VERTEX
  8
LAYER_2
 10
152.0314
 20
35.9637
  0
SEQEND
  0
POLYLINE
  8
LAYER_2
 40
0.05
 41
0.05
 66
1
 10
0
 20
0
 30
0
 70
1
  0
VERTEX
  8
LAYER_2
 10
152.1365
 20
36.5445
  0
VERTEX
  8
LAYER_2
 10
152.348
 20
36.5445
  0
VERTEX
  8
LAYER_2
 10
152.4248
 20
36.5535
  0
VERTEX
  8
LAYER_2
 10
152.4951
 20
36.5831
  0
VERTEX
  8
LAYER_2
 10
152.5471
 20
36.6396
 42
0.1157679243
  0
VERTEX
  8
LAYER_2
 10
152.5667
 20
36.7258
  0
VERTEX
  8
LAYER_2
 10
152.5471
 20
36.8095
  0
VERTEX
  8
LAYER_2
 10
152.4941
 20
36.8656
  0
VERTEX
  8
LAYER_2
 10
152.4152
 20
36.897
  0
VERTEX
  8
LAYER_2
 10
152.3187
 20
36.9066
  0
VERTEX
  8
LAYER_2
 10
152.1365
 20
36.9066
  0
SEQEND
  0
POLYLINE
  8
LAYER_2
 40
0.05
 41
0.05
 66
1
 10
0
 20
0
 30
0
 70
1
  0
VERTEX
  8
LAYER_2
 10
152.1365
 20
36.0543
  0
VERTEX
  8
LAYER_2
 10
152.3321
 20
36.0543
  0
VERTEX
  8
LAYER_2
 10
152.4407
 20
36.0653
  0
VERTEX
  8
LAYER_2
 10
152.5313
 20
36.1001
 42
0.1172546835
  0
VERTEX
  8
LAYER_2
 10
152.5929
 20
36.1632
 42
0.1286909246
  0
VERTEX
  8
LAYER_2
 10
152.6164
 20
36.2558
 42
0.2499212344
  0
VERTEX
  8
LAYER_2
 10
152.5471
 20
36.4081
 42
0.1538083763
  0
VERTEX
  8
LAYER_2
 10
152.3511
 20
36.4584
  0
VERTEX
  8
LAYER_2
 10
152.1365
 20
36.4584
  0
SEQEND
  0
ENDBLK
  0
BLOCK
  8
LAYER_2
  2
AIGNBL02030093
 70
64
 10
0
 20
0
 30
0
  3
AIGNBL02030093
  0
POLYLINE
  8
LAYER_2
 40
0.05
 41
0.05
 66
1
 10
0
 20
0
 30
0
 70
1
  0
VERTEX
  8
LAYER_2
 10
153.1534
 20
35.9637
  0
VERTEX
  8
LAYER_2
 10
153.038
 20
35.9637
  0
VERTEX
  8
LAYER_2
 10
153.4849
 20
36.9969
  0
VERTEX
  8
LAYER_2
 10
153.5872
 20
36.9969
  0
VERTEX
  8
LAYER_2
 10
154.0306
 20
35.9637
  0
VERTEX
  8
LAYER_2
 10
153.9138
 20
35.9637
  0
VERTEX
  8
LAYER_2
 10
153.7997
 20
36.2352
  0
VERTEX
  8
LAYER_2
 10
153.2658
 20
36.2352
  0
SEQEND
  0
POLYLINE
  8
LAYER_2
 40
0.05
 41
0.05
 66
1
 10
0
 20
0
 30
0
 70
1
  0
VERTEX
  8
LAYER_2
 10
153.305
 20
36.3316
  0
VERTEX
  8
LAYER_2
 10
153.7605
 20
36.3316
  0
VERTEX
  8
LAYER_2
 10
153.5327
 20
36.8804
  0
SEQEND
  0
ENDBLK
  0
BLOCK
  8
LAYER_2
  2
AIGNBL02030094
 70
64
 10
0
 20
0
 30
0
  3
AIGNBL02030094
  0
POLYLINE
  8
LAYER_2
 40
0.05
 41
0.05
 66
1
 10
0
 20
0
 30
0
 70
1
  0
VERTEX
  8
LAYER_2
 10
154.7151
 20
35.9637
  0
VERTEX
  8
LAYER_2
 10
154.61
 20
35.9637
  0
VERTEX
  8
LAYER_2
 10
154.61
 20
36.9035
  0
VERTEX
  8
LAYER_2
 10
154.2638
 20
36.9035
  0
VERTEX
  8
LAYER_2
 10
154.2638
 20
36.9969
  0
VERTEX
  8
LAYER_2
 10
155.0606
 20
36.9969
  0
VERTEX
  8
LAYER_2
 10
155.0606
 20
36.9035
  0
VERTEX
  8
LAYER_2
 10
154.7151
 20
36.9035
  0
SEQEND
  0
ENDBLK
  0
BLOCK
  8
LAYER_2
  2
AIGNBL02030095
 70
64
 10
0
 20
0
 30
0
  3
AIGNBL02030095
  0
POLYLINE
  8
LAYER_2
 40
0.05
 41
0.05
 66
1
 10
0
 20
0
 30
0
 70
1
  0
VERTEX
  8
LAYER_2
 10
155.4169
 20
36.9969
  0
VERTEX
  8
LAYER_2
 10
155.5216
 20
36.9969
  0
VERTEX
  8
LAYER_2
 10
155.5216
 20
36.549
  0
VERTEX
  8
LAYER_2
 10
156.0852
 20
36.549
  0
VERTEX
  8
LAYER_2
 10
156.0852
 20
36.9969
  0
VERTEX
  8
LAYER_2
 10
156.1903
 20
36.9969
  0
VERTEX
  8
LAYER_2
 10
156.1903
 20
35.9637
  0
VERTEX
  8
LAYER_2
 10
156.0852
 20
35.9637
  0
VERTEX
  8
LAYER_2
 10
156.0852
 20
36.4529
  0
VERTEX
  8
LAYER_2
 10
155.5216
 20
36.4529
  0
VERTEX
  8
LAYER_2
 10
155.5216
 20
35.9637
  0
VERTEX
  8
LAYER_2
 10
155.4169
 20
35.9637
  0
SEQEND
  0
ENDBLK
  0
BLOCK
  8
LAYER_2
  2
AIGNBL02030096
 70
64
 10
0
 20
0
 30
0
  3
AIGNBL02030096
  0
POLYLINE
  8
LAYER_2
 40
0.05
 41
0.05
 66
1
 10
0
 20
0
 30
0
 70
1
  0
VERTEX
  8
LAYER_2
 10
156.7708
 20
35.9637
  0
VERTEX
  8
LAYER_2
 10
156.6657
 20
35.9637
  0
VERTEX
  8
LAYER_2
 10
156.6657
 20
36.9969
  0
VERTEX
  8
LAYER_2
 10
156.9696
 20
36.9969
  0
VERTEX
  8
LAYER_2
 10
157.1101
 20
36.9824
 42
-0.1032885834
  0
VERTEX
  8
LAYER_2
 10
157.2228
 20
36.9349
 42
-0.1281738609
  0
VERTEX
  8
LAYER_2
 10
157.2962
 20
36.8494
 42
-0.1081125707
  0
VERTEX
  8
LAYER_2
 10
157.3224
 20
36.7213
  0
VERTEX
  8
LAYER_2
 10
157.3024
 20
36.6176
  0
VERTEX
  8
LAYER_2
 10
157.2469
 20
36.5366
  0
VERTEX
  8
LAYER_2
 10
157.1635
 20
36.4818
  0
VERTEX
  8
LAYER_2
 10
157.0585
 20
36.4557
  0
VERTEX
  8
LAYER_2
 10
157.3606
 20
35.9637
  0
VERTEX
  8
LAYER_2
 10
157.2321
 20
35.9637
  0
VERTEX
  8
LAYER_2
 10
156.9461
 20
36.4467
  0
VERTEX
  8
LAYER_2
 10
156.7708
 20
36.4467
  0
SEQEND
  0
POLYLINE
  8
LAYER_2
 40
0.05
 41
0.05
 66
1
 10
0
 20
0
 30
0
 70
1
  0
VERTEX
  8
LAYER_2
 10
156.7708
 20
36.5373
  0
VERTEX
  8
LAYER_2
 10
156.9534
 20
36.5373
 42
0.153451873
  0
VERTEX
  8
LAYER_2
 10
157.1491
 20
36.5831
 42
0.2580279849
  0
VERTEX
  8
LAYER_2
 10
157.2176
 20
36.7213
  0
VERTEX
  8
LAYER_2
 10
157.1983
 20
36.8071
  0
VERTEX
  8
LAYER_2
 10
157.146
 20
36.8642
  0
VERTEX
  8
LAYER_2
 10
157.0643
 20
36.8963
  0
VERTEX
  8
LAYER_2
 10
156.9579
 20
36.9066
  0
VERTEX
  8
LAYER_2
 10
156.7708
 20
36.9066
  0
SEQEND
  0
ENDBLK
  0
BLOCK
  8
LAYER_2
  2
AIGNBL02030097
 70
64
 10
0
 20
0
 30
0
  3
AIGNBL02030097
  0
POLYLINE
  8
LAYER_2
 40
0.05
 41
0.05
 66
1
 10
0
 20
0
 30
0
 70
1
  0
VERTEX
  8
LAYER_2
 10
158.7627
 20
36.4805
 42
-0.09904480664
  0
VERTEX
  8
LAYER_2
 10
158.7221
 20
36.2631
 42
-0.0998654539
  0
VERTEX
  8
LAYER_2
 10
158.6088
 20
36.0915
 42
-0.09816046092
  0
VERTEX
  8
LAYER_2
 10
158.4382
 20
35.9785
 42
-0.09758412454
  0
VERTEX
  8
LAYER_2
 10
158.2243
 20
35.9375
 42
-0.09999517154
  0
VERTEX
  8
LAYER_2
 10
158.0103
 20
35.9785
 42
-0.09953435427
  0
VERTEX
  8
LAYER_2
 10
157.8398
 20
36.0915
 42
-0.09864299929
  0
VERTEX
  8
LAYER_2
 10
157.7268
 20
36.2631
 42
-0.09653980076
  0
VERTEX
  8
LAYER_2
 10
157.6862
 20
36.4805
 42
-0.1004594477
  0
VERTEX
  8
LAYER_2
 10
157.7268
 20
36.6978
 42
-0.1008040346
  0
VERTEX
  8
LAYER_2
 10
157.8398
 20
36.8694
 42
-0.09763764092
  0
VERTEX
  8
LAYER_2
 10
158.0103
 20
36.9824
 42
-0.09752919603
  0
VERTEX
  8
LAYER_2
 10
158.2243
 20
37.0234
 42
-0.1000174927
  0
VERTEX
  8
LAYER_2
 10
158.4382
 20
36.9824
 42
-0.1006724022
  0
VERTEX
  8
LAYER_2
 10
158.6088
 20
36.8694
 42
-0.09709867792
  0
VERTEX
  8
LAYER_2
 10
158.7221
 20
36.6978
 42
-0.09585658013
  0
SEQEND
  0
POLYLINE
  8
LAYER_2
 40
0.05
 41
0.05
 66
1
 10
0
 20
0
 30
0
 70
1
  0
VERTEX
  8
LAYER_2
 10
158.6518
 20
36.4798
 42
0.08852014676
  0
VERTEX
  8
LAYER_2
 10
158.6225
 20
36.6517
 42
0.09973444611
  0
VERTEX
  8
LAYER_2
 10
158.5378
 20
36.795
 42
0.1024799068
  0
VERTEX
  8
LAYER_2
 10
158.4031
 20
36.8932
 42
0.1060321998
  0
VERTEX
  8
LAYER_2
 10
158.2243
 20
36.93
 42
0.1116325688
  0
VERTEX
  8
LAYER_2
 10
158.0455
 20
36.8932
 42
0.1060506217
  0
VERTEX
  8
LAYER_2
 10
157.9104
 20
36.795
 42
0.09526104957
  0
VERTEX
  8
LAYER_2
 10
157.8257
 20
36.6517
 42
0.08440311357
  0
VERTEX
  8
LAYER_2
 10
157.7967
 20
36.4798
 42
0.08751084222
  0
VERTEX
  8
LAYER_2
 10
157.8257
 20
36.3079
 42
0.09826867926
  0
VERTEX
  8
LAYER_2
 10
157.9104
 20
36.1649
 42
0.09908422267
  0
VERTEX
  8
LAYER_2
 10
158.0455
 20
36.0674
 42
0.1061654103
  0
VERTEX
  8
LAYER_2
 10
158.2243
 20
36.0309
 42
0.1124388132
  0
VERTEX
  8
LAYER_2
 10
158.4031
 20
36.0674
 42
0.1028204009
  0
VERTEX
  8
LAYER_2
 10
158.5378
 20
36.1649
 42
0.09882210045
  0
VERTEX
  8
LAYER_2
 10
158.6225
 20
36.3079
 42
0.08589740831
  0
SEQEND
  0
ENDBLK
  0
BLOCK
  8
LAYER_2
  2
AIGNBL02030098
 70
64
 10
0
 20
0
 30
0
  3
AIGNBL02030098
  0
POLYLINE
  8
LAYER_2
 40
0.05
 41
0.05
 66
1
 10
0
 20
0
 30
0
 70
1
  0
VERTEX
  8
LAYER_2
 10
160.2045
 20
36.4805
 42
-0.1019307791
  0
VERTEX
  8
LAYER_2
 10
160.1635
 20
36.2631
 42
-0.1000344077
  0
VERTEX
  8
LAYER_2
 10
160.0509
 20
36.0915
 42
-0.09685913213
  0
VERTEX
  8
LAYER_2
 10
159.88
 20
35.9785
 42
-0.09758412454
  0
VERTEX
  8
LAYER_2
 10
159.6661
 20
35.9375
 42
-0.1006569764
  0
VERTEX
  8
LAYER_2
 10
159.4525
 20
35.9785
 42
-0.1011318925
  0
VERTEX
  8
LAYER_2
 10
159.2816
 20
36.0915
 42
-0.09735230618
  0
VERTEX
  8
LAYER_2
 10
159.1682
 20
36.2631
 42
-0.09653980076
  0
VERTEX
  8
LAYER_2
 10
159.1276
 20
36.4805
 42
-0.1004594477
  0
VERTEX
  8
LAYER_2
 10
159.1682
 20
36.6978
 42
-0.1001669327
  0
VERTEX
  8
LAYER_2
 10
159.2816
 20
36.8694
 42
-0.09867928162
  0
VERTEX
  8
LAYER_2
 10
159.4525
 20
36.9824
 42
-0.09791748865
  0
VERTEX
  8
LAYER_2
 10
159.6661
 20
37.0234
 42
-0.1000174927
  0
VERTEX
  8
LAYER_2
 10
159.88
 20
36.9824
 42
-0.0983303992
  0
VERTEX
  8
LAYER_2
 10
160.0509
 20
36.8694
 42
-0.09781653482
  0
VERTEX
  8
LAYER_2
 10
160.1635
 20
36.6978
 42
-0.09788199595
  0
SEQEND
  0
POLYLINE
  8
LAYER_2
 40
0.05
 41
0.05
 66
1
 10
0
 20
0
 30
0
 70
1
  0
VERTEX
  8
LAYER_2
 10
160.0936
 20
36.4798
 42
0.08634913196
  0
VERTEX
  8
LAYER_2
 10
160.0646
 20
36.6517
 42
0.09721101768
  0
VERTEX
  8
LAYER_2
 10
159.9799
 20
36.795
 42
0.1030853098
  0
VERTEX
  8
LAYER_2
 10
159.8449
 20
36.8932
 42
0.1060321998
  0
VERTEX
  8
LAYER_2
 10
159.6661
 20
36.93
 42
0.1116325688
  0
VERTEX
  8
LAYER_2
 10
159.4873
 20
36.8932
 42
0.1058584166
  0
VERTEX
  8
LAYER_2
 10
159.3525
 20
36.795
 42
0.09787799956
  0
VERTEX
  8
LAYER_2
 10
159.2678
 20
36.6517
 42
0.08491464556
  0
VERTEX
  8
LAYER_2
 10
159.2385
 20
36.4798
 42
0.08693146424
  0
VERTEX
  8
LAYER_2
 10
159.2678
 20
36.3079
 42
0.1009797617
  0
VERTEX
  8
LAYER_2
 10
159.3525
 20
36.1649
 42
0.09947922476
  0
VERTEX
  8
LAYER_2
 10
159.4873
 20
36.0674
 42
0.1061654103
  0
VERTEX
  8
LAYER_2
 10
159.6661
 20
36.0309
 42
0.1124388132
  0
VERTEX
  8
LAYER_2
 10
159.8449
 20
36.0674
 42
0.103362111
  0
VERTEX
  8
LAYER_2
 10
159.9799
 20
36.1649
 42
0.09450022685
  0
VERTEX
  8
LAYER_2
 10
160.0646
 20
36.3079
 42
0.08466662837
  0
SEQEND
  0
ENDBLK
  0
BLOCK
  8
LAYER_2
  2
AIGNBL02030099
 70
64
 10
0
 20
0
 30
0
  3
AIGNBL02030099
  0
POLYLINE
  8
LAYER_2
 40
0.05
 41
0.05
 66
1
 10
0
 20
0
 30
0
 70
1
  0
VERTEX
  8
LAYER_2
 10
161.1354
 20
36.1418
  0
VERTEX
  8
LAYER_2
 10
161.1371
 20
36.1418
  0
VERTEX
  8
LAYER_2
 10
161.4826
 20
36.9969
  0
VERTEX
  8
LAYER_2
 10
161.6435
 20
36.9969
  0
VERTEX
  8
LAYER_2
 10
161.6435
 20
35.9637
  0
VERTEX
  8
LAYER_2
 10
161.5381
 20
35.9637
  0
VERTEX
  8
LAYER_2
 10
161.5381
 20
36.8611
  0
VERTEX
  8
LAYER_2
 10
161.5354
 20
36.8611
  0
VERTEX
  8
LAYER_2
 10
161.1619
 20
35.9637
  0
VERTEX
  8
LAYER_2
 10
161.1064
 20
35.9637
  0
VERTEX
  8
LAYER_2
 10
160.7327
 20
36.8611
  0
VERTEX
  8
LAYER_2
 10
160.7299
 20
36.8611
  0
VERTEX
  8
LAYER_2
 10
160.7299
 20
35.9637
  0
VERTEX
  8
LAYER_2
 10
160.6248
 20
35.9637
  0
VERTEX
  8
LAYER_2
 10
160.6248
 20
36.9969
  0
VERTEX
  8
LAYER_2
 10
160.7854
 20
36.9969
  0
SEQEND
  0
ENDBLK
  0
BLOCK
  8
LAYER_2
  2
AIGNBL0203009A
 70
64
 10
0
 20
0
 30
0
  3
AIGNBL0203009A
  0
POLYLINE
  8
LAYER_2
 40
0.05
 41
0.05
 66
1
 10
0
 20
0
 30
0
 70
1
  0
VERTEX
  8
LAYER_2
 10
162.7901
 20
36.0574
  0
VERTEX
  8
LAYER_2
 10
163.3433
 20
36.0574
  0
VERTEX
  8
LAYER_2
 10
163.3433
 20
35.9637
  0
VERTEX
  8
LAYER_2
 10
162.685
 20
35.9637
  0
VERTEX
  8
LAYER_2
 10
162.685
 20
36.9969
  0
VERTEX
  8
LAYER_2
 10
163.3258
 20
36.9969
  0
VERTEX
  8
LAYER_2
 10
163.3258
 20
36.9035
  0
VERTEX
  8
LAYER_2
 10
162.7901
 20
36.9035
  0
VERTEX
  8
LAYER_2
 10
162.7901
 20
36.549
  0
VERTEX
  8
LAYER_2
 10
163.2906
 20
36.549
  0
VERTEX
  8
LAYER_2
 10
163.2906
 20
36.4557
  0
VERTEX
  8
LAYER_2
 10
162.7901
 20
36.4557
  0
SEQEND
  0
ENDBLK
  0
BLOCK
  8
LAYER_2
  2
AIGNBL0203009B
 70
64
 10
0
 20
0
 30
0
  3
AIGNBL0203009B
  0
POLYLINE
  8
LAYER_2
 40
0.05
 41
0.05
 66
1
 10
0
 20
0
 30
0
 70
1
  0
VERTEX
  8
LAYER_2
 10
164.0885
 20
36.5797
  0
VERTEX
  8
LAYER_2
 10
164.3707
 20
36.9969
  0
VERTEX
  8
LAYER_2
 10
164.4957
 20
36.9969
  0
VERTEX
  8
LAYER_2
 10
164.1533
 20
36.5053
  0
VERTEX
  8
LAYER_2
 10
164.5326
 20
35.9637
  0
VERTEX
  8
LAYER_2
 10
164.4013
 20
35.9637
  0
VERTEX
  8
LAYER_2
 10
164.0858
 20
36.4295
  0
VERTEX
  8
LAYER_2
 10
163.7723
 20
35.9637
  0
VERTEX
  8
LAYER_2
 10
163.6407
 20
35.9637
  0
VERTEX
  8
LAYER_2
 10
164.0203
 20
36.5066
  0
VERTEX
  8
LAYER_2
 10
163.6744
 20
36.9969
  0
VERTEX
  8
LAYER_2
 10
163.806
 20
36.9969
  0
SEQEND
  0
ENDBLK
  0
BLOCK
  8
LAYER_2
  2
AIGNBL0203009C
 70
64
 10
0
 20
0
 30
0
  3
AIGNBL0203009C
  0
POLYLINE
  8
LAYER_2
 40
0.05
 41
0.05
 66
1
 10
0
 20
0
 30
0
 70
1
  0
VERTEX
  8
LAYER_2
 10
164.8988
 20
36.9969
  0
VERTEX
  8
LAYER_2
 10
165.191
 20
36.9969
  0
VERTEX
  8
LAYER_2
 10
165.3339
 20
36.9803
 42
-0.104442724
  0
VERTEX
  8
LAYER_2
 10
165.4438
 20
36.929
 42
-0.1219459081
  0
VERTEX
  8
LAYER_2
 10
165.5148
 20
36.8429
 42
-0.1032545831
  0
VERTEX
  8
LAYER_2
 10
165.5392
 20
36.7213
 42
-0.1239274235
  0
VERTEX
  8
LAYER_2
 10
165.5141
 20
36.5993
 42
-0.1163667494
  0
VERTEX
  8
LAYER_2
 10
165.4424
 20
36.5132
 42
-0.08715194998
  0
VERTEX
  8
LAYER_2
 10
165.3315
 20
36.4615
 42
-0.06108707382
  0
VERTEX
  8
LAYER_2
 10
165.1878
 20
36.4439
  0
VERTEX
  8
LAYER_2
 10
165.0039
 20
36.4439
  0
VERTEX
  8
LAYER_2
 10
165.0039
 20
35.9637
  0
VERTEX
  8
LAYER_2
 10
164.8988
 20
35.9637
  0
SEQEND
  0
POLYLINE
  8
LAYER_2
 40
0.05
 41
0.05
 66
1
 10
0
 20
0
 30
0
 70
1
  0
VERTEX
  8
LAYER_2
 10
165.0039
 20
36.5328
  0
VERTEX
  8
LAYER_2
 10
165.1816
 20
36.5328
 42
0.1698628217
  0
VERTEX
  8
LAYER_2
 10
165.3701
 20
36.5811
 42
0.2445965084
  0
VERTEX
  8
LAYER_2
 10
165.4345
 20
36.7213
 42
0.2593003012
  0
VERTEX
  8
LAYER_2
 10
165.368
 20
36.8622
 42
0.143072224
  0
VERTEX
  8
LAYER_2
 10
165.1816
 20
36.9066
  0
VERTEX
  8
LAYER_2
 10
165.0039
 20
36.9066
  0
SEQEND
  0
ENDBLK
  0
BLOCK
  8
LAYER_2
  2
AIGNBL0203009D
 70
64
 10
0
 20
0
 30
0
  3
AIGNBL0203009D
  0
POLYLINE
  8
LAYER_2
 40
0.05
 41
0.05
 66
1
 10
0
 20
0
 30
0
 70
1
  0
VERTEX
  8
LAYER_2
 10
166.0515
 20
36.0574
  0
VERTEX
  8
LAYER_2
 10
166.6048
 20
36.0574
  0
VERTEX
  8
LAYER_2
 10
166.6048
 20
35.9637
  0
VERTEX
  8
LAYER_2
 10
165.9465
 20
35.9637
  0
VERTEX
  8
LAYER_2
 10
165.9465
 20
36.9969
  0
VERTEX
  8
LAYER_2
 10
166.5872
 20
36.9969
  0
VERTEX
  8
LAYER_2
 10
166.5872
 20
36.9035
  0
VERTEX
  8
LAYER_2
 10
166.0515
 20
36.9035
  0
VERTEX
  8
LAYER_2
 10
166.0515
 20
36.549
  0
VERTEX
  8
LAYER_2
 10
166.5521
 20
36.549
  0
VERTEX
  8
LAYER_2
 10
166.5521
 20
36.4557
  0
VERTEX
  8
LAYER_2
 10
166.0515
 20
36.4557
  0
SEQEND
  0
ENDBLK
  0
BLOCK
  8
LAYER_2
  2
AIGNBL0203009E
 70
64
 10
0
 20
0
 30
0
  3
AIGNBL0203009E
  0
POLYLINE
  8
LAYER_2
 40
0.05
 41
0.05
 66
1
 10
0
 20
0
 30
0
 70
1
  0
VERTEX
  8
LAYER_2
 10
167.1168
 20
35.9637
  0
VERTEX
  8
LAYER_2
 10
167.0117
 20
35.9637
  0
VERTEX
  8
LAYER_2
 10
167.0117
 20
36.9969
  0
VERTEX
  8
LAYER_2
 10
167.3155
 20
36.9969
  0
VERTEX
  8
LAYER_2
 10
167.4561
 20
36.9824
 42
-0.1033890198
  0
VERTEX
  8
LAYER_2
 10
167.5688
 20
36.9349
 42
-0.1259996581
  0
VERTEX
  8
LAYER_2
 10
167.6425
 20
36.8494
 42
-0.1064650891
  0
VERTEX
  8
LAYER_2
 10
167.6683
 20
36.7213
  0
VERTEX
  8
LAYER_2
 10
167.6483
 20
36.6176
  0
VERTEX
  8
LAYER_2
 10
167.5929
 20
36.5366
  0
VERTEX
  8
LAYER_2
 10
167.5095
 20
36.4818
  0
VERTEX
  8
LAYER_2
 10
167.4044
 20
36.4557
  0
VERTEX
  8
LAYER_2
 10
167.7066
 20
35.9637
  0
VERTEX
  8
LAYER_2
 10
167.5781
 20
35.9637
  0
VERTEX
  8
LAYER_2
 10
167.2921
 20
36.4467
  0
VERTEX
  8
LAYER_2
 10
167.1168
 20
36.4467
  0
SEQEND
  0
POLYLINE
  8
LAYER_2
 40
0.05
 41
0.05
 66
1
 10
0
 20
0
 30
0
 70
1
  0
VERTEX
  8
LAYER_2
 10
167.1168
 20
36.5373
  0
VERTEX
  8
LAYER_2
 10
167.2993
 20
36.5373
 42
0.1542719415
  0
VERTEX
  8
LAYER_2
 10
167.495
 20
36.5831
 42
0.2583775622
  0
VERTEX
  8
LAYER_2
 10
167.5636
 20
36.7213
  0
VERTEX
  8
LAYER_2
 10
167.5446
 20
36.8071
  0
VERTEX
  8
LAYER_2
 10
167.4919
 20
36.8642
  0
VERTEX
  8
LAYER_2
 10
167.4103
 20
36.8963
  0
VERTEX
  8
LAYER_2
 10
167.3038
 20
36.9066
  0
VERTEX
  8
LAYER_2
 10
167.1168
 20
36.9066
  0
SEQEND
  0
ENDBLK
  0
BLOCK
  8
LAYER_2
  2
AIGNBL0203009F
 70
64
 10
0
 20
0
 30
0
  3
AIGNBL0203009F
  0
POLYLINE
  8
LAYER_2
 40
0.05
 41
0.05
 66
1
 10
0
 20
0
 30
0
 70
1
  0
VERTEX
  8
LAYER_2
 10
168.1923
 20
35.9637
  0
VERTEX
  8
LAYER_2
 10
168.0876
 20
35.9637
  0
VERTEX
  8
LAYER_2
 10
168.0876
 20
36.9969
  0
VERTEX
  8
LAYER_2
 10
168.1923
 20
36.9969
  0
SEQEND
  0
ENDBLK
  0
BLOCK
  8
LAYER_2
  2
AIGNBL020300A0
 70
64
 10
0
 20
0
 30
0
  3
AIGNBL020300A0
  0
POLYLINE
  8
LAYER_2
 40
0.05
 41
0.05
 66
1
 10
0
 20
0
 30
0
 70
1
  0
VERTEX
  8
LAYER_2
 10
168.7732
 20
36.0574
  0
VERTEX
  8
LAYER_2
 10
169.3261
 20
36.0574
  0
VERTEX
  8
LAYER_2
 10
169.3261
 20
35.9637
  0
VERTEX
  8
LAYER_2
 10
168.6681
 20
35.9637
  0
VERTEX
  8
LAYER_2
 10
168.6681
 20
36.9969
  0
VERTEX
  8
LAYER_2
 10
169.3089
 20
36.9969
  0
VERTEX
  8
LAYER_2
 10
169.3089
 20
36.9035
  0
VERTEX
  8
LAYER_2
 10
168.7732
 20
36.9035
  0
VERTEX
  8
LAYER_2
 10
168.7732
 20
36.549
  0
VERTEX
  8
LAYER_2
 10
169.2737
 20
36.549
  0
VERTEX
  8
LAYER_2
 10
169.2737
 20
36.4557
  0
VERTEX
  8
LAYER_2
 10
168.7732
 20
36.4557
  0
SEQEND
  0
ENDBLK
  0
BLOCK
  8
LAYER_2
  2
AIGNBL020300A1
 70
64
 10
0
 20
0
 30
0
  3
AIGNBL020300A1
  0
POLYLINE
  8
LAYER_2
 40
0.05
 41
0.05
 66
1
 10
0
 20
0
 30
0
 70
1
  0
VERTEX
  8
LAYER_2
 10
170.4661
 20
36.117
  0
VERTEX
  8
LAYER_2
 10
170.4688
 20
36.117
  0
VERTEX
  8
LAYER_2
 10
170.4688
 20
36.9969
  0
VERTEX
  8
LAYER_2
 10
170.5739
 20
36.9969
  0
VERTEX
  8
LAYER_2
 10
170.5739
 20
35.9637
  0
VERTEX
  8
LAYER_2
 10
170.4427
 20
35.9637
  0
VERTEX
  8
LAYER_2
 10
169.8415
 20
36.8525
  0
VERTEX
  8
LAYER_2
 10
169.8384
 20
36.8525
  0
VERTEX
  8
LAYER_2
 10
169.8384
 20
35.9637
  0
VERTEX
  8
LAYER_2
 10
169.7333
 20
35.9637
  0
VERTEX
  8
LAYER_2
 10
169.7333
 20
36.9969
  0
VERTEX
  8
LAYER_2
 10
169.8649
 20
36.9969
  0
SEQEND
  0
ENDBLK
  0
BLOCK
  8
LAYER_2
  2
AIGNBL020300A2
 70
64
 10
0
 20
0
 30
0
  3
AIGNBL020300A2
  0
POLYLINE
  8
LAYER_2
 40
0.05
 41
0.05
 66
1
 10
0
 20
0
 30
0
 70
1
  0
VERTEX
  8
LAYER_2
 10
171.9196
 20
36.1315
  0
VERTEX
  8
LAYER_2
 10
171.8558
 20
36.0571
  0
VERTEX
  8
LAYER_2
 10
171.7697
 20
35.9954
  0
VERTEX
  8
LAYER_2
 10
171.6615
 20
35.953
  0
VERTEX
  8
LAYER_2
 10
171.5327
 20
35.9375
 42
-0.0997799169
  0
VERTEX
  8
LAYER_2
 10
171.3167
 20
35.9785
 42
-0.102530266
  0
VERTEX
  8
LAYER_2
 10
171.1461
 20
36.0915
 42
-0.1000387679
  0
VERTEX
  8
LAYER_2
 10
171.0345
 20
36.2631
 42
-0.09630702324
  0
VERTEX
  8
LAYER_2
 10
170.9942
 20
36.4805
 42
-0.1019529564
  0
VERTEX
  8
LAYER_2
 10
171.0352
 20
36.6978
 42
-0.09989904409
  0
VERTEX
  8
LAYER_2
 10
171.1479
 20
36.8694
 42
-0.09705342834
  0
VERTEX
  8
LAYER_2
 10
171.3187
 20
36.9824
 42
-0.09752919603
  0
VERTEX
  8
LAYER_2
 10
171.5327
 20
37.0234
  0
VERTEX
  8
LAYER_2
 10
171.6443
 20
37.0113
  0
VERTEX
  8
LAYER_2
 10
171.7473
 20
36.9779
  0
VERTEX
  8
LAYER_2
 10
171.8348
 20
36.9263
  0
VERTEX
  8
LAYER_2
 10
171.9006
 20
36.8584
  0
VERTEX
  8
LAYER_2
 10
171.8131
 20
36.794
  0
VERTEX
  8
LAYER_2
 10
171.7697
 20
36.8439
  0
VERTEX
  8
LAYER_2
 10
171.7063
 20
36.8877
  0
VERTEX
  8
LAYER_2
 10
171.6267
 20
36.9183
  0
VERTEX
  8
LAYER_2
 10
171.5341
 20
36.93
 42
0.1106055686
  0
VERTEX
  8
LAYER_2
 10
171.3539
 20
36.8935
 42
0.1040964846
  0
VERTEX
  8
LAYER_2
 10
171.2188
 20
36.7953
 42
0.09554708239
  0
VERTEX
  8
LAYER_2
 10
171.1341
 20
36.652
 42
0.08465136707
  0
VERTEX
  8
LAYER_2
 10
171.1051
 20
36.4805
 42
0.09018441759
  0
VERTEX
  8
LAYER_2
 10
171.1351
 20
36.3089
 42
0.09834905538
  0
VERTEX
  8
LAYER_2
 10
171.2206
 20
36.1656
 42
0.1037153981
  0
VERTEX
  8
LAYER_2
 10
171.3556
 20
36.0674
 42
0.1064777274
  0
VERTEX
  8
LAYER_2
 10
171.5341
 20
36.0309
 42
0.1093190709
  0
VERTEX
  8
LAYER_2
 10
171.7032
 20
36.0674
 42
0.1366622766
  0
VERTEX
  8
LAYER_2
 10
171.8376
 20
36.1842
  0
SEQEND
  0
ENDBLK
  0
BLOCK
  8
LAYER_2
  2
AIGNBL020300A3
 70
64
 10
0
 20
0
 30
0
  3
AIGNBL020300A3
  0
POLYLINE
  8
LAYER_2
 40
0.05
 41
0.05
 66
1
 10
0
 20
0
 30
0
 70
1
  0
VERTEX
  8
LAYER_2
 10
172.4067
 20
36.0574
  0
VERTEX
  8
LAYER_2
 10
172.96
 20
36.0574
  0
VERTEX
  8
LAYER_2
 10
172.96
 20
35.9637
  0
VERTEX
  8
LAYER_2
 10
172.3016
 20
35.9637
  0
VERTEX
  8
LAYER_2
 10
172.3016
 20
36.9969
  0
VERTEX
  8
LAYER_2
 10
172.9424
 20
36.9969
  0
VERTEX
  8
LAYER_2
 10
172.9424
 20
36.9035
  0
VERTEX
  8
LAYER_2
 10
172.4067
 20
36.9035
  0
VERTEX
  8
LAYER_2
 10
172.4067
 20
36.549
  0
VERTEX
  8
LAYER_2
 10
172.9073
 20
36.549
  0
VERTEX
  8
LAYER_2
 10
172.9073
 20
36.4557
  0
VERTEX
  8
LAYER_2
 10
172.4067
 20
36.4557
  0
SEQEND
  0
ENDBLK
  0
BLOCK
  8
LAYER_1
  2
AIGNBL01020006
 70
64
 10
0
 20
0
 30
0
  3
AIGNBL01020006
  0
INSERT
  8
LAYER_1
  2
AIGNBL01030007
 10
0
 20
0
 30
0
  0
ENDBLK
  0
BLOCK
  8
LAYER_1
  2
AIGNBL0102000A
 70
64
 10
0
 20
0
 30
0
  3
AIGNBL0102000A
  0
POLYLINE
  8
LAYER_1
 40
0.0882
 41
0.0882
 66
1
 10
0
 20
0
 30
0
  0
VERTEX
  8
LAYER_1
 10
302.8942
 20
220.0265
  0
VERTEX
  8
LAYER_1
 10
306.0692
 20
220.0265
  0
SEQEND
  0
ENDBLK
  0
BLOCK
  8
LAYER_1
  2
AIGNBL0102000B
 70
64
 10
0
 20
0
 30
0
  3
AIGNBL0102000B
  0
POLYLINE
  8
LAYER_1
 40
0.0882
 41
0.0882
 66
1
 10
0
 20
0
 30
0
  0
VERTEX
  8
LAYER_1
 10
306.0692
 20
178.3559
  0
VERTEX
  8
LAYER_1
 10
302.8942
 20
178.3559
  0
SEQEND
  0
ENDBLK
  0
BLOCK
  8
LAYER_1
  2
AIGNBL0102000D
 70
64
 10
0
 20
0
 30
0
  3
AIGNBL0102000D
  0
INSERT
  8
LAYER_1
  2
AIGNBL0103000E
 10
0
 20
0
 30
0
  0
ENDBLK
  0
BLOCK
  8
LAYER_1
  2
AIGNBL01020011
 70
64
 10
0
 20
0
 30
0
  3
AIGNBL01020011
  0
POLYLINE
  8
LAYER_1
 40
0.0882
 41
0.0882
 66
1
 10
0
 20
0
 30
0
  0
VERTEX
  8
LAYER_1
 10
302.8942
 20
137.1827
  0
VERTEX
  8
LAYER_1
 10
306.0692
 20
137.1827
  0
SEQEND
  0
ENDBLK
  0
BLOCK
  8
LAYER_1
  2
AIGNBL01020012
 70
64
 10
0
 20
0
 30
0
  3
AIGNBL01020012
  0
POLYLINE
  8
LAYER_1
 40
0.0882
 41
0.0882
 66
1
 10
0
 20
0
 30
0
  0
VERTEX
  8
LAYER_1
 10
306.0692
 20
130.8482
  0
VERTEX
  8
LAYER_1
 10
302.8942
 20
130.8482
  0
SEQEND
  0
ENDBLK
  0
BLOCK
  8
LAYER_1
  2
AIGNBL01020014
 70
64
 10
0
 20
0
 30
0
  3
AIGNBL01020014
  0
INSERT
  8
LAYER_1
  2
AIGNBL01030015
 10
0
 20
0
 30
0
  0
ENDBLK
  0
BLOCK
  8
LAYER_1
  2
AIGNBL01020018
 70
64
 10
0
 20
0
 30
0
  3
AIGNBL01020018
  0
POLYLINE
  8
LAYER_1
 40
0.0882
 41
0.0882
 66
1
 10
0
 20
0
 30
0
  0
VERTEX
  8
LAYER_1
 10
302.8942
 20
125.5407
  0
VERTEX
  8
LAYER_1
 10
306.0692
 20
125.5407
  0
SEQEND
  0
ENDBLK
  0
BLOCK
  8
LAYER_1
  2
AIGNBL01020019
 70
64
 10
0
 20
0
 30
0
  3
AIGNBL01020019
  0
POLYLINE
  8
LAYER_1
 40
0.0882
 41
0.0882
 66
1
 10
0
 20
0
 30
0
  0
VERTEX
  8
LAYER_1
 10
306.0692
 20
119.2065
  0
VERTEX
  8
LAYER_1
 10
302.8942
 20
119.2065
  0
SEQEND
  0
ENDBLK
  0
BLOCK
  8
LAYER_1
  2
AIGNBL0102001B
 70
64
 10
0
 20
0
 30
0
  3
AIGNBL0102001B
  0
INSERT
  8
LAYER_1
  2
AIGNBL0103001C
 10
0
 20
0
 30
0
  0
ENDBLK
  0
BLOCK
  8
LAYER_1
  2
AIGNBL0102001F
 70
64
 10
0
 20
0
 30
0
  3
AIGNBL0102001F
  0
POLYLINE
  8
LAYER_1
 40
0.0882
 41
0.0882
 66
1
 10
0
 20
0
 30
0
  0
VERTEX
  8
LAYER_1
 10
302.8942
 20
106.1089
  0
VERTEX
  8
LAYER_1
 10
306.0692
 20
106.1089
  0
SEQEND
  0
ENDBLK
  0
BLOCK
  8
LAYER_1
  2
AIGNBL01020020
 70
64
 10
0
 20
0
 30
0
  3
AIGNBL01020020
  0
POLYLINE
  8
LAYER_1
 40
0.0882
 41
0.0882
 66
1
 10
0
 20
0
 30
0
  0
VERTEX
  8
LAYER_1
 10
306.0692
 20
102.0675
  0
VERTEX
  8
LAYER_1
 10
302.8942
 20
102.0675
  0
SEQEND
  0
ENDBLK
  0
BLOCK
  8
LAYER_1
  2
AIGNBL01020022
 70
64
 10
0
 20
0
 30
0
  3
AIGNBL01020022
  0
INSERT
  8
LAYER_1
  2
AIGNBL01030023
 10
0
 20
0
 30
0
  0
ENDBLK
  0
BLOCK
  8
LAYER_1
  2
AIGNBL01020026
 70
64
 10
0
 20
0
 30
0
  3
AIGNBL01020026
  0
POLYLINE
  8
LAYER_1
 40
0.0882
 41
0.0882
 66
1
 10
0
 20
0
 30
0
  0
VERTEX
  8
LAYER_1
 10
333.8353
 20
110.9486
  0
VERTEX
  8
LAYER_1
 10
333.8353
 20
107.7736
  0
SEQEND
  0
ENDBLK
  0
BLOCK
  8
LAYER_1
  2
AIGNBL01020027
 70
64
 10
0
 20
0
 30
0
  3
AIGNBL01020027
  0
POLYLINE
  8
LAYER_1
 40
0.0882
 41
0.0882
 66
1
 10
0
 20
0
 30
0
  0
VERTEX
  8
LAYER_1
 10
310.2736
 20
107.7736
  0
VERTEX
  8
LAYER_1
 10
310.2736
 20
110.9486
  0
SEQEND
  0
ENDBLK
  0
BLOCK
  8
LAYER_1
  2
AIGNBL01020029
 70
64
 10
0
 20
0
 30
0
  3
AIGNBL01020029
  0
INSERT
  8
LAYER_1
  2
AIGNBL0103002A
 10
0
 20
0
 30
0
  0
ENDBLK
  0
BLOCK
  8
LAYER_1
  2
AIGNBL0102002D
 70
64
 10
0
 20
0
 30
0
  3
AIGNBL0102002D
  0
POLYLINE
  8
LAYER_1
 40
0.0882
 41
0.0882
 66
1
 10
0
 20
0
 30
0
  0
VERTEX
  8
LAYER_1
 10
333.7471
 20
225.7778
  0
VERTEX
  8
LAYER_1
 10
333.7471
 20
222.6028
  0
SEQEND
  0
ENDBLK
  0
BLOCK
  8
LAYER_1
  2
AIGNBL0102002E
 70
64
 10
0
 20
0
 30
0
  3
AIGNBL0102002E
  0
POLYLINE
  8
LAYER_1
 40
0.0882
 41
0.0882
 66
1
 10
0
 20
0
 30
0
  0
VERTEX
  8
LAYER_1
 10
310.5822
 20
222.6028
  0
VERTEX
  8
LAYER_1
 10
310.5822
 20
225.7778
  0
SEQEND
  0
ENDBLK
  0
BLOCK
  8
LAYER_1
  2
AIGNBL01020030
 70
64
 10
0
 20
0
 30
0
  3
AIGNBL01020030
  0
INSERT
  8
LAYER_1
  2
AIGNBL01030031
 10
0
 20
0
 30
0
  0
ENDBLK
  0
BLOCK
  8
LAYER_1
  2
AIGNBL01020034
 70
64
 10
0
 20
0
 30
0
  3
AIGNBL01020034
  0
POLYLINE
  8
LAYER_1
 40
0.0882
 41
0.0882
 66
1
 10
0
 20
0
 30
0
  0
VERTEX
  8
LAYER_1
 10
335.9485
 20
144.1979
  0
VERTEX
  8
LAYER_1
 10
335.9485
 20
141.0229
  0
SEQEND
  0
ENDBLK
  0
BLOCK
  8
LAYER_1
  2
AIGNBL01020035
 70
64
 10
0
 20
0
 30
0
  3
AIGNBL01020035
  0
POLYLINE
  8
LAYER_1
 40
0.0882
 41
0.0882
 66
1
 10
0
 20
0
 30
0
  0
VERTEX
  8
LAYER_1
 10
308.4635
 20
141.0229
  0
VERTEX
  8
LAYER_1
 10
308.4635
 20
144.1979
  0
SEQEND
  0
ENDBLK
  0
BLOCK
  8
LAYER_1
  2
AIGNBL01020037
 70
64
 10
0
 20
0
 30
0
  3
AIGNBL01020037
  0
INSERT
  8
LAYER_1
  2
AIGNBL01030038
 10
0
 20
0
 30
0
  0
ENDBLK
  0
BLOCK
  8
LAYER_1
  2
AIGNBL0102003B
 70
64
 10
0
 20
0
 30
0
  3
AIGNBL0102003B
  0
POLYLINE
  8
LAYER_1
 40
0.0882
 41
0.0882
 66
1
 10
0
 20
0
 30
0
  0
VERTEX
  8
LAYER_1
 10
334.7723
 20
94.2213
  0
VERTEX
  8
LAYER_1
 10
334.7723
 20
91.0463
  0
SEQEND
  0
ENDBLK
  0
BLOCK
  8
LAYER_1
  2
AIGNBL0102003C
 70
64
 10
0
 20
0
 30
0
  3
AIGNBL0102003C
  0
POLYLINE
  8
LAYER_1
 40
0.0882
 41
0.0882
 66
1
 10
0
 20
0
 30
0
  0
VERTEX
  8
LAYER_1
 10
309.6397
 20
91.0463
  0
VERTEX
  8
LAYER_1
 10
309.6397
 20
94.2213
  0
SEQEND
  0
ENDBLK
  0
BLOCK
  8
LAYER_1
  2
AIGNBL0102003E
 70
64
 10
0
 20
0
 30
0
  3
AIGNBL0102003E
  0
INSERT
  8
LAYER_1
  2
AIGNBL0103003F
 10
0
 20
0
 30
0
  0
ENDBLK
  0
BLOCK
  8
LAYER_1
  2
AIGNBL01020042
 70
64
 10
0
 20
0
 30
0
  3
AIGNBL01020042
  0
POLYLINE
  8
LAYER_1
 40
0.0882
 41
0.0882
 66
1
 10
0
 20
0
 30
0
  0
VERTEX
  8
LAYER_1
 10
309.6397
 20
45.5755
  0
VERTEX
  8
LAYER_1
 10
309.6397
 20
48.7505
  0
SEQEND
  0
ENDBLK
  0
BLOCK
  8
LAYER_1
  2
AIGNBL01020043
 70
64
 10
0
 20
0
 30
0
  3
AIGNBL01020043
  0
POLYLINE
  8
LAYER_1
 40
0.0882
 41
0.0882
 66
1
 10
0
 20
0
 30
0
  0
VERTEX
  8
LAYER_1
 10
365.8168
 20
48.7505
  0
VERTEX
  8
LAYER_1
 10
365.8168
 20
45.5755
  0
SEQEND
  0
ENDBLK
  0
BLOCK
  8
LAYER_1
  2
AIGNBL01020045
 70
64
 10
0
 20
0
 30
0
  3
AIGNBL01020045
  0
INSERT
  8
LAYER_1
  2
AIGNBL01030046
 10
0
 20
0
 30
0
  0
ENDBLK
  0
BLOCK
  8
LAYER_1
  2
AIGNBL01020049
 70
64
 10
0
 20
0
 30
0
  3
AIGNBL01020049
  0
POLYLINE
  8
LAYER_1
 40
0.0882
 41
0.0882
 66
1
 10
0
 20
0
 30
0
  0
VERTEX
  8
LAYER_1
 10
371.5763
 20
71.4575
  0
VERTEX
  8
LAYER_1
 10
368.4013
 20
71.4575
  0
SEQEND
  0
ENDBLK
  0
BLOCK
  8
LAYER_1
  2
AIGNBL0102004A
 70
64
 10
0
 20
0
 30
0
  3
AIGNBL0102004A
  0
POLYLINE
  8
LAYER_1
 40
0.0882
 41
0.0882
 66
1
 10
0
 20
0
 30
0
  0
VERTEX
  8
LAYER_1
 10
368.4013
 20
96.6201
  0
VERTEX
  8
LAYER_1
 10
371.5763
 20
96.6201
  0
SEQEND
  0
ENDBLK
  0
BLOCK
  8
LAYER_1
  2
AIGNBL0102004C
 70
64
 10
0
 20
0
 30
0
  3
AIGNBL0102004C
  0
INSERT
  8
LAYER_1
  2
AIGNBL0103004D
 10
0
 20
0
 30
0
  0
ENDBLK
  0
BLOCK
  8
LAYER_1
  2
AIGNBL01020050
 70
64
 10
0
 20
0
 30
0
  3
AIGNBL01020050
  0
POLYLINE
  8
LAYER_1
 40
0.0882
 41
0.0882
 66
1
 10
0
 20
0
 30
0
  0
VERTEX
  8
LAYER_1
 10
550.9634
 20
74.0348
  0
VERTEX
  8
LAYER_1
 10
547.7884
 20
74.0348
  0
SEQEND
  0
ENDBLK
  0
BLOCK
  8
LAYER_1
  2
AIGNBL01020051
 70
64
 10
0
 20
0
 30
0
  3
AIGNBL01020051
  0
POLYLINE
  8
LAYER_1
 40
0.0882
 41
0.0882
 66
1
 10
0
 20
0
 30
0
  0
VERTEX
  8
LAYER_1
 10
547.7884
 20
94.0921
  0
VERTEX
  8
LAYER_1
 10
550.9634
 20
94.0921
  0
SEQEND
  0
ENDBLK
  0
BLOCK
  8
LAYER_1
  2
AIGNBL01020053
 70
64
 10
0
 20
0
 30
0
  3
AIGNBL01020053
  0
INSERT
  8
LAYER_1
  2
AIGNBL01030054
 10
0
 20
0
 30
0
  0
ENDBLK
  0
BLOCK
  8
LAYER_1
  2
AIGNBL01020057
 70
64
 10
0
 20
0
 30
0
  3
AIGNBL01020057
  0
POLYLINE
  8
LAYER_1
 40
0.0882
 41
0.0882
 66
1
 10
0
 20
0
 30
0
  0
VERTEX
  8
LAYER_1
 10
312.2655
 20
171.8357
  0
VERTEX
  8
LAYER_1
 10
312.2655
 20
175.0107
  0
SEQEND
  0
ENDBLK
  0
BLOCK
  8
LAYER_1
  2
AIGNBL01020058
 70
64
 10
0
 20
0
 30
0
  3
AIGNBL01020058
  0
POLYLINE
  8
LAYER_1
 40
0.0882
 41
0.0882
 66
1
 10
0
 20
0
 30
0
  0
VERTEX
  8
LAYER_1
 10
332.3229
 20
175.0107
  0
VERTEX
  8
LAYER_1
 10
332.3229
 20
171.8357
  0
SEQEND
  0
ENDBLK
  0
BLOCK
  8
LAYER_1
  2
AIGNBL0102005A
 70
64
 10
0
 20
0
 30
0
  3
AIGNBL0102005A
  0
INSERT
  8
LAYER_1
  2
AIGNBL0103005B
 10
0
 20
0
 30
0
  0
ENDBLK
  0
BLOCK
  8
LAYER_1
  2
AIGNBL0102005E
 70
64
 10
0
 20
0
 30
0
  3
AIGNBL0102005E
  0
POLYLINE
  8
LAYER_1
 40
0.0882
 41
0.0882
 66
1
 10
0
 20
0
 30
0
  0
VERTEX
  8
LAYER_1
 10
579.0668
 20
61.1587
  0
VERTEX
  8
LAYER_1
 10
575.8918
 20
61.1587
  0
SEQEND
  0
ENDBLK
  0
BLOCK
  8
LAYER_1
  2
AIGNBL0102005F
 70
64
 10
0
 20
0
 30
0
  3
AIGNBL0102005F
  0
POLYLINE
  8
LAYER_1
 40
0.0882
 41
0.0882
 66
1
 10
0
 20
0
 30
0
  0
VERTEX
  8
LAYER_1
 10
575.8918
 20
107.674
  0
VERTEX
  8
LAYER_1
 10
579.0668
 20
107.674
  0
SEQEND
  0
ENDBLK
  0
BLOCK
  8
LAYER_1
  2
AIGNBL01020061
 70
64
 10
0
 20
0
 30
0
  3
AIGNBL01020061
  0
INSERT
  8
LAYER_1
  2
AIGNBL01030062
 10
0
 20
0
 30
0
  0
ENDBLK
  0
BLOCK
  8
LAYER_1
  2
AIGNBL01020065
 70
64
 10
0
 20
0
 30
0
  3
AIGNBL01020065
  0
POLYLINE
  8
LAYER_1
 40
0.0882
 41
0.0882
 66
1
 10
0
 20
0
 30
0
  0
VERTEX
  8
LAYER_1
 10
334.2559
 20
160.4257
  0
VERTEX
  8
LAYER_1
 10
334.2559
 20
157.2507
  0
SEQEND
  0
ENDBLK
  0
BLOCK
  8
LAYER_1
  2
AIGNBL01020066
 70
64
 10
0
 20
0
 30
0
  3
AIGNBL01020066
  0
POLYLINE
  8
LAYER_1
 40
0.0882
 41
0.0882
 66
1
 10
0
 20
0
 30
0
  0
VERTEX
  8
LAYER_1
 10
310.3283
 20
157.2507
  0
VERTEX
  8
LAYER_1
 10
310.3283
 20
160.4257
  0
SEQEND
  0
ENDBLK
  0
BLOCK
  8
LAYER_1
  2
AIGNBL01020068
 70
64
 10
0
 20
0
 30
0
  3
AIGNBL01020068
  0
INSERT
  8
LAYER_1
  2
AIGNBL01030069
 10
0
 20
0
 30
0
  0
ENDBLK
  0
BLOCK
  8
LAYER_1
  2
AIGNBL0102006C
 70
64
 10
0
 20
0
 30
0
  3
AIGNBL0102006C
  0
POLYLINE
  8
LAYER_1
 40
0.0882
 41
0.0882
 66
1
 10
0
 20
0
 30
0
  0
VERTEX
  8
LAYER_1
 10
302.8942
 20
96.0344
  0
VERTEX
  8
LAYER_1
 10
306.0692
 20
96.0344
  0
SEQEND
  0
ENDBLK
  0
BLOCK
  8
LAYER_1
  2
AIGNBL0102006D
 70
64
 10
0
 20
0
 30
0
  3
AIGNBL0102006D
  0
POLYLINE
  8
LAYER_1
 40
0.0882
 41
0.0882
 66
1
 10
0
 20
0
 30
0
  0
VERTEX
  8
LAYER_1
 10
306.0692
 20
52.917
  0
VERTEX
  8
LAYER_1
 10
302.8942
 20
52.917
  0
SEQEND
  0
ENDBLK
  0
BLOCK
  8
LAYER_1
  2
AIGNBL0102006F
 70
64
 10
0
 20
0
 30
0
  3
AIGNBL0102006F
  0
INSERT
  8
LAYER_1
  2
AIGNBL01030070
 10
0
 20
0
 30
0
  0
ENDBLK
  0
BLOCK
  8
LAYER_1
  2
AIGNBL01020073
 70
64
 10
0
 20
0
 30
0
  3
AIGNBL01020073
  0
POLYLINE
  8
LAYER_1
 40
0.0882
 41
0.0882
 66
1
 10
0
 20
0
 30
0
  0
VERTEX
  8
LAYER_1
 10
302.8942
 20
154.4684
  0
VERTEX
  8
LAYER_1
 10
306.0692
 20
154.4684
  0
SEQEND
  0
ENDBLK
  0
BLOCK
  8
LAYER_1
  2
AIGNBL01020074
 70
64
 10
0
 20
0
 30
0
  3
AIGNBL01020074
  0
POLYLINE
  8
LAYER_1
 40
0.0882
 41
0.0882
 66
1
 10
0
 20
0
 30
0
  0
VERTEX
  8
LAYER_1
 10
306.0692
 20
153.1321
  0
VERTEX
  8
LAYER_1
 10
302.8942
 20
153.1321
  0
SEQEND
  0
ENDBLK
  0
BLOCK
  8
LAYER_2
  2
AIGNBL02020007
 70
64
 10
0
 20
0
 30
0
  3
AIGNBL02020007
  0
INSERT
  8
LAYER_2
  2
AIGNBL02030008
 10
0
 20
0
 30
0
  0
POLYLINE
  8
LAYER_2
 40
0.1058
 41
0.1058
 66
1
 10
0
 20
0
 30
0
  0
VERTEX
  8
LAYER_2
 10
-1.722
 20
136.1405
  0
VERTEX
  8
LAYER_2
 10
0.862
 20
136.1405
  0
SEQEND
  0
POLYLINE
  8
LAYER_2
 40
0.1058
 41
0.1058
 66
1
 10
0
 20
0
 30
0
  0
VERTEX
  8
LAYER_2
 10
0.862
 20
114.1656
  0
VERTEX
  8
LAYER_2
 10
-1.722
 20
114.1656
  0
SEQEND
  0
ENDBLK
  0
BLOCK
  8
LAYER_2
  2
AIGNBL0202000D
 70
64
 10
0
 20
0
 30
0
  3
AIGNBL0202000D
  0
INSERT
  8
LAYER_2
  2
AIGNBL0203000E
 10
0
 20
0
 30
0
  0
POLYLINE
  8
LAYER_2
 40
0.1058
 41
0.1058
 66
1
 10
0
 20
0
 30
0
  0
VERTEX
  8
LAYER_2
 10
-11.6117
 20
157.1622
  0
VERTEX
  8
LAYER_2
 10
-9.0275
 20
157.1622
  0
SEQEND
  0
POLYLINE
  8
LAYER_2
 40
0.1058
 41
0.1058
 66
1
 10
0
 20
0
 30
0
  0
VERTEX
  8
LAYER_2
 10
-9.0275
 20
114.1656
  0
VERTEX
  8
LAYER_2
 10
-11.6117
 20
114.1656
  0
SEQEND
  0
ENDBLK
  0
BLOCK
  8
LAYER_2
  2
AIGNBL02020013
 70
64
 10
0
 20
0
 30
0
  3
AIGNBL02020013
  0
INSERT
  8
LAYER_2
  2
AIGNBL02030014
 10
0
 20
0
 30
0
  0
POLYLINE
  8
LAYER_2
 40
0.1058
 41
0.1058
 66
1
 10
0
 20
0
 30
0
  0
VERTEX
  8
LAYER_2
 10
8.4751
 20
108.6556
  0
VERTEX
  8
LAYER_2
 10
8.4751
 20
111.2401
  0
SEQEND
  0
POLYLINE
  8
LAYER_2
 40
0.1058
 41
0.1058
 66
1
 10
0
 20
0
 30
0
  0
VERTEX
  8
LAYER_2
 10
40.2167
 20
111.2401
  0
VERTEX
  8
LAYER_2
 10
40.2167
 20
108.6556
  0
SEQEND
  0
ENDBLK
  0
BLOCK
  8
LAYER_2
  2
AIGNBL02020019
 70
64
 10
0
 20
0
 30
0
  3
AIGNBL02020019
  0
INSERT
  8
LAYER_2
  2
AIGNBL0203001A
 10
0
 20
0
 30
0
  0
POLYLINE
  8
LAYER_2
 40
0.1058
 41
0.1058
 66
1
 10
0
 20
0
 30
0
  0
VERTEX
  8
LAYER_2
 10
175.5221
 20
114.1656
  0
VERTEX
  8
LAYER_2
 10
172.9379
 20
114.1656
  0
SEQEND
  0
POLYLINE
  8
LAYER_2
 40
0.1058
 41
0.1058
 66
1
 10
0
 20
0
 30
0
  0
VERTEX
  8
LAYER_2
 10
172.9379
 20
145.9074
  0
VERTEX
  8
LAYER_2
 10
175.5221
 20
145.9074
  0
SEQEND
  0
ENDBLK
  0
BLOCK
  8
LAYER_2
  2
AIGNBL0202001F
 70
64
 10
0
 20
0
 30
0
  3
AIGNBL0202001F
  0
INSERT
  8
LAYER_2
  2
AIGNBL02030020
 10
0
 20
0
 30
0
  0
POLYLINE
  8
LAYER_2
 40
0.1058
 41
0.1058
 66
1
 10
0
 20
0
 30
0
  0
VERTEX
  8
LAYER_2
 10
160.2431
 20
131.2574
  0
VERTEX
  8
LAYER_2
 10
157.6589
 20
131.2574
  0
SEQEND
  0
POLYLINE
  8
LAYER_2
 40
0.1058
 41
0.1058
 66
1
 10
0
 20
0
 30
0
  0
VERTEX
  8
LAYER_2
 10
157.6589
 20
145.9074
  0
VERTEX
  8
LAYER_2
 10
160.2431
 20
145.9074
  0
SEQEND
  0
ENDBLK
  0
BLOCK
  8
LAYER_2
  2
AIGNBL02020025
 70
64
 10
0
 20
0
 30
0
  3
AIGNBL02020025
  0
INSERT
  8
LAYER_2
  2
AIGNBL02030026
 10
0
 20
0
 30
0
  0
POLYLINE
  8
LAYER_2
 40
0.1058
 41
0.1058
 66
1
 10
0
 20
0
 30
0
  0
VERTEX
  8
LAYER_2
 10
168.623
 20
114.1656
  0
VERTEX
  8
LAYER_2
 10
166.0388
 20
114.1656
  0
SEQEND
  0
POLYLINE
  8
LAYER_2
 40
0.1058
 41
0.1058
 66
1
 10
0
 20
0
 30
0
  0
VERTEX
  8
LAYER_2
 10
166.0388
 20
138.5824
  0
VERTEX
  8
LAYER_2
 10
168.623
 20
138.5824
  0
SEQEND
  0
ENDBLK
  0
BLOCK
  8
LAYER_2
  2
AIGNBL0202002B
 70
64
 10
0
 20
0
 30
0
  3
AIGNBL0202002B
  0
INSERT
  8
LAYER_2
  2
AIGNBL0203002C
 10
0
 20
0
 30
0
  0
POLYLINE
  8
LAYER_2
 40
0.1058
 41
0.1058
 66
1
 10
0
 20
0
 30
0
  0
VERTEX
  8
LAYER_2
 10
168.623
 20
138.5824
  0
VERTEX
  8
LAYER_2
 10
166.0388
 20
138.5824
  0
SEQEND
  0
POLYLINE
  8
LAYER_2
 40
0.1058
 41
0.1058
 66
1
 10
0
 20
0
 30
0
  0
VERTEX
  8
LAYER_2
 10
166.0388
 20
157.1387
  0
VERTEX
  8
LAYER_2
 10
168.623
 20
157.1387
  0
SEQEND
  0
ENDBLK
  0
BLOCK
  8
LAYER_2
  2
AIGNBL02020031
 70
64
 10
0
 20
0
 30
0
  3
AIGNBL02020031
  0
INSERT
  8
LAYER_2
  2
AIGNBL02030032
 10
0
 20
0
 30
0
  0
POLYLINE
  8
LAYER_2
 40
0.1058
 41
0.1058
 66
1
 10
0
 20
0
 30
0
  0
VERTEX
  8
LAYER_2
 10
8.4751
 20
101.4415
  0
VERTEX
  8
LAYER_2
 10
8.4751
 20
104.0253
  0
SEQEND
  0
POLYLINE
  8
LAYER_2
 40
0.1058
 41
0.1058
 66
1
 10
0
 20
0
 30
0
  0
VERTEX
  8
LAYER_2
 10
52.4247
 20
104.0253
  0
VERTEX
  8
LAYER_2
 10
52.4247
 20
101.4415
  0
SEQEND
  0
ENDBLK
  0
BLOCK
  8
LAYER_2
  2
AIGNBL02020037
 70
64
 10
0
 20
0
 30
0
  3
AIGNBL02020037
  0
INSERT
  8
LAYER_2
  2
AIGNBL02030038
 10
0
 20
0
 30
0
  0
ENDBLK
  0
BLOCK
  8
LAYER_2
  2
AIGNBL0202003C
 70
64
 10
0
 20
0
 30
0
  3
AIGNBL0202003C
  0
INSERT
  8
LAYER_2
  2
AIGNBL0203003D
 10
0
 20
0
 30
0
  0
POLYLINE
  8
LAYER_2
 40
0.1058
 41
0.1058
 66
1
 10
0
 20
0
 30
0
  0
VERTEX
  8
LAYER_2
 10
25.5667
 20
163.815
  0
VERTEX
  8
LAYER_2
 10
25.5667
 20
161.2308
  0
SEQEND
  0
POLYLINE
  8
LAYER_2
 40
0.1058
 41
0.1058
 66
1
 10
0
 20
0
 30
0
  0
VERTEX
  8
LAYER_2
 10
6.0334
 20
161.2308
  0
VERTEX
  8
LAYER_2
 10
6.0334
 20
163.815
  0
SEQEND
  0
ENDBLK
  0
BLOCK
  8
LAYER_2
  2
AIGNBL02020042
 70
64
 10
0
 20
0
 30
0
  3
AIGNBL02020042
  0
INSERT
  8
LAYER_2
  2
AIGNBL02030043
 10
0
 20
0
 30
0
  0
POLYLINE
  8
LAYER_2
 40
0.1058
 41
0.1058
 66
1
 10
0
 20
0
 30
0
  0
VERTEX
  8
LAYER_2
 10
-1.722
 20
141.0243
  0
VERTEX
  8
LAYER_2
 10
0.862
 20
141.0243
  0
SEQEND
  0
POLYLINE
  8
LAYER_2
 40
0.1058
 41
0.1058
 66
1
 10
0
 20
0
 30
0
  0
VERTEX
  8
LAYER_2
 10
0.862
 20
136.1405
  0
VERTEX
  8
LAYER_2
 10
-1.722
 20
136.1405
  0
SEQEND
  0
ENDBLK
  0
BLOCK
  8
LAYER_2
  2
AIGNBL02020048
 70
64
 10
0
 20
0
 30
0
  3
AIGNBL02020048
  0
INSERT
  8
LAYER_2
  2
AIGNBL02030049
 10
0
 20
0
 30
0
  0
POLYLINE
  8
LAYER_2
 40
0.1058
 41
0.1058
 66
1
 10
0
 20
0
 30
0
  0
VERTEX
  8
LAYER_2
 10
-1.722
 20
157.1387
  0
VERTEX
  8
LAYER_2
 10
0.862
 20
157.1387
  0
SEQEND
  0
POLYLINE
  8
LAYER_2
 40
0.1058
 41
0.1058
 66
1
 10
0
 20
0
 30
0
  0
VERTEX
  8
LAYER_2
 10
0.862
 20
152.2557
  0
VERTEX
  8
LAYER_2
 10
-1.722
 20
152.2557
  0
SEQEND
  0
ENDBLK
  0
BLOCK
  8
LAYER_2
  2
AIGNBL0202004E
 70
64
 10
0
 20
0
 30
0
  3
AIGNBL0202004E
  0
INSERT
  8
LAYER_2
  2
AIGNBL0203004F
 10
0
 20
0
 30
0
  0
POLYLINE
  8
LAYER_2
 40
0.1058
 41
0.1058
 66
1
 10
0
 20
0
 30
0
  0
VERTEX
  8
LAYER_2
 10
-1.722
 20
152.2557
  0
VERTEX
  8
LAYER_2
 10
0.862
 20
152.2557
  0
SEQEND
  0
POLYLINE
  8
LAYER_2
 40
0.1058
 41
0.1058
 66
1
 10
0
 20
0
 30
0
  0
VERTEX
  8
LAYER_2
 10
0.862
 20
141.0243
  0
VERTEX
  8
LAYER_2
 10
-1.722
 20
141.0243
  0
SEQEND
  0
ENDBLK
  0
BLOCK
  8
LAYER_2
  2
AIGNBL02020056
 70
64
 10
0
 20
0
 30
0
  3
AIGNBL02020056
  0
INSERT
  8
LAYER_2
  2
AIGNBL02030057
 10
0
 20
0
 30
0
  0
POLYLINE
  8
LAYER_2
 40
0.1058
 41
0.1058
 66
1
 10
0
 20
0
 30
0
  0
VERTEX
  8
LAYER_2
 10
203.4102
 20
136.1405
  0
VERTEX
  8
LAYER_2
 10
205.994
 20
136.1405
  0
SEQEND
  0
POLYLINE
  8
LAYER_2
 40
0.1058
 41
0.1058
 66
1
 10
0
 20
0
 30
0
  0
VERTEX
  8
LAYER_2
 10
205.994
 20
114.1656
  0
VERTEX
  8
LAYER_2
 10
203.4102
 20
114.1656
  0
SEQEND
  0
ENDBLK
  0
BLOCK
  8
LAYER_2
  2
AIGNBL0202005C
 70
64
 10
0
 20
0
 30
0
  3
AIGNBL0202005C
  0
INSERT
  8
LAYER_2
  2
AIGNBL0203005D
 10
0
 20
0
 30
0
  0
POLYLINE
  8
LAYER_2
 40
0.1058
 41
0.1058
 66
1
 10
0
 20
0
 30
0
  0
VERTEX
  8
LAYER_2
 10
191.2276
 20
157.1622
  0
VERTEX
  8
LAYER_2
 10
193.8114
 20
157.1622
  0
SEQEND
  0
POLYLINE
  8
LAYER_2
 40
0.1058
 41
0.1058
 66
1
 10
0
 20
0
 30
0
  0
VERTEX
  8
LAYER_2
 10
193.8114
 20
114.1656
  0
VERTEX
  8
LAYER_2
 10
191.2276
 20
114.1656
  0
SEQEND
  0
ENDBLK
  0
BLOCK
  8
LAYER_2
  2
AIGNBL02020062
 70
64
 10
0
 20
0
 30
0
  3
AIGNBL02020062
  0
INSERT
  8
LAYER_2
  2
AIGNBL02030063
 10
0
 20
0
 30
0
  0
POLYLINE
  8
LAYER_2
 40
0.1058
 41
0.1058
 66
1
 10
0
 20
0
 30
0
  0
VERTEX
  8
LAYER_2
 10
213.6073
 20
108.6556
  0
VERTEX
  8
LAYER_2
 10
213.6073
 20
111.2401
  0
SEQEND
  0
POLYLINE
  8
LAYER_2
 40
0.1058
 41
0.1058
 66
1
 10
0
 20
0
 30
0
  0
VERTEX
  8
LAYER_2
 10
228.2572
 20
111.2401
  0
VERTEX
  8
LAYER_2
 10
228.2572
 20
108.6556
  0
SEQEND
  0
ENDBLK
  0
BLOCK
  8
LAYER_2
  2
AIGNBL02020068
 70
64
 10
0
 20
0
 30
0
  3
AIGNBL02020068
  0
INSERT
  8
LAYER_2
  2
AIGNBL02030069
 10
0
 20
0
 30
0
  0
POLYLINE
  8
LAYER_2
 40
0.1058
 41
0.1058
 66
1
 10
0
 20
0
 30
0
  0
VERTEX
  8
LAYER_2
 10
230.6988
 20
163.815
  0
VERTEX
  8
LAYER_2
 10
230.6988
 20
161.2308
  0
SEQEND
  0
POLYLINE
  8
LAYER_2
 40
0.1058
 41
0.1058
 66
1
 10
0
 20
0
 30
0
  0
VERTEX
  8
LAYER_2
 10
211.1654
 20
161.2308
  0
VERTEX
  8
LAYER_2
 10
211.1654
 20
163.815
  0
SEQEND
  0
ENDBLK
  0
BLOCK
  8
LAYER_2
  2
AIGNBL0202006E
 70
64
 10
0
 20
0
 30
0
  3
AIGNBL0202006E
  0
INSERT
  8
LAYER_2
  2
AIGNBL0203006F
 10
0
 20
0
 30
0
  0
POLYLINE
  8
LAYER_2
 40
0.1058
 41
0.1058
 66
1
 10
0
 20
0
 30
0
  0
VERTEX
  8
LAYER_2
 10
203.4102
 20
141.0243
  0
VERTEX
  8
LAYER_2
 10
205.994
 20
141.0243
  0
SEQEND
  0
POLYLINE
  8
LAYER_2
 40
0.1058
 41
0.1058
 66
1
 10
0
 20
0
 30
0
  0
VERTEX
  8
LAYER_2
 10
205.994
 20
136.1405
  0
VERTEX
  8
LAYER_2
 10
203.4102
 20
136.1405
  0
SEQEND
  0
ENDBLK
  0
BLOCK
  8
LAYER_2
  2
AIGNBL02020074
 70
64
 10
0
 20
0
 30
0
  3
AIGNBL02020074
  0
INSERT
  8
LAYER_2
  2
AIGNBL02030075
 10
0
 20
0
 30
0
  0
POLYLINE
  8
LAYER_2
 40
0.1058
 41
0.1058
 66
1
 10
0
 20
0
 30
0
  0
VERTEX
  8
LAYER_2
 10
203.4102
 20
157.1387
  0
VERTEX
  8
LAYER_2
 10
205.994
 20
157.1387
  0
SEQEND
  0
POLYLINE
  8
LAYER_2
 40
0.1058
 41
0.1058
 66
1
 10
0
 20
0
 30
0
  0
VERTEX
  8
LAYER_2
 10
205.994
 20
152.2557
  0
VERTEX
  8
LAYER_2
 10
203.4102
 20
152.2557
  0
SEQEND
  0
ENDBLK
  0
BLOCK
  8
LAYER_2
  2
AIGNBL0202007A
 70
64
 10
0
 20
0
 30
0
  3
AIGNBL0202007A
  0
INSERT
  8
LAYER_2
  2
AIGNBL0203007B
 10
0
 20
0
 30
0
  0
POLYLINE
  8
LAYER_2
 40
0.1058
 41
0.1058
 66
1
 10
0
 20
0
 30
0
  0
VERTEX
  8
LAYER_2
 10
203.4102
 20
152.2557
  0
VERTEX
  8
LAYER_2
 10
205.994
 20
152.2557
  0
SEQEND
  0
POLYLINE
  8
LAYER_2
 40
0.1058
 41
0.1058
 66
1
 10
0
 20
0
 30
0
  0
VERTEX
  8
LAYER_2
 10
205.994
 20
141.0243
  0
VERTEX
  8
LAYER_2
 10
203.4102
 20
141.0243
  0
SEQEND
  0
ENDBLK
  0
BLOCK
  8
LAYER_2
  2
AIGNBL02020080
 70
64
 10
0
 20
0
 30
0
  3
AIGNBL02020080
  0
POLYLINE
  8
LAYER_2
 40
0.1764
 41
0.1764
 66
1
 10
0
 20
0
 30
0
  0
VERTEX
  8
LAYER_2
 10
22.2312
 20
146.5792
  0
VERTEX
  8
LAYER_2
 10
26.6347
 20
146.5792
  0
SEQEND
  0
INSERT
  8
LAYER_2
  2
AIGNBL02030081
 10
0
 20
0
 30
0
  0
ENDBLK
  0
BLOCK
  8
LAYER_2
  2
AIGNBL02020083
 70
64
 10
0
 20
0
 30
0
  3
AIGNBL02020083
  0
INSERT
  8
LAYER_2
  2
AIGNBL02030084
 10
0
 20
0
 30
0
  0
ENDBLK
  0
BLOCK
  8
LAYER_2
  2
AIGNBL0202008C
 70
64
 10
0
 20
0
 30
0
  3
AIGNBL0202008C
  0
INSERT
  8
LAYER_2
  2
AIGNBL0203008D
 10
0
 20
0
 30
0
  0
INSERT
  8
LAYER_2
  2
AIGNBL0203008E
 10
0
 20
0
 30
0
  0
INSERT
  8
LAYER_2
  2
AIGNBL0203008F
 10
0
 20
0
 30
0
  0
INSERT
  8
LAYER_2
  2
AIGNBL02030090
 10
0
 20
0
 30
0
  0
INSERT
  8
LAYER_2
  2
AIGNBL02030091
 10
0
 20
0
 30
0
  0
INSERT
  8
LAYER_2
  2
AIGNBL02030092
 10
0
 20
0
 30
0
  0
INSERT
  8
LAYER_2
  2
AIGNBL02030093
 10
0
 20
0
 30
0
  0
INSERT
  8
LAYER_2
  2
AIGNBL02030094
 10
0
 20
0
 30
0
  0
INSERT
  8
LAYER_2
  2
AIGNBL02030095
 10
0
 20
0
 30
0
  0
INSERT
  8
LAYER_2
  2
AIGNBL02030096
 10
0
 20
0
 30
0
  0
INSERT
  8
LAYER_2
  2
AIGNBL02030097
 10
0
 20
0
 30
0
  0
INSERT
  8
LAYER_2
  2
AIGNBL02030098
 10
0
 20
0
 30
0
  0
INSERT
  8
LAYER_2
  2
AIGNBL02030099
 10
0
 20
0
 30
0
  0
INSERT
  8
LAYER_2
  2
AIGNBL0203009A
 10
0
 20
0
 30
0
  0
INSERT
  8
LAYER_2
  2
AIGNBL0203009B
 10
0
 20
0
 30
0
  0
INSERT
  8
LAYER_2
  2
AIGNBL0203009C
 10
0
 20
0
 30
0
  0
INSERT
  8
LAYER_2
  2
AIGNBL0203009D
 10
0
 20
0
 30
0
  0
INSERT
  8
LAYER_2
  2
AIGNBL0203009E
 10
0
 20
0
 30
0
  0
INSERT
  8
LAYER_2
  2
AIGNBL0203009F
 10
0
 20
0
 30
0
  0
INSERT
  8
LAYER_2
  2
AIGNBL020300A0
 10
0
 20
0
 30
0
  0
INSERT
  8
LAYER_2
  2
AIGNBL020300A1
 10
0
 20
0
 30
0
  0
INSERT
  8
LAYER_2
  2
AIGNBL020300A2
 10
0
 20
0
 30
0
  0
INSERT
  8
LAYER_2
  2
AIGNBL020300A3
 10
0
 20
0
 30
0
  0
ENDBLK
  0
BLOCK
  8
LAYER_1
  2
AIGNBL01010002
 70
64
 10
0
 20
0
 30
0
  3
AIGNBL01010002
  0
POLYLINE
  8
LAYER_1
 40
0.3528
 41
0.3528
 66
1
 10
0
 20
0
 30
0
  0
VERTEX
  8
LAYER_1
 10
308.7887
 20
124.3307
  0
VERTEX
  8
LAYER_1
 10
335.7549
 20
124.3307
  0
SEQEND
  0
POLYLINE
  8
LAYER_1
 40
0.3528
 41
0.3528
 66
1
 10
0
 20
0
 30
0
  0
VERTEX
  8
LAYER_1
 10
309.4026
 20
125.5799
  0
VERTEX
  8
LAYER_1
 10
335.1199
 20
125.5799
  0
SEQEND
  0
POLYLINE
  8
LAYER_1
 40
0.3528
 41
0.3528
 66
1
 10
0
 20
0
 30
0
  0
VERTEX
  8
LAYER_1
 10
335.7549
 20
124.9447
  0
VERTEX
  8
LAYER_1
 10
308.7887
 20
124.9447
  0
VERTEX
  8
LAYER_1
 10
308.7887
 20
124.3307
  0
SEQEND
  0
POLYLINE
  8
LAYER_1
 40
0.3528
 41
0.3528
 66
1
 10
0
 20
0
 30
0
  0
VERTEX
  8
LAYER_1
 10
312.5563
 20
119.272
  0
VERTEX
  8
LAYER_1
 10
331.966
 20
119.272
  0
SEQEND
  0
POLYLINE
  8
LAYER_1
 40
0.3528
 41
0.3528
 66
1
 10
0
 20
0
 30
0
 70
1
  0
VERTEX
  8
LAYER_1
 10
308.4711
 20
124.3307
  0
VERTEX
  8
LAYER_1
 10
308.4711
 20
119.272
  0
VERTEX
  8
LAYER_1
 10
336.0512
 20
119.272
  0
VERTEX
  8
LAYER_1
 10
336.0512
 20
124.3307
  0
SEQEND
  0
POLYLINE
  8
LAYER_1
 40
0.3528
 41
0.3528
 66
1
 10
0
 20
0
 30
0
  0
VERTEX
  8
LAYER_1
 10
325.4258
 20
124.204
  0
VERTEX
  8
LAYER_1
 10
325.4468
 20
119.3987
  0
SEQEND
  0
POLYLINE
  8
LAYER_1
 40
0.3528
 41
0.3528
 66
1
 10
0
 20
0
 30
0
  0
VERTEX
  8
LAYER_1
 10
319.0968
 20
124.204
  0
VERTEX
  8
LAYER_1
 10
319.0758
 20
119.3987
  0
SEQEND
  0
POLYLINE
  8
LAYER_1
 40
0.3528
 41
0.3528
 66
1
 10
0
 20
0
 30
0
  0
VERTEX
  8
LAYER_1
 10
313.1068
 20
124.204
  0
VERTEX
  8
LAYER_1
 10
313.1278
 20
119.3987
  0
SEQEND
  0
POLYLINE
  8
LAYER_1
 40
0.3528
 41
0.3528
 66
1
 10
0
 20
0
 30
0
  0
VERTEX
  8
LAYER_1
 10
331.4158
 20
124.204
  0
VERTEX
  8
LAYER_1
 10
331.3948
 20
119.3987
  0
SEQEND
  0
POLYLINE
  8
LAYER_1
 40
0.3528
 41
0.3528
 66
1
 10
0
 20
0
 30
0
  0
VERTEX
  8
LAYER_1
 10
319.0968
 20
124.204
  0
VERTEX
  8
LAYER_1
 10
317.1073
 20
124.3101
  0
VERTEX
  8
LAYER_1
 10
315.0964
 20
124.3101
  0
VERTEX
  8
LAYER_1
 10
313.1068
 20
124.204
  0
SEQEND
  0
POLYLINE
  8
LAYER_1
 40
0.3528
 41
0.3528
 66
1
 10
0
 20
0
 30
0
  0
VERTEX
  8
LAYER_1
 10
319.0968
 20
124.204
  0
VERTEX
  8
LAYER_1
 10
325.4258
 20
124.204
  0
SEQEND
  0
POLYLINE
  8
LAYER_1
 40
0.3528
 41
0.3528
 66
1
 10
0
 20
0
 30
0
  0
VERTEX
  8
LAYER_1
 10
308.4711
 20
124.204
  0
VERTEX
  8
LAYER_1
 10
313.1068
 20
124.204
  0
SEQEND
  0
POLYLINE
  8
LAYER_1
 40
0.3528
 41
0.3528
 66
1
 10
0
 20
0
 30
0
  0
VERTEX
  8
LAYER_1
 10
331.4158
 20
124.204
  0
VERTEX
  8
LAYER_1
 10
329.4262
 20
124.3101
  0
VERTEX
  8
LAYER_1
 10
327.4153
 20
124.3101
  0
VERTEX
  8
LAYER_1
 10
325.4258
 20
124.204
  0
SEQEND
  0
POLYLINE
  8
LAYER_1
 40
0.3528
 41
0.3528
 66
1
 10
0
 20
0
 30
0
  0
VERTEX
  8
LAYER_1
 10
336.0512
 20
124.204
  0
VERTEX
  8
LAYER_1
 10
331.4158
 20
124.204
  0
SEQEND
  0
POLYLINE
  8
LAYER_1
 40
0.3528
 41
0.3528
 66
1
 10
0
 20
0
 30
0
  0
VERTEX
  8
LAYER_1
 10
313.1068
 20
119.3987
  0
VERTEX
  8
LAYER_1
 10
315.0964
 20
119.2933
  0
VERTEX
  8
LAYER_1
 10
317.1073
 20
119.2933
  0
VERTEX
  8
LAYER_1
 10
319.0968
 20
119.3987
  0
VERTEX
  8
LAYER_1
 10
325.4258
 20
119.3987
  0
SEQEND
  0
POLYLINE
  8
LAYER_1
 40
0.3528
 41
0.3528
 66
1
 10
0
 20
0
 30
0
  0
VERTEX
  8
LAYER_1
 10
308.4711
 20
119.3987
  0
VERTEX
  8
LAYER_1
 10
313.1068
 20
119.3987
  0
SEQEND
  0
POLYLINE
  8
LAYER_1
 40
0.3528
 41
0.3528
 66
1
 10
0
 20
0
 30
0
  0
VERTEX
  8
LAYER_1
 10
325.4258
 20
119.3987
  0
VERTEX
  8
LAYER_1
 10
327.4153
 20
119.2933
  0
VERTEX
  8
LAYER_1
 10
329.4262
 20
119.2933
  0
VERTEX
  8
LAYER_1
 10
331.4158
 20
119.3987
  0
VERTEX
  8
LAYER_1
 10
336.0512
 20
119.3987
  0
SEQEND
  0
ENDBLK
  0
BLOCK
  8
LAYER_1
  2
AIGNBL01010003
 70
64
 10
0
 20
0
 30
0
  3
AIGNBL01010003
  0
POLYLINE
  8
LAYER_1
 40
0.3528
 41
0.3528
 66
1
 10
0
 20
0
 30
0
  0
VERTEX
  8
LAYER_1
 10
558.2591
 20
99.1016
  0
VERTEX
  8
LAYER_1
 10
557.9839
 20
98.7419
  0
VERTEX
  8
LAYER_1
 10
557.7723
 20
98.3609
  0
VERTEX
  8
LAYER_1
 10
557.6028
 20
97.9375
  0
VERTEX
  8
LAYER_1
 10
557.4971
 20
97.4931
  0
VERTEX
  8
LAYER_1
 10
557.4757
 20
97.0483
  0
VERTEX
  8
LAYER_1
 10
557.4757
 20
71.1829
  0
VERTEX
  8
LAYER_1
 10
557.4971
 20
70.7381
  0
VERTEX
  8
LAYER_1
 10
557.6028
 20
70.2937
  0
VERTEX
  8
LAYER_1
 10
557.7723
 20
69.8703
  0
VERTEX
  8
LAYER_1
 10
557.9839
 20
69.4683
  0
VERTEX
  8
LAYER_1
 10
558.2591
 20
69.1086
  0
VERTEX
  8
LAYER_1
 10
563.445
 20
63.224
  0
VERTEX
  8
LAYER_1
 10
563.8257
 20
62.8644
  0
VERTEX
  8
LAYER_1
 10
564.2705
 20
62.5681
  0
VERTEX
  8
LAYER_1
 10
564.7359
 20
62.3352
  0
VERTEX
  8
LAYER_1
 10
565.2651
 20
62.2081
  0
VERTEX
  8
LAYER_1
 10
565.7942
 20
62.1657
  0
VERTEX
  8
LAYER_1
 10
570.0066
 20
62.1657
  0
VERTEX
  8
LAYER_1
 10
570.2181
 20
62.1233
  0
VERTEX
  8
LAYER_1
 10
570.3876
 20
62.0389
  0
VERTEX
  8
LAYER_1
 10
570.5144
 20
61.9118
  0
VERTEX
  8
LAYER_1
 10
570.6205
 20
61.7213
  0
VERTEX
  8
LAYER_1
 10
570.6415
 20
61.5308
  0
VERTEX
  8
LAYER_1
 10
570.6415
 20
61.2131
  0
VERTEX
  8
LAYER_1
 10
570.6839
 20
61.0226
  0
VERTEX
  8
LAYER_1
 10
570.7686
 20
60.8535
  0
VERTEX
  8
LAYER_1
 10
570.8954
 20
60.7053
  0
VERTEX
  8
LAYER_1
 10
571.0859
 20
60.6206
  0
VERTEX
  8
LAYER_1
 10
571.2764
 20
60.5996
  0
VERTEX
  8
LAYER_1
 10
572.5253
 20
60.5996
  0
VERTEX
  8
LAYER_1
 10
572.5253
 20
107.6317
  0
VERTEX
  8
LAYER_1
 10
571.2764
 20
107.6317
  0
VERTEX
  8
LAYER_1
 10
571.0859
 20
107.5893
  0
VERTEX
  8
LAYER_1
 10
570.8954
 20
107.5049
  0
VERTEX
  8
LAYER_1
 10
570.7686
 20
107.3778
  0
VERTEX
  8
LAYER_1
 10
570.6839
 20
107.1873
  0
VERTEX
  8
LAYER_1
 10
570.6415
 20
106.9967
  0
VERTEX
  8
LAYER_1
 10
570.6415
 20
106.6794
  0
VERTEX
  8
LAYER_1
 10
570.6205
 20
106.4889
  0
VERTEX
  8
LAYER_1
 10
570.5144
 20
106.3194
  0
VERTEX
  8
LAYER_1
 10
570.3876
 20
106.1713
  0
VERTEX
  8
LAYER_1
 10
570.2181
 20
106.0865
  0
VERTEX
  8
LAYER_1
 10
570.0066
 20
106.0655
  0
VERTEX
  8
LAYER_1
 10
565.7942
 20
106.0655
  0
VERTEX
  8
LAYER_1
 10
565.2651
 20
106.0232
  0
VERTEX
  8
LAYER_1
 10
564.7359
 20
105.875
  0
VERTEX
  8
LAYER_1
 10
564.2705
 20
105.6631
  0
VERTEX
  8
LAYER_1
 10
563.8257
 20
105.3669
  0
VERTEX
  8
LAYER_1
 10
563.445
 20
105.0072
  0
VERTEX
  8
LAYER_1
 10
558.2591
 20
99.1016
  0
SEQEND
  0
POLYLINE
  8
LAYER_1
 40
0.3528
 41
0.3528
 66
1
 10
0
 20
0
 30
0
  0
VERTEX
  8
LAYER_1
 10
570.6415
 20
61.7447
  0
VERTEX
  8
LAYER_1
 10
570.6415
 20
106.43
  0
SEQEND
  0
POLYLINE
  8
LAYER_1
 40
0.3528
 41
0.3528
 66
1
 10
0
 20
0
 30
0
  0
VERTEX
  8
LAYER_1
 10
564.5034
 20
62.441
  0
VERTEX
  8
LAYER_1
 10
564.5034
 20
105.7903
  0
SEQEND
  0
ENDBLK
  0
BLOCK
  8
LAYER_1
  2
AIGNBL01010004
 70
64
 10
0
 20
0
 30
0
  3
AIGNBL01010004
  0
POLYLINE
  8
LAYER_1
 40
0.3528
 41
0.3528
 66
1
 10
0
 20
0
 30
0
  0
VERTEX
  8
LAYER_1
 10
312.2387
 20
137.2109
  0
VERTEX
  8
LAYER_1
 10
332.305
 20
137.2109
  0
SEQEND
  0
POLYLINE
  8
LAYER_1
 40
0.3528
 41
0.3528
 66
1
 10
0
 20
0
 30
0
  0
VERTEX
  8
LAYER_1
 10
308.7887
 20
132.1518
  0
VERTEX
  8
LAYER_1
 10
335.7549
 20
132.1518
  0
SEQEND
  0
POLYLINE
  8
LAYER_1
 40
0.3528
 41
0.3528
 66
1
 10
0
 20
0
 30
0
  0
VERTEX
  8
LAYER_1
 10
309.4026
 20
130.9033
  0
VERTEX
  8
LAYER_1
 10
335.1199
 20
130.9033
  0
SEQEND
  0
POLYLINE
  8
LAYER_1
 40
0.3528
 41
0.3528
 66
1
 10
0
 20
0
 30
0
  0
VERTEX
  8
LAYER_1
 10
335.7549
 20
131.5386
  0
VERTEX
  8
LAYER_1
 10
308.7887
 20
131.5386
  0
VERTEX
  8
LAYER_1
 10
308.7887
 20
132.1518
  0
SEQEND
  0
POLYLINE
  8
LAYER_1
 40
0.3528
 41
0.3528
 66
1
 10
0
 20
0
 30
0
  0
VERTEX
  8
LAYER_1
 10
312.5563
 20
137.2109
  0
VERTEX
  8
LAYER_1
 10
331.966
 20
137.2109
  0
SEQEND
  0
POLYLINE
  8
LAYER_1
 40
0.3528
 41
0.3528
 66
1
 10
0
 20
0
 30
0
 70
1
  0
VERTEX
  8
LAYER_1
 10
308.4711
 20
132.1518
  0
VERTEX
  8
LAYER_1
 10
308.4711
 20
137.2109
  0
VERTEX
  8
LAYER_1
 10
336.0512
 20
137.2109
  0
VERTEX
  8
LAYER_1
 10
336.0512
 20
132.1518
  0
SEQEND
  0
POLYLINE
  8
LAYER_1
 40
0.3528
 41
0.3528
 66
1
 10
0
 20
0
 30
0
  0
VERTEX
  8
LAYER_1
 10
325.4258
 20
132.2793
  0
VERTEX
  8
LAYER_1
 10
325.4468
 20
137.0841
  0
SEQEND
  0
POLYLINE
  8
LAYER_1
 40
0.3528
 41
0.3528
 66
1
 10
0
 20
0
 30
0
  0
VERTEX
  8
LAYER_1
 10
319.0968
 20
132.2793
  0
VERTEX
  8
LAYER_1
 10
319.0758
 20
137.0841
  0
SEQEND
  0
POLYLINE
  8
LAYER_1
 40
0.3528
 41
0.3528
 66
1
 10
0
 20
0
 30
0
  0
VERTEX
  8
LAYER_1
 10
313.1068
 20
132.2793
  0
VERTEX
  8
LAYER_1
 10
313.1278
 20
137.0841
  0
SEQEND
  0
POLYLINE
  8
LAYER_1
 40
0.3528
 41
0.3528
 66
1
 10
0
 20
0
 30
0
  0
VERTEX
  8
LAYER_1
 10
331.4158
 20
132.2793
  0
VERTEX
  8
LAYER_1
 10
331.3948
 20
137.0841
  0
SEQEND
  0
POLYLINE
  8
LAYER_1
 40
0.3528
 41
0.3528
 66
1
 10
0
 20
0
 30
0
  0
VERTEX
  8
LAYER_1
 10
313.1068
 20
132.2793
  0
VERTEX
  8
LAYER_1
 10
315.0964
 20
132.1732
  0
VERTEX
  8
LAYER_1
 10
317.1073
 20
132.1732
  0
VERTEX
  8
LAYER_1
 10
319.0968
 20
132.2793
  0
VERTEX
  8
LAYER_1
 10
325.4258
 20
132.2793
  0
SEQEND
  0
POLYLINE
  8
LAYER_1
 40
0.3528
 41
0.3528
 66
1
 10
0
 20
0
 30
0
  0
VERTEX
  8
LAYER_1
 10
308.4711
 20
132.2793
  0
VERTEX
  8
LAYER_1
 10
313.1068
 20
132.2793
  0
SEQEND
  0
POLYLINE
  8
LAYER_1
 40
0.3528
 41
0.3528
 66
1
 10
0
 20
0
 30
0
  0
VERTEX
  8
LAYER_1
 10
325.4258
 20
132.2793
  0
VERTEX
  8
LAYER_1
 10
327.4153
 20
132.1732
  0
VERTEX
  8
LAYER_1
 10
329.4262
 20
132.1732
  0
VERTEX
  8
LAYER_1
 10
331.4158
 20
132.2793
  0
VERTEX
  8
LAYER_1
 10
336.0512
 20
132.2793
  0
SEQEND
  0
POLYLINE
  8
LAYER_1
 40
0.3528
 41
0.3528
 66
1
 10
0
 20
0
 30
0
  0
VERTEX
  8
LAYER_1
 10
319.0968
 20
137.0841
  0
VERTEX
  8
LAYER_1
 10
317.1073
 20
137.1896
  0
VERTEX
  8
LAYER_1
 10
315.0964
 20
137.1896
  0
VERTEX
  8
LAYER_1
 10
313.1068
 20
137.0841
  0
SEQEND
  0
POLYLINE
  8
LAYER_1
 40
0.3528
 41
0.3528
 66
1
 10
0
 20
0
 30
0
  0
VERTEX
  8
LAYER_1
 10
319.0968
 20
137.0841
  0
VERTEX
  8
LAYER_1
 10
325.4258
 20
137.0841
  0
SEQEND
  0
POLYLINE
  8
LAYER_1
 40
0.3528
 41
0.3528
 66
1
 10
0
 20
0
 30
0
  0
VERTEX
  8
LAYER_1
 10
308.4711
 20
137.0841
  0
VERTEX
  8
LAYER_1
 10
313.1068
 20
137.0841
  0
SEQEND
  0
POLYLINE
  8
LAYER_1
 40
0.3528
 41
0.3528
 66
1
 10
0
 20
0
 30
0
  0
VERTEX
  8
LAYER_1
 10
331.4158
 20
137.0841
  0
VERTEX
  8
LAYER_1
 10
329.4262
 20
137.1896
  0
VERTEX
  8
LAYER_1
 10
327.4153
 20
137.1896
  0
VERTEX
  8
LAYER_1
 10
325.4258
 20
137.0841
  0
SEQEND
  0
POLYLINE
  8
LAYER_1
 40
0.3528
 41
0.3528
 66
1
 10
0
 20
0
 30
0
  0
VERTEX
  8
LAYER_1
 10
336.0512
 20
137.0841
  0
VERTEX
  8
LAYER_1
 10
331.4158
 20
137.0841
  0
SEQEND
  0
ENDBLK
  0
BLOCK
  8
LAYER_1
  2
AIGNBL01010005
 70
64
 10
0
 20
0
 30
0
  3
AIGNBL01010005
  0
INSERT
  8
LAYER_1
  2
AIGNBL01020006
 10
0
 20
0
 30
0
  0
INSERT
  8
LAYER_1
  2
AIGNBL0102000A
 10
0
 20
0
 30
0
  0
INSERT
  8
LAYER_1
  2
AIGNBL0102000B
 10
0
 20
0
 30
0
  0
ENDBLK
  0
BLOCK
  8
LAYER_1
  2
AIGNBL0101000C
 70
64
 10
0
 20
0
 30
0
  3
AIGNBL0101000C
  0
INSERT
  8
LAYER_1
  2
AIGNBL0102000D
 10
0
 20
0
 30
0
  0
INSERT
  8
LAYER_1
  2
AIGNBL01020011
 10
0
 20
0
 30
0
  0
INSERT
  8
LAYER_1
  2
AIGNBL01020012
 10
0
 20
0
 30
0
  0
ENDBLK
  0
BLOCK
  8
LAYER_1
  2
AIGNBL01010013
 70
64
 10
0
 20
0
 30
0
  3
AIGNBL01010013
  0
INSERT
  8
LAYER_1
  2
AIGNBL01020014
 10
0
 20
0
 30
0
  0
INSERT
  8
LAYER_1
  2
AIGNBL01020018
 10
0
 20
0
 30
0
  0
INSERT
  8
LAYER_1
  2
AIGNBL01020019
 10
0
 20
0
 30
0
  0
ENDBLK
  0
BLOCK
  8
LAYER_1
  2
AIGNBL0101001A
 70
64
 10
0
 20
0
 30
0
  3
AIGNBL0101001A
  0
INSERT
  8
LAYER_1
  2
AIGNBL0102001B
 10
0
 20
0
 30
0
  0
INSERT
  8
LAYER_1
  2
AIGNBL0102001F
 10
0
 20
0
 30
0
  0
INSERT
  8
LAYER_1
  2
AIGNBL01020020
 10
0
 20
0
 30
0
  0
ENDBLK
  0
BLOCK
  8
LAYER_1
  2
AIGNBL01010021
 70
64
 10
0
 20
0
 30
0
  3
AIGNBL01010021
  0
INSERT
  8
LAYER_1
  2
AIGNBL01020022
 10
0
 20
0
 30
0
  0
INSERT
  8
LAYER_1
  2
AIGNBL01020026
 10
0
 20
0
 30
0
  0
INSERT
  8
LAYER_1
  2
AIGNBL01020027
 10
0
 20
0
 30
0
  0
ENDBLK
  0
BLOCK
  8
LAYER_1
  2
AIGNBL01010028
 70
64
 10
0
 20
0
 30
0
  3
AIGNBL01010028
  0
INSERT
  8
LAYER_1
  2
AIGNBL01020029
 10
0
 20
0
 30
0
  0
INSERT
  8
LAYER_1
  2
AIGNBL0102002D
 10
0
 20
0
 30
0
  0
INSERT
  8
LAYER_1
  2
AIGNBL0102002E
 10
0
 20
0
 30
0
  0
ENDBLK
  0
BLOCK
  8
LAYER_1
  2
AIGNBL0101002F
 70
64
 10
0
 20
0
 30
0
  3
AIGNBL0101002F
  0
INSERT
  8
LAYER_1
  2
AIGNBL01020030
 10
0
 20
0
 30
0
  0
INSERT
  8
LAYER_1
  2
AIGNBL01020034
 10
0
 20
0
 30
0
  0
INSERT
  8
LAYER_1
  2
AIGNBL01020035
 10
0
 20
0
 30
0
  0
ENDBLK
  0
BLOCK
  8
LAYER_1
  2
AIGNBL01010036
 70
64
 10
0
 20
0
 30
0
  3
AIGNBL01010036
  0
INSERT
  8
LAYER_1
  2
AIGNBL01020037
 10
0
 20
0
 30
0
  0
INSERT
  8
LAYER_1
  2
AIGNBL0102003B
 10
0
 20
0
 30
0
  0
INSERT
  8
LAYER_1
  2
AIGNBL0102003C
 10
0
 20
0
 30
0
  0
ENDBLK
  0
BLOCK
  8
LAYER_1
  2
AIGNBL0101003D
 70
64
 10
0
 20
0
 30
0
  3
AIGNBL0101003D
  0
INSERT
  8
LAYER_1
  2
AIGNBL0102003E
 10
0
 20
0
 30
0
  0
INSERT
  8
LAYER_1
  2
AIGNBL01020042
 10
0
 20
0
 30
0
  0
INSERT
  8
LAYER_1
  2
AIGNBL01020043
 10
0
 20
0
 30
0
  0
ENDBLK
  0
BLOCK
  8
LAYER_1
  2
AIGNBL01010044
 70
64
 10
0
 20
0
 30
0
  3
AIGNBL01010044
  0
INSERT
  8
LAYER_1
  2
AIGNBL01020045
 10
0
 20
0
 30
0
  0
INSERT
  8
LAYER_1
  2
AIGNBL01020049
 10
0
 20
0
 30
0
  0
INSERT
  8
LAYER_1
  2
AIGNBL0102004A
 10
0
 20
0
 30
0
  0
ENDBLK
  0
BLOCK
  8
LAYER_1
  2
AIGNBL0101004B
 70
64
 10
0
 20
0
 30
0
  3
AIGNBL0101004B
  0
INSERT
  8
LAYER_1
  2
AIGNBL0102004C
 10
0
 20
0
 30
0
  0
INSERT
  8
LAYER_1
  2
AIGNBL01020050
 10
0
 20
0
 30
0
  0
INSERT
  8
LAYER_1
  2
AIGNBL01020051
 10
0
 20
0
 30
0
  0
ENDBLK
  0
BLOCK
  8
LAYER_1
  2
AIGNBL01010052
 70
64
 10
0
 20
0
 30
0
  3
AIGNBL01010052
  0
INSERT
  8
LAYER_1
  2
AIGNBL01020053
 10
0
 20
0
 30
0
  0
INSERT
  8
LAYER_1
  2
AIGNBL01020057
 10
0
 20
0
 30
0
  0
INSERT
  8
LAYER_1
  2
AIGNBL01020058
 10
0
 20
0
 30
0
  0
ENDBLK
  0
BLOCK
  8
LAYER_1
  2
AIGNBL01010059
 70
64
 10
0
 20
0
 30
0
  3
AIGNBL01010059
  0
INSERT
  8
LAYER_1
  2
AIGNBL0102005A
 10
0
 20
0
 30
0
  0
INSERT
  8
LAYER_1
  2
AIGNBL0102005E
 10
0
 20
0
 30
0
  0
INSERT
  8
LAYER_1
  2
AIGNBL0102005F
 10
0
 20
0
 30
0
  0
ENDBLK
  0
BLOCK
  8
LAYER_1
  2
AIGNBL01010060
 70
64
 10
0
 20
0
 30
0
  3
AIGNBL01010060
  0
INSERT
  8
LAYER_1
  2
AIGNBL01020061
 10
0
 20
0
 30
0
  0
INSERT
  8
LAYER_1
  2
AIGNBL01020065
 10
0
 20
0
 30
0
  0
INSERT
  8
LAYER_1
  2
AIGNBL01020066
 10
0
 20
0
 30
0
  0
ENDBLK
  0
BLOCK
  8
LAYER_1
  2
AIGNBL01010067
 70
64
 10
0
 20
0
 30
0
  3
AIGNBL01010067
  0
INSERT
  8
LAYER_1
  2
AIGNBL01020068
 10
0
 20
0
 30
0
  0
INSERT
  8
LAYER_1
  2
AIGNBL0102006C
 10
0
 20
0
 30
0
  0
INSERT
  8
LAYER_1
  2
AIGNBL0102006D
 10
0
 20
0
 30
0
  0
ENDBLK
  0
BLOCK
  8
LAYER_1
  2
AIGNBL0101006E
 70
64
 10
0
 20
0
 30
0
  3
AIGNBL0101006E
  0
INSERT
  8
LAYER_1
  2
AIGNBL0102006F
 10
0
 20
0
 30
0
  0
INSERT
  8
LAYER_1
  2
AIGNBL01020073
 10
0
 20
0
 30
0
  0
INSERT
  8
LAYER_1
  2
AIGNBL01020074
 10
0
 20
0
 30
0
  0
ENDBLK
  0
BLOCK
  8
LAYER_2
  2
AIGNBL02010002
 70
64
 10
0
 20
0
 30
0
  3
AIGNBL02010002
  0
POLYLINE
  8
LAYER_2
 40
0.7056
 41
0.7056
 66
1
 10
0
 20
0
 30
0
 70
1
  0
VERTEX
  8
LAYER_2
 10
251.6749
 20
230.337
  0
VERTEX
  8
LAYER_2
 10
251.6749
 20
33.3285
  0
VERTEX
  8
LAYER_2
 10
-30.3177
 20
33.3285
  0
VERTEX
  8
LAYER_2
 10
-30.3177
 20
230.337
  0
SEQEND
  0
ENDBLK
  0
BLOCK
  8
LAYER_2
  2
AIGNBL02010003
 70
64
 10
0
 20
0
 30
0
  3
AIGNBL02010003
  0
POLYLINE
  8
LAYER_2
 40
0.1058
 41
0.1058
 66
1
 10
0
 20
0
 30
0
  0
VERTEX
  8
LAYER_2
 10
8.4751
 20
136.1405
  0
VERTEX
  8
LAYER_2
 10
23.1249
 20
136.1405
  0
SEQEND
  0
POLYLINE
  8
LAYER_2
 40
0.1058
 41
0.1058
 66
1
 10
0
 20
0
 30
0
 70
1
  0
VERTEX
  8
LAYER_2
 10
25.5667
 20
136.1405
  0
VERTEX
  8
LAYER_2
 10
6.0334
 20
136.1405
  0
VERTEX
  8
LAYER_2
 10
6.0334
 20
139.803
  0
VERTEX
  8
LAYER_2
 10
7.2542
 20
141.024
  0
VERTEX
  8
LAYER_2
 10
24.3458
 20
141.024
  0
VERTEX
  8
LAYER_2
 10
25.5667
 20
139.803
  0
SEQEND
  0
POLYLINE
  8
LAYER_2
 40
0.1058
 41
0.1058
 66
1
 10
0
 20
0
 30
0
  0
VERTEX
  8
LAYER_2
 10
6.0334
 20
139.803
  0
VERTEX
  8
LAYER_2
 10
25.5667
 20
139.803
  0
SEQEND
  0
POLYLINE
  8
LAYER_2
 40
0.1058
 41
0.1058
 66
1
 10
0
 20
0
 30
0
  0
VERTEX
  8
LAYER_2
 10
10.9168
 20
139.803
  0
VERTEX
  8
LAYER_2
 10
10.9168
 20
136.1405
  0
SEQEND
  0
POLYLINE
  8
LAYER_2
 40
0.1058
 41
0.1058
 66
1
 10
0
 20
0
 30
0
  0
VERTEX
  8
LAYER_2
 10
15.7999
 20
139.803
  0
VERTEX
  8
LAYER_2
 10
15.7999
 20
136.1405
  0
SEQEND
  0
POLYLINE
  8
LAYER_2
 40
0.1058
 41
0.1058
 66
1
 10
0
 20
0
 30
0
  0
VERTEX
  8
LAYER_2
 10
20.6833
 20
139.803
  0
VERTEX
  8
LAYER_2
 10
20.6833
 20
136.1405
  0
SEQEND
  0
ENDBLK
  0
BLOCK
  8
LAYER_2
  2
AIGNBL02010004
 70
64
 10
0
 20
0
 30
0
  3
AIGNBL02010004
  0
POLYLINE
  8
LAYER_2
 40
0.1058
 41
0.1058
 66
1
 10
0
 20
0
 30
0
  0
VERTEX
  8
LAYER_2
 10
23.1249
 20
157.1387
  0
VERTEX
  8
LAYER_2
 10
8.4751
 20
157.1387
  0
SEQEND
  0
POLYLINE
  8
LAYER_2
 40
0.1058
 41
0.1058
 66
1
 10
0
 20
0
 30
0
 70
1
  0
VERTEX
  8
LAYER_2
 10
6.0334
 20
157.1387
  0
VERTEX
  8
LAYER_2
 10
25.5667
 20
157.1387
  0
VERTEX
  8
LAYER_2
 10
25.5667
 20
153.4766
  0
VERTEX
  8
LAYER_2
 10
24.3458
 20
152.2557
  0
VERTEX
  8
LAYER_2
 10
7.2542
 20
152.2557
  0
VERTEX
  8
LAYER_2
 10
6.0334
 20
153.4766
  0
SEQEND
  0
POLYLINE
  8
LAYER_2
 40
0.1058
 41
0.1058
 66
1
 10
0
 20
0
 30
0
  0
VERTEX
  8
LAYER_2
 10
25.5667
 20
153.4766
  0
VERTEX
  8
LAYER_2
 10
6.0334
 20
153.4766
  0
SEQEND
  0
POLYLINE
  8
LAYER_2
 40
0.1058
 41
0.1058
 66
1
 10
0
 20
0
 30
0
  0
VERTEX
  8
LAYER_2
 10
20.6833
 20
153.4766
  0
VERTEX
  8
LAYER_2
 10
20.6833
 20
157.1387
  0
SEQEND
  0
POLYLINE
  8
LAYER_2
 40
0.1058
 41
0.1058
 66
1
 10
0
 20
0
 30
0
  0
VERTEX
  8
LAYER_2
 10
15.7999
 20
153.4766
  0
VERTEX
  8
LAYER_2
 10
15.7999
 20
157.1387
  0
SEQEND
  0
POLYLINE
  8
LAYER_2
 40
0.1058
 41
0.1058
 66
1
 10
0
 20
0
 30
0
  0
VERTEX
  8
LAYER_2
 10
10.9166
 20
153.4766
  0
VERTEX
  8
LAYER_2
 10
10.9166
 20
157.1387
  0
SEQEND
  0
ENDBLK
  0
BLOCK
  8
LAYER_2
  2
AIGNBL02010005
 70
64
 10
0
 20
0
 30
0
  3
AIGNBL02010005
  0
POLYLINE
  8
LAYER_2
 40
0.1058
 41
0.1058
 66
1
 10
0
 20
0
 30
0
  0
VERTEX
  8
LAYER_2
 10
47.5416
 20
145.9074
  0
VERTEX
  8
LAYER_2
 10
47.5416
 20
131.2574
  0
SEQEND
  0
POLYLINE
  8
LAYER_2
 40
0.1058
 41
0.1058
 66
1
 10
0
 20
0
 30
0
 70
1
  0
VERTEX
  8
LAYER_2
 10
47.5416
 20
128.8156
  0
VERTEX
  8
LAYER_2
 10
47.5416
 20
148.3489
  0
VERTEX
  8
LAYER_2
 10
51.2038
 20
148.3489
  0
VERTEX
  8
LAYER_2
 10
52.4247
 20
147.128
  0
VERTEX
  8
LAYER_2
 10
52.4247
 20
130.0365
  0
VERTEX
  8
LAYER_2
 10
51.2038
 20
128.8156
  0
SEQEND
  0
POLYLINE
  8
LAYER_2
 40
0.1058
 41
0.1058
 66
1
 10
0
 20
0
 30
0
  0
VERTEX
  8
LAYER_2
 10
51.2038
 20
148.3489
  0
VERTEX
  8
LAYER_2
 10
51.2038
 20
128.8156
  0
SEQEND
  0
POLYLINE
  8
LAYER_2
 40
0.1058
 41
0.1058
 66
1
 10
0
 20
0
 30
0
  0
VERTEX
  8
LAYER_2
 10
51.2038
 20
143.4658
  0
VERTEX
  8
LAYER_2
 10
47.5416
 20
143.4658
  0
SEQEND
  0
POLYLINE
  8
LAYER_2
 40
0.1058
 41
0.1058
 66
1
 10
0
 20
0
 30
0
  0
VERTEX
  8
LAYER_2
 10
51.2038
 20
138.5824
  0
VERTEX
  8
LAYER_2
 10
47.5416
 20
138.5824
  0
SEQEND
  0
POLYLINE
  8
LAYER_2
 40
0.1058
 41
0.1058
 66
1
 10
0
 20
0
 30
0
  0
VERTEX
  8
LAYER_2
 10
51.2038
 20
133.699
  0
VERTEX
  8
LAYER_2
 10
47.5416
 20
133.699
  0
SEQEND
  0
ENDBLK
  0
BLOCK
  8
LAYER_2
  2
AIGNBL02010006
 70
64
 10
0
 20
0
 30
0
  3
AIGNBL02010006
  0
INSERT
  8
LAYER_2
  2
AIGNBL02020007
 10
0
 20
0
 30
0
  0
TEXT
  8
LAYER_2
 10
-2.737
 20
123.5397
 11
-2.737
 21
123.5397
 40
3.258
 41
0.5
 50
89.99999999
  1
40
  0
ENDBLK
  0
BLOCK
  8
LAYER_2
  2
AIGNBL0201000C
 70
64
 10
0
 20
0
 30
0
  3
AIGNBL0201000C
  0
INSERT
  8
LAYER_2
  2
AIGNBL0202000D
 10
0
 20
0
 30
0
  0
TEXT
  8
LAYER_2
 10
-12.3855
 20
129.8801
 11
-12.3855
 21
129.8801
 40
3.258
 41
0.5
 50
89.99999999
  1
93 ÷ 75
  0
ENDBLK
  0
BLOCK
  8
LAYER_2
  2
AIGNBL02010012
 70
64
 10
0
 20
0
 30
0
  3
AIGNBL02010012
  0
INSERT
  8
LAYER_2
  2
AIGNBL02020013
 10
0
 20
0
 30
0
  0
TEXT
  8
LAYER_2
 10
22.4331
 20
104.8001
 11
22.4331
 21
104.8001
 40
3.258
 41
0.5
  1
65
  0
ENDBLK
  0
BLOCK
  8
LAYER_2
  2
AIGNBL02010018
 70
64
 10
0
 20
0
 30
0
  3
AIGNBL02010018
  0
INSERT
  8
LAYER_2
  2
AIGNBL02020019
 10
0
 20
0
 30
0
  0
TEXT
  8
LAYER_2
 10
179.5539
 20
128.8293
 11
179.5539
 21
128.8293
 40
3.258
 41
0.5
 50
89.99999999
  1
65
  0
ENDBLK
  0
BLOCK
  8
LAYER_2
  2
AIGNBL0201001E
 70
64
 10
0
 20
0
 30
0
  3
AIGNBL0201001E
  0
INSERT
  8
LAYER_2
  2
AIGNBL0202001F
 10
0
 20
0
 30
0
  0
TEXT
  8
LAYER_2
 10
164.2749
 20
136.7414
 11
164.2749
 21
136.7414
 40
3.258
 41
0.5
 50
89.99999999
  1
32
  0
ENDBLK
  0
BLOCK
  8
LAYER_2
  2
AIGNBL02010024
 70
64
 10
0
 20
0
 30
0
  3
AIGNBL02010024
  0
INSERT
  8
LAYER_2
  2
AIGNBL02020025
 10
0
 20
0
 30
0
  0
TEXT
  8
LAYER_2
 10
172.4784
 20
124.7989
 11
172.4784
 21
124.7989
 40
3.258
 41
0.5
 50
89.99999999
  1
50
  0
ENDBLK
  0
BLOCK
  8
LAYER_2
  2
AIGNBL0201002A
 70
64
 10
0
 20
0
 30
0
  3
AIGNBL0201002A
  0
INSERT
  8
LAYER_2
  2
AIGNBL0202002B
 10
0
 20
0
 30
0
  0
TEXT
  8
LAYER_2
 10
172.4784
 20
144.4169
 11
172.4784
 21
144.4169
 40
3.258
 41
0.5
 50
89.99999999
  1
43 ÷ 25
  0
ENDBLK
  0
BLOCK
  8
LAYER_2
  2
AIGNBL02010030
 70
64
 10
0
 20
0
 30
0
  3
AIGNBL02010030
  0
INSERT
  8
LAYER_2
  2
AIGNBL02020031
 10
0
 20
0
 30
0
  0
TEXT
  8
LAYER_2
 10
28.5485
 20
96.8802
 11
28.5485
 21
96.8802
 40
3.258
 41
0.5
  1
90
  0
ENDBLK
  0
BLOCK
  8
LAYER_2
  2
AIGNBL02010036
 70
64
 10
0
 20
0
 30
0
  3
AIGNBL02010036
  0
INSERT
  8
LAYER_2
  2
AIGNBL02020037
 10
0
 20
0
 30
0
  0
POLYLINE
  8
LAYER_2
 40
0.1058
 41
0.1058
 66
1
 10
0
 20
0
 30
0
  0
VERTEX
  8
LAYER_2
 10
154.9749
 20
163.815
  0
VERTEX
  8
LAYER_2
 10
154.9749
 20
161.2308
  0
SEQEND
  0
POLYLINE
  8
LAYER_2
 40
0.1058
 41
0.1058
 66
1
 10
0
 20
0
 30
0
  0
VERTEX
  8
LAYER_2
 10
52.4247
 20
161.2308
  0
VERTEX
  8
LAYER_2
 10
52.4247
 20
163.815
  0
SEQEND
  0
ENDBLK
  0
BLOCK
  8
LAYER_2
  2
AIGNBL0201003B
 70
64
 10
0
 20
0
 30
0
  3
AIGNBL0201003B
  0
INSERT
  8
LAYER_2
  2
AIGNBL0202003C
 10
0
 20
0
 30
0
  0
TEXT
  8
LAYER_2
 10
13.6674
 20
164.416
 11
13.6674
 21
164.416
 40
3.258
 41
0.5
  1
44
  0
ENDBLK
  0
BLOCK
  8
LAYER_2
  2
AIGNBL02010041
 70
64
 10
0
 20
0
 30
0
  3
AIGNBL02010041
  0
INSERT
  8
LAYER_2
  2
AIGNBL02020042
 10
0
 20
0
 30
0
  0
TEXT
  8
LAYER_2
 10
-2.737
 20
136.5646
 11
-2.737
 21
136.5646
 40
3.258
 41
0.5
 50
89.99999999
  1
10
  0
ENDBLK
  0
BLOCK
  8
LAYER_2
  2
AIGNBL02010047
 70
64
 10
0
 20
0
 30
0
  3
AIGNBL02010047
  0
INSERT
  8
LAYER_2
  2
AIGNBL02020048
 10
0
 20
0
 30
0
  0
TEXT
  8
LAYER_2
 10
-2.737
 20
153.032
 11
-2.737
 21
153.032
 40
3.258
 41
0.5
 50
89.99999999
  1
10
  0
ENDBLK
  0
BLOCK
  8
LAYER_2
  2
AIGNBL0201004D
 70
64
 10
0
 20
0
 30
0
  3
AIGNBL0201004D
  0
INSERT
  8
LAYER_2
  2
AIGNBL0202004E
 10
0
 20
0
 30
0
  0
TEXT
  8
LAYER_2
 10
-2.8475
 20
141.8776
 11
-2.8475
 21
141.8776
 40
3.258
 41
0.5
 50
89.99999999
  1
33÷15
  0
ENDBLK
  0
BLOCK
  8
LAYER_2
  2
AIGNBL02010053
 70
64
 10
0
 20
0
 30
0
  3
AIGNBL02010053
  0
POLYLINE
  8
LAYER_2
 40
0.1058
 41
0.1058
 66
1
 10
0
 20
0
 30
0
  0
VERTEX
  8
LAYER_2
 10
213.6073
 20
136.1405
  0
VERTEX
  8
LAYER_2
 10
228.2572
 20
136.1405
  0
SEQEND
  0
POLYLINE
  8
LAYER_2
 40
0.1058
 41
0.1058
 66
1
 10
0
 20
0
 30
0
 70
1
  0
VERTEX
  8
LAYER_2
 10
230.6988
 20
136.1405
  0
VERTEX
  8
LAYER_2
 10
211.1654
 20
136.1405
  0
VERTEX
  8
LAYER_2
 10
211.1654
 20
139.803
  0
VERTEX
  8
LAYER_2
 10
212.3863
 20
141.024
  0
VERTEX
  8
LAYER_2
 10
229.4782
 20
141.024
  0
VERTEX
  8
LAYER_2
 10
230.6988
 20
139.803
  0
SEQEND
  0
POLYLINE
  8
LAYER_2
 40
0.1058
 41
0.1058
 66
1
 10
0
 20
0
 30
0
  0
VERTEX
  8
LAYER_2
 10
211.1654
 20
139.803
  0
VERTEX
  8
LAYER_2
 10
230.6988
 20
139.803
  0
SEQEND
  0
POLYLINE
  8
LAYER_2
 40
0.1058
 41
0.1058
 66
1
 10
0
 20
0
 30
0
  0
VERTEX
  8
LAYER_2
 10
216.0488
 20
139.803
  0
VERTEX
  8
LAYER_2
 10
216.0488
 20
136.1405
  0
SEQEND
  0
POLYLINE
  8
LAYER_2
 40
0.1058
 41
0.1058
 66
1
 10
0
 20
0
 30
0
  0
VERTEX
  8
LAYER_2
 10
220.9323
 20
139.803
  0
VERTEX
  8
LAYER_2
 10
220.9323
 20
136.1405
  0
SEQEND
  0
POLYLINE
  8
LAYER_2
 40
0.1058
 41
0.1058
 66
1
 10
0
 20
0
 30
0
  0
VERTEX
  8
LAYER_2
 10
225.8153
 20
139.803
  0
VERTEX
  8
LAYER_2
 10
225.8153
 20
136.1405
  0
SEQEND
  0
ENDBLK
  0
BLOCK
  8
LAYER_2
  2
AIGNBL02010054
 70
64
 10
0
 20
0
 30
0
  3
AIGNBL02010054
  0
POLYLINE
  8
LAYER_2
 40
0.1058
 41
0.1058
 66
1
 10
0
 20
0
 30
0
  0
VERTEX
  8
LAYER_2
 10
228.2572
 20
157.1387
  0
VERTEX
  8
LAYER_2
 10
213.6073
 20
157.1387
  0
SEQEND
  0
POLYLINE
  8
LAYER_2
 40
0.1058
 41
0.1058
 66
1
 10
0
 20
0
 30
0
 70
1
  0
VERTEX
  8
LAYER_2
 10
211.1654
 20
157.1387
  0
VERTEX
  8
LAYER_2
 10
230.6988
 20
157.1387
  0
VERTEX
  8
LAYER_2
 10
230.6988
 20
153.4766
  0
VERTEX
  8
LAYER_2
 10
229.4778
 20
152.2557
  0
VERTEX
  8
LAYER_2
 10
212.386
 20
152.2557
  0
VERTEX
  8
LAYER_2
 10
211.1654
 20
153.4766
  0
SEQEND
  0
POLYLINE
  8
LAYER_2
 40
0.1058
 41
0.1058
 66
1
 10
0
 20
0
 30
0
  0
VERTEX
  8
LAYER_2
 10
230.6988
 20
153.4766
  0
VERTEX
  8
LAYER_2
 10
211.1654
 20
153.4766
  0
SEQEND
  0
POLYLINE
  8
LAYER_2
 40
0.1058
 41
0.1058
 66
1
 10
0
 20
0
 30
0
  0
VERTEX
  8
LAYER_2
 10
225.8153
 20
153.4766
  0
VERTEX
  8
LAYER_2
 10
225.8153
 20
157.1387
  0
SEQEND
  0
POLYLINE
  8
LAYER_2
 40
0.1058
 41
0.1058
 66
1
 10
0
 20
0
 30
0
  0
VERTEX
  8
LAYER_2
 10
220.9323
 20
153.4766
  0
VERTEX
  8
LAYER_2
 10
220.9323
 20
157.1387
  0
SEQEND
  0
POLYLINE
  8
LAYER_2
 40
0.1058
 41
0.1058
 66
1
 10
0
 20
0
 30
0
  0
VERTEX
  8
LAYER_2
 10
216.0488
 20
153.4766
  0
VERTEX
  8
LAYER_2
 10
216.0488
 20
157.1387
  0
SEQEND
  0
ENDBLK
  0
BLOCK
  8
LAYER_2
  2
AIGNBL02010055
 70
64
 10
0
 20
0
 30
0
  3
AIGNBL02010055
  0
INSERT
  8
LAYER_2
  2
AIGNBL02020056
 10
0
 20
0
 30
0
  0
TEXT
  8
LAYER_2
 10
202.3949
 20
124.5981
 11
202.3949
 21
124.5981
 40
3.258
 41
0.5
 50
89.99999999
  1
40
  0
ENDBLK
  0
BLOCK
  8
LAYER_2
  2
AIGNBL0201005B
 70
64
 10
0
 20
0
 30
0
  3
AIGNBL0201005B
  0
INSERT
  8
LAYER_2
  2
AIGNBL0202005C
 10
0
 20
0
 30
0
  0
TEXT
  8
LAYER_2
 10
190.4538
 20
130.2329
 11
190.4538
 21
130.2329
 40
3.258
 41
0.5
 50
89.99999999
  1
93 ÷ 75
  0
ENDBLK
  0
BLOCK
  8
LAYER_2
  2
AIGNBL02010061
 70
64
 10
0
 20
0
 30
0
  3
AIGNBL02010061
  0
INSERT
  8
LAYER_2
  2
AIGNBL02020062
 10
0
 20
0
 30
0
  0
TEXT
  8
LAYER_2
 10
219.5005
 20
104.6238
 11
219.5005
 21
104.6238
 40
3.258
 41
0.5
  1
36
  0
ENDBLK
  0
BLOCK
  8
LAYER_2
  2
AIGNBL02010067
 70
64
 10
0
 20
0
 30
0
  3
AIGNBL02010067
  0
INSERT
  8
LAYER_2
  2
AIGNBL02020068
 10
0
 20
0
 30
0
  0
TEXT
  8
LAYER_2
 10
219.5049
 20
164.416
 11
219.5049
 21
164.416
 40
3.258
 41
0.5
  1
44
  0
ENDBLK
  0
BLOCK
  8
LAYER_2
  2
AIGNBL0201006D
 70
64
 10
0
 20
0
 30
0
  3
AIGNBL0201006D
  0
INSERT
  8
LAYER_2
  2
AIGNBL0202006E
 10
0
 20
0
 30
0
  0
TEXT
  8
LAYER_2
 10
202.3949
 20
136.741
 11
202.3949
 21
136.741
 40
3.258
 41
0.5
 50
89.99999999
  1
10
  0
ENDBLK
  0
BLOCK
  8
LAYER_2
  2
AIGNBL02010073
 70
64
 10
0
 20
0
 30
0
  3
AIGNBL02010073
  0
INSERT
  8
LAYER_2
  2
AIGNBL02020074
 10
0
 20
0
 30
0
  0
TEXT
  8
LAYER_2
 10
202.3949
 20
152.6792
 11
202.3949
 21
152.6792
 40
3.258
 41
0.5
 50
89.99999999
  1
10
  0
ENDBLK
  0
BLOCK
  8
LAYER_2
  2
AIGNBL02010079
 70
64
 10
0
 20
0
 30
0
  3
AIGNBL02010079
  0
INSERT
  8
LAYER_2
  2
AIGNBL0202007A
 10
0
 20
0
 30
0
  0
TEXT
  8
LAYER_2
 10
202.2843
 20
141.5249
 11
202.2843
 21
141.5249
 40
3.258
 41
0.5
 50
89.99999999
  1
33÷15
  0
ENDBLK
  0
BLOCK
  8
LAYER_2
  2
AIGNBL0201007F
 70
64
 10
0
 20
0
 30
0
  3
AIGNBL0201007F
  0
INSERT
  8
LAYER_2
  2
AIGNBL02020080
 10
0
 20
0
 30
0
  0
ENDBLK
  0
BLOCK
  8
LAYER_2
  2
AIGNBL02010082
 70
64
 10
0
 20
0
 30
0
  3
AIGNBL02010082
  0
INSERT
  8
LAYER_2
  2
AIGNBL02020083
 10
0
 20
0
 30
0
  0
INSERT
  8
LAYER_2
  2
AIGNBL0202008C
 10
0
 20
0
 30
0
  0
ENDBLK
  0
ENDSEC
  0
SECTION
  2
ENTITIES
  0
POLYLINE
  8
LAYER_1
 40
0.3528
 41
0.3528
 66
1
 10
0
 20
0
 30
0
  0
VERTEX
  8
LAYER_1
 10
359.885
 20
73.4474
  0
VERTEX
  8
LAYER_1
 10
357.8741
 20
73.4474
 42
0.1030835645
  0
VERTEX
  8
LAYER_1
 10
357.0206
 20
73.2449
 42
0.1050991803
  0
VERTEX
  8
LAYER_1
 10
356.4417
 20
72.7853
 42
0.06043952936
  0
VERTEX
  8
LAYER_1
 10
356.1175
 20
72.2836
  0
VERTEX
  8
LAYER_1
 10
356.0327
 20
71.9236
  0
VERTEX
  8
LAYER_1
 10
352.3709
 20
52.7465
  0
VERTEX
  8
LAYER_1
 10
313.5984
 20
52.7465
  0
VERTEX
  8
LAYER_1
 10
312.2387
 20
52.7465
  0
VERTEX
  8
LAYER_1
 10
312.0271
 20
52.7889
  0
VERTEX
  8
LAYER_1
 10
311.8576
 20
52.8736
  0
VERTEX
  8
LAYER_1
 10
311.7308
 20
53.0217
  0
VERTEX
  8
LAYER_1
 10
311.6251
 20
53.1909
  0
VERTEX
  8
LAYER_1
 10
311.6041
 20
53.3818
  0
VERTEX
  8
LAYER_1
 10
311.6041
 20
82.4859
  0
VERTEX
  8
LAYER_1
 10
334.8026
 20
82.4859
  0
VERTEX
  8
LAYER_1
 10
341.7028
 20
82.4859
  0
VERTEX
  8
LAYER_1
 10
342.1896
 20
82.528
 42
0.3366205808
  0
VERTEX
  8
LAYER_1
 10
344.7931
 20
85.1318
  0
VERTEX
  8
LAYER_1
 10
344.8355
 20
85.6182
  0
VERTEX
  8
LAYER_1
 10
344.8355
 20
88.4969
 42
-0.05727920663
  0
VERTEX
  8
LAYER_1
 10
345.0274
 20
90.0015
 42
-0.0813946513
  0
VERTEX
  8
LAYER_1
 10
345.8377
 20
91.8899
 42
-0.2185279697
  0
VERTEX
  8
LAYER_1
 10
350.3153
 20
94.7247
 42
-0.0302038488
  0
VERTEX
  8
LAYER_1
 10
351.1221
 20
94.7835
  0
VERTEX
  8
LAYER_1
 10
359.885
 20
94.7835
  0
SEQEND
  0
POLYLINE
  8
LAYER_1
 40
0.3528
 41
0.3528
 66
1
 10
0
 20
0
 30
0
  0
VERTEX
  8
LAYER_1
 10
392.9969
 20
97.5989
  0
VERTEX
  8
LAYER_1
 10
393.6318
 20
96.9636
  0
VERTEX
  8
LAYER_1
 10
393.6318
 20
71.246
  0
VERTEX
  8
LAYER_1
 10
392.9969
 20
70.6324
  0
VERTEX
  8
LAYER_1
 10
392.3619
 20
70.6324
  0
SEQEND
  0
POLYLINE
  8
LAYER_1
 40
0.3528
 41
0.3528
 66
1
 10
0
 20
0
 30
0
  0
VERTEX
  8
LAYER_1
 10
308.7887
 20
131.5386
  0
VERTEX
  8
LAYER_1
 10
309.4026
 20
130.9033
  0
VERTEX
  8
LAYER_1
 10
335.1199
 20
130.9033
  0
VERTEX
  8
LAYER_1
 10
335.7549
 20
131.5386
  0
VERTEX
  8
LAYER_1
 10
335.7549
 20
132.1518
  0
SEQEND
  0
POLYLINE
  8
LAYER_1
 40
0.3528
 41
0.3528
 66
1
 10
0
 20
0
 30
0
  0
VERTEX
  8
LAYER_1
 10
308.7887
 20
124.9447
  0
VERTEX
  8
LAYER_1
 10
309.4026
 20
125.5799
  0
VERTEX
  8
LAYER_1
 10
335.1199
 20
125.5799
  0
VERTEX
  8
LAYER_1
 10
335.7549
 20
124.9447
  0
VERTEX
  8
LAYER_1
 10
335.7549
 20
124.3307
  0
SEQEND
  0
INSERT
  8
LAYER_1
  2
AIGNBL01010002
 10
0
 20
0
 30
0
  0
POLYLINE
  8
LAYER_1
 40
0.3528
 41
0.3528
 66
1
 10
0
 20
0
 30
0
 70
1
  0
VERTEX
  8
LAYER_1
 10
312.2387
 20
219.0132
  0
VERTEX
  8
LAYER_1
 10
312.1966
 20
219.2037
  0
VERTEX
  8
LAYER_1
 10
312.1119
 20
219.3942
  0
VERTEX
  8
LAYER_1
 10
311.9637
 20
219.521
  0
VERTEX
  8
LAYER_1
 10
311.7942
 20
219.6057
  0
VERTEX
  8
LAYER_1
 10
311.6041
 20
219.6481
  0
VERTEX
  8
LAYER_1
 10
310.6512
 20
219.6481
  0
VERTEX
  8
LAYER_1
 10
310.6512
 20
219.902
  0
VERTEX
  8
LAYER_1
 10
333.8711
 20
219.902
  0
VERTEX
  8
LAYER_1
 10
333.8711
 20
219.6481
  0
VERTEX
  8
LAYER_1
 10
332.9189
 20
219.6481
 42
0.1720391016
  0
VERTEX
  8
LAYER_1
 10
332.4299
 20
219.4133
 42
0.1941223068
  0
VERTEX
  8
LAYER_1
 10
332.305
 20
219.0132
  0
VERTEX
  8
LAYER_1
 10
332.305
 20
178.4999
  0
VERTEX
  8
LAYER_1
 10
312.2387
 20
178.4999
  0
SEQEND
  0
POLYLINE
  8
LAYER_1
 40
0.3528
 41
0.3528
 66
1
 10
0
 20
0
 30
0
 70
1
  0
VERTEX
  8
LAYER_1
 10
310.3549
 20
153.1777
  0
VERTEX
  8
LAYER_1
 10
310.3549
 20
154.4266
  0
VERTEX
  8
LAYER_1
 10
334.1887
 20
154.4266
  0
VERTEX
  8
LAYER_1
 10
334.1887
 20
153.1777
  0
SEQEND
  0
POLYLINE
  8
LAYER_1
 40
0.254
 41
0.254
 66
1
 10
0
 20
0
 30
0
  0
VERTEX
  8
LAYER_1
 10
334.8026
 20
82.4859
  0
VERTEX
  8
LAYER_1
 10
309.7199
 20
82.4859
  0
SEQEND
  0
POLYLINE
  8
LAYER_1
 40
0.3528
 41
0.3528
 66
1
 10
0
 20
0
 30
0
 70
1
  0
VERTEX
  8
LAYER_1
 10
309.7199
 20
82.4859
  0
VERTEX
  8
LAYER_1
 10
309.7199
 20
88.7512
  0
VERTEX
  8
LAYER_1
 10
334.8026
 20
88.7512
  0
VERTEX
  8
LAYER_1
 10
334.8026
 20
82.4859
  0
SEQEND
  0
POLYLINE
  8
LAYER_1
 40
0.3528
 41
0.3528
 66
1
 10
0
 20
0
 30
0
 70
1
  0
VERTEX
  8
LAYER_1
 10
366.1716
 20
96.6463
  0
VERTEX
  8
LAYER_1
 10
366.1716
 20
71.5636
  0
VERTEX
  8
LAYER_1
 10
359.885
 20
71.5636
  0
VERTEX
  8
LAYER_1
 10
359.885
 20
96.6463
  0
SEQEND
  0
POLYLINE
  8
LAYER_1
 40
0.1058
 41
0.1058
 66
1
 10
0
 20
0
 30
0
  0
VERTEX
  8
LAYER_1
 10
309.7199
 20
88.7512
  0
VERTEX
  8
LAYER_1
 10
334.8026
 20
88.0525
  0
SEQEND
  0
POLYLINE
  8
LAYER_1
 40
0.1058
 41
0.1058
 66
1
 10
0
 20
0
 30
0
  0
VERTEX
  8
LAYER_1
 10
309.7199
 20
88.0525
  0
VERTEX
  8
LAYER_1
 10
334.8026
 20
87.3538
  0
SEQEND
  0
POLYLINE
  8
LAYER_1
 40
0.1058
 41
0.1058
 66
1
 10
0
 20
0
 30
0
  0
VERTEX
  8
LAYER_1
 10
309.7199
 20
87.3538
  0
VERTEX
  8
LAYER_1
 10
334.8026
 20
86.6555
  0
SEQEND
  0
POLYLINE
  8
LAYER_1
 40
0.1058
 41
0.1058
 66
1
 10
0
 20
0
 30
0
  0
VERTEX
  8
LAYER_1
 10
309.7199
 20
86.6555
  0
VERTEX
  8
LAYER_1
 10
334.8026
 20
85.9572
  0
SEQEND
  0
POLYLINE
  8
LAYER_1
 40
0.1058
 41
0.1058
 66
1
 10
0
 20
0
 30
0
  0
VERTEX
  8
LAYER_1
 10
309.7199
 20
85.9572
  0
VERTEX
  8
LAYER_1
 10
334.8026
 20
85.2585
  0
SEQEND
  0
POLYLINE
  8
LAYER_1
 40
0.1058
 41
0.1058
 66
1
 10
0
 20
0
 30
0
  0
VERTEX
  8
LAYER_1
 10
309.7199
 20
85.2585
  0
VERTEX
  8
LAYER_1
 10
334.8026
 20
84.5599
  0
SEQEND
  0
POLYLINE
  8
LAYER_1
 40
0.1058
 41
0.1058
 66
1
 10
0
 20
0
 30
0
  0
VERTEX
  8
LAYER_1
 10
309.7199
 20
84.5599
  0
VERTEX
  8
LAYER_1
 10
334.8026
 20
83.8615
  0
SEQEND
  0
POLYLINE
  8
LAYER_1
 40
0.1058
 41
0.1058
 66
1
 10
0
 20
0
 30
0
  0
VERTEX
  8
LAYER_1
 10
309.7199
 20
83.8615
  0
VERTEX
  8
LAYER_1
 10
334.8026
 20
83.1632
  0
SEQEND
  0
POLYLINE
  8
LAYER_1
 40
0.1058
 41
0.1058
 66
1
 10
0
 20
0
 30
0
  0
VERTEX
  8
LAYER_1
 10
309.7199
 20
83.1632
  0
VERTEX
  8
LAYER_1
 10
334.8026
 20
82.4859
  0
SEQEND
  0
POLYLINE
  8
LAYER_1
 40
0.1058
 41
0.1058
 66
1
 10
0
 20
0
 30
0
  0
VERTEX
  8
LAYER_1
 10
366.1716
 20
96.6463
  0
VERTEX
  8
LAYER_1
 10
365.473
 20
71.5636
  0
SEQEND
  0
POLYLINE
  8
LAYER_1
 40
0.1058
 41
0.1058
 66
1
 10
0
 20
0
 30
0
  0
VERTEX
  8
LAYER_1
 10
365.473
 20
96.6463
  0
VERTEX
  8
LAYER_1
 10
364.7743
 20
71.5636
  0
SEQEND
  0
POLYLINE
  8
LAYER_1
 40
0.1058
 41
0.1058
 66
1
 10
0
 20
0
 30
0
  0
VERTEX
  8
LAYER_1
 10
364.7743
 20
96.6463
  0
VERTEX
  8
LAYER_1
 10
364.076
 20
71.5636
  0
SEQEND
  0
POLYLINE
  8
LAYER_1
 40
0.1058
 41
0.1058
 66
1
 10
0
 20
0
 30
0
  0
VERTEX
  8
LAYER_1
 10
364.076
 20
96.6463
  0
VERTEX
  8
LAYER_1
 10
363.3776
 20
71.5636
  0
SEQEND
  0
POLYLINE
  8
LAYER_1
 40
0.1058
 41
0.1058
 66
1
 10
0
 20
0
 30
0
  0
VERTEX
  8
LAYER_1
 10
363.3776
 20
96.6463
  0
VERTEX
  8
LAYER_1
 10
362.679
 20
71.5636
  0
SEQEND
  0
POLYLINE
  8
LAYER_1
 40
0.1058
 41
0.1058
 66
1
 10
0
 20
0
 30
0
  0
VERTEX
  8
LAYER_1
 10
362.679
 20
96.6463
  0
VERTEX
  8
LAYER_1
 10
361.9803
 20
71.5636
  0
SEQEND
  0
POLYLINE
  8
LAYER_1
 40
0.1058
 41
0.1058
 66
1
 10
0
 20
0
 30
0
  0
VERTEX
  8
LAYER_1
 10
361.9803
 20
96.6463
  0
VERTEX
  8
LAYER_1
 10
361.282
 20
71.5636
  0
SEQEND
  0
POLYLINE
  8
LAYER_1
 40
0.1058
 41
0.1058
 66
1
 10
0
 20
0
 30
0
  0
VERTEX
  8
LAYER_1
 10
361.282
 20
96.6463
  0
VERTEX
  8
LAYER_1
 10
360.5837
 20
71.5636
  0
SEQEND
  0
POLYLINE
  8
LAYER_1
 40
0.1058
 41
0.1058
 66
1
 10
0
 20
0
 30
0
  0
VERTEX
  8
LAYER_1
 10
360.5837
 20
96.6463
  0
VERTEX
  8
LAYER_1
 10
359.885
 20
71.5636
  0
SEQEND
  0
POLYLINE
  8
LAYER_1
 40
0.3528
 41
0.3528
 66
1
 10
0
 20
0
 30
0
 70
1
  0
VERTEX
  8
LAYER_1
 10
356.8368
 20
67.8594
  0
VERTEX
  8
LAYER_1
 10
359.9274
 20
67.2669
  0
VERTEX
  8
LAYER_1
 10
360.1603
 20
68.5157
  0
VERTEX
  8
LAYER_1
 10
361.3878
 20
68.2828
  0
VERTEX
  8
LAYER_1
 10
360.6047
 20
60.7687
  0
VERTEX
  8
LAYER_1
 10
358.5728
 20
53.4662
  0
VERTEX
  8
LAYER_1
 10
357.3449
 20
53.699
  0
VERTEX
  8
LAYER_1
 10
357.5778
 20
54.9479
  0
VERTEX
  8
LAYER_1
 10
354.4876
 20
55.5405
  0
SEQEND
  0
POLYLINE
  8
LAYER_1
 40
0.254
 41
0.254
 66
1
 10
0
 20
0
 30
0
  0
VERTEX
  8
LAYER_1
 10
361.3878
 20
68.2828
  0
VERTEX
  8
LAYER_1
 10
358.5728
 20
53.4662
  0
SEQEND
  0
POLYLINE
  8
LAYER_1
 40
0.254
 41
0.254
 66
1
 10
0
 20
0
 30
0
  0
VERTEX
  8
LAYER_1
 10
357.5778
 20
54.9479
  0
VERTEX
  8
LAYER_1
 10
359.9274
 20
67.2669
  0
SEQEND
  0
POLYLINE
  8
LAYER_1
 40
0.3528
 41
0.3528
 66
1
 10
0
 20
0
 30
0
 70
1
  0
VERTEX
  8
LAYER_1
 10
546.2716
 20
74.0826
  0
VERTEX
  8
LAYER_1
 10
546.2716
 20
94.1486
  0
VERTEX
  8
LAYER_1
 10
398.888
 20
94.1486
  0
VERTEX
  8
LAYER_1
 10
398.888
 20
74.0826
  0
SEQEND
  0
INSERT
  8
LAYER_1
  2
AIGNBL01010003
 10
0
 20
0
 30
0
  0
INSERT
  8
LAYER_1
  2
AIGNBL01010004
 10
0
 20
0
 30
0
  0
POLYLINE
  8
LAYER_1
 40
0.3528
 41
0.3528
 66
1
 10
0
 20
0
 30
0
  0
VERTEX
  8
LAYER_1
 10
392.3619
 20
97.5989
  0
VERTEX
  8
LAYER_1
 10
392.3619
 20
70.6324
  0
SEQEND
  0
POLYLINE
  8
LAYER_1
 40
0.3528
 41
0.3528
 66
1
 10
0
 20
0
 30
0
  0
VERTEX
  8
LAYER_1
 10
393.6318
 20
96.9636
  0
VERTEX
  8
LAYER_1
 10
393.6318
 20
71.246
  0
SEQEND
  0
POLYLINE
  8
LAYER_1
 40
0.3528
 41
0.3528
 66
1
 10
0
 20
0
 30
0
  0
VERTEX
  8
LAYER_1
 10
392.9969
 20
70.6324
  0
VERTEX
  8
LAYER_1
 10
392.9969
 20
97.5989
  0
VERTEX
  8
LAYER_1
 10
392.3619
 20
97.5989
  0
SEQEND
  0
POLYLINE
  8
LAYER_1
 40
0.3528
 41
0.3528
 66
1
 10
0
 20
0
 30
0
  0
VERTEX
  8
LAYER_1
 10
387.3242
 20
93.831
  0
VERTEX
  8
LAYER_1
 10
387.3242
 20
74.4003
  0
SEQEND
  0
POLYLINE
  8
LAYER_1
 40
0.3528
 41
0.3528
 66
1
 10
0
 20
0
 30
0
 70
1
  0
VERTEX
  8
LAYER_1
 10
387.3242
 20
97.9162
  0
VERTEX
  8
LAYER_1
 10
387.3242
 20
70.3151
  0
VERTEX
  8
LAYER_1
 10
392.3619
 20
70.3151
  0
VERTEX
  8
LAYER_1
 10
392.3619
 20
97.9162
  0
SEQEND
  0
POLYLINE
  8
LAYER_1
 40
0.3528
 41
0.3528
 66
1
 10
0
 20
0
 30
0
  0
VERTEX
  8
LAYER_1
 10
392.2348
 20
80.9405
  0
VERTEX
  8
LAYER_1
 10
387.4513
 20
80.9405
  0
SEQEND
  0
POLYLINE
  8
LAYER_1
 40
0.3528
 41
0.3528
 66
1
 10
0
 20
0
 30
0
  0
VERTEX
  8
LAYER_1
 10
392.2348
 20
87.2694
  0
VERTEX
  8
LAYER_1
 10
387.4513
 20
87.2905
  0
SEQEND
  0
POLYLINE
  8
LAYER_1
 40
0.3528
 41
0.3528
 66
1
 10
0
 20
0
 30
0
  0
VERTEX
  8
LAYER_1
 10
392.2348
 20
93.2594
  0
VERTEX
  8
LAYER_1
 10
387.4513
 20
93.2594
  0
SEQEND
  0
POLYLINE
  8
LAYER_1
 40
0.3528
 41
0.3528
 66
1
 10
0
 20
0
 30
0
  0
VERTEX
  8
LAYER_1
 10
392.2348
 20
74.9715
  0
VERTEX
  8
LAYER_1
 10
387.4513
 20
74.9715
  0
SEQEND
  0
POLYLINE
  8
LAYER_1
 40
0.3528
 41
0.3528
 66
1
 10
0
 20
0
 30
0
  0
VERTEX
  8
LAYER_1
 10
392.2348
 20
87.2694
  0
VERTEX
  8
LAYER_1
 10
392.3619
 20
89.2803
  0
VERTEX
  8
LAYER_1
 10
392.3619
 20
91.2699
  0
VERTEX
  8
LAYER_1
 10
392.2348
 20
93.2594
  0
SEQEND
  0
POLYLINE
  8
LAYER_1
 40
0.3528
 41
0.3528
 66
1
 10
0
 20
0
 30
0
  0
VERTEX
  8
LAYER_1
 10
392.2348
 20
87.2694
  0
VERTEX
  8
LAYER_1
 10
392.2348
 20
80.9405
  0
SEQEND
  0
POLYLINE
  8
LAYER_1
 40
0.3528
 41
0.3528
 66
1
 10
0
 20
0
 30
0
  0
VERTEX
  8
LAYER_1
 10
392.2348
 20
97.9162
  0
VERTEX
  8
LAYER_1
 10
392.2348
 20
93.2594
  0
SEQEND
  0
POLYLINE
  8
LAYER_1
 40
0.3528
 41
0.3528
 66
1
 10
0
 20
0
 30
0
  0
VERTEX
  8
LAYER_1
 10
392.2348
 20
74.9715
  0
VERTEX
  8
LAYER_1
 10
392.3619
 20
76.9614
  0
VERTEX
  8
LAYER_1
 10
392.3619
 20
78.9509
  0
VERTEX
  8
LAYER_1
 10
392.2348
 20
80.9405
  0
SEQEND
  0
POLYLINE
  8
LAYER_1
 40
0.3528
 41
0.3528
 66
1
 10
0
 20
0
 30
0
  0
VERTEX
  8
LAYER_1
 10
392.2348
 20
70.3151
  0
VERTEX
  8
LAYER_1
 10
392.2348
 20
74.9715
  0
SEQEND
  0
POLYLINE
  8
LAYER_1
 40
0.3528
 41
0.3528
 66
1
 10
0
 20
0
 30
0
  0
VERTEX
  8
LAYER_1
 10
387.4513
 20
93.2594
  0
VERTEX
  8
LAYER_1
 10
387.3242
 20
91.2699
  0
VERTEX
  8
LAYER_1
 10
387.3242
 20
89.2803
  0
VERTEX
  8
LAYER_1
 10
387.4513
 20
87.2694
  0
VERTEX
  8
LAYER_1
 10
387.4513
 20
80.9405
  0
SEQEND
  0
POLYLINE
  8
LAYER_1
 40
0.3528
 41
0.3528
 66
1
 10
0
 20
0
 30
0
  0
VERTEX
  8
LAYER_1
 10
387.4513
 20
97.9162
  0
VERTEX
  8
LAYER_1
 10
387.4513
 20
93.2594
  0
SEQEND
  0
POLYLINE
  8
LAYER_1
 40
0.3528
 41
0.3528
 66
1
 10
0
 20
0
 30
0
  0
VERTEX
  8
LAYER_1
 10
387.4513
 20
80.9405
  0
VERTEX
  8
LAYER_1
 10
387.3242
 20
78.9509
  0
VERTEX
  8
LAYER_1
 10
387.3242
 20
76.9614
  0
VERTEX
  8
LAYER_1
 10
387.4513
 20
74.9715
  0
VERTEX
  8
LAYER_1
 10
387.4513
 20
70.3151
  0
SEQEND
  0
POLYLINE
  8
LAYER_1
 40
0.3528
 41
0.3528
 66
1
 10
0
 20
0
 30
0
  0
VERTEX
  8
LAYER_1
 10
380.5439
 20
72.1989
  0
VERTEX
  8
LAYER_1
 10
380.5439
 20
96.0324
  0
VERTEX
  8
LAYER_1
 10
381.7924
 20
96.0324
  0
VERTEX
  8
LAYER_1
 10
381.7924
 20
72.1989
  0
VERTEX
  8
LAYER_1
 10
380.5439
 20
72.1989
  0
VERTEX
  8
LAYER_1
 10
377.7285
 20
74.0826
  0
VERTEX
  8
LAYER_1
 10
377.7285
 20
94.1486
  0
VERTEX
  8
LAYER_1
 10
380.5439
 20
96.0324
  0
SEQEND
  0
POLYLINE
  8
LAYER_1
 40
0.1058
 41
0.1058
 66
1
 10
0
 20
0
 30
0
  0
VERTEX
  8
LAYER_1
 10
354.4876
 20
55.5405
  0
VERTEX
  8
LAYER_1
 10
357.5988
 20
67.7113
  0
SEQEND
  0
POLYLINE
  8
LAYER_1
 40
0.1058
 41
0.1058
 66
1
 10
0
 20
0
 30
0
  0
VERTEX
  8
LAYER_1
 10
355.2493
 20
55.3503
  0
VERTEX
  8
LAYER_1
 10
358.3609
 20
67.5845
  0
SEQEND
  0
POLYLINE
  8
LAYER_1
 40
0.1058
 41
0.1058
 66
1
 10
0
 20
0
 30
0
  0
VERTEX
  8
LAYER_1
 10
356.0327
 20
55.2442
  0
VERTEX
  8
LAYER_1
 10
359.1443
 20
67.415
  0
SEQEND
  0
POLYLINE
  8
LAYER_1
 40
0.1058
 41
0.1058
 66
1
 10
0
 20
0
 30
0
  0
VERTEX
  8
LAYER_1
 10
356.7948
 20
55.096
  0
VERTEX
  8
LAYER_1
 10
359.9064
 20
67.2882
  0
SEQEND
  0
POLYLINE
  8
LAYER_1
 40
0.254
 41
0.254
 66
1
 10
0
 20
0
 30
0
  0
VERTEX
  8
LAYER_1
 10
311.6041
 20
219.6481
  0
VERTEX
  8
LAYER_1
 10
332.9189
 20
219.6481
  0
SEQEND
  0
INSERT
  8
LAYER_1
  2
AIGNBL01010005
 10
0
 20
0
 30
0
  0
TEXT
  8
LAYER_1
 10
301.5719
 20
198.0399
 11
301.5719
 21
198.0399
 40
4.1794
 41
0.5
 50
89.99999999
  1
66
  0
TEXT
  8
LAYER_1
 10
301.5719
 20
132.2469
 11
301.5719
 21
132.2469
 40
4.1794
 41
0.5
 50
89.99999999
  1
10
  0
TEXT
  8
LAYER_1
 10
301.5719
 20
120.7527
 11
301.5719
 21
120.7527
 40
4.1794
 41
0.5
 50
89.99999999
  1
10
  0
TEXT
  8
LAYER_1
 10
301.5719
 20
103.4955
 11
301.5719
 21
103.4955
 40
4.1794
 41
0.5
 50
89.99999999
  1
7
  0
INSERT
  8
LAYER_1
  2
AIGNBL0101000C
 10
0
 20
0
 30
0
  0
INSERT
  8
LAYER_1
  2
AIGNBL01010013
 10
0
 20
0
 30
0
  0
INSERT
  8
LAYER_1
  2
AIGNBL0101001A
 10
0
 20
0
 30
0
  0
TEXT
  8
LAYER_1
 10
320.1741
 20
111.5653
 11
320.1741
 21
111.5653
 40
4.1794
 41
0.5
  1
38
  0
INSERT
  8
LAYER_1
  2
AIGNBL01010021
 10
0
 20
0
 30
0
  0
TEXT
  8
LAYER_1
 10
320.1741
 20
226.3943
 11
320.1741
 21
226.3943
 40
4.1794
 41
0.5
  1
37
  0
INSERT
  8
LAYER_1
  2
AIGNBL01010028
 10
0
 20
0
 30
0
  0
TEXT
  8
LAYER_1
 10
320.1741
 20
144.8144
 11
320.1741
 21
144.8144
 40
4.1794
 41
0.5
  1
44
  0
INSERT
  8
LAYER_1
  2
AIGNBL0101002F
 10
0
 20
0
 30
0
  0
TEXT
  8
LAYER_1
 10
320.1741
 20
94.8373
 11
320.1741
 21
94.8373
 40
4.1794
 41
0.5
  1
40
  0
INSERT
  8
LAYER_1
  2
AIGNBL01010036
 10
0
 20
0
 30
0
  0
TEXT
  8
LAYER_1
 10
335.4696
 20
42.1942
 11
335.4696
 21
42.1942
 40
4.1794
 41
0.5
  1
90
  0
INSERT
  8
LAYER_1
  2
AIGNBL0101003D
 10
0
 20
0
 30
0
  0
TEXT
  8
LAYER_1
 10
374.9573
 20
82.3702
 11
374.9573
 21
82.3702
 40
4.1794
 41
0.5
 50
89.99999999
  1
40
  0
INSERT
  8
LAYER_1
  2
AIGNBL01010044
 10
0
 20
0
 30
0
  0
TEXT
  8
LAYER_1
 10
555.0504
 20
82.3702
 11
555.0504
 21
82.3702
 40
4.1794
 41
0.5
 50
89.99999999
  1
32
  0
INSERT
  8
LAYER_1
  2
AIGNBL0101004B
 10
0
 20
0
 30
0
  0
TEXT
  8
LAYER_1
 10
320.6002
 20
167.7484
 11
320.6002
 21
167.7484
 40
4.1794
 41
0.5
  1
32
  0
INSERT
  8
LAYER_1
  2
AIGNBL01010052
 10
0
 20
0
 30
0
  0
TEXT
  8
LAYER_1
 10
583.1541
 20
82.3702
 11
583.1541
 21
82.3702
 40
4.1794
 41
0.5
 50
89.99999999
  1
75
  0
INSERT
  8
LAYER_1
  2
AIGNBL01010059
 10
0
 20
0
 30
0
  0
TEXT
  8
LAYER_1
 10
320.1031
 20
161.0422
 11
320.1031
 21
161.0422
 40
4.1794
 41
0.5
  1
38
  0
INSERT
  8
LAYER_1
  2
AIGNBL01010060
 10
0
 20
0
 30
0
  0
INSERT
  8
LAYER_1
  2
AIGNBL01010067
 10
0
 20
0
 30
0
  0
TEXT
  8
LAYER_1
 10
301.5719
 20
74.3624
 11
301.5719
 21
74.3624
 40
4.1794
 41
0.5
 50
89.99999999
  1
70
  0
INSERT
  8
LAYER_1
  2
AIGNBL0101006E
 10
0
 20
0
 30
0
  0
TEXT
  8
LAYER_1
 10
301.5719
 20
152.8255
 11
301.5719
 21
152.8255
 40
4.1794
 41
0.5
 50
89.99999999
  1
2
  0
TEXT
  8
LAYER_1
 10
427.9243
 20
209.8942
 11
427.9243
 21
209.8942
 40
4.1794
 41
0.5
  1
1. 直管
  0
TEXT
  8
LAYER_1
 10
427.9243
 20
203.8528
 11
427.9243
 21
203.8528
 40
4.1794
 41
0.5
  1
2. ワッシャ
  0
TEXT
  8
LAYER_1
 10
427.9243
 20
197.8115
 11
427.9243
 21
197.8115
 40
4.1794
 41
0.5
  1
3. 接続ナット
  0
TEXT
  8
LAYER_1
 10
427.9243
 20
191.7261
 11
427.9243
 21
191.7261
 40
4.1794
 41
0.5
  1
4. 接続ナット
  0
TEXT
  8
LAYER_1
 10
427.9243
 20
185.6848
 11
427.9243
 21
185.6848
 40
4.1794
 41
0.5
  1
5. ガスケット
  0
TEXT
  8
LAYER_1
 10
427.9243
 20
179.6431
 11
427.9243
 21
179.6431
 40
4.1794
 41
0.5
  1
6. サイフォン
  0
TEXT
  8
LAYER_1
 10
427.9243
 20
173.5429
 11
427.9243
 21
173.5429
 40
4.1794
 41
0.5
  1
7. キャップ
  0
TEXT
  8
LAYER_1
 10
427.9243
 20
167.4871
 11
427.9243
 21
167.4871
 40
4.1794
 41
0.5
  1
8. ガスケット
  0
TEXT
  8
LAYER_1
 10
427.9243
 20
161.2987
 11
427.9243
 21
161.2987
 40
4.1794
 41
0.5
  1
9. 接続ナット
  0
TEXT
  8
LAYER_1
 10
427.9243
 20
155.184
 11
427.9243
 21
155.184
 40
4.1794
 41
0.5
  1
10. 横引き管
  0
TEXT
  8
LAYER_1
 10
427.9243
 20
149.1868
 11
427.9243
 21
149.1868
 40
4.1794
 41
0.5
  1
11. ワン
  0
TEXT
  8
LAYER_1
 10
335.4379
 20
216.6846
 11
335.4379
 21
216.6846
 40
4.1794
 41
0.5
 62
1
  1
1
  0
TEXT
  8
LAYER_1
 10
336.0257
 20
152.1852
 11
336.0257
 21
152.1852
 40
4.1794
 41
0.5
 62
1
  1
2
  0
TEXT
  8
LAYER_1
 10
338.2601
 20
133.9584
 11
338.2601
 21
133.9584
 40
4.1794
 41
0.5
 62
1
  1
3
  0
TEXT
  8
LAYER_1
 10
338.2601
 20
122.4049
 11
338.2601
 21
122.4049
 40
4.1794
 41
0.5
 62
1
  1
4
  0
TEXT
  8
LAYER_1
 10
338.2601
 20
102.9732
 11
338.2601
 21
102.9732
 40
4.1794
 41
0.5
 62
1
  1
5
  0
TEXT
  8
LAYER_1
 10
359.6325
 20
100.0332
 11
359.6325
 21
100.0332
 40
4.1794
 41
0.5
 62
1
  1
6
  0
TEXT
  8
LAYER_1
 10
377.5949
 20
100.0332
 11
377.5949
 21
100.0332
 40
4.1794
 41
0.5
 62
1
  1
8
  0
TEXT
  8
LAYER_1
 10
387.2963
 20
100.0332
 11
387.2963
 21
100.0332
 40
4.1794
 41
0.5
 62
1
  1
9
  0
TEXT
  8
LAYER_1
 10
398.4673
 20
99.6804
 11
398.4673
 21
99.6804
 40
4.1794
 41
0.5
 62
1
  1
10
  0
TEXT
  8
LAYER_1
 10
556.5118
 20
102.8554
 11
556.5118
 21
102.8554
 40
4.1794
 41
0.5
 62
1
  1
10
  0
TEXT
  8
LAYER_1
 10
362.0137
 20
53.3487
 11
362.0137
 21
53.3487
 40
4.1794
 41
0.5
 62
1
  1
7
  0
POLYLINE
  8
LAYER_1
 40
0.3528
 41
0.3528
 66
1
 10
0
 20
0
 30
0
  0
VERTEX
  8
LAYER_1
 10
334.1887
 20
104.8498
  0
VERTEX
  8
LAYER_1
 10
310.3549
 20
104.8498
  0
VERTEX
  8
LAYER_1
 10
310.3549
 20
106.0986
  0
VERTEX
  8
LAYER_1
 10
334.1887
 20
106.0986
  0
VERTEX
  8
LAYER_1
 10
334.1887
 20
104.8498
  0
VERTEX
  8
LAYER_1
 10
332.305
 20
102.0134
  0
VERTEX
  8
LAYER_1
 10
312.2387
 20
102.0134
  0
VERTEX
  8
LAYER_1
 10
310.3549
 20
104.8498
  0
SEQEND
  0
TEXT
  8
LAYER_2
 10
-26.2556
 20
43.1712
 11
-26.2556
 21
43.1712
 40
3.2995
 41
0.5
  1
仕様
  0
POLYLINE
  8
LAYER_2
 40
0.3528
 41
0.3528
 66
1
 10
0
 20
0
 30
0
  0
VERTEX
  8
LAYER_2
 10
250.6748
 20
51.9507
  0
VERTEX
  8
LAYER_2
 10
-29.3178
 20
51.9507
  0
SEQEND
  0
INSERT
  8
LAYER_2
  2
AIGNBL02010002
 10
0
 20
0
 30
0
  0
POLYLINE
  8
LAYER_2
 40
0.3528
 41
0.3528
 66
1
 10
0
 20
0
 30
0
  0
VERTEX
  8
LAYER_2
 10
-29.3178
 20
229.3369
  0
VERTEX
  8
LAYER_2
 10
-29.3178
 20
34.3283
  0
VERTEX
  8
LAYER_2
 10
250.6748
 20
34.3283
  0
VERTEX
  8
LAYER_2
 10
250.6748
 20
229.3369
  0
VERTEX
  8
LAYER_2
 10
-29.3178
 20
229.3369
  0
SEQEND
  0
POLYLINE
  8
LAYER_2
 40
0.3528
 41
0.3528
 66
1
 10
0
 20
0
 30
0
  0
VERTEX
  8
LAYER_2
 10
250.6748
 20
60.4597
  0
VERTEX
  8
LAYER_2
 10
-29.3178
 20
60.4597
  0
SEQEND
  0
POLYLINE
  8
LAYER_2
 40
0.3528
 41
0.3528
 66
1
 10
0
 20
0
 30
0
  0
VERTEX
  8
LAYER_2
 10
250.6748
 20
43.4416
  0
VERTEX
  8
LAYER_2
 10
143.534
 20
43.4416
  0
SEQEND
  0
TEXT
  8
LAYER_2
 10
188.1725
 20
45.7175
 11
188.1725
 21
45.7175
 40
3.7615
 41
0.5
  1
-
  0
TEXT
  8
LAYER_2
 10
182.8808
 20
49.4743
 11
182.8808
 21
49.4743
 40
2.1997
 41
0.5
  1
縮尺
  0
POLYLINE
  8
LAYER_2
 40
0.3528
 41
0.3528
 66
1
 10
0
 20
0
 30
0
  0
VERTEX
  8
LAYER_2
 10
181.3526
 20
43.4416
  0
VERTEX
  8
LAYER_2
 10
181.3526
 20
51.9507
  0
SEQEND
  0
TEXT
  8
LAYER_2
 10
144.2327
 20
57.9834
 11
144.2327
 21
57.9834
 40
2.1997
 41
0.5
  1
品番
  0
TEXT
  8
LAYER_2
 10
-28.1609
 20
57.9834
 11
-28.1609
 21
57.9834
 40
2.1997
 41
0.5
  1
品名
  0
TEXT
  8
LAYER_2
 10
144.2327
 20
49.4743
 11
144.2327
 21
49.4743
 40
2.1997
 41
0.5
  1
重量
  0
TEXT
  8
LAYER_2
 10
150.2547
 20
54.1514
 11
150.2547
 21
54.1514
 40
5.9385
 41
0.5
  1
CIE-SIFR
  0
TEXT
  8
LAYER_2
 10
149.5454
 20
45.7175
 11
149.5454
 21
45.7175
 40
3.7615
 41
0.5
  1
-
  0
POLYLINE
  8
LAYER_2
 40
0.3528
 41
0.3528
 66
1
 10
0
 20
0
 30
0
  0
VERTEX
  8
LAYER_2
 10
143.534
 20
34.9539
  0
VERTEX
  8
LAYER_2
 10
143.534
 20
60.4597
  0
SEQEND
  0
TEXT
  8
LAYER_2
 10
-15.2256
 20
54.8911
 11
-15.2256
 21
54.8911
 40
4.1465
 41
0.5
  1
壁排水トラップ（欧州仕様Φ32）
  0
TEXT
  8
LAYER_2
 10
-15.6835
 20
45.2562
 11
-15.6835
 21
45.2562
 40
3.1177
 41
0.5
  1
※欧州仕様のため、単独で国内仕様の排水金具とは接続できません。
  0
TEXT
  8
LAYER_2
 10
-15.6835
 20
40.5061
 11
-15.6835
 21
40.5061
 40
3.5541
 41
0.5
  1
※CIE-LGLS56専用品です。 ※直管Aをカットして使用ください。
  0
TEXT
  8
LAYER_2
 10
237.263
 20
63.2582
 11
237.263
 21
63.2582
 40
2.9618
 41
0.5
  1
単位：mm
  0
POLYLINE
  8
LAYER_2
 40
0.1058
 41
0.1058
 66
1
 10
0
 20
0
 30
0
  0
VERTEX
  8
LAYER_2
 10
10.4283
 20
114.1656
  0
VERTEX
  8
LAYER_2
 10
38.2633
 20
114.1656
  0
SEQEND
  0
POLYLINE
  8
LAYER_2
 40
0.1058
 41
0.1058
 66
1
 10
0
 20
0
 30
0
  0
VERTEX
  8
LAYER_2
 10
8.4751
 20
116.119
  0
VERTEX
  8
LAYER_2
 10
8.4751
 20
136.1405
  0
SEQEND
  0
POLYLINE
  8
LAYER_2
 40
0.1058
 41
0.1058
 66
1
 10
0
 20
0
 30
0
  0
VERTEX
  8
LAYER_2
 10
23.1249
 20
136.1405
  0
VERTEX
  8
LAYER_2
 10
23.1252
 20
134.1872
  0
SEQEND
  0
POLYLINE
  8
LAYER_2
 40
0.1058
 41
0.1058
 66
1
 10
0
 20
0
 30
0
 70
1
  0
VERTEX
  8
LAYER_2
 10
23.1249
 20
141.0243
  0
VERTEX
  8
LAYER_2
 10
8.4751
 20
141.0243
  0
VERTEX
  8
LAYER_2
 10
8.4751
 20
152.2557
  0
VERTEX
  8
LAYER_2
 10
23.1249
 20
152.2557
  0
SEQEND
  0
POLYLINE
  8
LAYER_2
 40
0.1058
 41
0.1058
 66
1
 10
0
 20
0
 30
0
 70
1
  0
VERTEX
  8
LAYER_2
 10
154.9749
 20
145.9074
  0
VERTEX
  8
LAYER_2
 10
154.9749
 20
131.2574
  0
VERTEX
  8
LAYER_2
 10
52.4247
 20
131.2574
  0
VERTEX
  8
LAYER_2
 10
52.4247
 20
145.9074
  0
SEQEND
  0
INSERT
  8
LAYER_2
  2
AIGNBL02010003
 10
0
 20
0
 30
0
  0
INSERT
  8
LAYER_2
  2
AIGNBL02010004
 10
0
 20
0
 30
0
  0
INSERT
  8
LAYER_2
  2
AIGNBL02010005
 10
0
 20
0
 30
0
  0
POLYLINE
  8
LAYER_2
 40
0.1058
 41
0.1058
 66
1
 10
0
 20
0
 30
0
  0
VERTEX
  8
LAYER_2
 10
24.8343
 20
132.2338
  0
VERTEX
  8
LAYER_2
 10
29.963
 20
132.2338
  0
SEQEND
  0
POLYLINE
  8
LAYER_2
 40
0.1058
 41
0.1058
 66
1
 10
0
 20
0
 30
0
  0
VERTEX
  8
LAYER_2
 10
40.7169
 20
116.119
  0
VERTEX
  8
LAYER_2
 10
44.1778
 20
129.6317
  0
SEQEND
  0
POLYLINE
  8
LAYER_2
 40
0.1058
 41
0.1058
 66
1
 10
0
 20
0
 30
0
  0
VERTEX
  8
LAYER_2
 10
33.8236
 20
138.5824
 42
-0.050155745
  0
VERTEX
  8
LAYER_2
 10
34.0054
 20
140.4141
 42
-0.04832932679
  0
VERTEX
  8
LAYER_2
 10
34.4667
 20
141.9185
 42
-0.05244560175
  0
VERTEX
  8
LAYER_2
 10
35.1917
 20
143.2431
 42
-0.0505027149
  0
VERTEX
  8
LAYER_2
 10
36.0431
 20
144.2358
 42
-0.05375969825
  0
VERTEX
  8
LAYER_2
 10
37.0765
 20
145.024
 42
-0.0836416732
  0
VERTEX
  8
LAYER_2
 10
38.9404
 20
145.7587
 42
-0.05363682754
  0
VERTEX
  8
LAYER_2
 10
40.3741
 20
145.9074
  0
SEQEND
  0
POLYLINE
  8
LAYER_2
 40
0.1058
 41
0.1058
 66
1
 10
0
 20
0
 30
0
  0
VERTEX
  8
LAYER_2
 10
33.8236
 20
138.5824
 42
-0.0438067826
  0
VERTEX
  8
LAYER_2
 10
33.6491
 20
136.5452
 42
-0.04843125247
  0
VERTEX
  8
LAYER_2
 10
33.1915
 20
134.9062
 42
-0.05500573225
  0
VERTEX
  8
LAYER_2
 10
32.5724
 20
133.7315
 42
-0.06950838369
  0
VERTEX
  8
LAYER_2
 10
31.8047
 20
132.8932
 42
-0.07879579212
  0
VERTEX
  8
LAYER_2
 10
30.9742
 20
132.4144
 42
-0.090958613
  0
VERTEX
  8
LAYER_2
 10
29.963
 20
132.2338
  0
SEQEND
  0
POLYLINE
  8
LAYER_2
 40
0.1058
 41
0.1058
 66
1
 10
0
 20
0
 30
0
  0
VERTEX
  8
LAYER_2
 10
40.3741
 20
145.9074
  0
VERTEX
  8
LAYER_2
 10
47.5416
 20
145.9074
  0
SEQEND
  0
POLYLINE
  8
LAYER_2
 40
0.1058
 41
0.1058
 66
1
 10
0
 20
0
 30
0
  0
VERTEX
  8
LAYER_2
 10
8.4751
 20
116.119
 42
0.4142113951
  0
VERTEX
  8
LAYER_2
 10
10.4283
 20
114.1656
  0
SEQEND
  0
POLYLINE
  8
LAYER_2
 40
0.1058
 41
0.1058
 66
1
 10
0
 20
0
 30
0
  0
VERTEX
  8
LAYER_2
 10
40.7169
 20
116.119
 42
-0.07484195709
  0
VERTEX
  8
LAYER_2
 10
40.2067
 20
114.9894
 42
-0.1021759496
  0
VERTEX
  8
LAYER_2
 10
39.6594
 20
114.4703
 42
-0.101502379
  0
VERTEX
  8
LAYER_2
 10
38.9024
 20
114.2103
 42
-0.03992859499
  0
VERTEX
  8
LAYER_2
 10
38.2633
 20
114.1656
  0
SEQEND
  0
POLYLINE
  8
LAYER_2
 40
0.1058
 41
0.1058
 66
1
 10
0
 20
0
 30
0
  0
VERTEX
  8
LAYER_2
 10
23.1252
 20
134.1872
 42
0.1018842418
  0
VERTEX
  8
LAYER_2
 10
23.3027
 20
133.3187
 42
0.1027814028
  0
VERTEX
  8
LAYER_2
 10
23.7628
 20
132.6648
 42
0.1062604245
  0
VERTEX
  8
LAYER_2
 10
24.3662
 20
132.3078
 42
0.07856235718
  0
VERTEX
  8
LAYER_2
 10
24.8343
 20
132.2338
  0
SEQEND
  0
POLYLINE
  8
LAYER_2
 40
0.1058
 41
0.1058
 66
1
 10
0
 20
0
 30
0
  0
VERTEX
  8
LAYER_2
 10
44.1778
 20
129.6317
 42
-0.04413136832
  0
VERTEX
  8
LAYER_2
 10
44.4016
 20
130.2656
 42
-0.1125470787
  0
VERTEX
  8
LAYER_2
 10
44.8312
 20
130.8362
 42
-0.1168717302
  0
VERTEX
  8
LAYER_2
 10
45.4791
 20
131.1263
 42
-0.03287422382
  0
VERTEX
  8
LAYER_2
 10
45.9935
 20
131.2079
 42
-0.02746034451
  0
VERTEX
  8
LAYER_2
 10
47.5416
 20
131.2574
  0
SEQEND
  0
POLYLINE
  8
LAYER_2
 40
0.1058
 41
0.1058
 66
1
 10
0
 20
0
 30
0
 70
1
  0
VERTEX
  8
LAYER_2
 10
41.5041
 20
117.814
  0
VERTEX
  8
LAYER_2
 10
42.3206
 20
117.6383
  0
VERTEX
  8
LAYER_2
 10
44.3818
 20
125.6867
  0
VERTEX
  8
LAYER_2
 10
43.5722
 20
125.8886
  0
SEQEND
  0
INSERT
  8
LAYER_2
  2
AIGNBL02010006
 10
0
 20
0
 30
0
  0
INSERT
  8
LAYER_2
  2
AIGNBL0201000C
 10
0
 20
0
 30
0
  0
INSERT
  8
LAYER_2
  2
AIGNBL02010012
 10
0
 20
0
 30
0
  0
INSERT
  8
LAYER_2
  2
AIGNBL02010018
 10
0
 20
0
 30
0
  0
INSERT
  8
LAYER_2
  2
AIGNBL0201001E
 10
0
 20
0
 30
0
  0
INSERT
  8
LAYER_2
  2
AIGNBL02010024
 10
0
 20
0
 30
0
  0
INSERT
  8
LAYER_2
  2
AIGNBL0201002A
 10
0
 20
0
 30
0
  0
INSERT
  8
LAYER_2
  2
AIGNBL02010030
 10
0
 20
0
 30
0
  0
INSERT
  8
LAYER_2
  2
AIGNBL02010036
 10
0
 20
0
 30
0
  0
TEXT
  8
LAYER_2
 10
98.5738
 20
164.416
 11
98.5738
 21
164.416
 40
3.258
 41
0.5
  1
MAX 210
  0
INSERT
  8
LAYER_2
  2
AIGNBL0201003B
 10
0
 20
0
 30
0
  0
INSERT
  8
LAYER_2
  2
AIGNBL02010041
 10
0
 20
0
 30
0
  0
INSERT
  8
LAYER_2
  2
AIGNBL02010047
 10
0
 20
0
 30
0
  0
INSERT
  8
LAYER_2
  2
AIGNBL0201004D
 10
0
 20
0
 30
0
  0
POLYLINE
  8
LAYER_2
 40
0.1058
 41
0.1058
 66
1
 10
0
 20
0
 30
0
  0
VERTEX
  8
LAYER_2
 10
215.5603
 20
114.1656
  0
VERTEX
  8
LAYER_2
 10
226.3042
 20
114.1656
  0
SEQEND
  0
POLYLINE
  8
LAYER_2
 40
0.1058
 41
0.1058
 66
1
 10
0
 20
0
 30
0
  0
VERTEX
  8
LAYER_2
 10
213.6073
 20
116.119
  0
VERTEX
  8
LAYER_2
 10
213.6073
 20
136.1405
  0
SEQEND
  0
POLYLINE
  8
LAYER_2
 40
0.1058
 41
0.1058
 66
1
 10
0
 20
0
 30
0
  0
VERTEX
  8
LAYER_2
 10
228.2572
 20
136.1405
  0
VERTEX
  8
LAYER_2
 10
228.2572
 20
116.119
  0
SEQEND
  0
POLYLINE
  8
LAYER_2
 40
0.1058
 41
0.1058
 66
1
 10
0
 20
0
 30
0
 70
1
  0
VERTEX
  8
LAYER_2
 10
228.2572
 20
141.0243
  0
VERTEX
  8
LAYER_2
 10
213.6073
 20
141.0243
  0
VERTEX
  8
LAYER_2
 10
213.6073
 20
152.2557
  0
VERTEX
  8
LAYER_2
 10
228.2572
 20
152.2557
  0
SEQEND
  0
INSERT
  8
LAYER_2
  2
AIGNBL02010053
 10
0
 20
0
 30
0
  0
INSERT
  8
LAYER_2
  2
AIGNBL02010054
 10
0
 20
0
 30
0
  0
POLYLINE
  8
LAYER_2
 40
0.1058
 41
0.1058
 66
1
 10
0
 20
0
 30
0
  0
VERTEX
  8
LAYER_2
 10
213.6073
 20
116.119
 42
0.4142099633
  0
VERTEX
  8
LAYER_2
 10
215.5603
 20
114.1656
  0
SEQEND
  0
POLYLINE
  8
LAYER_2
 40
0.1058
 41
0.1058
 66
1
 10
0
 20
0
 30
0
  0
VERTEX
  8
LAYER_2
 10
228.2572
 20
116.119
 42
-0.4142102561
  0
VERTEX
  8
LAYER_2
 10
226.3042
 20
114.1656
  0
SEQEND
  0
INSERT
  8
LAYER_2
  2
AIGNBL02010055
 10
0
 20
0
 30
0
  0
INSERT
  8
LAYER_2
  2
AIGNBL0201005B
 10
0
 20
0
 30
0
  0
INSERT
  8
LAYER_2
  2
AIGNBL02010061
 10
0
 20
0
 30
0
  0
INSERT
  8
LAYER_2
  2
AIGNBL02010067
 10
0
 20
0
 30
0
  0
INSERT
  8
LAYER_2
  2
AIGNBL0201006D
 10
0
 20
0
 30
0
  0
INSERT
  8
LAYER_2
  2
AIGNBL02010073
 10
0
 20
0
 30
0
  0
INSERT
  8
LAYER_2
  2
AIGNBL02010079
 10
0
 20
0
 30
0
  0
TEXT
  8
LAYER_2
 10
27.5167
 20
145.6972
 11
27.5167
 21
145.6972
 40
3.3968
 41
0.5
  1
直管A
  0
INSERT
  8
LAYER_2
  2
AIGNBL0201007F
 10
0
 20
0
 30
0
  0
TEXT
  8
LAYER_2
 10
176.0254
 20
39.5359
 11
176.0254
 21
39.5359
 40
3.3853
 41
0.5
  1
●TEL 0120-65-1232●FAX 06-6532-1580
  0
TEXT
  8
LAYER_2
 10
176.0254
 20
36.0212
 11
176.0254
 21
36.0212
 40
3.3853
 41
0.5
  1
hits@hiratatile.co.jp
  0
TEXT
  8
LAYER_2
 10
240.3591
 20
225.8432
 11
240.3591
 21
225.8432
 40
2.0732
 41
0.5
  1
160804RT
  0
INSERT
  8
LAYER_2
  2
AIGNBL02010082
 10
0
 20
0
 30
0
  0
ENDSEC
  0
EOF
