  0
SECTION
  2
HEADER
  9
$ACADVER
  1
AC1009
  9
$LUNITS
 70
2
  9
$LUPREC
 70
4
  9
$LTSCALE
 40
1.0
  9
$EXTMIN
 10
-30.3177
 20
33.3285
 30
0
  9
$EXTMAX
 10
251.6749
 20
230.337
 30
0
  0
ENDSEC
  0
SECTION
  2
TABLES
  0
TABLE
  2
LTYPE
 70
256
  0
LTYPE
  2
AIGENLINE001
 70
64
  3
generate AI->DXF Converter
 72
65
 73
2
 40
2.1167
 49
1.0583
 49
-1.0583
  0
ENDTAB
  0
TABLE
  2
LAYER
 70
3
  0
LAYER
  2
LAYER_1
 70
64
 62
7
  6
CONTINUOUS
  0
LAYER
  2
LAYER_2
 70
64
 62
7
  6
CONTINUOUS
  0
LAYER
  2
LAYER_3
 70
64
 62
7
  6
CONTINUOUS
  0
ENDTAB
  0
TABLE
  2
STYLE
 70
6
  0
STYLE
  2
STANDARD
 70
0
 40
0
 50
0
 71
0
 41
0
 42
0
  3
TXT
  4
BIGFONT
  0
ENDTAB
  0
ENDSEC
  0
SECTION
  2
BLOCKS
  0
BLOCK
  8
LAYER_3
  2
AIGNBL03040006
 70
64
 10
0
 20
0
 30
0
  3
AIGNBL03040006
  0
POLYLINE
  8
LAYER_3
 40
0.05
 41
0.05
 66
1
 10
0
 20
0
 30
0
 70
1
  0
VERTEX
  8
LAYER_3
 10
146.7545
 20
39.1418
  0
VERTEX
  8
LAYER_3
 10
146.2657
 20
37.9567
  0
VERTEX
  8
LAYER_3
 10
145.6376
 20
37.9567
  0
VERTEX
  8
LAYER_3
 10
147.2372
 20
41.7225
  0
VERTEX
  8
LAYER_3
 10
147.9703
 20
41.7225
  0
VERTEX
  8
LAYER_3
 10
149.5767
 20
37.9567
  0
VERTEX
  8
LAYER_3
 10
148.9267
 20
37.9567
  0
VERTEX
  8
LAYER_3
 10
148.424
 20
39.1418
  0
SEQEND
  0
POLYLINE
  8
LAYER_3
 40
0.05
 41
0.05
 66
1
 10
0
 20
0
 30
0
 70
1
  0
VERTEX
  8
LAYER_3
 10
148.2983
 20
39.5208
  0
VERTEX
  8
LAYER_3
 10
147.8373
 20
40.6056
 42
-0.02317247198
  0
VERTEX
  8
LAYER_3
 10
147.5927
 20
41.2926
  0
VERTEX
  8
LAYER_3
 10
147.5789
 20
41.2926
 42
-0.02064481114
  0
VERTEX
  8
LAYER_3
 10
147.3412
 20
40.6101
  0
VERTEX
  8
LAYER_3
 10
146.8806
 20
39.5208
  0
SEQEND
  0
ENDBLK
  0
BLOCK
  8
LAYER_3
  2
AIGNBL03040007
 70
64
 10
0
 20
0
 30
0
  3
AIGNBL03040007
  0
POLYLINE
  8
LAYER_3
 40
0.05
 41
0.05
 66
1
 10
0
 20
0
 30
0
 70
1
  0
VERTEX
  8
LAYER_3
 10
153.942
 20
37.4034
 42
-0.01525137561
  0
VERTEX
  8
LAYER_3
 10
152.1399
 20
37.8396
 42
0.09192818596
  0
VERTEX
  8
LAYER_3
 10
151.8533
 20
37.895
 42
-0.09256808484
  0
VERTEX
  8
LAYER_3
 10
150.8994
 20
38.0977
 42
-0.09799469934
  0
VERTEX
  8
LAYER_3
 10
150.2621
 20
38.5324
 42
-0.1630918382
  0
VERTEX
  8
LAYER_3
 10
149.7964
 20
39.5259
 42
-0.0316951694
  0
VERTEX
  8
LAYER_3
 10
149.7793
 20
39.7998
 42
-0.1055313794
  0
VERTEX
  8
LAYER_3
 10
149.9533
 20
40.6417
 42
-0.1619874109
  0
VERTEX
  8
LAYER_3
 10
150.7418
 20
41.4867
 42
-0.09224146328
  0
VERTEX
  8
LAYER_3
 10
151.5409
 20
41.7524
 42
-0.03717154931
  0
VERTEX
  8
LAYER_3
 10
151.9725
 20
41.7838
 42
-0.09530535683
  0
VERTEX
  8
LAYER_3
 10
152.9361
 20
41.6062
 42
-0.1001834594
  0
VERTEX
  8
LAYER_3
 10
153.5732
 20
41.1834
 42
-0.1611157059
  0
VERTEX
  8
LAYER_3
 10
154.06
 20
40.1825
 42
-0.03590950521
  0
VERTEX
  8
LAYER_3
 10
154.0816
 20
39.8784
 42
-0.1066899695
  0
VERTEX
  8
LAYER_3
 10
153.9052
 20
39.0236
 42
-0.2183856259
  0
VERTEX
  8
LAYER_3
 10
152.7953
 20
38.0897
 42
-0.006706171784
  0
VERTEX
  8
LAYER_3
 10
152.7407
 20
38.0738
  0
VERTEX
  8
LAYER_3
 10
152.7407
 20
38.0514
 42
0.01533555045
  0
VERTEX
  8
LAYER_3
 10
154.117
 20
37.8113
  0
SEQEND
  0
POLYLINE
  8
LAYER_3
 40
0.05
 41
0.05
 66
1
 10
0
 20
0
 30
0
 70
1
  0
VERTEX
  8
LAYER_3
 10
153.4394
 20
39.857
 42
0.1175610784
  0
VERTEX
  8
LAYER_3
 10
153.257
 20
40.6254
 42
0.1170135141
  0
VERTEX
  8
LAYER_3
 10
152.8315
 20
41.1234
 42
0.1200044572
  0
VERTEX
  8
LAYER_3
 10
152.2186
 20
41.3675
 42
0.03774262044
  0
VERTEX
  8
LAYER_3
 10
151.9511
 20
41.3873
 42
0.1153139376
  0
VERTEX
  8
LAYER_3
 10
151.2089
 20
41.2226
 42
0.1853550912
  0
VERTEX
  8
LAYER_3
 10
150.5507
 20
40.4882
 42
0.09859892291
  0
VERTEX
  8
LAYER_3
 10
150.4287
 20
39.8122
 42
0.1178359247
  0
VERTEX
  8
LAYER_3
 10
150.5964
 20
39.0734
 42
0.2866694251
  0
VERTEX
  8
LAYER_3
 10
151.9232
 20
38.2912
 42
0.1188197759
  0
VERTEX
  8
LAYER_3
 10
152.6722
 20
38.4633
 42
0.1796740134
  0
VERTEX
  8
LAYER_3
 10
153.3126
 20
39.18
 42
0.09850052237
  0
SEQEND
  0
ENDBLK
  0
BLOCK
  8
LAYER_3
  2
AIGNBL03040008
 70
64
 10
0
 20
0
 30
0
  3
AIGNBL03040008
  0
POLYLINE
  8
LAYER_3
 40
0.05
 41
0.05
 66
1
 10
0
 20
0
 30
0
 70
1
  0
VERTEX
  8
LAYER_3
 10
155.4089
 20
41.7225
  0
VERTEX
  8
LAYER_3
 10
155.4089
 20
39.4932
 42
0.1220213404
  0
VERTEX
  8
LAYER_3
 10
155.569
 20
38.7775
 42
0.2218709818
  0
VERTEX
  8
LAYER_3
 10
156.2104
 20
38.3206
 42
0.05223876895
  0
VERTEX
  8
LAYER_3
 10
156.5055
 20
38.2912
 42
0.1302821267
  0
VERTEX
  8
LAYER_3
 10
157.1748
 20
38.452
 42
0.1509367336
  0
VERTEX
  8
LAYER_3
 10
157.526
 20
38.8454
 42
0.1174732039
  0
VERTEX
  8
LAYER_3
 10
157.651
 20
39.4932
  0
VERTEX
  8
LAYER_3
 10
157.651
 20
41.7225
  0
VERTEX
  8
LAYER_3
 10
158.2656
 20
41.7225
  0
VERTEX
  8
LAYER_3
 10
158.2656
 20
39.5266
 42
-0.1106199636
  0
VERTEX
  8
LAYER_3
 10
158.0961
 20
38.708
 42
-0.1822316276
  0
VERTEX
  8
LAYER_3
 10
157.4057
 20
38.0637
 42
-0.09768689614
  0
VERTEX
  8
LAYER_3
 10
156.6028
 20
37.8972
 42
-0.01000776787
  0
VERTEX
  8
LAYER_3
 10
156.4845
 20
37.895
 42
-0.09899827608
  0
VERTEX
  8
LAYER_3
 10
155.612
 20
38.0554
 42
-0.1209605854
  0
VERTEX
  8
LAYER_3
 10
155.1093
 20
38.4366
 42
-0.1192983303
  0
VERTEX
  8
LAYER_3
 10
154.8407
 20
39.0317
 42
-0.05319533763
  0
VERTEX
  8
LAYER_3
 10
154.7943
 20
39.5046
  0
VERTEX
  8
LAYER_3
 10
154.7943
 20
41.7225
  0
SEQEND
  0
ENDBLK
  0
BLOCK
  8
LAYER_3
  2
AIGNBL03040009
 70
64
 10
0
 20
0
 30
0
  3
AIGNBL03040009
  0
POLYLINE
  8
LAYER_3
 40
0.05
 41
0.05
 66
1
 10
0
 20
0
 30
0
 70
1
  0
VERTEX
  8
LAYER_3
 10
160.0119
 20
39.1418
  0
VERTEX
  8
LAYER_3
 10
159.5227
 20
37.9567
  0
VERTEX
  8
LAYER_3
 10
158.8947
 20
37.9567
  0
VERTEX
  8
LAYER_3
 10
160.4939
 20
41.7225
  0
VERTEX
  8
LAYER_3
 10
161.227
 20
41.7225
  0
VERTEX
  8
LAYER_3
 10
162.8335
 20
37.9567
  0
VERTEX
  8
LAYER_3
 10
162.1841
 20
37.9567
  0
VERTEX
  8
LAYER_3
 10
161.6814
 20
39.1418
  0
SEQEND
  0
POLYLINE
  8
LAYER_3
 40
0.05
 41
0.05
 66
1
 10
0
 20
0
 30
0
 70
1
  0
VERTEX
  8
LAYER_3
 10
161.5553
 20
39.5208
  0
VERTEX
  8
LAYER_3
 10
161.094
 20
40.6056
 42
-0.02227599701
  0
VERTEX
  8
LAYER_3
 10
160.8494
 20
41.2926
  0
VERTEX
  8
LAYER_3
 10
160.8357
 20
41.2926
 42
-0.0206476565
  0
VERTEX
  8
LAYER_3
 10
160.5983
 20
40.6101
  0
VERTEX
  8
LAYER_3
 10
160.1373
 20
39.5208
  0
SEQEND
  0
ENDBLK
  0
BLOCK
  8
LAYER_3
  2
AIGNBL0304000A
 70
64
 10
0
 20
0
 30
0
  3
AIGNBL0304000A
  0
POLYLINE
  8
LAYER_3
 40
0.05
 41
0.05
 66
1
 10
0
 20
0
 30
0
 70
1
  0
VERTEX
  8
LAYER_3
 10
163.8742
 20
41.6777
 42
-0.03334485223
  0
VERTEX
  8
LAYER_3
 10
165.0411
 20
41.7508
 42
-0.08841555942
  0
VERTEX
  8
LAYER_3
 10
166.0872
 20
41.5858
 42
-0.06038484967
  0
VERTEX
  8
LAYER_3
 10
166.3609
 20
41.438
 42
-0.2471651456
  0
VERTEX
  8
LAYER_3
 10
166.7726
 20
40.6497
 42
-0.1483298328
  0
VERTEX
  8
LAYER_3
 10
166.6029
 20
40.0554
 42
-0.07223194904
  0
VERTEX
  8
LAYER_3
 10
166.4095
 20
39.8456
 42
-0.1209372404
  0
VERTEX
  8
LAYER_3
 10
165.7228
 20
39.517
 42
-0.06224269186
  0
VERTEX
  8
LAYER_3
 10
164.9708
 20
39.4319
 42
-0.05738783264
  0
VERTEX
  8
LAYER_3
 10
164.4823
 20
39.4653
  0
VERTEX
  8
LAYER_3
 10
164.4823
 20
37.9567
  0
VERTEX
  8
LAYER_3
 10
163.8742
 20
37.9567
  0
SEQEND
  0
POLYLINE
  8
LAYER_3
 40
0.05
 41
0.05
 66
1
 10
0
 20
0
 30
0
 70
1
  0
VERTEX
  8
LAYER_3
 10
164.4823
 20
39.8622
 42
0.05012782438
  0
VERTEX
  8
LAYER_3
 10
164.9846
 20
39.8229
 42
0.1135463519
  0
VERTEX
  8
LAYER_3
 10
165.7697
 20
39.9822
 42
0.1653329065
  0
VERTEX
  8
LAYER_3
 10
166.1074
 20
40.3302
 42
0.1044639943
  0
VERTEX
  8
LAYER_3
 10
166.1656
 20
40.6273
 42
0.2826437488
  0
VERTEX
  8
LAYER_3
 10
165.8147
 20
41.2103
 42
0.0629694601
  0
VERTEX
  8
LAYER_3
 10
165.549
 20
41.3107
 42
0.06259589917
  0
VERTEX
  8
LAYER_3
 10
165.0552
 20
41.3649
 42
0.05214717704
  0
VERTEX
  8
LAYER_3
 10
164.4823
 20
41.3256
  0
SEQEND
  0
ENDBLK
  0
BLOCK
  8
LAYER_3
  2
AIGNBL0304000B
 70
64
 10
0
 20
0
 30
0
  3
AIGNBL0304000B
  0
POLYLINE
  8
LAYER_3
 40
0.05
 41
0.05
 66
1
 10
0
 20
0
 30
0
 70
1
  0
VERTEX
  8
LAYER_3
 10
168.3246
 20
41.4207
 42
-0.3048675751
  0
VERTEX
  8
LAYER_3
 10
168.1582
 20
41.1661
 42
-0.1151020929
  0
VERTEX
  8
LAYER_3
 10
167.9329
 20
41.1189
 42
-0.2442513348
  0
VERTEX
  8
LAYER_3
 10
167.6028
 20
41.2794
 42
-0.1394546152
  0
VERTEX
  8
LAYER_3
 10
167.5626
 20
41.4207
 42
-0.287439772
  0
VERTEX
  8
LAYER_3
 10
167.7346
 20
41.6803
 42
-0.1179404017
  0
VERTEX
  8
LAYER_3
 10
167.9467
 20
41.7277
 42
-0.2416274379
  0
VERTEX
  8
LAYER_3
 10
168.2814
 20
41.5719
 42
-0.1426378456
  0
SEQEND
  0
POLYLINE
  8
LAYER_3
 40
0.05
 41
0.05
 66
1
 10
0
 20
0
 30
0
 70
1
  0
VERTEX
  8
LAYER_3
 10
167.639
 20
37.9567
  0
VERTEX
  8
LAYER_3
 10
167.639
 20
40.6607
  0
VERTEX
  8
LAYER_3
 10
168.2536
 20
40.6607
  0
VERTEX
  8
LAYER_3
 10
168.2536
 20
37.9567
  0
SEQEND
  0
ENDBLK
  0
BLOCK
  8
LAYER_3
  2
AIGNBL0304000C
 70
64
 10
0
 20
0
 30
0
  3
AIGNBL0304000C
  0
POLYLINE
  8
LAYER_3
 40
0.05
 41
0.05
 66
1
 10
0
 20
0
 30
0
 70
1
  0
VERTEX
  8
LAYER_3
 10
170.1254
 20
39.1418
  0
VERTEX
  8
LAYER_3
 10
169.6372
 20
37.9567
  0
VERTEX
  8
LAYER_3
 10
169.0081
 20
37.9567
  0
VERTEX
  8
LAYER_3
 10
170.6077
 20
41.7225
  0
VERTEX
  8
LAYER_3
 10
171.3415
 20
41.7225
  0
VERTEX
  8
LAYER_3
 10
172.9479
 20
37.9567
  0
VERTEX
  8
LAYER_3
 10
172.2982
 20
37.9567
  0
VERTEX
  8
LAYER_3
 10
171.7955
 20
39.1418
  0
SEQEND
  0
POLYLINE
  8
LAYER_3
 40
0.05
 41
0.05
 66
1
 10
0
 20
0
 30
0
 70
1
  0
VERTEX
  8
LAYER_3
 10
171.6695
 20
39.5208
  0
VERTEX
  8
LAYER_3
 10
171.2085
 20
40.6056
 42
-0.02430767271
  0
VERTEX
  8
LAYER_3
 10
170.9646
 20
41.2926
  0
VERTEX
  8
LAYER_3
 10
170.9498
 20
41.2926
 42
-0.02046602706
  0
VERTEX
  8
LAYER_3
 10
170.7127
 20
40.6101
  0
VERTEX
  8
LAYER_3
 10
170.2518
 20
39.5208
  0
SEQEND
  0
ENDBLK
  0
BLOCK
  8
LAYER_3
  2
AIGNBL03030005
 70
64
 10
0
 20
0
 30
0
  3
AIGNBL03030005
  0
INSERT
  8
LAYER_3
  2
AIGNBL03040006
 10
0
 20
0
 30
0
  0
INSERT
  8
LAYER_3
  2
AIGNBL03040007
 10
0
 20
0
 30
0
  0
INSERT
  8
LAYER_3
  2
AIGNBL03040008
 10
0
 20
0
 30
0
  0
INSERT
  8
LAYER_3
  2
AIGNBL03040009
 10
0
 20
0
 30
0
  0
INSERT
  8
LAYER_3
  2
AIGNBL0304000A
 10
0
 20
0
 30
0
  0
INSERT
  8
LAYER_3
  2
AIGNBL0304000B
 10
0
 20
0
 30
0
  0
INSERT
  8
LAYER_3
  2
AIGNBL0304000C
 10
0
 20
0
 30
0
  0
ENDBLK
  0
BLOCK
  8
LAYER_3
  2
AIGNBL0303000E
 70
64
 10
0
 20
0
 30
0
  3
AIGNBL0303000E
  0
POLYLINE
  8
LAYER_3
 40
0.05
 41
0.05
 66
1
 10
0
 20
0
 30
0
 70
1
  0
VERTEX
  8
LAYER_3
 10
145.7475
 20
36.0574
  0
VERTEX
  8
LAYER_3
 10
146.3008
 20
36.0574
  0
VERTEX
  8
LAYER_3
 10
146.3008
 20
35.9637
  0
VERTEX
  8
LAYER_3
 10
145.6424
 20
35.9637
  0
VERTEX
  8
LAYER_3
 10
145.6424
 20
36.9969
  0
VERTEX
  8
LAYER_3
 10
146.2832
 20
36.9969
  0
VERTEX
  8
LAYER_3
 10
146.2832
 20
36.9035
  0
VERTEX
  8
LAYER_3
 10
145.7475
 20
36.9035
  0
VERTEX
  8
LAYER_3
 10
145.7475
 20
36.549
  0
VERTEX
  8
LAYER_3
 10
146.2481
 20
36.549
  0
VERTEX
  8
LAYER_3
 10
146.2481
 20
36.4557
  0
VERTEX
  8
LAYER_3
 10
145.7475
 20
36.4557
  0
SEQEND
  0
ENDBLK
  0
BLOCK
  8
LAYER_3
  2
AIGNBL0303000F
 70
64
 10
0
 20
0
 30
0
  3
AIGNBL0303000F
  0
POLYLINE
  8
LAYER_3
 40
0.05
 41
0.05
 66
1
 10
0
 20
0
 30
0
 70
1
  0
VERTEX
  8
LAYER_3
 10
147.4404
 20
36.117
  0
VERTEX
  8
LAYER_3
 10
147.4432
 20
36.117
  0
VERTEX
  8
LAYER_3
 10
147.4432
 20
36.9969
  0
VERTEX
  8
LAYER_3
 10
147.5483
 20
36.9969
  0
VERTEX
  8
LAYER_3
 10
147.5483
 20
35.9637
  0
VERTEX
  8
LAYER_3
 10
147.4174
 20
35.9637
  0
VERTEX
  8
LAYER_3
 10
146.8162
 20
36.8525
  0
VERTEX
  8
LAYER_3
 10
146.8127
 20
36.8525
  0
VERTEX
  8
LAYER_3
 10
146.8127
 20
35.9637
  0
VERTEX
  8
LAYER_3
 10
146.708
 20
35.9637
  0
VERTEX
  8
LAYER_3
 10
146.708
 20
36.9969
  0
VERTEX
  8
LAYER_3
 10
146.8393
 20
36.9969
  0
SEQEND
  0
ENDBLK
  0
BLOCK
  8
LAYER_3
  2
AIGNBL03030010
 70
64
 10
0
 20
0
 30
0
  3
AIGNBL03030010
  0
POLYLINE
  8
LAYER_3
 40
0.05
 41
0.05
 66
1
 10
0
 20
0
 30
0
 70
1
  0
VERTEX
  8
LAYER_3
 10
148.0213
 20
36.1756
 42
0.1563325367
  0
VERTEX
  8
LAYER_3
 10
148.0757
 20
36.0726
 42
0.1919271311
  0
VERTEX
  8
LAYER_3
 10
148.1891
 20
36.0309
  0
VERTEX
  8
LAYER_3
 10
148.2783
 20
36.0505
  0
VERTEX
  8
LAYER_3
 10
148.3344
 20
36.1039
  0
VERTEX
  8
LAYER_3
 10
148.3634
 20
36.1804
  0
VERTEX
  8
LAYER_3
 10
148.3716
 20
36.27
  0
VERTEX
  8
LAYER_3
 10
148.3716
 20
36.9969
  0
VERTEX
  8
LAYER_3
 10
148.4767
 20
36.9969
  0
VERTEX
  8
LAYER_3
 10
148.4767
 20
36.2614
  0
VERTEX
  8
LAYER_3
 10
148.4654
 20
36.1535
 42
-0.09689434064
  0
VERTEX
  8
LAYER_3
 10
148.424
 20
36.0484
 42
-0.1145812533
  0
VERTEX
  8
LAYER_3
 10
148.3393
 20
35.9689
 42
-0.1249341208
  0
VERTEX
  8
LAYER_3
 10
148.2004
 20
35.9375
 42
-0.1797266639
  0
VERTEX
  8
LAYER_3
 10
148.0158
 20
35.9975
 42
-0.1772027805
  0
VERTEX
  8
LAYER_3
 10
147.9234
 20
36.149
  0
SEQEND
  0
ENDBLK
  0
BLOCK
  8
LAYER_3
  2
AIGNBL03030011
 70
64
 10
0
 20
0
 30
0
  3
AIGNBL03030011
  0
POLYLINE
  8
LAYER_3
 40
0.05
 41
0.05
 66
1
 10
0
 20
0
 30
0
 70
1
  0
VERTEX
  8
LAYER_3
 10
149.965
 20
36.4805
 42
-0.1019307791
  0
VERTEX
  8
LAYER_3
 10
149.924
 20
36.2631
 42
-0.09962254273
  0
VERTEX
  8
LAYER_3
 10
149.8114
 20
36.0915
 42
-0.09627361929
  0
VERTEX
  8
LAYER_3
 10
149.6405
 20
35.9785
 42
-0.09758594962
  0
VERTEX
  8
LAYER_3
 10
149.4265
 20
35.9375
 42
-0.1000844711
  0
VERTEX
  8
LAYER_3
 10
149.2129
 20
35.9785
 42
-0.09985105323
  0
VERTEX
  8
LAYER_3
 10
149.0421
 20
36.0915
 42
-0.09735230618
  0
VERTEX
  8
LAYER_3
 10
148.9287
 20
36.2631
 42
-0.09653980076
  0
VERTEX
  8
LAYER_3
 10
148.8881
 20
36.4805
 42
-0.1004594477
  0
VERTEX
  8
LAYER_3
 10
148.9287
 20
36.6978
 42
-0.1001669327
  0
VERTEX
  8
LAYER_3
 10
149.0421
 20
36.8694
 42
-0.09871200056
  0
VERTEX
  8
LAYER_3
 10
149.2129
 20
36.9824
 42
-0.09768823248
  0
VERTEX
  8
LAYER_3
 10
149.4265
 20
37.0234
 42
-0.1000514256
  0
VERTEX
  8
LAYER_3
 10
149.6405
 20
36.9824
 42
-0.0983303992
  0
VERTEX
  8
LAYER_3
 10
149.8114
 20
36.8694
 42
-0.09762598086
  0
VERTEX
  8
LAYER_3
 10
149.924
 20
36.6978
 42
-0.09788199595
  0
SEQEND
  0
POLYLINE
  8
LAYER_3
 40
0.05
 41
0.05
 66
1
 10
0
 20
0
 30
0
 70
1
  0
VERTEX
  8
LAYER_3
 10
149.8541
 20
36.4798
 42
0.08634913196
  0
VERTEX
  8
LAYER_3
 10
149.8251
 20
36.6517
 42
0.09663020944
  0
VERTEX
  8
LAYER_3
 10
149.7404
 20
36.795
 42
0.1032857511
  0
VERTEX
  8
LAYER_3
 10
149.6053
 20
36.8932
 42
0.1061320656
  0
VERTEX
  8
LAYER_3
 10
149.4265
 20
36.93
 42
0.1113757871
  0
VERTEX
  8
LAYER_3
 10
149.2477
 20
36.8932
 42
0.1056595975
  0
VERTEX
  8
LAYER_3
 10
149.113
 20
36.795
 42
0.09787799956
  0
VERTEX
  8
LAYER_3
 10
149.0283
 20
36.6517
 42
0.08491464556
  0
VERTEX
  8
LAYER_3
 10
148.999
 20
36.4798
 42
0.08693146424
  0
VERTEX
  8
LAYER_3
 10
149.0283
 20
36.3079
 42
0.1009797617
  0
VERTEX
  8
LAYER_3
 10
149.113
 20
36.1649
 42
0.09920321622
  0
VERTEX
  8
LAYER_3
 10
149.2477
 20
36.0674
 42
0.1060640085
  0
VERTEX
  8
LAYER_3
 10
149.4265
 20
36.0309
 42
0.1126980581
  0
VERTEX
  8
LAYER_3
 10
149.6053
 20
36.0674
 42
0.1035582302
  0
VERTEX
  8
LAYER_3
 10
149.7404
 20
36.1649
 42
0.09432567525
  0
VERTEX
  8
LAYER_3
 10
149.8251
 20
36.3079
 42
0.08466662837
  0
SEQEND
  0
ENDBLK
  0
BLOCK
  8
LAYER_3
  2
AIGNBL03030012
 70
64
 10
0
 20
0
 30
0
  3
AIGNBL03030012
  0
POLYLINE
  8
LAYER_3
 40
0.05
 41
0.05
 66
1
 10
0
 20
0
 30
0
 70
1
  0
VERTEX
  8
LAYER_3
 10
150.7398
 20
35.9637
  0
VERTEX
  8
LAYER_3
 10
150.6351
 20
35.9637
  0
VERTEX
  8
LAYER_3
 10
150.6351
 20
36.4091
  0
VERTEX
  8
LAYER_3
 10
150.2482
 20
36.9969
  0
VERTEX
  8
LAYER_3
 10
150.3795
 20
36.9969
  0
VERTEX
  8
LAYER_3
 10
150.6905
 20
36.4967
  0
VERTEX
  8
LAYER_3
 10
151.004
 20
36.9969
  0
VERTEX
  8
LAYER_3
 10
151.1263
 20
36.9969
  0
VERTEX
  8
LAYER_3
 10
150.7398
 20
36.4091
  0
SEQEND
  0
ENDBLK
  0
BLOCK
  8
LAYER_3
  2
AIGNBL03030013
 70
64
 10
0
 20
0
 30
0
  3
AIGNBL03030013
  0
POLYLINE
  8
LAYER_3
 40
0.05
 41
0.05
 66
1
 10
0
 20
0
 30
0
 70
1
  0
VERTEX
  8
LAYER_3
 10
152.0314
 20
36.9969
  0
VERTEX
  8
LAYER_3
 10
152.339
 20
36.9969
  0
VERTEX
  8
LAYER_3
 10
152.4575
 20
36.9845
  0
VERTEX
  8
LAYER_3
 10
152.5643
 20
36.9421
 42
-0.1168262011
  0
VERTEX
  8
LAYER_3
 10
152.6422
 20
36.8611
 42
-0.1230288266
  0
VERTEX
  8
LAYER_3
 10
152.6718
 20
36.733
 42
-0.1795449175
  0
VERTEX
  8
LAYER_3
 10
152.6219
 20
36.5907
 42
-0.1695619646
  0
VERTEX
  8
LAYER_3
 10
152.4885
 20
36.5111
  0
VERTEX
  8
LAYER_3
 10
152.4885
 20
36.5084
 42
-0.1719890535
  0
VERTEX
  8
LAYER_3
 10
152.6553
 20
36.4302
 42
-0.2018462152
  0
VERTEX
  8
LAYER_3
 10
152.7214
 20
36.2496
 42
-0.1251382371
  0
VERTEX
  8
LAYER_3
 10
152.6942
 20
36.1325
 42
-0.1153486961
  0
VERTEX
  8
LAYER_3
 10
152.6181
 20
36.0419
 42
-0.08656795839
  0
VERTEX
  8
LAYER_3
 10
152.4972
 20
35.9844
 42
-0.06557363107
  0
VERTEX
  8
LAYER_3
 10
152.3373
 20
35.9637
  0
VERTEX
  8
LAYER_3
 10
152.0314
 20
35.9637
  0
SEQEND
  0
POLYLINE
  8
LAYER_3
 40
0.05
 41
0.05
 66
1
 10
0
 20
0
 30
0
 70
1
  0
VERTEX
  8
LAYER_3
 10
152.1365
 20
36.5445
  0
VERTEX
  8
LAYER_3
 10
152.348
 20
36.5445
  0
VERTEX
  8
LAYER_3
 10
152.4248
 20
36.5535
  0
VERTEX
  8
LAYER_3
 10
152.4951
 20
36.5831
  0
VERTEX
  8
LAYER_3
 10
152.5471
 20
36.6396
 42
0.1157679243
  0
VERTEX
  8
LAYER_3
 10
152.5667
 20
36.7258
  0
VERTEX
  8
LAYER_3
 10
152.5471
 20
36.8095
  0
VERTEX
  8
LAYER_3
 10
152.4941
 20
36.8656
  0
VERTEX
  8
LAYER_3
 10
152.4152
 20
36.897
  0
VERTEX
  8
LAYER_3
 10
152.3187
 20
36.9066
  0
VERTEX
  8
LAYER_3
 10
152.1365
 20
36.9066
  0
SEQEND
  0
POLYLINE
  8
LAYER_3
 40
0.05
 41
0.05
 66
1
 10
0
 20
0
 30
0
 70
1
  0
VERTEX
  8
LAYER_3
 10
152.1365
 20
36.0543
  0
VERTEX
  8
LAYER_3
 10
152.3321
 20
36.0543
  0
VERTEX
  8
LAYER_3
 10
152.4407
 20
36.0653
  0
VERTEX
  8
LAYER_3
 10
152.5313
 20
36.1001
 42
0.1172546835
  0
VERTEX
  8
LAYER_3
 10
152.5929
 20
36.1632
 42
0.1286909246
  0
VERTEX
  8
LAYER_3
 10
152.6164
 20
36.2558
 42
0.2499212344
  0
VERTEX
  8
LAYER_3
 10
152.5471
 20
36.4081
 42
0.1538083763
  0
VERTEX
  8
LAYER_3
 10
152.3511
 20
36.4584
  0
VERTEX
  8
LAYER_3
 10
152.1365
 20
36.4584
  0
SEQEND
  0
ENDBLK
  0
BLOCK
  8
LAYER_3
  2
AIGNBL03030014
 70
64
 10
0
 20
0
 30
0
  3
AIGNBL03030014
  0
POLYLINE
  8
LAYER_3
 40
0.05
 41
0.05
 66
1
 10
0
 20
0
 30
0
 70
1
  0
VERTEX
  8
LAYER_3
 10
153.1534
 20
35.9637
  0
VERTEX
  8
LAYER_3
 10
153.038
 20
35.9637
  0
VERTEX
  8
LAYER_3
 10
153.4849
 20
36.9969
  0
VERTEX
  8
LAYER_3
 10
153.5872
 20
36.9969
  0
VERTEX
  8
LAYER_3
 10
154.0306
 20
35.9637
  0
VERTEX
  8
LAYER_3
 10
153.9138
 20
35.9637
  0
VERTEX
  8
LAYER_3
 10
153.7997
 20
36.2352
  0
VERTEX
  8
LAYER_3
 10
153.2658
 20
36.2352
  0
SEQEND
  0
POLYLINE
  8
LAYER_3
 40
0.05
 41
0.05
 66
1
 10
0
 20
0
 30
0
 70
1
  0
VERTEX
  8
LAYER_3
 10
153.305
 20
36.3316
  0
VERTEX
  8
LAYER_3
 10
153.7605
 20
36.3316
  0
VERTEX
  8
LAYER_3
 10
153.5327
 20
36.8804
  0
SEQEND
  0
ENDBLK
  0
BLOCK
  8
LAYER_3
  2
AIGNBL03030015
 70
64
 10
0
 20
0
 30
0
  3
AIGNBL03030015
  0
POLYLINE
  8
LAYER_3
 40
0.05
 41
0.05
 66
1
 10
0
 20
0
 30
0
 70
1
  0
VERTEX
  8
LAYER_3
 10
154.7151
 20
35.9637
  0
VERTEX
  8
LAYER_3
 10
154.61
 20
35.9637
  0
VERTEX
  8
LAYER_3
 10
154.61
 20
36.9035
  0
VERTEX
  8
LAYER_3
 10
154.2638
 20
36.9035
  0
VERTEX
  8
LAYER_3
 10
154.2638
 20
36.9969
  0
VERTEX
  8
LAYER_3
 10
155.0606
 20
36.9969
  0
VERTEX
  8
LAYER_3
 10
155.0606
 20
36.9035
  0
VERTEX
  8
LAYER_3
 10
154.7151
 20
36.9035
  0
SEQEND
  0
ENDBLK
  0
BLOCK
  8
LAYER_3
  2
AIGNBL03030016
 70
64
 10
0
 20
0
 30
0
  3
AIGNBL03030016
  0
POLYLINE
  8
LAYER_3
 40
0.05
 41
0.05
 66
1
 10
0
 20
0
 30
0
 70
1
  0
VERTEX
  8
LAYER_3
 10
155.4169
 20
36.9969
  0
VERTEX
  8
LAYER_3
 10
155.5216
 20
36.9969
  0
VERTEX
  8
LAYER_3
 10
155.5216
 20
36.549
  0
VERTEX
  8
LAYER_3
 10
156.0852
 20
36.549
  0
VERTEX
  8
LAYER_3
 10
156.0852
 20
36.9969
  0
VERTEX
  8
LAYER_3
 10
156.1903
 20
36.9969
  0
VERTEX
  8
LAYER_3
 10
156.1903
 20
35.9637
  0
VERTEX
  8
LAYER_3
 10
156.0852
 20
35.9637
  0
VERTEX
  8
LAYER_3
 10
156.0852
 20
36.4529
  0
VERTEX
  8
LAYER_3
 10
155.5216
 20
36.4529
  0
VERTEX
  8
LAYER_3
 10
155.5216
 20
35.9637
  0
VERTEX
  8
LAYER_3
 10
155.4169
 20
35.9637
  0
SEQEND
  0
ENDBLK
  0
BLOCK
  8
LAYER_3
  2
AIGNBL03030017
 70
64
 10
0
 20
0
 30
0
  3
AIGNBL03030017
  0
POLYLINE
  8
LAYER_3
 40
0.05
 41
0.05
 66
1
 10
0
 20
0
 30
0
 70
1
  0
VERTEX
  8
LAYER_3
 10
156.7708
 20
35.9637
  0
VERTEX
  8
LAYER_3
 10
156.6657
 20
35.9637
  0
VERTEX
  8
LAYER_3
 10
156.6657
 20
36.9969
  0
VERTEX
  8
LAYER_3
 10
156.9696
 20
36.9969
  0
VERTEX
  8
LAYER_3
 10
157.1101
 20
36.9824
 42
-0.1032885834
  0
VERTEX
  8
LAYER_3
 10
157.2228
 20
36.9349
 42
-0.1281738609
  0
VERTEX
  8
LAYER_3
 10
157.2962
 20
36.8494
 42
-0.1081125707
  0
VERTEX
  8
LAYER_3
 10
157.3224
 20
36.7213
  0
VERTEX
  8
LAYER_3
 10
157.3024
 20
36.6176
  0
VERTEX
  8
LAYER_3
 10
157.2469
 20
36.5366
  0
VERTEX
  8
LAYER_3
 10
157.1635
 20
36.4818
  0
VERTEX
  8
LAYER_3
 10
157.0585
 20
36.4557
  0
VERTEX
  8
LAYER_3
 10
157.3606
 20
35.9637
  0
VERTEX
  8
LAYER_3
 10
157.2321
 20
35.9637
  0
VERTEX
  8
LAYER_3
 10
156.9461
 20
36.4467
  0
VERTEX
  8
LAYER_3
 10
156.7708
 20
36.4467
  0
SEQEND
  0
POLYLINE
  8
LAYER_3
 40
0.05
 41
0.05
 66
1
 10
0
 20
0
 30
0
 70
1
  0
VERTEX
  8
LAYER_3
 10
156.7708
 20
36.5373
  0
VERTEX
  8
LAYER_3
 10
156.9534
 20
36.5373
 42
0.153451873
  0
VERTEX
  8
LAYER_3
 10
157.1491
 20
36.5831
 42
0.2580279849
  0
VERTEX
  8
LAYER_3
 10
157.2176
 20
36.7213
  0
VERTEX
  8
LAYER_3
 10
157.1983
 20
36.8071
  0
VERTEX
  8
LAYER_3
 10
157.146
 20
36.8642
  0
VERTEX
  8
LAYER_3
 10
157.0643
 20
36.8963
  0
VERTEX
  8
LAYER_3
 10
156.9579
 20
36.9066
  0
VERTEX
  8
LAYER_3
 10
156.7708
 20
36.9066
  0
SEQEND
  0
ENDBLK
  0
BLOCK
  8
LAYER_3
  2
AIGNBL03030018
 70
64
 10
0
 20
0
 30
0
  3
AIGNBL03030018
  0
POLYLINE
  8
LAYER_3
 40
0.05
 41
0.05
 66
1
 10
0
 20
0
 30
0
 70
1
  0
VERTEX
  8
LAYER_3
 10
158.7627
 20
36.4805
 42
-0.09904480664
  0
VERTEX
  8
LAYER_3
 10
158.7221
 20
36.2631
 42
-0.0998654539
  0
VERTEX
  8
LAYER_3
 10
158.6088
 20
36.0915
 42
-0.09816046092
  0
VERTEX
  8
LAYER_3
 10
158.4382
 20
35.9785
 42
-0.09758412454
  0
VERTEX
  8
LAYER_3
 10
158.2243
 20
35.9375
 42
-0.09999517154
  0
VERTEX
  8
LAYER_3
 10
158.0103
 20
35.9785
 42
-0.09953435427
  0
VERTEX
  8
LAYER_3
 10
157.8398
 20
36.0915
 42
-0.09864299929
  0
VERTEX
  8
LAYER_3
 10
157.7268
 20
36.2631
 42
-0.09653980076
  0
VERTEX
  8
LAYER_3
 10
157.6862
 20
36.4805
 42
-0.1004594477
  0
VERTEX
  8
LAYER_3
 10
157.7268
 20
36.6978
 42
-0.1008040346
  0
VERTEX
  8
LAYER_3
 10
157.8398
 20
36.8694
 42
-0.09763764092
  0
VERTEX
  8
LAYER_3
 10
158.0103
 20
36.9824
 42
-0.09752919603
  0
VERTEX
  8
LAYER_3
 10
158.2243
 20
37.0234
 42
-0.1000174927
  0
VERTEX
  8
LAYER_3
 10
158.4382
 20
36.9824
 42
-0.1006724022
  0
VERTEX
  8
LAYER_3
 10
158.6088
 20
36.8694
 42
-0.09709867792
  0
VERTEX
  8
LAYER_3
 10
158.7221
 20
36.6978
 42
-0.09585658013
  0
SEQEND
  0
POLYLINE
  8
LAYER_3
 40
0.05
 41
0.05
 66
1
 10
0
 20
0
 30
0
 70
1
  0
VERTEX
  8
LAYER_3
 10
158.6518
 20
36.4798
 42
0.08852014676
  0
VERTEX
  8
LAYER_3
 10
158.6225
 20
36.6517
 42
0.09973444611
  0
VERTEX
  8
LAYER_3
 10
158.5378
 20
36.795
 42
0.1024799068
  0
VERTEX
  8
LAYER_3
 10
158.4031
 20
36.8932
 42
0.1060321998
  0
VERTEX
  8
LAYER_3
 10
158.2243
 20
36.93
 42
0.1116325688
  0
VERTEX
  8
LAYER_3
 10
158.0455
 20
36.8932
 42
0.1060506217
  0
VERTEX
  8
LAYER_3
 10
157.9104
 20
36.795
 42
0.09526104957
  0
VERTEX
  8
LAYER_3
 10
157.8257
 20
36.6517
 42
0.08440311357
  0
VERTEX
  8
LAYER_3
 10
157.7967
 20
36.4798
 42
0.08751084222
  0
VERTEX
  8
LAYER_3
 10
157.8257
 20
36.3079
 42
0.09826867926
  0
VERTEX
  8
LAYER_3
 10
157.9104
 20
36.1649
 42
0.09908422267
  0
VERTEX
  8
LAYER_3
 10
158.0455
 20
36.0674
 42
0.1061654103
  0
VERTEX
  8
LAYER_3
 10
158.2243
 20
36.0309
 42
0.1124388132
  0
VERTEX
  8
LAYER_3
 10
158.4031
 20
36.0674
 42
0.1028204009
  0
VERTEX
  8
LAYER_3
 10
158.5378
 20
36.1649
 42
0.09882210045
  0
VERTEX
  8
LAYER_3
 10
158.6225
 20
36.3079
 42
0.08589740831
  0
SEQEND
  0
ENDBLK
  0
BLOCK
  8
LAYER_3
  2
AIGNBL03030019
 70
64
 10
0
 20
0
 30
0
  3
AIGNBL03030019
  0
POLYLINE
  8
LAYER_3
 40
0.05
 41
0.05
 66
1
 10
0
 20
0
 30
0
 70
1
  0
VERTEX
  8
LAYER_3
 10
160.2045
 20
36.4805
 42
-0.1019307791
  0
VERTEX
  8
LAYER_3
 10
160.1635
 20
36.2631
 42
-0.1000344077
  0
VERTEX
  8
LAYER_3
 10
160.0509
 20
36.0915
 42
-0.09685913213
  0
VERTEX
  8
LAYER_3
 10
159.88
 20
35.9785
 42
-0.09758412454
  0
VERTEX
  8
LAYER_3
 10
159.6661
 20
35.9375
 42
-0.1006569764
  0
VERTEX
  8
LAYER_3
 10
159.4525
 20
35.9785
 42
-0.1011318925
  0
VERTEX
  8
LAYER_3
 10
159.2816
 20
36.0915
 42
-0.09735230618
  0
VERTEX
  8
LAYER_3
 10
159.1682
 20
36.2631
 42
-0.09653980076
  0
VERTEX
  8
LAYER_3
 10
159.1276
 20
36.4805
 42
-0.1004594477
  0
VERTEX
  8
LAYER_3
 10
159.1682
 20
36.6978
 42
-0.1001669327
  0
VERTEX
  8
LAYER_3
 10
159.2816
 20
36.8694
 42
-0.09867928162
  0
VERTEX
  8
LAYER_3
 10
159.4525
 20
36.9824
 42
-0.09791748865
  0
VERTEX
  8
LAYER_3
 10
159.6661
 20
37.0234
 42
-0.1000174927
  0
VERTEX
  8
LAYER_3
 10
159.88
 20
36.9824
 42
-0.0983303992
  0
VERTEX
  8
LAYER_3
 10
160.0509
 20
36.8694
 42
-0.09781653482
  0
VERTEX
  8
LAYER_3
 10
160.1635
 20
36.6978
 42
-0.09788199595
  0
SEQEND
  0
POLYLINE
  8
LAYER_3
 40
0.05
 41
0.05
 66
1
 10
0
 20
0
 30
0
 70
1
  0
VERTEX
  8
LAYER_3
 10
160.0936
 20
36.4798
 42
0.08634913196
  0
VERTEX
  8
LAYER_3
 10
160.0646
 20
36.6517
 42
0.09721101768
  0
VERTEX
  8
LAYER_3
 10
159.9799
 20
36.795
 42
0.1030853098
  0
VERTEX
  8
LAYER_3
 10
159.8449
 20
36.8932
 42
0.1060321998
  0
VERTEX
  8
LAYER_3
 10
159.6661
 20
36.93
 42
0.1116325688
  0
VERTEX
  8
LAYER_3
 10
159.4873
 20
36.8932
 42
0.1058584166
  0
VERTEX
  8
LAYER_3
 10
159.3525
 20
36.795
 42
0.09787799956
  0
VERTEX
  8
LAYER_3
 10
159.2678
 20
36.6517
 42
0.08491464556
  0
VERTEX
  8
LAYER_3
 10
159.2385
 20
36.4798
 42
0.08693146424
  0
VERTEX
  8
LAYER_3
 10
159.2678
 20
36.3079
 42
0.1009797617
  0
VERTEX
  8
LAYER_3
 10
159.3525
 20
36.1649
 42
0.09947922476
  0
VERTEX
  8
LAYER_3
 10
159.4873
 20
36.0674
 42
0.1061654103
  0
VERTEX
  8
LAYER_3
 10
159.6661
 20
36.0309
 42
0.1124388132
  0
VERTEX
  8
LAYER_3
 10
159.8449
 20
36.0674
 42
0.103362111
  0
VERTEX
  8
LAYER_3
 10
159.9799
 20
36.1649
 42
0.09450022685
  0
VERTEX
  8
LAYER_3
 10
160.0646
 20
36.3079
 42
0.08466662837
  0
SEQEND
  0
ENDBLK
  0
BLOCK
  8
LAYER_3
  2
AIGNBL0303001A
 70
64
 10
0
 20
0
 30
0
  3
AIGNBL0303001A
  0
POLYLINE
  8
LAYER_3
 40
0.05
 41
0.05
 66
1
 10
0
 20
0
 30
0
 70
1
  0
VERTEX
  8
LAYER_3
 10
161.1354
 20
36.1418
  0
VERTEX
  8
LAYER_3
 10
161.1371
 20
36.1418
  0
VERTEX
  8
LAYER_3
 10
161.4826
 20
36.9969
  0
VERTEX
  8
LAYER_3
 10
161.6435
 20
36.9969
  0
VERTEX
  8
LAYER_3
 10
161.6435
 20
35.9637
  0
VERTEX
  8
LAYER_3
 10
161.5381
 20
35.9637
  0
VERTEX
  8
LAYER_3
 10
161.5381
 20
36.8611
  0
VERTEX
  8
LAYER_3
 10
161.5354
 20
36.8611
  0
VERTEX
  8
LAYER_3
 10
161.1619
 20
35.9637
  0
VERTEX
  8
LAYER_3
 10
161.1064
 20
35.9637
  0
VERTEX
  8
LAYER_3
 10
160.7327
 20
36.8611
  0
VERTEX
  8
LAYER_3
 10
160.7299
 20
36.8611
  0
VERTEX
  8
LAYER_3
 10
160.7299
 20
35.9637
  0
VERTEX
  8
LAYER_3
 10
160.6248
 20
35.9637
  0
VERTEX
  8
LAYER_3
 10
160.6248
 20
36.9969
  0
VERTEX
  8
LAYER_3
 10
160.7854
 20
36.9969
  0
SEQEND
  0
ENDBLK
  0
BLOCK
  8
LAYER_3
  2
AIGNBL0303001B
 70
64
 10
0
 20
0
 30
0
  3
AIGNBL0303001B
  0
POLYLINE
  8
LAYER_3
 40
0.05
 41
0.05
 66
1
 10
0
 20
0
 30
0
 70
1
  0
VERTEX
  8
LAYER_3
 10
162.7901
 20
36.0574
  0
VERTEX
  8
LAYER_3
 10
163.3433
 20
36.0574
  0
VERTEX
  8
LAYER_3
 10
163.3433
 20
35.9637
  0
VERTEX
  8
LAYER_3
 10
162.685
 20
35.9637
  0
VERTEX
  8
LAYER_3
 10
162.685
 20
36.9969
  0
VERTEX
  8
LAYER_3
 10
163.3258
 20
36.9969
  0
VERTEX
  8
LAYER_3
 10
163.3258
 20
36.9035
  0
VERTEX
  8
LAYER_3
 10
162.7901
 20
36.9035
  0
VERTEX
  8
LAYER_3
 10
162.7901
 20
36.549
  0
VERTEX
  8
LAYER_3
 10
163.2906
 20
36.549
  0
VERTEX
  8
LAYER_3
 10
163.2906
 20
36.4557
  0
VERTEX
  8
LAYER_3
 10
162.7901
 20
36.4557
  0
SEQEND
  0
ENDBLK
  0
BLOCK
  8
LAYER_3
  2
AIGNBL0303001C
 70
64
 10
0
 20
0
 30
0
  3
AIGNBL0303001C
  0
POLYLINE
  8
LAYER_3
 40
0.05
 41
0.05
 66
1
 10
0
 20
0
 30
0
 70
1
  0
VERTEX
  8
LAYER_3
 10
164.0885
 20
36.5797
  0
VERTEX
  8
LAYER_3
 10
164.3707
 20
36.9969
  0
VERTEX
  8
LAYER_3
 10
164.4957
 20
36.9969
  0
VERTEX
  8
LAYER_3
 10
164.1533
 20
36.5053
  0
VERTEX
  8
LAYER_3
 10
164.5326
 20
35.9637
  0
VERTEX
  8
LAYER_3
 10
164.4013
 20
35.9637
  0
VERTEX
  8
LAYER_3
 10
164.0858
 20
36.4295
  0
VERTEX
  8
LAYER_3
 10
163.7723
 20
35.9637
  0
VERTEX
  8
LAYER_3
 10
163.6407
 20
35.9637
  0
VERTEX
  8
LAYER_3
 10
164.0203
 20
36.5066
  0
VERTEX
  8
LAYER_3
 10
163.6744
 20
36.9969
  0
VERTEX
  8
LAYER_3
 10
163.806
 20
36.9969
  0
SEQEND
  0
ENDBLK
  0
BLOCK
  8
LAYER_3
  2
AIGNBL0303001D
 70
64
 10
0
 20
0
 30
0
  3
AIGNBL0303001D
  0
POLYLINE
  8
LAYER_3
 40
0.05
 41
0.05
 66
1
 10
0
 20
0
 30
0
 70
1
  0
VERTEX
  8
LAYER_3
 10
164.8988
 20
36.9969
  0
VERTEX
  8
LAYER_3
 10
165.191
 20
36.9969
  0
VERTEX
  8
LAYER_3
 10
165.3339
 20
36.9803
 42
-0.104442724
  0
VERTEX
  8
LAYER_3
 10
165.4438
 20
36.929
 42
-0.1219459081
  0
VERTEX
  8
LAYER_3
 10
165.5148
 20
36.8429
 42
-0.1032545831
  0
VERTEX
  8
LAYER_3
 10
165.5392
 20
36.7213
 42
-0.1239274235
  0
VERTEX
  8
LAYER_3
 10
165.5141
 20
36.5993
 42
-0.1163667494
  0
VERTEX
  8
LAYER_3
 10
165.4424
 20
36.5132
 42
-0.08715194998
  0
VERTEX
  8
LAYER_3
 10
165.3315
 20
36.4615
 42
-0.06108707382
  0
VERTEX
  8
LAYER_3
 10
165.1878
 20
36.4439
  0
VERTEX
  8
LAYER_3
 10
165.0039
 20
36.4439
  0
VERTEX
  8
LAYER_3
 10
165.0039
 20
35.9637
  0
VERTEX
  8
LAYER_3
 10
164.8988
 20
35.9637
  0
SEQEND
  0
POLYLINE
  8
LAYER_3
 40
0.05
 41
0.05
 66
1
 10
0
 20
0
 30
0
 70
1
  0
VERTEX
  8
LAYER_3
 10
165.0039
 20
36.5328
  0
VERTEX
  8
LAYER_3
 10
165.1816
 20
36.5328
 42
0.1698628217
  0
VERTEX
  8
LAYER_3
 10
165.3701
 20
36.5811
 42
0.2445965084
  0
VERTEX
  8
LAYER_3
 10
165.4345
 20
36.7213
 42
0.2593003012
  0
VERTEX
  8
LAYER_3
 10
165.368
 20
36.8622
 42
0.143072224
  0
VERTEX
  8
LAYER_3
 10
165.1816
 20
36.9066
  0
VERTEX
  8
LAYER_3
 10
165.0039
 20
36.9066
  0
SEQEND
  0
ENDBLK
  0
BLOCK
  8
LAYER_3
  2
AIGNBL0303001E
 70
64
 10
0
 20
0
 30
0
  3
AIGNBL0303001E
  0
POLYLINE
  8
LAYER_3
 40
0.05
 41
0.05
 66
1
 10
0
 20
0
 30
0
 70
1
  0
VERTEX
  8
LAYER_3
 10
166.0515
 20
36.0574
  0
VERTEX
  8
LAYER_3
 10
166.6048
 20
36.0574
  0
VERTEX
  8
LAYER_3
 10
166.6048
 20
35.9637
  0
VERTEX
  8
LAYER_3
 10
165.9465
 20
35.9637
  0
VERTEX
  8
LAYER_3
 10
165.9465
 20
36.9969
  0
VERTEX
  8
LAYER_3
 10
166.5872
 20
36.9969
  0
VERTEX
  8
LAYER_3
 10
166.5872
 20
36.9035
  0
VERTEX
  8
LAYER_3
 10
166.0515
 20
36.9035
  0
VERTEX
  8
LAYER_3
 10
166.0515
 20
36.549
  0
VERTEX
  8
LAYER_3
 10
166.5521
 20
36.549
  0
VERTEX
  8
LAYER_3
 10
166.5521
 20
36.4557
  0
VERTEX
  8
LAYER_3
 10
166.0515
 20
36.4557
  0
SEQEND
  0
ENDBLK
  0
BLOCK
  8
LAYER_3
  2
AIGNBL0303001F
 70
64
 10
0
 20
0
 30
0
  3
AIGNBL0303001F
  0
POLYLINE
  8
LAYER_3
 40
0.05
 41
0.05
 66
1
 10
0
 20
0
 30
0
 70
1
  0
VERTEX
  8
LAYER_3
 10
167.1168
 20
35.9637
  0
VERTEX
  8
LAYER_3
 10
167.0117
 20
35.9637
  0
VERTEX
  8
LAYER_3
 10
167.0117
 20
36.9969
  0
VERTEX
  8
LAYER_3
 10
167.3155
 20
36.9969
  0
VERTEX
  8
LAYER_3
 10
167.4561
 20
36.9824
 42
-0.1033890198
  0
VERTEX
  8
LAYER_3
 10
167.5688
 20
36.9349
 42
-0.1259996581
  0
VERTEX
  8
LAYER_3
 10
167.6425
 20
36.8494
 42
-0.1064650891
  0
VERTEX
  8
LAYER_3
 10
167.6683
 20
36.7213
  0
VERTEX
  8
LAYER_3
 10
167.6483
 20
36.6176
  0
VERTEX
  8
LAYER_3
 10
167.5929
 20
36.5366
  0
VERTEX
  8
LAYER_3
 10
167.5095
 20
36.4818
  0
VERTEX
  8
LAYER_3
 10
167.4044
 20
36.4557
  0
VERTEX
  8
LAYER_3
 10
167.7066
 20
35.9637
  0
VERTEX
  8
LAYER_3
 10
167.5781
 20
35.9637
  0
VERTEX
  8
LAYER_3
 10
167.2921
 20
36.4467
  0
VERTEX
  8
LAYER_3
 10
167.1168
 20
36.4467
  0
SEQEND
  0
POLYLINE
  8
LAYER_3
 40
0.05
 41
0.05
 66
1
 10
0
 20
0
 30
0
 70
1
  0
VERTEX
  8
LAYER_3
 10
167.1168
 20
36.5373
  0
VERTEX
  8
LAYER_3
 10
167.2993
 20
36.5373
 42
0.1542719415
  0
VERTEX
  8
LAYER_3
 10
167.495
 20
36.5831
 42
0.2583775622
  0
VERTEX
  8
LAYER_3
 10
167.5636
 20
36.7213
  0
VERTEX
  8
LAYER_3
 10
167.5446
 20
36.8071
  0
VERTEX
  8
LAYER_3
 10
167.4919
 20
36.8642
  0
VERTEX
  8
LAYER_3
 10
167.4103
 20
36.8963
  0
VERTEX
  8
LAYER_3
 10
167.3038
 20
36.9066
  0
VERTEX
  8
LAYER_3
 10
167.1168
 20
36.9066
  0
SEQEND
  0
ENDBLK
  0
BLOCK
  8
LAYER_3
  2
AIGNBL03030020
 70
64
 10
0
 20
0
 30
0
  3
AIGNBL03030020
  0
POLYLINE
  8
LAYER_3
 40
0.05
 41
0.05
 66
1
 10
0
 20
0
 30
0
 70
1
  0
VERTEX
  8
LAYER_3
 10
168.1923
 20
35.9637
  0
VERTEX
  8
LAYER_3
 10
168.0876
 20
35.9637
  0
VERTEX
  8
LAYER_3
 10
168.0876
 20
36.9969
  0
VERTEX
  8
LAYER_3
 10
168.1923
 20
36.9969
  0
SEQEND
  0
ENDBLK
  0
BLOCK
  8
LAYER_3
  2
AIGNBL03030021
 70
64
 10
0
 20
0
 30
0
  3
AIGNBL03030021
  0
POLYLINE
  8
LAYER_3
 40
0.05
 41
0.05
 66
1
 10
0
 20
0
 30
0
 70
1
  0
VERTEX
  8
LAYER_3
 10
168.7732
 20
36.0574
  0
VERTEX
  8
LAYER_3
 10
169.3261
 20
36.0574
  0
VERTEX
  8
LAYER_3
 10
169.3261
 20
35.9637
  0
VERTEX
  8
LAYER_3
 10
168.6681
 20
35.9637
  0
VERTEX
  8
LAYER_3
 10
168.6681
 20
36.9969
  0
VERTEX
  8
LAYER_3
 10
169.3089
 20
36.9969
  0
VERTEX
  8
LAYER_3
 10
169.3089
 20
36.9035
  0
VERTEX
  8
LAYER_3
 10
168.7732
 20
36.9035
  0
VERTEX
  8
LAYER_3
 10
168.7732
 20
36.549
  0
VERTEX
  8
LAYER_3
 10
169.2737
 20
36.549
  0
VERTEX
  8
LAYER_3
 10
169.2737
 20
36.4557
  0
VERTEX
  8
LAYER_3
 10
168.7732
 20
36.4557
  0
SEQEND
  0
ENDBLK
  0
BLOCK
  8
LAYER_3
  2
AIGNBL03030022
 70
64
 10
0
 20
0
 30
0
  3
AIGNBL03030022
  0
POLYLINE
  8
LAYER_3
 40
0.05
 41
0.05
 66
1
 10
0
 20
0
 30
0
 70
1
  0
VERTEX
  8
LAYER_3
 10
170.4661
 20
36.117
  0
VERTEX
  8
LAYER_3
 10
170.4688
 20
36.117
  0
VERTEX
  8
LAYER_3
 10
170.4688
 20
36.9969
  0
VERTEX
  8
LAYER_3
 10
170.5739
 20
36.9969
  0
VERTEX
  8
LAYER_3
 10
170.5739
 20
35.9637
  0
VERTEX
  8
LAYER_3
 10
170.4427
 20
35.9637
  0
VERTEX
  8
LAYER_3
 10
169.8415
 20
36.8525
  0
VERTEX
  8
LAYER_3
 10
169.8384
 20
36.8525
  0
VERTEX
  8
LAYER_3
 10
169.8384
 20
35.9637
  0
VERTEX
  8
LAYER_3
 10
169.7333
 20
35.9637
  0
VERTEX
  8
LAYER_3
 10
169.7333
 20
36.9969
  0
VERTEX
  8
LAYER_3
 10
169.8649
 20
36.9969
  0
SEQEND
  0
ENDBLK
  0
BLOCK
  8
LAYER_3
  2
AIGNBL03030023
 70
64
 10
0
 20
0
 30
0
  3
AIGNBL03030023
  0
POLYLINE
  8
LAYER_3
 40
0.05
 41
0.05
 66
1
 10
0
 20
0
 30
0
 70
1
  0
VERTEX
  8
LAYER_3
 10
171.9196
 20
36.1315
  0
VERTEX
  8
LAYER_3
 10
171.8558
 20
36.0571
  0
VERTEX
  8
LAYER_3
 10
171.7697
 20
35.9954
  0
VERTEX
  8
LAYER_3
 10
171.6615
 20
35.953
  0
VERTEX
  8
LAYER_3
 10
171.5327
 20
35.9375
 42
-0.0997799169
  0
VERTEX
  8
LAYER_3
 10
171.3167
 20
35.9785
 42
-0.102530266
  0
VERTEX
  8
LAYER_3
 10
171.1461
 20
36.0915
 42
-0.1000387679
  0
VERTEX
  8
LAYER_3
 10
171.0345
 20
36.2631
 42
-0.09630702324
  0
VERTEX
  8
LAYER_3
 10
170.9942
 20
36.4805
 42
-0.1019529564
  0
VERTEX
  8
LAYER_3
 10
171.0352
 20
36.6978
 42
-0.09989904409
  0
VERTEX
  8
LAYER_3
 10
171.1479
 20
36.8694
 42
-0.09705342834
  0
VERTEX
  8
LAYER_3
 10
171.3187
 20
36.9824
 42
-0.09752919603
  0
VERTEX
  8
LAYER_3
 10
171.5327
 20
37.0234
  0
VERTEX
  8
LAYER_3
 10
171.6443
 20
37.0113
  0
VERTEX
  8
LAYER_3
 10
171.7473
 20
36.9779
  0
VERTEX
  8
LAYER_3
 10
171.8348
 20
36.9263
  0
VERTEX
  8
LAYER_3
 10
171.9006
 20
36.8584
  0
VERTEX
  8
LAYER_3
 10
171.8131
 20
36.794
  0
VERTEX
  8
LAYER_3
 10
171.7697
 20
36.8439
  0
VERTEX
  8
LAYER_3
 10
171.7063
 20
36.8877
  0
VERTEX
  8
LAYER_3
 10
171.6267
 20
36.9183
  0
VERTEX
  8
LAYER_3
 10
171.5341
 20
36.93
 42
0.1106055686
  0
VERTEX
  8
LAYER_3
 10
171.3539
 20
36.8935
 42
0.1040964846
  0
VERTEX
  8
LAYER_3
 10
171.2188
 20
36.7953
 42
0.09554708239
  0
VERTEX
  8
LAYER_3
 10
171.1341
 20
36.652
 42
0.08465136707
  0
VERTEX
  8
LAYER_3
 10
171.1051
 20
36.4805
 42
0.09018441759
  0
VERTEX
  8
LAYER_3
 10
171.1351
 20
36.3089
 42
0.09834905538
  0
VERTEX
  8
LAYER_3
 10
171.2206
 20
36.1656
 42
0.1037153981
  0
VERTEX
  8
LAYER_3
 10
171.3556
 20
36.0674
 42
0.1064777274
  0
VERTEX
  8
LAYER_3
 10
171.5341
 20
36.0309
 42
0.1093190709
  0
VERTEX
  8
LAYER_3
 10
171.7032
 20
36.0674
 42
0.1366622766
  0
VERTEX
  8
LAYER_3
 10
171.8376
 20
36.1842
  0
SEQEND
  0
ENDBLK
  0
BLOCK
  8
LAYER_3
  2
AIGNBL03030024
 70
64
 10
0
 20
0
 30
0
  3
AIGNBL03030024
  0
POLYLINE
  8
LAYER_3
 40
0.05
 41
0.05
 66
1
 10
0
 20
0
 30
0
 70
1
  0
VERTEX
  8
LAYER_3
 10
172.4067
 20
36.0574
  0
VERTEX
  8
LAYER_3
 10
172.96
 20
36.0574
  0
VERTEX
  8
LAYER_3
 10
172.96
 20
35.9637
  0
VERTEX
  8
LAYER_3
 10
172.3016
 20
35.9637
  0
VERTEX
  8
LAYER_3
 10
172.3016
 20
36.9969
  0
VERTEX
  8
LAYER_3
 10
172.9424
 20
36.9969
  0
VERTEX
  8
LAYER_3
 10
172.9424
 20
36.9035
  0
VERTEX
  8
LAYER_3
 10
172.4067
 20
36.9035
  0
VERTEX
  8
LAYER_3
 10
172.4067
 20
36.549
  0
VERTEX
  8
LAYER_3
 10
172.9073
 20
36.549
  0
VERTEX
  8
LAYER_3
 10
172.9073
 20
36.4557
  0
VERTEX
  8
LAYER_3
 10
172.4067
 20
36.4557
  0
SEQEND
  0
ENDBLK
  0
BLOCK
  8
LAYER_3
  2
AIGNBL03020004
 70
64
 10
0
 20
0
 30
0
  3
AIGNBL03020004
  0
INSERT
  8
LAYER_3
  2
AIGNBL03030005
 10
0
 20
0
 30
0
  0
ENDBLK
  0
BLOCK
  8
LAYER_3
  2
AIGNBL0302000D
 70
64
 10
0
 20
0
 30
0
  3
AIGNBL0302000D
  0
INSERT
  8
LAYER_3
  2
AIGNBL0303000E
 10
0
 20
0
 30
0
  0
INSERT
  8
LAYER_3
  2
AIGNBL0303000F
 10
0
 20
0
 30
0
  0
INSERT
  8
LAYER_3
  2
AIGNBL03030010
 10
0
 20
0
 30
0
  0
INSERT
  8
LAYER_3
  2
AIGNBL03030011
 10
0
 20
0
 30
0
  0
INSERT
  8
LAYER_3
  2
AIGNBL03030012
 10
0
 20
0
 30
0
  0
INSERT
  8
LAYER_3
  2
AIGNBL03030013
 10
0
 20
0
 30
0
  0
INSERT
  8
LAYER_3
  2
AIGNBL03030014
 10
0
 20
0
 30
0
  0
INSERT
  8
LAYER_3
  2
AIGNBL03030015
 10
0
 20
0
 30
0
  0
INSERT
  8
LAYER_3
  2
AIGNBL03030016
 10
0
 20
0
 30
0
  0
INSERT
  8
LAYER_3
  2
AIGNBL03030017
 10
0
 20
0
 30
0
  0
INSERT
  8
LAYER_3
  2
AIGNBL03030018
 10
0
 20
0
 30
0
  0
INSERT
  8
LAYER_3
  2
AIGNBL03030019
 10
0
 20
0
 30
0
  0
INSERT
  8
LAYER_3
  2
AIGNBL0303001A
 10
0
 20
0
 30
0
  0
INSERT
  8
LAYER_3
  2
AIGNBL0303001B
 10
0
 20
0
 30
0
  0
INSERT
  8
LAYER_3
  2
AIGNBL0303001C
 10
0
 20
0
 30
0
  0
INSERT
  8
LAYER_3
  2
AIGNBL0303001D
 10
0
 20
0
 30
0
  0
INSERT
  8
LAYER_3
  2
AIGNBL0303001E
 10
0
 20
0
 30
0
  0
INSERT
  8
LAYER_3
  2
AIGNBL0303001F
 10
0
 20
0
 30
0
  0
INSERT
  8
LAYER_3
  2
AIGNBL03030020
 10
0
 20
0
 30
0
  0
INSERT
  8
LAYER_3
  2
AIGNBL03030021
 10
0
 20
0
 30
0
  0
INSERT
  8
LAYER_3
  2
AIGNBL03030022
 10
0
 20
0
 30
0
  0
INSERT
  8
LAYER_3
  2
AIGNBL03030023
 10
0
 20
0
 30
0
  0
INSERT
  8
LAYER_3
  2
AIGNBL03030024
 10
0
 20
0
 30
0
  0
ENDBLK
  0
BLOCK
  8
LAYER_3
  2
AIGNBL03020026
 70
64
 10
0
 20
0
 30
0
  3
AIGNBL03020026
  0
POLYLINE
  8
LAYER_3
 40
0.05
 41
0.05
 66
1
 10
0
 20
0
 30
0
  0
VERTEX
  8
LAYER_3
 10
-1.196
 20
217.6012
 42
-0.04245719054
  0
VERTEX
  8
LAYER_3
 10
-1.2437
 20
216.7495
 42
-0.1145799327
  0
VERTEX
  8
LAYER_3
 10
-1.4854
 20
216.1042
 42
-0.03657724702
  0
VERTEX
  8
LAYER_3
 10
-1.5732
 20
216.0054
 42
-0.1577844027
  0
VERTEX
  8
LAYER_3
 10
-2.1025
 20
215.7362
 42
-0.04286355862
  0
VERTEX
  8
LAYER_3
 10
-2.3408
 20
215.7164
 42
-0.1461347274
  0
VERTEX
  8
LAYER_3
 10
-2.9525
 20
215.8874
 42
-0.04825720136
  0
VERTEX
  8
LAYER_3
 10
-3.0956
 20
216.0054
 42
-0.1514389093
  0
VERTEX
  8
LAYER_3
 10
-3.3903
 20
216.5711
 42
-0.04033585951
  0
VERTEX
  8
LAYER_3
 10
-3.4563
 20
217.0249
 42
-0.01781626242
  0
VERTEX
  8
LAYER_3
 10
-3.4732
 20
217.6012
 42
-0.04130006014
  0
VERTEX
  8
LAYER_3
 10
-3.4273
 20
218.4296
 42
-0.1151149684
  0
VERTEX
  8
LAYER_3
 10
-3.1834
 20
219.0859
 42
-0.03654153753
  0
VERTEX
  8
LAYER_3
 10
-3.0956
 20
219.1846
 42
-0.2075936136
  0
VERTEX
  8
LAYER_3
 10
-2.3408
 20
219.4733
 42
-0.1450929454
  0
VERTEX
  8
LAYER_3
 10
-1.7165
 20
219.3023
 42
-0.04835174358
  0
VERTEX
  8
LAYER_3
 10
-1.5732
 20
219.1846
 42
-0.1513451311
  0
VERTEX
  8
LAYER_3
 10
-1.2787
 20
218.6202
 42
-0.04039310281
  0
VERTEX
  8
LAYER_3
 10
-1.2128
 20
218.1697
 42
-0.01794217025
  0
VERTEX
  8
LAYER_3
 10
-1.196
 20
217.6012
  0
SEQEND
  0
POLYLINE
  8
LAYER_3
 40
0.05
 41
0.05
 66
1
 10
0
 20
0
 30
0
  0
VERTEX
  8
LAYER_3
 10
0.4394
 20
217.6012
 42
0.03175065208
  0
VERTEX
  8
LAYER_3
 10
0.3919
 20
218.5427
 42
0.07858555415
  0
VERTEX
  8
LAYER_3
 10
0.123
 20
219.5272
 42
0.07786217308
  0
VERTEX
  8
LAYER_3
 10
-0.303
 20
220.1395
 42
0.1422741765
  0
VERTEX
  8
LAYER_3
 10
-1.5044
 20
220.8409
 42
0.06575783118
  0
VERTEX
  8
LAYER_3
 10
-2.3408
 20
220.9436
 42
0.08626276489
  0
VERTEX
  8
LAYER_3
 10
-3.3995
 20
220.7669
 42
0.1130938839
  0
VERTEX
  8
LAYER_3
 10
-4.3661
 20
220.1395
 42
0.09874851938
  0
VERTEX
  8
LAYER_3
 10
-4.8748
 20
219.3361
 42
0.04046642204
  0
VERTEX
  8
LAYER_3
 10
-5.006
 20
218.8809
 42
0.03221243423
  0
VERTEX
  8
LAYER_3
 10
-5.0854
 20
218.2915
 42
0.01857787638
  0
VERTEX
  8
LAYER_3
 10
-5.1082
 20
217.6012
 42
0.0314952959
  0
VERTEX
  8
LAYER_3
 10
-5.0608
 20
216.6571
 42
0.07798081448
  0
VERTEX
  8
LAYER_3
 10
-4.7922
 20
215.6655
 42
0.07854437857
  0
VERTEX
  8
LAYER_3
 10
-4.3661
 20
215.0504
 42
0.1827570447
  0
VERTEX
  8
LAYER_3
 10
-2.668
 20
214.2614
 42
0.02310613048
  0
VERTEX
  8
LAYER_3
 10
-2.3408
 20
214.2464
 42
0.08562149542
  0
VERTEX
  8
LAYER_3
 10
-1.2772
 20
214.4231
 42
0.11295963
  0
VERTEX
  8
LAYER_3
 10
-0.303
 20
215.0504
 42
0.1497181056
  0
VERTEX
  8
LAYER_3
 10
0.3325
 20
216.2722
 42
0.03273812963
  0
VERTEX
  8
LAYER_3
 10
0.4143
 20
216.8609
 42
0.01955851524
  0
VERTEX
  8
LAYER_3
 10
0.4394
 20
217.6012
  0
SEQEND
  0
POLYLINE
  8
LAYER_3
 40
0.05
 41
0.05
 66
1
 10
0
 20
0
 30
0
  0
VERTEX
  8
LAYER_3
 10
-11.3166
 20
218.2044
  0
VERTEX
  8
LAYER_3
 10
-13.8074
 20
218.2044
 42
-0.1126267973
  0
VERTEX
  8
LAYER_3
 10
-13.6562
 20
218.9079
 42
-0.1394755972
  0
VERTEX
  8
LAYER_3
 10
-13.2507
 20
219.3934
 42
-0.1317755903
  0
VERTEX
  8
LAYER_3
 10
-12.676
 20
219.5824
 42
-0.01996342929
  0
VERTEX
  8
LAYER_3
 10
-12.562
 20
219.5866
 42
-0.137467943
  0
VERTEX
  8
LAYER_3
 10
-11.8991
 20
219.4101
 42
-0.150691583
  0
VERTEX
  8
LAYER_3
 10
-11.4672
 20
218.9079
 42
-0.1174358853
  0
VERTEX
  8
LAYER_3
 10
-11.3166
 20
218.2044
  0
SEQEND
  0
POLYLINE
  8
LAYER_3
 40
0.05
 41
0.05
 66
1
 10
0
 20
0
 30
0
 70
1
  0
VERTEX
  8
LAYER_3
 10
-9.7064
 20
217.0861
  0
VERTEX
  8
LAYER_3
 10
-9.7064
 20
217.7772
 42
0.07162688635
  0
VERTEX
  8
LAYER_3
 10
-9.8733
 20
218.9838
 42
0.08028639799
  0
VERTEX
  8
LAYER_3
 10
-10.2989
 20
219.866
 42
0.08656554483
  0
VERTEX
  8
LAYER_3
 10
-10.9135
 20
220.4722
 42
0.08455920349
  0
VERTEX
  8
LAYER_3
 10
-11.6929
 20
220.8316
 42
0.0690272402
  0
VERTEX
  8
LAYER_3
 10
-12.562
 20
220.9436
 42
0.08516353756
  0
VERTEX
  8
LAYER_3
 10
-13.5923
 20
220.7733
 42
0.2152031234
  0
VERTEX
  8
LAYER_3
 10
-15.1128
 20
219.2869
 42
0.07250104967
  0
VERTEX
  8
LAYER_3
 10
-15.3825
 20
218.2229
 42
0.02934729607
  0
VERTEX
  8
LAYER_3
 10
-15.4177
 20
217.6012
 42
0.06683108421
  0
VERTEX
  8
LAYER_3
 10
-15.2459
 20
216.2162
 42
0.08313278328
  0
VERTEX
  8
LAYER_3
 10
-14.8229
 20
215.3116
 42
0.1842921907
  0
VERTEX
  8
LAYER_3
 10
-13.3775
 20
214.3604
 42
0.06412633437
  0
VERTEX
  8
LAYER_3
 10
-12.386
 20
214.2464
 42
0.07682422262
  0
VERTEX
  8
LAYER_3
 10
-11.1942
 20
214.4123
 42
0.08470351081
  0
VERTEX
  8
LAYER_3
 10
-10.383
 20
214.8416
 42
0.03764758722
  0
VERTEX
  8
LAYER_3
 10
-9.8948
 20
215.2768
  0
VERTEX
  8
LAYER_3
 10
-10.8887
 20
216.2442
 42
-0.1072414833
  0
VERTEX
  8
LAYER_3
 10
-11.6397
 20
215.7366
 42
-0.09138316631
  0
VERTEX
  8
LAYER_3
 10
-12.3732
 20
215.6285
 42
-0.1206829104
  0
VERTEX
  8
LAYER_3
 10
-13.1336
 20
215.8026
 42
-0.1906913474
  0
VERTEX
  8
LAYER_3
 10
-13.7142
 20
216.4979
 42
-0.08636576904
  0
VERTEX
  8
LAYER_3
 10
-13.8074
 20
217.0861
  0
SEQEND
  0
POLYLINE
  8
LAYER_3
 40
0.05
 41
0.05
 66
1
 10
0
 20
0
 30
0
 70
1
  0
VERTEX
  8
LAYER_3
 10
-16.9018
 20
223.2773
  0
VERTEX
  8
LAYER_3
 10
-18.5517
 20
223.2773
  0
VERTEX
  8
LAYER_3
 10
-18.5517
 20
221.9455
  0
VERTEX
  8
LAYER_3
 10
-16.9018
 20
221.9455
  0
SEQEND
  0
POLYLINE
  8
LAYER_3
 40
0.05
 41
0.05
 66
1
 10
0
 20
0
 30
0
 70
1
  0
VERTEX
  8
LAYER_3
 10
-16.9146
 20
220.79
  0
VERTEX
  8
LAYER_3
 10
-18.5499
 20
220.79
  0
VERTEX
  8
LAYER_3
 10
-18.5499
 20
214.3218
  0
VERTEX
  8
LAYER_3
 10
-16.9146
 20
214.3218
  0
SEQEND
  0
POLYLINE
  8
LAYER_3
 40
0.05
 41
0.05
 66
1
 10
0
 20
0
 30
0
  0
VERTEX
  8
LAYER_3
 10
-19.8205
 20
215.1386
  0
VERTEX
  8
LAYER_3
 10
-20.9274
 20
216.2318
 42
-0.124077159
  0
VERTEX
  8
LAYER_3
 10
-21.5761
 20
215.7751
 42
-0.08032586337
  0
VERTEX
  8
LAYER_3
 10
-21.984
 20
215.7164
 42
-0.1386946894
  0
VERTEX
  8
LAYER_3
 10
-22.625
 20
215.8856
 42
-0.08219094685
  0
VERTEX
  8
LAYER_3
 10
-22.9149
 20
216.1436
 42
-0.1253393202
  0
VERTEX
  8
LAYER_3
 10
-23.215
 20
216.8347
 42
-0.05211869655
  0
VERTEX
  8
LAYER_3
 10
-23.2797
 20
217.6012
 42
-0.0435450793
  0
VERTEX
  8
LAYER_3
 10
-23.2306
 20
218.2793
 42
-0.1072750387
  0
VERTEX
  8
LAYER_3
 10
-22.9604
 20
218.9857
 42
-0.01439054395
  0
VERTEX
  8
LAYER_3
 10
-22.9149
 20
219.0461
 42
-0.143045989
  0
VERTEX
  8
LAYER_3
 10
-22.387
 20
219.4143
 42
-0.07949646803
  0
VERTEX
  8
LAYER_3
 10
-21.984
 20
219.4733
 42
-0.1421227284
  0
VERTEX
  8
LAYER_3
 10
-21.3214
 20
219.2962
 42
-0.06971561642
  0
VERTEX
  8
LAYER_3
 10
-20.9274
 20
218.9586
  0
VERTEX
  8
LAYER_3
 10
-19.8205
 20
220.0637
 42
0.08882909472
  0
VERTEX
  8
LAYER_3
 10
-20.632
 20
220.6645
 42
0.08605806955
  0
VERTEX
  8
LAYER_3
 10
-21.5364
 20
220.9189
 42
0.02865290108
  0
VERTEX
  8
LAYER_3
 10
-21.984
 20
220.9436
 42
0.0806713287
  0
VERTEX
  8
LAYER_3
 10
-23.0569
 20
220.7735
 42
0.08357777431
  0
VERTEX
  8
LAYER_3
 10
-23.8317
 20
220.3573
 42
0.09024198391
  0
VERTEX
  8
LAYER_3
 10
-24.4186
 20
219.692
 42
0.07835989587
  0
VERTEX
  8
LAYER_3
 10
-24.7811
 20
218.801
 42
0.06322906838
  0
VERTEX
  8
LAYER_3
 10
-24.9151
 20
217.6012
 42
0.06782520219
  0
VERTEX
  8
LAYER_3
 10
-24.7438
 20
216.2613
 42
0.08255819328
  0
VERTEX
  8
LAYER_3
 10
-24.3104
 20
215.3428
 42
0.1768050018
  0
VERTEX
  8
LAYER_3
 10
-22.8675
 20
214.3604
 42
0.06691738143
  0
VERTEX
  8
LAYER_3
 10
-21.984
 20
214.2464
 42
0.08460493823
  0
VERTEX
  8
LAYER_3
 10
-20.8976
 20
214.4205
 42
0.08609823032
  0
VERTEX
  8
LAYER_3
 10
-20.1139
 20
214.8669
 42
0.0305516797
  0
VERTEX
  8
LAYER_3
 10
-19.8205
 20
215.1386
  0
SEQEND
  0
ENDBLK
  0
BLOCK
  8
LAYER_3
  2
AIGNBL03020027
 70
64
 10
0
 20
0
 30
0
  3
AIGNBL03020027
  0
POLYLINE
  8
LAYER_3
 40
0.05
 41
0.05
 66
1
 10
0
 20
0
 30
0
 70
1
  0
VERTEX
  8
LAYER_3
 10
0.3288
 20
212.6806
  0
VERTEX
  8
LAYER_3
 10
0.0009
 20
212.6806
  0
VERTEX
  8
LAYER_3
 10
-0.2479
 20
211.9109
  0
VERTEX
  8
LAYER_3
 10
-0.5066
 20
212.6806
  0
VERTEX
  8
LAYER_3
 10
-0.8342
 20
212.6806
  0
VERTEX
  8
LAYER_3
 10
-0.4084
 20
211.5234
  0
VERTEX
  8
LAYER_3
 10
-0.4611
 20
211.3704
 42
-0.3961336399
  0
VERTEX
  8
LAYER_3
 10
-0.6165
 20
211.2581
  0
VERTEX
  8
LAYER_3
 10
-0.6882
 20
211.2581
  0
VERTEX
  8
LAYER_3
 10
-0.6882
 20
210.9783
  0
VERTEX
  8
LAYER_3
 10
-0.5662
 20
210.9783
 42
0.2034440672
  0
VERTEX
  8
LAYER_3
 10
-0.2985
 20
211.0741
 42
0.1004639661
  0
VERTEX
  8
LAYER_3
 10
-0.2048
 20
211.2343
  0
SEQEND
  0
POLYLINE
  8
LAYER_3
 40
0.05
 41
0.05
 66
1
 10
0
 20
0
 30
0
 70
1
  0
VERTEX
  8
LAYER_3
 10
-0.8704
 20
211.4352
  0
VERTEX
  8
LAYER_3
 10
-0.8704
 20
211.6977
  0
VERTEX
  8
LAYER_3
 10
-0.9899
 20
211.6977
 42
-0.4751531158
  0
VERTEX
  8
LAYER_3
 10
-1.0998
 20
211.8103
  0
VERTEX
  8
LAYER_3
 10
-1.0998
 20
213.137
  0
VERTEX
  8
LAYER_3
 10
-1.4109
 20
213.137
  0
VERTEX
  8
LAYER_3
 10
-1.4109
 20
211.7914
 42
0.2572712742
  0
VERTEX
  8
LAYER_3
 10
-1.2491
 20
211.4844
 42
0.1351549622
  0
VERTEX
  8
LAYER_3
 10
-1.0475
 20
211.4352
  0
SEQEND
  0
POLYLINE
  8
LAYER_3
 40
0.05
 41
0.05
 66
1
 10
0
 20
0
 30
0
 70
1
  0
VERTEX
  8
LAYER_3
 10
-1.9739
 20
211.894
 42
-0.2469446344
  0
VERTEX
  8
LAYER_3
 10
-2.0214
 20
211.7363
 42
-0.2123665607
  0
VERTEX
  8
LAYER_3
 10
-2.2057
 20
211.6763
 42
-0.2053891319
  0
VERTEX
  8
LAYER_3
 10
-2.3584
 20
211.7231
 42
-0.2060051203
  0
VERTEX
  8
LAYER_3
 10
-2.3949
 20
211.8176
 42
-0.4725599787
  0
VERTEX
  8
LAYER_3
 10
-2.2105
 20
211.9609
  0
VERTEX
  8
LAYER_3
 10
-1.9739
 20
211.9609
  0
SEQEND
  0
POLYLINE
  8
LAYER_3
 40
0.05
 41
0.05
 66
1
 10
0
 20
0
 30
0
 70
1
  0
VERTEX
  8
LAYER_3
 10
-1.6624
 20
211.4352
  0
VERTEX
  8
LAYER_3
 10
-1.6624
 20
212.2551
 42
0.2451162416
  0
VERTEX
  8
LAYER_3
 10
-1.8225
 20
212.6039
 42
0.1630344424
  0
VERTEX
  8
LAYER_3
 10
-2.194
 20
212.6947
 42
0.223003002
  0
VERTEX
  8
LAYER_3
 10
-2.6298
 20
212.5302
 42
0.006267388191
  0
VERTEX
  8
LAYER_3
 10
-2.6412
 20
212.5179
  0
VERTEX
  8
LAYER_3
 10
-2.4452
 20
212.3243
 42
-0.2474228759
  0
VERTEX
  8
LAYER_3
 10
-2.2057
 20
212.4322
 42
-0.1875116517
  0
VERTEX
  8
LAYER_3
 10
-2.0297
 20
212.3865
 42
-0.2385471677
  0
VERTEX
  8
LAYER_3
 10
-1.9739
 20
212.2358
  0
VERTEX
  8
LAYER_3
 10
-1.9739
 20
212.1738
  0
VERTEX
  8
LAYER_3
 10
-2.2633
 20
212.1738
 42
0.2343493414
  0
VERTEX
  8
LAYER_3
 10
-2.6354
 20
212.0142
 42
0.1534284984
  0
VERTEX
  8
LAYER_3
 10
-2.6942
 20
211.8127
 42
0.1895201048
  0
VERTEX
  8
LAYER_3
 10
-2.5912
 20
211.533
 42
0.2074502918
  0
VERTEX
  8
LAYER_3
 10
-2.2729
 20
211.4228
 42
0.2214267061
  0
VERTEX
  8
LAYER_3
 10
-1.9663
 20
211.5426
  0
VERTEX
  8
LAYER_3
 10
-1.9663
 20
211.4352
  0
SEQEND
  0
POLYLINE
  8
LAYER_3
 40
0.05
 41
0.05
 66
1
 10
0
 20
0
 30
0
 70
1
  0
VERTEX
  8
LAYER_3
 10
-2.8758
 20
211.4352
  0
VERTEX
  8
LAYER_3
 10
-2.8758
 20
211.6977
  0
VERTEX
  8
LAYER_3
 10
-2.9884
 20
211.6977
 42
-0.4616084329
  0
VERTEX
  8
LAYER_3
 10
-3.0963
 20
211.8103
  0
VERTEX
  8
LAYER_3
 10
-3.0963
 20
212.4081
  0
VERTEX
  8
LAYER_3
 10
-2.8758
 20
212.4081
  0
VERTEX
  8
LAYER_3
 10
-2.8758
 20
212.6444
  0
VERTEX
  8
LAYER_3
 10
-3.0963
 20
212.6444
  0
VERTEX
  8
LAYER_3
 10
-3.0963
 20
213.0127
  0
VERTEX
  8
LAYER_3
 10
-3.407
 20
213.0127
  0
VERTEX
  8
LAYER_3
 10
-3.407
 20
212.6444
  0
VERTEX
  8
LAYER_3
 10
-3.539
 20
212.6444
  0
VERTEX
  8
LAYER_3
 10
-3.539
 20
212.4081
  0
VERTEX
  8
LAYER_3
 10
-3.407
 20
212.4081
  0
VERTEX
  8
LAYER_3
 10
-3.407
 20
211.7914
 42
0.2563568817
  0
VERTEX
  8
LAYER_3
 10
-3.2458
 20
211.4844
 42
0.1357760723
  0
VERTEX
  8
LAYER_3
 10
-3.0456
 20
211.4352
  0
SEQEND
  0
POLYLINE
  8
LAYER_3
 40
0.05
 41
0.05
 66
1
 10
0
 20
0
 30
0
 70
1
  0
VERTEX
  8
LAYER_3
 10
-3.8091
 20
213.137
  0
VERTEX
  8
LAYER_3
 10
-4.1419
 20
213.137
  0
VERTEX
  8
LAYER_3
 10
-4.1419
 20
211.4352
  0
VERTEX
  8
LAYER_3
 10
-3.8091
 20
211.4352
  0
SEQEND
  0
POLYLINE
  8
LAYER_3
 40
0.05
 41
0.05
 66
1
 10
0
 20
0
 30
0
 70
1
  0
VERTEX
  8
LAYER_3
 10
-5.0562
 20
211.4352
  0
VERTEX
  8
LAYER_3
 10
-5.0562
 20
212.231
 42
0.2072987281
  0
VERTEX
  8
LAYER_3
 10
-5.183
 20
212.5844
 42
0.2031043538
  0
VERTEX
  8
LAYER_3
 10
-5.4775
 20
212.6947
 42
0.201378382
  0
VERTEX
  8
LAYER_3
 10
-5.7886
 20
212.5658
  0
VERTEX
  8
LAYER_3
 10
-5.7886
 20
212.6806
  0
VERTEX
  8
LAYER_3
 10
-6.0925
 20
212.6806
  0
VERTEX
  8
LAYER_3
 10
-6.0925
 20
211.4352
  0
VERTEX
  8
LAYER_3
 10
-5.7814
 20
211.4352
  0
VERTEX
  8
LAYER_3
 10
-5.7814
 20
212.1883
 42
-0.4179621604
  0
VERTEX
  8
LAYER_3
 10
-5.573
 20
212.4149
 42
-0.4342829929
  0
VERTEX
  8
LAYER_3
 10
-5.3673
 20
212.1883
  0
VERTEX
  8
LAYER_3
 10
-5.3673
 20
211.4352
  0
SEQEND
  0
POLYLINE
  8
LAYER_3
 40
0.05
 41
0.05
 66
1
 10
0
 20
0
 30
0
 70
1
  0
VERTEX
  8
LAYER_3
 10
-6.437
 20
213.1467
  0
VERTEX
  8
LAYER_3
 10
-6.7553
 20
213.1467
  0
VERTEX
  8
LAYER_3
 10
-6.7553
 20
212.8931
  0
VERTEX
  8
LAYER_3
 10
-6.437
 20
212.8931
  0
SEQEND
  0
POLYLINE
  8
LAYER_3
 40
0.05
 41
0.05
 66
1
 10
0
 20
0
 30
0
 70
1
  0
VERTEX
  8
LAYER_3
 10
-6.4394
 20
212.6444
  0
VERTEX
  8
LAYER_3
 10
-6.7508
 20
212.6444
  0
VERTEX
  8
LAYER_3
 10
-6.7508
 20
211.4352
  0
VERTEX
  8
LAYER_3
 10
-6.4394
 20
211.4352
  0
SEQEND
  0
POLYLINE
  8
LAYER_3
 40
0.05
 41
0.05
 66
1
 10
0
 20
0
 30
0
  0
VERTEX
  8
LAYER_3
 10
-7.8994
 20
212.1738
  0
VERTEX
  8
LAYER_3
 10
-8.3735
 20
212.1738
 42
-0.1146919506
  0
VERTEX
  8
LAYER_3
 10
-8.3445
 20
212.3075
 42
-0.3018991672
  0
VERTEX
  8
LAYER_3
 10
-8.1365
 20
212.4363
 42
-0.2970494637
  0
VERTEX
  8
LAYER_3
 10
-7.9284
 20
212.3075
 42
-0.09886844151
  0
VERTEX
  8
LAYER_3
 10
-7.8994
 20
212.1738
  0
SEQEND
  0
POLYLINE
  8
LAYER_3
 40
0.05
 41
0.05
 66
1
 10
0
 20
0
 30
0
 70
1
  0
VERTEX
  8
LAYER_3
 10
-7.5932
 20
211.9609
  0
VERTEX
  8
LAYER_3
 10
-7.5932
 20
212.0925
 42
0.1891963687
  0
VERTEX
  8
LAYER_3
 10
-7.7571
 20
212.5502
 42
0.2074768028
  0
VERTEX
  8
LAYER_3
 10
-8.1365
 20
212.6947
 42
0.212635805
  0
VERTEX
  8
LAYER_3
 10
-8.5293
 20
212.5292
 42
0.1815550622
  0
VERTEX
  8
LAYER_3
 10
-8.6787
 20
212.1059
 42
0.01190200981
  0
VERTEX
  8
LAYER_3
 10
-8.6797
 20
212.0591
 42
0.1802869298
  0
VERTEX
  8
LAYER_3
 10
-8.5263
 20
211.5744
 42
0.2020040623
  0
VERTEX
  8
LAYER_3
 10
-8.158
 20
211.4223
 42
0.01696202641
  0
VERTEX
  8
LAYER_3
 10
-8.103
 20
211.4207
 42
0.2069028033
  0
VERTEX
  8
LAYER_3
 10
-7.6557
 20
211.5904
 42
0.01111068861
  0
VERTEX
  8
LAYER_3
 10
-7.629
 20
211.6167
  0
VERTEX
  8
LAYER_3
 10
-7.8181
 20
211.801
 42
-0.224324849
  0
VERTEX
  8
LAYER_3
 10
-8.1003
 20
211.6839
 42
-0.4264622019
  0
VERTEX
  8
LAYER_3
 10
-8.3735
 20
211.9609
  0
SEQEND
  0
POLYLINE
  8
LAYER_3
 40
0.05
 41
0.05
 66
1
 10
0
 20
0
 30
0
  0
VERTEX
  8
LAYER_3
 10
-9.2778
 20
212.0591
 42
-0.1438386142
  0
VERTEX
  8
LAYER_3
 10
-9.3235
 20
211.7869
 42
-0.2886460427
  0
VERTEX
  8
LAYER_3
 10
-9.4911
 20
211.7004
 42
-0.3841580528
  0
VERTEX
  8
LAYER_3
 10
-9.6851
 20
211.8609
 42
-0.05455021257
  0
VERTEX
  8
LAYER_3
 10
-9.7016
 20
212.0591
 42
-0.1483049254
  0
VERTEX
  8
LAYER_3
 10
-9.6559
 20
212.3323
 42
-0.2855556046
  0
VERTEX
  8
LAYER_3
 10
-9.4911
 20
212.4149
 42
-0.3794480357
  0
VERTEX
  8
LAYER_3
 10
-9.2951
 20
212.2564
 42
-0.05697683845
  0
VERTEX
  8
LAYER_3
 10
-9.2778
 20
212.0591
  0
SEQEND
  0
POLYLINE
  8
LAYER_3
 40
0.05
 41
0.05
 66
1
 10
0
 20
0
 30
0
 70
1
  0
VERTEX
  8
LAYER_3
 10
-8.9667
 20
211.4352
  0
VERTEX
  8
LAYER_3
 10
-8.9667
 20
213.137
  0
VERTEX
  8
LAYER_3
 10
-9.2778
 20
213.137
  0
VERTEX
  8
LAYER_3
 10
-9.2778
 20
212.5707
 42
0.2300395261
  0
VERTEX
  8
LAYER_3
 10
-9.582
 20
212.6947
 42
0.1954770263
  0
VERTEX
  8
LAYER_3
 10
-9.8835
 20
212.5824
 42
0.1230294745
  0
VERTEX
  8
LAYER_3
 10
-9.9795
 20
212.4101
 42
0.0747779445
  0
VERTEX
  8
LAYER_3
 10
-10.013
 20
212.0591
 42
0.0994778514
  0
VERTEX
  8
LAYER_3
 10
-9.9681
 20
211.6705
 42
0.1088456143
  0
VERTEX
  8
LAYER_3
 10
-9.8835
 20
211.533
 42
0.2047870903
  0
VERTEX
  8
LAYER_3
 10
-9.5796
 20
211.4207
 42
0.2301062358
  0
VERTEX
  8
LAYER_3
 10
-9.2709
 20
211.5523
  0
VERTEX
  8
LAYER_3
 10
-9.2709
 20
211.4352
  0
SEQEND
  0
POLYLINE
  8
LAYER_3
 40
0.05
 41
0.05
 66
1
 10
0
 20
0
 30
0
 70
1
  0
VERTEX
  8
LAYER_3
 10
-10.6062
 20
211.894
 42
-0.2466163696
  0
VERTEX
  8
LAYER_3
 10
-10.6541
 20
211.7363
 42
-0.212724989
  0
VERTEX
  8
LAYER_3
 10
-10.8384
 20
211.6763
 42
-0.2059659062
  0
VERTEX
  8
LAYER_3
 10
-10.9909
 20
211.7231
 42
-0.2055032453
  0
VERTEX
  8
LAYER_3
 10
-11.0272
 20
211.8176
 42
-0.4727797621
  0
VERTEX
  8
LAYER_3
 10
-10.8433
 20
211.9609
  0
VERTEX
  8
LAYER_3
 10
-10.6062
 20
211.9609
  0
SEQEND
  0
POLYLINE
  8
LAYER_3
 40
0.05
 41
0.05
 66
1
 10
0
 20
0
 30
0
 70
1
  0
VERTEX
  8
LAYER_3
 10
-10.2952
 20
211.4352
  0
VERTEX
  8
LAYER_3
 10
-10.2952
 20
212.2551
 42
0.2449717567
  0
VERTEX
  8
LAYER_3
 10
-10.4551
 20
212.6039
 42
0.1631604865
  0
VERTEX
  8
LAYER_3
 10
-10.8267
 20
212.6947
 42
0.223003002
  0
VERTEX
  8
LAYER_3
 10
-11.2625
 20
212.5302
 42
0.006267388191
  0
VERTEX
  8
LAYER_3
 10
-11.2739
 20
212.5179
  0
VERTEX
  8
LAYER_3
 10
-11.0779
 20
212.3243
 42
-0.2470834876
  0
VERTEX
  8
LAYER_3
 10
-10.8384
 20
212.4322
 42
-0.1872740545
  0
VERTEX
  8
LAYER_3
 10
-10.6621
 20
212.3865
 42
-0.238797369
  0
VERTEX
  8
LAYER_3
 10
-10.6062
 20
212.2358
  0
VERTEX
  8
LAYER_3
 10
-10.6062
 20
212.1738
  0
VERTEX
  8
LAYER_3
 10
-10.896
 20
212.1738
 42
0.2346153399
  0
VERTEX
  8
LAYER_3
 10
-11.268
 20
212.0142
 42
0.1531846975
  0
VERTEX
  8
LAYER_3
 10
-11.3266
 20
211.8127
 42
0.1894880782
  0
VERTEX
  8
LAYER_3
 10
-11.2239
 20
211.533
 42
0.2078362131
  0
VERTEX
  8
LAYER_3
 10
-10.9053
 20
211.4228
 42
0.2218282602
  0
VERTEX
  8
LAYER_3
 10
-10.599
 20
211.5426
  0
VERTEX
  8
LAYER_3
 10
-10.599
 20
211.4352
  0
SEQEND
  0
POLYLINE
  8
LAYER_3
 40
0.05
 41
0.05
 66
1
 10
0
 20
0
 30
0
 70
1
  0
VERTEX
  8
LAYER_3
 10
-11.5733
 20
211.4352
  0
VERTEX
  8
LAYER_3
 10
-11.5733
 20
212.231
 42
0.205542241
  0
VERTEX
  8
LAYER_3
 10
-11.7097
 20
212.5844
 42
0.1987814349
  0
VERTEX
  8
LAYER_3
 10
-12.016
 20
212.6947
 42
0.2182066523
  0
VERTEX
  8
LAYER_3
 10
-12.3894
 20
212.5369
 42
0.2491445422
  0
VERTEX
  8
LAYER_3
 10
-12.7198
 20
212.6947
 42
0.1964079247
  0
VERTEX
  8
LAYER_3
 10
-13.0309
 20
212.5658
  0
VERTEX
  8
LAYER_3
 10
-13.0309
 20
212.6806
  0
VERTEX
  8
LAYER_3
 10
-13.3348
 20
212.6806
  0
VERTEX
  8
LAYER_3
 10
-13.3348
 20
211.4352
  0
VERTEX
  8
LAYER_3
 10
-13.0233
 20
211.4352
  0
VERTEX
  8
LAYER_3
 10
-13.0233
 20
212.1883
 42
-0.4179659679
  0
VERTEX
  8
LAYER_3
 10
-12.8152
 20
212.4149
 42
-0.4342681599
  0
VERTEX
  8
LAYER_3
 10
-12.6096
 20
212.1883
  0
VERTEX
  8
LAYER_3
 10
-12.6096
 20
211.4352
  0
VERTEX
  8
LAYER_3
 10
-12.2985
 20
211.4352
  0
VERTEX
  8
LAYER_3
 10
-12.2985
 20
212.1951
 42
-0.4176164983
  0
VERTEX
  8
LAYER_3
 10
-12.0904
 20
212.4149
 42
-0.4347166888
  0
VERTEX
  8
LAYER_3
 10
-11.8844
 20
212.1883
  0
VERTEX
  8
LAYER_3
 10
-11.8844
 20
211.4352
  0
SEQEND
  0
POLYLINE
  8
LAYER_3
 40
0.05
 41
0.05
 66
1
 10
0
 20
0
 30
0
  0
VERTEX
  8
LAYER_3
 10
-13.8973
 20
212.0229
 42
-0.1159545013
  0
VERTEX
  8
LAYER_3
 10
-13.9445
 20
211.7201
 42
-0.3130236509
  0
VERTEX
  8
LAYER_3
 10
-14.1916
 20
211.5736
 42
-0.3150185863
  0
VERTEX
  8
LAYER_3
 10
-14.446
 20
211.7323
 42
-0.1052799031
  0
VERTEX
  8
LAYER_3
 10
-14.4882
 20
212.0229
 42
-0.113922501
  0
VERTEX
  8
LAYER_3
 10
-14.4424
 20
212.3219
 42
-0.3163703602
  0
VERTEX
  8
LAYER_3
 10
-14.1916
 20
212.4725
 42
-0.3164274474
  0
VERTEX
  8
LAYER_3
 10
-13.9391
 20
212.3138
 42
-0.1034386904
  0
VERTEX
  8
LAYER_3
 10
-13.8973
 20
212.0229
  0
SEQEND
  0
POLYLINE
  8
LAYER_3
 40
0.05
 41
0.05
 66
1
 10
0
 20
0
 30
0
 70
1
  0
VERTEX
  8
LAYER_3
 10
-13.7247
 20
211.4352
  0
VERTEX
  8
LAYER_3
 10
-13.7247
 20
213.137
  0
VERTEX
  8
LAYER_3
 10
-13.8973
 20
213.137
  0
VERTEX
  8
LAYER_3
 10
-13.8973
 20
212.4749
 42
0.2525818121
  0
VERTEX
  8
LAYER_3
 10
-14.2298
 20
212.6258
 42
0.1886393528
  0
VERTEX
  8
LAYER_3
 10
-14.5171
 20
212.5224
 42
0.1172978386
  0
VERTEX
  8
LAYER_3
 10
-14.6205
 20
212.3434
 42
0.07876818405
  0
VERTEX
  8
LAYER_3
 10
-14.6608
 20
212.0229
 42
0.09207329595
  0
VERTEX
  8
LAYER_3
 10
-14.6127
 20
211.6805
 42
0.1077667615
  0
VERTEX
  8
LAYER_3
 10
-14.5171
 20
211.5234
 42
0.198210181
  0
VERTEX
  8
LAYER_3
 10
-14.2298
 20
211.4207
 42
0.2515984765
  0
VERTEX
  8
LAYER_3
 10
-13.8949
 20
211.5761
  0
VERTEX
  8
LAYER_3
 10
-13.8949
 20
211.4352
  0
SEQEND
  0
POLYLINE
  8
LAYER_3
 40
0.05
 41
0.05
 66
1
 10
0
 20
0
 30
0
 70
1
  0
VERTEX
  8
LAYER_3
 10
-15.0173
 20
211.4352
  0
VERTEX
  8
LAYER_3
 10
-15.0173
 20
212.1883
 42
0.202703885
  0
VERTEX
  8
LAYER_3
 10
-15.1393
 20
212.5155
 42
0.2046678658
  0
VERTEX
  8
LAYER_3
 10
-15.4411
 20
212.6258
 42
0.2165707378
  0
VERTEX
  8
LAYER_3
 10
-15.7711
 20
212.4818
  0
VERTEX
  8
LAYER_3
 10
-15.7711
 20
212.6113
  0
VERTEX
  8
LAYER_3
 10
-15.9434
 20
212.6113
  0
VERTEX
  8
LAYER_3
 10
-15.9434
 20
211.4352
  0
VERTEX
  8
LAYER_3
 10
-15.7711
 20
211.4352
  0
VERTEX
  8
LAYER_3
 10
-15.7711
 20
212.1593
 42
-0.2837547598
  0
VERTEX
  8
LAYER_3
 10
-15.6189
 20
212.4442
 42
-0.1086336204
  0
VERTEX
  8
LAYER_3
 10
-15.479
 20
212.4725
 42
-0.442304779
  0
VERTEX
  8
LAYER_3
 10
-15.1896
 20
212.1593
  0
VERTEX
  8
LAYER_3
 10
-15.1896
 20
211.4352
  0
SEQEND
  0
POLYLINE
  8
LAYER_3
 40
0.05
 41
0.05
 66
1
 10
0
 20
0
 30
0
 70
1
  0
VERTEX
  8
LAYER_3
 10
-16.5346
 20
211.8506
 42
-0.2101171453
  0
VERTEX
  8
LAYER_3
 10
-16.5945
 20
211.6477
 42
-0.2061049303
  0
VERTEX
  8
LAYER_3
 10
-16.8553
 20
211.5688
 42
-0.1622506966
  0
VERTEX
  8
LAYER_3
 10
-17.0584
 20
211.615
 42
-0.2627350918
  0
VERTEX
  8
LAYER_3
 10
-17.1282
 20
211.77
 42
-0.376646919
  0
VERTEX
  8
LAYER_3
 10
-16.9692
 20
211.9668
 42
-0.05118405332
  0
VERTEX
  8
LAYER_3
 10
-16.8625
 20
211.9774
  0
VERTEX
  8
LAYER_3
 10
-16.5346
 20
211.9774
  0
SEQEND
  0
POLYLINE
  8
LAYER_3
 40
0.05
 41
0.05
 66
1
 10
0
 20
0
 30
0
 70
1
  0
VERTEX
  8
LAYER_3
 10
-16.362
 20
211.4352
  0
VERTEX
  8
LAYER_3
 10
-16.362
 20
212.233
 42
0.2623610217
  0
VERTEX
  8
LAYER_3
 10
-16.5224
 20
212.5561
 42
0.1450933816
  0
VERTEX
  8
LAYER_3
 10
-16.8336
 20
212.6258
 42
0.2362276322
  0
VERTEX
  8
LAYER_3
 10
-17.2355
 20
212.4672
 42
0.01170794038
  0
VERTEX
  8
LAYER_3
 10
-17.2501
 20
212.4487
  0
VERTEX
  8
LAYER_3
 10
-17.133
 20
212.3409
 42
-0.2755800686
  0
VERTEX
  8
LAYER_3
 10
-16.8364
 20
212.4776
 42
-0.1517468402
  0
VERTEX
  8
LAYER_3
 10
-16.6283
 20
212.4308
 42
-0.2800643637
  0
VERTEX
  8
LAYER_3
 10
-16.5346
 20
212.2193
  0
VERTEX
  8
LAYER_3
 10
-16.5346
 20
212.1066
  0
VERTEX
  8
LAYER_3
 10
-16.8863
 20
212.1066
 42
0.2378691362
  0
VERTEX
  8
LAYER_3
 10
-17.2451
 20
211.9523
 42
0.1477379502
  0
VERTEX
  8
LAYER_3
 10
-17.2956
 20
211.7673
 42
0.1985438552
  0
VERTEX
  8
LAYER_3
 10
-17.207
 20
211.5282
 42
0.2224112685
  0
VERTEX
  8
LAYER_3
 10
-16.8742
 20
211.4207
 42
0.21971579
  0
VERTEX
  8
LAYER_3
 10
-16.5346
 20
211.5471
  0
VERTEX
  8
LAYER_3
 10
-16.5346
 20
211.4352
  0
SEQEND
  0
POLYLINE
  8
LAYER_3
 40
0.05
 41
0.05
 66
1
 10
0
 20
0
 30
0
 70
1
  0
VERTEX
  8
LAYER_3
 10
-17.6211
 20
211.4352
  0
VERTEX
  8
LAYER_3
 10
-17.6211
 20
212.1903
 42
0.2366048602
  0
VERTEX
  8
LAYER_3
 10
-17.7848
 20
212.5524
 42
0.1585996094
  0
VERTEX
  8
LAYER_3
 10
-18.0449
 20
212.6258
 42
0.2174282511
  0
VERTEX
  8
LAYER_3
 10
-18.3749
 20
212.4818
  0
VERTEX
  8
LAYER_3
 10
-18.3749
 20
213.137
  0
VERTEX
  8
LAYER_3
 10
-18.5475
 20
213.137
  0
VERTEX
  8
LAYER_3
 10
-18.5475
 20
211.4352
  0
VERTEX
  8
LAYER_3
 10
-18.3749
 20
211.4352
  0
VERTEX
  8
LAYER_3
 10
-18.3749
 20
212.1617
 42
-0.2889308341
  0
VERTEX
  8
LAYER_3
 10
-18.2221
 20
212.4453
 42
-0.1047577161
  0
VERTEX
  8
LAYER_3
 10
-18.0807
 20
212.4725
 42
-0.4463558923
  0
VERTEX
  8
LAYER_3
 10
-17.7934
 20
212.1617
  0
VERTEX
  8
LAYER_3
 10
-17.7934
 20
211.4352
  0
SEQEND
  0
ENDBLK
  0
BLOCK
  8
LAYER_3
  2
AIGNBL03010002
 70
64
 10
0
 20
0
 30
0
  3
AIGNBL03010002
  0
POLYLINE
  8
LAYER_3
 40
0.7056
 41
0.7056
 66
1
 10
0
 20
0
 30
0
 70
1
  0
VERTEX
  8
LAYER_3
 10
251.6749
 20
230.337
  0
VERTEX
  8
LAYER_3
 10
251.6749
 20
33.3285
  0
VERTEX
  8
LAYER_3
 10
-30.3177
 20
33.3285
  0
VERTEX
  8
LAYER_3
 10
-30.3177
 20
230.337
  0
SEQEND
  0
ENDBLK
  0
BLOCK
  8
LAYER_3
  2
AIGNBL03010003
 70
64
 10
0
 20
0
 30
0
  3
AIGNBL03010003
  0
INSERT
  8
LAYER_3
  2
AIGNBL03020004
 10
0
 20
0
 30
0
  0
INSERT
  8
LAYER_3
  2
AIGNBL0302000D
 10
0
 20
0
 30
0
  0
ENDBLK
  0
BLOCK
  8
LAYER_3
  2
AIGNBL03010025
 70
64
 10
0
 20
0
 30
0
  3
AIGNBL03010025
  0
INSERT
  8
LAYER_3
  2
AIGNBL03020026
 10
0
 20
0
 30
0
  0
POLYLINE
  8
LAYER_3
 40
0.05
 41
0.05
 66
1
 10
0
 20
0
 30
0
  0
VERTEX
  8
LAYER_3
 10
-6.457
 20
223.2684
  0
VERTEX
  8
LAYER_3
 10
-8.0924
 20
223.2684
  0
VERTEX
  8
LAYER_3
 10
-8.0924
 20
216.1939
 42
0.1050424825
  0
VERTEX
  8
LAYER_3
 10
-7.9127
 20
215.3316
 42
0.1079536646
  0
VERTEX
  8
LAYER_3
 10
-7.4796
 20
214.75
 42
0.105678841
  0
VERTEX
  8
LAYER_3
 10
-6.8587
 20
214.4154
 42
0.04706827067
  0
VERTEX
  8
LAYER_3
 10
-6.4597
 20
214.3359
  0
VERTEX
  8
LAYER_3
 10
-6.457
 20
223.2684
  0
SEQEND
  0
INSERT
  8
LAYER_3
  2
AIGNBL03020027
 10
0
 20
0
 30
0
  0
ENDBLK
  0
ENDSEC
  0
SECTION
  2
ENTITIES
  0
POLYLINE
  8
LAYER_1
 40
0.7056
 41
0.7056
 66
1
 10
0
 20
0
 30
0
 70
1
  0
VERTEX
  8
LAYER_1
 10
59.3342
 20
208.172
  0
VERTEX
  8
LAYER_1
 10
36.8339
 20
208.172
  0
VERTEX
  8
LAYER_1
 10
36.8339
 20
213.1722
  0
VERTEX
  8
LAYER_1
 10
59.3342
 20
213.1722
  0
SEQEND
  0
POLYLINE
  8
LAYER_1
 40
0.7056
 41
0.7056
 66
1
 10
0
 20
0
 30
0
 70
1
  0
VERTEX
  8
LAYER_1
 10
56.5585
 20
145.6717
  0
VERTEX
  8
LAYER_1
 10
40.0585
 20
145.6717
  0
VERTEX
  8
LAYER_1
 10
40.0585
 20
208.172
  0
VERTEX
  8
LAYER_1
 10
56.5585
 20
208.172
  0
SEQEND
  0
POLYLINE
  8
LAYER_1
 40
0.7056
 41
0.7056
 66
1
 10
0
 20
0
 30
0
  0
VERTEX
  8
LAYER_1
 10
60.2403
 20
117.506
  0
VERTEX
  8
LAYER_1
 10
60.2403
 20
79.1945
  0
VERTEX
  8
LAYER_1
 10
35.2406
 20
79.1945
  0
VERTEX
  8
LAYER_1
 10
35.2406
 20
145.6945
  0
VERTEX
  8
LAYER_1
 10
60.2403
 20
145.6945
  0
VERTEX
  8
LAYER_1
 10
60.2403
 20
136.5064
  0
SEQEND
  0
POLYLINE
  8
LAYER_1
 40
0.7056
 41
0.7056
 66
1
 10
0
 20
0
 30
0
  0
VERTEX
  8
LAYER_1
 10
60.2403
 20
136.5064
  0
VERTEX
  8
LAYER_1
 10
86.7406
 20
136.5064
  0
VERTEX
  8
LAYER_1
 10
86.7406
 20
117.506
  0
VERTEX
  8
LAYER_1
 10
60.2403
 20
117.506
  0
SEQEND
  0
POLYLINE
  8
LAYER_1
 40
0.7056
 41
0.7056
 66
1
 10
0
 20
0
 30
0
  0
VERTEX
  8
LAYER_1
 10
60.2403
 20
117.506
 42
-0.0373441925
  0
VERTEX
  8
LAYER_1
 10
58.7306
 20
119.2571
 42
-0.03584732302
  0
VERTEX
  8
LAYER_1
 10
57.64
 20
120.9818
 42
-0.0369371835
  0
VERTEX
  8
LAYER_1
 10
56.8402
 20
122.7853
 42
-0.03772771134
  0
VERTEX
  8
LAYER_1
 10
56.3313
 20
124.6434
 42
-0.05733957501
  0
VERTEX
  8
LAYER_1
 10
56.1131
 20
127.48
 42
-0.05742904263
  0
VERTEX
  8
LAYER_1
 10
56.5494
 20
130.3029
 42
-0.03763918665
  0
VERTEX
  8
LAYER_1
 10
57.2038
 20
132.1368
 42
-0.03680309986
  0
VERTEX
  8
LAYER_1
 10
58.1489
 20
133.9041
 42
-0.03566826572
  0
VERTEX
  8
LAYER_1
 10
59.385
 20
135.5803
 42
-0.02004296629
  0
VERTEX
  8
LAYER_1
 10
60.2403
 20
136.5064
  0
SEQEND
  0
POLYLINE
  8
LAYER_1
 40
0.7056
 41
0.7056
 66
1
 10
0
 20
0
 30
0
  0
VERTEX
  8
LAYER_1
 10
86.7406
 20
134.6826
  0
VERTEX
  8
LAYER_1
 10
210.6717
 20
134.6826
  0
VERTEX
  8
LAYER_1
 10
210.6717
 20
119.6826
  0
VERTEX
  8
LAYER_1
 10
86.7406
 20
119.6826
  0
SEQEND
  0
POLYLINE
  8
LAYER_1
  6
AIGENLINE001
 40
0.1764
 41
0.1764
 66
1
 10
0
 20
0
 30
0
 70
128
  0
VERTEX
  8
LAYER_1
 10
86.7406
 20
119.6826
  0
VERTEX
  8
LAYER_1
 10
60.5941
 20
119.6826
  0
VERTEX
  8
LAYER_1
 10
60.5941
 20
134.6826
  0
VERTEX
  8
LAYER_1
 10
86.7406
 20
134.6826
  0
SEQEND
  0
POLYLINE
  8
LAYER_1
 40
0.7056
 41
0.7056
 66
1
 10
0
 20
0
 30
0
 70
1
  0
VERTEX
  8
LAYER_1
 10
215.6719
 20
108.3455
  0
VERTEX
  8
LAYER_1
 10
210.6717
 20
108.3455
  0
VERTEX
  8
LAYER_1
 10
210.6717
 20
143.3456
  0
VERTEX
  8
LAYER_1
 10
215.6719
 20
143.3456
  0
SEQEND
  0
POLYLINE
  8
LAYER_1
 40
0.2646
 41
0.2646
 66
1
 10
0
 20
0
 30
0
  0
VERTEX
  8
LAYER_1
 10
16.2095
 20
213.1722
  0
VERTEX
  8
LAYER_1
 10
16.2095
 20
79.1945
  0
SEQEND
  0
POLYLINE
  8
LAYER_1
 40
0.1976
 41
0.1976
 66
1
 10
0
 20
0
 30
0
  0
VERTEX
  8
LAYER_1
 10
16.3832
 20
79.1945
  0
VERTEX
  8
LAYER_1
 10
20.8383
 20
79.1945
  0
SEQEND
  0
POLYLINE
  8
LAYER_1
 40
0.2646
 41
0.2646
 66
1
 10
0
 20
0
 30
0
  0
VERTEX
  8
LAYER_1
 10
16.1213
 20
213.1722
  0
VERTEX
  8
LAYER_1
 10
20.9238
 20
213.1722
  0
SEQEND
  0
TEXT
  8
LAYER_1
 10
15.7773
 20
131.059
 11
15.7773
 21
131.059
 40
5.0153
 41
0.5
 50
89.99999999
  1
max 260 - min 155
  0
POLYLINE
  8
LAYER_1
 40
0.2646
 41
0.2646
 66
1
 10
0
 20
0
 30
0
  0
VERTEX
  8
LAYER_1
 10
36.8339
 20
216.7
  0
VERTEX
  8
LAYER_1
 10
36.8339
 20
219.5656
  0
SEQEND
  0
POLYLINE
  8
LAYER_1
 40
0.2646
 41
0.2646
 66
1
 10
0
 20
0
 30
0
  0
VERTEX
  8
LAYER_1
 10
36.8339
 20
219.5656
  0
VERTEX
  8
LAYER_1
 10
59.3342
 20
219.5656
  0
SEQEND
  0
POLYLINE
  8
LAYER_1
 40
0.2646
 41
0.2646
 66
1
 10
0
 20
0
 30
0
  0
VERTEX
  8
LAYER_1
 10
59.3342
 20
219.5656
  0
VERTEX
  8
LAYER_1
 10
59.3342
 20
216.7
  0
SEQEND
  0
TEXT
  8
LAYER_1
 10
46.5594
 20
220.5526
 11
46.5594
 21
220.5526
 40
5.0153
 41
0.5
  1
45
  0
POLYLINE
  8
LAYER_1
 40
0.2646
 41
0.2646
 66
1
 10
0
 20
0
 30
0
  0
VERTEX
  8
LAYER_1
 10
47.6488
 20
68.6918
  0
VERTEX
  8
LAYER_1
 10
47.6488
 20
64.681
  0
SEQEND
  0
POLYLINE
  8
LAYER_1
 40
0.2646
 41
0.2646
 66
1
 10
0
 20
0
 30
0
  0
VERTEX
  8
LAYER_1
 10
47.6488
 20
64.681
  0
VERTEX
  8
LAYER_1
 10
215.6719
 20
64.681
  0
SEQEND
  0
POLYLINE
  8
LAYER_1
 40
0.2646
 41
0.2646
 66
1
 10
0
 20
0
 30
0
  0
VERTEX
  8
LAYER_1
 10
215.6719
 20
64.681
  0
VERTEX
  8
LAYER_1
 10
215.6719
 20
72.5262
  0
SEQEND
  0
TEXT
  8
LAYER_1
 10
130.544
 20
166.3471
 11
130.544
 21
166.3471
 40
5.0153
 41
0.5
  1
300
  0
POLYLINE
  8
LAYER_1
 40
0.2646
 41
0.2646
 66
1
 10
0
 20
0
 30
0
  0
VERTEX
  8
LAYER_1
 10
60.2403
 20
160.9053
  0
VERTEX
  8
LAYER_1
 10
60.2403
 20
165.8056
  0
SEQEND
  0
POLYLINE
  8
LAYER_1
 40
0.2646
 41
0.2646
 66
1
 10
0
 20
0
 30
0
  0
VERTEX
  8
LAYER_1
 10
60.2403
 20
165.8056
  0
VERTEX
  8
LAYER_1
 10
215.6719
 20
165.8056
  0
SEQEND
  0
POLYLINE
  8
LAYER_1
 40
0.2646
 41
0.2646
 66
1
 10
0
 20
0
 30
0
  0
VERTEX
  8
LAYER_1
 10
215.6719
 20
165.7174
  0
VERTEX
  8
LAYER_1
 10
215.6719
 20
160.9576
  0
SEQEND
  0
POLYLINE
  8
LAYER_1
 40
0.2646
 41
0.2646
 66
1
 10
0
 20
0
 30
0
  0
VERTEX
  8
LAYER_1
 10
22.2887
 20
145.6945
  0
VERTEX
  8
LAYER_1
 10
22.2887
 20
79.1945
  0
SEQEND
  0
POLYLINE
  8
LAYER_1
 40
0.1976
 41
0.1976
 66
1
 10
0
 20
0
 30
0
  0
VERTEX
  8
LAYER_1
 10
22.4624
 20
79.1945
  0
VERTEX
  8
LAYER_1
 10
26.9176
 20
79.1945
  0
SEQEND
  0
POLYLINE
  8
LAYER_1
 40
0.1976
 41
0.1976
 66
1
 10
0
 20
0
 30
0
  0
VERTEX
  8
LAYER_1
 10
22.2887
 20
145.6945
  0
VERTEX
  8
LAYER_1
 10
26.7439
 20
145.6945
  0
SEQEND
  0
POLYLINE
  8
LAYER_1
 40
0.1976
 41
0.1976
 66
1
 10
0
 20
0
 30
0
  0
VERTEX
  8
LAYER_1
 10
22.2887
 20
113.1948
  0
VERTEX
  8
LAYER_1
 10
26.7439
 20
113.1948
  0
SEQEND
  0
TEXT
  8
LAYER_1
 10
22.3399
 20
94.0342
 11
22.3399
 21
94.0342
 40
5.0153
 41
0.5
 50
89.99999999
  1
68
  0
TEXT
  8
LAYER_1
 10
22.3571
 20
128.2537
 11
22.3571
 21
128.2537
 40
5.0153
 41
0.5
 50
89.99999999
  1
65
  0
TEXT
  8
LAYER_1
 10
123.3041
 20
65.7807
 11
123.3041
 21
65.7807
 40
5.0153
 41
0.5
  1
325
  0
POLYLINE
  8
LAYER_1
 40
0.2646
 41
0.2646
 66
1
 10
0
 20
0
 30
0
  0
VERTEX
  8
LAYER_1
 10
60.1486
 20
75.8893
  0
VERTEX
  8
LAYER_1
 10
60.1486
 20
70.907
  0
SEQEND
  0
POLYLINE
  8
LAYER_1
 40
0.2646
 41
0.2646
 66
1
 10
0
 20
0
 30
0
  0
VERTEX
  8
LAYER_1
 10
60.1486
 20
70.907
  0
VERTEX
  8
LAYER_1
 10
35.2206
 20
70.907
  0
SEQEND
  0
POLYLINE
  8
LAYER_1
 40
0.2646
 41
0.2646
 66
1
 10
0
 20
0
 30
0
  0
VERTEX
  8
LAYER_1
 10
35.2206
 20
70.907
  0
VERTEX
  8
LAYER_1
 10
35.2206
 20
75.8893
  0
SEQEND
  0
TEXT
  8
LAYER_1
 10
45.6262
 20
71.4289
 11
45.6262
 21
71.4289
 40
5.0153
 41
0.5
  1
50
  0
TEXT
  8
LAYER_3
 10
-26.2556
 20
43.1712
 11
-26.2556
 21
43.1712
 40
3.2995
 41
0.5
  1
Ädùl
  0
POLYLINE
  8
LAYER_3
 40
0.3528
 41
0.3528
 66
1
 10
0
 20
0
 30
0
  0
VERTEX
  8
LAYER_3
 10
250.6748
 20
51.9507
  0
VERTEX
  8
LAYER_3
 10
-29.3178
 20
51.9507
  0
SEQEND
  0
INSERT
  8
LAYER_3
  2
AIGNBL03010002
 10
0
 20
0
 30
0
  0
POLYLINE
  8
LAYER_3
 40
0.3528
 41
0.3528
 66
1
 10
0
 20
0
 30
0
  0
VERTEX
  8
LAYER_3
 10
-29.3178
 20
229.3369
  0
VERTEX
  8
LAYER_3
 10
-29.3178
 20
34.3283
  0
VERTEX
  8
LAYER_3
 10
250.6748
 20
34.3283
  0
VERTEX
  8
LAYER_3
 10
250.6748
 20
229.3369
  0
VERTEX
  8
LAYER_3
 10
-29.3178
 20
229.3369
  0
SEQEND
  0
POLYLINE
  8
LAYER_3
 40
0.3528
 41
0.3528
 66
1
 10
0
 20
0
 30
0
  0
VERTEX
  8
LAYER_3
 10
250.6748
 20
60.4597
  0
VERTEX
  8
LAYER_3
 10
-29.3178
 20
60.4597
  0
SEQEND
  0
POLYLINE
  8
LAYER_3
 40
0.3528
 41
0.3528
 66
1
 10
0
 20
0
 30
0
  0
VERTEX
  8
LAYER_3
 10
250.6748
 20
43.4416
  0
VERTEX
  8
LAYER_3
 10
143.534
 20
43.4416
  0
SEQEND
  0
TEXT
  8
LAYER_3
 10
188.1725
 20
45.7175
 11
188.1725
 21
45.7175
 40
3.7615
 41
0.5
  1
-
  0
TEXT
  8
LAYER_3
 10
182.8808
 20
49.4743
 11
182.8808
 21
49.4743
 40
2.1997
 41
0.5
  1
ÅkÄ┌
  0
POLYLINE
  8
LAYER_3
 40
0.3528
 41
0.3528
 66
1
 10
0
 20
0
 30
0
  0
VERTEX
  8
LAYER_3
 10
181.3526
 20
43.4416
  0
VERTEX
  8
LAYER_3
 10
181.3526
 20
51.9507
  0
SEQEND
  0
TEXT
  8
LAYER_3
 10
144.2327
 20
57.9834
 11
144.2327
 21
57.9834
 40
2.1997
 41
0.5
  1
òiöÈ
  0
TEXT
  8
LAYER_3
 10
-28.1609
 20
57.9834
 11
-28.1609
 21
57.9834
 40
2.1997
 41
0.5
  1
òiû╝
  0
TEXT
  8
LAYER_3
 10
144.2327
 20
49.4743
 11
144.2327
 21
49.4743
 40
2.1997
 41
0.5
  1
Ådù╩
  0
TEXT
  8
LAYER_3
 10
150.2547
 20
54.1514
 11
150.2547
 21
54.1514
 40
5.9385
 41
0.5
  1
CIE-SIF/
  0
TEXT
  8
LAYER_3
 10
149.5454
 20
45.7175
 11
149.5454
 21
45.7175
 40
3.7615
 41
0.5
  1
-
  0
POLYLINE
  8
LAYER_3
 40
0.3528
 41
0.3528
 66
1
 10
0
 20
0
 30
0
  0
VERTEX
  8
LAYER_3
 10
143.534
 20
34.9539
  0
VERTEX
  8
LAYER_3
 10
143.534
 20
60.4597
  0
SEQEND
  0
TEXT
  8
LAYER_3
 10
-15.3178
 20
54.8911
 11
-15.3178
 21
54.8911
 40
4.1465
 41
0.5
  1
â{âgâïâgâëâbâv(ëóÅBÄdùlâ│32)
  0
TEXT
  8
LAYER_3
 10
-15.6835
 20
45.0084
 11
-15.6835
 21
45.0084
 40
3.1177
 41
0.5
  1
üªëóÅBÄdùlé╠é¢é▀üAÆPôãé┼ìæôÓÄdùlé╠örÉàïÓï´éãé═É┌æ%%pé┼é½é▄é╣é±üB
  0
TEXT
  8
LAYER_3
 10
-15.6835
 20
40.2584
 11
-15.6835
 21
40.2584
 40
3.1177
 41
0.5
  1
ü£ë®ô║ü£ôhæòÄdÅÒé%%d
  0
TEXT
  8
LAYER_3
 10
237.263
 20
63.2582
 11
237.263
 21
63.2582
 40
2.9618
 41
0.5
  1
ÆPê╩üFmm
  0
TEXT
  8
LAYER_3
 10
176.0254
 20
39.5359
 11
176.0254
 21
39.5359
 40
3.3853
 41
0.5
  1
ü£TEL 0120-65-1232ü£FAX 06-6532-1580
  0
TEXT
  8
LAYER_3
 10
176.0254
 20
36.0212
 11
176.0254
 21
36.0212
 40
3.3853
 41
0.5
  1
hits@hiratatile.co.jp
  0
INSERT
  8
LAYER_3
  2
AIGNBL03010003
 10
0
 20
0
 30
0
  0
TEXT
  8
LAYER_3
 10
240.3591
 20
225.8432
 11
240.3591
 21
225.8432
 40
2.0732
 41
0.5
  1
171218RT
  0
INSERT
  8
LAYER_3
  2
AIGNBL03010025
 10
0
 20
0
 30
0
  0
ENDSEC
  0
EOF
