  0
SECTION
  2
HEADER
  9
$ACADVER
  1
AC1009
  9
$LUNITS
 70
2
  9
$LUPREC
 70
4
  9
$LTSCALE
 40
1.0
  9
$EXTMIN
 10
-30.3177
 20
33.3285
 30
0
  9
$EXTMAX
 10
251.6749
 20
230.337
 30
0
  0
ENDSEC
  0
SECTION
  2
TABLES
  0
TABLE
  2
LTYPE
 70
256
  0
ENDTAB
  0
TABLE
  2
LAYER
 70
2
  0
LAYER
  2
LAYER_1
 70
64
 62
7
  6
CONTINUOUS
  0
LAYER
  2
LAYER_2
 70
64
 62
7
  6
CONTINUOUS
  0
ENDTAB
  0
TABLE
  2
STYLE
 70
6
  0
STYLE
  2
STANDARD
 70
0
 40
0
 50
0
 71
0
 41
0
 42
0
  3
TXT
  4
BIGFONT
  0
ENDTAB
  0
ENDSEC
  0
SECTION
  2
BLOCKS
  0
BLOCK
  8
LAYER_2
  2
AIGNBL02040009
 70
64
 10
0
 20
0
 30
0
  3
AIGNBL02040009
  0
POLYLINE
  8
LAYER_2
 40
0.05
 41
0.05
 66
1
 10
0
 20
0
 30
0
 70
1
  0
VERTEX
  8
LAYER_2
 10
146.7545
 20
39.1418
  0
VERTEX
  8
LAYER_2
 10
146.2656
 20
37.9567
  0
VERTEX
  8
LAYER_2
 10
145.6376
 20
37.9567
  0
VERTEX
  8
LAYER_2
 10
147.2372
 20
41.7225
  0
VERTEX
  8
LAYER_2
 10
147.9703
 20
41.7225
  0
VERTEX
  8
LAYER_2
 10
149.5768
 20
37.9567
  0
VERTEX
  8
LAYER_2
 10
148.9267
 20
37.9567
  0
VERTEX
  8
LAYER_2
 10
148.424
 20
39.1418
  0
SEQEND
  0
POLYLINE
  8
LAYER_2
 40
0.05
 41
0.05
 66
1
 10
0
 20
0
 30
0
 70
1
  0
VERTEX
  8
LAYER_2
 10
148.2983
 20
39.5207
  0
VERTEX
  8
LAYER_2
 10
147.8373
 20
40.6056
  0
VERTEX
  8
LAYER_2
 10
147.5927
 20
41.2926
  0
VERTEX
  8
LAYER_2
 10
147.5789
 20
41.2926
  0
VERTEX
  8
LAYER_2
 10
147.3412
 20
40.6101
  0
VERTEX
  8
LAYER_2
 10
146.8806
 20
39.5207
  0
SEQEND
  0
ENDBLK
  0
BLOCK
  8
LAYER_2
  2
AIGNBL0204000A
 70
64
 10
0
 20
0
 30
0
  3
AIGNBL0204000A
  0
POLYLINE
  8
LAYER_2
 40
0.05
 41
0.05
 66
1
 10
0
 20
0
 30
0
 70
1
  0
VERTEX
  8
LAYER_2
 10
153.942
 20
37.4034
 42
-0.01557776889
  0
VERTEX
  8
LAYER_2
 10
152.1399
 20
37.8395
  0
VERTEX
  8
LAYER_2
 10
151.8533
 20
37.895
 42
-0.08356586593
  0
VERTEX
  8
LAYER_2
 10
150.9892
 20
38.0612
 42
-0.09749891868
  0
VERTEX
  8
LAYER_2
 10
150.3281
 20
38.4671
 42
-0.2129139625
  0
VERTEX
  8
LAYER_2
 10
149.7793
 20
39.7998
 42
-0.09685063121
  0
VERTEX
  8
LAYER_2
 10
149.9239
 20
40.5732
 42
-0.2046489378
  0
VERTEX
  8
LAYER_2
 10
150.9715
 20
41.5974
 42
-0.09824326873
  0
VERTEX
  8
LAYER_2
 10
151.9725
 20
41.7838
 42
-0.08554303155
  0
VERTEX
  8
LAYER_2
 10
152.8411
 20
41.6425
 42
-0.100439485
  0
VERTEX
  8
LAYER_2
 10
153.5062
 20
41.2483
 42
-0.2140965971
  0
VERTEX
  8
LAYER_2
 10
154.0815
 20
39.8784
 42
-0.09539620281
  0
VERTEX
  8
LAYER_2
 10
153.9426
 20
39.1106
 42
-0.2143310008
  0
VERTEX
  8
LAYER_2
 10
152.9198
 20
38.1321
 42
-0.02339132607
  0
VERTEX
  8
LAYER_2
 10
152.7407
 20
38.0738
  0
VERTEX
  8
LAYER_2
 10
152.7407
 20
38.0514
 42
0.01711818545
  0
VERTEX
  8
LAYER_2
 10
154.117
 20
37.8113
  0
SEQEND
  0
POLYLINE
  8
LAYER_2
 40
0.05
 41
0.05
 66
1
 10
0
 20
0
 30
0
 70
1
  0
VERTEX
  8
LAYER_2
 10
153.4394
 20
39.857
 42
0.1071643265
  0
VERTEX
  8
LAYER_2
 10
153.2881
 20
40.5618
 42
0.2976270581
  0
VERTEX
  8
LAYER_2
 10
151.9511
 20
41.3873
 42
0.1072356843
  0
VERTEX
  8
LAYER_2
 10
151.2613
 20
41.2478
 42
0.2385874916
  0
VERTEX
  8
LAYER_2
 10
150.4743
 20
40.2422
 42
0.05751786987
  0
VERTEX
  8
LAYER_2
 10
150.4287
 20
39.8122
 42
0.218058121
  0
VERTEX
  8
LAYER_2
 10
150.9593
 20
38.6168
 42
0.1772828752
  0
VERTEX
  8
LAYER_2
 10
151.9232
 20
38.2912
 42
0.1075205619
  0
VERTEX
  8
LAYER_2
 10
152.6045
 20
38.4302
 42
0.2370768657
  0
VERTEX
  8
LAYER_2
 10
153.3917
 20
39.4298
 42
0.05602139055
  0
SEQEND
  0
ENDBLK
  0
BLOCK
  8
LAYER_2
  2
AIGNBL0204000B
 70
64
 10
0
 20
0
 30
0
  3
AIGNBL0204000B
  0
POLYLINE
  8
LAYER_2
 40
0.05
 41
0.05
 66
1
 10
0
 20
0
 30
0
 70
1
  0
VERTEX
  8
LAYER_2
 10
155.4089
 20
41.7225
  0
VERTEX
  8
LAYER_2
 10
155.4089
 20
39.4932
 42
0.114533087
  0
VERTEX
  8
LAYER_2
 10
155.5428
 20
38.8274
 42
0.1464774934
  0
VERTEX
  8
LAYER_2
 10
155.8932
 20
38.4422
 42
0.1362552487
  0
VERTEX
  8
LAYER_2
 10
156.5055
 20
38.2912
 42
0.1219300979
  0
VERTEX
  8
LAYER_2
 10
157.1286
 20
38.4259
 42
0.1503016186
  0
VERTEX
  8
LAYER_2
 10
157.5004
 20
38.7949
 42
0.1256239276
  0
VERTEX
  8
LAYER_2
 10
157.651
 20
39.4932
  0
VERTEX
  8
LAYER_2
 10
157.651
 20
41.7225
  0
VERTEX
  8
LAYER_2
 10
158.2656
 20
41.7225
  0
VERTEX
  8
LAYER_2
 10
158.2656
 20
39.5266
 42
-0.09996665729
  0
VERTEX
  8
LAYER_2
 10
158.1307
 20
38.7839
 42
-0.1215019567
  0
VERTEX
  8
LAYER_2
 10
157.7575
 20
38.2772
 42
-0.1106305922
  0
VERTEX
  8
LAYER_2
 10
157.132
 20
37.9706
 42
-0.06128719854
  0
VERTEX
  8
LAYER_2
 10
156.4845
 20
37.895
 42
-0.0941826643
  0
VERTEX
  8
LAYER_2
 10
155.6654
 20
38.0331
 42
-0.2431541134
  0
VERTEX
  8
LAYER_2
 10
154.8618
 20
38.9438
 42
-0.06321248355
  0
VERTEX
  8
LAYER_2
 10
154.7943
 20
39.5045
  0
VERTEX
  8
LAYER_2
 10
154.7943
 20
41.7225
  0
SEQEND
  0
ENDBLK
  0
BLOCK
  8
LAYER_2
  2
AIGNBL0204000C
 70
64
 10
0
 20
0
 30
0
  3
AIGNBL0204000C
  0
POLYLINE
  8
LAYER_2
 40
0.05
 41
0.05
 66
1
 10
0
 20
0
 30
0
 70
1
  0
VERTEX
  8
LAYER_2
 10
160.0119
 20
39.1418
  0
VERTEX
  8
LAYER_2
 10
159.5227
 20
37.9567
  0
VERTEX
  8
LAYER_2
 10
158.8947
 20
37.9567
  0
VERTEX
  8
LAYER_2
 10
160.4939
 20
41.7225
  0
VERTEX
  8
LAYER_2
 10
161.227
 20
41.7225
  0
VERTEX
  8
LAYER_2
 10
162.8335
 20
37.9567
  0
VERTEX
  8
LAYER_2
 10
162.1841
 20
37.9567
  0
VERTEX
  8
LAYER_2
 10
161.6814
 20
39.1418
  0
SEQEND
  0
POLYLINE
  8
LAYER_2
 40
0.05
 41
0.05
 66
1
 10
0
 20
0
 30
0
 70
1
  0
VERTEX
  8
LAYER_2
 10
161.5553
 20
39.5207
  0
VERTEX
  8
LAYER_2
 10
161.094
 20
40.6056
  0
VERTEX
  8
LAYER_2
 10
160.8494
 20
41.2926
  0
VERTEX
  8
LAYER_2
 10
160.8357
 20
41.2926
  0
VERTEX
  8
LAYER_2
 10
160.5983
 20
40.6101
  0
VERTEX
  8
LAYER_2
 10
160.1373
 20
39.5207
  0
SEQEND
  0
ENDBLK
  0
BLOCK
  8
LAYER_2
  2
AIGNBL0204000D
 70
64
 10
0
 20
0
 30
0
  3
AIGNBL0204000D
  0
POLYLINE
  8
LAYER_2
 40
0.05
 41
0.05
 66
1
 10
0
 20
0
 30
0
 70
1
  0
VERTEX
  8
LAYER_2
 10
163.8742
 20
41.6777
 42
-0.03245918394
  0
VERTEX
  8
LAYER_2
 10
165.0411
 20
41.7508
 42
-0.08084226265
  0
VERTEX
  8
LAYER_2
 10
165.9975
 20
41.619
 42
-0.07815635113
  0
VERTEX
  8
LAYER_2
 10
166.3609
 20
41.4379
 42
-0.2484709269
  0
VERTEX
  8
LAYER_2
 10
166.7726
 20
40.6497
 42
-0.226147
  0
VERTEX
  8
LAYER_2
 10
166.4095
 20
39.8456
 42
-0.1096895144
  0
VERTEX
  8
LAYER_2
 10
165.7812
 20
39.5323
 42
-0.06565832551
  0
VERTEX
  8
LAYER_2
 10
164.9708
 20
39.4319
 42
-0.06238309955
  0
VERTEX
  8
LAYER_2
 10
164.4823
 20
39.4653
  0
VERTEX
  8
LAYER_2
 10
164.4823
 20
37.9567
  0
VERTEX
  8
LAYER_2
 10
163.8742
 20
37.9567
  0
SEQEND
  0
POLYLINE
  8
LAYER_2
 40
0.05
 41
0.05
 66
1
 10
0
 20
0
 30
0
 70
1
  0
VERTEX
  8
LAYER_2
 10
164.4823
 20
39.8622
 42
0.04203451964
  0
VERTEX
  8
LAYER_2
 10
164.9846
 20
39.8229
 42
0.1032111168
  0
VERTEX
  8
LAYER_2
 10
165.7038
 20
39.9502
 42
0.1555938032
  0
VERTEX
  8
LAYER_2
 10
166.0686
 20
40.2546
 42
0.1352673748
  0
VERTEX
  8
LAYER_2
 10
166.1656
 20
40.6273
 42
0.1737047371
  0
VERTEX
  8
LAYER_2
 10
166.0308
 20
41.0346
 42
0.1517050813
  0
VERTEX
  8
LAYER_2
 10
165.6097
 20
41.2941
 42
0.06879756253
  0
VERTEX
  8
LAYER_2
 10
165.0552
 20
41.3649
 42
0.0634356619
  0
VERTEX
  8
LAYER_2
 10
164.4823
 20
41.3257
  0
SEQEND
  0
ENDBLK
  0
BLOCK
  8
LAYER_2
  2
AIGNBL0204000E
 70
64
 10
0
 20
0
 30
0
  3
AIGNBL0204000E
  0
POLYLINE
  8
LAYER_2
 40
0.05
 41
0.05
 66
1
 10
0
 20
0
 30
0
 70
1
  0
VERTEX
  8
LAYER_2
 10
168.3246
 20
41.4207
 42
-0.2767461975
  0
VERTEX
  8
LAYER_2
 10
168.1851
 20
41.1806
 42
-0.1265294091
  0
VERTEX
  8
LAYER_2
 10
167.9329
 20
41.1189
 42
-0.2237518698
  0
VERTEX
  8
LAYER_2
 10
167.6226
 20
41.2513
 42
-0.1708341408
  0
VERTEX
  8
LAYER_2
 10
167.5626
 20
41.4207
 42
-0.2643879937
  0
VERTEX
  8
LAYER_2
 10
167.712
 20
41.6678
 42
-0.1290073663
  0
VERTEX
  8
LAYER_2
 10
167.9467
 20
41.7277
 42
-0.225342086
  0
VERTEX
  8
LAYER_2
 10
168.2635
 20
41.597
 42
-0.1691136206
  0
SEQEND
  0
POLYLINE
  8
LAYER_2
 40
0.05
 41
0.05
 66
1
 10
0
 20
0
 30
0
 70
1
  0
VERTEX
  8
LAYER_2
 10
167.639
 20
37.9567
  0
VERTEX
  8
LAYER_2
 10
167.639
 20
40.6607
  0
VERTEX
  8
LAYER_2
 10
168.2537
 20
40.6607
  0
VERTEX
  8
LAYER_2
 10
168.2537
 20
37.9567
  0
SEQEND
  0
ENDBLK
  0
BLOCK
  8
LAYER_2
  2
AIGNBL0204000F
 70
64
 10
0
 20
0
 30
0
  3
AIGNBL0204000F
  0
POLYLINE
  8
LAYER_2
 40
0.05
 41
0.05
 66
1
 10
0
 20
0
 30
0
 70
1
  0
VERTEX
  8
LAYER_2
 10
170.1254
 20
39.1418
  0
VERTEX
  8
LAYER_2
 10
169.6372
 20
37.9567
  0
VERTEX
  8
LAYER_2
 10
169.0081
 20
37.9567
  0
VERTEX
  8
LAYER_2
 10
170.6077
 20
41.7225
  0
VERTEX
  8
LAYER_2
 10
171.3415
 20
41.7225
  0
VERTEX
  8
LAYER_2
 10
172.9479
 20
37.9567
  0
VERTEX
  8
LAYER_2
 10
172.2982
 20
37.9567
  0
VERTEX
  8
LAYER_2
 10
171.7955
 20
39.1418
  0
SEQEND
  0
POLYLINE
  8
LAYER_2
 40
0.05
 41
0.05
 66
1
 10
0
 20
0
 30
0
 70
1
  0
VERTEX
  8
LAYER_2
 10
171.6695
 20
39.5207
  0
VERTEX
  8
LAYER_2
 10
171.2085
 20
40.6056
  0
VERTEX
  8
LAYER_2
 10
170.9646
 20
41.2926
  0
VERTEX
  8
LAYER_2
 10
170.9498
 20
41.2926
  0
VERTEX
  8
LAYER_2
 10
170.7128
 20
40.6101
  0
VERTEX
  8
LAYER_2
 10
170.2518
 20
39.5207
  0
SEQEND
  0
ENDBLK
  0
BLOCK
  8
LAYER_2
  2
AIGNBL02030008
 70
64
 10
0
 20
0
 30
0
  3
AIGNBL02030008
  0
INSERT
  8
LAYER_2
  2
AIGNBL02040009
 10
0
 20
0
 30
0
  0
INSERT
  8
LAYER_2
  2
AIGNBL0204000A
 10
0
 20
0
 30
0
  0
INSERT
  8
LAYER_2
  2
AIGNBL0204000B
 10
0
 20
0
 30
0
  0
INSERT
  8
LAYER_2
  2
AIGNBL0204000C
 10
0
 20
0
 30
0
  0
INSERT
  8
LAYER_2
  2
AIGNBL0204000D
 10
0
 20
0
 30
0
  0
INSERT
  8
LAYER_2
  2
AIGNBL0204000E
 10
0
 20
0
 30
0
  0
INSERT
  8
LAYER_2
  2
AIGNBL0204000F
 10
0
 20
0
 30
0
  0
ENDBLK
  0
BLOCK
  8
LAYER_2
  2
AIGNBL02030011
 70
64
 10
0
 20
0
 30
0
  3
AIGNBL02030011
  0
POLYLINE
  8
LAYER_2
 40
0.05
 41
0.05
 66
1
 10
0
 20
0
 30
0
 70
1
  0
VERTEX
  8
LAYER_2
 10
145.7475
 20
36.0574
  0
VERTEX
  8
LAYER_2
 10
146.3008
 20
36.0574
  0
VERTEX
  8
LAYER_2
 10
146.3008
 20
35.9637
  0
VERTEX
  8
LAYER_2
 10
145.6424
 20
35.9637
  0
VERTEX
  8
LAYER_2
 10
145.6424
 20
36.9969
  0
VERTEX
  8
LAYER_2
 10
146.2832
 20
36.9969
  0
VERTEX
  8
LAYER_2
 10
146.2832
 20
36.9035
  0
VERTEX
  8
LAYER_2
 10
145.7475
 20
36.9035
  0
VERTEX
  8
LAYER_2
 10
145.7475
 20
36.549
  0
VERTEX
  8
LAYER_2
 10
146.2481
 20
36.549
  0
VERTEX
  8
LAYER_2
 10
146.2481
 20
36.4557
  0
VERTEX
  8
LAYER_2
 10
145.7475
 20
36.4557
  0
SEQEND
  0
ENDBLK
  0
BLOCK
  8
LAYER_2
  2
AIGNBL02030012
 70
64
 10
0
 20
0
 30
0
  3
AIGNBL02030012
  0
POLYLINE
  8
LAYER_2
 40
0.05
 41
0.05
 66
1
 10
0
 20
0
 30
0
 70
1
  0
VERTEX
  8
LAYER_2
 10
147.4404
 20
36.117
  0
VERTEX
  8
LAYER_2
 10
147.4432
 20
36.117
  0
VERTEX
  8
LAYER_2
 10
147.4432
 20
36.9969
  0
VERTEX
  8
LAYER_2
 10
147.5483
 20
36.9969
  0
VERTEX
  8
LAYER_2
 10
147.5483
 20
35.9637
  0
VERTEX
  8
LAYER_2
 10
147.4174
 20
35.9637
  0
VERTEX
  8
LAYER_2
 10
146.8162
 20
36.8525
  0
VERTEX
  8
LAYER_2
 10
146.8127
 20
36.8525
  0
VERTEX
  8
LAYER_2
 10
146.8127
 20
35.9637
  0
VERTEX
  8
LAYER_2
 10
146.708
 20
35.9637
  0
VERTEX
  8
LAYER_2
 10
146.708
 20
36.9969
  0
VERTEX
  8
LAYER_2
 10
146.8393
 20
36.9969
  0
SEQEND
  0
ENDBLK
  0
BLOCK
  8
LAYER_2
  2
AIGNBL02030013
 70
64
 10
0
 20
0
 30
0
  3
AIGNBL02030013
  0
POLYLINE
  8
LAYER_2
 40
0.05
 41
0.05
 66
1
 10
0
 20
0
 30
0
 70
1
  0
VERTEX
  8
LAYER_2
 10
148.0213
 20
36.1756
  0
VERTEX
  8
LAYER_2
 10
148.0757
 20
36.0725
 42
0.1803975231
  0
VERTEX
  8
LAYER_2
 10
148.1891
 20
36.0309
  0
VERTEX
  8
LAYER_2
 10
148.2783
 20
36.0505
  0
VERTEX
  8
LAYER_2
 10
148.3344
 20
36.1039
  0
VERTEX
  8
LAYER_2
 10
148.3634
 20
36.1804
  0
VERTEX
  8
LAYER_2
 10
148.3717
 20
36.27
  0
VERTEX
  8
LAYER_2
 10
148.3717
 20
36.9969
  0
VERTEX
  8
LAYER_2
 10
148.4767
 20
36.9969
  0
VERTEX
  8
LAYER_2
 10
148.4767
 20
36.2614
  0
VERTEX
  8
LAYER_2
 10
148.4654
 20
36.1535
  0
VERTEX
  8
LAYER_2
 10
148.424
 20
36.0485
  0
VERTEX
  8
LAYER_2
 10
148.3393
 20
35.9689
  0
VERTEX
  8
LAYER_2
 10
148.2004
 20
35.9375
 42
-0.1845231376
  0
VERTEX
  8
LAYER_2
 10
148.0158
 20
35.9974
 42
-0.1765285731
  0
VERTEX
  8
LAYER_2
 10
147.9234
 20
36.149
  0
SEQEND
  0
ENDBLK
  0
BLOCK
  8
LAYER_2
  2
AIGNBL02030014
 70
64
 10
0
 20
0
 30
0
  3
AIGNBL02030014
  0
POLYLINE
  8
LAYER_2
 40
0.05
 41
0.05
 66
1
 10
0
 20
0
 30
0
 70
1
  0
VERTEX
  8
LAYER_2
 10
149.965
 20
36.4805
 42
-0.1041417444
  0
VERTEX
  8
LAYER_2
 10
149.924
 20
36.2631
 42
-0.10057123
  0
VERTEX
  8
LAYER_2
 10
149.8113
 20
36.0915
  0
VERTEX
  8
LAYER_2
 10
149.6405
 20
35.9785
 42
-0.0950295922
  0
VERTEX
  8
LAYER_2
 10
149.4265
 20
35.9375
 42
-0.1010765979
  0
VERTEX
  8
LAYER_2
 10
149.2129
 20
35.9785
 42
-0.1000570207
  0
VERTEX
  8
LAYER_2
 10
149.042
 20
36.0915
 42
-0.09442769366
  0
VERTEX
  8
LAYER_2
 10
148.9287
 20
36.2631
 42
-0.09293305267
  0
VERTEX
  8
LAYER_2
 10
148.8881
 20
36.4805
 42
-0.1024980643
  0
VERTEX
  8
LAYER_2
 10
148.9287
 20
36.6978
 42
-0.1008832254
  0
VERTEX
  8
LAYER_2
 10
149.042
 20
36.8694
 42
-0.09625117665
  0
VERTEX
  8
LAYER_2
 10
149.2129
 20
36.9824
 42
-0.0952064105
  0
VERTEX
  8
LAYER_2
 10
149.4265
 20
37.0234
 42
-0.1012184087
  0
VERTEX
  8
LAYER_2
 10
149.6405
 20
36.9824
 42
-0.09890806396
  0
VERTEX
  8
LAYER_2
 10
149.8113
 20
36.8694
 42
-0.09577200427
  0
VERTEX
  8
LAYER_2
 10
149.924
 20
36.6978
 42
-0.09400765476
  0
SEQEND
  0
POLYLINE
  8
LAYER_2
 40
0.05
 41
0.05
 66
1
 10
0
 20
0
 30
0
 70
1
  0
VERTEX
  8
LAYER_2
 10
149.8541
 20
36.4798
  0
VERTEX
  8
LAYER_2
 10
149.8251
 20
36.6517
  0
VERTEX
  8
LAYER_2
 10
149.7404
 20
36.795
  0
VERTEX
  8
LAYER_2
 10
149.6053
 20
36.8932
  0
VERTEX
  8
LAYER_2
 10
149.4265
 20
36.93
  0
VERTEX
  8
LAYER_2
 10
149.2478
 20
36.8932
  0
VERTEX
  8
LAYER_2
 10
149.113
 20
36.795
  0
VERTEX
  8
LAYER_2
 10
149.0283
 20
36.6517
  0
VERTEX
  8
LAYER_2
 10
148.999
 20
36.4798
  0
VERTEX
  8
LAYER_2
 10
149.0283
 20
36.3079
  0
VERTEX
  8
LAYER_2
 10
149.113
 20
36.1649
  0
VERTEX
  8
LAYER_2
 10
149.2478
 20
36.0674
 42
0.1008814383
  0
VERTEX
  8
LAYER_2
 10
149.4265
 20
36.0309
 42
0.1157330551
  0
VERTEX
  8
LAYER_2
 10
149.6053
 20
36.0674
  0
VERTEX
  8
LAYER_2
 10
149.7404
 20
36.1649
  0
VERTEX
  8
LAYER_2
 10
149.8251
 20
36.3079
  0
SEQEND
  0
ENDBLK
  0
BLOCK
  8
LAYER_2
  2
AIGNBL02030015
 70
64
 10
0
 20
0
 30
0
  3
AIGNBL02030015
  0
POLYLINE
  8
LAYER_2
 40
0.05
 41
0.05
 66
1
 10
0
 20
0
 30
0
 70
1
  0
VERTEX
  8
LAYER_2
 10
150.7398
 20
35.9637
  0
VERTEX
  8
LAYER_2
 10
150.6351
 20
35.9637
  0
VERTEX
  8
LAYER_2
 10
150.6351
 20
36.4091
  0
VERTEX
  8
LAYER_2
 10
150.2482
 20
36.9969
  0
VERTEX
  8
LAYER_2
 10
150.3795
 20
36.9969
  0
VERTEX
  8
LAYER_2
 10
150.6905
 20
36.4967
  0
VERTEX
  8
LAYER_2
 10
151.0041
 20
36.9969
  0
VERTEX
  8
LAYER_2
 10
151.1263
 20
36.9969
  0
VERTEX
  8
LAYER_2
 10
150.7398
 20
36.4091
  0
SEQEND
  0
ENDBLK
  0
BLOCK
  8
LAYER_2
  2
AIGNBL02030016
 70
64
 10
0
 20
0
 30
0
  3
AIGNBL02030016
  0
POLYLINE
  8
LAYER_2
 40
0.05
 41
0.05
 66
1
 10
0
 20
0
 30
0
 70
1
  0
VERTEX
  8
LAYER_2
 10
152.0314
 20
36.9969
  0
VERTEX
  8
LAYER_2
 10
152.339
 20
36.9969
  0
VERTEX
  8
LAYER_2
 10
152.4575
 20
36.9845
  0
VERTEX
  8
LAYER_2
 10
152.5643
 20
36.9421
  0
VERTEX
  8
LAYER_2
 10
152.6422
 20
36.8611
  0
VERTEX
  8
LAYER_2
 10
152.6718
 20
36.733
 42
-0.1790346201
  0
VERTEX
  8
LAYER_2
 10
152.6219
 20
36.5907
 42
-0.1642933266
  0
VERTEX
  8
LAYER_2
 10
152.4885
 20
36.5111
  0
VERTEX
  8
LAYER_2
 10
152.4885
 20
36.5084
 42
-0.1735805246
  0
VERTEX
  8
LAYER_2
 10
152.6553
 20
36.4302
 42
-0.1921994171
  0
VERTEX
  8
LAYER_2
 10
152.7214
 20
36.2496
  0
VERTEX
  8
LAYER_2
 10
152.6942
 20
36.1325
  0
VERTEX
  8
LAYER_2
 10
152.6181
 20
36.0419
  0
VERTEX
  8
LAYER_2
 10
152.4972
 20
35.9844
  0
VERTEX
  8
LAYER_2
 10
152.3373
 20
35.9637
  0
VERTEX
  8
LAYER_2
 10
152.0314
 20
35.9637
  0
SEQEND
  0
POLYLINE
  8
LAYER_2
 40
0.05
 41
0.05
 66
1
 10
0
 20
0
 30
0
 70
1
  0
VERTEX
  8
LAYER_2
 10
152.1364
 20
36.5445
  0
VERTEX
  8
LAYER_2
 10
152.348
 20
36.5445
  0
VERTEX
  8
LAYER_2
 10
152.4248
 20
36.5535
  0
VERTEX
  8
LAYER_2
 10
152.4951
 20
36.5831
  0
VERTEX
  8
LAYER_2
 10
152.5471
 20
36.6396
  0
VERTEX
  8
LAYER_2
 10
152.5668
 20
36.7258
  0
VERTEX
  8
LAYER_2
 10
152.5471
 20
36.8095
  0
VERTEX
  8
LAYER_2
 10
152.494
 20
36.8656
  0
VERTEX
  8
LAYER_2
 10
152.4152
 20
36.897
  0
VERTEX
  8
LAYER_2
 10
152.3187
 20
36.9066
  0
VERTEX
  8
LAYER_2
 10
152.1364
 20
36.9066
  0
SEQEND
  0
POLYLINE
  8
LAYER_2
 40
0.05
 41
0.05
 66
1
 10
0
 20
0
 30
0
 70
1
  0
VERTEX
  8
LAYER_2
 10
152.1364
 20
36.0543
  0
VERTEX
  8
LAYER_2
 10
152.3321
 20
36.0543
  0
VERTEX
  8
LAYER_2
 10
152.4406
 20
36.0653
  0
VERTEX
  8
LAYER_2
 10
152.5313
 20
36.1001
  0
VERTEX
  8
LAYER_2
 10
152.5929
 20
36.1632
  0
VERTEX
  8
LAYER_2
 10
152.6164
 20
36.2559
 42
0.2557371221
  0
VERTEX
  8
LAYER_2
 10
152.5471
 20
36.4081
 42
0.1381508151
  0
VERTEX
  8
LAYER_2
 10
152.3511
 20
36.4584
  0
VERTEX
  8
LAYER_2
 10
152.1364
 20
36.4584
  0
SEQEND
  0
ENDBLK
  0
BLOCK
  8
LAYER_2
  2
AIGNBL02030017
 70
64
 10
0
 20
0
 30
0
  3
AIGNBL02030017
  0
POLYLINE
  8
LAYER_2
 40
0.05
 41
0.05
 66
1
 10
0
 20
0
 30
0
 70
1
  0
VERTEX
  8
LAYER_2
 10
153.1534
 20
35.9637
  0
VERTEX
  8
LAYER_2
 10
153.038
 20
35.9637
  0
VERTEX
  8
LAYER_2
 10
153.4849
 20
36.9969
  0
VERTEX
  8
LAYER_2
 10
153.5872
 20
36.9969
  0
VERTEX
  8
LAYER_2
 10
154.0306
 20
35.9637
  0
VERTEX
  8
LAYER_2
 10
153.9138
 20
35.9637
  0
VERTEX
  8
LAYER_2
 10
153.7997
 20
36.2352
  0
VERTEX
  8
LAYER_2
 10
153.2657
 20
36.2352
  0
SEQEND
  0
POLYLINE
  8
LAYER_2
 40
0.05
 41
0.05
 66
1
 10
0
 20
0
 30
0
 70
1
  0
VERTEX
  8
LAYER_2
 10
153.305
 20
36.3316
  0
VERTEX
  8
LAYER_2
 10
153.7604
 20
36.3316
  0
VERTEX
  8
LAYER_2
 10
153.5327
 20
36.8804
  0
SEQEND
  0
ENDBLK
  0
BLOCK
  8
LAYER_2
  2
AIGNBL02030018
 70
64
 10
0
 20
0
 30
0
  3
AIGNBL02030018
  0
POLYLINE
  8
LAYER_2
 40
0.05
 41
0.05
 66
1
 10
0
 20
0
 30
0
 70
1
  0
VERTEX
  8
LAYER_2
 10
154.7151
 20
35.9637
  0
VERTEX
  8
LAYER_2
 10
154.61
 20
35.9637
  0
VERTEX
  8
LAYER_2
 10
154.61
 20
36.9035
  0
VERTEX
  8
LAYER_2
 10
154.2638
 20
36.9035
  0
VERTEX
  8
LAYER_2
 10
154.2638
 20
36.9969
  0
VERTEX
  8
LAYER_2
 10
155.0606
 20
36.9969
  0
VERTEX
  8
LAYER_2
 10
155.0606
 20
36.9035
  0
VERTEX
  8
LAYER_2
 10
154.7151
 20
36.9035
  0
SEQEND
  0
ENDBLK
  0
BLOCK
  8
LAYER_2
  2
AIGNBL02030019
 70
64
 10
0
 20
0
 30
0
  3
AIGNBL02030019
  0
POLYLINE
  8
LAYER_2
 40
0.05
 41
0.05
 66
1
 10
0
 20
0
 30
0
 70
1
  0
VERTEX
  8
LAYER_2
 10
155.4169
 20
36.9969
  0
VERTEX
  8
LAYER_2
 10
155.5216
 20
36.9969
  0
VERTEX
  8
LAYER_2
 10
155.5216
 20
36.549
  0
VERTEX
  8
LAYER_2
 10
156.0852
 20
36.549
  0
VERTEX
  8
LAYER_2
 10
156.0852
 20
36.9969
  0
VERTEX
  8
LAYER_2
 10
156.1903
 20
36.9969
  0
VERTEX
  8
LAYER_2
 10
156.1903
 20
35.9637
  0
VERTEX
  8
LAYER_2
 10
156.0852
 20
35.9637
  0
VERTEX
  8
LAYER_2
 10
156.0852
 20
36.4529
  0
VERTEX
  8
LAYER_2
 10
155.5216
 20
36.4529
  0
VERTEX
  8
LAYER_2
 10
155.5216
 20
35.9637
  0
VERTEX
  8
LAYER_2
 10
155.4169
 20
35.9637
  0
SEQEND
  0
ENDBLK
  0
BLOCK
  8
LAYER_2
  2
AIGNBL0203001A
 70
64
 10
0
 20
0
 30
0
  3
AIGNBL0203001A
  0
POLYLINE
  8
LAYER_2
 40
0.05
 41
0.05
 66
1
 10
0
 20
0
 30
0
 70
1
  0
VERTEX
  8
LAYER_2
 10
156.7708
 20
35.9637
  0
VERTEX
  8
LAYER_2
 10
156.6657
 20
35.9637
  0
VERTEX
  8
LAYER_2
 10
156.6657
 20
36.9969
  0
VERTEX
  8
LAYER_2
 10
156.9696
 20
36.9969
  0
VERTEX
  8
LAYER_2
 10
157.1101
 20
36.9824
  0
VERTEX
  8
LAYER_2
 10
157.2228
 20
36.9349
  0
VERTEX
  8
LAYER_2
 10
157.2962
 20
36.8494
  0
VERTEX
  8
LAYER_2
 10
157.3223
 20
36.7213
  0
VERTEX
  8
LAYER_2
 10
157.3024
 20
36.6176
  0
VERTEX
  8
LAYER_2
 10
157.2469
 20
36.5366
  0
VERTEX
  8
LAYER_2
 10
157.1635
 20
36.4818
  0
VERTEX
  8
LAYER_2
 10
157.0585
 20
36.4557
  0
VERTEX
  8
LAYER_2
 10
157.3606
 20
35.9637
  0
VERTEX
  8
LAYER_2
 10
157.2321
 20
35.9637
  0
VERTEX
  8
LAYER_2
 10
156.9461
 20
36.4467
  0
VERTEX
  8
LAYER_2
 10
156.7708
 20
36.4467
  0
SEQEND
  0
POLYLINE
  8
LAYER_2
 40
0.05
 41
0.05
 66
1
 10
0
 20
0
 30
0
 70
1
  0
VERTEX
  8
LAYER_2
 10
156.7708
 20
36.5373
  0
VERTEX
  8
LAYER_2
 10
156.9534
 20
36.5373
 42
0.165389034
  0
VERTEX
  8
LAYER_2
 10
157.1491
 20
36.5831
 42
0.2500512188
  0
VERTEX
  8
LAYER_2
 10
157.2176
 20
36.7213
  0
VERTEX
  8
LAYER_2
 10
157.1983
 20
36.8071
  0
VERTEX
  8
LAYER_2
 10
157.146
 20
36.8643
  0
VERTEX
  8
LAYER_2
 10
157.0643
 20
36.8963
  0
VERTEX
  8
LAYER_2
 10
156.9578
 20
36.9066
  0
VERTEX
  8
LAYER_2
 10
156.7708
 20
36.9066
  0
SEQEND
  0
ENDBLK
  0
BLOCK
  8
LAYER_2
  2
AIGNBL0203001B
 70
64
 10
0
 20
0
 30
0
  3
AIGNBL0203001B
  0
POLYLINE
  8
LAYER_2
 40
0.05
 41
0.05
 66
1
 10
0
 20
0
 30
0
 70
1
  0
VERTEX
  8
LAYER_2
 10
158.7627
 20
36.4805
 42
-0.1007216321
  0
VERTEX
  8
LAYER_2
 10
158.7221
 20
36.2631
 42
-0.1006914115
  0
VERTEX
  8
LAYER_2
 10
158.6087
 20
36.0915
 42
-0.09598545762
  0
VERTEX
  8
LAYER_2
 10
158.4382
 20
35.9785
 42
-0.09506675375
  0
VERTEX
  8
LAYER_2
 10
158.2243
 20
35.9375
 42
-0.1012083438
  0
VERTEX
  8
LAYER_2
 10
158.0103
 20
35.9785
 42
-0.1000476754
  0
VERTEX
  8
LAYER_2
 10
157.8398
 20
36.0915
 42
-0.09637642458
  0
VERTEX
  8
LAYER_2
 10
157.7268
 20
36.2631
 42
-0.09293305267
  0
VERTEX
  8
LAYER_2
 10
157.6862
 20
36.4805
 42
-0.1024980643
  0
VERTEX
  8
LAYER_2
 10
157.7268
 20
36.6978
 42
-0.101511181
  0
VERTEX
  8
LAYER_2
 10
157.8398
 20
36.8694
 42
-0.09563682649
  0
VERTEX
  8
LAYER_2
 10
158.0103
 20
36.9824
 42
-0.09502028874
  0
VERTEX
  8
LAYER_2
 10
158.2243
 20
37.0234
 42
-0.101175466
  0
VERTEX
  8
LAYER_2
 10
158.4382
 20
36.9824
 42
-0.1020868526
  0
VERTEX
  8
LAYER_2
 10
158.6087
 20
36.8694
 42
-0.09463764759
  0
VERTEX
  8
LAYER_2
 10
158.7221
 20
36.6978
 42
-0.09279149058
  0
SEQEND
  0
POLYLINE
  8
LAYER_2
 40
0.05
 41
0.05
 66
1
 10
0
 20
0
 30
0
 70
1
  0
VERTEX
  8
LAYER_2
 10
158.6518
 20
36.4798
  0
VERTEX
  8
LAYER_2
 10
158.6225
 20
36.6517
  0
VERTEX
  8
LAYER_2
 10
158.5378
 20
36.795
  0
VERTEX
  8
LAYER_2
 10
158.4031
 20
36.8932
  0
VERTEX
  8
LAYER_2
 10
158.2243
 20
36.93
  0
VERTEX
  8
LAYER_2
 10
158.0455
 20
36.8932
  0
VERTEX
  8
LAYER_2
 10
157.9104
 20
36.795
  0
VERTEX
  8
LAYER_2
 10
157.8257
 20
36.6517
  0
VERTEX
  8
LAYER_2
 10
157.7968
 20
36.4798
  0
VERTEX
  8
LAYER_2
 10
157.8257
 20
36.3079
  0
VERTEX
  8
LAYER_2
 10
157.9104
 20
36.1649
  0
VERTEX
  8
LAYER_2
 10
158.0455
 20
36.0674
 42
0.1008280473
  0
VERTEX
  8
LAYER_2
 10
158.2243
 20
36.0309
  0
VERTEX
  8
LAYER_2
 10
158.4031
 20
36.0674
  0
VERTEX
  8
LAYER_2
 10
158.5378
 20
36.1649
  0
VERTEX
  8
LAYER_2
 10
158.6225
 20
36.3079
  0
SEQEND
  0
ENDBLK
  0
BLOCK
  8
LAYER_2
  2
AIGNBL0203001C
 70
64
 10
0
 20
0
 30
0
  3
AIGNBL0203001C
  0
POLYLINE
  8
LAYER_2
 40
0.05
 41
0.05
 66
1
 10
0
 20
0
 30
0
 70
1
  0
VERTEX
  8
LAYER_2
 10
160.2045
 20
36.4805
 42
-0.1041417444
  0
VERTEX
  8
LAYER_2
 10
160.1635
 20
36.2631
 42
-0.09974098701
  0
VERTEX
  8
LAYER_2
 10
160.0509
 20
36.0915
 42
-0.09536265516
  0
VERTEX
  8
LAYER_2
 10
159.88
 20
35.9785
 42
-0.09506675375
  0
VERTEX
  8
LAYER_2
 10
159.6661
 20
35.9375
 42
-0.1018653774
  0
VERTEX
  8
LAYER_2
 10
159.4524
 20
35.9785
 42
-0.1019766254
  0
VERTEX
  8
LAYER_2
 10
159.2816
 20
36.0915
 42
-0.09463339148
  0
VERTEX
  8
LAYER_2
 10
159.1682
 20
36.2631
 42
-0.09293305267
  0
VERTEX
  8
LAYER_2
 10
159.1276
 20
36.4805
 42
-0.1024980643
  0
VERTEX
  8
LAYER_2
 10
159.1682
 20
36.6978
 42
-0.1011981835
  0
VERTEX
  8
LAYER_2
 10
159.2816
 20
36.8694
 42
-0.09612009159
  0
VERTEX
  8
LAYER_2
 10
159.4524
 20
36.9824
 42
-0.09524800311
  0
VERTEX
  8
LAYER_2
 10
159.6661
 20
37.0234
 42
-0.101175466
  0
VERTEX
  8
LAYER_2
 10
159.88
 20
36.9824
 42
-0.09853409661
  0
VERTEX
  8
LAYER_2
 10
160.0509
 20
36.8694
 42
-0.09555545285
  0
VERTEX
  8
LAYER_2
 10
160.1635
 20
36.6978
 42
-0.09400765476
  0
SEQEND
  0
POLYLINE
  8
LAYER_2
 40
0.05
 41
0.05
 66
1
 10
0
 20
0
 30
0
 70
1
  0
VERTEX
  8
LAYER_2
 10
160.0936
 20
36.4798
  0
VERTEX
  8
LAYER_2
 10
160.0647
 20
36.6517
  0
VERTEX
  8
LAYER_2
 10
159.9799
 20
36.795
  0
VERTEX
  8
LAYER_2
 10
159.8448
 20
36.8932
  0
VERTEX
  8
LAYER_2
 10
159.6661
 20
36.93
  0
VERTEX
  8
LAYER_2
 10
159.4872
 20
36.8932
  0
VERTEX
  8
LAYER_2
 10
159.3525
 20
36.795
  0
VERTEX
  8
LAYER_2
 10
159.2678
 20
36.6517
  0
VERTEX
  8
LAYER_2
 10
159.2385
 20
36.4798
  0
VERTEX
  8
LAYER_2
 10
159.2678
 20
36.3079
  0
VERTEX
  8
LAYER_2
 10
159.3525
 20
36.1649
  0
VERTEX
  8
LAYER_2
 10
159.4872
 20
36.0674
  0
VERTEX
  8
LAYER_2
 10
159.6661
 20
36.0309
  0
VERTEX
  8
LAYER_2
 10
159.8448
 20
36.0674
  0
VERTEX
  8
LAYER_2
 10
159.9799
 20
36.1649
  0
VERTEX
  8
LAYER_2
 10
160.0647
 20
36.3079
  0
SEQEND
  0
ENDBLK
  0
BLOCK
  8
LAYER_2
  2
AIGNBL0203001D
 70
64
 10
0
 20
0
 30
0
  3
AIGNBL0203001D
  0
POLYLINE
  8
LAYER_2
 40
0.05
 41
0.05
 66
1
 10
0
 20
0
 30
0
 70
1
  0
VERTEX
  8
LAYER_2
 10
161.1354
 20
36.1418
  0
VERTEX
  8
LAYER_2
 10
161.1371
 20
36.1418
  0
VERTEX
  8
LAYER_2
 10
161.4826
 20
36.9969
  0
VERTEX
  8
LAYER_2
 10
161.6435
 20
36.9969
  0
VERTEX
  8
LAYER_2
 10
161.6435
 20
35.9637
  0
VERTEX
  8
LAYER_2
 10
161.5381
 20
35.9637
  0
VERTEX
  8
LAYER_2
 10
161.5381
 20
36.8611
  0
VERTEX
  8
LAYER_2
 10
161.5354
 20
36.8611
  0
VERTEX
  8
LAYER_2
 10
161.1619
 20
35.9637
  0
VERTEX
  8
LAYER_2
 10
161.1064
 20
35.9637
  0
VERTEX
  8
LAYER_2
 10
160.7326
 20
36.8611
  0
VERTEX
  8
LAYER_2
 10
160.7299
 20
36.8611
  0
VERTEX
  8
LAYER_2
 10
160.7299
 20
35.9637
  0
VERTEX
  8
LAYER_2
 10
160.6248
 20
35.9637
  0
VERTEX
  8
LAYER_2
 10
160.6248
 20
36.9969
  0
VERTEX
  8
LAYER_2
 10
160.7853
 20
36.9969
  0
SEQEND
  0
ENDBLK
  0
BLOCK
  8
LAYER_2
  2
AIGNBL0203001E
 70
64
 10
0
 20
0
 30
0
  3
AIGNBL0203001E
  0
POLYLINE
  8
LAYER_2
 40
0.05
 41
0.05
 66
1
 10
0
 20
0
 30
0
 70
1
  0
VERTEX
  8
LAYER_2
 10
162.79
 20
36.0574
  0
VERTEX
  8
LAYER_2
 10
163.3433
 20
36.0574
  0
VERTEX
  8
LAYER_2
 10
163.3433
 20
35.9637
  0
VERTEX
  8
LAYER_2
 10
162.685
 20
35.9637
  0
VERTEX
  8
LAYER_2
 10
162.685
 20
36.9969
  0
VERTEX
  8
LAYER_2
 10
163.3258
 20
36.9969
  0
VERTEX
  8
LAYER_2
 10
163.3258
 20
36.9035
  0
VERTEX
  8
LAYER_2
 10
162.79
 20
36.9035
  0
VERTEX
  8
LAYER_2
 10
162.79
 20
36.549
  0
VERTEX
  8
LAYER_2
 10
163.2906
 20
36.549
  0
VERTEX
  8
LAYER_2
 10
163.2906
 20
36.4557
  0
VERTEX
  8
LAYER_2
 10
162.79
 20
36.4557
  0
SEQEND
  0
ENDBLK
  0
BLOCK
  8
LAYER_2
  2
AIGNBL0203001F
 70
64
 10
0
 20
0
 30
0
  3
AIGNBL0203001F
  0
POLYLINE
  8
LAYER_2
 40
0.05
 41
0.05
 66
1
 10
0
 20
0
 30
0
 70
1
  0
VERTEX
  8
LAYER_2
 10
164.0885
 20
36.5797
  0
VERTEX
  8
LAYER_2
 10
164.3707
 20
36.9969
  0
VERTEX
  8
LAYER_2
 10
164.4957
 20
36.9969
  0
VERTEX
  8
LAYER_2
 10
164.1533
 20
36.5053
  0
VERTEX
  8
LAYER_2
 10
164.5326
 20
35.9637
  0
VERTEX
  8
LAYER_2
 10
164.4013
 20
35.9637
  0
VERTEX
  8
LAYER_2
 10
164.0858
 20
36.4295
  0
VERTEX
  8
LAYER_2
 10
163.7722
 20
35.9637
  0
VERTEX
  8
LAYER_2
 10
163.6407
 20
35.9637
  0
VERTEX
  8
LAYER_2
 10
164.0203
 20
36.5066
  0
VERTEX
  8
LAYER_2
 10
163.6744
 20
36.9969
  0
VERTEX
  8
LAYER_2
 10
163.806
 20
36.9969
  0
SEQEND
  0
ENDBLK
  0
BLOCK
  8
LAYER_2
  2
AIGNBL02030020
 70
64
 10
0
 20
0
 30
0
  3
AIGNBL02030020
  0
POLYLINE
  8
LAYER_2
 40
0.05
 41
0.05
 66
1
 10
0
 20
0
 30
0
 70
1
  0
VERTEX
  8
LAYER_2
 10
164.8988
 20
36.9969
  0
VERTEX
  8
LAYER_2
 10
165.1909
 20
36.9969
  0
VERTEX
  8
LAYER_2
 10
165.3339
 20
36.9804
  0
VERTEX
  8
LAYER_2
 10
165.4438
 20
36.929
  0
VERTEX
  8
LAYER_2
 10
165.5148
 20
36.8429
  0
VERTEX
  8
LAYER_2
 10
165.5392
 20
36.7213
  0
VERTEX
  8
LAYER_2
 10
165.5141
 20
36.5993
  0
VERTEX
  8
LAYER_2
 10
165.4424
 20
36.5132
  0
VERTEX
  8
LAYER_2
 10
165.3315
 20
36.4615
  0
VERTEX
  8
LAYER_2
 10
165.1878
 20
36.444
  0
VERTEX
  8
LAYER_2
 10
165.0039
 20
36.444
  0
VERTEX
  8
LAYER_2
 10
165.0039
 20
35.9637
  0
VERTEX
  8
LAYER_2
 10
164.8988
 20
35.9637
  0
SEQEND
  0
POLYLINE
  8
LAYER_2
 40
0.05
 41
0.05
 66
1
 10
0
 20
0
 30
0
 70
1
  0
VERTEX
  8
LAYER_2
 10
165.0039
 20
36.5328
  0
VERTEX
  8
LAYER_2
 10
165.1816
 20
36.5328
 42
0.1829732243
  0
VERTEX
  8
LAYER_2
 10
165.3701
 20
36.581
 42
0.2345943979
  0
VERTEX
  8
LAYER_2
 10
165.4345
 20
36.7213
 42
0.26486771
  0
VERTEX
  8
LAYER_2
 10
165.368
 20
36.8622
 42
0.126412566
  0
VERTEX
  8
LAYER_2
 10
165.1816
 20
36.9066
  0
VERTEX
  8
LAYER_2
 10
165.0039
 20
36.9066
  0
SEQEND
  0
ENDBLK
  0
BLOCK
  8
LAYER_2
  2
AIGNBL02030021
 70
64
 10
0
 20
0
 30
0
  3
AIGNBL02030021
  0
POLYLINE
  8
LAYER_2
 40
0.05
 41
0.05
 66
1
 10
0
 20
0
 30
0
 70
1
  0
VERTEX
  8
LAYER_2
 10
166.0515
 20
36.0574
  0
VERTEX
  8
LAYER_2
 10
166.6048
 20
36.0574
  0
VERTEX
  8
LAYER_2
 10
166.6048
 20
35.9637
  0
VERTEX
  8
LAYER_2
 10
165.9465
 20
35.9637
  0
VERTEX
  8
LAYER_2
 10
165.9465
 20
36.9969
  0
VERTEX
  8
LAYER_2
 10
166.5872
 20
36.9969
  0
VERTEX
  8
LAYER_2
 10
166.5872
 20
36.9035
  0
VERTEX
  8
LAYER_2
 10
166.0515
 20
36.9035
  0
VERTEX
  8
LAYER_2
 10
166.0515
 20
36.549
  0
VERTEX
  8
LAYER_2
 10
166.5521
 20
36.549
  0
VERTEX
  8
LAYER_2
 10
166.5521
 20
36.4557
  0
VERTEX
  8
LAYER_2
 10
166.0515
 20
36.4557
  0
SEQEND
  0
ENDBLK
  0
BLOCK
  8
LAYER_2
  2
AIGNBL02030022
 70
64
 10
0
 20
0
 30
0
  3
AIGNBL02030022
  0
POLYLINE
  8
LAYER_2
 40
0.05
 41
0.05
 66
1
 10
0
 20
0
 30
0
 70
1
  0
VERTEX
  8
LAYER_2
 10
167.1168
 20
35.9637
  0
VERTEX
  8
LAYER_2
 10
167.0117
 20
35.9637
  0
VERTEX
  8
LAYER_2
 10
167.0117
 20
36.9969
  0
VERTEX
  8
LAYER_2
 10
167.3155
 20
36.9969
  0
VERTEX
  8
LAYER_2
 10
167.4561
 20
36.9824
  0
VERTEX
  8
LAYER_2
 10
167.5687
 20
36.9349
  0
VERTEX
  8
LAYER_2
 10
167.6425
 20
36.8494
  0
VERTEX
  8
LAYER_2
 10
167.6683
 20
36.7213
  0
VERTEX
  8
LAYER_2
 10
167.6483
 20
36.6176
  0
VERTEX
  8
LAYER_2
 10
167.5929
 20
36.5366
  0
VERTEX
  8
LAYER_2
 10
167.5095
 20
36.4818
  0
VERTEX
  8
LAYER_2
 10
167.4044
 20
36.4557
  0
VERTEX
  8
LAYER_2
 10
167.7066
 20
35.9637
  0
VERTEX
  8
LAYER_2
 10
167.578
 20
35.9637
  0
VERTEX
  8
LAYER_2
 10
167.2921
 20
36.4467
  0
VERTEX
  8
LAYER_2
 10
167.1168
 20
36.4467
  0
SEQEND
  0
POLYLINE
  8
LAYER_2
 40
0.05
 41
0.05
 66
1
 10
0
 20
0
 30
0
 70
1
  0
VERTEX
  8
LAYER_2
 10
167.1168
 20
36.5373
  0
VERTEX
  8
LAYER_2
 10
167.2994
 20
36.5373
 42
0.1667243505
  0
VERTEX
  8
LAYER_2
 10
167.495
 20
36.5831
 42
0.2503949893
  0
VERTEX
  8
LAYER_2
 10
167.5636
 20
36.7213
  0
VERTEX
  8
LAYER_2
 10
167.5446
 20
36.8071
  0
VERTEX
  8
LAYER_2
 10
167.4919
 20
36.8643
  0
VERTEX
  8
LAYER_2
 10
167.4103
 20
36.8963
  0
VERTEX
  8
LAYER_2
 10
167.3038
 20
36.9066
  0
VERTEX
  8
LAYER_2
 10
167.1168
 20
36.9066
  0
SEQEND
  0
ENDBLK
  0
BLOCK
  8
LAYER_2
  2
AIGNBL02030023
 70
64
 10
0
 20
0
 30
0
  3
AIGNBL02030023
  0
POLYLINE
  8
LAYER_2
 40
0.05
 41
0.05
 66
1
 10
0
 20
0
 30
0
 70
1
  0
VERTEX
  8
LAYER_2
 10
168.1923
 20
35.9637
  0
VERTEX
  8
LAYER_2
 10
168.0876
 20
35.9637
  0
VERTEX
  8
LAYER_2
 10
168.0876
 20
36.9969
  0
VERTEX
  8
LAYER_2
 10
168.1923
 20
36.9969
  0
SEQEND
  0
ENDBLK
  0
BLOCK
  8
LAYER_2
  2
AIGNBL02030024
 70
64
 10
0
 20
0
 30
0
  3
AIGNBL02030024
  0
POLYLINE
  8
LAYER_2
 40
0.05
 41
0.05
 66
1
 10
0
 20
0
 30
0
 70
1
  0
VERTEX
  8
LAYER_2
 10
168.7732
 20
36.0574
  0
VERTEX
  8
LAYER_2
 10
169.3261
 20
36.0574
  0
VERTEX
  8
LAYER_2
 10
169.3261
 20
35.9637
  0
VERTEX
  8
LAYER_2
 10
168.6681
 20
35.9637
  0
VERTEX
  8
LAYER_2
 10
168.6681
 20
36.9969
  0
VERTEX
  8
LAYER_2
 10
169.3089
 20
36.9969
  0
VERTEX
  8
LAYER_2
 10
169.3089
 20
36.9035
  0
VERTEX
  8
LAYER_2
 10
168.7732
 20
36.9035
  0
VERTEX
  8
LAYER_2
 10
168.7732
 20
36.549
  0
VERTEX
  8
LAYER_2
 10
169.2737
 20
36.549
  0
VERTEX
  8
LAYER_2
 10
169.2737
 20
36.4557
  0
VERTEX
  8
LAYER_2
 10
168.7732
 20
36.4557
  0
SEQEND
  0
ENDBLK
  0
BLOCK
  8
LAYER_2
  2
AIGNBL02030025
 70
64
 10
0
 20
0
 30
0
  3
AIGNBL02030025
  0
POLYLINE
  8
LAYER_2
 40
0.05
 41
0.05
 66
1
 10
0
 20
0
 30
0
 70
1
  0
VERTEX
  8
LAYER_2
 10
170.4661
 20
36.117
  0
VERTEX
  8
LAYER_2
 10
170.4689
 20
36.117
  0
VERTEX
  8
LAYER_2
 10
170.4689
 20
36.9969
  0
VERTEX
  8
LAYER_2
 10
170.5739
 20
36.9969
  0
VERTEX
  8
LAYER_2
 10
170.5739
 20
35.9637
  0
VERTEX
  8
LAYER_2
 10
170.4426
 20
35.9637
  0
VERTEX
  8
LAYER_2
 10
169.8415
 20
36.8525
  0
VERTEX
  8
LAYER_2
 10
169.8384
 20
36.8525
  0
VERTEX
  8
LAYER_2
 10
169.8384
 20
35.9637
  0
VERTEX
  8
LAYER_2
 10
169.7333
 20
35.9637
  0
VERTEX
  8
LAYER_2
 10
169.7333
 20
36.9969
  0
VERTEX
  8
LAYER_2
 10
169.8649
 20
36.9969
  0
SEQEND
  0
ENDBLK
  0
BLOCK
  8
LAYER_2
  2
AIGNBL02030026
 70
64
 10
0
 20
0
 30
0
  3
AIGNBL02030026
  0
POLYLINE
  8
LAYER_2
 40
0.05
 41
0.05
 66
1
 10
0
 20
0
 30
0
 70
1
  0
VERTEX
  8
LAYER_2
 10
171.9196
 20
36.1315
  0
VERTEX
  8
LAYER_2
 10
171.8558
 20
36.0571
  0
VERTEX
  8
LAYER_2
 10
171.7697
 20
35.9954
  0
VERTEX
  8
LAYER_2
 10
171.6615
 20
35.953
  0
VERTEX
  8
LAYER_2
 10
171.5327
 20
35.9375
 42
-0.1011939289
  0
VERTEX
  8
LAYER_2
 10
171.3167
 20
35.9785
 42
-0.1032846426
  0
VERTEX
  8
LAYER_2
 10
171.1461
 20
36.0915
 42
-0.0974858305
  0
VERTEX
  8
LAYER_2
 10
171.0345
 20
36.2631
 42
-0.09232404316
  0
VERTEX
  8
LAYER_2
 10
170.9942
 20
36.4805
 42
-0.1041003847
  0
VERTEX
  8
LAYER_2
 10
171.0352
 20
36.6978
 42
-0.1005616574
  0
VERTEX
  8
LAYER_2
 10
171.1479
 20
36.8694
 42
-0.09522588778
  0
VERTEX
  8
LAYER_2
 10
171.3187
 20
36.9824
 42
-0.09501991035
  0
VERTEX
  8
LAYER_2
 10
171.5327
 20
37.0234
  0
VERTEX
  8
LAYER_2
 10
171.6443
 20
37.0114
  0
VERTEX
  8
LAYER_2
 10
171.7473
 20
36.9779
  0
VERTEX
  8
LAYER_2
 10
171.8348
 20
36.9263
  0
VERTEX
  8
LAYER_2
 10
171.9006
 20
36.8584
  0
VERTEX
  8
LAYER_2
 10
171.8131
 20
36.794
  0
VERTEX
  8
LAYER_2
 10
171.7697
 20
36.8439
  0
VERTEX
  8
LAYER_2
 10
171.7063
 20
36.8877
  0
VERTEX
  8
LAYER_2
 10
171.6267
 20
36.9183
  0
VERTEX
  8
LAYER_2
 10
171.5341
 20
36.93
  0
VERTEX
  8
LAYER_2
 10
171.3539
 20
36.8935
  0
VERTEX
  8
LAYER_2
 10
171.2188
 20
36.7954
  0
VERTEX
  8
LAYER_2
 10
171.1341
 20
36.652
  0
VERTEX
  8
LAYER_2
 10
171.1052
 20
36.4805
  0
VERTEX
  8
LAYER_2
 10
171.1351
 20
36.3089
  0
VERTEX
  8
LAYER_2
 10
171.2205
 20
36.1656
  0
VERTEX
  8
LAYER_2
 10
171.3556
 20
36.0674
 42
0.100995487
  0
VERTEX
  8
LAYER_2
 10
171.5341
 20
36.0309
  0
VERTEX
  8
LAYER_2
 10
171.7032
 20
36.0674
 42
0.1321059012
  0
VERTEX
  8
LAYER_2
 10
171.8376
 20
36.1842
  0
SEQEND
  0
ENDBLK
  0
BLOCK
  8
LAYER_2
  2
AIGNBL02030027
 70
64
 10
0
 20
0
 30
0
  3
AIGNBL02030027
  0
POLYLINE
  8
LAYER_2
 40
0.05
 41
0.05
 66
1
 10
0
 20
0
 30
0
 70
1
  0
VERTEX
  8
LAYER_2
 10
172.4067
 20
36.0574
  0
VERTEX
  8
LAYER_2
 10
172.96
 20
36.0574
  0
VERTEX
  8
LAYER_2
 10
172.96
 20
35.9637
  0
VERTEX
  8
LAYER_2
 10
172.3016
 20
35.9637
  0
VERTEX
  8
LAYER_2
 10
172.3016
 20
36.9969
  0
VERTEX
  8
LAYER_2
 10
172.9424
 20
36.9969
  0
VERTEX
  8
LAYER_2
 10
172.9424
 20
36.9035
  0
VERTEX
  8
LAYER_2
 10
172.4067
 20
36.9035
  0
VERTEX
  8
LAYER_2
 10
172.4067
 20
36.549
  0
VERTEX
  8
LAYER_2
 10
172.9073
 20
36.549
  0
VERTEX
  8
LAYER_2
 10
172.9073
 20
36.4557
  0
VERTEX
  8
LAYER_2
 10
172.4067
 20
36.4557
  0
SEQEND
  0
ENDBLK
  0
BLOCK
  8
LAYER_2
  2
AIGNBL02020004
 70
64
 10
0
 20
0
 30
0
  3
AIGNBL02020004
  0
POLYLINE
  8
LAYER_2
 40
0.05
 41
0.05
 66
1
 10
0
 20
0
 30
0
  0
VERTEX
  8
LAYER_2
 10
-1.196
 20
217.6012
 42
-0.07434374488
  0
VERTEX
  8
LAYER_2
 10
-1.3046
 20
216.4751
 42
-0.1312981164
  0
VERTEX
  8
LAYER_2
 10
-1.5732
 20
216.0054
 42
-0.208619006
  0
VERTEX
  8
LAYER_2
 10
-2.3408
 20
215.7164
 42
-0.1980855618
  0
VERTEX
  8
LAYER_2
 10
-3.0956
 20
216.0054
 42
-0.1359059684
  0
VERTEX
  8
LAYER_2
 10
-3.3746
 20
216.5106
 42
-0.06699191066
  0
VERTEX
  8
LAYER_2
 10
-3.4732
 20
217.6012
 42
-0.07470238595
  0
VERTEX
  8
LAYER_2
 10
-3.3644
 20
218.7157
 42
-0.1310826725
  0
VERTEX
  8
LAYER_2
 10
-3.0956
 20
219.1845
 42
-0.2061520596
  0
VERTEX
  8
LAYER_2
 10
-2.3408
 20
219.4732
 42
-0.1977437771
  0
VERTEX
  8
LAYER_2
 10
-1.5732
 20
219.1845
 42
-0.1358673357
  0
VERTEX
  8
LAYER_2
 10
-1.2943
 20
218.6804
 42
-0.06720044206
  0
VERTEX
  8
LAYER_2
 10
-1.196
 20
217.6012
  0
SEQEND
  0
POLYLINE
  8
LAYER_2
 40
0.05
 41
0.05
 66
1
 10
0
 20
0
 30
0
  0
VERTEX
  8
LAYER_2
 10
0.4394
 20
217.6012
 42
0.0577585355
  0
VERTEX
  8
LAYER_2
 10
0.3194
 20
218.9609
 42
0.1358747382
  0
VERTEX
  8
LAYER_2
 10
-0.303
 20
220.1395
 42
0.1777268905
  0
VERTEX
  8
LAYER_2
 10
-1.8892
 20
220.9154
 42
0.03495822391
  0
VERTEX
  8
LAYER_2
 10
-2.3408
 20
220.9436
 42
0.07961804251
  0
VERTEX
  8
LAYER_2
 10
-3.315
 20
220.7962
 42
0.1217450219
  0
VERTEX
  8
LAYER_2
 10
-4.3662
 20
220.1395
 42
0.09150776818
  0
VERTEX
  8
LAYER_2
 10
-4.8465
 20
219.4067
 42
0.07735978812
  0
VERTEX
  8
LAYER_2
 10
-5.0776
 20
218.3847
 42
0.03281807239
  0
VERTEX
  8
LAYER_2
 10
-5.1082
 20
217.6012
 42
0.05725233541
  0
VERTEX
  8
LAYER_2
 10
-4.9885
 20
216.2362
 42
0.1359864428
  0
VERTEX
  8
LAYER_2
 10
-4.3662
 20
215.0504
 42
0.175204158
  0
VERTEX
  8
LAYER_2
 10
-2.7508
 20
214.2702
 42
0.03231924249
  0
VERTEX
  8
LAYER_2
 10
-2.3408
 20
214.2463
 42
0.07899302184
  0
VERTEX
  8
LAYER_2
 10
-1.3625
 20
214.3937
 42
0.1216861451
  0
VERTEX
  8
LAYER_2
 10
-0.303
 20
215.0504
 42
0.09340304456
  0
VERTEX
  8
LAYER_2
 10
0.1681
 20
215.7463
 42
0.0774645698
  0
VERTEX
  8
LAYER_2
 10
0.4017
 20
216.7223
 42
0.02212089617
  0
VERTEX
  8
LAYER_2
 10
0.4394
 20
217.6012
  0
SEQEND
  0
POLYLINE
  8
LAYER_2
 40
0.05
 41
0.05
 66
1
 10
0
 20
0
 30
0
  0
VERTEX
  8
LAYER_2
 10
-11.3166
 20
218.2044
  0
VERTEX
  8
LAYER_2
 10
-13.8074
 20
218.2044
 42
-0.1153546446
  0
VERTEX
  8
LAYER_2
 10
-13.6562
 20
218.9079
 42
-0.3007040875
  0
VERTEX
  8
LAYER_2
 10
-12.562
 20
219.5866
 42
-0.1235431447
  0
VERTEX
  8
LAYER_2
 10
-11.9621
 20
219.4464
 42
-0.1667603161
  0
VERTEX
  8
LAYER_2
 10
-11.4672
 20
218.9079
 42
-0.1143399212
  0
VERTEX
  8
LAYER_2
 10
-11.3166
 20
218.2044
  0
SEQEND
  0
POLYLINE
  8
LAYER_2
 40
0.05
 41
0.05
 66
1
 10
0
 20
0
 30
0
 70
1
  0
VERTEX
  8
LAYER_2
 10
-9.7064
 20
217.0861
  0
VERTEX
  8
LAYER_2
 10
-9.7064
 20
217.7772
 42
0.0677042249
  0
VERTEX
  8
LAYER_2
 10
-9.852
 20
218.9102
 42
0.07767771487
  0
VERTEX
  8
LAYER_2
 10
-10.2392
 20
219.7789
 42
0.1724975422
  0
VERTEX
  8
LAYER_2
 10
-11.5857
 20
220.7996
 42
0.07776532921
  0
VERTEX
  8
LAYER_2
 10
-12.562
 20
220.9436
 42
0.0796960513
  0
VERTEX
  8
LAYER_2
 10
-13.5247
 20
220.7966
 42
0.168887661
  0
VERTEX
  8
LAYER_2
 10
-14.846
 20
219.7874
 42
0.07658055294
  0
VERTEX
  8
LAYER_2
 10
-15.2466
 20
218.9066
 42
0.07097127065
  0
VERTEX
  8
LAYER_2
 10
-15.4177
 20
217.6012
 42
0.05685454964
  0
VERTEX
  8
LAYER_2
 10
-15.2934
 20
216.4004
 42
0.07540481703
  0
VERTEX
  8
LAYER_2
 10
-14.9492
 20
215.5069
 42
0.1774924504
  0
VERTEX
  8
LAYER_2
 10
-13.6777
 20
214.4527
 42
0.08958127581
  0
VERTEX
  8
LAYER_2
 10
-12.386
 20
214.2463
 42
0.07080596686
  0
VERTEX
  8
LAYER_2
 10
-11.2943
 20
214.3814
 42
0.08369033087
  0
VERTEX
  8
LAYER_2
 10
-10.4805
 20
214.7708
 42
0.04417423811
  0
VERTEX
  8
LAYER_2
 10
-9.8948
 20
215.2768
  0
VERTEX
  8
LAYER_2
 10
-10.8887
 20
216.2442
 42
-0.09875545259
  0
VERTEX
  8
LAYER_2
 10
-11.5612
 20
215.7667
 42
-0.1006814841
  0
VERTEX
  8
LAYER_2
 10
-12.3732
 20
215.6285
 42
-0.1070981108
  0
VERTEX
  8
LAYER_2
 10
-13.0555
 20
215.7638
 42
-0.2542521374
  0
VERTEX
  8
LAYER_2
 10
-13.7778
 20
216.7415
 42
-0.04997815034
  0
VERTEX
  8
LAYER_2
 10
-13.8074
 20
217.0861
  0
SEQEND
  0
POLYLINE
  8
LAYER_2
 40
0.05
 41
0.05
 66
1
 10
0
 20
0
 30
0
 70
1
  0
VERTEX
  8
LAYER_2
 10
-16.9018
 20
223.2773
  0
VERTEX
  8
LAYER_2
 10
-18.5517
 20
223.2773
  0
VERTEX
  8
LAYER_2
 10
-18.5517
 20
221.9454
  0
VERTEX
  8
LAYER_2
 10
-16.9018
 20
221.9454
  0
SEQEND
  0
POLYLINE
  8
LAYER_2
 40
0.05
 41
0.05
 66
1
 10
0
 20
0
 30
0
 70
1
  0
VERTEX
  8
LAYER_2
 10
-16.9146
 20
220.79
  0
VERTEX
  8
LAYER_2
 10
-18.5499
 20
220.79
  0
VERTEX
  8
LAYER_2
 10
-18.5499
 20
214.3218
  0
VERTEX
  8
LAYER_2
 10
-16.9146
 20
214.3218
  0
SEQEND
  0
POLYLINE
  8
LAYER_2
 40
0.05
 41
0.05
 66
1
 10
0
 20
0
 30
0
  0
VERTEX
  8
LAYER_2
 10
-19.8205
 20
215.1386
  0
VERTEX
  8
LAYER_2
 10
-20.9274
 20
216.2317
 42
-0.1123773458
  0
VERTEX
  8
LAYER_2
 10
-21.5025
 20
215.8017
 42
-0.09517045223
  0
VERTEX
  8
LAYER_2
 10
-21.984
 20
215.7164
 42
-0.2295666259
  0
VERTEX
  8
LAYER_2
 10
-22.9149
 20
216.1436
 42
-0.1146247369
  0
VERTEX
  8
LAYER_2
 10
-23.2025
 20
216.7765
 42
-0.05302023055
  0
VERTEX
  8
LAYER_2
 10
-23.2797
 20
217.6012
 42
-0.07909887362
  0
VERTEX
  8
LAYER_2
 10
-23.1547
 20
218.5928
 42
-0.092262399
  0
VERTEX
  8
LAYER_2
 10
-22.9149
 20
219.0461
 42
-0.2338488836
  0
VERTEX
  8
LAYER_2
 10
-21.984
 20
219.4732
 42
-0.128883052
  0
VERTEX
  8
LAYER_2
 10
-21.3835
 20
219.3322
 42
-0.07812769659
  0
VERTEX
  8
LAYER_2
 10
-20.9274
 20
218.9585
  0
VERTEX
  8
LAYER_2
 10
-19.8205
 20
220.0637
 42
0.170273791
  0
VERTEX
  8
LAYER_2
 10
-21.4399
 20
220.9062
 42
0.04126809408
  0
VERTEX
  8
LAYER_2
 10
-21.984
 20
220.9436
 42
0.07342899762
  0
VERTEX
  8
LAYER_2
 10
-22.9625
 20
220.804
 42
0.1715306153
  0
VERTEX
  8
LAYER_2
 10
-24.3547
 20
219.7917
 42
0.07792315428
  0
VERTEX
  8
LAYER_2
 10
-24.7438
 20
218.9398
 42
0.07121572719
  0
VERTEX
  8
LAYER_2
 10
-24.9151
 20
217.6012
 42
0.06071119945
  0
VERTEX
  8
LAYER_2
 10
-24.7811
 20
216.4004
 42
0.07599045696
  0
VERTEX
  8
LAYER_2
 10
-24.4186
 20
215.5069
 42
0.1707838222
  0
VERTEX
  8
LAYER_2
 10
-23.1195
 20
214.4409
 42
0.08917342928
  0
VERTEX
  8
LAYER_2
 10
-21.984
 20
214.2463
 42
0.07667723183
  0
VERTEX
  8
LAYER_2
 10
-21.0013
 20
214.3855
 42
0.1303789466
  0
VERTEX
  8
LAYER_2
 10
-19.8205
 20
215.1386
  0
SEQEND
  0
ENDBLK
  0
BLOCK
  8
LAYER_2
  2
AIGNBL02020005
 70
64
 10
0
 20
0
 30
0
  3
AIGNBL02020005
  0
POLYLINE
  8
LAYER_2
 40
0.05
 41
0.05
 66
1
 10
0
 20
0
 30
0
 70
1
  0
VERTEX
  8
LAYER_2
 10
0.3288
 20
212.6805
  0
VERTEX
  8
LAYER_2
 10
0.0009
 20
212.6805
  0
VERTEX
  8
LAYER_2
 10
-0.2479
 20
211.9109
  0
VERTEX
  8
LAYER_2
 10
-0.5066
 20
212.6805
  0
VERTEX
  8
LAYER_2
 10
-0.8342
 20
212.6805
  0
VERTEX
  8
LAYER_2
 10
-0.4084
 20
211.5234
  0
VERTEX
  8
LAYER_2
 10
-0.4611
 20
211.3704
 42
-0.396721792
  0
VERTEX
  8
LAYER_2
 10
-0.6165
 20
211.2581
  0
VERTEX
  8
LAYER_2
 10
-0.6882
 20
211.2581
  0
VERTEX
  8
LAYER_2
 10
-0.6882
 20
210.9783
  0
VERTEX
  8
LAYER_2
 10
-0.5662
 20
210.9783
 42
0.2105921841
  0
VERTEX
  8
LAYER_2
 10
-0.2985
 20
211.0741
  0
VERTEX
  8
LAYER_2
 10
-0.2048
 20
211.2343
  0
SEQEND
  0
POLYLINE
  8
LAYER_2
 40
0.05
 41
0.05
 66
1
 10
0
 20
0
 30
0
 70
1
  0
VERTEX
  8
LAYER_2
 10
-0.8704
 20
211.4352
  0
VERTEX
  8
LAYER_2
 10
-0.8704
 20
211.6977
  0
VERTEX
  8
LAYER_2
 10
-0.9899
 20
211.6977
 42
-0.4758158184
  0
VERTEX
  8
LAYER_2
 10
-1.0998
 20
211.8103
  0
VERTEX
  8
LAYER_2
 10
-1.0998
 20
213.137
  0
VERTEX
  8
LAYER_2
 10
-1.4109
 20
213.137
  0
VERTEX
  8
LAYER_2
 10
-1.4109
 20
211.7914
 42
0.4199153803
  0
VERTEX
  8
LAYER_2
 10
-1.0475
 20
211.4352
  0
SEQEND
  0
POLYLINE
  8
LAYER_2
 40
0.05
 41
0.05
 66
1
 10
0
 20
0
 30
0
 70
1
  0
VERTEX
  8
LAYER_2
 10
-1.9739
 20
211.894
 42
-0.2612643935
  0
VERTEX
  8
LAYER_2
 10
-2.0214
 20
211.7363
 42
-0.1972145384
  0
VERTEX
  8
LAYER_2
 10
-2.2057
 20
211.6763
 42
-0.4351815088
  0
VERTEX
  8
LAYER_2
 10
-2.3949
 20
211.8175
 42
-0.4650020324
  0
VERTEX
  8
LAYER_2
 10
-2.2105
 20
211.9609
  0
VERTEX
  8
LAYER_2
 10
-1.9739
 20
211.9609
  0
SEQEND
  0
POLYLINE
  8
LAYER_2
 40
0.05
 41
0.05
 66
1
 10
0
 20
0
 30
0
 70
1
  0
VERTEX
  8
LAYER_2
 10
-1.6624
 20
211.4352
  0
VERTEX
  8
LAYER_2
 10
-1.6624
 20
212.2551
 42
0.2205564812
  0
VERTEX
  8
LAYER_2
 10
-1.7881
 20
212.5772
 42
0.1806009816
  0
VERTEX
  8
LAYER_2
 10
-2.194
 20
212.6947
 42
0.2375604919
  0
VERTEX
  8
LAYER_2
 10
-2.6412
 20
212.5179
  0
VERTEX
  8
LAYER_2
 10
-2.4452
 20
212.3243
 42
-0.2464065653
  0
VERTEX
  8
LAYER_2
 10
-2.2057
 20
212.4322
 42
-0.4684872669
  0
VERTEX
  8
LAYER_2
 10
-1.9739
 20
212.2358
  0
VERTEX
  8
LAYER_2
 10
-1.9739
 20
212.1738
  0
VERTEX
  8
LAYER_2
 10
-2.2633
 20
212.1738
 42
0.2103132122
  0
VERTEX
  8
LAYER_2
 10
-2.6081
 20
212.0486
 42
0.18506809
  0
VERTEX
  8
LAYER_2
 10
-2.6942
 20
211.8127
 42
0.1945609364
  0
VERTEX
  8
LAYER_2
 10
-2.5912
 20
211.533
 42
0.1980708175
  0
VERTEX
  8
LAYER_2
 10
-2.2729
 20
211.4228
 42
0.2246292991
  0
VERTEX
  8
LAYER_2
 10
-1.9663
 20
211.5426
  0
VERTEX
  8
LAYER_2
 10
-1.9663
 20
211.4352
  0
SEQEND
  0
POLYLINE
  8
LAYER_2
 40
0.05
 41
0.05
 66
1
 10
0
 20
0
 30
0
 70
1
  0
VERTEX
  8
LAYER_2
 10
-2.8758
 20
211.4352
  0
VERTEX
  8
LAYER_2
 10
-2.8758
 20
211.6977
  0
VERTEX
  8
LAYER_2
 10
-2.9884
 20
211.6977
 42
-0.4605815503
  0
VERTEX
  8
LAYER_2
 10
-3.0963
 20
211.8103
  0
VERTEX
  8
LAYER_2
 10
-3.0963
 20
212.4081
  0
VERTEX
  8
LAYER_2
 10
-2.8758
 20
212.4081
  0
VERTEX
  8
LAYER_2
 10
-2.8758
 20
212.6444
  0
VERTEX
  8
LAYER_2
 10
-3.0963
 20
212.6444
  0
VERTEX
  8
LAYER_2
 10
-3.0963
 20
213.0126
  0
VERTEX
  8
LAYER_2
 10
-3.407
 20
213.0126
  0
VERTEX
  8
LAYER_2
 10
-3.407
 20
212.6444
  0
VERTEX
  8
LAYER_2
 10
-3.539
 20
212.6444
  0
VERTEX
  8
LAYER_2
 10
-3.539
 20
212.4081
  0
VERTEX
  8
LAYER_2
 10
-3.407
 20
212.4081
  0
VERTEX
  8
LAYER_2
 10
-3.407
 20
211.7914
 42
0.4187763975
  0
VERTEX
  8
LAYER_2
 10
-3.0456
 20
211.4352
  0
SEQEND
  0
POLYLINE
  8
LAYER_2
 40
0.05
 41
0.05
 66
1
 10
0
 20
0
 30
0
 70
1
  0
VERTEX
  8
LAYER_2
 10
-3.8091
 20
213.137
  0
VERTEX
  8
LAYER_2
 10
-4.1419
 20
213.137
  0
VERTEX
  8
LAYER_2
 10
-4.1419
 20
211.4352
  0
VERTEX
  8
LAYER_2
 10
-3.8091
 20
211.4352
  0
SEQEND
  0
POLYLINE
  8
LAYER_2
 40
0.05
 41
0.05
 66
1
 10
0
 20
0
 30
0
 70
1
  0
VERTEX
  8
LAYER_2
 10
-5.0562
 20
211.4352
  0
VERTEX
  8
LAYER_2
 10
-5.0562
 20
212.231
 42
0.2135728393
  0
VERTEX
  8
LAYER_2
 10
-5.183
 20
212.5844
 42
0.1976836271
  0
VERTEX
  8
LAYER_2
 10
-5.4775
 20
212.6947
 42
0.2038428178
  0
VERTEX
  8
LAYER_2
 10
-5.7886
 20
212.5658
  0
VERTEX
  8
LAYER_2
 10
-5.7886
 20
212.6805
  0
VERTEX
  8
LAYER_2
 10
-6.0925
 20
212.6805
  0
VERTEX
  8
LAYER_2
 10
-6.0925
 20
211.4352
  0
VERTEX
  8
LAYER_2
 10
-5.7814
 20
211.4352
  0
VERTEX
  8
LAYER_2
 10
-5.7814
 20
212.1882
 42
-0.4265123439
  0
VERTEX
  8
LAYER_2
 10
-5.573
 20
212.4149
 42
-0.4361688158
  0
VERTEX
  8
LAYER_2
 10
-5.3673
 20
212.1882
  0
VERTEX
  8
LAYER_2
 10
-5.3673
 20
211.4352
  0
SEQEND
  0
POLYLINE
  8
LAYER_2
 40
0.05
 41
0.05
 66
1
 10
0
 20
0
 30
0
 70
1
  0
VERTEX
  8
LAYER_2
 10
-6.437
 20
213.1467
  0
VERTEX
  8
LAYER_2
 10
-6.7553
 20
213.1467
  0
VERTEX
  8
LAYER_2
 10
-6.7553
 20
212.8931
  0
VERTEX
  8
LAYER_2
 10
-6.437
 20
212.8931
  0
SEQEND
  0
POLYLINE
  8
LAYER_2
 40
0.05
 41
0.05
 66
1
 10
0
 20
0
 30
0
 70
1
  0
VERTEX
  8
LAYER_2
 10
-6.4394
 20
212.6444
  0
VERTEX
  8
LAYER_2
 10
-6.7508
 20
212.6444
  0
VERTEX
  8
LAYER_2
 10
-6.7508
 20
211.4352
  0
VERTEX
  8
LAYER_2
 10
-6.4394
 20
211.4352
  0
SEQEND
  0
POLYLINE
  8
LAYER_2
 40
0.05
 41
0.05
 66
1
 10
0
 20
0
 30
0
  0
VERTEX
  8
LAYER_2
 10
-7.8994
 20
212.1738
  0
VERTEX
  8
LAYER_2
 10
-8.3735
 20
212.1738
  0
VERTEX
  8
LAYER_2
 10
-8.3445
 20
212.3074
 42
-0.3006254692
  0
VERTEX
  8
LAYER_2
 10
-8.1365
 20
212.4363
 42
-0.3004502708
  0
VERTEX
  8
LAYER_2
 10
-7.9284
 20
212.3074
  0
VERTEX
  8
LAYER_2
 10
-7.8994
 20
212.1738
  0
SEQEND
  0
POLYLINE
  8
LAYER_2
 40
0.05
 41
0.05
 66
1
 10
0
 20
0
 30
0
 70
1
  0
VERTEX
  8
LAYER_2
 10
-7.5932
 20
211.9609
  0
VERTEX
  8
LAYER_2
 10
-7.5932
 20
212.0925
 42
0.1727949422
  0
VERTEX
  8
LAYER_2
 10
-7.7261
 20
212.5161
 42
0.2293242446
  0
VERTEX
  8
LAYER_2
 10
-8.1365
 20
212.6947
 42
0.4082688927
  0
VERTEX
  8
LAYER_2
 10
-8.6757
 20
212.151
 42
0.02665393029
  0
VERTEX
  8
LAYER_2
 10
-8.6797
 20
212.0591
 42
0.1685110564
  0
VERTEX
  8
LAYER_2
 10
-8.5537
 20
211.6061
 42
0.2404561047
  0
VERTEX
  8
LAYER_2
 10
-8.103
 20
211.4207
 42
0.2250390665
  0
VERTEX
  8
LAYER_2
 10
-7.629
 20
211.6167
  0
VERTEX
  8
LAYER_2
 10
-7.8181
 20
211.801
 42
-0.2242451699
  0
VERTEX
  8
LAYER_2
 10
-8.1003
 20
211.6839
 42
-0.4312737558
  0
VERTEX
  8
LAYER_2
 10
-8.3735
 20
211.9609
  0
SEQEND
  0
POLYLINE
  8
LAYER_2
 40
0.05
 41
0.05
 66
1
 10
0
 20
0
 30
0
  0
VERTEX
  8
LAYER_2
 10
-9.2778
 20
212.0591
 42
-0.253040373
  0
VERTEX
  8
LAYER_2
 10
-9.3737
 20
211.7317
 42
-0.1751487426
  0
VERTEX
  8
LAYER_2
 10
-9.4911
 20
211.7004
 42
-0.3550784466
  0
VERTEX
  8
LAYER_2
 10
-9.6774
 20
211.8331
 42
-0.1590539016
  0
VERTEX
  8
LAYER_2
 10
-9.7016
 20
212.0591
 42
-0.2613372193
  0
VERTEX
  8
LAYER_2
 10
-9.6054
 20
212.3859
 42
-0.1728730088
  0
VERTEX
  8
LAYER_2
 10
-9.4911
 20
212.4149
 42
-0.3508351005
  0
VERTEX
  8
LAYER_2
 10
-9.3031
 20
212.2839
 42
-0.1617280931
  0
VERTEX
  8
LAYER_2
 10
-9.2778
 20
212.0591
  0
SEQEND
  0
POLYLINE
  8
LAYER_2
 40
0.05
 41
0.05
 66
1
 10
0
 20
0
 30
0
 70
1
  0
VERTEX
  8
LAYER_2
 10
-8.9667
 20
211.4352
  0
VERTEX
  8
LAYER_2
 10
-8.9667
 20
213.137
  0
VERTEX
  8
LAYER_2
 10
-9.2778
 20
213.137
  0
VERTEX
  8
LAYER_2
 10
-9.2778
 20
212.5707
 42
0.2263222596
  0
VERTEX
  8
LAYER_2
 10
-9.582
 20
212.6947
 42
0.2021447193
  0
VERTEX
  8
LAYER_2
 10
-9.8835
 20
212.5824
 42
0.1955994833
  0
VERTEX
  8
LAYER_2
 10
-10.0116
 20
212.1647
 42
0.01858076917
  0
VERTEX
  8
LAYER_2
 10
-10.013
 20
212.0591
 42
0.1992737425
  0
VERTEX
  8
LAYER_2
 10
-9.8835
 20
211.533
 42
0.1967798833
  0
VERTEX
  8
LAYER_2
 10
-9.5796
 20
211.4207
 42
0.2329721531
  0
VERTEX
  8
LAYER_2
 10
-9.2709
 20
211.5523
  0
VERTEX
  8
LAYER_2
 10
-9.2709
 20
211.4352
  0
SEQEND
  0
POLYLINE
  8
LAYER_2
 40
0.05
 41
0.05
 66
1
 10
0
 20
0
 30
0
 70
1
  0
VERTEX
  8
LAYER_2
 10
-10.6062
 20
211.894
 42
-0.2606176184
  0
VERTEX
  8
LAYER_2
 10
-10.6541
 20
211.7363
 42
-0.1975146001
  0
VERTEX
  8
LAYER_2
 10
-10.8384
 20
211.6763
 42
-0.4358674545
  0
VERTEX
  8
LAYER_2
 10
-11.0272
 20
211.8175
 42
-0.4654392595
  0
VERTEX
  8
LAYER_2
 10
-10.8433
 20
211.9609
  0
VERTEX
  8
LAYER_2
 10
-10.6062
 20
211.9609
  0
SEQEND
  0
POLYLINE
  8
LAYER_2
 40
0.05
 41
0.05
 66
1
 10
0
 20
0
 30
0
 70
1
  0
VERTEX
  8
LAYER_2
 10
-10.2951
 20
211.4352
  0
VERTEX
  8
LAYER_2
 10
-10.2951
 20
212.2551
 42
0.2204713638
  0
VERTEX
  8
LAYER_2
 10
-10.4207
 20
212.5772
 42
0.1806796456
  0
VERTEX
  8
LAYER_2
 10
-10.8267
 20
212.6947
 42
0.2375604919
  0
VERTEX
  8
LAYER_2
 10
-11.2739
 20
212.5179
  0
VERTEX
  8
LAYER_2
 10
-11.0779
 20
212.3243
 42
-0.2460763492
  0
VERTEX
  8
LAYER_2
 10
-10.8384
 20
212.4322
 42
-0.4683426501
  0
VERTEX
  8
LAYER_2
 10
-10.6062
 20
212.2358
  0
VERTEX
  8
LAYER_2
 10
-10.6062
 20
212.1738
  0
VERTEX
  8
LAYER_2
 10
-10.896
 20
212.1738
 42
0.2105830771
  0
VERTEX
  8
LAYER_2
 10
-11.2407
 20
212.0486
 42
0.1847749138
  0
VERTEX
  8
LAYER_2
 10
-11.3266
 20
211.8127
 42
0.1946881207
  0
VERTEX
  8
LAYER_2
 10
-11.2239
 20
211.533
 42
0.1984095291
  0
VERTEX
  8
LAYER_2
 10
-10.9053
 20
211.4228
 42
0.2251045156
  0
VERTEX
  8
LAYER_2
 10
-10.599
 20
211.5426
  0
VERTEX
  8
LAYER_2
 10
-10.599
 20
211.4352
  0
SEQEND
  0
POLYLINE
  8
LAYER_2
 40
0.05
 41
0.05
 66
1
 10
0
 20
0
 30
0
 70
1
  0
VERTEX
  8
LAYER_2
 10
-11.5733
 20
211.4352
  0
VERTEX
  8
LAYER_2
 10
-11.5733
 20
212.231
 42
0.2096424971
  0
VERTEX
  8
LAYER_2
 10
-11.7097
 20
212.5844
 42
0.1904514856
  0
VERTEX
  8
LAYER_2
 10
-12.016
 20
212.6947
 42
0.2201014615
  0
VERTEX
  8
LAYER_2
 10
-12.3894
 20
212.5369
 42
0.2475119635
  0
VERTEX
  8
LAYER_2
 10
-12.7198
 20
212.6947
 42
0.1971786765
  0
VERTEX
  8
LAYER_2
 10
-13.0309
 20
212.5658
  0
VERTEX
  8
LAYER_2
 10
-13.0309
 20
212.6805
  0
VERTEX
  8
LAYER_2
 10
-13.3348
 20
212.6805
  0
VERTEX
  8
LAYER_2
 10
-13.3348
 20
211.4352
  0
VERTEX
  8
LAYER_2
 10
-13.0233
 20
211.4352
  0
VERTEX
  8
LAYER_2
 10
-13.0233
 20
212.1882
 42
-0.4265481482
  0
VERTEX
  8
LAYER_2
 10
-12.8153
 20
212.4149
 42
-0.4361688158
  0
VERTEX
  8
LAYER_2
 10
-12.6096
 20
212.1882
  0
VERTEX
  8
LAYER_2
 10
-12.6096
 20
211.4352
  0
VERTEX
  8
LAYER_2
 10
-12.2985
 20
211.4352
  0
VERTEX
  8
LAYER_2
 10
-12.2985
 20
212.1951
 42
-0.4236814191
  0
VERTEX
  8
LAYER_2
 10
-12.0904
 20
212.4149
 42
-0.4367319455
  0
VERTEX
  8
LAYER_2
 10
-11.8844
 20
212.1882
  0
VERTEX
  8
LAYER_2
 10
-11.8844
 20
211.4352
  0
SEQEND
  0
POLYLINE
  8
LAYER_2
 40
0.05
 41
0.05
 66
1
 10
0
 20
0
 30
0
  0
VERTEX
  8
LAYER_2
 10
-13.8973
 20
212.0229
 42
-0.2061577285
  0
VERTEX
  8
LAYER_2
 10
-14.0003
 20
211.6401
 42
-0.1860547104
  0
VERTEX
  8
LAYER_2
 10
-14.1915
 20
211.5736
 42
-0.2912351062
  0
VERTEX
  8
LAYER_2
 10
-14.4327
 20
211.7044
 42
-0.1074256356
  0
VERTEX
  8
LAYER_2
 10
-14.4882
 20
212.0229
 42
-0.2074793493
  0
VERTEX
  8
LAYER_2
 10
-14.3843
 20
212.406
 42
-0.1847812498
  0
VERTEX
  8
LAYER_2
 10
-14.1915
 20
212.4725
 42
-0.2924886932
  0
VERTEX
  8
LAYER_2
 10
-13.9523
 20
212.3416
 42
-0.1065173685
  0
VERTEX
  8
LAYER_2
 10
-13.8973
 20
212.0229
  0
SEQEND
  0
POLYLINE
  8
LAYER_2
 40
0.05
 41
0.05
 66
1
 10
0
 20
0
 30
0
 70
1
  0
VERTEX
  8
LAYER_2
 10
-13.7247
 20
211.4352
  0
VERTEX
  8
LAYER_2
 10
-13.7247
 20
213.137
  0
VERTEX
  8
LAYER_2
 10
-13.8973
 20
213.137
  0
VERTEX
  8
LAYER_2
 10
-13.8973
 20
212.4749
 42
0.2526586678
  0
VERTEX
  8
LAYER_2
 10
-14.2298
 20
212.6258
 42
0.19617536
  0
VERTEX
  8
LAYER_2
 10
-14.5171
 20
212.5224
 42
0.2062736322
  0
VERTEX
  8
LAYER_2
 10
-14.6608
 20
212.0229
 42
0.1925049638
  0
VERTEX
  8
LAYER_2
 10
-14.5171
 20
211.5234
 42
0.1893263809
  0
VERTEX
  8
LAYER_2
 10
-14.2298
 20
211.4207
 42
0.2549957718
  0
VERTEX
  8
LAYER_2
 10
-13.8949
 20
211.5761
  0
VERTEX
  8
LAYER_2
 10
-13.8949
 20
211.4352
  0
SEQEND
  0
POLYLINE
  8
LAYER_2
 40
0.05
 41
0.05
 66
1
 10
0
 20
0
 30
0
 70
1
  0
VERTEX
  8
LAYER_2
 10
-15.0173
 20
211.4352
  0
VERTEX
  8
LAYER_2
 10
-15.0173
 20
212.1882
 42
0.2089360908
  0
VERTEX
  8
LAYER_2
 10
-15.1393
 20
212.5156
 42
0.1977212202
  0
VERTEX
  8
LAYER_2
 10
-15.4411
 20
212.6258
 42
0.2189458741
  0
VERTEX
  8
LAYER_2
 10
-15.7711
 20
212.4818
  0
VERTEX
  8
LAYER_2
 10
-15.7711
 20
212.6113
  0
VERTEX
  8
LAYER_2
 10
-15.9434
 20
212.6113
  0
VERTEX
  8
LAYER_2
 10
-15.9434
 20
211.4352
  0
VERTEX
  8
LAYER_2
 10
-15.7711
 20
211.4352
  0
VERTEX
  8
LAYER_2
 10
-15.7711
 20
212.1593
 42
-0.4284576329
  0
VERTEX
  8
LAYER_2
 10
-15.479
 20
212.4725
 42
-0.4466039224
  0
VERTEX
  8
LAYER_2
 10
-15.1896
 20
212.1593
  0
VERTEX
  8
LAYER_2
 10
-15.1896
 20
211.4352
  0
SEQEND
  0
POLYLINE
  8
LAYER_2
 40
0.05
 41
0.05
 66
1
 10
0
 20
0
 30
0
 70
1
  0
VERTEX
  8
LAYER_2
 10
-16.5346
 20
211.8506
 42
-0.2283736068
  0
VERTEX
  8
LAYER_2
 10
-16.5945
 20
211.6477
 42
-0.1936527339
  0
VERTEX
  8
LAYER_2
 10
-16.8553
 20
211.5688
 42
-0.4421173513
  0
VERTEX
  8
LAYER_2
 10
-17.1281
 20
211.77
 42
-0.3470924647
  0
VERTEX
  8
LAYER_2
 10
-16.9968
 20
211.9592
 42
-0.1261120874
  0
VERTEX
  8
LAYER_2
 10
-16.8625
 20
211.9774
  0
VERTEX
  8
LAYER_2
 10
-16.5346
 20
211.9774
  0
SEQEND
  0
POLYLINE
  8
LAYER_2
 40
0.05
 41
0.05
 66
1
 10
0
 20
0
 30
0
 70
1
  0
VERTEX
  8
LAYER_2
 10
-16.362
 20
211.4352
  0
VERTEX
  8
LAYER_2
 10
-16.362
 20
212.233
 42
0.2383829599
  0
VERTEX
  8
LAYER_2
 10
-16.4898
 20
212.5337
 42
0.1599209503
  0
VERTEX
  8
LAYER_2
 10
-16.8336
 20
212.6258
 42
0.2578644009
  0
VERTEX
  8
LAYER_2
 10
-17.2501
 20
212.4487
  0
VERTEX
  8
LAYER_2
 10
-17.133
 20
212.3409
 42
-0.2730960706
  0
VERTEX
  8
LAYER_2
 10
-16.8364
 20
212.4776
 42
-0.4521672334
  0
VERTEX
  8
LAYER_2
 10
-16.5346
 20
212.2193
  0
VERTEX
  8
LAYER_2
 10
-16.5346
 20
212.1066
  0
VERTEX
  8
LAYER_2
 10
-16.8863
 20
212.1066
 42
0.2189203862
  0
VERTEX
  8
LAYER_2
 10
-17.2226
 20
211.9822
 42
0.17494127
  0
VERTEX
  8
LAYER_2
 10
-17.2956
 20
211.7673
 42
0.2075768001
  0
VERTEX
  8
LAYER_2
 10
-17.2071
 20
211.5282
 42
0.2128603639
  0
VERTEX
  8
LAYER_2
 10
-16.8742
 20
211.4207
 42
0.2247839487
  0
VERTEX
  8
LAYER_2
 10
-16.5346
 20
211.5471
  0
VERTEX
  8
LAYER_2
 10
-16.5346
 20
211.4352
  0
SEQEND
  0
POLYLINE
  8
LAYER_2
 40
0.05
 41
0.05
 66
1
 10
0
 20
0
 30
0
 70
1
  0
VERTEX
  8
LAYER_2
 10
-17.6211
 20
211.4352
  0
VERTEX
  8
LAYER_2
 10
-17.6211
 20
212.1903
 42
0.2163078196
  0
VERTEX
  8
LAYER_2
 10
-17.7538
 20
212.5281
 42
0.1798246735
  0
VERTEX
  8
LAYER_2
 10
-18.0449
 20
212.6258
 42
0.2190712165
  0
VERTEX
  8
LAYER_2
 10
-18.3749
 20
212.4818
  0
VERTEX
  8
LAYER_2
 10
-18.3749
 20
213.137
  0
VERTEX
  8
LAYER_2
 10
-18.5475
 20
213.137
  0
VERTEX
  8
LAYER_2
 10
-18.5475
 20
211.4352
  0
VERTEX
  8
LAYER_2
 10
-18.3749
 20
211.4352
  0
VERTEX
  8
LAYER_2
 10
-18.3749
 20
212.1617
 42
-0.4350388577
  0
VERTEX
  8
LAYER_2
 10
-18.0807
 20
212.4725
 42
-0.4517618327
  0
VERTEX
  8
LAYER_2
 10
-17.7934
 20
212.1617
  0
VERTEX
  8
LAYER_2
 10
-17.7934
 20
211.4352
  0
SEQEND
  0
ENDBLK
  0
BLOCK
  8
LAYER_2
  2
AIGNBL02020007
 70
64
 10
0
 20
0
 30
0
  3
AIGNBL02020007
  0
INSERT
  8
LAYER_2
  2
AIGNBL02030008
 10
0
 20
0
 30
0
  0
ENDBLK
  0
BLOCK
  8
LAYER_2
  2
AIGNBL02020010
 70
64
 10
0
 20
0
 30
0
  3
AIGNBL02020010
  0
INSERT
  8
LAYER_2
  2
AIGNBL02030011
 10
0
 20
0
 30
0
  0
INSERT
  8
LAYER_2
  2
AIGNBL02030012
 10
0
 20
0
 30
0
  0
INSERT
  8
LAYER_2
  2
AIGNBL02030013
 10
0
 20
0
 30
0
  0
INSERT
  8
LAYER_2
  2
AIGNBL02030014
 10
0
 20
0
 30
0
  0
INSERT
  8
LAYER_2
  2
AIGNBL02030015
 10
0
 20
0
 30
0
  0
INSERT
  8
LAYER_2
  2
AIGNBL02030016
 10
0
 20
0
 30
0
  0
INSERT
  8
LAYER_2
  2
AIGNBL02030017
 10
0
 20
0
 30
0
  0
INSERT
  8
LAYER_2
  2
AIGNBL02030018
 10
0
 20
0
 30
0
  0
INSERT
  8
LAYER_2
  2
AIGNBL02030019
 10
0
 20
0
 30
0
  0
INSERT
  8
LAYER_2
  2
AIGNBL0203001A
 10
0
 20
0
 30
0
  0
INSERT
  8
LAYER_2
  2
AIGNBL0203001B
 10
0
 20
0
 30
0
  0
INSERT
  8
LAYER_2
  2
AIGNBL0203001C
 10
0
 20
0
 30
0
  0
INSERT
  8
LAYER_2
  2
AIGNBL0203001D
 10
0
 20
0
 30
0
  0
INSERT
  8
LAYER_2
  2
AIGNBL0203001E
 10
0
 20
0
 30
0
  0
INSERT
  8
LAYER_2
  2
AIGNBL0203001F
 10
0
 20
0
 30
0
  0
INSERT
  8
LAYER_2
  2
AIGNBL02030020
 10
0
 20
0
 30
0
  0
INSERT
  8
LAYER_2
  2
AIGNBL02030021
 10
0
 20
0
 30
0
  0
INSERT
  8
LAYER_2
  2
AIGNBL02030022
 10
0
 20
0
 30
0
  0
INSERT
  8
LAYER_2
  2
AIGNBL02030023
 10
0
 20
0
 30
0
  0
INSERT
  8
LAYER_2
  2
AIGNBL02030024
 10
0
 20
0
 30
0
  0
INSERT
  8
LAYER_2
  2
AIGNBL02030025
 10
0
 20
0
 30
0
  0
INSERT
  8
LAYER_2
  2
AIGNBL02030026
 10
0
 20
0
 30
0
  0
INSERT
  8
LAYER_2
  2
AIGNBL02030027
 10
0
 20
0
 30
0
  0
ENDBLK
  0
BLOCK
  8
LAYER_2
  2
AIGNBL02010002
 70
64
 10
0
 20
0
 30
0
  3
AIGNBL02010002
  0
POLYLINE
  8
LAYER_2
 40
0.7056
 41
0.7056
 66
1
 10
0
 20
0
 30
0
 70
1
  0
VERTEX
  8
LAYER_2
 10
251.6749
 20
230.337
  0
VERTEX
  8
LAYER_2
 10
251.6749
 20
33.3285
  0
VERTEX
  8
LAYER_2
 10
-30.3177
 20
33.3285
  0
VERTEX
  8
LAYER_2
 10
-30.3177
 20
230.337
  0
SEQEND
  0
ENDBLK
  0
BLOCK
  8
LAYER_2
  2
AIGNBL02010003
 70
64
 10
0
 20
0
 30
0
  3
AIGNBL02010003
  0
INSERT
  8
LAYER_2
  2
AIGNBL02020004
 10
0
 20
0
 30
0
  0
POLYLINE
  8
LAYER_2
 40
0.05
 41
0.05
 66
1
 10
0
 20
0
 30
0
  0
VERTEX
  8
LAYER_2
 10
-6.457
 20
223.2684
  0
VERTEX
  8
LAYER_2
 10
-8.0924
 20
223.2684
  0
VERTEX
  8
LAYER_2
 10
-8.0924
 20
216.1939
 42
0.09304299953
  0
VERTEX
  8
LAYER_2
 10
-7.9518
 20
215.4241
 42
0.2872011141
  0
VERTEX
  8
LAYER_2
 10
-6.4597
 20
214.3359
  0
VERTEX
  8
LAYER_2
 10
-6.457
 20
223.2684
  0
SEQEND
  0
INSERT
  8
LAYER_2
  2
AIGNBL02020005
 10
0
 20
0
 30
0
  0
ENDBLK
  0
BLOCK
  8
LAYER_2
  2
AIGNBL02010006
 70
64
 10
0
 20
0
 30
0
  3
AIGNBL02010006
  0
INSERT
  8
LAYER_2
  2
AIGNBL02020007
 10
0
 20
0
 30
0
  0
INSERT
  8
LAYER_2
  2
AIGNBL02020010
 10
0
 20
0
 30
0
  0
ENDBLK
  0
ENDSEC
  0
SECTION
  2
ENTITIES
  0
TEXT
  8
LAYER_2
 10
-26.2556
 20
43.1712
 11
-26.2556
 21
43.1712
 40
3.2995
 41
0.5
  1
仕様
  0
POLYLINE
  8
LAYER_2
 40
0.3528
 41
0.3528
 66
1
 10
0
 20
0
 30
0
  0
VERTEX
  8
LAYER_2
 10
250.6748
 20
51.9507
  0
VERTEX
  8
LAYER_2
 10
-29.3178
 20
51.9507
  0
SEQEND
  0
INSERT
  8
LAYER_2
  2
AIGNBL02010002
 10
0
 20
0
 30
0
  0
POLYLINE
  8
LAYER_2
 40
0.3528
 41
0.3528
 66
1
 10
0
 20
0
 30
0
  0
VERTEX
  8
LAYER_2
 10
-29.3178
 20
229.3369
  0
VERTEX
  8
LAYER_2
 10
-29.3178
 20
34.3283
  0
VERTEX
  8
LAYER_2
 10
250.6748
 20
34.3283
  0
VERTEX
  8
LAYER_2
 10
250.6748
 20
229.3369
  0
VERTEX
  8
LAYER_2
 10
-29.3178
 20
229.3369
  0
SEQEND
  0
POLYLINE
  8
LAYER_2
 40
0.3528
 41
0.3528
 66
1
 10
0
 20
0
 30
0
  0
VERTEX
  8
LAYER_2
 10
250.6748
 20
60.4597
  0
VERTEX
  8
LAYER_2
 10
-29.3178
 20
60.4597
  0
SEQEND
  0
POLYLINE
  8
LAYER_2
 40
0.3528
 41
0.3528
 66
1
 10
0
 20
0
 30
0
  0
VERTEX
  8
LAYER_2
 10
250.6748
 20
43.4416
  0
VERTEX
  8
LAYER_2
 10
143.5341
 20
43.4416
  0
SEQEND
  0
TEXT
  8
LAYER_2
 10
182.8808
 20
49.4743
 11
182.8808
 21
49.4743
 40
2.1997
 41
0.5
  1
縮尺
  0
POLYLINE
  8
LAYER_2
 40
0.3528
 41
0.3528
 66
1
 10
0
 20
0
 30
0
  0
VERTEX
  8
LAYER_2
 10
181.3526
 20
43.4416
  0
VERTEX
  8
LAYER_2
 10
181.3526
 20
51.9507
  0
SEQEND
  0
TEXT
  8
LAYER_2
 10
144.2327
 20
57.9834
 11
144.2327
 21
57.9834
 40
2.1997
 41
0.5
  1
品番
  0
TEXT
  8
LAYER_2
 10
-28.1609
 20
57.9834
 11
-28.1609
 21
57.9834
 40
2.1997
 41
0.5
  1
品名
  0
TEXT
  8
LAYER_2
 10
144.2327
 20
49.4743
 11
144.2327
 21
49.4743
 40
2.1997
 41
0.5
  1
重量
  0
TEXT
  8
LAYER_2
 10
150.2547
 20
54.1514
 11
150.2547
 21
54.1514
 40
5.9385
 41
0.5
  1
CIE-SIWA/
  0
TEXT
  8
LAYER_2
 10
149.5454
 20
45.7175
 11
149.5454
 21
45.7175
 40
3.7615
 41
0.5
  1
45.5kg
  0
POLYLINE
  8
LAYER_2
 40
0.3528
 41
0.3528
 66
1
 10
0
 20
0
 30
0
  0
VERTEX
  8
LAYER_2
 10
143.5341
 20
34.9539
  0
VERTEX
  8
LAYER_2
 10
143.5341
 20
60.4597
  0
SEQEND
  0
TEXT
  8
LAYER_2
 10
-15.3472
 20
54.891
 11
-15.3472
 21
54.891
 40
3.6373
 41
0.5
  1
シーワ洗面台セット
  0
INSERT
  8
LAYER_2
  2
AIGNBL02010003
 10
0
 20
0
 30
0
  0
TEXT
  8
LAYER_2
 10
-15.6835
 20
45.3736
 11
-15.6835
 21
45.3736
 40
3.5541
 41
0.5
  1
●サイズ：W900×D500×H900mm●陶器×スチール●オーバーフローなし●重量：45.5kg
  0
TEXT
  8
LAYER_2
 10
-15.6835
 20
40.6235
 11
-15.6835
 21
40.6235
 40
3.5541
 41
0.5
  1
●設置方法：壁付け●水栓取付穴：1穴●排水金具別途
  0
TEXT
  8
LAYER_2
 10
237.263
 20
63.2582
 11
237.263
 21
63.2582
 40
2.9618
 41
0.5
  1
単位：mm
  0
TEXT
  8
LAYER_2
 10
170.6524
 20
213.2434
 11
170.6524
 21
213.2434
 40
2.5981
 41
0.5
  1
※ボウルは壁固定です。
  0
TEXT
  8
LAYER_2
 10
170.6524
 20
208.4935
 11
170.6524
 21
208.4935
 40
2.5981
 41
0.5
  1
※製品と接する部分には必ずコーキング処理を行ってください。
  0
TEXT
  8
LAYER_2
 10
176.0254
 20
39.5359
 11
176.0254
 21
39.5359
 40
3.3853
 41
0.5
  1
●TEL 0120-65-1232●FAX 06-6532-1580
  0
TEXT
  8
LAYER_2
 10
176.0254
 20
36.0212
 11
176.0254
 21
36.0212
 40
3.3853
 41
0.5
  1
hits@hiratatile.co.jp
  0
TEXT
  8
LAYER_2
 10
240.3591
 20
225.8432
 11
240.3591
 21
225.8432
 40
2.0732
 41
0.5
  1
220808RT
  0
INSERT
  8
LAYER_2
  2
AIGNBL02010006
 10
0
 20
0
 30
0
  0
POLYLINE
  8
LAYER_2
 40
0.1305
 41
0.1305
 66
1
 10
0
 20
0
 30
0
  0
VERTEX
  8
LAYER_2
 10
154.9308
 20
103.3214
  0
VERTEX
  8
LAYER_2
 10
143.2702
 20
103.3214
  0
VERTEX
  8
LAYER_2
 10
143.2702
 20
103.0482
  0
VERTEX
  8
LAYER_2
 10
155.0867
 20
103.0482
  0
SEQEND
  0
POLYLINE
  8
LAYER_2
 40
0.1305
 41
0.1305
 66
1
 10
0
 20
0
 30
0
  0
VERTEX
  8
LAYER_2
 10
161.4047
 20
103.0484
  0
VERTEX
  8
LAYER_2
 10
173.2607
 20
103.0484
  0
VERTEX
  8
LAYER_2
 10
173.2607
 20
103.3215
  0
VERTEX
  8
LAYER_2
 10
161.5997
 20
103.3215
  0
SEQEND
  0
POLYLINE
  8
LAYER_2
 40
0.1305
 41
0.1305
 66
1
 10
0
 20
0
 30
0
  0
VERTEX
  8
LAYER_2
 10
159.2987
 20
106.3243
  0
VERTEX
  8
LAYER_2
 10
157.1927
 20
106.3243
  0
SEQEND
  0
POLYLINE
  8
LAYER_2
 40
0.1305
 41
0.1305
 66
1
 10
0
 20
0
 30
0
  0
VERTEX
  8
LAYER_2
 10
153.1368
 20
106.3243
  0
VERTEX
  8
LAYER_2
 10
137.2641
 20
106.3243
  0
VERTEX
  8
LAYER_2
 10
137.2641
 20
103.3215
  0
VERTEX
  8
LAYER_2
 10
154.9307
 20
103.3215
  0
SEQEND
  0
POLYLINE
  8
LAYER_2
 40
0.1305
 41
0.1305
 66
1
 10
0
 20
0
 30
0
  0
VERTEX
  8
LAYER_2
 10
161.5997
 20
103.3214
  0
VERTEX
  8
LAYER_2
 10
179.2663
 20
103.3214
  0
VERTEX
  8
LAYER_2
 10
179.2663
 20
106.3242
  0
VERTEX
  8
LAYER_2
 10
163.3936
 20
106.3242
  0
SEQEND
  0
POLYLINE
  8
LAYER_2
 40
0.1305
 41
0.1305
 66
1
 10
0
 20
0
 30
0
  0
VERTEX
  8
LAYER_2
 10
121.3913
 20
216.3224
 42
0.4142080733
  0
VERTEX
  8
LAYER_2
 10
117.3937
 20
220.32
  0
SEQEND
  0
POLYLINE
  8
LAYER_2
 40
0.1305
 41
0.1305
 66
1
 10
0
 20
0
 30
0
  0
VERTEX
  8
LAYER_2
 10
121.3913
 20
216.3028
  0
VERTEX
  8
LAYER_2
 10
121.3913
 20
176.0944
  0
SEQEND
  0
POLYLINE
  8
LAYER_2
 40
0.1305
 41
0.1305
 66
1
 10
0
 20
0
 30
0
  0
VERTEX
  8
LAYER_2
 10
115.4048
 20
170.1275
 42
0.4142154061
  0
VERTEX
  8
LAYER_2
 10
121.3913
 20
176.1139
  0
SEQEND
  0
POLYLINE
  8
LAYER_2
 40
0.1305
 41
0.1305
 66
1
 10
0
 20
0
 30
0
  0
VERTEX
  8
LAYER_2
 10
115.3853
 20
170.0884
  0
VERTEX
  8
LAYER_2
 10
37.3864
 20
170.0884
  0
SEQEND
  0
POLYLINE
  8
LAYER_2
 40
0.1305
 41
0.1305
 66
1
 10
0
 20
0
 30
0
  0
VERTEX
  8
LAYER_2
 10
31.4194
 20
176.1139
 42
0.198911852
  0
VERTEX
  8
LAYER_2
 10
33.173
 20
171.8806
 42
0.1988636913
  0
VERTEX
  8
LAYER_2
 10
37.4063
 20
170.1275
  0
SEQEND
  0
POLYLINE
  8
LAYER_2
 40
0.1305
 41
0.1305
 66
1
 10
0
 20
0
 30
0
  0
VERTEX
  8
LAYER_2
 10
31.3805
 20
176.0944
  0
VERTEX
  8
LAYER_2
 10
31.3805
 20
216.3027
  0
SEQEND
  0
POLYLINE
  8
LAYER_2
 40
0.1305
 41
0.1305
 66
1
 10
0
 20
0
 30
0
  0
VERTEX
  8
LAYER_2
 10
35.4169
 20
220.3198
 42
0.4142155603
  0
VERTEX
  8
LAYER_2
 10
31.4193
 20
216.3222
  0
SEQEND
  0
POLYLINE
  8
LAYER_2
 40
0.1305
 41
0.1305
 66
1
 10
0
 20
0
 30
0
  0
VERTEX
  8
LAYER_2
 10
30.3665
 20
216.3028
  0
VERTEX
  8
LAYER_2
 10
30.3665
 20
176.2894
  0
SEQEND
  0
POLYLINE
  8
LAYER_2
 40
0.1305
 41
0.1305
 66
1
 10
0
 20
0
 30
0
  0
VERTEX
  8
LAYER_2
 10
30.4055
 20
176.3089
 42
0.4142132792
  0
VERTEX
  8
LAYER_2
 10
37.4058
 20
169.3085
  0
SEQEND
  0
POLYLINE
  8
LAYER_2
 40
0.1305
 41
0.1305
 66
1
 10
0
 20
0
 30
0
  0
VERTEX
  8
LAYER_2
 10
37.3864
 20
169.2695
  0
VERTEX
  8
LAYER_2
 10
115.3462
 20
169.2695
  0
SEQEND
  0
POLYLINE
  8
LAYER_2
 40
0.1305
 41
0.1305
 66
1
 10
0
 20
0
 30
0
  0
VERTEX
  8
LAYER_2
 10
115.3658
 20
169.3085
 42
0.414214271
  0
VERTEX
  8
LAYER_2
 10
122.3662
 20
176.3088
  0
SEQEND
  0
POLYLINE
  8
LAYER_2
 40
0.1305
 41
0.1305
 66
1
 10
0
 20
0
 30
0
  0
VERTEX
  8
LAYER_2
 10
122.3663
 20
176.2894
  0
VERTEX
  8
LAYER_2
 10
122.3663
 20
216.3028
  0
SEQEND
  0
POLYLINE
  8
LAYER_2
 40
0.1305
 41
0.1305
 66
1
 10
0
 20
0
 30
0
  0
VERTEX
  8
LAYER_2
 10
122.4053
 20
216.3219
 42
0.2361067344
  0
VERTEX
  8
LAYER_2
 10
120.4002
 20
220.3319
  0
SEQEND
  0
POLYLINE
  8
LAYER_2
 40
0.1305
 41
0.1305
 66
1
 10
0
 20
0
 30
0
  0
VERTEX
  8
LAYER_2
 10
120.3773
 20
220.2808
  0
VERTEX
  8
LAYER_2
 10
32.3552
 20
220.2808
  0
SEQEND
  0
POLYLINE
  8
LAYER_2
 40
0.1305
 41
0.1305
 66
1
 10
0
 20
0
 30
0
  0
VERTEX
  8
LAYER_2
 10
32.371
 20
220.3315
 42
0.2360092774
  0
VERTEX
  8
LAYER_2
 10
30.3664
 20
216.3227
  0
SEQEND
  0
POLYLINE
  8
LAYER_2
 40
0.1305
 41
0.1305
 66
1
 10
0
 20
0
 30
0
  0
VERTEX
  8
LAYER_2
 10
31.3805
 20
195.0481
  0
VERTEX
  8
LAYER_2
 10
32.8625
 20
195.0481
  0
VERTEX
  8
LAYER_2
 10
32.8625
 20
216.0688
  0
SEQEND
  0
POLYLINE
  8
LAYER_2
 40
0.1305
 41
0.1305
 66
1
 10
0
 20
0
 30
0
  0
VERTEX
  8
LAYER_2
 10
35.4169
 20
218.6038
 42
0.1987972094
  0
VERTEX
  8
LAYER_2
 10
33.638
 20
217.8672
 42
0.1989128518
  0
VERTEX
  8
LAYER_2
 10
32.9013
 20
216.0883
  0
SEQEND
  0
POLYLINE
  8
LAYER_2
 40
0.1305
 41
0.1305
 66
1
 10
0
 20
0
 30
0
  0
VERTEX
  8
LAYER_2
 10
35.3974
 20
218.6038
  0
VERTEX
  8
LAYER_2
 10
117.3744
 20
218.6038
  0
VERTEX
  8
LAYER_2
 10
37.3862
 20
218.6038
  0
SEQEND
  0
POLYLINE
  8
LAYER_2
 40
0.1305
 41
0.1305
 66
1
 10
0
 20
0
 30
0
  0
VERTEX
  8
LAYER_2
 10
119.8703
 20
216.0689
  0
VERTEX
  8
LAYER_2
 10
119.8703
 20
195.0482
  0
VERTEX
  8
LAYER_2
 10
119.8703
 20
216.0689
  0
SEQEND
  0
POLYLINE
  8
LAYER_2
 40
0.1305
 41
0.1305
 66
1
 10
0
 20
0
 30
0
  0
VERTEX
  8
LAYER_2
 10
119.9093
 20
216.0881
 42
0.1989196338
  0
VERTEX
  8
LAYER_2
 10
119.1726
 20
217.867
 42
0.1989151329
  0
VERTEX
  8
LAYER_2
 10
117.3937
 20
218.6037
  0
SEQEND
  0
POLYLINE
  8
LAYER_2
 40
0.1305
 41
0.1305
 66
1
 10
0
 20
0
 30
0
  0
VERTEX
  8
LAYER_2
 10
119.9093
 20
216.0884
 42
0.4141163132
  0
VERTEX
  8
LAYER_2
 10
117.3942
 20
218.6039
  0
SEQEND
  0
POLYLINE
  8
LAYER_2
 40
0.1305
 41
0.1305
 66
1
 10
0
 20
0
 30
0
  0
VERTEX
  8
LAYER_2
 10
84.3807
 20
174.1054
  0
VERTEX
  8
LAYER_2
 10
38.3614
 20
174.1054
  0
SEQEND
  0
POLYLINE
  8
LAYER_2
 40
0.1305
 41
0.1305
 66
1
 10
0
 20
0
 30
0
  0
VERTEX
  8
LAYER_2
 10
36.3724
 20
176.1137
 42
0.4142087376
  0
VERTEX
  8
LAYER_2
 10
38.3807
 20
174.1053
  0
SEQEND
  0
POLYLINE
  8
LAYER_2
 40
0.1305
 41
0.1305
 66
1
 10
0
 20
0
 30
0
  0
VERTEX
  8
LAYER_2
 10
36.3724
 20
176.0944
  0
VERTEX
  8
LAYER_2
 10
36.3724
 20
205.5779
  0
SEQEND
  0
POLYLINE
  8
LAYER_2
 40
0.1305
 41
0.1305
 66
1
 10
0
 20
0
 30
0
  0
VERTEX
  8
LAYER_2
 10
40.9158
 20
210.1019
 42
0.4142105496
  0
VERTEX
  8
LAYER_2
 10
36.4115
 20
205.5976
  0
SEQEND
  0
POLYLINE
  8
LAYER_2
 40
0.1305
 41
0.1305
 66
1
 10
0
 20
0
 30
0
  0
VERTEX
  8
LAYER_2
 10
40.8963
 20
210.1019
  0
VERTEX
  8
LAYER_2
 10
81.8846
 20
210.1019
  0
SEQEND
  0
POLYLINE
  8
LAYER_2
 40
0.1305
 41
0.1305
 66
1
 10
0
 20
0
 30
0
  0
VERTEX
  8
LAYER_2
 10
86.4087
 20
205.5975
 42
0.4142100772
  0
VERTEX
  8
LAYER_2
 10
81.9044
 20
210.1019
  0
SEQEND
  0
POLYLINE
  8
LAYER_2
 40
0.1305
 41
0.1305
 66
1
 10
0
 20
0
 30
0
  0
VERTEX
  8
LAYER_2
 10
86.3697
 20
205.578
  0
VERTEX
  8
LAYER_2
 10
86.3697
 20
176.0944
  0
SEQEND
  0
POLYLINE
  8
LAYER_2
 40
0.1305
 41
0.1305
 66
1
 10
0
 20
0
 30
0
  0
VERTEX
  8
LAYER_2
 10
84.4002
 20
174.1054
 42
0.4142223639
  0
VERTEX
  8
LAYER_2
 10
86.4086
 20
176.1138
  0
SEQEND
  0
POLYLINE
  8
LAYER_2
 40
0.1305
 41
0.1305
 66
1
 10
0
 20
0
 30
0
  0
VERTEX
  8
LAYER_2
 10
79.2718
 20
174.1054
  0
SEQEND
  0
POLYLINE
  8
LAYER_2
 40
0.1305
 41
0.1305
 66
1
 10
0
 20
0
 30
0
  0
VERTEX
  8
LAYER_2
 10
32.8624
 20
195.0481
  0
SEQEND
  0
POLYLINE
  8
LAYER_2
 40
0.1305
 41
0.1305
 66
1
 10
0
 20
0
 30
0
  0
VERTEX
  8
LAYER_2
 10
31.3805
 20
195.0481
  0
SEQEND
  0
POLYLINE
  8
LAYER_2
 40
0.1305
 41
0.1305
 66
1
 10
0
 20
0
 30
0
  0
VERTEX
  8
LAYER_2
 10
36.9184
 20
174.7294
  0
SEQEND
  0
POLYLINE
  8
LAYER_2
 40
0.1305
 41
0.1305
 66
1
 10
0
 20
0
 30
0
  0
VERTEX
  8
LAYER_2
 10
30.3665
 20
216.3028
  0
SEQEND
  0
POLYLINE
  8
LAYER_2
 40
0.1305
 41
0.1305
 66
1
 10
0
 20
0
 30
0
  0
VERTEX
  8
LAYER_2
 10
122.3663
 20
216.3028
  0
SEQEND
  0
POLYLINE
  8
LAYER_2
 40
0.1305
 41
0.1305
 66
1
 10
0
 20
0
 30
0
  0
VERTEX
  8
LAYER_2
 10
31.3805
 20
216.3028
  0
SEQEND
  0
POLYLINE
  8
LAYER_2
 40
0.1305
 41
0.1305
 66
1
 10
0
 20
0
 30
0
  0
VERTEX
  8
LAYER_2
 10
121.3913
 20
216.3028
  0
SEQEND
  0
POLYLINE
  8
LAYER_2
 40
0.1305
 41
0.1305
 66
1
 10
0
 20
0
 30
0
  0
VERTEX
  8
LAYER_2
 10
64.92
 20
194.5996
 42
0.4142165644
  0
VERTEX
  8
LAYER_2
 10
61.4296
 20
198.0901
 42
0.4142186896
  0
VERTEX
  8
LAYER_2
 10
57.9392
 20
194.5996
 42
0.4142105603
  0
VERTEX
  8
LAYER_2
 10
61.4296
 20
191.1092
 42
0.4142084354
  0
VERTEX
  8
LAYER_2
 10
64.92
 20
194.5996
  0
SEQEND
  0
POLYLINE
  8
LAYER_2
 40
0.1305
 41
0.1305
 66
1
 10
0
 20
0
 30
0
  0
VERTEX
  8
LAYER_2
 10
63.672
 20
194.5996
 42
0.4142261741
  0
VERTEX
  8
LAYER_2
 10
61.3905
 20
196.8811
 42
0.4142133877
  0
VERTEX
  8
LAYER_2
 10
59.1091
 20
194.5996
 42
0.4142009508
  0
VERTEX
  8
LAYER_2
 10
61.3905
 20
192.3182
 42
0.4142137373
  0
VERTEX
  8
LAYER_2
 10
63.672
 20
194.5996
  0
SEQEND
  0
POLYLINE
  8
LAYER_2
 40
0.0882
 41
0.0882
 62
251
 66
1
 10
0
 20
0
 30
0
  0
VERTEX
  8
LAYER_2
 10
56.9251
 20
197.4271
  0
VERTEX
  8
LAYER_2
 10
58.1731
 20
196.6472
  0
SEQEND
  0
POLYLINE
  8
LAYER_2
 40
0.0882
 41
0.0882
 62
251
 66
1
 10
0
 20
0
 30
0
  0
VERTEX
  8
LAYER_2
 10
64.569
 20
192.5522
  0
VERTEX
  8
LAYER_2
 10
65.8561
 20
191.7332
  0
SEQEND
  0
TEXT
  8
LAYER_2
 10
49.885
 20
200.338
 11
49.885
 21
200.338
 40
3.6923
 41
0.5
 50
327.3704228
  1
 45
  0
POLYLINE
  8
LAYER_2
 40
0.0882
 41
0.0882
 62
251
 66
1
 10
0
 20
0
 30
0
  0
VERTEX
  8
LAYER_2
 10
63.321
 20
193.3321
  0
VERTEX
  8
LAYER_2
 10
59.4602
 20
195.8281
  0
SEQEND
  0
POLYLINE
  8
LAYER_2
 40
0.05
 41
0.05
 66
1
 10
0
 20
0
 30
0
 70
1
  0
VERTEX
  8
LAYER_2
 10
64.725
 20
192.7472
  0
VERTEX
  8
LAYER_2
 10
64.4519
 20
192.3181
  0
VERTEX
  8
LAYER_2
 10
63.3211
 20
193.3321
  0
SEQEND
  0
POLYLINE
  8
LAYER_2
 66
1
 10
0
 20
0
 30
0
 70
1
  0
VERTEX
  8
LAYER_2
 10
64.725
 20
192.7472
  0
VERTEX
  8
LAYER_2
 10
64.4519
 20
192.3181
  0
VERTEX
  8
LAYER_2
 10
63.3211
 20
193.3321
  0
SEQEND
  0
POLYLINE
  8
LAYER_2
 40
0.05
 41
0.05
 66
1
 10
0
 20
0
 30
0
 70
1
  0
VERTEX
  8
LAYER_2
 10
58.3291
 20
196.8421
  0
VERTEX
  8
LAYER_2
 10
58.0559
 20
196.4131
  0
VERTEX
  8
LAYER_2
 10
59.4603
 20
195.8281
  0
SEQEND
  0
POLYLINE
  8
LAYER_2
 66
1
 10
0
 20
0
 30
0
 70
1
  0
VERTEX
  8
LAYER_2
 10
58.3291
 20
196.8421
  0
VERTEX
  8
LAYER_2
 10
58.0559
 20
196.4131
  0
VERTEX
  8
LAYER_2
 10
59.4603
 20
195.8281
  0
SEQEND
  0
POLYLINE
  8
LAYER_2
 40
0.1305
 41
0.1305
 66
1
 10
0
 20
0
 30
0
  0
VERTEX
  8
LAYER_2
 10
63.126
 20
214.3724
 42
0.4142082897
  0
VERTEX
  8
LAYER_2
 10
61.3904
 20
216.108
 42
0.4142133955
  0
VERTEX
  8
LAYER_2
 10
59.6552
 20
214.3724
 42
0.4142188359
  0
VERTEX
  8
LAYER_2
 10
61.3904
 20
212.6367
 42
0.4142137287
  0
VERTEX
  8
LAYER_2
 10
63.126
 20
214.3724
  0
SEQEND
  0
POLYLINE
  8
LAYER_2
 40
0.0882
 41
0.0882
 62
251
 66
1
 10
0
 20
0
 30
0
  0
VERTEX
  8
LAYER_2
 10
43.4703
 20
218.6038
  0
VERTEX
  8
LAYER_2
 10
46.0444
 20
218.6038
  0
SEQEND
  0
POLYLINE
  8
LAYER_2
 40
0.0882
 41
0.0882
 62
251
 66
1
 10
0
 20
0
 30
0
  0
VERTEX
  8
LAYER_2
 10
43.4703
 20
220.2808
  0
VERTEX
  8
LAYER_2
 10
46.0444
 20
220.2808
  0
SEQEND
  0
POLYLINE
  8
LAYER_2
 40
0.0882
 41
0.0882
 62
251
 66
1
 10
0
 20
0
 30
0
  0
VERTEX
  8
LAYER_2
 10
45.9273
 20
217.0828
  0
VERTEX
  8
LAYER_2
 10
45.9273
 20
215.6008
  0
SEQEND
  0
POLYLINE
  8
LAYER_2
 40
0.0882
 41
0.0882
 62
251
 66
1
 10
0
 20
0
 30
0
  0
VERTEX
  8
LAYER_2
 10
45.9273
 20
221.8018
  0
VERTEX
  8
LAYER_2
 10
45.9273
 20
223.2838
  0
SEQEND
  0
POLYLINE
  8
LAYER_2
 40
0.0882
 41
0.0882
 62
251
 66
1
 10
0
 20
0
 30
0
  0
VERTEX
  8
LAYER_2
 10
45.9273
 20
218.6038
  0
VERTEX
  8
LAYER_2
 10
45.9273
 20
220.2809
  0
SEQEND
  0
POLYLINE
  8
LAYER_2
 40
0.05
 41
0.05
 66
1
 10
0
 20
0
 30
0
 70
1
  0
VERTEX
  8
LAYER_2
 10
45.6543
 20
217.0828
  0
VERTEX
  8
LAYER_2
 10
46.1615
 20
217.0828
  0
VERTEX
  8
LAYER_2
 10
45.9274
 20
218.604
  0
SEQEND
  0
POLYLINE
  8
LAYER_2
 66
1
 10
0
 20
0
 30
0
 70
1
  0
VERTEX
  8
LAYER_2
 10
45.6543
 20
217.0828
  0
VERTEX
  8
LAYER_2
 10
46.1615
 20
217.0828
  0
VERTEX
  8
LAYER_2
 10
45.9274
 20
218.604
  0
SEQEND
  0
POLYLINE
  8
LAYER_2
 40
0.05
 41
0.05
 66
1
 10
0
 20
0
 30
0
 70
1
  0
VERTEX
  8
LAYER_2
 10
45.6543
 20
221.8018
  0
VERTEX
  8
LAYER_2
 10
46.1615
 20
221.8018
  0
VERTEX
  8
LAYER_2
 10
45.9274
 20
220.2807
  0
SEQEND
  0
POLYLINE
  8
LAYER_2
 66
1
 10
0
 20
0
 30
0
 70
1
  0
VERTEX
  8
LAYER_2
 10
45.6543
 20
221.8018
  0
VERTEX
  8
LAYER_2
 10
46.1615
 20
221.8018
  0
VERTEX
  8
LAYER_2
 10
45.9274
 20
220.2807
  0
SEQEND
  0
TEXT
  8
LAYER_2
 10
47.2459
 20
222.9713
 11
47.2459
 21
222.9713
 40
3.6923
 41
0.5
 50
89.99999999
  1
15
  0
POLYLINE
  8
LAYER_2
 40
0.0882
 41
0.0882
 62
251
 66
1
 10
0
 20
0
 30
0
  0
VERTEX
  8
LAYER_2
 10
61.3321
 20
214.3529
  0
VERTEX
  8
LAYER_2
 10
61.2539
 20
214.3529
  0
SEQEND
  0
POLYLINE
  8
LAYER_2
 40
0.0882
 41
0.0882
 62
251
 66
1
 10
0
 20
0
 30
0
  0
VERTEX
  8
LAYER_2
 10
61.449
 20
194.5801
  0
VERTEX
  8
LAYER_2
 10
61.4881
 20
194.5801
  0
SEQEND
  0
POLYLINE
  8
LAYER_2
 40
0.0882
 41
0.0882
 62
251
 66
1
 10
0
 20
0
 30
0
  0
VERTEX
  8
LAYER_2
 10
61.3711
 20
212.8319
  0
VERTEX
  8
LAYER_2
 10
61.3711
 20
207.1768
  0
SEQEND
  0
POLYLINE
  8
LAYER_2
 40
0.0882
 41
0.0882
 62
251
 66
1
 10
0
 20
0
 30
0
  0
VERTEX
  8
LAYER_2
 10
61.3711
 20
196.1011
  0
VERTEX
  8
LAYER_2
 10
61.3711
 20
201.7562
  0
SEQEND
  0
POLYLINE
  8
LAYER_2
 40
0.05
 41
0.05
 66
1
 10
0
 20
0
 30
0
 70
1
  0
VERTEX
  8
LAYER_2
 10
61.137
 20
212.8319
  0
VERTEX
  8
LAYER_2
 10
61.6442
 20
212.8319
  0
VERTEX
  8
LAYER_2
 10
61.3711
 20
214.353
  0
SEQEND
  0
POLYLINE
  8
LAYER_2
 66
1
 10
0
 20
0
 30
0
 70
1
  0
VERTEX
  8
LAYER_2
 10
61.137
 20
212.8319
  0
VERTEX
  8
LAYER_2
 10
61.6442
 20
212.8319
  0
VERTEX
  8
LAYER_2
 10
61.3711
 20
214.353
  0
SEQEND
  0
POLYLINE
  8
LAYER_2
 40
0.05
 41
0.05
 66
1
 10
0
 20
0
 30
0
 70
1
  0
VERTEX
  8
LAYER_2
 10
61.137
 20
196.1011
  0
VERTEX
  8
LAYER_2
 10
61.6442
 20
196.1011
  0
VERTEX
  8
LAYER_2
 10
61.3711
 20
194.58
  0
SEQEND
  0
POLYLINE
  8
LAYER_2
 66
1
 10
0
 20
0
 30
0
 70
1
  0
VERTEX
  8
LAYER_2
 10
61.137
 20
196.1011
  0
VERTEX
  8
LAYER_2
 10
61.6442
 20
196.1011
  0
VERTEX
  8
LAYER_2
 10
61.3711
 20
194.58
  0
SEQEND
  0
TEXT
  8
LAYER_2
 10
62.7288
 20
201.4435
 11
62.7288
 21
201.4435
 40
3.6923
 41
0.5
 50
89.99999999
  1
195
  0
POLYLINE
  8
LAYER_2
 40
0.0882
 41
0.0882
 62
251
 66
1
 10
0
 20
0
 30
0
  0
VERTEX
  8
LAYER_2
 10
32.8624
 20
201.834
  0
VERTEX
  8
LAYER_2
 10
32.8624
 20
203.0429
  0
SEQEND
  0
POLYLINE
  8
LAYER_2
 40
0.0882
 41
0.0882
 62
251
 66
1
 10
0
 20
0
 30
0
  0
VERTEX
  8
LAYER_2
 10
31.3805
 20
201.834
  0
VERTEX
  8
LAYER_2
 10
31.3805
 20
203.0429
  0
SEQEND
  0
POLYLINE
  8
LAYER_2
 40
0.0882
 41
0.0882
 62
251
 66
1
 10
0
 20
0
 30
0
  0
VERTEX
  8
LAYER_2
 10
34.3834
 20
202.926
  0
VERTEX
  8
LAYER_2
 10
35.8655
 20
202.926
  0
SEQEND
  0
POLYLINE
  8
LAYER_2
 40
0.0882
 41
0.0882
 62
251
 66
1
 10
0
 20
0
 30
0
  0
VERTEX
  8
LAYER_2
 10
29.8985
 20
202.926
  0
VERTEX
  8
LAYER_2
 10
28.3773
 20
202.926
  0
SEQEND
  0
POLYLINE
  8
LAYER_2
 40
0.0882
 41
0.0882
 62
251
 66
1
 10
0
 20
0
 30
0
  0
VERTEX
  8
LAYER_2
 10
32.8624
 20
202.926
  0
VERTEX
  8
LAYER_2
 10
31.3804
 20
202.926
  0
SEQEND
  0
POLYLINE
  8
LAYER_2
 40
0.05
 41
0.05
 66
1
 10
0
 20
0
 30
0
 70
1
  0
VERTEX
  8
LAYER_2
 10
34.3834
 20
203.16
  0
VERTEX
  8
LAYER_2
 10
34.3834
 20
202.6528
  0
VERTEX
  8
LAYER_2
 10
32.8623
 20
202.926
  0
SEQEND
  0
POLYLINE
  8
LAYER_2
 66
1
 10
0
 20
0
 30
0
 70
1
  0
VERTEX
  8
LAYER_2
 10
34.3834
 20
203.16
  0
VERTEX
  8
LAYER_2
 10
34.3834
 20
202.6528
  0
VERTEX
  8
LAYER_2
 10
32.8623
 20
202.926
  0
SEQEND
  0
POLYLINE
  8
LAYER_2
 40
0.05
 41
0.05
 66
1
 10
0
 20
0
 30
0
 70
1
  0
VERTEX
  8
LAYER_2
 10
29.8985
 20
203.16
  0
VERTEX
  8
LAYER_2
 10
29.8985
 20
202.6528
  0
VERTEX
  8
LAYER_2
 10
31.3805
 20
202.926
  0
SEQEND
  0
POLYLINE
  8
LAYER_2
 66
1
 10
0
 20
0
 30
0
 70
1
  0
VERTEX
  8
LAYER_2
 10
29.8985
 20
203.16
  0
VERTEX
  8
LAYER_2
 10
29.8985
 20
202.6528
  0
VERTEX
  8
LAYER_2
 10
31.3805
 20
202.926
  0
SEQEND
  0
TEXT
  8
LAYER_2
 10
24.5554
 20
201.5681
 11
24.5554
 21
201.5681
 40
3.6923
 41
0.5
  1
15
  0
POLYLINE
  8
LAYER_2
 40
0.0882
 41
0.0882
 62
251
 66
1
 10
0
 20
0
 30
0
  0
VERTEX
  8
LAYER_2
 10
31.3025
 20
195.0481
  0
VERTEX
  8
LAYER_2
 10
27.8707
 20
195.0481
  0
SEQEND
  0
POLYLINE
  8
LAYER_2
 40
0.0882
 41
0.0882
 62
251
 66
1
 10
0
 20
0
 30
0
  0
VERTEX
  8
LAYER_2
 10
37.3084
 20
169.2695
  0
VERTEX
  8
LAYER_2
 10
27.8706
 20
169.2695
  0
SEQEND
  0
POLYLINE
  8
LAYER_2
 40
0.0882
 41
0.0882
 62
251
 66
1
 10
0
 20
0
 30
0
  0
VERTEX
  8
LAYER_2
 10
28.0265
 20
193.5272
  0
VERTEX
  8
LAYER_2
 10
28.0265
 20
184.9861
  0
SEQEND
  0
POLYLINE
  8
LAYER_2
 40
0.0882
 41
0.0882
 62
251
 66
1
 10
0
 20
0
 30
0
  0
VERTEX
  8
LAYER_2
 10
28.0265
 20
170.7904
  0
VERTEX
  8
LAYER_2
 10
28.0265
 20
179.3315
  0
SEQEND
  0
POLYLINE
  8
LAYER_2
 40
0.05
 41
0.05
 66
1
 10
0
 20
0
 30
0
 70
1
  0
VERTEX
  8
LAYER_2
 10
27.7535
 20
193.5272
  0
VERTEX
  8
LAYER_2
 10
28.2607
 20
193.5272
  0
VERTEX
  8
LAYER_2
 10
28.0266
 20
195.0483
  0
SEQEND
  0
POLYLINE
  8
LAYER_2
 66
1
 10
0
 20
0
 30
0
 70
1
  0
VERTEX
  8
LAYER_2
 10
27.7535
 20
193.5272
  0
VERTEX
  8
LAYER_2
 10
28.2607
 20
193.5272
  0
VERTEX
  8
LAYER_2
 10
28.0266
 20
195.0483
  0
SEQEND
  0
POLYLINE
  8
LAYER_2
 40
0.05
 41
0.05
 66
1
 10
0
 20
0
 30
0
 70
1
  0
VERTEX
  8
LAYER_2
 10
27.7535
 20
170.7904
  0
VERTEX
  8
LAYER_2
 10
28.2607
 20
170.7904
  0
VERTEX
  8
LAYER_2
 10
28.0266
 20
169.2693
  0
SEQEND
  0
POLYLINE
  8
LAYER_2
 66
1
 10
0
 20
0
 30
0
 70
1
  0
VERTEX
  8
LAYER_2
 10
27.7535
 20
170.7904
  0
VERTEX
  8
LAYER_2
 10
28.2607
 20
170.7904
  0
VERTEX
  8
LAYER_2
 10
28.0266
 20
169.2693
  0
SEQEND
  0
TEXT
  8
LAYER_2
 10
29.3452
 20
179.2912
 11
29.3452
 21
179.2912
 40
3.6923
 41
0.5
 50
89.99999999
  1
260
  0
POLYLINE
  8
LAYER_2
 40
0.0882
 41
0.0882
 62
251
 66
1
 10
0
 20
0
 30
0
  0
VERTEX
  8
LAYER_2
 10
31.3805
 20
179.4873
  0
VERTEX
  8
LAYER_2
 10
31.3805
 20
177.1086
  0
SEQEND
  0
POLYLINE
  8
LAYER_2
 40
0.0882
 41
0.0882
 62
251
 66
1
 10
0
 20
0
 30
0
  0
VERTEX
  8
LAYER_2
 10
36.3724
 20
179.4873
  0
VERTEX
  8
LAYER_2
 10
36.3724
 20
177.1086
  0
SEQEND
  0
POLYLINE
  8
LAYER_2
 40
0.0882
 41
0.0882
 62
251
 66
1
 10
0
 20
0
 30
0
  0
VERTEX
  8
LAYER_2
 10
29.8595
 20
177.2254
  0
VERTEX
  8
LAYER_2
 10
28.3774
 20
177.2254
  0
SEQEND
  0
POLYLINE
  8
LAYER_2
 40
0.0882
 41
0.0882
 62
251
 66
1
 10
0
 20
0
 30
0
  0
VERTEX
  8
LAYER_2
 10
37.8933
 20
177.2254
  0
VERTEX
  8
LAYER_2
 10
39.3754
 20
177.2254
  0
SEQEND
  0
POLYLINE
  8
LAYER_2
 40
0.0882
 41
0.0882
 62
251
 66
1
 10
0
 20
0
 30
0
  0
VERTEX
  8
LAYER_2
 10
31.3805
 20
177.2254
  0
VERTEX
  8
LAYER_2
 10
32.0435
 20
177.2254
  0
SEQEND
  0
POLYLINE
  8
LAYER_2
 40
0.0882
 41
0.0882
 62
251
 66
1
 10
0
 20
0
 30
0
  0
VERTEX
  8
LAYER_2
 10
36.3724
 20
177.2254
  0
VERTEX
  8
LAYER_2
 10
35.7093
 20
177.2254
  0
SEQEND
  0
POLYLINE
  8
LAYER_2
 40
0.05
 41
0.05
 66
1
 10
0
 20
0
 30
0
 70
1
  0
VERTEX
  8
LAYER_2
 10
29.8595
 20
177.4984
  0
VERTEX
  8
LAYER_2
 10
29.8595
 20
176.9912
  0
VERTEX
  8
LAYER_2
 10
31.3806
 20
177.2252
  0
SEQEND
  0
POLYLINE
  8
LAYER_2
 66
1
 10
0
 20
0
 30
0
 70
1
  0
VERTEX
  8
LAYER_2
 10
29.8595
 20
177.4984
  0
VERTEX
  8
LAYER_2
 10
29.8595
 20
176.9912
  0
VERTEX
  8
LAYER_2
 10
31.3806
 20
177.2252
  0
SEQEND
  0
POLYLINE
  8
LAYER_2
 40
0.05
 41
0.05
 66
1
 10
0
 20
0
 30
0
 70
1
  0
VERTEX
  8
LAYER_2
 10
37.8933
 20
177.4984
  0
VERTEX
  8
LAYER_2
 10
37.8933
 20
176.9912
  0
VERTEX
  8
LAYER_2
 10
36.3722
 20
177.2252
  0
SEQEND
  0
POLYLINE
  8
LAYER_2
 66
1
 10
0
 20
0
 30
0
 70
1
  0
VERTEX
  8
LAYER_2
 10
37.8933
 20
177.4984
  0
VERTEX
  8
LAYER_2
 10
37.8933
 20
176.9912
  0
VERTEX
  8
LAYER_2
 10
36.3722
 20
177.2252
  0
SEQEND
  0
TEXT
  8
LAYER_2
 10
31.9266
 20
175.9068
 11
31.9266
 21
175.9068
 40
3.6923
 41
0.5
  1
50
  0
POLYLINE
  8
LAYER_2
 40
0.0882
 41
0.0882
 62
251
 66
1
 10
0
 20
0
 30
0
  0
VERTEX
  8
LAYER_2
 10
36.3724
 20
177.3034
  0
VERTEX
  8
LAYER_2
 10
36.3724
 20
177.3815
  0
SEQEND
  0
POLYLINE
  8
LAYER_2
 40
0.0882
 41
0.0882
 62
251
 66
1
 10
0
 20
0
 30
0
  0
VERTEX
  8
LAYER_2
 10
86.3697
 20
177.3034
  0
VERTEX
  8
LAYER_2
 10
86.3697
 20
177.3815
  0
SEQEND
  0
POLYLINE
  8
LAYER_2
 40
0.0882
 41
0.0882
 62
251
 66
1
 10
0
 20
0
 30
0
  0
VERTEX
  8
LAYER_2
 10
37.8933
 20
177.2254
  0
VERTEX
  8
LAYER_2
 10
58.5631
 20
177.2254
  0
SEQEND
  0
POLYLINE
  8
LAYER_2
 40
0.0882
 41
0.0882
 62
251
 66
1
 10
0
 20
0
 30
0
  0
VERTEX
  8
LAYER_2
 10
84.8878
 20
177.2254
  0
VERTEX
  8
LAYER_2
 10
64.1789
 20
177.2254
  0
SEQEND
  0
POLYLINE
  8
LAYER_2
 40
0.05
 41
0.05
 66
1
 10
0
 20
0
 30
0
 70
1
  0
VERTEX
  8
LAYER_2
 10
37.8933
 20
177.4984
  0
VERTEX
  8
LAYER_2
 10
37.8933
 20
176.9912
  0
VERTEX
  8
LAYER_2
 10
36.3722
 20
177.2252
  0
SEQEND
  0
POLYLINE
  8
LAYER_2
 66
1
 10
0
 20
0
 30
0
 70
1
  0
VERTEX
  8
LAYER_2
 10
37.8933
 20
177.4984
  0
VERTEX
  8
LAYER_2
 10
37.8933
 20
176.9912
  0
VERTEX
  8
LAYER_2
 10
36.3722
 20
177.2252
  0
SEQEND
  0
POLYLINE
  8
LAYER_2
 40
0.05
 41
0.05
 66
1
 10
0
 20
0
 30
0
 70
1
  0
VERTEX
  8
LAYER_2
 10
84.8878
 20
177.4984
  0
VERTEX
  8
LAYER_2
 10
84.8878
 20
176.9912
  0
VERTEX
  8
LAYER_2
 10
86.3698
 20
177.2252
  0
SEQEND
  0
POLYLINE
  8
LAYER_2
 66
1
 10
0
 20
0
 30
0
 70
1
  0
VERTEX
  8
LAYER_2
 10
84.8878
 20
177.4984
  0
VERTEX
  8
LAYER_2
 10
84.8878
 20
176.9912
  0
VERTEX
  8
LAYER_2
 10
86.3698
 20
177.2252
  0
SEQEND
  0
TEXT
  8
LAYER_2
 10
58.4851
 20
175.9068
 11
58.4851
 21
175.9068
 40
3.6923
 41
0.5
  1
500
  0
POLYLINE
  8
LAYER_2
 40
0.0882
 41
0.0882
 62
251
 66
1
 10
0
 20
0
 30
0
  0
VERTEX
  8
LAYER_2
 10
86.3697
 20
177.3034
  0
VERTEX
  8
LAYER_2
 10
86.3697
 20
177.3815
  0
SEQEND
  0
POLYLINE
  8
LAYER_2
 40
0.0882
 41
0.0882
 62
251
 66
1
 10
0
 20
0
 30
0
  0
VERTEX
  8
LAYER_2
 10
121.3913
 20
177.1864
  0
VERTEX
  8
LAYER_2
 10
121.3913
 20
177.1082
  0
SEQEND
  0
POLYLINE
  8
LAYER_2
 40
0.0882
 41
0.0882
 62
251
 66
1
 10
0
 20
0
 30
0
  0
VERTEX
  8
LAYER_2
 10
87.8907
 20
177.2254
  0
VERTEX
  8
LAYER_2
 10
101.0725
 20
177.2254
  0
SEQEND
  0
POLYLINE
  8
LAYER_2
 40
0.0882
 41
0.0882
 62
251
 66
1
 10
0
 20
0
 30
0
  0
VERTEX
  8
LAYER_2
 10
119.8703
 20
177.2254
  0
VERTEX
  8
LAYER_2
 10
106.6885
 20
177.2254
  0
SEQEND
  0
POLYLINE
  8
LAYER_2
 40
0.05
 41
0.05
 66
1
 10
0
 20
0
 30
0
 70
1
  0
VERTEX
  8
LAYER_2
 10
87.8907
 20
177.4984
  0
VERTEX
  8
LAYER_2
 10
87.8907
 20
176.9912
  0
VERTEX
  8
LAYER_2
 10
86.3696
 20
177.2252
  0
SEQEND
  0
POLYLINE
  8
LAYER_2
 66
1
 10
0
 20
0
 30
0
 70
1
  0
VERTEX
  8
LAYER_2
 10
87.8907
 20
177.4984
  0
VERTEX
  8
LAYER_2
 10
87.8907
 20
176.9912
  0
VERTEX
  8
LAYER_2
 10
86.3696
 20
177.2252
  0
SEQEND
  0
POLYLINE
  8
LAYER_2
 40
0.05
 41
0.05
 66
1
 10
0
 20
0
 30
0
 70
1
  0
VERTEX
  8
LAYER_2
 10
119.8703
 20
177.4984
  0
VERTEX
  8
LAYER_2
 10
119.8703
 20
176.9912
  0
VERTEX
  8
LAYER_2
 10
121.3914
 20
177.2252
  0
SEQEND
  0
POLYLINE
  8
LAYER_2
 66
1
 10
0
 20
0
 30
0
 70
1
  0
VERTEX
  8
LAYER_2
 10
119.8703
 20
177.4984
  0
VERTEX
  8
LAYER_2
 10
119.8703
 20
176.9912
  0
VERTEX
  8
LAYER_2
 10
121.3914
 20
177.2252
  0
SEQEND
  0
TEXT
  8
LAYER_2
 10
100.9553
 20
175.9068
 11
100.9553
 21
175.9068
 40
3.6923
 41
0.5
  1
350
  0
POLYLINE
  8
LAYER_2
 40
0.0882
 41
0.0882
 62
251
 66
1
 10
0
 20
0
 30
0
  0
VERTEX
  8
LAYER_2
 10
83.7177
 20
210.1019
  0
VERTEX
  8
LAYER_2
 10
83.4446
 20
210.1019
  0
SEQEND
  0
POLYLINE
  8
LAYER_2
 40
0.0882
 41
0.0882
 62
251
 66
1
 10
0
 20
0
 30
0
  0
VERTEX
  8
LAYER_2
 10
83.6008
 20
174.1054
  0
VERTEX
  8
LAYER_2
 10
83.6789
 20
174.1054
  0
SEQEND
  0
POLYLINE
  8
LAYER_2
 40
0.0882
 41
0.0882
 62
251
 66
1
 10
0
 20
0
 30
0
  0
VERTEX
  8
LAYER_2
 10
83.5618
 20
208.5809
  0
VERTEX
  8
LAYER_2
 10
83.5618
 20
194.892
  0
SEQEND
  0
POLYLINE
  8
LAYER_2
 40
0.0882
 41
0.0882
 62
251
 66
1
 10
0
 20
0
 30
0
  0
VERTEX
  8
LAYER_2
 10
83.5618
 20
175.5874
  0
VERTEX
  8
LAYER_2
 10
83.5618
 20
189.2763
  0
SEQEND
  0
POLYLINE
  8
LAYER_2
 40
0.05
 41
0.05
 66
1
 10
0
 20
0
 30
0
 70
1
  0
VERTEX
  8
LAYER_2
 10
83.2888
 20
208.5809
  0
VERTEX
  8
LAYER_2
 10
83.7959
 20
208.5809
  0
VERTEX
  8
LAYER_2
 10
83.5619
 20
210.1021
  0
SEQEND
  0
POLYLINE
  8
LAYER_2
 66
1
 10
0
 20
0
 30
0
 70
1
  0
VERTEX
  8
LAYER_2
 10
83.2888
 20
208.5809
  0
VERTEX
  8
LAYER_2
 10
83.7959
 20
208.5809
  0
VERTEX
  8
LAYER_2
 10
83.5619
 20
210.1021
  0
SEQEND
  0
POLYLINE
  8
LAYER_2
 40
0.05
 41
0.05
 66
1
 10
0
 20
0
 30
0
 70
1
  0
VERTEX
  8
LAYER_2
 10
83.2888
 20
175.5874
  0
VERTEX
  8
LAYER_2
 10
83.7959
 20
175.5874
  0
VERTEX
  8
LAYER_2
 10
83.5619
 20
174.1053
  0
SEQEND
  0
POLYLINE
  8
LAYER_2
 66
1
 10
0
 20
0
 30
0
 70
1
  0
VERTEX
  8
LAYER_2
 10
83.2888
 20
175.5874
  0
VERTEX
  8
LAYER_2
 10
83.7959
 20
175.5874
  0
VERTEX
  8
LAYER_2
 10
83.5619
 20
174.1053
  0
SEQEND
  0
TEXT
  8
LAYER_2
 10
84.8804
 20
189.1976
 11
84.8804
 21
189.1976
 40
3.6923
 41
0.5
 50
89.99999999
  1
360
  0
POLYLINE
  8
LAYER_2
 40
0.0882
 41
0.0882
 62
251
 66
1
 10
0
 20
0
 30
0
  0
VERTEX
  8
LAYER_2
 10
83.4838
 20
210.1019
  0
VERTEX
  8
LAYER_2
 10
83.6788
 20
210.1019
  0
SEQEND
  0
POLYLINE
  8
LAYER_2
 40
0.0882
 41
0.0882
 62
251
 66
1
 10
0
 20
0
 30
0
  0
VERTEX
  8
LAYER_2
 10
83.4838
 20
218.6038
  0
VERTEX
  8
LAYER_2
 10
83.6788
 20
218.6038
  0
SEQEND
  0
POLYLINE
  8
LAYER_2
 40
0.0882
 41
0.0882
 62
251
 66
1
 10
0
 20
0
 30
0
  0
VERTEX
  8
LAYER_2
 10
83.5618
 20
211.5839
  0
VERTEX
  8
LAYER_2
 10
83.5618
 20
212.481
  0
SEQEND
  0
POLYLINE
  8
LAYER_2
 40
0.0882
 41
0.0882
 62
251
 66
1
 10
0
 20
0
 30
0
  0
VERTEX
  8
LAYER_2
 10
83.5618
 20
217.0828
  0
VERTEX
  8
LAYER_2
 10
83.5618
 20
216.1857
  0
SEQEND
  0
POLYLINE
  8
LAYER_2
 40
0.05
 41
0.05
 66
1
 10
0
 20
0
 30
0
 70
1
  0
VERTEX
  8
LAYER_2
 10
83.2888
 20
211.5839
  0
VERTEX
  8
LAYER_2
 10
83.7959
 20
211.5839
  0
VERTEX
  8
LAYER_2
 10
83.5619
 20
210.1019
  0
SEQEND
  0
POLYLINE
  8
LAYER_2
 66
1
 10
0
 20
0
 30
0
 70
1
  0
VERTEX
  8
LAYER_2
 10
83.2888
 20
211.5839
  0
VERTEX
  8
LAYER_2
 10
83.7959
 20
211.5839
  0
VERTEX
  8
LAYER_2
 10
83.5619
 20
210.1019
  0
SEQEND
  0
POLYLINE
  8
LAYER_2
 40
0.05
 41
0.05
 66
1
 10
0
 20
0
 30
0
 70
1
  0
VERTEX
  8
LAYER_2
 10
83.2888
 20
217.0828
  0
VERTEX
  8
LAYER_2
 10
83.7959
 20
217.0828
  0
VERTEX
  8
LAYER_2
 10
83.5619
 20
218.604
  0
SEQEND
  0
POLYLINE
  8
LAYER_2
 66
1
 10
0
 20
0
 30
0
 70
1
  0
VERTEX
  8
LAYER_2
 10
83.2888
 20
217.0828
  0
VERTEX
  8
LAYER_2
 10
83.7959
 20
217.0828
  0
VERTEX
  8
LAYER_2
 10
83.5619
 20
218.604
  0
SEQEND
  0
TEXT
  8
LAYER_2
 10
84.9194
 20
212.402
 11
84.9194
 21
212.402
 40
3.6923
 41
0.5
 50
89.99999999
  1
85
  0
POLYLINE
  8
LAYER_2
 40
0.0882
 41
0.0882
 62
251
 66
1
 10
0
 20
0
 30
0
  0
VERTEX
  8
LAYER_2
 10
61.3321
 20
214.3529
  0
VERTEX
  8
LAYER_2
 10
61.488
 20
214.3529
  0
SEQEND
  0
POLYLINE
  8
LAYER_2
 40
0.0882
 41
0.0882
 62
251
 66
1
 10
0
 20
0
 30
0
  0
VERTEX
  8
LAYER_2
 10
61.3321
 20
218.6038
  0
VERTEX
  8
LAYER_2
 10
61.488
 20
218.6038
  0
SEQEND
  0
POLYLINE
  8
LAYER_2
 40
0.0882
 41
0.0882
 62
251
 66
1
 10
0
 20
0
 30
0
  0
VERTEX
  8
LAYER_2
 10
61.3711
 20
212.8319
  0
VERTEX
  8
LAYER_2
 10
61.3711
 20
211.3498
  0
SEQEND
  0
POLYLINE
  8
LAYER_2
 40
0.0882
 41
0.0882
 62
251
 66
1
 10
0
 20
0
 30
0
  0
VERTEX
  8
LAYER_2
 10
61.3711
 20
220.0858
  0
VERTEX
  8
LAYER_2
 10
61.3711
 20
221.6069
  0
SEQEND
  0
POLYLINE
  8
LAYER_2
 40
0.0882
 41
0.0882
 62
251
 66
1
 10
0
 20
0
 30
0
  0
VERTEX
  8
LAYER_2
 10
61.3711
 20
214.3529
  0
VERTEX
  8
LAYER_2
 10
61.3711
 20
214.5479
  0
SEQEND
  0
POLYLINE
  8
LAYER_2
 40
0.0882
 41
0.0882
 62
251
 66
1
 10
0
 20
0
 30
0
  0
VERTEX
  8
LAYER_2
 10
61.3711
 20
218.6038
  0
VERTEX
  8
LAYER_2
 10
61.3711
 20
218.3698
  0
SEQEND
  0
POLYLINE
  8
LAYER_2
 40
0.05
 41
0.05
 66
1
 10
0
 20
0
 30
0
 70
1
  0
VERTEX
  8
LAYER_2
 10
61.137
 20
212.8319
  0
VERTEX
  8
LAYER_2
 10
61.6442
 20
212.8319
  0
VERTEX
  8
LAYER_2
 10
61.3711
 20
214.353
  0
SEQEND
  0
POLYLINE
  8
LAYER_2
 66
1
 10
0
 20
0
 30
0
 70
1
  0
VERTEX
  8
LAYER_2
 10
61.137
 20
212.8319
  0
VERTEX
  8
LAYER_2
 10
61.6442
 20
212.8319
  0
VERTEX
  8
LAYER_2
 10
61.3711
 20
214.353
  0
SEQEND
  0
POLYLINE
  8
LAYER_2
 40
0.05
 41
0.05
 66
1
 10
0
 20
0
 30
0
 70
1
  0
VERTEX
  8
LAYER_2
 10
61.137
 20
220.0858
  0
VERTEX
  8
LAYER_2
 10
61.6442
 20
220.0858
  0
VERTEX
  8
LAYER_2
 10
61.3711
 20
218.6037
  0
SEQEND
  0
POLYLINE
  8
LAYER_2
 66
1
 10
0
 20
0
 30
0
 70
1
  0
VERTEX
  8
LAYER_2
 10
61.137
 20
220.0858
  0
VERTEX
  8
LAYER_2
 10
61.6442
 20
220.0858
  0
VERTEX
  8
LAYER_2
 10
61.3711
 20
218.6037
  0
SEQEND
  0
TEXT
  8
LAYER_2
 10
61.4812
 20
215.6294
 11
61.4812
 21
215.6294
 40
3.6923
 41
0.5
  1
45
  0
POLYLINE
  8
LAYER_2
 40
0.0882
 41
0.0882
 62
251
 66
1
 10
0
 20
0
 30
0
  0
VERTEX
  8
LAYER_2
 10
93.2726
 20
218.6038
  0
VERTEX
  8
LAYER_2
 10
91.3615
 20
218.6038
  0
SEQEND
  0
POLYLINE
  8
LAYER_2
 40
0.0882
 41
0.0882
 62
251
 66
1
 10
0
 20
0
 30
0
  0
VERTEX
  8
LAYER_2
 10
93.2726
 20
170.0884
  0
VERTEX
  8
LAYER_2
 10
91.3615
 20
170.0884
  0
SEQEND
  0
POLYLINE
  8
LAYER_2
 40
0.0882
 41
0.0882
 62
251
 66
1
 10
0
 20
0
 30
0
  0
VERTEX
  8
LAYER_2
 10
91.4786
 20
217.0828
  0
VERTEX
  8
LAYER_2
 10
91.4786
 20
197.232
  0
SEQEND
  0
POLYLINE
  8
LAYER_2
 40
0.0882
 41
0.0882
 62
251
 66
1
 10
0
 20
0
 30
0
  0
VERTEX
  8
LAYER_2
 10
91.4786
 20
171.5705
  0
VERTEX
  8
LAYER_2
 10
91.4786
 20
191.4603
  0
SEQEND
  0
POLYLINE
  8
LAYER_2
 40
0.05
 41
0.05
 66
1
 10
0
 20
0
 30
0
 70
1
  0
VERTEX
  8
LAYER_2
 10
91.2447
 20
217.0828
  0
VERTEX
  8
LAYER_2
 10
91.7519
 20
217.0828
  0
VERTEX
  8
LAYER_2
 10
91.4787
 20
218.604
  0
SEQEND
  0
POLYLINE
  8
LAYER_2
 66
1
 10
0
 20
0
 30
0
 70
1
  0
VERTEX
  8
LAYER_2
 10
91.2447
 20
217.0828
  0
VERTEX
  8
LAYER_2
 10
91.7519
 20
217.0828
  0
VERTEX
  8
LAYER_2
 10
91.4787
 20
218.604
  0
SEQEND
  0
POLYLINE
  8
LAYER_2
 40
0.05
 41
0.05
 66
1
 10
0
 20
0
 30
0
 70
1
  0
VERTEX
  8
LAYER_2
 10
91.2447
 20
171.5705
  0
VERTEX
  8
LAYER_2
 10
91.7519
 20
171.5705
  0
VERTEX
  8
LAYER_2
 10
91.4787
 20
170.0884
  0
SEQEND
  0
POLYLINE
  8
LAYER_2
 66
1
 10
0
 20
0
 30
0
 70
1
  0
VERTEX
  8
LAYER_2
 10
91.2447
 20
171.5705
  0
VERTEX
  8
LAYER_2
 10
91.7519
 20
171.5705
  0
VERTEX
  8
LAYER_2
 10
91.4787
 20
170.0884
  0
SEQEND
  0
TEXT
  8
LAYER_2
 10
92.8365
 20
191.4597
 11
92.8365
 21
191.4597
 40
3.6923
 41
0.5
 50
89.99999999
  1
485
  0
POLYLINE
  8
LAYER_2
 40
0.0882
 41
0.0882
 62
251
 66
1
 10
0
 20
0
 30
0
  0
VERTEX
  8
LAYER_2
 10
37.4254
 20
170.0884
  0
VERTEX
  8
LAYER_2
 10
37.5035
 20
170.0884
  0
SEQEND
  0
POLYLINE
  8
LAYER_2
 40
0.0882
 41
0.0882
 62
251
 66
1
 10
0
 20
0
 30
0
  0
VERTEX
  8
LAYER_2
 10
37.4254
 20
169.2695
  0
VERTEX
  8
LAYER_2
 10
37.5035
 20
169.2695
  0
SEQEND
  0
POLYLINE
  8
LAYER_2
 40
0.0882
 41
0.0882
 62
251
 66
1
 10
0
 20
0
 30
0
  0
VERTEX
  8
LAYER_2
 10
37.3864
 20
171.5705
  0
VERTEX
  8
LAYER_2
 10
37.3864
 20
173.0916
  0
SEQEND
  0
POLYLINE
  8
LAYER_2
 40
0.0882
 41
0.0882
 62
251
 66
1
 10
0
 20
0
 30
0
  0
VERTEX
  8
LAYER_2
 10
37.3864
 20
167.7875
  0
VERTEX
  8
LAYER_2
 10
37.3864
 20
166.3054
  0
SEQEND
  0
POLYLINE
  8
LAYER_2
 40
0.0882
 41
0.0882
 62
251
 66
1
 10
0
 20
0
 30
0
  0
VERTEX
  8
LAYER_2
 10
37.3864
 20
170.0884
  0
VERTEX
  8
LAYER_2
 10
37.3864
 20
169.2695
  0
SEQEND
  0
POLYLINE
  8
LAYER_2
 40
0.05
 41
0.05
 66
1
 10
0
 20
0
 30
0
 70
1
  0
VERTEX
  8
LAYER_2
 10
37.1134
 20
171.5705
  0
VERTEX
  8
LAYER_2
 10
37.6205
 20
171.5705
  0
VERTEX
  8
LAYER_2
 10
37.3865
 20
170.0884
  0
SEQEND
  0
POLYLINE
  8
LAYER_2
 66
1
 10
0
 20
0
 30
0
 70
1
  0
VERTEX
  8
LAYER_2
 10
37.1134
 20
171.5705
  0
VERTEX
  8
LAYER_2
 10
37.6205
 20
171.5705
  0
VERTEX
  8
LAYER_2
 10
37.3865
 20
170.0884
  0
SEQEND
  0
POLYLINE
  8
LAYER_2
 40
0.05
 41
0.05
 66
1
 10
0
 20
0
 30
0
 70
1
  0
VERTEX
  8
LAYER_2
 10
37.1134
 20
167.7875
  0
VERTEX
  8
LAYER_2
 10
37.6205
 20
167.7875
  0
VERTEX
  8
LAYER_2
 10
37.3865
 20
169.2696
  0
SEQEND
  0
POLYLINE
  8
LAYER_2
 66
1
 10
0
 20
0
 30
0
 70
1
  0
VERTEX
  8
LAYER_2
 10
37.1134
 20
167.7875
  0
VERTEX
  8
LAYER_2
 10
37.6205
 20
167.7875
  0
VERTEX
  8
LAYER_2
 10
37.3865
 20
169.2696
  0
SEQEND
  0
TEXT
  8
LAYER_2
 10
38.7051
 20
162.5215
 11
38.7051
 21
162.5215
 40
3.6923
 41
0.5
 50
89.99999999
  1
10
  0
POLYLINE
  8
LAYER_2
 40
0.0882
 41
0.0882
 62
251
 66
1
 10
0
 20
0
 30
0
  0
VERTEX
  8
LAYER_2
 10
30.3665
 20
216.3418
  0
VERTEX
  8
LAYER_2
 10
30.3665
 20
222.7377
  0
SEQEND
  0
POLYLINE
  8
LAYER_2
 40
0.0882
 41
0.0882
 62
251
 66
1
 10
0
 20
0
 30
0
  0
VERTEX
  8
LAYER_2
 10
122.3665
 20
216.3418
  0
VERTEX
  8
LAYER_2
 10
122.3665
 20
222.7377
  0
SEQEND
  0
POLYLINE
  8
LAYER_2
 40
0.0882
 41
0.0882
 62
251
 66
1
 10
0
 20
0
 30
0
  0
VERTEX
  8
LAYER_2
 10
31.8874
 20
222.6208
  0
VERTEX
  8
LAYER_2
 10
73.5388
 20
222.6208
  0
SEQEND
  0
POLYLINE
  8
LAYER_2
 40
0.0882
 41
0.0882
 62
251
 66
1
 10
0
 20
0
 30
0
  0
VERTEX
  8
LAYER_2
 10
120.8452
 20
222.6208
  0
VERTEX
  8
LAYER_2
 10
79.1939
 20
222.6208
  0
SEQEND
  0
POLYLINE
  8
LAYER_2
 40
0.05
 41
0.05
 66
1
 10
0
 20
0
 30
0
 70
1
  0
VERTEX
  8
LAYER_2
 10
31.8874
 20
222.8938
  0
VERTEX
  8
LAYER_2
 10
31.8874
 20
222.3866
  0
VERTEX
  8
LAYER_2
 10
30.3663
 20
222.6206
  0
SEQEND
  0
POLYLINE
  8
LAYER_2
 66
1
 10
0
 20
0
 30
0
 70
1
  0
VERTEX
  8
LAYER_2
 10
31.8874
 20
222.8938
  0
VERTEX
  8
LAYER_2
 10
31.8874
 20
222.3866
  0
VERTEX
  8
LAYER_2
 10
30.3663
 20
222.6206
  0
SEQEND
  0
POLYLINE
  8
LAYER_2
 40
0.05
 41
0.05
 66
1
 10
0
 20
0
 30
0
 70
1
  0
VERTEX
  8
LAYER_2
 10
120.8452
 20
222.8938
  0
VERTEX
  8
LAYER_2
 10
120.8452
 20
222.3866
  0
VERTEX
  8
LAYER_2
 10
122.3664
 20
222.6206
  0
SEQEND
  0
POLYLINE
  8
LAYER_2
 66
1
 10
0
 20
0
 30
0
 70
1
  0
VERTEX
  8
LAYER_2
 10
120.8452
 20
222.8938
  0
VERTEX
  8
LAYER_2
 10
120.8452
 20
222.3866
  0
VERTEX
  8
LAYER_2
 10
122.3664
 20
222.6206
  0
SEQEND
  0
TEXT
  8
LAYER_2
 10
73.4606
 20
221.3019
 11
73.4606
 21
221.3019
 40
3.6923
 41
0.5
  1
920
  0
POLYLINE
  8
LAYER_2
 40
0.0882
 41
0.0882
 62
251
 66
1
 10
0
 20
0
 30
0
  0
VERTEX
  8
LAYER_2
 10
119.9483
 20
195.0481
  0
VERTEX
  8
LAYER_2
 10
124.8621
 20
195.0481
  0
SEQEND
  0
POLYLINE
  8
LAYER_2
 40
0.0882
 41
0.0882
 62
251
 66
1
 10
0
 20
0
 30
0
  0
VERTEX
  8
LAYER_2
 10
115.4243
 20
170.0884
  0
VERTEX
  8
LAYER_2
 10
124.8621
 20
170.0884
  0
SEQEND
  0
POLYLINE
  8
LAYER_2
 40
0.0882
 41
0.0882
 62
251
 66
1
 10
0
 20
0
 30
0
  0
VERTEX
  8
LAYER_2
 10
124.7452
 20
193.5272
  0
VERTEX
  8
LAYER_2
 10
124.7452
 20
185.4151
  0
SEQEND
  0
POLYLINE
  8
LAYER_2
 40
0.0882
 41
0.0882
 62
251
 66
1
 10
0
 20
0
 30
0
  0
VERTEX
  8
LAYER_2
 10
124.7452
 20
171.5705
  0
VERTEX
  8
LAYER_2
 10
124.7452
 20
179.7216
  0
SEQEND
  0
POLYLINE
  8
LAYER_2
 40
0.05
 41
0.05
 66
1
 10
0
 20
0
 30
0
 70
1
  0
VERTEX
  8
LAYER_2
 10
124.5112
 20
193.5272
  0
VERTEX
  8
LAYER_2
 10
125.0184
 20
193.5272
  0
VERTEX
  8
LAYER_2
 10
124.7453
 20
195.0483
  0
SEQEND
  0
POLYLINE
  8
LAYER_2
 66
1
 10
0
 20
0
 30
0
 70
1
  0
VERTEX
  8
LAYER_2
 10
124.5112
 20
193.5272
  0
VERTEX
  8
LAYER_2
 10
125.0184
 20
193.5272
  0
VERTEX
  8
LAYER_2
 10
124.7453
 20
195.0483
  0
SEQEND
  0
POLYLINE
  8
LAYER_2
 40
0.05
 41
0.05
 66
1
 10
0
 20
0
 30
0
 70
1
  0
VERTEX
  8
LAYER_2
 10
124.5112
 20
171.5705
  0
VERTEX
  8
LAYER_2
 10
125.0184
 20
171.5705
  0
VERTEX
  8
LAYER_2
 10
124.7453
 20
170.0884
  0
SEQEND
  0
POLYLINE
  8
LAYER_2
 66
1
 10
0
 20
0
 30
0
 70
1
  0
VERTEX
  8
LAYER_2
 10
124.5112
 20
171.5705
  0
VERTEX
  8
LAYER_2
 10
125.0184
 20
171.5705
  0
VERTEX
  8
LAYER_2
 10
124.7453
 20
170.0884
  0
SEQEND
  0
TEXT
  8
LAYER_2
 10
126.1031
 20
179.6816
 11
126.1031
 21
179.6816
 40
3.6923
 41
0.5
 50
89.99999999
  1
250
  0
POLYLINE
  8
LAYER_2
 40
0.0882
 41
0.0882
 62
251
 66
1
 10
0
 20
0
 30
0
  0
VERTEX
  8
LAYER_2
 10
120.4163
 20
220.2808
  0
VERTEX
  8
LAYER_2
 10
128.0993
 20
220.2808
  0
SEQEND
  0
POLYLINE
  8
LAYER_2
 40
0.0882
 41
0.0882
 62
251
 66
1
 10
0
 20
0
 30
0
  0
VERTEX
  8
LAYER_2
 10
115.4243
 20
169.2695
  0
VERTEX
  8
LAYER_2
 10
128.0993
 20
169.2695
  0
SEQEND
  0
POLYLINE
  8
LAYER_2
 40
0.0882
 41
0.0882
 62
251
 66
1
 10
0
 20
0
 30
0
  0
VERTEX
  8
LAYER_2
 10
127.9432
 20
218.7988
  0
VERTEX
  8
LAYER_2
 10
127.9432
 20
197.6222
  0
SEQEND
  0
POLYLINE
  8
LAYER_2
 40
0.0882
 41
0.0882
 62
251
 66
1
 10
0
 20
0
 30
0
  0
VERTEX
  8
LAYER_2
 10
127.9432
 20
170.7904
  0
VERTEX
  8
LAYER_2
 10
127.9432
 20
191.967
  0
SEQEND
  0
POLYLINE
  8
LAYER_2
 40
0.05
 41
0.05
 66
1
 10
0
 20
0
 30
0
 70
1
  0
VERTEX
  8
LAYER_2
 10
127.7092
 20
218.7988
  0
VERTEX
  8
LAYER_2
 10
128.2164
 20
218.7988
  0
VERTEX
  8
LAYER_2
 10
127.9432
 20
220.2809
  0
SEQEND
  0
POLYLINE
  8
LAYER_2
 66
1
 10
0
 20
0
 30
0
 70
1
  0
VERTEX
  8
LAYER_2
 10
127.7092
 20
218.7988
  0
VERTEX
  8
LAYER_2
 10
128.2164
 20
218.7988
  0
VERTEX
  8
LAYER_2
 10
127.9432
 20
220.2809
  0
SEQEND
  0
POLYLINE
  8
LAYER_2
 40
0.05
 41
0.05
 66
1
 10
0
 20
0
 30
0
 70
1
  0
VERTEX
  8
LAYER_2
 10
127.7092
 20
170.7904
  0
VERTEX
  8
LAYER_2
 10
128.2164
 20
170.7904
  0
VERTEX
  8
LAYER_2
 10
127.9432
 20
169.2693
  0
SEQEND
  0
POLYLINE
  8
LAYER_2
 66
1
 10
0
 20
0
 30
0
 70
1
  0
VERTEX
  8
LAYER_2
 10
127.7092
 20
170.7904
  0
VERTEX
  8
LAYER_2
 10
128.2164
 20
170.7904
  0
VERTEX
  8
LAYER_2
 10
127.9432
 20
169.2693
  0
SEQEND
  0
TEXT
  8
LAYER_2
 10
129.3008
 20
191.8882
 11
129.3008
 21
191.8882
 40
3.6923
 41
0.5
 50
89.99999999
  1
510
  0
POLYLINE
  8
LAYER_2
 40
0.0882
 41
0.0882
 62
251
 66
1
 10
0
 20
0
 30
0
  0
VERTEX
  8
LAYER_2
 10
115.2683
 20
136.5099
  0
VERTEX
  8
LAYER_2
 10
37.4644
 20
136.5099
  0
SEQEND
  0
POLYLINE
  8
LAYER_2
 40
0.6279
 41
0.6279
 66
1
 10
0
 20
0
 30
0
  0
VERTEX
  8
LAYER_2
 10
126.3832
 20
67.5588
  0
VERTEX
  8
LAYER_2
 10
29.0016
 20
67.5588
  0
SEQEND
  0
POLYLINE
  8
LAYER_2
 40
0.6279
 41
0.6279
 66
1
 10
0
 20
0
 30
0
  0
VERTEX
  8
LAYER_2
 10
132.1161
 20
67.5588
  0
VERTEX
  8
LAYER_2
 10
184.1805
 20
67.5588
  0
VERTEX
  8
LAYER_2
 10
184.1805
 20
164.9014
  0
SEQEND
  0
POLYLINE
  8
LAYER_2
 40
0.0882
 41
0.0882
 62
251
 66
1
 10
0
 20
0
 30
0
  0
VERTEX
  8
LAYER_2
 10
183.1664
 20
156.5166
  0
VERTEX
  8
LAYER_2
 10
183.1664
 20
156.1267
  0
SEQEND
  0
POLYLINE
  8
LAYER_2
 40
0.0882
 41
0.0882
 62
251
 66
1
 10
0
 20
0
 30
0
  0
VERTEX
  8
LAYER_2
 10
183.1664
 20
155.8147
  0
VERTEX
  8
LAYER_2
 10
183.1664
 20
155.1907
  0
SEQEND
  0
POLYLINE
  8
LAYER_2
 40
0.0882
 41
0.0882
 62
251
 66
1
 10
0
 20
0
 30
0
  0
VERTEX
  8
LAYER_2
 10
183.1664
 20
154.8397
  0
VERTEX
  8
LAYER_2
 10
183.1664
 20
154.2157
  0
SEQEND
  0
POLYLINE
  8
LAYER_2
 40
0.0882
 41
0.0882
 62
251
 66
1
 10
0
 20
0
 30
0
  0
VERTEX
  8
LAYER_2
 10
183.1664
 20
153.9037
  0
VERTEX
  8
LAYER_2
 10
183.1664
 20
153.5137
  0
SEQEND
  0
POLYLINE
  8
LAYER_2
 40
0.0882
 41
0.0882
 62
251
 66
1
 10
0
 20
0
 30
0
  0
VERTEX
  8
LAYER_2
 10
182.1914
 20
152.4997
  0
VERTEX
  8
LAYER_2
 10
182.3473
 20
152.5388
  0
VERTEX
  8
LAYER_2
 10
182.5032
 20
152.5779
  0
VERTEX
  8
LAYER_2
 10
182.6595
 20
152.6556
  0
VERTEX
  8
LAYER_2
 10
182.7764
 20
152.6947
  0
SEQEND
  0
POLYLINE
  8
LAYER_2
 40
0.0882
 41
0.0882
 62
251
 66
1
 10
0
 20
0
 30
0
  0
VERTEX
  8
LAYER_2
 10
182.9714
 20
152.9287
  0
VERTEX
  8
LAYER_2
 10
183.0496
 20
153.0068
  0
VERTEX
  8
LAYER_2
 10
183.1273
 20
153.1627
  0
VERTEX
  8
LAYER_2
 10
183.1664
 20
153.3577
  0
VERTEX
  8
LAYER_2
 10
183.1664
 20
153.5136
  0
SEQEND
  0
POLYLINE
  8
LAYER_2
 40
0.0882
 41
0.0882
 62
251
 66
1
 10
0
 20
0
 30
0
  0
VERTEX
  8
LAYER_2
 10
182.1914
 20
152.4997
  0
VERTEX
  8
LAYER_2
 10
181.7624
 20
152.4997
  0
SEQEND
  0
POLYLINE
  8
LAYER_2
 40
0.0882
 41
0.0882
 62
251
 66
1
 10
0
 20
0
 30
0
  0
VERTEX
  8
LAYER_2
 10
181.4505
 20
152.4997
  0
VERTEX
  8
LAYER_2
 10
180.8265
 20
152.4997
  0
SEQEND
  0
POLYLINE
  8
LAYER_2
 40
0.0882
 41
0.0882
 62
251
 66
1
 10
0
 20
0
 30
0
  0
VERTEX
  8
LAYER_2
 10
180.4755
 20
152.4997
  0
VERTEX
  8
LAYER_2
 10
179.8515
 20
152.4997
  0
SEQEND
  0
POLYLINE
  8
LAYER_2
 40
0.0882
 41
0.0882
 62
251
 66
1
 10
0
 20
0
 30
0
  0
VERTEX
  8
LAYER_2
 10
179.5395
 20
152.4997
  0
VERTEX
  8
LAYER_2
 10
178.9155
 20
152.4997
  0
SEQEND
  0
POLYLINE
  8
LAYER_2
 40
0.0882
 41
0.0882
 62
251
 66
1
 10
0
 20
0
 30
0
  0
VERTEX
  8
LAYER_2
 10
178.6035
 20
152.4997
  0
VERTEX
  8
LAYER_2
 10
177.9404
 20
152.4997
  0
SEQEND
  0
POLYLINE
  8
LAYER_2
 40
0.0882
 41
0.0882
 62
251
 66
1
 10
0
 20
0
 30
0
  0
VERTEX
  8
LAYER_2
 10
177.6285
 20
152.4997
  0
VERTEX
  8
LAYER_2
 10
177.0045
 20
152.4997
  0
SEQEND
  0
POLYLINE
  8
LAYER_2
 40
0.0882
 41
0.0882
 62
251
 66
1
 10
0
 20
0
 30
0
  0
VERTEX
  8
LAYER_2
 10
176.6925
 20
152.4997
  0
VERTEX
  8
LAYER_2
 10
176.0294
 20
152.4997
  0
SEQEND
  0
POLYLINE
  8
LAYER_2
 40
0.0882
 41
0.0882
 62
251
 66
1
 10
0
 20
0
 30
0
  0
VERTEX
  8
LAYER_2
 10
175.7175
 20
152.4997
  0
VERTEX
  8
LAYER_2
 10
175.0935
 20
152.4997
  0
SEQEND
  0
POLYLINE
  8
LAYER_2
 40
0.0882
 41
0.0882
 62
251
 66
1
 10
0
 20
0
 30
0
  0
VERTEX
  8
LAYER_2
 10
174.7815
 20
152.4997
  0
VERTEX
  8
LAYER_2
 10
174.1575
 20
152.4997
  0
SEQEND
  0
POLYLINE
  8
LAYER_2
 40
0.0882
 41
0.0882
 62
251
 66
1
 10
0
 20
0
 30
0
  0
VERTEX
  8
LAYER_2
 10
173.8065
 20
152.4997
  0
VERTEX
  8
LAYER_2
 10
173.1825
 20
152.4997
  0
SEQEND
  0
POLYLINE
  8
LAYER_2
 40
0.0882
 41
0.0882
 62
251
 66
1
 10
0
 20
0
 30
0
  0
VERTEX
  8
LAYER_2
 10
172.8706
 20
152.4997
  0
VERTEX
  8
LAYER_2
 10
172.2466
 20
152.4997
  0
SEQEND
  0
POLYLINE
  8
LAYER_2
 40
0.0882
 41
0.0882
 62
251
 66
1
 10
0
 20
0
 30
0
  0
VERTEX
  8
LAYER_2
 10
171.9346
 20
152.4997
  0
VERTEX
  8
LAYER_2
 10
171.2715
 20
152.4997
  0
SEQEND
  0
POLYLINE
  8
LAYER_2
 40
0.0882
 41
0.0882
 62
251
 66
1
 10
0
 20
0
 30
0
  0
VERTEX
  8
LAYER_2
 10
170.9596
 20
152.4997
  0
VERTEX
  8
LAYER_2
 10
170.3356
 20
152.4997
  0
SEQEND
  0
POLYLINE
  8
LAYER_2
 40
0.0882
 41
0.0882
 62
251
 66
1
 10
0
 20
0
 30
0
  0
VERTEX
  8
LAYER_2
 10
170.0236
 20
152.4997
  0
VERTEX
  8
LAYER_2
 10
169.3605
 20
152.4997
  0
SEQEND
  0
POLYLINE
  8
LAYER_2
 40
0.0882
 41
0.0882
 62
251
 66
1
 10
0
 20
0
 30
0
  0
VERTEX
  8
LAYER_2
 10
169.0486
 20
152.4997
  0
VERTEX
  8
LAYER_2
 10
168.4246
 20
152.4997
  0
SEQEND
  0
POLYLINE
  8
LAYER_2
 40
0.0882
 41
0.0882
 62
251
 66
1
 10
0
 20
0
 30
0
  0
VERTEX
  8
LAYER_2
 10
168.1126
 20
152.4997
  0
VERTEX
  8
LAYER_2
 10
167.4886
 20
152.4997
  0
SEQEND
  0
POLYLINE
  8
LAYER_2
 40
0.0882
 41
0.0882
 62
251
 66
1
 10
0
 20
0
 30
0
  0
VERTEX
  8
LAYER_2
 10
167.1766
 20
152.4997
  0
VERTEX
  8
LAYER_2
 10
166.5135
 20
152.4997
  0
SEQEND
  0
POLYLINE
  8
LAYER_2
 40
0.0882
 41
0.0882
 62
251
 66
1
 10
0
 20
0
 30
0
  0
VERTEX
  8
LAYER_2
 10
166.2017
 20
152.4997
  0
VERTEX
  8
LAYER_2
 10
165.5777
 20
152.4997
  0
SEQEND
  0
POLYLINE
  8
LAYER_2
 40
0.0882
 41
0.0882
 62
251
 66
1
 10
0
 20
0
 30
0
  0
VERTEX
  8
LAYER_2
 10
165.2657
 20
152.4997
  0
VERTEX
  8
LAYER_2
 10
164.6026
 20
152.4997
  0
SEQEND
  0
POLYLINE
  8
LAYER_2
 40
0.0882
 41
0.0882
 62
251
 66
1
 10
0
 20
0
 30
0
  0
VERTEX
  8
LAYER_2
 10
164.2907
 20
152.4997
  0
VERTEX
  8
LAYER_2
 10
163.6667
 20
152.4997
  0
SEQEND
  0
POLYLINE
  8
LAYER_2
 40
0.0882
 41
0.0882
 62
251
 66
1
 10
0
 20
0
 30
0
  0
VERTEX
  8
LAYER_2
 10
163.3547
 20
152.4997
  0
VERTEX
  8
LAYER_2
 10
162.7307
 20
152.4997
  0
SEQEND
  0
POLYLINE
  8
LAYER_2
 40
0.0882
 41
0.0882
 62
251
 66
1
 10
0
 20
0
 30
0
  0
VERTEX
  8
LAYER_2
 10
162.3797
 20
152.4997
  0
VERTEX
  8
LAYER_2
 10
161.7557
 20
152.4997
  0
SEQEND
  0
POLYLINE
  8
LAYER_2
 40
0.0882
 41
0.0882
 62
251
 66
1
 10
0
 20
0
 30
0
  0
VERTEX
  8
LAYER_2
 10
161.4437
 20
152.4997
  0
VERTEX
  8
LAYER_2
 10
160.8197
 20
152.4997
  0
SEQEND
  0
POLYLINE
  8
LAYER_2
 40
0.0882
 41
0.0882
 62
251
 66
1
 10
0
 20
0
 30
0
  0
VERTEX
  8
LAYER_2
 10
160.5077
 20
152.4997
  0
VERTEX
  8
LAYER_2
 10
159.8447
 20
152.4997
  0
SEQEND
  0
POLYLINE
  8
LAYER_2
 40
0.0882
 41
0.0882
 62
251
 66
1
 10
0
 20
0
 30
0
  0
VERTEX
  8
LAYER_2
 10
159.5328
 20
152.4997
  0
VERTEX
  8
LAYER_2
 10
159.1428
 20
152.4997
  0
SEQEND
  0
POLYLINE
  8
LAYER_2
 40
0.0882
 41
0.0882
 62
251
 66
1
 10
0
 20
0
 30
0
  0
VERTEX
  8
LAYER_2
 10
182.1914
 20
137.5239
  0
VERTEX
  8
LAYER_2
 10
182.3473
 20
137.5239
  0
VERTEX
  8
LAYER_2
 10
182.5032
 20
137.563
  0
VERTEX
  8
LAYER_2
 10
182.6595
 20
137.6407
  0
VERTEX
  8
LAYER_2
 10
182.7764
 20
137.7189
  0
SEQEND
  0
POLYLINE
  8
LAYER_2
 40
0.0882
 41
0.0882
 62
251
 66
1
 10
0
 20
0
 30
0
  0
VERTEX
  8
LAYER_2
 10
182.9714
 20
137.9139
  0
VERTEX
  8
LAYER_2
 10
183.0496
 20
138.0307
  0
VERTEX
  8
LAYER_2
 10
183.1273
 20
138.187
  0
VERTEX
  8
LAYER_2
 10
183.1664
 20
138.3429
  0
VERTEX
  8
LAYER_2
 10
183.1664
 20
138.4988
  0
VERTEX
  8
LAYER_2
 10
183.1664
 20
139.1228
  0
SEQEND
  0
POLYLINE
  8
LAYER_2
 40
0.0882
 41
0.0882
 62
251
 66
1
 10
0
 20
0
 30
0
  0
VERTEX
  8
LAYER_2
 10
183.1664
 20
139.4349
  0
VERTEX
  8
LAYER_2
 10
183.1664
 20
140.0589
  0
SEQEND
  0
POLYLINE
  8
LAYER_2
 40
0.0882
 41
0.0882
 62
251
 66
1
 10
0
 20
0
 30
0
  0
VERTEX
  8
LAYER_2
 10
183.1664
 20
140.3708
  0
VERTEX
  8
LAYER_2
 10
183.1664
 20
141.0339
  0
SEQEND
  0
POLYLINE
  8
LAYER_2
 40
0.0882
 41
0.0882
 62
251
 66
1
 10
0
 20
0
 30
0
  0
VERTEX
  8
LAYER_2
 10
183.1664
 20
141.3458
  0
VERTEX
  8
LAYER_2
 10
183.1664
 20
141.9699
  0
SEQEND
  0
POLYLINE
  8
LAYER_2
 40
0.0882
 41
0.0882
 62
251
 66
1
 10
0
 20
0
 30
0
  0
VERTEX
  8
LAYER_2
 10
183.1664
 20
142.2818
  0
VERTEX
  8
LAYER_2
 10
183.1664
 20
142.9449
  0
SEQEND
  0
POLYLINE
  8
LAYER_2
 40
0.0882
 41
0.0882
 62
251
 66
1
 10
0
 20
0
 30
0
  0
VERTEX
  8
LAYER_2
 10
183.1664
 20
143.2568
  0
VERTEX
  8
LAYER_2
 10
183.1664
 20
143.8808
  0
SEQEND
  0
POLYLINE
  8
LAYER_2
 40
0.0882
 41
0.0882
 62
251
 66
1
 10
0
 20
0
 30
0
  0
VERTEX
  8
LAYER_2
 10
183.1664
 20
144.1928
  0
VERTEX
  8
LAYER_2
 10
183.1664
 20
144.8168
  0
SEQEND
  0
POLYLINE
  8
LAYER_2
 40
0.0882
 41
0.0882
 62
251
 66
1
 10
0
 20
0
 30
0
  0
VERTEX
  8
LAYER_2
 10
183.1664
 20
145.1678
  0
VERTEX
  8
LAYER_2
 10
183.1664
 20
145.7918
  0
SEQEND
  0
POLYLINE
  8
LAYER_2
 40
0.0882
 41
0.0882
 62
251
 66
1
 10
0
 20
0
 30
0
  0
VERTEX
  8
LAYER_2
 10
183.1664
 20
146.1038
  0
VERTEX
  8
LAYER_2
 10
183.1664
 20
146.7278
  0
SEQEND
  0
POLYLINE
  8
LAYER_2
 40
0.0882
 41
0.0882
 62
251
 66
1
 10
0
 20
0
 30
0
  0
VERTEX
  8
LAYER_2
 10
183.1664
 20
147.0398
  0
VERTEX
  8
LAYER_2
 10
183.1664
 20
147.7028
  0
SEQEND
  0
POLYLINE
  8
LAYER_2
 40
0.0882
 41
0.0882
 62
251
 66
1
 10
0
 20
0
 30
0
  0
VERTEX
  8
LAYER_2
 10
183.1664
 20
148.0148
  0
VERTEX
  8
LAYER_2
 10
183.1664
 20
148.6388
  0
SEQEND
  0
POLYLINE
  8
LAYER_2
 40
0.0882
 41
0.0882
 62
251
 66
1
 10
0
 20
0
 30
0
  0
VERTEX
  8
LAYER_2
 10
183.1664
 20
148.9508
  0
VERTEX
  8
LAYER_2
 10
183.1664
 20
149.5748
  0
SEQEND
  0
POLYLINE
  8
LAYER_2
 40
0.0882
 41
0.0882
 62
251
 66
1
 10
0
 20
0
 30
0
  0
VERTEX
  8
LAYER_2
 10
183.1664
 20
149.9257
  0
VERTEX
  8
LAYER_2
 10
183.1664
 20
150.5106
  0
VERTEX
  8
LAYER_2
 10
183.1664
 20
150.7056
  0
VERTEX
  8
LAYER_2
 10
183.1274
 20
150.8615
  0
VERTEX
  8
LAYER_2
 10
183.0496
 20
151.0178
  0
VERTEX
  8
LAYER_2
 10
182.9715
 20
151.0956
  0
SEQEND
  0
POLYLINE
  8
LAYER_2
 40
0.0882
 41
0.0882
 62
251
 66
1
 10
0
 20
0
 30
0
  0
VERTEX
  8
LAYER_2
 10
182.7764
 20
151.3297
  0
VERTEX
  8
LAYER_2
 10
182.6596
 20
151.3688
  0
VERTEX
  8
LAYER_2
 10
182.5033
 20
151.4465
  0
VERTEX
  8
LAYER_2
 10
182.3474
 20
151.4856
  0
VERTEX
  8
LAYER_2
 10
182.1915
 20
151.5247
  0
VERTEX
  8
LAYER_2
 10
181.6066
 20
151.5247
  0
SEQEND
  0
POLYLINE
  8
LAYER_2
 40
0.0882
 41
0.0882
 62
251
 66
1
 10
0
 20
0
 30
0
  0
VERTEX
  8
LAYER_2
 10
181.2944
 20
151.5247
  0
VERTEX
  8
LAYER_2
 10
180.6704
 20
151.5247
  0
SEQEND
  0
POLYLINE
  8
LAYER_2
 40
0.0882
 41
0.0882
 62
251
 66
1
 10
0
 20
0
 30
0
  0
VERTEX
  8
LAYER_2
 10
180.3585
 20
151.5247
  0
VERTEX
  8
LAYER_2
 10
179.6954
 20
151.5247
  0
SEQEND
  0
POLYLINE
  8
LAYER_2
 40
0.0882
 41
0.0882
 62
251
 66
1
 10
0
 20
0
 30
0
  0
VERTEX
  8
LAYER_2
 10
179.3835
 20
151.5247
  0
VERTEX
  8
LAYER_2
 10
178.7595
 20
151.5247
  0
SEQEND
  0
POLYLINE
  8
LAYER_2
 40
0.0882
 41
0.0882
 62
251
 66
1
 10
0
 20
0
 30
0
  0
VERTEX
  8
LAYER_2
 10
178.4475
 20
151.5247
  0
VERTEX
  8
LAYER_2
 10
177.8235
 20
151.5247
  0
SEQEND
  0
POLYLINE
  8
LAYER_2
 40
0.0882
 41
0.0882
 62
251
 66
1
 10
0
 20
0
 30
0
  0
VERTEX
  8
LAYER_2
 10
177.4725
 20
151.5247
  0
VERTEX
  8
LAYER_2
 10
176.8485
 20
151.5247
  0
SEQEND
  0
POLYLINE
  8
LAYER_2
 40
0.0882
 41
0.0882
 62
251
 66
1
 10
0
 20
0
 30
0
  0
VERTEX
  8
LAYER_2
 10
176.5365
 20
151.5247
  0
VERTEX
  8
LAYER_2
 10
175.9907
 20
151.5247
  0
VERTEX
  8
LAYER_2
 10
175.7957
 20
151.4856
  0
VERTEX
  8
LAYER_2
 10
175.6394
 20
151.4466
  0
VERTEX
  8
LAYER_2
 10
175.4835
 20
151.3688
  0
VERTEX
  8
LAYER_2
 10
175.4053
 20
151.3297
  0
SEQEND
  0
POLYLINE
  8
LAYER_2
 40
0.0882
 41
0.0882
 62
251
 66
1
 10
0
 20
0
 30
0
  0
VERTEX
  8
LAYER_2
 10
175.1715
 20
151.0957
  0
VERTEX
  8
LAYER_2
 10
175.0934
 20
151.0176
  0
VERTEX
  8
LAYER_2
 10
175.0547
 20
150.8617
  0
VERTEX
  8
LAYER_2
 10
174.9766
 20
150.7058
  0
VERTEX
  8
LAYER_2
 10
174.9766
 20
150.5108
  0
VERTEX
  8
LAYER_2
 10
174.9766
 20
150.1986
  0
SEQEND
  0
POLYLINE
  8
LAYER_2
 40
0.0882
 41
0.0882
 62
251
 66
1
 10
0
 20
0
 30
0
  0
VERTEX
  8
LAYER_2
 10
174.9766
 20
149.8477
  0
VERTEX
  8
LAYER_2
 10
174.9766
 20
149.2237
  0
SEQEND
  0
POLYLINE
  8
LAYER_2
 40
0.0882
 41
0.0882
 62
251
 66
1
 10
0
 20
0
 30
0
  0
VERTEX
  8
LAYER_2
 10
174.9766
 20
148.9118
  0
VERTEX
  8
LAYER_2
 10
174.9766
 20
148.2878
  0
SEQEND
  0
POLYLINE
  8
LAYER_2
 40
0.0882
 41
0.0882
 62
251
 66
1
 10
0
 20
0
 30
0
  0
VERTEX
  8
LAYER_2
 10
174.9766
 20
147.9758
  0
VERTEX
  8
LAYER_2
 10
174.9766
 20
147.3127
  0
SEQEND
  0
POLYLINE
  8
LAYER_2
 40
0.0882
 41
0.0882
 62
251
 66
1
 10
0
 20
0
 30
0
  0
VERTEX
  8
LAYER_2
 10
174.9766
 20
147.0008
  0
VERTEX
  8
LAYER_2
 10
174.9766
 20
146.3768
  0
SEQEND
  0
POLYLINE
  8
LAYER_2
 40
0.0882
 41
0.0882
 62
251
 66
1
 10
0
 20
0
 30
0
  0
VERTEX
  8
LAYER_2
 10
174.9766
 20
146.0648
  0
VERTEX
  8
LAYER_2
 10
174.9766
 20
145.4408
  0
SEQEND
  0
POLYLINE
  8
LAYER_2
 40
0.0882
 41
0.0882
 62
251
 66
1
 10
0
 20
0
 30
0
  0
VERTEX
  8
LAYER_2
 10
174.9766
 20
145.0898
  0
VERTEX
  8
LAYER_2
 10
174.9766
 20
144.4658
  0
SEQEND
  0
POLYLINE
  8
LAYER_2
 40
0.0882
 41
0.0882
 62
251
 66
1
 10
0
 20
0
 30
0
  0
VERTEX
  8
LAYER_2
 10
174.9766
 20
144.1538
  0
VERTEX
  8
LAYER_2
 10
174.9766
 20
143.5298
  0
SEQEND
  0
POLYLINE
  8
LAYER_2
 40
0.0882
 41
0.0882
 62
251
 66
1
 10
0
 20
0
 30
0
  0
VERTEX
  8
LAYER_2
 10
174.9766
 20
143.2178
  0
VERTEX
  8
LAYER_2
 10
174.9766
 20
142.5547
  0
SEQEND
  0
POLYLINE
  8
LAYER_2
 40
0.0882
 41
0.0882
 62
251
 66
1
 10
0
 20
0
 30
0
  0
VERTEX
  8
LAYER_2
 10
174.9766
 20
142.2428
  0
VERTEX
  8
LAYER_2
 10
174.9766
 20
141.6188
  0
SEQEND
  0
POLYLINE
  8
LAYER_2
 40
0.0882
 41
0.0882
 62
251
 66
1
 10
0
 20
0
 30
0
  0
VERTEX
  8
LAYER_2
 10
174.9766
 20
141.3068
  0
VERTEX
  8
LAYER_2
 10
174.9766
 20
140.6438
  0
SEQEND
  0
POLYLINE
  8
LAYER_2
 40
0.0882
 41
0.0882
 62
251
 66
1
 10
0
 20
0
 30
0
  0
VERTEX
  8
LAYER_2
 10
174.9766
 20
140.3318
  0
VERTEX
  8
LAYER_2
 10
174.9766
 20
140.0201
  0
SEQEND
  0
POLYLINE
  8
LAYER_2
 40
0.0882
 41
0.0882
 62
251
 66
1
 10
0
 20
0
 30
0
  0
VERTEX
  8
LAYER_2
 10
174.8205
 20
138.7329
  0
VERTEX
  8
LAYER_2
 10
174.8987
 20
139.201
  0
SEQEND
  0
POLYLINE
  8
LAYER_2
 40
0.0882
 41
0.0882
 62
251
 66
1
 10
0
 20
0
 30
0
  0
VERTEX
  8
LAYER_2
 10
174.9375
 20
139.5129
  0
VERTEX
  8
LAYER_2
 10
174.9766
 20
140.0201
  0
SEQEND
  0
POLYLINE
  8
LAYER_2
 40
0.0882
 41
0.0882
 62
251
 66
1
 10
0
 20
0
 30
0
  0
VERTEX
  8
LAYER_2
 10
174.8205
 20
138.7329
  0
VERTEX
  8
LAYER_2
 10
174.8205
 20
138.577
  0
VERTEX
  8
LAYER_2
 10
174.8205
 20
138.382
  0
VERTEX
  8
LAYER_2
 10
174.8596
 20
138.2257
  0
VERTEX
  8
LAYER_2
 10
174.8987
 20
138.0307
  0
VERTEX
  8
LAYER_2
 10
174.9374
 20
138.0307
  0
SEQEND
  0
POLYLINE
  8
LAYER_2
 40
0.0882
 41
0.0882
 62
251
 66
1
 10
0
 20
0
 30
0
  0
VERTEX
  8
LAYER_2
 10
175.1325
 20
137.7579
  0
VERTEX
  8
LAYER_2
 10
175.2884
 20
137.6411
  0
VERTEX
  8
LAYER_2
 10
175.4443
 20
137.5629
  0
VERTEX
  8
LAYER_2
 10
175.6397
 20
137.5238
  0
VERTEX
  8
LAYER_2
 10
175.7956
 20
137.5238
  0
VERTEX
  8
LAYER_2
 10
176.4587
 20
137.5238
  0
SEQEND
  0
POLYLINE
  8
LAYER_2
 40
0.0882
 41
0.0882
 62
251
 66
1
 10
0
 20
0
 30
0
  0
VERTEX
  8
LAYER_2
 10
176.7705
 20
137.5239
  0
VERTEX
  8
LAYER_2
 10
177.3945
 20
137.5239
  0
SEQEND
  0
POLYLINE
  8
LAYER_2
 40
0.0882
 41
0.0882
 62
251
 66
1
 10
0
 20
0
 30
0
  0
VERTEX
  8
LAYER_2
 10
177.7065
 20
137.5239
  0
VERTEX
  8
LAYER_2
 10
178.3696
 20
137.5239
  0
SEQEND
  0
POLYLINE
  8
LAYER_2
 40
0.0882
 41
0.0882
 62
251
 66
1
 10
0
 20
0
 30
0
  0
VERTEX
  8
LAYER_2
 10
178.6815
 20
137.5239
  0
VERTEX
  8
LAYER_2
 10
179.3055
 20
137.5239
  0
SEQEND
  0
POLYLINE
  8
LAYER_2
 40
0.0882
 41
0.0882
 62
251
 66
1
 10
0
 20
0
 30
0
  0
VERTEX
  8
LAYER_2
 10
179.6175
 20
137.5239
  0
VERTEX
  8
LAYER_2
 10
180.2415
 20
137.5239
  0
SEQEND
  0
POLYLINE
  8
LAYER_2
 40
0.0882
 41
0.0882
 62
251
 66
1
 10
0
 20
0
 30
0
  0
VERTEX
  8
LAYER_2
 10
180.5924
 20
137.5239
  0
VERTEX
  8
LAYER_2
 10
181.2165
 20
137.5239
  0
SEQEND
  0
POLYLINE
  8
LAYER_2
 40
0.0882
 41
0.0882
 62
251
 66
1
 10
0
 20
0
 30
0
  0
VERTEX
  8
LAYER_2
 10
181.5284
 20
137.5239
  0
VERTEX
  8
LAYER_2
 10
182.1915
 20
137.5239
  0
SEQEND
  0
POLYLINE
  8
LAYER_2
 40
0.0882
 41
0.0882
 62
251
 66
1
 10
0
 20
0
 30
0
  0
VERTEX
  8
LAYER_2
 10
169.4776
 20
134.521
  0
VERTEX
  8
LAYER_2
 10
169.8285
 20
134.521
  0
SEQEND
  0
POLYLINE
  8
LAYER_2
 40
0.0882
 41
0.0882
 62
251
 66
1
 10
0
 20
0
 30
0
  0
VERTEX
  8
LAYER_2
 10
170.1406
 20
134.5599
  0
VERTEX
  8
LAYER_2
 10
170.2965
 20
134.5599
  0
VERTEX
  8
LAYER_2
 10
170.7646
 20
134.6768
  0
SEQEND
  0
POLYLINE
  8
LAYER_2
 40
0.0882
 41
0.0882
 62
251
 66
1
 10
0
 20
0
 30
0
  0
VERTEX
  8
LAYER_2
 10
171.0766
 20
134.7549
  0
VERTEX
  8
LAYER_2
 10
171.6615
 20
134.989
  0
SEQEND
  0
POLYLINE
  8
LAYER_2
 40
0.0882
 41
0.0882
 62
251
 66
1
 10
0
 20
0
 30
0
  0
VERTEX
  8
LAYER_2
 10
171.9736
 20
135.1059
  0
VERTEX
  8
LAYER_2
 10
172.5194
 20
135.4177
  0
SEQEND
  0
POLYLINE
  8
LAYER_2
 40
0.0882
 41
0.0882
 62
251
 66
1
 10
0
 20
0
 30
0
  0
VERTEX
  8
LAYER_2
 10
172.7536
 20
135.6129
  0
VERTEX
  8
LAYER_2
 10
173.1435
 20
135.9247
  0
VERTEX
  8
LAYER_2
 10
173.2607
 20
136.042
  0
SEQEND
  0
POLYLINE
  8
LAYER_2
 40
0.0882
 41
0.0882
 62
251
 66
1
 10
0
 20
0
 30
0
  0
VERTEX
  8
LAYER_2
 10
173.4555
 20
136.2369
  0
VERTEX
  8
LAYER_2
 10
173.7287
 20
136.5101
  0
SEQEND
  0
POLYLINE
  8
LAYER_2
 40
0.0882
 41
0.0882
 62
251
 66
1
 10
0
 20
0
 30
0
  0
VERTEX
  8
LAYER_2
 10
169.4776
 20
134.521
  0
VERTEX
  8
LAYER_2
 10
168.6977
 20
134.521
  0
SEQEND
  0
POLYLINE
  8
LAYER_2
 40
0.0882
 41
0.0882
 62
251
 66
1
 10
0
 20
0
 30
0
  0
VERTEX
  8
LAYER_2
 10
168.3856
 20
134.521
  0
VERTEX
  8
LAYER_2
 10
167.7616
 20
134.521
  0
SEQEND
  0
POLYLINE
  8
LAYER_2
 40
0.0882
 41
0.0882
 62
251
 66
1
 10
0
 20
0
 30
0
  0
VERTEX
  8
LAYER_2
 10
167.4106
 20
134.521
  0
VERTEX
  8
LAYER_2
 10
166.7866
 20
134.521
  0
SEQEND
  0
POLYLINE
  8
LAYER_2
 40
0.0882
 41
0.0882
 62
251
 66
1
 10
0
 20
0
 30
0
  0
VERTEX
  8
LAYER_2
 10
166.4746
 20
134.521
  0
VERTEX
  8
LAYER_2
 10
165.8506
 20
134.521
  0
SEQEND
  0
POLYLINE
  8
LAYER_2
 40
0.0882
 41
0.0882
 62
251
 66
1
 10
0
 20
0
 30
0
  0
VERTEX
  8
LAYER_2
 10
165.5387
 20
134.521
  0
VERTEX
  8
LAYER_2
 10
164.8756
 20
134.521
  0
SEQEND
  0
POLYLINE
  8
LAYER_2
 40
0.0882
 41
0.0882
 62
251
 66
1
 10
0
 20
0
 30
0
  0
VERTEX
  8
LAYER_2
 10
164.5637
 20
134.521
  0
VERTEX
  8
LAYER_2
 10
163.9397
 20
134.521
  0
SEQEND
  0
POLYLINE
  8
LAYER_2
 40
0.0882
 41
0.0882
 62
251
 66
1
 10
0
 20
0
 30
0
  0
VERTEX
  8
LAYER_2
 10
163.6277
 20
134.521
  0
VERTEX
  8
LAYER_2
 10
162.9646
 20
134.521
  0
SEQEND
  0
POLYLINE
  8
LAYER_2
 40
0.0882
 41
0.0882
 62
251
 66
1
 10
0
 20
0
 30
0
  0
VERTEX
  8
LAYER_2
 10
162.6527
 20
134.521
  0
VERTEX
  8
LAYER_2
 10
162.0287
 20
134.521
  0
SEQEND
  0
POLYLINE
  8
LAYER_2
 40
0.0882
 41
0.0882
 62
251
 66
1
 10
0
 20
0
 30
0
  0
VERTEX
  8
LAYER_2
 10
161.7167
 20
134.521
  0
VERTEX
  8
LAYER_2
 10
161.0927
 20
134.521
  0
SEQEND
  0
POLYLINE
  8
LAYER_2
 40
0.0882
 41
0.0882
 62
251
 66
1
 10
0
 20
0
 30
0
  0
VERTEX
  8
LAYER_2
 10
160.7417
 20
134.521
  0
VERTEX
  8
LAYER_2
 10
160.1177
 20
134.521
  0
SEQEND
  0
POLYLINE
  8
LAYER_2
 40
0.0882
 41
0.0882
 62
251
 66
1
 10
0
 20
0
 30
0
  0
VERTEX
  8
LAYER_2
 10
159.8058
 20
134.521
  0
VERTEX
  8
LAYER_2
 10
159.1817
 20
134.521
  0
SEQEND
  0
POLYLINE
  8
LAYER_2
 40
0.0882
 41
0.0882
 62
251
 66
1
 10
0
 20
0
 30
0
  0
VERTEX
  8
LAYER_2
 10
158.8698
 20
134.521
  0
VERTEX
  8
LAYER_2
 10
158.2067
 20
134.521
  0
SEQEND
  0
POLYLINE
  8
LAYER_2
 40
0.0882
 41
0.0882
 62
251
 66
1
 10
0
 20
0
 30
0
  0
VERTEX
  8
LAYER_2
 10
157.8948
 20
134.521
  0
VERTEX
  8
LAYER_2
 10
157.2707
 20
134.521
  0
SEQEND
  0
POLYLINE
  8
LAYER_2
 40
0.0882
 41
0.0882
 62
251
 66
1
 10
0
 20
0
 30
0
  0
VERTEX
  8
LAYER_2
 10
156.9588
 20
134.521
  0
VERTEX
  8
LAYER_2
 10
156.2957
 20
134.521
  0
SEQEND
  0
POLYLINE
  8
LAYER_2
 40
0.0882
 41
0.0882
 62
251
 66
1
 10
0
 20
0
 30
0
  0
VERTEX
  8
LAYER_2
 10
155.9838
 20
134.521
  0
VERTEX
  8
LAYER_2
 10
155.3598
 20
134.521
  0
SEQEND
  0
POLYLINE
  8
LAYER_2
 40
0.0882
 41
0.0882
 62
251
 66
1
 10
0
 20
0
 30
0
  0
VERTEX
  8
LAYER_2
 10
155.0478
 20
134.521
  0
VERTEX
  8
LAYER_2
 10
154.4238
 20
134.521
  0
SEQEND
  0
POLYLINE
  8
LAYER_2
 40
0.0882
 41
0.0882
 62
251
 66
1
 10
0
 20
0
 30
0
  0
VERTEX
  8
LAYER_2
 10
154.0728
 20
134.521
  0
VERTEX
  8
LAYER_2
 10
153.4488
 20
134.521
  0
SEQEND
  0
POLYLINE
  8
LAYER_2
 40
0.0882
 41
0.0882
 62
251
 66
1
 10
0
 20
0
 30
0
  0
VERTEX
  8
LAYER_2
 10
153.1368
 20
134.521
  0
VERTEX
  8
LAYER_2
 10
152.5128
 20
134.521
  0
SEQEND
  0
POLYLINE
  8
LAYER_2
 40
0.0882
 41
0.0882
 62
251
 66
1
 10
0
 20
0
 30
0
  0
VERTEX
  8
LAYER_2
 10
152.2008
 20
134.521
  0
VERTEX
  8
LAYER_2
 10
151.5378
 20
134.521
  0
SEQEND
  0
POLYLINE
  8
LAYER_2
 40
0.0882
 41
0.0882
 62
251
 66
1
 10
0
 20
0
 30
0
  0
VERTEX
  8
LAYER_2
 10
151.2258
 20
134.521
  0
VERTEX
  8
LAYER_2
 10
150.6018
 20
134.521
  0
SEQEND
  0
POLYLINE
  8
LAYER_2
 40
0.0882
 41
0.0882
 62
251
 66
1
 10
0
 20
0
 30
0
  0
VERTEX
  8
LAYER_2
 10
150.2899
 20
134.521
  0
VERTEX
  8
LAYER_2
 10
149.6659
 20
134.521
  0
SEQEND
  0
POLYLINE
  8
LAYER_2
 40
0.0882
 41
0.0882
 62
251
 66
1
 10
0
 20
0
 30
0
  0
VERTEX
  8
LAYER_2
 10
149.3149
 20
134.521
  0
VERTEX
  8
LAYER_2
 10
148.6909
 20
134.521
  0
SEQEND
  0
POLYLINE
  8
LAYER_2
 40
0.0882
 41
0.0882
 62
251
 66
1
 10
0
 20
0
 30
0
  0
VERTEX
  8
LAYER_2
 10
148.3789
 20
134.521
  0
VERTEX
  8
LAYER_2
 10
147.7549
 20
134.521
  0
SEQEND
  0
POLYLINE
  8
LAYER_2
 40
0.0882
 41
0.0882
 62
251
 66
1
 10
0
 20
0
 30
0
  0
VERTEX
  8
LAYER_2
 10
147.4429
 20
134.521
  0
VERTEX
  8
LAYER_2
 10
146.7798
 20
134.521
  0
SEQEND
  0
POLYLINE
  8
LAYER_2
 40
0.0882
 41
0.0882
 62
251
 66
1
 10
0
 20
0
 30
0
  0
VERTEX
  8
LAYER_2
 10
146.4679
 20
134.521
  0
VERTEX
  8
LAYER_2
 10
145.8439
 20
134.521
  0
SEQEND
  0
POLYLINE
  8
LAYER_2
 40
0.0882
 41
0.0882
 62
251
 66
1
 10
0
 20
0
 30
0
  0
VERTEX
  8
LAYER_2
 10
145.5319
 20
134.521
  0
VERTEX
  8
LAYER_2
 10
144.8688
 20
134.521
  0
SEQEND
  0
POLYLINE
  8
LAYER_2
 40
0.0882
 41
0.0882
 62
251
 66
1
 10
0
 20
0
 30
0
  0
VERTEX
  8
LAYER_2
 10
144.5569
 20
134.521
  0
VERTEX
  8
LAYER_2
 10
143.9329
 20
134.521
  0
SEQEND
  0
POLYLINE
  8
LAYER_2
 40
0.0882
 41
0.0882
 62
251
 66
1
 10
0
 20
0
 30
0
  0
VERTEX
  8
LAYER_2
 10
143.621
 20
134.521
  0
VERTEX
  8
LAYER_2
 10
142.997
 20
134.521
  0
SEQEND
  0
POLYLINE
  8
LAYER_2
 40
0.0882
 41
0.0882
 62
251
 66
1
 10
0
 20
0
 30
0
  0
VERTEX
  8
LAYER_2
 10
142.646
 20
134.521
  0
VERTEX
  8
LAYER_2
 10
142.022
 20
134.521
  0
SEQEND
  0
POLYLINE
  8
LAYER_2
 40
0.0882
 41
0.0882
 62
251
 66
1
 10
0
 20
0
 30
0
  0
VERTEX
  8
LAYER_2
 10
141.71
 20
134.521
  0
VERTEX
  8
LAYER_2
 10
141.086
 20
134.521
  0
SEQEND
  0
POLYLINE
  8
LAYER_2
 40
0.0882
 41
0.0882
 62
251
 66
1
 10
0
 20
0
 30
0
  0
VERTEX
  8
LAYER_2
 10
140.774
 20
134.521
  0
VERTEX
  8
LAYER_2
 10
139.9941
 20
134.521
  0
SEQEND
  0
POLYLINE
  8
LAYER_2
 40
0.0882
 41
0.0882
 62
251
 66
1
 10
0
 20
0
 30
0
  0
VERTEX
  8
LAYER_2
 10
137.147
 20
136.5099
  0
VERTEX
  8
LAYER_2
 10
137.3811
 20
136.0418
  0
VERTEX
  8
LAYER_2
 10
137.4979
 20
135.8468
  0
SEQEND
  0
POLYLINE
  8
LAYER_2
 40
0.0882
 41
0.0882
 62
251
 66
1
 10
0
 20
0
 30
0
  0
VERTEX
  8
LAYER_2
 10
137.654
 20
135.6129
  0
VERTEX
  8
LAYER_2
 10
138.044
 20
135.223
  0
VERTEX
  8
LAYER_2
 10
138.1221
 20
135.1448
  0
SEQEND
  0
POLYLINE
  8
LAYER_2
 40
0.0882
 41
0.0882
 62
251
 66
1
 10
0
 20
0
 30
0
  0
VERTEX
  8
LAYER_2
 10
138.395
 20
134.9889
  0
VERTEX
  8
LAYER_2
 10
138.4732
 20
134.9108
  0
VERTEX
  8
LAYER_2
 10
138.9409
 20
134.6771
  0
SEQEND
  0
POLYLINE
  8
LAYER_2
 40
0.0882
 41
0.0882
 62
251
 66
1
 10
0
 20
0
 30
0
  0
VERTEX
  8
LAYER_2
 10
139.253
 20
134.5989
  0
VERTEX
  8
LAYER_2
 10
139.448
 20
134.5599
  0
VERTEX
  8
LAYER_2
 10
139.9938
 20
134.5208
  0
SEQEND
  0
POLYLINE
  8
LAYER_2
 40
0.0882
 41
0.0882
 62
251
 66
1
 10
0
 20
0
 30
0
  0
VERTEX
  8
LAYER_2
 10
136.991
 20
138.4989
  0
VERTEX
  8
LAYER_2
 10
136.991
 20
139.1229
  0
SEQEND
  0
POLYLINE
  8
LAYER_2
 40
0.0882
 41
0.0882
 62
251
 66
1
 10
0
 20
0
 30
0
  0
VERTEX
  8
LAYER_2
 10
136.991
 20
139.4349
  0
VERTEX
  8
LAYER_2
 10
136.991
 20
140.0589
  0
SEQEND
  0
POLYLINE
  8
LAYER_2
 40
0.0882
 41
0.0882
 62
251
 66
1
 10
0
 20
0
 30
0
  0
VERTEX
  8
LAYER_2
 10
136.991
 20
140.3708
  0
VERTEX
  8
LAYER_2
 10
136.991
 20
141.0339
  0
SEQEND
  0
POLYLINE
  8
LAYER_2
 40
0.0882
 41
0.0882
 62
251
 66
1
 10
0
 20
0
 30
0
  0
VERTEX
  8
LAYER_2
 10
136.991
 20
141.3458
  0
VERTEX
  8
LAYER_2
 10
136.991
 20
141.9699
  0
SEQEND
  0
POLYLINE
  8
LAYER_2
 40
0.0882
 41
0.0882
 62
251
 66
1
 10
0
 20
0
 30
0
  0
VERTEX
  8
LAYER_2
 10
136.991
 20
142.2818
  0
VERTEX
  8
LAYER_2
 10
136.991
 20
142.9059
  0
SEQEND
  0
POLYLINE
  8
LAYER_2
 40
0.0882
 41
0.0882
 62
251
 66
1
 10
0
 20
0
 30
0
  0
VERTEX
  8
LAYER_2
 10
136.991
 20
143.2568
  0
VERTEX
  8
LAYER_2
 10
136.991
 20
143.8808
  0
SEQEND
  0
POLYLINE
  8
LAYER_2
 40
0.0882
 41
0.0882
 62
251
 66
1
 10
0
 20
0
 30
0
  0
VERTEX
  8
LAYER_2
 10
136.991
 20
144.1928
  0
VERTEX
  8
LAYER_2
 10
136.991
 20
144.8168
  0
SEQEND
  0
POLYLINE
  8
LAYER_2
 40
0.0882
 41
0.0882
 62
251
 66
1
 10
0
 20
0
 30
0
  0
VERTEX
  8
LAYER_2
 10
136.991
 20
145.1288
  0
VERTEX
  8
LAYER_2
 10
136.991
 20
145.7919
  0
SEQEND
  0
POLYLINE
  8
LAYER_2
 40
0.0882
 41
0.0882
 62
251
 66
1
 10
0
 20
0
 30
0
  0
VERTEX
  8
LAYER_2
 10
136.991
 20
146.1038
  0
VERTEX
  8
LAYER_2
 10
136.991
 20
146.7278
  0
SEQEND
  0
POLYLINE
  8
LAYER_2
 40
0.0882
 41
0.0882
 62
251
 66
1
 10
0
 20
0
 30
0
  0
VERTEX
  8
LAYER_2
 10
136.991
 20
147.0398
  0
VERTEX
  8
LAYER_2
 10
136.991
 20
147.7028
  0
SEQEND
  0
POLYLINE
  8
LAYER_2
 40
0.0882
 41
0.0882
 62
251
 66
1
 10
0
 20
0
 30
0
  0
VERTEX
  8
LAYER_2
 10
136.991
 20
148.0148
  0
VERTEX
  8
LAYER_2
 10
136.991
 20
148.6388
  0
SEQEND
  0
POLYLINE
  8
LAYER_2
 40
0.0882
 41
0.0882
 62
251
 66
1
 10
0
 20
0
 30
0
  0
VERTEX
  8
LAYER_2
 10
136.991
 20
148.9508
  0
VERTEX
  8
LAYER_2
 10
136.991
 20
149.5748
  0
SEQEND
  0
POLYLINE
  8
LAYER_2
 40
0.0882
 41
0.0882
 62
251
 66
1
 10
0
 20
0
 30
0
  0
VERTEX
  8
LAYER_2
 10
136.991
 20
149.9257
  0
VERTEX
  8
LAYER_2
 10
136.991
 20
150.5106
  0
VERTEX
  8
LAYER_2
 10
136.952
 20
150.7056
  0
VERTEX
  8
LAYER_2
 10
136.9129
 20
150.8615
  0
VERTEX
  8
LAYER_2
 10
136.8351
 20
151.0178
  0
VERTEX
  8
LAYER_2
 10
136.7961
 20
151.0956
  0
SEQEND
  0
POLYLINE
  8
LAYER_2
 40
0.0882
 41
0.0882
 62
251
 66
1
 10
0
 20
0
 30
0
  0
VERTEX
  8
LAYER_2
 10
136.5621
 20
151.3297
  0
VERTEX
  8
LAYER_2
 10
136.4839
 20
151.3688
  0
VERTEX
  8
LAYER_2
 10
136.328
 20
151.4465
  0
VERTEX
  8
LAYER_2
 10
136.133
 20
151.4856
  0
VERTEX
  8
LAYER_2
 10
135.9771
 20
151.5247
  0
VERTEX
  8
LAYER_2
 10
136.1721
 20
151.5247
  0
VERTEX
  8
LAYER_2
 10
135.9771
 20
151.4856
  0
VERTEX
  8
LAYER_2
 10
135.7822
 20
151.4465
  0
VERTEX
  8
LAYER_2
 10
135.5872
 20
151.3297
  0
SEQEND
  0
POLYLINE
  8
LAYER_2
 40
0.0882
 41
0.0882
 62
251
 66
1
 10
0
 20
0
 30
0
  0
VERTEX
  8
LAYER_2
 10
135.3531
 20
151.0957
  0
VERTEX
  8
LAYER_2
 10
135.314
 20
151.0957
  0
VERTEX
  8
LAYER_2
 10
135.2362
 20
150.9008
  0
VERTEX
  8
LAYER_2
 10
135.1972
 20
150.7058
  0
VERTEX
  8
LAYER_2
 10
135.1581
 20
150.5108
  0
VERTEX
  8
LAYER_2
 10
135.1581
 20
149.9259
  0
SEQEND
  0
POLYLINE
  8
LAYER_2
 40
0.0882
 41
0.0882
 62
251
 66
1
 10
0
 20
0
 30
0
  0
VERTEX
  8
LAYER_2
 10
135.1581
 20
149.6138
  0
VERTEX
  8
LAYER_2
 10
135.119
 20
148.9898
  0
SEQEND
  0
POLYLINE
  8
LAYER_2
 40
0.0882
 41
0.0882
 62
251
 66
1
 10
0
 20
0
 30
0
  0
VERTEX
  8
LAYER_2
 10
135.1191
 20
148.6388
  0
VERTEX
  8
LAYER_2
 10
135.1191
 20
148.0148
  0
SEQEND
  0
POLYLINE
  8
LAYER_2
 40
0.0882
 41
0.0882
 62
251
 66
1
 10
0
 20
0
 30
0
  0
VERTEX
  8
LAYER_2
 10
135.1191
 20
147.7028
  0
VERTEX
  8
LAYER_2
 10
135.1191
 20
147.0788
  0
SEQEND
  0
POLYLINE
  8
LAYER_2
 40
0.0882
 41
0.0882
 62
251
 66
1
 10
0
 20
0
 30
0
  0
VERTEX
  8
LAYER_2
 10
135.1191
 20
146.7668
  0
VERTEX
  8
LAYER_2
 10
135.1191
 20
146.1037
  0
SEQEND
  0
POLYLINE
  8
LAYER_2
 40
0.0882
 41
0.0882
 62
251
 66
1
 10
0
 20
0
 30
0
  0
VERTEX
  8
LAYER_2
 10
135.0801
 20
145.7918
  0
VERTEX
  8
LAYER_2
 10
135.0801
 20
145.1678
  0
SEQEND
  0
POLYLINE
  8
LAYER_2
 40
0.0882
 41
0.0882
 62
251
 66
1
 10
0
 20
0
 30
0
  0
VERTEX
  8
LAYER_2
 10
135.0801
 20
144.8558
  0
VERTEX
  8
LAYER_2
 10
135.0801
 20
144.1927
  0
SEQEND
  0
POLYLINE
  8
LAYER_2
 40
0.0882
 41
0.0882
 62
251
 66
1
 10
0
 20
0
 30
0
  0
VERTEX
  8
LAYER_2
 10
135.0801
 20
143.8808
  0
VERTEX
  8
LAYER_2
 10
135.0801
 20
143.2568
  0
SEQEND
  0
POLYLINE
  8
LAYER_2
 40
0.0882
 41
0.0882
 62
251
 66
1
 10
0
 20
0
 30
0
  0
VERTEX
  8
LAYER_2
 10
135.0411
 20
142.9448
  0
VERTEX
  8
LAYER_2
 10
135.0411
 20
142.3208
  0
SEQEND
  0
POLYLINE
  8
LAYER_2
 40
0.0882
 41
0.0882
 62
251
 66
1
 10
0
 20
0
 30
0
  0
VERTEX
  8
LAYER_2
 10
135.0411
 20
141.9698
  0
VERTEX
  8
LAYER_2
 10
135.0411
 20
141.3458
  0
SEQEND
  0
POLYLINE
  8
LAYER_2
 40
0.0882
 41
0.0882
 62
251
 66
1
 10
0
 20
0
 30
0
  0
VERTEX
  8
LAYER_2
 10
135.0411
 20
141.0338
  0
VERTEX
  8
LAYER_2
 10
135.0411
 20
140.4098
  0
SEQEND
  0
POLYLINE
  8
LAYER_2
 40
0.0882
 41
0.0882
 62
251
 66
1
 10
0
 20
0
 30
0
  0
VERTEX
  8
LAYER_2
 10
135.0411
 20
140.0979
  0
VERTEX
  8
LAYER_2
 10
135.002
 20
139.4348
  0
SEQEND
  0
POLYLINE
  8
LAYER_2
 40
0.0882
 41
0.0882
 62
251
 66
1
 10
0
 20
0
 30
0
  0
VERTEX
  8
LAYER_2
 10
135.0021
 20
139.1229
  0
VERTEX
  8
LAYER_2
 10
135.0021
 20
138.5379
  0
VERTEX
  8
LAYER_2
 10
135.0021
 20
138.343
  0
VERTEX
  8
LAYER_2
 10
135.0411
 20
138.1871
  0
VERTEX
  8
LAYER_2
 10
135.1189
 20
138.0308
  0
VERTEX
  8
LAYER_2
 10
135.197
 20
137.953
  0
SEQEND
  0
POLYLINE
  8
LAYER_2
 40
0.0882
 41
0.0882
 62
251
 66
1
 10
0
 20
0
 30
0
  0
VERTEX
  8
LAYER_2
 10
135.392
 20
137.7189
  0
VERTEX
  8
LAYER_2
 10
135.5089
 20
137.6407
  0
VERTEX
  8
LAYER_2
 10
135.6652
 20
137.563
  0
VERTEX
  8
LAYER_2
 10
135.8211
 20
137.5239
  0
VERTEX
  8
LAYER_2
 10
135.977
 20
137.5239
  0
SEQEND
  0
POLYLINE
  8
LAYER_2
 40
0.1305
 41
0.1305
 66
1
 10
0
 20
0
 30
0
  0
VERTEX
  8
LAYER_2
 10
114.3713
 20
102.6584
  0
VERTEX
  8
LAYER_2
 10
114.3713
 20
134.5211
  0
VERTEX
  8
LAYER_2
 10
117.8813
 20
134.5211
  0
VERTEX
  8
LAYER_2
 10
117.8813
 20
67.8319
  0
VERTEX
  8
LAYER_2
 10
114.3713
 20
67.8319
  0
VERTEX
  8
LAYER_2
 10
114.3713
 20
99.6556
  0
VERTEX
  8
LAYER_2
 10
97.8746
 20
99.6556
  0
SEQEND
  0
POLYLINE
  8
LAYER_2
 40
0.1305
 41
0.1305
 66
1
 10
0
 20
0
 30
0
  0
VERTEX
  8
LAYER_2
 10
94.8716
 20
99.6554
  0
VERTEX
  8
LAYER_2
 10
57.666
 20
99.6554
  0
SEQEND
  0
POLYLINE
  8
LAYER_2
 40
0.1305
 41
0.1305
 66
1
 10
0
 20
0
 30
0
  0
VERTEX
  8
LAYER_2
 10
54.6631
 20
99.6554
  0
VERTEX
  8
LAYER_2
 10
38.3614
 20
99.6554
  0
SEQEND
  0
POLYLINE
  8
LAYER_2
 40
0.1305
 41
0.1305
 66
1
 10
0
 20
0
 30
0
  0
VERTEX
  8
LAYER_2
 10
114.3713
 20
102.6584
  0
VERTEX
  8
LAYER_2
 10
97.8746
 20
102.6584
  0
SEQEND
  0
POLYLINE
  8
LAYER_2
 40
0.1305
 41
0.1305
 66
1
 10
0
 20
0
 30
0
  0
VERTEX
  8
LAYER_2
 10
94.8716
 20
102.6584
  0
VERTEX
  8
LAYER_2
 10
57.666
 20
102.6584
  0
SEQEND
  0
POLYLINE
  8
LAYER_2
 40
0.1305
 41
0.1305
 66
1
 10
0
 20
0
 30
0
  0
VERTEX
  8
LAYER_2
 10
54.6631
 20
102.6584
  0
VERTEX
  8
LAYER_2
 10
38.3614
 20
102.6584
  0
SEQEND
  0
POLYLINE
  8
LAYER_2
 40
0.1305
 41
0.1305
 66
1
 10
0
 20
0
 30
0
 70
1
  0
VERTEX
  8
LAYER_2
 10
122.3661
 20
136.51
  0
VERTEX
  8
LAYER_2
 10
30.3664
 20
136.51
  0
VERTEX
  8
LAYER_2
 10
30.3664
 20
134.5212
  0
VERTEX
  8
LAYER_2
 10
122.3661
 20
134.5212
  0
SEQEND
  0
POLYLINE
  8
LAYER_2
 40
0.1305
 41
0.1305
 66
1
 10
0
 20
0
 30
0
 70
1
  0
VERTEX
  8
LAYER_2
 10
121.3521
 20
134.5207
  0
VERTEX
  8
LAYER_2
 10
117.8813
 20
134.5207
  0
VERTEX
  8
LAYER_2
 10
117.8813
 20
67.8316
  0
VERTEX
  8
LAYER_2
 10
121.3521
 20
67.8316
  0
SEQEND
  0
POLYLINE
  8
LAYER_2
 40
0.1305
 41
0.1305
 66
1
 10
0
 20
0
 30
0
 70
1
  0
VERTEX
  8
LAYER_2
 10
120.1041
 20
67.832
  0
VERTEX
  8
LAYER_2
 10
119.1293
 20
67.832
  0
VERTEX
  8
LAYER_2
 10
119.1293
 20
67.5589
  0
VERTEX
  8
LAYER_2
 10
120.1041
 20
67.5589
  0
SEQEND
  0
POLYLINE
  8
LAYER_2
 40
0.1305
 41
0.1305
 66
1
 10
0
 20
0
 30
0
  0
VERTEX
  8
LAYER_2
 10
32.5894
 20
156.5166
  0
VERTEX
  8
LAYER_2
 10
120.1824
 20
156.5166
  0
VERTEX
  8
LAYER_2
 10
120.6501
 20
156.5166
  0
SEQEND
  0
POLYLINE
  8
LAYER_2
 40
0.1305
 41
0.1305
 66
1
 10
0
 20
0
 30
0
  0
VERTEX
  8
LAYER_2
 10
121.1572
 20
156.0292
 42
0.4137464803
  0
VERTEX
  8
LAYER_2
 10
120.67
 20
156.5168
  0
SEQEND
  0
POLYLINE
  8
LAYER_2
 40
0.1305
 41
0.1305
 66
1
 10
0
 20
0
 30
0
  0
VERTEX
  8
LAYER_2
 10
121.1572
 20
156.0097
  0
VERTEX
  8
LAYER_2
 10
121.3522
 20
136.5097
  0
VERTEX
  8
LAYER_2
 10
31.3804
 20
136.5097
  0
VERTEX
  8
LAYER_2
 10
31.5754
 20
156.0097
  0
SEQEND
  0
POLYLINE
  8
LAYER_2
 40
0.1305
 41
0.1305
 66
1
 10
0
 20
0
 30
0
  0
VERTEX
  8
LAYER_2
 10
32.1019
 20
156.5166
 42
0.1989579624
  0
VERTEX
  8
LAYER_2
 10
31.7572
 20
156.3736
 42
0.1971554635
  0
VERTEX
  8
LAYER_2
 10
31.6146
 20
156.029
  0
SEQEND
  0
POLYLINE
  8
LAYER_2
 40
0.1305
 41
0.1305
 66
1
 10
0
 20
0
 30
0
  0
VERTEX
  8
LAYER_2
 10
32.0824
 20
156.5166
  0
VERTEX
  8
LAYER_2
 10
32.5896
 20
156.5166
  0
SEQEND
  0
POLYLINE
  8
LAYER_2
 40
0.1305
 41
0.1305
 66
1
 10
0
 20
0
 30
0
  0
VERTEX
  8
LAYER_2
 10
120.2017
 20
156.5166
 42
0.1989549344
  0
VERTEX
  8
LAYER_2
 10
119.857
 20
156.3736
 42
0.1971554635
  0
VERTEX
  8
LAYER_2
 10
119.7144
 20
156.029
  0
SEQEND
  0
POLYLINE
  8
LAYER_2
 40
0.1305
 41
0.1305
 66
1
 10
0
 20
0
 30
0
  0
VERTEX
  8
LAYER_2
 10
119.6753
 20
156.0097
  0
VERTEX
  8
LAYER_2
 10
119.6753
 20
153.0069
  0
SEQEND
  0
POLYLINE
  8
LAYER_2
 40
0.1305
 41
0.1305
 66
1
 10
0
 20
0
 30
0
  0
VERTEX
  8
LAYER_2
 10
119.1881
 20
152.5387
 42
0.4142318494
  0
VERTEX
  8
LAYER_2
 10
119.6753
 20
153.0264
  0
SEQEND
  0
POLYLINE
  8
LAYER_2
 40
0.1305
 41
0.1305
 66
1
 10
0
 20
0
 30
0
  0
VERTEX
  8
LAYER_2
 10
121.1962
 20
152.4997
  0
VERTEX
  8
LAYER_2
 10
31.5363
 20
152.4997
  0
SEQEND
  0
POLYLINE
  8
LAYER_2
 40
0.0882
 41
0.0882
 62
251
 66
1
 10
0
 20
0
 30
0
  0
VERTEX
  8
LAYER_2
 10
35.3974
 20
138.4989
  0
VERTEX
  8
LAYER_2
 10
35.3974
 20
139.1229
  0
SEQEND
  0
POLYLINE
  8
LAYER_2
 40
0.0882
 41
0.0882
 62
251
 66
1
 10
0
 20
0
 30
0
  0
VERTEX
  8
LAYER_2
 10
35.3974
 20
139.4349
  0
VERTEX
  8
LAYER_2
 10
35.3974
 20
140.0589
  0
SEQEND
  0
POLYLINE
  8
LAYER_2
 40
0.0882
 41
0.0882
 62
251
 66
1
 10
0
 20
0
 30
0
  0
VERTEX
  8
LAYER_2
 10
35.3974
 20
140.3708
  0
VERTEX
  8
LAYER_2
 10
35.3974
 20
141.0339
  0
SEQEND
  0
POLYLINE
  8
LAYER_2
 40
0.0882
 41
0.0882
 62
251
 66
1
 10
0
 20
0
 30
0
  0
VERTEX
  8
LAYER_2
 10
35.3974
 20
141.3458
  0
VERTEX
  8
LAYER_2
 10
35.3974
 20
141.9699
  0
SEQEND
  0
POLYLINE
  8
LAYER_2
 40
0.0882
 41
0.0882
 62
251
 66
1
 10
0
 20
0
 30
0
  0
VERTEX
  8
LAYER_2
 10
35.3974
 20
142.2818
  0
VERTEX
  8
LAYER_2
 10
35.3974
 20
142.9059
  0
SEQEND
  0
POLYLINE
  8
LAYER_2
 40
0.0882
 41
0.0882
 62
251
 66
1
 10
0
 20
0
 30
0
  0
VERTEX
  8
LAYER_2
 10
35.3974
 20
143.2568
  0
VERTEX
  8
LAYER_2
 10
35.3974
 20
143.8808
  0
SEQEND
  0
POLYLINE
  8
LAYER_2
 40
0.0882
 41
0.0882
 62
251
 66
1
 10
0
 20
0
 30
0
  0
VERTEX
  8
LAYER_2
 10
35.3974
 20
144.1928
  0
VERTEX
  8
LAYER_2
 10
35.3974
 20
144.8168
  0
SEQEND
  0
POLYLINE
  8
LAYER_2
 40
0.0882
 41
0.0882
 62
251
 66
1
 10
0
 20
0
 30
0
  0
VERTEX
  8
LAYER_2
 10
35.3974
 20
145.1288
  0
VERTEX
  8
LAYER_2
 10
35.3974
 20
145.7919
  0
SEQEND
  0
POLYLINE
  8
LAYER_2
 40
0.0882
 41
0.0882
 62
251
 66
1
 10
0
 20
0
 30
0
  0
VERTEX
  8
LAYER_2
 10
35.3974
 20
146.1038
  0
VERTEX
  8
LAYER_2
 10
35.3974
 20
146.7278
  0
SEQEND
  0
POLYLINE
  8
LAYER_2
 40
0.0882
 41
0.0882
 62
251
 66
1
 10
0
 20
0
 30
0
  0
VERTEX
  8
LAYER_2
 10
35.3974
 20
147.0398
  0
VERTEX
  8
LAYER_2
 10
35.3974
 20
147.7028
  0
SEQEND
  0
POLYLINE
  8
LAYER_2
 40
0.0882
 41
0.0882
 62
251
 66
1
 10
0
 20
0
 30
0
  0
VERTEX
  8
LAYER_2
 10
35.3974
 20
148.0148
  0
VERTEX
  8
LAYER_2
 10
35.3974
 20
148.6388
  0
SEQEND
  0
POLYLINE
  8
LAYER_2
 40
0.0882
 41
0.0882
 62
251
 66
1
 10
0
 20
0
 30
0
  0
VERTEX
  8
LAYER_2
 10
35.3974
 20
148.9508
  0
VERTEX
  8
LAYER_2
 10
35.3974
 20
149.5748
  0
SEQEND
  0
POLYLINE
  8
LAYER_2
 40
0.0882
 41
0.0882
 62
251
 66
1
 10
0
 20
0
 30
0
  0
VERTEX
  8
LAYER_2
 10
35.3974
 20
149.9257
  0
VERTEX
  8
LAYER_2
 10
35.3974
 20
150.5106
  0
SEQEND
  0
POLYLINE
  8
LAYER_2
 40
0.0882
 41
0.0882
 62
251
 66
1
 10
0
 20
0
 30
0
  0
VERTEX
  8
LAYER_2
 10
34.3834
 20
137.5239
  0
VERTEX
  8
LAYER_2
 10
34.5393
 20
137.5239
  0
VERTEX
  8
LAYER_2
 10
34.7343
 20
137.563
  0
VERTEX
  8
LAYER_2
 10
34.8906
 20
137.6407
  0
VERTEX
  8
LAYER_2
 10
34.9684
 20
137.7189
  0
SEQEND
  0
POLYLINE
  8
LAYER_2
 40
0.0882
 41
0.0882
 62
251
 66
1
 10
0
 20
0
 30
0
  0
VERTEX
  8
LAYER_2
 10
35.2024
 20
137.9139
  0
VERTEX
  8
LAYER_2
 10
35.2415
 20
138.0307
  0
VERTEX
  8
LAYER_2
 10
35.3192
 20
138.187
  0
VERTEX
  8
LAYER_2
 10
35.3583
 20
138.3429
  0
VERTEX
  8
LAYER_2
 10
35.3974
 20
138.4988
  0
SEQEND
  0
POLYLINE
  8
LAYER_2
 40
0.0882
 41
0.0882
 62
251
 66
1
 10
0
 20
0
 30
0
  0
VERTEX
  8
LAYER_2
 10
35.3974
 20
150.5107
  0
VERTEX
  8
LAYER_2
 10
35.3583
 20
150.7057
  0
VERTEX
  8
LAYER_2
 10
35.3192
 20
150.9007
  0
VERTEX
  8
LAYER_2
 10
35.2024
 20
151.0566
  0
VERTEX
  8
LAYER_2
 10
35.2024
 20
151.0957
  0
SEQEND
  0
POLYLINE
  8
LAYER_2
 40
0.0882
 41
0.0882
 62
251
 66
1
 10
0
 20
0
 30
0
  0
VERTEX
  8
LAYER_2
 10
34.9684
 20
151.3297
  0
VERTEX
  8
LAYER_2
 10
34.9293
 20
151.3297
  0
VERTEX
  8
LAYER_2
 10
34.7734
 20
151.4465
  0
VERTEX
  8
LAYER_2
 10
34.5784
 20
151.4856
  0
VERTEX
  8
LAYER_2
 10
34.3835
 20
151.5247
  0
VERTEX
  8
LAYER_2
 10
33.5254
 20
151.5247
  0
SEQEND
  0
POLYLINE
  8
LAYER_2
 40
0.0882
 41
0.0882
 62
251
 66
1
 10
0
 20
0
 30
0
  0
VERTEX
  8
LAYER_2
 10
32.5114
 20
150.5107
  0
VERTEX
  8
LAYER_2
 10
32.5114
 20
149.9258
  0
SEQEND
  0
POLYLINE
  8
LAYER_2
 40
0.0882
 41
0.0882
 62
251
 66
1
 10
0
 20
0
 30
0
  0
VERTEX
  8
LAYER_2
 10
32.5114
 20
149.6138
  0
VERTEX
  8
LAYER_2
 10
32.5114
 20
148.9507
  0
SEQEND
  0
POLYLINE
  8
LAYER_2
 40
0.0882
 41
0.0882
 62
251
 66
1
 10
0
 20
0
 30
0
  0
VERTEX
  8
LAYER_2
 10
32.5114
 20
148.6388
  0
VERTEX
  8
LAYER_2
 10
32.5114
 20
148.0148
  0
SEQEND
  0
POLYLINE
  8
LAYER_2
 40
0.0882
 41
0.0882
 62
251
 66
1
 10
0
 20
0
 30
0
  0
VERTEX
  8
LAYER_2
 10
32.5114
 20
147.7028
  0
VERTEX
  8
LAYER_2
 10
32.4723
 20
147.0788
  0
SEQEND
  0
POLYLINE
  8
LAYER_2
 40
0.0882
 41
0.0882
 62
251
 66
1
 10
0
 20
0
 30
0
  0
VERTEX
  8
LAYER_2
 10
32.4724
 20
146.7278
  0
VERTEX
  8
LAYER_2
 10
32.4724
 20
146.1038
  0
SEQEND
  0
POLYLINE
  8
LAYER_2
 40
0.0882
 41
0.0882
 62
251
 66
1
 10
0
 20
0
 30
0
  0
VERTEX
  8
LAYER_2
 10
32.4724
 20
145.7918
  0
VERTEX
  8
LAYER_2
 10
32.4724
 20
145.1678
  0
SEQEND
  0
POLYLINE
  8
LAYER_2
 40
0.0882
 41
0.0882
 62
251
 66
1
 10
0
 20
0
 30
0
  0
VERTEX
  8
LAYER_2
 10
32.4724
 20
144.8558
  0
VERTEX
  8
LAYER_2
 10
32.4724
 20
144.1927
  0
SEQEND
  0
POLYLINE
  8
LAYER_2
 40
0.0882
 41
0.0882
 62
251
 66
1
 10
0
 20
0
 30
0
  0
VERTEX
  8
LAYER_2
 10
32.4334
 20
143.8808
  0
VERTEX
  8
LAYER_2
 10
32.4334
 20
143.2568
  0
SEQEND
  0
POLYLINE
  8
LAYER_2
 40
0.0882
 41
0.0882
 62
251
 66
1
 10
0
 20
0
 30
0
  0
VERTEX
  8
LAYER_2
 10
32.4334
 20
142.9448
  0
VERTEX
  8
LAYER_2
 10
32.4334
 20
142.2818
  0
SEQEND
  0
POLYLINE
  8
LAYER_2
 40
0.0882
 41
0.0882
 62
251
 66
1
 10
0
 20
0
 30
0
  0
VERTEX
  8
LAYER_2
 10
32.4334
 20
141.9698
  0
VERTEX
  8
LAYER_2
 10
32.4334
 20
141.3458
  0
SEQEND
  0
POLYLINE
  8
LAYER_2
 40
0.0882
 41
0.0882
 62
251
 66
1
 10
0
 20
0
 30
0
  0
VERTEX
  8
LAYER_2
 10
32.4334
 20
141.0338
  0
VERTEX
  8
LAYER_2
 10
32.3944
 20
140.4098
  0
SEQEND
  0
POLYLINE
  8
LAYER_2
 40
0.0882
 41
0.0882
 62
251
 66
1
 10
0
 20
0
 30
0
  0
VERTEX
  8
LAYER_2
 10
32.3944
 20
140.0979
  0
VERTEX
  8
LAYER_2
 10
32.3944
 20
139.4348
  0
SEQEND
  0
POLYLINE
  8
LAYER_2
 40
0.0882
 41
0.0882
 62
251
 66
1
 10
0
 20
0
 30
0
  0
VERTEX
  8
LAYER_2
 10
32.3944
 20
139.1229
  0
VERTEX
  8
LAYER_2
 10
32.3944
 20
138.5379
  0
SEQEND
  0
POLYLINE
  8
LAYER_2
 40
0.0882
 41
0.0882
 62
251
 66
1
 10
0
 20
0
 30
0
  0
VERTEX
  8
LAYER_2
 10
33.5254
 20
151.5247
  0
VERTEX
  8
LAYER_2
 10
33.3304
 20
151.4856
  0
VERTEX
  8
LAYER_2
 10
33.1355
 20
151.4466
  0
VERTEX
  8
LAYER_2
 10
32.9796
 20
151.3297
  0
VERTEX
  8
LAYER_2
 10
32.9405
 20
151.3297
  0
SEQEND
  0
POLYLINE
  8
LAYER_2
 40
0.0882
 41
0.0882
 62
251
 66
1
 10
0
 20
0
 30
0
  0
VERTEX
  8
LAYER_2
 10
32.7064
 20
151.0957
  0
VERTEX
  8
LAYER_2
 10
32.7064
 20
151.0567
  0
VERTEX
  8
LAYER_2
 10
32.5896
 20
150.9008
  0
VERTEX
  8
LAYER_2
 10
32.5505
 20
150.7058
  0
VERTEX
  8
LAYER_2
 10
32.5115
 20
150.5108
  0
SEQEND
  0
POLYLINE
  8
LAYER_2
 40
0.0882
 41
0.0882
 62
251
 66
1
 10
0
 20
0
 30
0
  0
VERTEX
  8
LAYER_2
 10
33.4084
 20
137.5239
  0
VERTEX
  8
LAYER_2
 10
33.7202
 20
137.5239
  0
SEQEND
  0
POLYLINE
  8
LAYER_2
 40
0.0882
 41
0.0882
 62
251
 66
1
 10
0
 20
0
 30
0
  0
VERTEX
  8
LAYER_2
 10
34.0324
 20
137.5239
  0
VERTEX
  8
LAYER_2
 10
34.3833
 20
137.5239
  0
SEQEND
  0
POLYLINE
  8
LAYER_2
 40
0.0882
 41
0.0882
 62
251
 66
1
 10
0
 20
0
 30
0
  0
VERTEX
  8
LAYER_2
 10
32.3944
 20
138.5379
  0
VERTEX
  8
LAYER_2
 10
32.3944
 20
138.3429
  0
VERTEX
  8
LAYER_2
 10
32.4335
 20
138.187
  0
VERTEX
  8
LAYER_2
 10
32.5113
 20
138.0307
  0
VERTEX
  8
LAYER_2
 10
32.5894
 20
137.9139
  0
SEQEND
  0
POLYLINE
  8
LAYER_2
 40
0.0882
 41
0.0882
 62
251
 66
1
 10
0
 20
0
 30
0
  0
VERTEX
  8
LAYER_2
 10
32.8234
 20
137.7189
  0
VERTEX
  8
LAYER_2
 10
32.9016
 20
137.6407
  0
VERTEX
  8
LAYER_2
 10
33.0575
 20
137.563
  0
VERTEX
  8
LAYER_2
 10
33.2134
 20
137.5239
  0
VERTEX
  8
LAYER_2
 10
33.4083
 20
137.5239
  0
SEQEND
  0
POLYLINE
  8
LAYER_2
 40
0.1305
 41
0.1305
 66
1
 10
0
 20
0
 30
0
  0
VERTEX
  8
LAYER_2
 10
33.0964
 20
153.0264
 42
0.1988827209
  0
VERTEX
  8
LAYER_2
 10
33.239
 20
152.6818
 42
0.1989464645
  0
VERTEX
  8
LAYER_2
 10
33.5837
 20
152.5388
  0
SEQEND
  0
POLYLINE
  8
LAYER_2
 40
0.1305
 41
0.1305
 66
1
 10
0
 20
0
 30
0
  0
VERTEX
  8
LAYER_2
 10
33.0574
 20
153.0067
  0
VERTEX
  8
LAYER_2
 10
33.0574
 20
156.0095
  0
SEQEND
  0
POLYLINE
  8
LAYER_2
 40
0.1305
 41
0.1305
 66
1
 10
0
 20
0
 30
0
  0
VERTEX
  8
LAYER_2
 10
33.0574
 20
156.0292
 42
0.4137432328
  0
VERTEX
  8
LAYER_2
 10
32.5702
 20
156.5168
  0
SEQEND
  0
POLYLINE
  8
LAYER_2
 40
0.1305
 41
0.1305
 66
1
 10
0
 20
0
 30
0
  0
VERTEX
  8
LAYER_2
 10
114.3713
 20
99.6554
  0
VERTEX
  8
LAYER_2
 10
114.3713
 20
100.0063
  0
VERTEX
  8
LAYER_2
 10
114.4495
 20
100.3185
  0
VERTEX
  8
LAYER_2
 10
114.4882
 20
100.4744
  0
VERTEX
  8
LAYER_2
 10
114.5272
 20
100.6303
  0
VERTEX
  8
LAYER_2
 10
114.6054
 20
100.7866
  0
VERTEX
  8
LAYER_2
 10
114.6831
 20
100.9425
  0
VERTEX
  8
LAYER_2
 10
114.8785
 20
101.1375
  0
VERTEX
  8
LAYER_2
 10
115.0344
 20
101.3324
  0
VERTEX
  8
LAYER_2
 10
115.2294
 20
101.5274
  0
VERTEX
  8
LAYER_2
 10
115.4244
 20
101.6833
  0
VERTEX
  8
LAYER_2
 10
115.6194
 20
101.8392
  0
VERTEX
  8
LAYER_2
 10
115.6975
 20
101.9174
  0
VERTEX
  8
LAYER_2
 10
115.7362
 20
101.9955
  0
VERTEX
  8
LAYER_2
 10
115.8143
 20
102.0732
  0
VERTEX
  8
LAYER_2
 10
115.8534
 20
102.1514
  0
VERTEX
  8
LAYER_2
 10
115.8534
 20
102.1905
  0
VERTEX
  8
LAYER_2
 10
115.8534
 20
102.2296
  0
VERTEX
  8
LAYER_2
 10
115.8534
 20
102.3073
  0
VERTEX
  8
LAYER_2
 10
115.8143
 20
102.3464
  0
VERTEX
  8
LAYER_2
 10
115.7753
 20
102.3855
  0
VERTEX
  8
LAYER_2
 10
115.7362
 20
102.3855
  0
VERTEX
  8
LAYER_2
 10
115.6584
 20
102.4245
  0
VERTEX
  8
LAYER_2
 10
115.5803
 20
102.4632
  0
VERTEX
  8
LAYER_2
 10
115.3853
 20
102.5023
  0
VERTEX
  8
LAYER_2
 10
115.1512
 20
102.5414
  0
VERTEX
  8
LAYER_2
 10
114.9172
 20
102.5804
  0
VERTEX
  8
LAYER_2
 10
114.3713
 20
102.6582
  0
SEQEND
  0
POLYLINE
  8
LAYER_2
 40
0.1305
 41
0.1305
 66
1
 10
0
 20
0
 30
0
 70
1
  0
VERTEX
  8
LAYER_2
 10
116.6333
 20
67.832
  0
VERTEX
  8
LAYER_2
 10
115.6193
 20
67.832
  0
VERTEX
  8
LAYER_2
 10
115.6193
 20
67.5589
  0
VERTEX
  8
LAYER_2
 10
116.6333
 20
67.5589
  0
SEQEND
  0
POLYLINE
  8
LAYER_2
 40
0.1305
 41
0.1305
 66
1
 10
0
 20
0
 30
0
 70
1
  0
VERTEX
  8
LAYER_2
 10
31.3804
 20
134.5207
  0
VERTEX
  8
LAYER_2
 10
34.8512
 20
134.5207
  0
VERTEX
  8
LAYER_2
 10
34.8512
 20
67.8316
  0
VERTEX
  8
LAYER_2
 10
31.3804
 20
67.8316
  0
SEQEND
  0
POLYLINE
  8
LAYER_2
 40
0.1305
 41
0.1305
 66
1
 10
0
 20
0
 30
0
 70
1
  0
VERTEX
  8
LAYER_2
 10
32.6284
 20
67.832
  0
VERTEX
  8
LAYER_2
 10
33.6032
 20
67.832
  0
VERTEX
  8
LAYER_2
 10
33.6032
 20
67.5589
  0
VERTEX
  8
LAYER_2
 10
32.6284
 20
67.5589
  0
SEQEND
  0
POLYLINE
  8
LAYER_2
 40
0.1305
 41
0.1305
 66
1
 10
0
 20
0
 30
0
  0
VERTEX
  8
LAYER_2
 10
38.3614
 20
99.6554
  0
VERTEX
  8
LAYER_2
 10
38.3614
 20
67.8317
  0
VERTEX
  8
LAYER_2
 10
34.8514
 20
67.8317
  0
VERTEX
  8
LAYER_2
 10
34.8514
 20
134.5209
  0
VERTEX
  8
LAYER_2
 10
38.3614
 20
134.5209
  0
VERTEX
  8
LAYER_2
 10
38.3614
 20
102.6582
  0
SEQEND
  0
POLYLINE
  8
LAYER_2
 40
0.1305
 41
0.1305
 66
1
 10
0
 20
0
 30
0
 70
1
  0
VERTEX
  8
LAYER_2
 10
36.1383
 20
67.832
  0
VERTEX
  8
LAYER_2
 10
37.1132
 20
67.832
  0
VERTEX
  8
LAYER_2
 10
37.1132
 20
67.5589
  0
VERTEX
  8
LAYER_2
 10
36.1383
 20
67.5589
  0
SEQEND
  0
POLYLINE
  8
LAYER_2
 40
0.1305
 41
0.1305
 66
1
 10
0
 20
0
 30
0
  0
VERTEX
  8
LAYER_2
 10
38.3614
 20
99.6554
  0
VERTEX
  8
LAYER_2
 10
38.3614
 20
100.0063
  0
VERTEX
  8
LAYER_2
 10
38.2832
 20
100.3185
  0
VERTEX
  8
LAYER_2
 10
38.2445
 20
100.4744
  0
VERTEX
  8
LAYER_2
 10
38.2055
 20
100.6303
  0
VERTEX
  8
LAYER_2
 10
38.1273
 20
100.7866
  0
VERTEX
  8
LAYER_2
 10
38.0496
 20
100.9425
  0
VERTEX
  8
LAYER_2
 10
37.8542
 20
101.1375
  0
VERTEX
  8
LAYER_2
 10
37.6983
 20
101.3324
  0
VERTEX
  8
LAYER_2
 10
37.5033
 20
101.5274
  0
VERTEX
  8
LAYER_2
 10
37.3083
 20
101.6833
  0
VERTEX
  8
LAYER_2
 10
37.1134
 20
101.8392
  0
VERTEX
  8
LAYER_2
 10
37.0352
 20
101.9174
  0
VERTEX
  8
LAYER_2
 10
36.9965
 20
101.9955
  0
VERTEX
  8
LAYER_2
 10
36.9184
 20
102.0732
  0
VERTEX
  8
LAYER_2
 10
36.8793
 20
102.1514
  0
VERTEX
  8
LAYER_2
 10
36.8793
 20
102.1905
  0
VERTEX
  8
LAYER_2
 10
36.8793
 20
102.2296
  0
VERTEX
  8
LAYER_2
 10
36.8793
 20
102.3073
  0
VERTEX
  8
LAYER_2
 10
36.9184
 20
102.3464
  0
VERTEX
  8
LAYER_2
 10
36.9575
 20
102.3855
  0
VERTEX
  8
LAYER_2
 10
37.0352
 20
102.3855
  0
VERTEX
  8
LAYER_2
 10
37.0743
 20
102.4245
  0
VERTEX
  8
LAYER_2
 10
37.1524
 20
102.4632
  0
VERTEX
  8
LAYER_2
 10
37.3474
 20
102.5023
  0
VERTEX
  8
LAYER_2
 10
37.5815
 20
102.5414
  0
VERTEX
  8
LAYER_2
 10
37.8155
 20
102.5804
  0
VERTEX
  8
LAYER_2
 10
38.3614
 20
102.6582
  0
SEQEND
  0
POLYLINE
  8
LAYER_2
 40
0.1305
 41
0.1305
 66
1
 10
0
 20
0
 30
0
 70
1
  0
VERTEX
  8
LAYER_2
 10
178.7204
 20
67.832
  0
VERTEX
  8
LAYER_2
 10
177.7064
 20
67.832
  0
VERTEX
  8
LAYER_2
 10
177.7064
 20
67.5589
  0
VERTEX
  8
LAYER_2
 10
178.7204
 20
67.5589
  0
SEQEND
  0
POLYLINE
  8
LAYER_2
 40
0.0882
 41
0.0882
 62
251
 66
1
 10
0
 20
0
 30
0
  0
VERTEX
  8
LAYER_2
 10
175.0155
 20
134.521
  0
VERTEX
  8
LAYER_2
 10
143.9718
 20
134.521
  0
SEQEND
  0
POLYLINE
  8
LAYER_2
 40
0.0882
 41
0.0882
 62
251
 66
1
 10
0
 20
0
 30
0
  0
VERTEX
  8
LAYER_2
 10
140.54
 20
134.521
  0
VERTEX
  8
LAYER_2
 10
134.495
 20
134.521
  0
SEQEND
  0
POLYLINE
  8
LAYER_2
 40
0.1305
 41
0.1305
 66
1
 10
0
 20
0
 30
0
 70
1
  0
VERTEX
  8
LAYER_2
 10
184.1805
 20
136.51
  0
VERTEX
  8
LAYER_2
 10
133.1691
 20
136.51
  0
VERTEX
  8
LAYER_2
 10
133.1691
 20
134.5212
  0
VERTEX
  8
LAYER_2
 10
184.1805
 20
134.5212
  0
SEQEND
  0
POLYLINE
  8
LAYER_2
 40
0.1305
 41
0.1305
 66
1
 10
0
 20
0
 30
0
 70
1
  0
VERTEX
  8
LAYER_2
 10
138.7851
 20
67.832
  0
VERTEX
  8
LAYER_2
 10
137.8102
 20
67.832
  0
VERTEX
  8
LAYER_2
 10
137.8102
 20
67.5589
  0
VERTEX
  8
LAYER_2
 10
138.7851
 20
67.5589
  0
SEQEND
  0
POLYLINE
  8
LAYER_2
 40
0.1305
 41
0.1305
 66
1
 10
0
 20
0
 30
0
  0
VERTEX
  8
LAYER_2
 10
134.4561
 20
152.4997
  0
VERTEX
  8
LAYER_2
 10
159.1426
 20
152.4997
  0
VERTEX
  8
LAYER_2
 10
179.1493
 20
156.4778
  0
SEQEND
  0
POLYLINE
  8
LAYER_2
 40
0.1305
 41
0.1305
 66
1
 10
0
 20
0
 30
0
  0
VERTEX
  8
LAYER_2
 10
179.3217
 20
156.5544
  0
VERTEX
  8
LAYER_2
 10
179.1811
 20
156.5319
  0
SEQEND
  0
POLYLINE
  8
LAYER_2
 40
0.1305
 41
0.1305
 66
1
 10
0
 20
0
 30
0
  0
VERTEX
  8
LAYER_2
 10
179.3055
 20
156.5166
  0
VERTEX
  8
LAYER_2
 10
183.8685
 20
156.5166
  0
SEQEND
  0
POLYLINE
  8
LAYER_2
 40
0.1305
 41
0.1305
 66
1
 10
0
 20
0
 30
0
  0
VERTEX
  8
LAYER_2
 10
184.1804
 20
156.2238
 42
0.1988821776
  0
VERTEX
  8
LAYER_2
 10
184.0948
 20
156.4308
 42
0.1969904654
  0
VERTEX
  8
LAYER_2
 10
183.8882
 20
156.5164
  0
SEQEND
  0
POLYLINE
  8
LAYER_2
 40
0.1305
 41
0.1305
 66
1
 10
0
 20
0
 30
0
  0
VERTEX
  8
LAYER_2
 10
184.1804
 20
156.2046
  0
VERTEX
  8
LAYER_2
 10
184.1804
 20
136.7829
  0
SEQEND
  0
POLYLINE
  8
LAYER_2
 40
0.1305
 41
0.1305
 66
1
 10
0
 20
0
 30
0
  0
VERTEX
  8
LAYER_2
 10
184.0894
 20
136.5392
 42
0.2358442577
  0
VERTEX
  8
LAYER_2
 10
184.2196
 20
136.8052
  0
SEQEND
  0
POLYLINE
  8
LAYER_2
 40
0.1305
 41
0.1305
 66
1
 10
0
 20
0
 30
0
  0
VERTEX
  8
LAYER_2
 10
184.0634
 20
136.5099
  0
VERTEX
  8
LAYER_2
 10
133.9882
 20
136.5099
  0
VERTEX
  8
LAYER_2
 10
134.1832
 20
152.2268
  0
SEQEND
  0
POLYLINE
  8
LAYER_2
 40
0.1305
 41
0.1305
 66
1
 10
0
 20
0
 30
0
  0
VERTEX
  8
LAYER_2
 10
134.5147
 20
152.5387
 42
0.392488502
  0
VERTEX
  8
LAYER_2
 10
134.222
 20
152.2465
  0
SEQEND
  0
POLYLINE
  8
LAYER_2
 40
0.1305
 41
0.1305
 66
1
 10
0
 20
0
 30
0
  0
VERTEX
  8
LAYER_2
 10
134.4951
 20
152.4997
  0
VERTEX
  8
LAYER_2
 10
159.1429
 20
152.4997
  0
SEQEND
  0
POLYLINE
  8
LAYER_2
 40
0.1305
 41
0.1305
 66
1
 10
0
 20
0
 30
0
  0
VERTEX
  8
LAYER_2
 10
180.2415
 20
67.8318
  0
VERTEX
  8
LAYER_2
 10
176.1856
 20
67.8318
  0
VERTEX
  8
LAYER_2
 10
158.2459
 20
97.7444
  0
SEQEND
  0
POLYLINE
  8
LAYER_2
 40
0.1305
 41
0.1305
 66
1
 10
0
 20
0
 30
0
  0
VERTEX
  8
LAYER_2
 10
156.2178
 20
101.1764
  0
VERTEX
  8
LAYER_2
 10
136.2501
 20
134.5207
  0
VERTEX
  8
LAYER_2
 10
140.345
 20
134.5207
  0
VERTEX
  8
LAYER_2
 10
158.2457
 20
104.5695
  0
SEQEND
  0
POLYLINE
  8
LAYER_2
 40
0.1305
 41
0.1305
 66
1
 10
0
 20
0
 30
0
  0
VERTEX
  8
LAYER_2
 10
160.3127
 20
101.1764
  0
VERTEX
  8
LAYER_2
 10
180.2413
 20
67.832
  0
VERTEX
  8
LAYER_2
 10
176.1855
 20
67.832
  0
SEQEND
  0
POLYLINE
  8
LAYER_2
 40
0.1305
 41
0.1305
 66
1
 10
0
 20
0
 30
0
  0
VERTEX
  8
LAYER_2
 10
136.2501
 20
67.8318
  0
VERTEX
  8
LAYER_2
 10
140.3449
 20
67.8318
  0
VERTEX
  8
LAYER_2
 10
180.2415
 20
134.521
  0
VERTEX
  8
LAYER_2
 10
176.1857
 20
134.521
  0
VERTEX
  8
LAYER_2
 10
136.2501
 20
67.8318
  0
VERTEX
  8
LAYER_2
 10
140.3449
 20
67.8318
  0
SEQEND
  0
POLYLINE
  8
LAYER_2
 40
0.1305
 41
0.1305
 66
1
 10
0
 20
0
 30
0
 70
1
  0
VERTEX
  8
LAYER_2
 10
160.9365
 20
134.4821
  0
VERTEX
  8
LAYER_2
 10
156.0227
 20
134.4821
  0
VERTEX
  8
LAYER_2
 10
156.0227
 20
132.571
  0
VERTEX
  8
LAYER_2
 10
160.9365
 20
132.571
  0
SEQEND
  0
POLYLINE
  8
LAYER_2
 40
0.1305
 41
0.1305
 66
1
 10
0
 20
0
 30
0
  0
VERTEX
  8
LAYER_2
 10
118.8563
 20
152.4997
  0
SEQEND
  0
POLYLINE
  8
LAYER_2
 40
0.1305
 41
0.1305
 66
1
 10
0
 20
0
 30
0
  0
VERTEX
  8
LAYER_2
 10
31.5755
 20
156.0097
  0
SEQEND
  0
POLYLINE
  8
LAYER_2
 40
0.1305
 41
0.1305
 66
1
 10
0
 20
0
 30
0
  0
VERTEX
  8
LAYER_2
 10
32.3165
 20
156.5166
  0
SEQEND
  0
POLYLINE
  8
LAYER_2
 40
0.1305
 41
0.1305
 66
1
 10
0
 20
0
 30
0
  0
VERTEX
  8
LAYER_2
 10
31.3805
 20
134.521
  0
SEQEND
  0
POLYLINE
  8
LAYER_2
 40
0.1305
 41
0.1305
 66
1
 10
0
 20
0
 30
0
  0
VERTEX
  8
LAYER_2
 10
31.5755
 20
156.0097
  0
SEQEND
  0
POLYLINE
  8
LAYER_2
 40
0.1305
 41
0.1305
 66
1
 10
0
 20
0
 30
0
  0
VERTEX
  8
LAYER_2
 10
33.0574
 20
156.0097
  0
SEQEND
  0
POLYLINE
  8
LAYER_2
 40
0.1305
 41
0.1305
 66
1
 10
0
 20
0
 30
0
  0
VERTEX
  8
LAYER_2
 10
119.6753
 20
156.0097
  0
SEQEND
  0
POLYLINE
  8
LAYER_2
 40
0.0882
 41
0.0882
 62
251
 66
1
 10
0
 20
0
 30
0
  0
VERTEX
  8
LAYER_2
 10
110.2374
 20
67.5588
  0
VERTEX
  8
LAYER_2
 10
108.0923
 20
67.5588
  0
SEQEND
  0
POLYLINE
  8
LAYER_2
 40
0.0882
 41
0.0882
 62
251
 66
1
 10
0
 20
0
 30
0
  0
VERTEX
  8
LAYER_2
 10
135.0411
 20
152.4997
  0
SEQEND
  0
POLYLINE
  8
LAYER_2
 40
0.0882
 41
0.0882
 62
251
 66
1
 10
0
 20
0
 30
0
  0
VERTEX
  8
LAYER_2
 10
135.0411
 20
152.4997
  0
SEQEND
  0
POLYLINE
  8
LAYER_2
 40
0.0882
 41
0.0882
 62
251
 66
1
 10
0
 20
0
 30
0
  0
VERTEX
  8
LAYER_2
 10
133.1691
 20
136.5099
  0
SEQEND
  0
POLYLINE
  8
LAYER_2
 40
0.0882
 41
0.0882
 62
251
 66
1
 10
0
 20
0
 30
0
  0
VERTEX
  8
LAYER_2
 10
133.1691
 20
134.521
  0
SEQEND
  0
POLYLINE
  8
LAYER_2
 40
0.0882
 41
0.0882
 62
251
 66
1
 10
0
 20
0
 30
0
  0
VERTEX
  8
LAYER_2
 10
133.1691
 20
134.521
  0
SEQEND
  0
POLYLINE
  8
LAYER_2
 40
0.0882
 41
0.0882
 62
251
 66
1
 10
0
 20
0
 30
0
  0
VERTEX
  8
LAYER_2
 10
134.1831
 20
152.2267
  0
SEQEND
  0
POLYLINE
  8
LAYER_2
 40
0.0882
 41
0.0882
 62
251
 66
1
 10
0
 20
0
 30
0
  0
VERTEX
  8
LAYER_2
 10
159.1428
 20
152.4997
  0
SEQEND
  0
POLYLINE
  8
LAYER_2
 40
0.0882
 41
0.0882
 62
251
 66
1
 10
0
 20
0
 30
0
  0
VERTEX
  8
LAYER_2
 10
184.1804
 20
102.1904
  0
VERTEX
  8
LAYER_2
 10
184.1804
 20
99.4994
  0
SEQEND
  0
POLYLINE
  8
LAYER_2
 40
0.0882
 41
0.0882
 62
251
 66
1
 10
0
 20
0
 30
0
  0
VERTEX
  8
LAYER_2
 10
184.1804
 20
159.2076
  0
VERTEX
  8
LAYER_2
 10
184.1804
 20
162.5617
  0
SEQEND
  0
POLYLINE
  8
LAYER_2
 40
0.0882
 41
0.0882
 62
251
 66
1
 10
0
 20
0
 30
0
  0
VERTEX
  8
LAYER_2
 10
134.1831
 20
151.5247
  0
SEQEND
  0
POLYLINE
  8
LAYER_2
 40
0.1305
 41
0.1305
 66
1
 10
0
 20
0
 30
0
  0
VERTEX
  8
LAYER_2
 10
140.345
 20
67.8318
  0
SEQEND
  0
POLYLINE
  8
LAYER_2
 40
0.1305
 41
0.1305
 66
1
 10
0
 20
0
 30
0
  0
VERTEX
  8
LAYER_2
 10
176.1855
 20
67.8318
  0
SEQEND
  0
POLYLINE
  8
LAYER_2
 40
0.1305
 41
0.1305
 66
1
 10
0
 20
0
 30
0
  0
VERTEX
  8
LAYER_2
 10
158.2457
 20
97.7444
  0
SEQEND
  0
POLYLINE
  8
LAYER_2
 40
0.1305
 41
0.1305
 66
1
 10
0
 20
0
 30
0
  0
VERTEX
  8
LAYER_2
 10
183.8684
 20
130.348
  0
VERTEX
  8
LAYER_2
 10
183.8684
 20
134.3651
  0
VERTEX
  8
LAYER_2
 10
180.8657
 20
134.3651
  0
VERTEX
  8
LAYER_2
 10
180.8657
 20
134.0529
  0
VERTEX
  8
LAYER_2
 10
183.5566
 20
134.0529
  0
VERTEX
  8
LAYER_2
 10
183.5566
 20
130.348
  0
VERTEX
  8
LAYER_2
 10
183.8684
 20
130.348
  0
SEQEND
  0
POLYLINE
  8
LAYER_2
 40
0.1305
 41
0.1305
 66
1
 10
0
 20
0
 30
0
  0
VERTEX
  8
LAYER_2
 10
103.7635
 20
134.482
  0
VERTEX
  8
LAYER_2
 10
101.2675
 20
134.482
  0
VERTEX
  8
LAYER_2
 10
98.7715
 20
134.482
  0
VERTEX
  8
LAYER_2
 10
98.7715
 20
131.0111
  0
SEQEND
  0
POLYLINE
  8
LAYER_2
 40
0.1305
 41
0.1305
 66
1
 10
0
 20
0
 30
0
  0
VERTEX
  8
LAYER_2
 10
98.8106
 20
131.0302
 42
0.4142390194
  0
VERTEX
  8
LAYER_2
 10
99.2982
 20
130.5429
  0
SEQEND
  0
POLYLINE
  8
LAYER_2
 40
0.1305
 41
0.1305
 66
1
 10
0
 20
0
 30
0
  0
VERTEX
  8
LAYER_2
 10
99.2785
 20
130.504
  0
VERTEX
  8
LAYER_2
 10
101.2674
 20
130.504
  0
VERTEX
  8
LAYER_2
 10
103.2566
 20
130.504
  0
SEQEND
  0
POLYLINE
  8
LAYER_2
 40
0.1305
 41
0.1305
 66
1
 10
0
 20
0
 30
0
  0
VERTEX
  8
LAYER_2
 10
103.2761
 20
130.543
 42
0.3931500451
  0
VERTEX
  8
LAYER_2
 10
103.7637
 20
131.0307
  0
SEQEND
  0
POLYLINE
  8
LAYER_2
 40
0.1305
 41
0.1305
 66
1
 10
0
 20
0
 30
0
  0
VERTEX
  8
LAYER_2
 10
103.7635
 20
131.011
  0
VERTEX
  8
LAYER_2
 10
103.7635
 20
134.4819
  0
SEQEND
  0
POLYLINE
  8
LAYER_2
 40
0.1305
 41
0.1305
 66
1
 10
0
 20
0
 30
0
  0
VERTEX
  8
LAYER_2
 10
48.7742
 20
134.482
  0
VERTEX
  8
LAYER_2
 10
51.2702
 20
134.482
  0
VERTEX
  8
LAYER_2
 10
53.7662
 20
134.482
  0
VERTEX
  8
LAYER_2
 10
53.7662
 20
131.0111
  0
SEQEND
  0
POLYLINE
  8
LAYER_2
 40
0.1305
 41
0.1305
 66
1
 10
0
 20
0
 30
0
  0
VERTEX
  8
LAYER_2
 10
53.2787
 20
130.543
 42
0.4137131958
  0
VERTEX
  8
LAYER_2
 10
53.7663
 20
131.0302
  0
SEQEND
  0
POLYLINE
  8
LAYER_2
 40
0.1305
 41
0.1305
 66
1
 10
0
 20
0
 30
0
  0
VERTEX
  8
LAYER_2
 10
53.2592
 20
130.504
  0
VERTEX
  8
LAYER_2
 10
51.2703
 20
130.504
  0
VERTEX
  8
LAYER_2
 10
49.2811
 20
130.504
  0
SEQEND
  0
POLYLINE
  8
LAYER_2
 40
0.1305
 41
0.1305
 66
1
 10
0
 20
0
 30
0
  0
VERTEX
  8
LAYER_2
 10
48.8132
 20
131.0304
 42
0.3930958651
  0
VERTEX
  8
LAYER_2
 10
49.3009
 20
130.5428
  0
SEQEND
  0
POLYLINE
  8
LAYER_2
 40
0.1305
 41
0.1305
 66
1
 10
0
 20
0
 30
0
  0
VERTEX
  8
LAYER_2
 10
48.7742
 20
131.011
  0
VERTEX
  8
LAYER_2
 10
48.7742
 20
134.4819
  0
SEQEND
  0
POLYLINE
  8
LAYER_2
 40
0.1305
 41
0.1305
 66
1
 10
0
 20
0
 30
0
  0
VERTEX
  8
LAYER_2
 10
157.6998
 20
101.1956
 42
0.4146410744
  0
VERTEX
  8
LAYER_2
 10
158.2652
 20
100.6306
  0
SEQEND
  0
POLYLINE
  8
LAYER_2
 40
0.1305
 41
0.1305
 66
1
 10
0
 20
0
 30
0
  0
VERTEX
  8
LAYER_2
 10
158.2653
 20
100.6304
 42
0.414224151
  0
VERTEX
  8
LAYER_2
 10
158.8307
 20
101.1958
  0
SEQEND
  0
POLYLINE
  8
LAYER_2
 40
0.1305
 41
0.1305
 66
1
 10
0
 20
0
 30
0
  0
VERTEX
  8
LAYER_2
 10
158.8308
 20
101.1959
 42
0.4142090825
  0
VERTEX
  8
LAYER_2
 10
158.2654
 20
101.7613
  0
SEQEND
  0
POLYLINE
  8
LAYER_2
 40
0.1305
 41
0.1305
 66
1
 10
0
 20
0
 30
0
  0
VERTEX
  8
LAYER_2
 10
158.2653
 20
101.7614
 42
0.4141977496
  0
VERTEX
  8
LAYER_2
 10
157.7
 20
101.1964
  0
SEQEND
  0
POLYLINE
  8
LAYER_2
 40
0.3951
 41
0.3951
 66
1
 10
0
 20
0
 30
0
  0
VERTEX
  8
LAYER_2
 10
50.7632
 20
131.596
  0
VERTEX
  8
LAYER_2
 10
51.7381
 20
131.596
  0
SEQEND
  0
POLYLINE
  8
LAYER_2
 40
0.3951
 41
0.3951
 66
1
 10
0
 20
0
 30
0
  0
VERTEX
  8
LAYER_2
 10
51.7772
 20
133.5849
  0
VERTEX
  8
LAYER_2
 10
50.7632
 20
133.5849
  0
SEQEND
  0
POLYLINE
  8
LAYER_2
 40
0.3951
 41
0.3951
 66
1
 10
0
 20
0
 30
0
  0
VERTEX
  8
LAYER_2
 10
50.7953
 20
133.6239
 42
0.2701678911
  0
VERTEX
  8
LAYER_2
 10
49.9235
 20
133.1304
 42
0.2700395373
  0
VERTEX
  8
LAYER_2
 10
49.9235
 20
132.1285
 42
0.2701823447
  0
VERTEX
  8
LAYER_2
 10
50.7953
 20
131.635
  0
SEQEND
  0
POLYLINE
  8
LAYER_2
 40
0.3951
 41
0.3951
 66
1
 10
0
 20
0
 30
0
  0
VERTEX
  8
LAYER_2
 10
51.7791
 20
131.6351
 42
0.2697198265
  0
VERTEX
  8
LAYER_2
 10
52.6525
 20
132.1228
 42
0.2696904326
  0
VERTEX
  8
LAYER_2
 10
52.66
 20
133.123
 42
0.2697363626
  0
VERTEX
  8
LAYER_2
 10
51.794
 20
133.6239
  0
SEQEND
  0
POLYLINE
  8
LAYER_2
 40
0.3951
 41
0.3951
 66
1
 10
0
 20
0
 30
0
  0
VERTEX
  8
LAYER_2
 10
51.3872
 20
132.61
  0
VERTEX
  8
LAYER_2
 10
51.1531
 20
132.61
  0
SEQEND
  0
POLYLINE
  8
LAYER_2
 40
0.3951
 41
0.3951
 66
1
 10
0
 20
0
 30
0
  0
VERTEX
  8
LAYER_2
 10
51.2702
 20
132.688
  0
VERTEX
  8
LAYER_2
 10
51.2702
 20
132.493
  0
SEQEND
  0
POLYLINE
  8
LAYER_2
 40
0.1305
 41
0.1305
 66
1
 10
0
 20
0
 30
0
  0
VERTEX
  8
LAYER_2
 10
51.2702
 20
132.532
  0
VERTEX
  8
LAYER_2
 10
51.2702
 20
132.4538
  0
SEQEND
  0
POLYLINE
  8
LAYER_2
 40
0.1305
 41
0.1305
 66
1
 10
0
 20
0
 30
0
  0
VERTEX
  8
LAYER_2
 10
101.2675
 20
132.649
  0
VERTEX
  8
LAYER_2
 10
101.2675
 20
132.7271
  0
SEQEND
  0
POLYLINE
  8
LAYER_2
 40
0.1305
 41
0.1305
 66
1
 10
0
 20
0
 30
0
  0
VERTEX
  8
LAYER_2
 10
52.7522
 20
132.61
  0
VERTEX
  8
LAYER_2
 10
72.798
 20
132.61
  0
SEQEND
  0
POLYLINE
  8
LAYER_2
 40
0.1305
 41
0.1305
 66
1
 10
0
 20
0
 30
0
  0
VERTEX
  8
LAYER_2
 10
99.7466
 20
132.61
  0
VERTEX
  8
LAYER_2
 10
79.7398
 20
132.61
  0
SEQEND
  0
POLYLINE
  8
LAYER_2
 40
0.05
 41
0.05
 66
1
 10
0
 20
0
 30
0
 70
1
  0
VERTEX
  8
LAYER_2
 10
52.7522
 20
132.844
  0
VERTEX
  8
LAYER_2
 10
52.7522
 20
132.3368
  0
VERTEX
  8
LAYER_2
 10
51.2701
 20
132.6099
  0
SEQEND
  0
POLYLINE
  8
LAYER_2
 66
1
 10
0
 20
0
 30
0
 70
1
  0
VERTEX
  8
LAYER_2
 10
52.7522
 20
132.844
  0
VERTEX
  8
LAYER_2
 10
52.7522
 20
132.3368
  0
VERTEX
  8
LAYER_2
 10
51.2701
 20
132.6099
  0
SEQEND
  0
POLYLINE
  8
LAYER_2
 40
0.05
 41
0.05
 66
1
 10
0
 20
0
 30
0
 70
1
  0
VERTEX
  8
LAYER_2
 10
99.7466
 20
132.844
  0
VERTEX
  8
LAYER_2
 10
99.7466
 20
132.3368
  0
VERTEX
  8
LAYER_2
 10
101.2677
 20
132.6099
  0
SEQEND
  0
POLYLINE
  8
LAYER_2
 66
1
 10
0
 20
0
 30
0
 70
1
  0
VERTEX
  8
LAYER_2
 10
99.7466
 20
132.844
  0
VERTEX
  8
LAYER_2
 10
99.7466
 20
132.3368
  0
VERTEX
  8
LAYER_2
 10
101.2677
 20
132.6099
  0
SEQEND
  0
TEXT
  8
LAYER_2
 10
72.9421
 20
131.2521
 11
72.9421
 21
131.2521
 40
3.6923
 41
0.5
  1
500
  0
POLYLINE
  8
LAYER_2
 40
0.3951
 41
0.3951
 66
1
 10
0
 20
0
 30
0
  0
VERTEX
  8
LAYER_2
 10
101.7745
 20
131.596
  0
VERTEX
  8
LAYER_2
 10
100.7996
 20
131.596
  0
SEQEND
  0
POLYLINE
  8
LAYER_2
 40
0.3951
 41
0.3951
 66
1
 10
0
 20
0
 30
0
  0
VERTEX
  8
LAYER_2
 10
100.7606
 20
133.5849
  0
VERTEX
  8
LAYER_2
 10
101.7745
 20
133.5849
  0
SEQEND
  0
POLYLINE
  8
LAYER_2
 40
0.3951
 41
0.3951
 66
1
 10
0
 20
0
 30
0
  0
VERTEX
  8
LAYER_2
 10
101.7814
 20
131.635
 42
0.2701821854
  0
VERTEX
  8
LAYER_2
 10
102.6532
 20
132.1285
 42
0.2700548826
  0
VERTEX
  8
LAYER_2
 10
102.6532
 20
133.1304
 42
0.2701867215
  0
VERTEX
  8
LAYER_2
 10
101.7814
 20
133.6239
  0
SEQEND
  0
POLYLINE
  8
LAYER_2
 40
0.3951
 41
0.3951
 66
1
 10
0
 20
0
 30
0
  0
VERTEX
  8
LAYER_2
 10
100.7826
 20
133.6239
 42
0.2697160476
  0
VERTEX
  8
LAYER_2
 10
99.9167
 20
133.123
 42
0.2696981209
  0
VERTEX
  8
LAYER_2
 10
99.9242
 20
132.1228
 42
0.2694625991
  0
VERTEX
  8
LAYER_2
 10
100.7976
 20
131.6351
  0
SEQEND
  0
POLYLINE
  8
LAYER_2
 40
0.3951
 41
0.3951
 66
1
 10
0
 20
0
 30
0
  0
VERTEX
  8
LAYER_2
 10
101.1505
 20
132.61
  0
VERTEX
  8
LAYER_2
 10
101.3846
 20
132.61
  0
SEQEND
  0
POLYLINE
  8
LAYER_2
 40
0.3951
 41
0.3951
 66
1
 10
0
 20
0
 30
0
  0
VERTEX
  8
LAYER_2
 10
101.2675
 20
132.688
  0
VERTEX
  8
LAYER_2
 10
101.2675
 20
132.493
  0
SEQEND
  0
POLYLINE
  8
LAYER_2
 40
0.0882
 41
0.0882
 62
251
 66
1
 10
0
 20
0
 30
0
  0
VERTEX
  8
LAYER_2
 10
31.3805
 20
67.7538
  0
VERTEX
  8
LAYER_2
 10
31.3805
 20
64.4779
  0
SEQEND
  0
POLYLINE
  8
LAYER_2
 40
0.0882
 41
0.0882
 62
251
 66
1
 10
0
 20
0
 30
0
  0
VERTEX
  8
LAYER_2
 10
121.3523
 20
67.7538
  0
VERTEX
  8
LAYER_2
 10
121.3523
 20
64.4779
  0
SEQEND
  0
POLYLINE
  8
LAYER_2
 40
0.0882
 41
0.0882
 62
251
 66
1
 10
0
 20
0
 30
0
  0
VERTEX
  8
LAYER_2
 10
32.8624
 20
64.5949
  0
VERTEX
  8
LAYER_2
 10
73.5389
 20
64.5949
  0
SEQEND
  0
POLYLINE
  8
LAYER_2
 40
0.0882
 41
0.0882
 62
251
 66
1
 10
0
 20
0
 30
0
  0
VERTEX
  8
LAYER_2
 10
119.8703
 20
64.5949
  0
VERTEX
  8
LAYER_2
 10
79.1938
 20
64.5949
  0
SEQEND
  0
POLYLINE
  8
LAYER_2
 40
0.05
 41
0.05
 66
1
 10
0
 20
0
 30
0
 70
1
  0
VERTEX
  8
LAYER_2
 10
32.8624
 20
64.8289
  0
VERTEX
  8
LAYER_2
 10
32.8624
 20
64.3608
  0
VERTEX
  8
LAYER_2
 10
31.3804
 20
64.5948
  0
SEQEND
  0
POLYLINE
  8
LAYER_2
 66
1
 10
0
 20
0
 30
0
 70
1
  0
VERTEX
  8
LAYER_2
 10
32.8624
 20
64.8289
  0
VERTEX
  8
LAYER_2
 10
32.8624
 20
64.3608
  0
VERTEX
  8
LAYER_2
 10
31.3804
 20
64.5948
  0
SEQEND
  0
POLYLINE
  8
LAYER_2
 40
0.05
 41
0.05
 66
1
 10
0
 20
0
 30
0
 70
1
  0
VERTEX
  8
LAYER_2
 10
119.8703
 20
64.8289
  0
VERTEX
  8
LAYER_2
 10
119.8703
 20
64.3608
  0
VERTEX
  8
LAYER_2
 10
121.3523
 20
64.5948
  0
SEQEND
  0
POLYLINE
  8
LAYER_2
 66
1
 10
0
 20
0
 30
0
 70
1
  0
VERTEX
  8
LAYER_2
 10
119.8703
 20
64.8289
  0
VERTEX
  8
LAYER_2
 10
119.8703
 20
64.3608
  0
VERTEX
  8
LAYER_2
 10
121.3523
 20
64.5948
  0
SEQEND
  0
TEXT
  8
LAYER_2
 10
73.4606
 20
63.237
 11
73.4606
 21
63.237
 40
3.6923
 41
0.5
  1
900
  0
POLYLINE
  8
LAYER_2
 40
0.0882
 41
0.0882
 62
251
 66
1
 10
0
 20
0
 30
0
  0
VERTEX
  8
LAYER_2
 10
31.3805
 20
116.3472
  0
VERTEX
  8
LAYER_2
 10
31.3805
 20
114.6701
  0
SEQEND
  0
POLYLINE
  8
LAYER_2
 40
0.0882
 41
0.0882
 62
251
 66
1
 10
0
 20
0
 30
0
  0
VERTEX
  8
LAYER_2
 10
34.8514
 20
116.3472
  0
VERTEX
  8
LAYER_2
 10
34.8514
 20
114.6701
  0
SEQEND
  0
POLYLINE
  8
LAYER_2
 40
0.0882
 41
0.0882
 62
251
 66
1
 10
0
 20
0
 30
0
  0
VERTEX
  8
LAYER_2
 10
33.3694
 20
114.7872
  0
VERTEX
  8
LAYER_2
 10
32.8623
 20
114.7872
  0
SEQEND
  0
POLYLINE
  8
LAYER_2
 40
0.0882
 41
0.0882
 62
251
 66
1
 10
0
 20
0
 30
0
  0
VERTEX
  8
LAYER_2
 10
31.3805
 20
114.7872
  0
VERTEX
  8
LAYER_2
 10
29.8593
 20
114.7872
  0
SEQEND
  0
POLYLINE
  8
LAYER_2
 40
0.05
 41
0.05
 66
1
 10
0
 20
0
 30
0
 70
1
  0
VERTEX
  8
LAYER_2
 10
33.3694
 20
115.0212
  0
VERTEX
  8
LAYER_2
 10
33.3694
 20
114.514
  0
VERTEX
  8
LAYER_2
 10
34.8515
 20
114.7872
  0
SEQEND
  0
POLYLINE
  8
LAYER_2
 66
1
 10
0
 20
0
 30
0
 70
1
  0
VERTEX
  8
LAYER_2
 10
33.3694
 20
115.0212
  0
VERTEX
  8
LAYER_2
 10
33.3694
 20
114.514
  0
VERTEX
  8
LAYER_2
 10
34.8515
 20
114.7872
  0
SEQEND
  0
POLYLINE
  8
LAYER_2
 40
0.05
 41
0.05
 66
1
 10
0
 20
0
 30
0
 70
1
  0
VERTEX
  8
LAYER_2
 10
32.8624
 20
115.0212
  0
VERTEX
  8
LAYER_2
 10
32.8624
 20
114.514
  0
VERTEX
  8
LAYER_2
 10
31.3804
 20
114.7872
  0
SEQEND
  0
POLYLINE
  8
LAYER_2
 66
1
 10
0
 20
0
 30
0
 70
1
  0
VERTEX
  8
LAYER_2
 10
32.8624
 20
115.0212
  0
VERTEX
  8
LAYER_2
 10
32.8624
 20
114.514
  0
VERTEX
  8
LAYER_2
 10
31.3804
 20
114.7872
  0
SEQEND
  0
TEXT
  8
LAYER_2
 10
26.0764
 20
113.4293
 11
26.0764
 21
113.4293
 40
3.6923
 41
0.5
  1
35
  0
POLYLINE
  8
LAYER_2
 40
0.0882
 41
0.0882
 62
251
 66
1
 10
0
 20
0
 30
0
  0
VERTEX
  8
LAYER_2
 10
28.9235
 20
67.5588
  0
VERTEX
  8
LAYER_2
 10
25.3744
 20
67.5588
  0
SEQEND
  0
POLYLINE
  8
LAYER_2
 40
0.0882
 41
0.0882
 62
251
 66
1
 10
0
 20
0
 30
0
  0
VERTEX
  8
LAYER_2
 10
28.9235
 20
134.521
  0
VERTEX
  8
LAYER_2
 10
25.3744
 20
134.521
  0
SEQEND
  0
POLYLINE
  8
LAYER_2
 40
0.0882
 41
0.0882
 62
251
 66
1
 10
0
 20
0
 30
0
  0
VERTEX
  8
LAYER_2
 10
25.4915
 20
69.0798
  0
VERTEX
  8
LAYER_2
 10
25.4915
 20
98.2125
  0
SEQEND
  0
POLYLINE
  8
LAYER_2
 40
0.0882
 41
0.0882
 62
251
 66
1
 10
0
 20
0
 30
0
  0
VERTEX
  8
LAYER_2
 10
25.4915
 20
133
  0
VERTEX
  8
LAYER_2
 10
25.4915
 20
103.8673
  0
SEQEND
  0
POLYLINE
  8
LAYER_2
 40
0.05
 41
0.05
 66
1
 10
0
 20
0
 30
0
 70
1
  0
VERTEX
  8
LAYER_2
 10
25.2185
 20
69.0798
  0
VERTEX
  8
LAYER_2
 10
25.7257
 20
69.0798
  0
VERTEX
  8
LAYER_2
 10
25.4917
 20
67.5587
  0
SEQEND
  0
POLYLINE
  8
LAYER_2
 66
1
 10
0
 20
0
 30
0
 70
1
  0
VERTEX
  8
LAYER_2
 10
25.2185
 20
69.0798
  0
VERTEX
  8
LAYER_2
 10
25.7257
 20
69.0798
  0
VERTEX
  8
LAYER_2
 10
25.4917
 20
67.5587
  0
SEQEND
  0
POLYLINE
  8
LAYER_2
 40
0.05
 41
0.05
 66
1
 10
0
 20
0
 30
0
 70
1
  0
VERTEX
  8
LAYER_2
 10
25.2185
 20
133
  0
VERTEX
  8
LAYER_2
 10
25.7257
 20
133
  0
VERTEX
  8
LAYER_2
 10
25.4917
 20
134.5211
  0
SEQEND
  0
POLYLINE
  8
LAYER_2
 66
1
 10
0
 20
0
 30
0
 70
1
  0
VERTEX
  8
LAYER_2
 10
25.2185
 20
133
  0
VERTEX
  8
LAYER_2
 10
25.7257
 20
133
  0
VERTEX
  8
LAYER_2
 10
25.4917
 20
134.5211
  0
SEQEND
  0
TEXT
  8
LAYER_2
 10
26.8106
 20
98.1337
 11
26.8106
 21
98.1337
 40
3.6923
 41
0.5
 50
89.99999999
  1
670
  0
POLYLINE
  8
LAYER_2
 40
0.0882
 41
0.0882
 62
251
 66
1
 10
0
 20
0
 30
0
  0
VERTEX
  8
LAYER_2
 10
27.4415
 20
134.521
  0
VERTEX
  8
LAYER_2
 10
25.3745
 20
134.521
  0
SEQEND
  0
POLYLINE
  8
LAYER_2
 40
0.0882
 41
0.0882
 62
251
 66
1
 10
0
 20
0
 30
0
  0
VERTEX
  8
LAYER_2
 10
25.5305
 20
136.5099
  0
VERTEX
  8
LAYER_2
 10
25.6087
 20
136.5099
  0
SEQEND
  0
POLYLINE
  8
LAYER_2
 40
0.0882
 41
0.0882
 62
251
 66
1
 10
0
 20
0
 30
0
  0
VERTEX
  8
LAYER_2
 10
25.4915
 20
133
  0
VERTEX
  8
LAYER_2
 10
25.4915
 20
131.5179
  0
SEQEND
  0
POLYLINE
  8
LAYER_2
 40
0.0882
 41
0.0882
 62
251
 66
1
 10
0
 20
0
 30
0
  0
VERTEX
  8
LAYER_2
 10
25.4915
 20
138.0309
  0
VERTEX
  8
LAYER_2
 10
25.4915
 20
139.513
  0
SEQEND
  0
TEXT
  8
LAYER_2
 10
24.7043
 20
133.6623
 11
24.7043
 21
133.6623
 40
3.6923
 41
0.5
 50
89.99999999
  1
20
  0
POLYLINE
  8
LAYER_2
 40
0.0882
 41
0.0882
 62
251
 66
1
 10
0
 20
0
 30
0
  0
VERTEX
  8
LAYER_2
 10
25.4915
 20
134.521
  0
VERTEX
  8
LAYER_2
 10
25.4915
 20
136.5098
  0
SEQEND
  0
POLYLINE
  8
LAYER_2
 40
0.05
 41
0.05
 66
1
 10
0
 20
0
 30
0
 70
1
  0
VERTEX
  8
LAYER_2
 10
25.2185
 20
133
  0
VERTEX
  8
LAYER_2
 10
25.7257
 20
133
  0
VERTEX
  8
LAYER_2
 10
25.4917
 20
134.5211
  0
SEQEND
  0
POLYLINE
  8
LAYER_2
 66
1
 10
0
 20
0
 30
0
 70
1
  0
VERTEX
  8
LAYER_2
 10
25.2185
 20
133
  0
VERTEX
  8
LAYER_2
 10
25.7257
 20
133
  0
VERTEX
  8
LAYER_2
 10
25.4917
 20
134.5211
  0
SEQEND
  0
POLYLINE
  8
LAYER_2
 40
0.05
 41
0.05
 66
1
 10
0
 20
0
 30
0
 70
1
  0
VERTEX
  8
LAYER_2
 10
25.2185
 20
138.0309
  0
VERTEX
  8
LAYER_2
 10
25.7257
 20
138.0309
  0
VERTEX
  8
LAYER_2
 10
25.4917
 20
136.5098
  0
SEQEND
  0
POLYLINE
  8
LAYER_2
 66
1
 10
0
 20
0
 30
0
 70
1
  0
VERTEX
  8
LAYER_2
 10
25.2185
 20
138.0309
  0
VERTEX
  8
LAYER_2
 10
25.7257
 20
138.0309
  0
VERTEX
  8
LAYER_2
 10
25.4917
 20
136.5098
  0
SEQEND
  0
POLYLINE
  8
LAYER_2
 40
0.0882
 41
0.0882
 62
251
 66
1
 10
0
 20
0
 30
0
  0
VERTEX
  8
LAYER_2
 10
30.2885
 20
136.5099
  0
VERTEX
  8
LAYER_2
 10
25.3746
 20
136.5099
  0
SEQEND
  0
POLYLINE
  8
LAYER_2
 40
0.0882
 41
0.0882
 62
251
 66
1
 10
0
 20
0
 30
0
  0
VERTEX
  8
LAYER_2
 10
32.8624
 20
156.3607
  0
VERTEX
  8
LAYER_2
 10
25.3744
 20
156.3607
  0
SEQEND
  0
POLYLINE
  8
LAYER_2
 40
0.0882
 41
0.0882
 62
251
 66
1
 10
0
 20
0
 30
0
  0
VERTEX
  8
LAYER_2
 10
25.4915
 20
138.0309
  0
VERTEX
  8
LAYER_2
 10
25.4915
 20
143.6078
  0
SEQEND
  0
POLYLINE
  8
LAYER_2
 40
0.0882
 41
0.0882
 62
251
 66
1
 10
0
 20
0
 30
0
  0
VERTEX
  8
LAYER_2
 10
25.4915
 20
154.8787
  0
VERTEX
  8
LAYER_2
 10
25.4915
 20
149.2626
  0
SEQEND
  0
POLYLINE
  8
LAYER_2
 40
0.05
 41
0.05
 66
1
 10
0
 20
0
 30
0
 70
1
  0
VERTEX
  8
LAYER_2
 10
25.2185
 20
138.0309
  0
VERTEX
  8
LAYER_2
 10
25.7257
 20
138.0309
  0
VERTEX
  8
LAYER_2
 10
25.4917
 20
136.5098
  0
SEQEND
  0
POLYLINE
  8
LAYER_2
 66
1
 10
0
 20
0
 30
0
 70
1
  0
VERTEX
  8
LAYER_2
 10
25.2185
 20
138.0309
  0
VERTEX
  8
LAYER_2
 10
25.7257
 20
138.0309
  0
VERTEX
  8
LAYER_2
 10
25.4917
 20
136.5098
  0
SEQEND
  0
POLYLINE
  8
LAYER_2
 40
0.05
 41
0.05
 66
1
 10
0
 20
0
 30
0
 70
1
  0
VERTEX
  8
LAYER_2
 10
25.2185
 20
154.8787
  0
VERTEX
  8
LAYER_2
 10
25.7257
 20
154.8787
  0
VERTEX
  8
LAYER_2
 10
25.4917
 20
156.3607
  0
SEQEND
  0
POLYLINE
  8
LAYER_2
 66
1
 10
0
 20
0
 30
0
 70
1
  0
VERTEX
  8
LAYER_2
 10
25.2185
 20
154.8787
  0
VERTEX
  8
LAYER_2
 10
25.7257
 20
154.8787
  0
VERTEX
  8
LAYER_2
 10
25.4917
 20
156.3607
  0
SEQEND
  0
TEXT
  8
LAYER_2
 10
26.8102
 20
143.5684
 11
26.8102
 21
143.5684
 40
3.6923
 41
0.5
 50
89.99999999
  1
200
  0
POLYLINE
  8
LAYER_2
 40
0.0882
 41
0.0882
 62
251
 66
1
 10
0
 20
0
 30
0
  0
VERTEX
  8
LAYER_2
 10
31.4584
 20
152.4997
  0
VERTEX
  8
LAYER_2
 10
28.2994
 20
152.4997
  0
SEQEND
  0
POLYLINE
  8
LAYER_2
 40
0.0882
 41
0.0882
 62
251
 66
1
 10
0
 20
0
 30
0
  0
VERTEX
  8
LAYER_2
 10
31.4584
 20
136.5099
  0
VERTEX
  8
LAYER_2
 10
28.2994
 20
136.5099
  0
SEQEND
  0
POLYLINE
  8
LAYER_2
 40
0.0882
 41
0.0882
 62
251
 66
1
 10
0
 20
0
 30
0
  0
VERTEX
  8
LAYER_2
 10
28.4165
 20
151.0177
  0
VERTEX
  8
LAYER_2
 10
28.4165
 20
147.196
  0
SEQEND
  0
POLYLINE
  8
LAYER_2
 40
0.0882
 41
0.0882
 62
251
 66
1
 10
0
 20
0
 30
0
  0
VERTEX
  8
LAYER_2
 10
28.4165
 20
138.0309
  0
VERTEX
  8
LAYER_2
 10
28.4165
 20
141.814
  0
SEQEND
  0
POLYLINE
  8
LAYER_2
 40
0.05
 41
0.05
 66
1
 10
0
 20
0
 30
0
 70
1
  0
VERTEX
  8
LAYER_2
 10
28.1825
 20
151.0177
  0
VERTEX
  8
LAYER_2
 10
28.6506
 20
151.0177
  0
VERTEX
  8
LAYER_2
 10
28.4165
 20
152.4998
  0
SEQEND
  0
POLYLINE
  8
LAYER_2
 66
1
 10
0
 20
0
 30
0
 70
1
  0
VERTEX
  8
LAYER_2
 10
28.1825
 20
151.0177
  0
VERTEX
  8
LAYER_2
 10
28.6506
 20
151.0177
  0
VERTEX
  8
LAYER_2
 10
28.4165
 20
152.4998
  0
SEQEND
  0
POLYLINE
  8
LAYER_2
 40
0.05
 41
0.05
 66
1
 10
0
 20
0
 30
0
 70
1
  0
VERTEX
  8
LAYER_2
 10
28.1825
 20
138.0309
  0
VERTEX
  8
LAYER_2
 10
28.6506
 20
138.0309
  0
VERTEX
  8
LAYER_2
 10
28.4165
 20
136.5098
  0
SEQEND
  0
POLYLINE
  8
LAYER_2
 66
1
 10
0
 20
0
 30
0
 70
1
  0
VERTEX
  8
LAYER_2
 10
28.1825
 20
138.0309
  0
VERTEX
  8
LAYER_2
 10
28.6506
 20
138.0309
  0
VERTEX
  8
LAYER_2
 10
28.4165
 20
136.5098
  0
SEQEND
  0
TEXT
  8
LAYER_2
 10
29.7748
 20
141.502
 11
29.7748
 21
141.502
 40
3.6923
 41
0.5
 50
89.99999999
  1
160
  0
POLYLINE
  8
LAYER_2
 40
0.0882
 41
0.0882
 62
251
 66
1
 10
0
 20
0
 30
0
  0
VERTEX
  8
LAYER_2
 10
63.633
 20
134.2869
  0
VERTEX
  8
LAYER_2
 10
63.633
 20
133.6239
  0
SEQEND
  0
POLYLINE
  8
LAYER_2
 40
0.0882
 41
0.0882
 62
251
 66
1
 10
0
 20
0
 30
0
  0
VERTEX
  8
LAYER_2
 10
63.633
 20
133.2729
  0
VERTEX
  8
LAYER_2
 10
63.633
 20
132.6489
  0
SEQEND
  0
POLYLINE
  8
LAYER_2
 40
0.0882
 41
0.0882
 62
251
 66
1
 10
0
 20
0
 30
0
  0
VERTEX
  8
LAYER_2
 10
63.633
 20
132.337
  0
VERTEX
  8
LAYER_2
 10
63.633
 20
131.713
  0
SEQEND
  0
POLYLINE
  8
LAYER_2
 40
0.0882
 41
0.0882
 62
251
 66
1
 10
0
 20
0
 30
0
  0
VERTEX
  8
LAYER_2
 10
63.633
 20
131.401
  0
VERTEX
  8
LAYER_2
 10
63.633
 20
130.6988
  0
SEQEND
  0
POLYLINE
  8
LAYER_2
 40
0.0882
 41
0.0882
 62
251
 66
1
 10
0
 20
0
 30
0
  0
VERTEX
  8
LAYER_2
 10
59.1481
 20
130.699
  0
VERTEX
  8
LAYER_2
 10
59.1481
 20
131.4011
  0
SEQEND
  0
POLYLINE
  8
LAYER_2
 40
0.0882
 41
0.0882
 62
251
 66
1
 10
0
 20
0
 30
0
  0
VERTEX
  8
LAYER_2
 10
59.1481
 20
131.713
  0
VERTEX
  8
LAYER_2
 10
59.1481
 20
132.337
  0
SEQEND
  0
POLYLINE
  8
LAYER_2
 40
0.0882
 41
0.0882
 62
251
 66
1
 10
0
 20
0
 30
0
  0
VERTEX
  8
LAYER_2
 10
59.1481
 20
132.649
  0
VERTEX
  8
LAYER_2
 10
59.1481
 20
133.273
  0
SEQEND
  0
POLYLINE
  8
LAYER_2
 40
0.0882
 41
0.0882
 62
251
 66
1
 10
0
 20
0
 30
0
  0
VERTEX
  8
LAYER_2
 10
59.1481
 20
133.6239
  0
VERTEX
  8
LAYER_2
 10
59.1481
 20
134.287
  0
VERTEX
  8
LAYER_2
 10
59.109
 20
134.4038
  0
VERTEX
  8
LAYER_2
 10
59.0313
 20
134.5211
  0
SEQEND
  0
POLYLINE
  8
LAYER_2
 40
0.0882
 41
0.0882
 62
251
 66
1
 10
0
 20
0
 30
0
  0
VERTEX
  8
LAYER_2
 10
59.1481
 20
130.777
  0
VERTEX
  8
LAYER_2
 10
59.109
 20
130.7379
  0
VERTEX
  8
LAYER_2
 10
59.109
 20
130.6988
  0
SEQEND
  0
POLYLINE
  8
LAYER_2
 40
0.1305
 41
0.1305
 66
1
 10
0
 20
0
 30
0
  0
VERTEX
  8
LAYER_2
 10
59.1091
 20
130.699
  0
VERTEX
  8
LAYER_2
 10
59.07
 20
130.699
  0
VERTEX
  8
LAYER_2
 10
58.9923
 20
130.699
  0
VERTEX
  8
LAYER_2
 10
58.875
 20
130.699
  0
VERTEX
  8
LAYER_2
 10
58.7582
 20
130.699
  0
VERTEX
  8
LAYER_2
 10
58.641
 20
130.699
  0
VERTEX
  8
LAYER_2
 10
58.5633
 20
130.699
  0
VERTEX
  8
LAYER_2
 10
58.4851
 20
130.699
  0
VERTEX
  8
LAYER_2
 10
58.446
 20
130.699
  0
SEQEND
  0
POLYLINE
  8
LAYER_2
 40
0.1305
 41
0.1305
 62
252
 66
1
 10
0
 20
0
 30
0
  0
VERTEX
  8
LAYER_2
 10
58.4461
 20
130.699
  0
SEQEND
  0
POLYLINE
  8
LAYER_2
 40
0.1305
 41
0.1305
 66
1
 10
0
 20
0
 30
0
  0
VERTEX
  8
LAYER_2
 10
58.4461
 20
130.699
  0
VERTEX
  8
LAYER_2
 10
58.407
 20
130.699
  0
VERTEX
  8
LAYER_2
 10
58.3293
 20
130.7381
  0
VERTEX
  8
LAYER_2
 10
58.2902
 20
130.7771
  0
VERTEX
  8
LAYER_2
 10
58.2511
 20
130.8158
  0
VERTEX
  8
LAYER_2
 10
58.212
 20
130.8549
  0
VERTEX
  8
LAYER_2
 10
58.173
 20
130.894
  0
VERTEX
  8
LAYER_2
 10
58.173
 20
130.933
  0
VERTEX
  8
LAYER_2
 10
58.173
 20
131.0108
  0
VERTEX
  8
LAYER_2
 10
58.173
 20
131.0499
  0
VERTEX
  8
LAYER_2
 10
58.173
 20
131.0889
  0
VERTEX
  8
LAYER_2
 10
58.173
 20
131.128
  0
VERTEX
  8
LAYER_2
 10
58.173
 20
131.2062
  0
VERTEX
  8
LAYER_2
 10
58.173
 20
131.2839
  0
VERTEX
  8
LAYER_2
 10
58.173
 20
131.4011
  0
VERTEX
  8
LAYER_2
 10
58.173
 20
131.518
  0
VERTEX
  8
LAYER_2
 10
58.173
 20
131.752
  0
VERTEX
  8
LAYER_2
 10
58.173
 20
132.0252
  0
VERTEX
  8
LAYER_2
 10
58.173
 20
132.571
  0
VERTEX
  8
LAYER_2
 10
58.173
 20
133.1559
  0
VERTEX
  8
LAYER_2
 10
58.173
 20
133.429
  0
VERTEX
  8
LAYER_2
 10
58.173
 20
133.6631
  0
VERTEX
  8
LAYER_2
 10
58.173
 20
133.7799
  0
VERTEX
  8
LAYER_2
 10
58.173
 20
133.8972
  0
VERTEX
  8
LAYER_2
 10
58.173
 20
133.9749
  0
VERTEX
  8
LAYER_2
 10
58.173
 20
134.053
  0
VERTEX
  8
LAYER_2
 10
58.173
 20
134.0921
  0
VERTEX
  8
LAYER_2
 10
58.173
 20
134.1308
  0
VERTEX
  8
LAYER_2
 10
58.173
 20
134.1699
  0
SEQEND
  0
POLYLINE
  8
LAYER_2
 40
0.0882
 41
0.0882
 62
251
 66
1
 10
0
 20
0
 30
0
  0
VERTEX
  8
LAYER_2
 10
62.9701
 20
130.699
  0
VERTEX
  8
LAYER_2
 10
63.5941
 20
130.699
  0
VERTEX
  8
LAYER_2
 10
64.3349
 20
130.699
  0
VERTEX
  8
LAYER_2
 10
64.413
 20
130.7381
  0
VERTEX
  8
LAYER_2
 10
64.4912
 20
130.7771
  0
VERTEX
  8
LAYER_2
 10
64.5689
 20
130.8158
  0
VERTEX
  8
LAYER_2
 10
64.608
 20
130.894
  0
SEQEND
  0
POLYLINE
  8
LAYER_2
 40
0.0882
 41
0.0882
 62
251
 66
1
 10
0
 20
0
 30
0
  0
VERTEX
  8
LAYER_2
 10
62.6581
 20
130.699
  0
VERTEX
  8
LAYER_2
 10
61.995
 20
130.699
  0
SEQEND
  0
POLYLINE
  8
LAYER_2
 40
0.0882
 41
0.0882
 62
251
 66
1
 10
0
 20
0
 30
0
  0
VERTEX
  8
LAYER_2
 10
61.6831
 20
130.699
  0
VERTEX
  8
LAYER_2
 10
61.059
 20
130.699
  0
SEQEND
  0
POLYLINE
  8
LAYER_2
 40
0.0882
 41
0.0882
 62
251
 66
1
 10
0
 20
0
 30
0
  0
VERTEX
  8
LAYER_2
 10
60.7471
 20
130.699
  0
VERTEX
  8
LAYER_2
 10
60.123
 20
130.699
  0
SEQEND
  0
POLYLINE
  8
LAYER_2
 40
0.0882
 41
0.0882
 62
251
 66
1
 10
0
 20
0
 30
0
  0
VERTEX
  8
LAYER_2
 10
59.7721
 20
130.699
  0
VERTEX
  8
LAYER_2
 10
59.1481
 20
130.699
  0
SEQEND
  0
POLYLINE
  8
LAYER_2
 40
0.0882
 41
0.0882
 62
251
 66
1
 10
0
 20
0
 30
0
  0
VERTEX
  8
LAYER_2
 10
64.608
 20
130.894
  0
VERTEX
  8
LAYER_2
 10
64.5689
 20
130.8158
  0
VERTEX
  8
LAYER_2
 10
64.4912
 20
130.7772
  0
VERTEX
  8
LAYER_2
 10
64.413
 20
130.7381
  0
VERTEX
  8
LAYER_2
 10
64.3349
 20
130.699
  0
VERTEX
  8
LAYER_2
 10
64.413
 20
130.7381
  0
VERTEX
  8
LAYER_2
 10
64.4912
 20
130.7772
  0
VERTEX
  8
LAYER_2
 10
64.5689
 20
130.8158
  0
VERTEX
  8
LAYER_2
 10
64.608
 20
130.894
  0
SEQEND
  0
POLYLINE
  8
LAYER_2
 40
0.0882
 41
0.0882
 62
251
 66
1
 10
0
 20
0
 30
0
  0
VERTEX
  8
LAYER_2
 10
64.335
 20
130.699
  0
VERTEX
  8
LAYER_2
 10
63.5942
 20
130.699
  0
VERTEX
  8
LAYER_2
 10
62.9702
 20
130.699
  0
SEQEND
  0
POLYLINE
  8
LAYER_2
 40
0.0882
 41
0.0882
 62
251
 66
1
 10
0
 20
0
 30
0
  0
VERTEX
  8
LAYER_2
 10
62.6581
 20
130.699
  0
VERTEX
  8
LAYER_2
 10
61.995
 20
130.699
  0
SEQEND
  0
POLYLINE
  8
LAYER_2
 40
0.0882
 41
0.0882
 62
251
 66
1
 10
0
 20
0
 30
0
  0
VERTEX
  8
LAYER_2
 10
61.6831
 20
130.699
  0
VERTEX
  8
LAYER_2
 10
61.059
 20
130.699
  0
SEQEND
  0
POLYLINE
  8
LAYER_2
 40
0.0882
 41
0.0882
 62
251
 66
1
 10
0
 20
0
 30
0
  0
VERTEX
  8
LAYER_2
 10
60.7471
 20
130.699
  0
VERTEX
  8
LAYER_2
 10
60.123
 20
130.699
  0
SEQEND
  0
POLYLINE
  8
LAYER_2
 40
0.0882
 41
0.0882
 62
251
 66
1
 10
0
 20
0
 30
0
  0
VERTEX
  8
LAYER_2
 10
59.7721
 20
130.699
  0
VERTEX
  8
LAYER_2
 10
59.1481
 20
130.699
  0
SEQEND
  0
POLYLINE
  8
LAYER_2
 40
0.0882
 41
0.0882
 62
251
 66
1
 10
0
 20
0
 30
0
  0
VERTEX
  8
LAYER_2
 10
64.608
 20
130.894
  0
VERTEX
  8
LAYER_2
 10
64.5689
 20
130.8158
  0
VERTEX
  8
LAYER_2
 10
64.4912
 20
130.7772
  0
VERTEX
  8
LAYER_2
 10
64.413
 20
130.7381
  0
VERTEX
  8
LAYER_2
 10
64.3349
 20
130.699
  0
SEQEND
  0
POLYLINE
  8
LAYER_2
 40
0.1305
 41
0.1305
 66
1
 10
0
 20
0
 30
0
  0
VERTEX
  8
LAYER_2
 10
59.1091
 20
130.699
  0
VERTEX
  8
LAYER_2
 10
63.5939
 20
130.699
  0
VERTEX
  8
LAYER_2
 10
64.3352
 20
130.699
  0
VERTEX
  8
LAYER_2
 10
64.4129
 20
130.7381
  0
VERTEX
  8
LAYER_2
 10
64.4911
 20
130.7771
  0
VERTEX
  8
LAYER_2
 10
64.5692
 20
130.8158
  0
VERTEX
  8
LAYER_2
 10
64.6079
 20
130.894
  0
VERTEX
  8
LAYER_2
 10
64.686
 20
134.3648
  0
SEQEND
  0
POLYLINE
  8
LAYER_2
 40
0.1305
 41
0.1305
 66
1
 10
0
 20
0
 30
0
  0
VERTEX
  8
LAYER_2
 10
66.441
 20
67.5588
  0
VERTEX
  8
LAYER_2
 10
69.6778
 20
67.5588
  0
SEQEND
  0
POLYLINE
  8
LAYER_2
 40
0.1305
 41
0.1305
 66
1
 10
0
 20
0
 30
0
  0
VERTEX
  8
LAYER_2
 10
61.449
 20
67.5588
  0
VERTEX
  8
LAYER_2
 10
66.0511
 20
67.5588
  0
SEQEND
  0
POLYLINE
  8
LAYER_2
 40
0.1305
 41
0.1305
 66
1
 10
0
 20
0
 30
0
  0
VERTEX
  8
LAYER_2
 10
51.1142
 20
132.61
  0
VERTEX
  8
LAYER_2
 10
45.9663
 20
132.61
  0
SEQEND
  0
POLYLINE
  8
LAYER_2
 40
0.1305
 41
0.1305
 66
1
 10
0
 20
0
 30
0
  0
VERTEX
  8
LAYER_2
 10
51.1142
 20
67.5588
  0
VERTEX
  8
LAYER_2
 10
45.9663
 20
67.5588
  0
SEQEND
  0
POLYLINE
  8
LAYER_2
 40
0.1305
 41
0.1305
 66
1
 10
0
 20
0
 30
0
  0
VERTEX
  8
LAYER_2
 10
46.0833
 20
131.089
  0
VERTEX
  8
LAYER_2
 10
46.0833
 20
115.9961
  0
SEQEND
  0
POLYLINE
  8
LAYER_2
 40
0.1305
 41
0.1305
 66
1
 10
0
 20
0
 30
0
  0
VERTEX
  8
LAYER_2
 10
46.0833
 20
69.0798
  0
VERTEX
  8
LAYER_2
 10
46.0833
 20
109.0155
  0
SEQEND
  0
TEXT
  8
LAYER_2
 10
47.4412
 20
109.0583
 11
47.4412
 21
109.0583
 40
3.6923
 41
0.5
 50
89.99999999
  1
650
  0
POLYLINE
  8
LAYER_2
 40
0.05
 41
0.05
 66
1
 10
0
 20
0
 30
0
 70
1
  0
VERTEX
  8
LAYER_2
 10
45.8493
 20
131.089
  0
VERTEX
  8
LAYER_2
 10
46.3174
 20
131.089
  0
VERTEX
  8
LAYER_2
 10
46.0833
 20
132.6101
  0
SEQEND
  0
POLYLINE
  8
LAYER_2
 66
1
 10
0
 20
0
 30
0
 70
1
  0
VERTEX
  8
LAYER_2
 10
45.8493
 20
131.089
  0
VERTEX
  8
LAYER_2
 10
46.3174
 20
131.089
  0
VERTEX
  8
LAYER_2
 10
46.0833
 20
132.6101
  0
SEQEND
  0
POLYLINE
  8
LAYER_2
 40
0.05
 41
0.05
 66
1
 10
0
 20
0
 30
0
 70
1
  0
VERTEX
  8
LAYER_2
 10
45.8493
 20
69.0798
  0
VERTEX
  8
LAYER_2
 10
46.3174
 20
69.0798
  0
VERTEX
  8
LAYER_2
 10
46.0833
 20
67.5587
  0
SEQEND
  0
POLYLINE
  8
LAYER_2
 66
1
 10
0
 20
0
 30
0
 70
1
  0
VERTEX
  8
LAYER_2
 10
45.8493
 20
69.0798
  0
VERTEX
  8
LAYER_2
 10
46.3174
 20
69.0798
  0
VERTEX
  8
LAYER_2
 10
46.0833
 20
67.5587
  0
SEQEND
  0
POLYLINE
  8
LAYER_2
 40
0.0882
 41
0.0882
 62
251
 66
1
 10
0
 20
0
 30
0
  0
VERTEX
  8
LAYER_2
 10
90.5817
 20
99.6554
  0
VERTEX
  8
LAYER_2
 10
90.6208
 20
99.6554
  0
SEQEND
  0
POLYLINE
  8
LAYER_2
 40
0.0882
 41
0.0882
 62
251
 66
1
 10
0
 20
0
 30
0
  0
VERTEX
  8
LAYER_2
 10
90.5817
 20
67.5588
  0
VERTEX
  8
LAYER_2
 10
90.6208
 20
67.5588
  0
SEQEND
  0
POLYLINE
  8
LAYER_2
 40
0.0882
 41
0.0882
 62
251
 66
1
 10
0
 20
0
 30
0
  0
VERTEX
  8
LAYER_2
 10
90.5036
 20
98.1734
  0
VERTEX
  8
LAYER_2
 10
90.5036
 20
86.4346
  0
SEQEND
  0
POLYLINE
  8
LAYER_2
 40
0.0882
 41
0.0882
 62
251
 66
1
 10
0
 20
0
 30
0
  0
VERTEX
  8
LAYER_2
 10
90.5036
 20
69.0798
  0
VERTEX
  8
LAYER_2
 10
90.5036
 20
80.7795
  0
SEQEND
  0
POLYLINE
  8
LAYER_2
 40
0.05
 41
0.05
 66
1
 10
0
 20
0
 30
0
 70
1
  0
VERTEX
  8
LAYER_2
 10
90.2697
 20
98.1734
  0
VERTEX
  8
LAYER_2
 10
90.7378
 20
98.1734
  0
VERTEX
  8
LAYER_2
 10
90.5037
 20
99.6555
  0
SEQEND
  0
POLYLINE
  8
LAYER_2
 66
1
 10
0
 20
0
 30
0
 70
1
  0
VERTEX
  8
LAYER_2
 10
90.2697
 20
98.1734
  0
VERTEX
  8
LAYER_2
 10
90.7378
 20
98.1734
  0
VERTEX
  8
LAYER_2
 10
90.5037
 20
99.6555
  0
SEQEND
  0
POLYLINE
  8
LAYER_2
 40
0.05
 41
0.05
 66
1
 10
0
 20
0
 30
0
 70
1
  0
VERTEX
  8
LAYER_2
 10
90.2697
 20
69.0798
  0
VERTEX
  8
LAYER_2
 10
90.7378
 20
69.0798
  0
VERTEX
  8
LAYER_2
 10
90.5037
 20
67.5587
  0
SEQEND
  0
POLYLINE
  8
LAYER_2
 66
1
 10
0
 20
0
 30
0
 70
1
  0
VERTEX
  8
LAYER_2
 10
90.2697
 20
69.0798
  0
VERTEX
  8
LAYER_2
 10
90.7378
 20
69.0798
  0
VERTEX
  8
LAYER_2
 10
90.5037
 20
67.5587
  0
SEQEND
  0
TEXT
  8
LAYER_2
 10
91.8612
 20
80.7009
 11
91.8612
 21
80.7009
 40
3.6923
 41
0.5
 50
89.99999999
  1
320
  0
POLYLINE
  8
LAYER_2
 40
0.0882
 41
0.0882
 62
251
 66
1
 10
0
 20
0
 30
0
  0
VERTEX
  8
LAYER_2
 10
25.2965
 20
156.3607
  0
VERTEX
  8
LAYER_2
 10
21.0458
 20
156.3607
  0
SEQEND
  0
POLYLINE
  8
LAYER_2
 40
0.0882
 41
0.0882
 62
251
 66
1
 10
0
 20
0
 30
0
  0
VERTEX
  8
LAYER_2
 10
24.5166
 20
67.5588
  0
VERTEX
  8
LAYER_2
 10
21.0457
 20
67.5588
  0
SEQEND
  0
POLYLINE
  8
LAYER_2
 40
0.0882
 41
0.0882
 62
251
 66
1
 10
0
 20
0
 30
0
  0
VERTEX
  8
LAYER_2
 10
21.1626
 20
154.8787
  0
VERTEX
  8
LAYER_2
 10
21.1626
 20
114.7871
  0
SEQEND
  0
POLYLINE
  8
LAYER_2
 40
0.0882
 41
0.0882
 62
251
 66
1
 10
0
 20
0
 30
0
  0
VERTEX
  8
LAYER_2
 10
21.1626
 20
69.0798
  0
VERTEX
  8
LAYER_2
 10
21.1626
 20
109.1323
  0
SEQEND
  0
POLYLINE
  8
LAYER_2
 40
0.05
 41
0.05
 66
1
 10
0
 20
0
 30
0
 70
1
  0
VERTEX
  8
LAYER_2
 10
20.9286
 20
154.8787
  0
VERTEX
  8
LAYER_2
 10
21.3967
 20
154.8787
  0
VERTEX
  8
LAYER_2
 10
21.1626
 20
156.3607
  0
SEQEND
  0
POLYLINE
  8
LAYER_2
 66
1
 10
0
 20
0
 30
0
 70
1
  0
VERTEX
  8
LAYER_2
 10
20.9286
 20
154.8787
  0
VERTEX
  8
LAYER_2
 10
21.3967
 20
154.8787
  0
VERTEX
  8
LAYER_2
 10
21.1626
 20
156.3607
  0
SEQEND
  0
POLYLINE
  8
LAYER_2
 40
0.05
 41
0.05
 66
1
 10
0
 20
0
 30
0
 70
1
  0
VERTEX
  8
LAYER_2
 10
20.9286
 20
69.0798
  0
VERTEX
  8
LAYER_2
 10
21.3967
 20
69.0798
  0
VERTEX
  8
LAYER_2
 10
21.1626
 20
67.5587
  0
SEQEND
  0
POLYLINE
  8
LAYER_2
 66
1
 10
0
 20
0
 30
0
 70
1
  0
VERTEX
  8
LAYER_2
 10
20.9286
 20
69.0798
  0
VERTEX
  8
LAYER_2
 10
21.3967
 20
69.0798
  0
VERTEX
  8
LAYER_2
 10
21.1626
 20
67.5587
  0
SEQEND
  0
TEXT
  8
LAYER_2
 10
22.5204
 20
109.0533
 11
22.5204
 21
109.0533
 40
3.6923
 41
0.5
 50
89.99999999
  1
890
  0
POLYLINE
  8
LAYER_2
 40
0.0882
 41
0.0882
 62
251
 66
1
 10
0
 20
0
 30
0
  0
VERTEX
  8
LAYER_2
 10
119.0903
 20
152.4997
  0
VERTEX
  8
LAYER_2
 10
117.3742
 20
152.4997
  0
SEQEND
  0
POLYLINE
  8
LAYER_2
 40
0.0882
 41
0.0882
 62
251
 66
1
 10
0
 20
0
 30
0
  0
VERTEX
  8
LAYER_2
 10
119.0903
 20
156.5166
  0
VERTEX
  8
LAYER_2
 10
117.3742
 20
156.5166
  0
SEQEND
  0
POLYLINE
  8
LAYER_2
 40
0.0882
 41
0.0882
 62
251
 66
1
 10
0
 20
0
 30
0
  0
VERTEX
  8
LAYER_2
 10
117.4913
 20
151.0177
  0
VERTEX
  8
LAYER_2
 10
117.4913
 20
149.4966
  0
SEQEND
  0
POLYLINE
  8
LAYER_2
 40
0.0882
 41
0.0882
 62
251
 66
1
 10
0
 20
0
 30
0
  0
VERTEX
  8
LAYER_2
 10
117.4913
 20
157.9986
  0
VERTEX
  8
LAYER_2
 10
117.4913
 20
159.5197
  0
SEQEND
  0
POLYLINE
  8
LAYER_2
 40
0.0882
 41
0.0882
 62
251
 66
1
 10
0
 20
0
 30
0
  0
VERTEX
  8
LAYER_2
 10
117.4913
 20
152.4997
  0
VERTEX
  8
LAYER_2
 10
117.4913
 20
152.6165
  0
SEQEND
  0
POLYLINE
  8
LAYER_2
 40
0.0882
 41
0.0882
 62
251
 66
1
 10
0
 20
0
 30
0
  0
VERTEX
  8
LAYER_2
 10
117.4913
 20
156.5166
  0
VERTEX
  8
LAYER_2
 10
117.4913
 20
156.3998
  0
SEQEND
  0
POLYLINE
  8
LAYER_2
 40
0.05
 41
0.05
 66
1
 10
0
 20
0
 30
0
 70
1
  0
VERTEX
  8
LAYER_2
 10
117.2183
 20
151.0177
  0
VERTEX
  8
LAYER_2
 10
117.7255
 20
151.0177
  0
VERTEX
  8
LAYER_2
 10
117.4914
 20
152.4998
  0
SEQEND
  0
POLYLINE
  8
LAYER_2
 66
1
 10
0
 20
0
 30
0
 70
1
  0
VERTEX
  8
LAYER_2
 10
117.2183
 20
151.0177
  0
VERTEX
  8
LAYER_2
 10
117.7255
 20
151.0177
  0
VERTEX
  8
LAYER_2
 10
117.4914
 20
152.4998
  0
SEQEND
  0
POLYLINE
  8
LAYER_2
 40
0.05
 41
0.05
 66
1
 10
0
 20
0
 30
0
 70
1
  0
VERTEX
  8
LAYER_2
 10
117.2183
 20
157.9986
  0
VERTEX
  8
LAYER_2
 10
117.7255
 20
157.9986
  0
VERTEX
  8
LAYER_2
 10
117.4914
 20
156.5166
  0
SEQEND
  0
POLYLINE
  8
LAYER_2
 66
1
 10
0
 20
0
 30
0
 70
1
  0
VERTEX
  8
LAYER_2
 10
117.2183
 20
157.9986
  0
VERTEX
  8
LAYER_2
 10
117.7255
 20
157.9986
  0
VERTEX
  8
LAYER_2
 10
117.4914
 20
156.5166
  0
SEQEND
  0
TEXT
  8
LAYER_2
 10
118.8101
 20
152.6159
 11
118.8101
 21
152.6159
 40
3.6923
 41
0.5
 50
89.99999999
  1
40
  0
POLYLINE
  8
LAYER_2
 40
0.0882
 41
0.0882
 62
251
 66
1
 10
0
 20
0
 30
0
  0
VERTEX
  8
LAYER_2
 10
122.3663
 20
136.4319
  0
VERTEX
  8
LAYER_2
 10
122.3663
 20
126.9551
  0
SEQEND
  0
POLYLINE
  8
LAYER_2
 40
0.0882
 41
0.0882
 62
251
 66
1
 10
0
 20
0
 30
0
  0
VERTEX
  8
LAYER_2
 10
30.3665
 20
136.4319
  0
VERTEX
  8
LAYER_2
 10
30.3665
 20
126.9551
  0
SEQEND
  0
POLYLINE
  8
LAYER_2
 40
0.0882
 41
0.0882
 62
251
 66
1
 10
0
 20
0
 30
0
  0
VERTEX
  8
LAYER_2
 10
120.8452
 20
127.0721
  0
VERTEX
  8
LAYER_2
 10
79.1939
 20
127.0721
  0
SEQEND
  0
POLYLINE
  8
LAYER_2
 40
0.0882
 41
0.0882
 62
251
 66
1
 10
0
 20
0
 30
0
  0
VERTEX
  8
LAYER_2
 10
31.8874
 20
127.0721
  0
VERTEX
  8
LAYER_2
 10
73.5388
 20
127.0721
  0
SEQEND
  0
POLYLINE
  8
LAYER_2
 40
0.05
 41
0.05
 66
1
 10
0
 20
0
 30
0
 70
1
  0
VERTEX
  8
LAYER_2
 10
120.8452
 20
127.306
  0
VERTEX
  8
LAYER_2
 10
120.8452
 20
126.7988
  0
VERTEX
  8
LAYER_2
 10
122.3664
 20
127.072
  0
SEQEND
  0
POLYLINE
  8
LAYER_2
 66
1
 10
0
 20
0
 30
0
 70
1
  0
VERTEX
  8
LAYER_2
 10
120.8452
 20
127.306
  0
VERTEX
  8
LAYER_2
 10
120.8452
 20
126.7988
  0
VERTEX
  8
LAYER_2
 10
122.3664
 20
127.072
  0
SEQEND
  0
POLYLINE
  8
LAYER_2
 40
0.05
 41
0.05
 66
1
 10
0
 20
0
 30
0
 70
1
  0
VERTEX
  8
LAYER_2
 10
31.8874
 20
127.306
  0
VERTEX
  8
LAYER_2
 10
31.8874
 20
126.7988
  0
VERTEX
  8
LAYER_2
 10
30.3663
 20
127.072
  0
SEQEND
  0
POLYLINE
  8
LAYER_2
 66
1
 10
0
 20
0
 30
0
 70
1
  0
VERTEX
  8
LAYER_2
 10
31.8874
 20
127.306
  0
VERTEX
  8
LAYER_2
 10
31.8874
 20
126.7988
  0
VERTEX
  8
LAYER_2
 10
30.3663
 20
127.072
  0
SEQEND
  0
TEXT
  8
LAYER_2
 10
73.4606
 20
125.7141
 11
73.4606
 21
125.7141
 40
3.6923
 41
0.5
  1
920
  0
POLYLINE
  8
LAYER_2
 40
0.0882
 41
0.0882
 62
251
 66
1
 10
0
 20
0
 30
0
  0
VERTEX
  8
LAYER_2
 10
158.4798
 20
134.0139
  0
VERTEX
  8
LAYER_2
 10
158.4798
 20
129.8409
  0
SEQEND
  0
POLYLINE
  8
LAYER_2
 40
0.0882
 41
0.0882
 62
251
 66
1
 10
0
 20
0
 30
0
  0
VERTEX
  8
LAYER_2
 10
184.1804
 20
130.66
  0
VERTEX
  8
LAYER_2
 10
184.1804
 20
129.841
  0
SEQEND
  0
POLYLINE
  8
LAYER_2
 40
0.0882
 41
0.0882
 62
251
 66
1
 10
0
 20
0
 30
0
  0
VERTEX
  8
LAYER_2
 10
159.9617
 20
129.997
  0
VERTEX
  8
LAYER_2
 10
168.4637
 20
129.997
  0
SEQEND
  0
POLYLINE
  8
LAYER_2
 40
0.0882
 41
0.0882
 62
251
 66
1
 10
0
 20
0
 30
0
  0
VERTEX
  8
LAYER_2
 10
182.6594
 20
129.997
  0
VERTEX
  8
LAYER_2
 10
174.1965
 20
129.997
  0
SEQEND
  0
POLYLINE
  8
LAYER_2
 40
0.05
 41
0.05
 66
1
 10
0
 20
0
 30
0
 70
1
  0
VERTEX
  8
LAYER_2
 10
159.9617
 20
130.231
  0
VERTEX
  8
LAYER_2
 10
159.9617
 20
129.7238
  0
VERTEX
  8
LAYER_2
 10
158.4797
 20
129.997
  0
SEQEND
  0
POLYLINE
  8
LAYER_2
 66
1
 10
0
 20
0
 30
0
 70
1
  0
VERTEX
  8
LAYER_2
 10
159.9617
 20
130.231
  0
VERTEX
  8
LAYER_2
 10
159.9617
 20
129.7238
  0
VERTEX
  8
LAYER_2
 10
158.4797
 20
129.997
  0
SEQEND
  0
POLYLINE
  8
LAYER_2
 40
0.05
 41
0.05
 66
1
 10
0
 20
0
 30
0
 70
1
  0
VERTEX
  8
LAYER_2
 10
182.6594
 20
130.231
  0
VERTEX
  8
LAYER_2
 10
182.6594
 20
129.7238
  0
VERTEX
  8
LAYER_2
 10
184.1806
 20
129.997
  0
SEQEND
  0
TEXT
  8
LAYER_2
 10
168.4243
 20
128.6394
 11
168.4243
 21
128.6394
 40
3.6923
 41
0.5
  1
255
  0
POLYLINE
  8
LAYER_2
 40
0.0882
 41
0.0882
 62
251
 66
1
 10
0
 20
0
 30
0
  0
VERTEX
  8
LAYER_2
 10
134.4171
 20
152.4997
  0
VERTEX
  8
LAYER_2
 10
131.882
 20
152.4997
  0
SEQEND
  0
POLYLINE
  8
LAYER_2
 40
0.0882
 41
0.0882
 62
251
 66
1
 10
0
 20
0
 30
0
  0
VERTEX
  8
LAYER_2
 10
133.1301
 20
136.5099
  0
VERTEX
  8
LAYER_2
 10
131.8821
 20
136.5099
  0
SEQEND
  0
POLYLINE
  8
LAYER_2
 40
0.0882
 41
0.0882
 62
251
 66
1
 10
0
 20
0
 30
0
  0
VERTEX
  8
LAYER_2
 10
131.9991
 20
151.0177
  0
VERTEX
  8
LAYER_2
 10
131.9991
 20
147.2347
  0
SEQEND
  0
POLYLINE
  8
LAYER_2
 40
0.0882
 41
0.0882
 62
251
 66
1
 10
0
 20
0
 30
0
  0
VERTEX
  8
LAYER_2
 10
131.9991
 20
138.0309
  0
VERTEX
  8
LAYER_2
 10
131.9991
 20
141.814
  0
SEQEND
  0
POLYLINE
  8
LAYER_2
 40
0.05
 41
0.05
 66
1
 10
0
 20
0
 30
0
 70
1
  0
VERTEX
  8
LAYER_2
 10
131.7651
 20
151.0177
  0
VERTEX
  8
LAYER_2
 10
132.2723
 20
151.0177
  0
VERTEX
  8
LAYER_2
 10
131.9991
 20
152.4998
  0
SEQEND
  0
POLYLINE
  8
LAYER_2
 66
1
 10
0
 20
0
 30
0
 70
1
  0
VERTEX
  8
LAYER_2
 10
131.7651
 20
151.0177
  0
VERTEX
  8
LAYER_2
 10
132.2723
 20
151.0177
  0
VERTEX
  8
LAYER_2
 10
131.9991
 20
152.4998
  0
SEQEND
  0
POLYLINE
  8
LAYER_2
 40
0.05
 41
0.05
 66
1
 10
0
 20
0
 30
0
 70
1
  0
VERTEX
  8
LAYER_2
 10
131.7651
 20
138.0309
  0
VERTEX
  8
LAYER_2
 10
132.2723
 20
138.0309
  0
VERTEX
  8
LAYER_2
 10
131.9991
 20
136.5098
  0
SEQEND
  0
POLYLINE
  8
LAYER_2
 66
1
 10
0
 20
0
 30
0
 70
1
  0
VERTEX
  8
LAYER_2
 10
131.7651
 20
138.0309
  0
VERTEX
  8
LAYER_2
 10
132.2723
 20
138.0309
  0
VERTEX
  8
LAYER_2
 10
131.9991
 20
136.5098
  0
SEQEND
  0
TEXT
  8
LAYER_2
 10
133.3571
 20
141.5016
 11
133.3571
 21
141.5016
 40
3.6923
 41
0.5
 50
89.99999999
  1
160
  0
POLYLINE
  8
LAYER_2
 40
0.0882
 41
0.0882
 62
251
 66
1
 10
0
 20
0
 30
0
  0
VERTEX
  8
LAYER_2
 10
133.2081
 20
136.5099
  0
VERTEX
  8
LAYER_2
 10
129.7372
 20
136.5099
  0
SEQEND
  0
POLYLINE
  8
LAYER_2
 40
0.0882
 41
0.0882
 62
251
 66
1
 10
0
 20
0
 30
0
  0
VERTEX
  8
LAYER_2
 10
133.2081
 20
134.521
  0
VERTEX
  8
LAYER_2
 10
129.7372
 20
134.521
  0
SEQEND
  0
POLYLINE
  8
LAYER_2
 40
0.0882
 41
0.0882
 62
251
 66
1
 10
0
 20
0
 30
0
  0
VERTEX
  8
LAYER_2
 10
129.8542
 20
138.0309
  0
VERTEX
  8
LAYER_2
 10
129.8542
 20
139.513
  0
SEQEND
  0
POLYLINE
  8
LAYER_2
 40
0.0882
 41
0.0882
 62
251
 66
1
 10
0
 20
0
 30
0
  0
VERTEX
  8
LAYER_2
 10
129.8542
 20
133
  0
VERTEX
  8
LAYER_2
 10
129.8542
 20
131.5179
  0
SEQEND
  0
POLYLINE
  8
LAYER_2
 40
0.0882
 41
0.0882
 62
251
 66
1
 10
0
 20
0
 30
0
  0
VERTEX
  8
LAYER_2
 10
129.8542
 20
136.5099
  0
VERTEX
  8
LAYER_2
 10
129.8542
 20
134.5211
  0
SEQEND
  0
POLYLINE
  8
LAYER_2
 40
0.05
 41
0.05
 66
1
 10
0
 20
0
 30
0
 70
1
  0
VERTEX
  8
LAYER_2
 10
129.6201
 20
138.0309
  0
VERTEX
  8
LAYER_2
 10
130.1273
 20
138.0309
  0
VERTEX
  8
LAYER_2
 10
129.8542
 20
136.5098
  0
SEQEND
  0
POLYLINE
  8
LAYER_2
 66
1
 10
0
 20
0
 30
0
 70
1
  0
VERTEX
  8
LAYER_2
 10
129.6201
 20
138.0309
  0
VERTEX
  8
LAYER_2
 10
130.1273
 20
138.0309
  0
VERTEX
  8
LAYER_2
 10
129.8542
 20
136.5098
  0
SEQEND
  0
POLYLINE
  8
LAYER_2
 40
0.05
 41
0.05
 66
1
 10
0
 20
0
 30
0
 70
1
  0
VERTEX
  8
LAYER_2
 10
129.6201
 20
133
  0
VERTEX
  8
LAYER_2
 10
130.1273
 20
133
  0
VERTEX
  8
LAYER_2
 10
129.8542
 20
134.5211
  0
SEQEND
  0
POLYLINE
  8
LAYER_2
 66
1
 10
0
 20
0
 30
0
 70
1
  0
VERTEX
  8
LAYER_2
 10
129.6201
 20
133
  0
VERTEX
  8
LAYER_2
 10
130.1273
 20
133
  0
VERTEX
  8
LAYER_2
 10
129.8542
 20
134.5211
  0
SEQEND
  0
TEXT
  8
LAYER_2
 10
131.2118
 20
133.6231
 11
131.2118
 21
133.6231
 40
3.6923
 41
0.5
 50
89.99999999
  1
20
  0
POLYLINE
  8
LAYER_2
 40
0.0882
 41
0.0882
 62
251
 66
1
 10
0
 20
0
 30
0
  0
VERTEX
  8
LAYER_2
 10
133.1301
 20
134.521
  0
VERTEX
  8
LAYER_2
 10
131.8821
 20
134.521
  0
SEQEND
  0
POLYLINE
  8
LAYER_2
 40
0.0882
 41
0.0882
 62
251
 66
1
 10
0
 20
0
 30
0
  0
VERTEX
  8
LAYER_2
 10
132.0771
 20
67.5588
  0
VERTEX
  8
LAYER_2
 10
131.8821
 20
67.5588
  0
SEQEND
  0
POLYLINE
  8
LAYER_2
 40
0.0882
 41
0.0882
 62
251
 66
1
 10
0
 20
0
 30
0
  0
VERTEX
  8
LAYER_2
 10
131.9991
 20
133
  0
VERTEX
  8
LAYER_2
 10
131.9991
 20
103.8673
  0
SEQEND
  0
POLYLINE
  8
LAYER_2
 40
0.0882
 41
0.0882
 62
251
 66
1
 10
0
 20
0
 30
0
  0
VERTEX
  8
LAYER_2
 10
131.9991
 20
69.0798
  0
VERTEX
  8
LAYER_2
 10
131.9991
 20
98.2125
  0
SEQEND
  0
POLYLINE
  8
LAYER_2
 40
0.05
 41
0.05
 66
1
 10
0
 20
0
 30
0
 70
1
  0
VERTEX
  8
LAYER_2
 10
131.7651
 20
133
  0
VERTEX
  8
LAYER_2
 10
132.2723
 20
133
  0
VERTEX
  8
LAYER_2
 10
131.9991
 20
134.5211
  0
SEQEND
  0
POLYLINE
  8
LAYER_2
 66
1
 10
0
 20
0
 30
0
 70
1
  0
VERTEX
  8
LAYER_2
 10
131.7651
 20
133
  0
VERTEX
  8
LAYER_2
 10
132.2723
 20
133
  0
VERTEX
  8
LAYER_2
 10
131.9991
 20
134.5211
  0
SEQEND
  0
POLYLINE
  8
LAYER_2
 40
0.05
 41
0.05
 66
1
 10
0
 20
0
 30
0
 70
1
  0
VERTEX
  8
LAYER_2
 10
131.7651
 20
69.0798
  0
VERTEX
  8
LAYER_2
 10
132.2723
 20
69.0798
  0
VERTEX
  8
LAYER_2
 10
131.9991
 20
67.5587
  0
SEQEND
  0
POLYLINE
  8
LAYER_2
 66
1
 10
0
 20
0
 30
0
 70
1
  0
VERTEX
  8
LAYER_2
 10
131.7651
 20
69.0798
  0
VERTEX
  8
LAYER_2
 10
132.2723
 20
69.0798
  0
VERTEX
  8
LAYER_2
 10
131.9991
 20
67.5587
  0
SEQEND
  0
TEXT
  8
LAYER_2
 10
133.3571
 20
98.1341
 11
133.3571
 21
98.1341
 40
3.6923
 41
0.5
 50
89.99999999
  1
670
  0
POLYLINE
  8
LAYER_2
 40
0.0882
 41
0.0882
 62
251
 66
1
 10
0
 20
0
 30
0
  0
VERTEX
  8
LAYER_2
 10
131.7651
 20
152.4997
  0
VERTEX
  8
LAYER_2
 10
128.0211
 20
152.4997
  0
SEQEND
  0
POLYLINE
  8
LAYER_2
 40
0.0882
 41
0.0882
 62
251
 66
1
 10
0
 20
0
 30
0
  0
VERTEX
  8
LAYER_2
 10
134.2221
 20
67.5588
  0
VERTEX
  8
LAYER_2
 10
128.0211
 20
67.5588
  0
SEQEND
  0
POLYLINE
  8
LAYER_2
 40
0.0882
 41
0.0882
 62
251
 66
1
 10
0
 20
0
 30
0
  0
VERTEX
  8
LAYER_2
 10
128.1772
 20
151.0177
  0
VERTEX
  8
LAYER_2
 10
128.1772
 20
112.8763
  0
SEQEND
  0
POLYLINE
  8
LAYER_2
 40
0.0882
 41
0.0882
 62
251
 66
1
 10
0
 20
0
 30
0
  0
VERTEX
  8
LAYER_2
 10
128.1772
 20
69.0798
  0
VERTEX
  8
LAYER_2
 10
128.1772
 20
107.2212
  0
SEQEND
  0
POLYLINE
  8
LAYER_2
 40
0.05
 41
0.05
 66
1
 10
0
 20
0
 30
0
 70
1
  0
VERTEX
  8
LAYER_2
 10
127.9042
 20
151.0177
  0
VERTEX
  8
LAYER_2
 10
128.4113
 20
151.0177
  0
VERTEX
  8
LAYER_2
 10
128.1773
 20
152.4998
  0
SEQEND
  0
POLYLINE
  8
LAYER_2
 66
1
 10
0
 20
0
 30
0
 70
1
  0
VERTEX
  8
LAYER_2
 10
127.9042
 20
151.0177
  0
VERTEX
  8
LAYER_2
 10
128.4113
 20
151.0177
  0
VERTEX
  8
LAYER_2
 10
128.1773
 20
152.4998
  0
SEQEND
  0
POLYLINE
  8
LAYER_2
 40
0.05
 41
0.05
 66
1
 10
0
 20
0
 30
0
 70
1
  0
VERTEX
  8
LAYER_2
 10
127.9042
 20
69.0798
  0
VERTEX
  8
LAYER_2
 10
128.4113
 20
69.0798
  0
VERTEX
  8
LAYER_2
 10
128.1773
 20
67.5587
  0
SEQEND
  0
POLYLINE
  8
LAYER_2
 66
1
 10
0
 20
0
 30
0
 70
1
  0
VERTEX
  8
LAYER_2
 10
127.9042
 20
69.0798
  0
VERTEX
  8
LAYER_2
 10
128.4113
 20
69.0798
  0
VERTEX
  8
LAYER_2
 10
128.1773
 20
67.5587
  0
SEQEND
  0
TEXT
  8
LAYER_2
 10
129.4961
 20
107.1427
 11
129.4961
 21
107.1427
 40
3.6923
 41
0.5
 50
89.99999999
  1
850
  0
POLYLINE
  8
LAYER_2
 40
0.0882
 41
0.0882
 62
251
 66
1
 10
0
 20
0
 30
0
  0
VERTEX
  8
LAYER_2
 10
184.2194
 20
156.5556
  0
VERTEX
  8
LAYER_2
 10
194.6711
 20
156.5556
  0
SEQEND
  0
POLYLINE
  8
LAYER_2
 40
0.0882
 41
0.0882
 62
251
 66
1
 10
0
 20
0
 30
0
  0
VERTEX
  8
LAYER_2
 10
184.2194
 20
67.5588
  0
VERTEX
  8
LAYER_2
 10
194.6711
 20
67.5588
  0
SEQEND
  0
POLYLINE
  8
LAYER_2
 40
0.0882
 41
0.0882
 62
251
 66
1
 10
0
 20
0
 30
0
  0
VERTEX
  8
LAYER_2
 10
194.5543
 20
155.0737
  0
VERTEX
  8
LAYER_2
 10
194.5543
 20
114.9044
  0
SEQEND
  0
POLYLINE
  8
LAYER_2
 40
0.0882
 41
0.0882
 62
251
 66
1
 10
0
 20
0
 30
0
  0
VERTEX
  8
LAYER_2
 10
194.5543
 20
69.0798
  0
VERTEX
  8
LAYER_2
 10
194.5543
 20
109.2491
  0
SEQEND
  0
POLYLINE
  8
LAYER_2
 40
0.05
 41
0.05
 66
1
 10
0
 20
0
 30
0
 70
1
  0
VERTEX
  8
LAYER_2
 10
194.2813
 20
155.0737
  0
VERTEX
  8
LAYER_2
 10
194.7885
 20
155.0737
  0
VERTEX
  8
LAYER_2
 10
194.5544
 20
156.5557
  0
SEQEND
  0
POLYLINE
  8
LAYER_2
 66
1
 10
0
 20
0
 30
0
 70
1
  0
VERTEX
  8
LAYER_2
 10
194.2813
 20
155.0737
  0
VERTEX
  8
LAYER_2
 10
194.7885
 20
155.0737
  0
VERTEX
  8
LAYER_2
 10
194.5544
 20
156.5557
  0
SEQEND
  0
POLYLINE
  8
LAYER_2
 40
0.05
 41
0.05
 66
1
 10
0
 20
0
 30
0
 70
1
  0
VERTEX
  8
LAYER_2
 10
194.2813
 20
69.0798
  0
VERTEX
  8
LAYER_2
 10
194.7885
 20
69.0798
  0
VERTEX
  8
LAYER_2
 10
194.5544
 20
67.5587
  0
SEQEND
  0
POLYLINE
  8
LAYER_2
 66
1
 10
0
 20
0
 30
0
 70
1
  0
VERTEX
  8
LAYER_2
 10
194.2813
 20
69.0798
  0
VERTEX
  8
LAYER_2
 10
194.7885
 20
69.0798
  0
VERTEX
  8
LAYER_2
 10
194.5544
 20
67.5587
  0
SEQEND
  0
TEXT
  8
LAYER_2
 10
195.8735
 20
109.1708
 11
195.8735
 21
109.1708
 40
3.6923
 41
0.5
 50
89.99999999
  1
890
  0
POLYLINE
  8
LAYER_2
 40
0.0882
 41
0.0882
 62
251
 66
1
 10
0
 20
0
 30
0
  0
VERTEX
  8
LAYER_2
 10
184.1804
 20
162.4836
  0
VERTEX
  8
LAYER_2
 10
184.1804
 20
140.1368
  0
SEQEND
  0
POLYLINE
  8
LAYER_2
 40
0.0882
 41
0.0882
 62
251
 66
1
 10
0
 20
0
 30
0
  0
VERTEX
  8
LAYER_2
 10
133.9881
 20
136.5879
  0
VERTEX
  8
LAYER_2
 10
133.9881
 20
140.371
  0
SEQEND
  0
POLYLINE
  8
LAYER_2
 40
0.0882
 41
0.0882
 62
251
 66
1
 10
0
 20
0
 30
0
  0
VERTEX
  8
LAYER_2
 10
182.6594
 20
140.2539
  0
VERTEX
  8
LAYER_2
 10
161.9119
 20
140.2539
  0
SEQEND
  0
POLYLINE
  8
LAYER_2
 40
0.0882
 41
0.0882
 62
251
 66
1
 10
0
 20
0
 30
0
  0
VERTEX
  8
LAYER_2
 10
135.4701
 20
140.2539
  0
VERTEX
  8
LAYER_2
 10
156.2567
 20
140.2539
  0
SEQEND
  0
POLYLINE
  8
LAYER_2
 40
0.05
 41
0.05
 66
1
 10
0
 20
0
 30
0
 70
1
  0
VERTEX
  8
LAYER_2
 10
182.6594
 20
140.4879
  0
VERTEX
  8
LAYER_2
 10
182.6594
 20
140.0198
  0
VERTEX
  8
LAYER_2
 10
184.1806
 20
140.2538
  0
SEQEND
  0
POLYLINE
  8
LAYER_2
 66
1
 10
0
 20
0
 30
0
 70
1
  0
VERTEX
  8
LAYER_2
 10
182.6594
 20
140.4879
  0
VERTEX
  8
LAYER_2
 10
182.6594
 20
140.0198
  0
VERTEX
  8
LAYER_2
 10
184.1806
 20
140.2538
  0
SEQEND
  0
POLYLINE
  8
LAYER_2
 40
0.05
 41
0.05
 66
1
 10
0
 20
0
 30
0
 70
1
  0
VERTEX
  8
LAYER_2
 10
135.4701
 20
140.4879
  0
VERTEX
  8
LAYER_2
 10
135.4701
 20
140.0198
  0
VERTEX
  8
LAYER_2
 10
133.988
 20
140.2538
  0
SEQEND
  0
POLYLINE
  8
LAYER_2
 66
1
 10
0
 20
0
 30
0
 70
1
  0
VERTEX
  8
LAYER_2
 10
135.4701
 20
140.4879
  0
VERTEX
  8
LAYER_2
 10
135.4701
 20
140.0198
  0
VERTEX
  8
LAYER_2
 10
133.988
 20
140.2538
  0
SEQEND
  0
TEXT
  8
LAYER_2
 10
156.1788
 20
138.8961
 11
156.1788
 21
138.8961
 40
3.6923
 41
0.5
  1
500
  0
POLYLINE
  8
LAYER_2
 40
0.0882
 41
0.0882
 62
251
 66
1
 10
0
 20
0
 30
0
  0
VERTEX
  8
LAYER_2
 10
179.3055
 20
156.5946
  0
VERTEX
  8
LAYER_2
 10
179.3055
 20
158.5448
  0
SEQEND
  0
POLYLINE
  8
LAYER_2
 40
0.0882
 41
0.0882
 62
251
 66
1
 10
0
 20
0
 30
0
  0
VERTEX
  8
LAYER_2
 10
184.1804
 20
156.6336
  0
VERTEX
  8
LAYER_2
 10
184.1804
 20
158.5447
  0
SEQEND
  0
POLYLINE
  8
LAYER_2
 40
0.0882
 41
0.0882
 62
251
 66
1
 10
0
 20
0
 30
0
  0
VERTEX
  8
LAYER_2
 10
177.7845
 20
158.4276
  0
VERTEX
  8
LAYER_2
 10
176.3024
 20
158.4276
  0
SEQEND
  0
POLYLINE
  8
LAYER_2
 40
0.0882
 41
0.0882
 62
251
 66
1
 10
0
 20
0
 30
0
  0
VERTEX
  8
LAYER_2
 10
185.6624
 20
158.4276
  0
VERTEX
  8
LAYER_2
 10
187.1835
 20
158.4276
  0
SEQEND
  0
POLYLINE
  8
LAYER_2
 40
0.0882
 41
0.0882
 62
251
 66
1
 10
0
 20
0
 30
0
  0
VERTEX
  8
LAYER_2
 10
179.3055
 20
158.4276
  0
VERTEX
  8
LAYER_2
 10
179.8904
 20
158.4276
  0
SEQEND
  0
POLYLINE
  8
LAYER_2
 40
0.0882
 41
0.0882
 62
251
 66
1
 10
0
 20
0
 30
0
  0
VERTEX
  8
LAYER_2
 10
184.1804
 20
158.4276
  0
VERTEX
  8
LAYER_2
 10
183.5955
 20
158.4276
  0
SEQEND
  0
POLYLINE
  8
LAYER_2
 40
0.05
 41
0.05
 66
1
 10
0
 20
0
 30
0
 70
1
  0
VERTEX
  8
LAYER_2
 10
177.7845
 20
158.6616
  0
VERTEX
  8
LAYER_2
 10
177.7845
 20
158.1544
  0
VERTEX
  8
LAYER_2
 10
179.3056
 20
158.4276
  0
SEQEND
  0
POLYLINE
  8
LAYER_2
 66
1
 10
0
 20
0
 30
0
 70
1
  0
VERTEX
  8
LAYER_2
 10
177.7845
 20
158.6616
  0
VERTEX
  8
LAYER_2
 10
177.7845
 20
158.1544
  0
VERTEX
  8
LAYER_2
 10
179.3056
 20
158.4276
  0
SEQEND
  0
POLYLINE
  8
LAYER_2
 40
0.05
 41
0.05
 66
1
 10
0
 20
0
 30
0
 70
1
  0
VERTEX
  8
LAYER_2
 10
185.6624
 20
158.6616
  0
VERTEX
  8
LAYER_2
 10
185.6624
 20
158.1544
  0
VERTEX
  8
LAYER_2
 10
184.1803
 20
158.4276
  0
SEQEND
  0
POLYLINE
  8
LAYER_2
 66
1
 10
0
 20
0
 30
0
 70
1
  0
VERTEX
  8
LAYER_2
 10
185.6624
 20
158.6616
  0
VERTEX
  8
LAYER_2
 10
185.6624
 20
158.1544
  0
VERTEX
  8
LAYER_2
 10
184.1803
 20
158.4276
  0
SEQEND
  0
TEXT
  8
LAYER_2
 10
179.8121
 20
157.0697
 11
179.8121
 21
157.0697
 40
3.6923
 41
0.5
  1
50
  0
POLYLINE
  8
LAYER_2
 40
0.0882
 41
0.0882
 62
251
 66
1
 10
0
 20
0
 30
0
  0
VERTEX
  8
LAYER_2
 10
159.1428
 20
152.5777
  0
VERTEX
  8
LAYER_2
 10
159.1428
 20
154.3325
  0
SEQEND
  0
POLYLINE
  8
LAYER_2
 40
0.0882
 41
0.0882
 62
251
 66
1
 10
0
 20
0
 30
0
  0
VERTEX
  8
LAYER_2
 10
134.1831
 20
152.8897
  0
VERTEX
  8
LAYER_2
 10
134.1831
 20
154.3327
  0
SEQEND
  0
POLYLINE
  8
LAYER_2
 40
0.0882
 41
0.0882
 62
251
 66
1
 10
0
 20
0
 30
0
  0
VERTEX
  8
LAYER_2
 10
157.6218
 20
154.1767
  0
VERTEX
  8
LAYER_2
 10
149.5097
 20
154.1767
  0
SEQEND
  0
POLYLINE
  8
LAYER_2
 40
0.0882
 41
0.0882
 62
251
 66
1
 10
0
 20
0
 30
0
  0
VERTEX
  8
LAYER_2
 10
135.704
 20
154.1767
  0
VERTEX
  8
LAYER_2
 10
143.8161
 20
154.1767
  0
SEQEND
  0
POLYLINE
  8
LAYER_2
 40
0.05
 41
0.05
 66
1
 10
0
 20
0
 30
0
 70
1
  0
VERTEX
  8
LAYER_2
 10
157.6218
 20
154.4497
  0
VERTEX
  8
LAYER_2
 10
157.6218
 20
153.9425
  0
VERTEX
  8
LAYER_2
 10
159.1429
 20
154.1765
  0
SEQEND
  0
POLYLINE
  8
LAYER_2
 66
1
 10
0
 20
0
 30
0
 70
1
  0
VERTEX
  8
LAYER_2
 10
157.6218
 20
154.4497
  0
VERTEX
  8
LAYER_2
 10
157.6218
 20
153.9425
  0
VERTEX
  8
LAYER_2
 10
159.1429
 20
154.1765
  0
SEQEND
  0
POLYLINE
  8
LAYER_2
 40
0.05
 41
0.05
 66
1
 10
0
 20
0
 30
0
 70
1
  0
VERTEX
  8
LAYER_2
 10
135.704
 20
154.4497
  0
VERTEX
  8
LAYER_2
 10
135.704
 20
153.9425
  0
VERTEX
  8
LAYER_2
 10
134.1829
 20
154.1765
  0
SEQEND
  0
POLYLINE
  8
LAYER_2
 66
1
 10
0
 20
0
 30
0
 70
1
  0
VERTEX
  8
LAYER_2
 10
135.704
 20
154.4497
  0
VERTEX
  8
LAYER_2
 10
135.704
 20
153.9425
  0
VERTEX
  8
LAYER_2
 10
134.1829
 20
154.1765
  0
SEQEND
  0
TEXT
  8
LAYER_2
 10
143.7771
 20
152.8581
 11
143.7771
 21
152.8581
 40
3.6923
 41
0.5
  1
250
  0
POLYLINE
  8
LAYER_2
 40
0.0882
 41
0.0882
 62
251
 66
1
 10
0
 20
0
 30
0
  0
VERTEX
  8
LAYER_2
 10
184.1024
 20
136.5099
  0
VERTEX
  8
LAYER_2
 10
186.1694
 20
136.5099
  0
SEQEND
  0
POLYLINE
  8
LAYER_2
 40
0.0882
 41
0.0882
 62
251
 66
1
 10
0
 20
0
 30
0
  0
VERTEX
  8
LAYER_2
 10
184.2194
 20
156.5556
  0
VERTEX
  8
LAYER_2
 10
186.1696
 20
156.5556
  0
SEQEND
  0
POLYLINE
  8
LAYER_2
 40
0.0882
 41
0.0882
 62
251
 66
1
 10
0
 20
0
 30
0
  0
VERTEX
  8
LAYER_2
 10
186.0524
 20
138.0309
  0
VERTEX
  8
LAYER_2
 10
186.0524
 20
143.686
  0
SEQEND
  0
POLYLINE
  8
LAYER_2
 40
0.0882
 41
0.0882
 62
251
 66
1
 10
0
 20
0
 30
0
  0
VERTEX
  8
LAYER_2
 10
186.0524
 20
155.0737
  0
VERTEX
  8
LAYER_2
 10
186.0524
 20
149.3799
  0
SEQEND
  0
POLYLINE
  8
LAYER_2
 40
0.05
 41
0.05
 66
1
 10
0
 20
0
 30
0
 70
1
  0
VERTEX
  8
LAYER_2
 10
185.7794
 20
138.0309
  0
VERTEX
  8
LAYER_2
 10
186.2866
 20
138.0309
  0
VERTEX
  8
LAYER_2
 10
186.0525
 20
136.5098
  0
SEQEND
  0
POLYLINE
  8
LAYER_2
 66
1
 10
0
 20
0
 30
0
 70
1
  0
VERTEX
  8
LAYER_2
 10
185.7794
 20
138.0309
  0
VERTEX
  8
LAYER_2
 10
186.2866
 20
138.0309
  0
VERTEX
  8
LAYER_2
 10
186.0525
 20
136.5098
  0
SEQEND
  0
POLYLINE
  8
LAYER_2
 40
0.05
 41
0.05
 66
1
 10
0
 20
0
 30
0
 70
1
  0
VERTEX
  8
LAYER_2
 10
185.7794
 20
155.0737
  0
VERTEX
  8
LAYER_2
 10
186.2866
 20
155.0737
  0
VERTEX
  8
LAYER_2
 10
186.0525
 20
156.5557
  0
SEQEND
  0
POLYLINE
  8
LAYER_2
 66
1
 10
0
 20
0
 30
0
 70
1
  0
VERTEX
  8
LAYER_2
 10
185.7794
 20
155.0737
  0
VERTEX
  8
LAYER_2
 10
186.2866
 20
155.0737
  0
VERTEX
  8
LAYER_2
 10
186.0525
 20
156.5557
  0
SEQEND
  0
TEXT
  8
LAYER_2
 10
187.3713
 20
143.6462
 11
187.3713
 21
143.6462
 40
3.6923
 41
0.5
 50
89.99999999
  1
200
  0
POLYLINE
  8
LAYER_2
 40
0.1305
 41
0.1305
 66
1
 10
0
 20
0
 30
0
  0
VERTEX
  8
LAYER_2
 10
183.9464
 20
132.376
  0
VERTEX
  8
LAYER_2
 10
190.4205
 20
132.376
  0
SEQEND
  0
POLYLINE
  8
LAYER_2
 40
0.1305
 41
0.1305
 66
1
 10
0
 20
0
 30
0
  0
VERTEX
  8
LAYER_2
 10
184.2194
 20
67.5588
  0
VERTEX
  8
LAYER_2
 10
190.4204
 20
67.5588
  0
SEQEND
  0
POLYLINE
  8
LAYER_2
 40
0.1305
 41
0.1305
 66
1
 10
0
 20
0
 30
0
  0
VERTEX
  8
LAYER_2
 10
190.3033
 20
130.855
  0
VERTEX
  8
LAYER_2
 10
190.3033
 20
103.4384
  0
SEQEND
  0
POLYLINE
  8
LAYER_2
 40
0.1305
 41
0.1305
 66
1
 10
0
 20
0
 30
0
  0
VERTEX
  8
LAYER_2
 10
190.3033
 20
69.0798
  0
VERTEX
  8
LAYER_2
 10
190.3033
 20
96.4964
  0
SEQEND
  0
POLYLINE
  8
LAYER_2
 40
0.05
 41
0.05
 66
1
 10
0
 20
0
 30
0
 70
1
  0
VERTEX
  8
LAYER_2
 10
190.0303
 20
130.855
  0
VERTEX
  8
LAYER_2
 10
190.5375
 20
130.855
  0
VERTEX
  8
LAYER_2
 10
190.3035
 20
132.3761
  0
SEQEND
  0
POLYLINE
  8
LAYER_2
 66
1
 10
0
 20
0
 30
0
 70
1
  0
VERTEX
  8
LAYER_2
 10
190.0303
 20
130.855
  0
VERTEX
  8
LAYER_2
 10
190.5375
 20
130.855
  0
VERTEX
  8
LAYER_2
 10
190.3035
 20
132.3761
  0
SEQEND
  0
POLYLINE
  8
LAYER_2
 40
0.05
 41
0.05
 66
1
 10
0
 20
0
 30
0
 70
1
  0
VERTEX
  8
LAYER_2
 10
190.0303
 20
69.0798
  0
VERTEX
  8
LAYER_2
 10
190.5375
 20
69.0798
  0
VERTEX
  8
LAYER_2
 10
190.3035
 20
67.5587
  0
SEQEND
  0
POLYLINE
  8
LAYER_2
 66
1
 10
0
 20
0
 30
0
 70
1
  0
VERTEX
  8
LAYER_2
 10
190.0303
 20
69.0798
  0
VERTEX
  8
LAYER_2
 10
190.5375
 20
69.0798
  0
VERTEX
  8
LAYER_2
 10
190.3035
 20
67.5587
  0
SEQEND
  0
TEXT
  8
LAYER_2
 10
191.6222
 20
96.7399
 11
191.6222
 21
96.7399
 40
3.6923
 41
0.5
 50
89.99999999
  1
650
  0
POLYLINE
  8
LAYER_2
 40
0.1305
 41
0.1305
 66
1
 10
0
 20
0
 30
0
  0
VERTEX
  8
LAYER_2
 10
184.2194
 20
67.5588
  0
VERTEX
  8
LAYER_2
 10
187.0663
 20
67.5588
  0
SEQEND
  0
POLYLINE
  8
LAYER_2
 40
0.0882
 41
0.0882
 62
251
 66
1
 10
0
 20
0
 30
0
  0
VERTEX
  8
LAYER_2
 10
147.5989
 20
86.7856
  0
VERTEX
  8
LAYER_2
 10
147.5989
 20
86.7465
  0
SEQEND
  0
POLYLINE
  8
LAYER_2
 40
0.0882
 41
0.0882
 62
251
 66
1
 10
0
 20
0
 30
0
  0
VERTEX
  8
LAYER_2
 10
150.6019
 20
84.9916
  0
VERTEX
  8
LAYER_2
 10
150.6019
 20
84.9525
  0
SEQEND
  0
POLYLINE
  8
LAYER_2
 40
0.0882
 41
0.0882
 62
251
 66
1
 10
0
 20
0
 30
0
  0
VERTEX
  8
LAYER_2
 10
148.9249
 20
86.0836
  0
VERTEX
  8
LAYER_2
 10
149.3539
 20
85.8105
  0
SEQEND
  0
POLYLINE
  8
LAYER_2
 40
0.0882
 41
0.0882
 62
251
 66
1
 10
0
 20
0
 30
0
  0
VERTEX
  8
LAYER_2
 10
150.6409
 20
85.0306
  0
VERTEX
  8
LAYER_2
 10
151.928
 20
84.2898
  0
SEQEND
  0
POLYLINE
  8
LAYER_2
 40
0.05
 41
0.05
 66
1
 10
0
 20
0
 30
0
 70
1
  0
VERTEX
  8
LAYER_2
 10
149.0809
 20
86.2786
  0
VERTEX
  8
LAYER_2
 10
148.8077
 20
85.8495
  0
VERTEX
  8
LAYER_2
 10
147.6379
 20
86.8244
  0
SEQEND
  0
POLYLINE
  8
LAYER_2
 66
1
 10
0
 20
0
 30
0
 70
1
  0
VERTEX
  8
LAYER_2
 10
149.0809
 20
86.2786
  0
VERTEX
  8
LAYER_2
 10
148.8077
 20
85.8495
  0
VERTEX
  8
LAYER_2
 10
147.6379
 20
86.8244
  0
SEQEND
  0
POLYLINE
  8
LAYER_2
 40
0.05
 41
0.05
 66
1
 10
0
 20
0
 30
0
 70
1
  0
VERTEX
  8
LAYER_2
 10
149.5099
 20
86.0446
  0
VERTEX
  8
LAYER_2
 10
149.2367
 20
85.6156
  0
VERTEX
  8
LAYER_2
 10
150.6411
 20
85.0307
  0
SEQEND
  0
POLYLINE
  8
LAYER_2
 66
1
 10
0
 20
0
 30
0
 70
1
  0
VERTEX
  8
LAYER_2
 10
149.5099
 20
86.0446
  0
VERTEX
  8
LAYER_2
 10
149.2367
 20
85.6156
  0
VERTEX
  8
LAYER_2
 10
150.6411
 20
85.0307
  0
SEQEND
  0
TEXT
  8
LAYER_2
 10
151.1699
 20
83.181
 11
151.1699
 21
83.181
 40
3.6923
 41
0.5
 50
329.3314658
  1
35
  0
POLYLINE
  8
LAYER_2
 40
0.0882
 41
0.0882
 62
251
 66
1
 10
0
 20
0
 30
0
  0
VERTEX
  8
LAYER_2
 10
112.3824
 20
151.5247
  0
VERTEX
  8
LAYER_2
 10
111.9924
 20
151.5247
  0
SEQEND
  0
POLYLINE
  8
LAYER_2
 40
0.0882
 41
0.0882
 62
251
 66
1
 10
0
 20
0
 30
0
  0
VERTEX
  8
LAYER_2
 10
111.6414
 20
151.5247
  0
VERTEX
  8
LAYER_2
 10
111.0174
 20
151.5247
  0
SEQEND
  0
POLYLINE
  8
LAYER_2
 40
0.0882
 41
0.0882
 62
251
 66
1
 10
0
 20
0
 30
0
  0
VERTEX
  8
LAYER_2
 10
110.7054
 20
151.5247
  0
VERTEX
  8
LAYER_2
 10
110.0814
 20
151.5247
  0
SEQEND
  0
POLYLINE
  8
LAYER_2
 40
0.0882
 41
0.0882
 62
251
 66
1
 10
0
 20
0
 30
0
  0
VERTEX
  8
LAYER_2
 10
109.7694
 20
151.5247
  0
VERTEX
  8
LAYER_2
 10
109.1063
 20
151.5247
  0
SEQEND
  0
POLYLINE
  8
LAYER_2
 40
0.0882
 41
0.0882
 62
251
 66
1
 10
0
 20
0
 30
0
  0
VERTEX
  8
LAYER_2
 10
108.7944
 20
151.5247
  0
VERTEX
  8
LAYER_2
 10
108.1704
 20
151.5247
  0
SEQEND
  0
POLYLINE
  8
LAYER_2
 40
0.0882
 41
0.0882
 62
251
 66
1
 10
0
 20
0
 30
0
  0
VERTEX
  8
LAYER_2
 10
107.8584
 20
151.5247
  0
VERTEX
  8
LAYER_2
 10
107.1954
 20
151.5247
  0
SEQEND
  0
POLYLINE
  8
LAYER_2
 40
0.0882
 41
0.0882
 62
251
 66
1
 10
0
 20
0
 30
0
  0
VERTEX
  8
LAYER_2
 10
106.8835
 20
151.5247
  0
VERTEX
  8
LAYER_2
 10
106.2595
 20
151.5247
  0
SEQEND
  0
POLYLINE
  8
LAYER_2
 40
0.0882
 41
0.0882
 62
251
 66
1
 10
0
 20
0
 30
0
  0
VERTEX
  8
LAYER_2
 10
105.9474
 20
151.5247
  0
VERTEX
  8
LAYER_2
 10
105.3234
 20
151.5247
  0
SEQEND
  0
POLYLINE
  8
LAYER_2
 40
0.0882
 41
0.0882
 62
251
 66
1
 10
0
 20
0
 30
0
  0
VERTEX
  8
LAYER_2
 10
104.9725
 20
151.5247
  0
VERTEX
  8
LAYER_2
 10
104.3485
 20
151.5247
  0
SEQEND
  0
POLYLINE
  8
LAYER_2
 40
0.0882
 41
0.0882
 62
251
 66
1
 10
0
 20
0
 30
0
  0
VERTEX
  8
LAYER_2
 10
104.0365
 20
151.5247
  0
VERTEX
  8
LAYER_2
 10
103.4125
 20
151.5247
  0
SEQEND
  0
POLYLINE
  8
LAYER_2
 40
0.0882
 41
0.0882
 62
251
 66
1
 10
0
 20
0
 30
0
  0
VERTEX
  8
LAYER_2
 10
103.1005
 20
151.5247
  0
VERTEX
  8
LAYER_2
 10
102.4374
 20
151.5247
  0
SEQEND
  0
POLYLINE
  8
LAYER_2
 40
0.0882
 41
0.0882
 62
251
 66
1
 10
0
 20
0
 30
0
  0
VERTEX
  8
LAYER_2
 10
102.1255
 20
151.5247
  0
VERTEX
  8
LAYER_2
 10
101.5015
 20
151.5247
  0
SEQEND
  0
POLYLINE
  8
LAYER_2
 40
0.0882
 41
0.0882
 62
251
 66
1
 10
0
 20
0
 30
0
  0
VERTEX
  8
LAYER_2
 10
101.1895
 20
151.5247
  0
VERTEX
  8
LAYER_2
 10
100.5265
 20
151.5247
  0
SEQEND
  0
POLYLINE
  8
LAYER_2
 40
0.0882
 41
0.0882
 62
251
 66
1
 10
0
 20
0
 30
0
  0
VERTEX
  8
LAYER_2
 10
100.2145
 20
151.5247
  0
VERTEX
  8
LAYER_2
 10
99.5905
 20
151.5247
  0
SEQEND
  0
POLYLINE
  8
LAYER_2
 40
0.0882
 41
0.0882
 62
251
 66
1
 10
0
 20
0
 30
0
  0
VERTEX
  8
LAYER_2
 10
99.2785
 20
151.5247
  0
VERTEX
  8
LAYER_2
 10
98.6545
 20
151.5247
  0
SEQEND
  0
POLYLINE
  8
LAYER_2
 40
0.0882
 41
0.0882
 62
251
 66
1
 10
0
 20
0
 30
0
  0
VERTEX
  8
LAYER_2
 10
98.3426
 20
151.5247
  0
VERTEX
  8
LAYER_2
 10
97.6795
 20
151.5247
  0
SEQEND
  0
POLYLINE
  8
LAYER_2
 40
0.0882
 41
0.0882
 62
251
 66
1
 10
0
 20
0
 30
0
  0
VERTEX
  8
LAYER_2
 10
97.3676
 20
151.5247
  0
VERTEX
  8
LAYER_2
 10
96.7436
 20
151.5247
  0
SEQEND
  0
POLYLINE
  8
LAYER_2
 40
0.0882
 41
0.0882
 62
251
 66
1
 10
0
 20
0
 30
0
  0
VERTEX
  8
LAYER_2
 10
96.4316
 20
151.5247
  0
VERTEX
  8
LAYER_2
 10
95.7685
 20
151.5247
  0
SEQEND
  0
POLYLINE
  8
LAYER_2
 40
0.0882
 41
0.0882
 62
251
 66
1
 10
0
 20
0
 30
0
  0
VERTEX
  8
LAYER_2
 10
95.4566
 20
151.5247
  0
VERTEX
  8
LAYER_2
 10
94.8326
 20
151.5247
  0
SEQEND
  0
POLYLINE
  8
LAYER_2
 40
0.0882
 41
0.0882
 62
251
 66
1
 10
0
 20
0
 30
0
  0
VERTEX
  8
LAYER_2
 10
94.5206
 20
151.5247
  0
VERTEX
  8
LAYER_2
 10
93.8966
 20
151.5247
  0
SEQEND
  0
POLYLINE
  8
LAYER_2
 40
0.0882
 41
0.0882
 62
251
 66
1
 10
0
 20
0
 30
0
  0
VERTEX
  8
LAYER_2
 10
93.5456
 20
151.5247
  0
VERTEX
  8
LAYER_2
 10
92.9216
 20
151.5247
  0
SEQEND
  0
POLYLINE
  8
LAYER_2
 40
0.0882
 41
0.0882
 62
251
 66
1
 10
0
 20
0
 30
0
  0
VERTEX
  8
LAYER_2
 10
92.6096
 20
151.5247
  0
VERTEX
  8
LAYER_2
 10
91.9856
 20
151.5247
  0
SEQEND
  0
POLYLINE
  8
LAYER_2
 40
0.0882
 41
0.0882
 62
251
 66
1
 10
0
 20
0
 30
0
  0
VERTEX
  8
LAYER_2
 10
91.6737
 20
151.5247
  0
VERTEX
  8
LAYER_2
 10
91.0106
 20
151.5247
  0
SEQEND
  0
POLYLINE
  8
LAYER_2
 40
0.0882
 41
0.0882
 62
251
 66
1
 10
0
 20
0
 30
0
  0
VERTEX
  8
LAYER_2
 10
90.6987
 20
151.5247
  0
VERTEX
  8
LAYER_2
 10
90.0747
 20
151.5247
  0
SEQEND
  0
POLYLINE
  8
LAYER_2
 40
0.0882
 41
0.0882
 62
251
 66
1
 10
0
 20
0
 30
0
  0
VERTEX
  8
LAYER_2
 10
89.7627
 20
151.5247
  0
VERTEX
  8
LAYER_2
 10
89.0996
 20
151.5247
  0
SEQEND
  0
POLYLINE
  8
LAYER_2
 40
0.0882
 41
0.0882
 62
251
 66
1
 10
0
 20
0
 30
0
  0
VERTEX
  8
LAYER_2
 10
88.7877
 20
151.5247
  0
VERTEX
  8
LAYER_2
 10
88.3587
 20
151.5247
  0
SEQEND
  0
POLYLINE
  8
LAYER_2
 40
0.0882
 41
0.0882
 62
251
 66
1
 10
0
 20
0
 30
0
  0
VERTEX
  8
LAYER_2
 10
113.3963
 20
150.5887
  0
VERTEX
  8
LAYER_2
 10
113.3573
 20
150.7446
  0
VERTEX
  8
LAYER_2
 10
113.3182
 20
150.9396
  0
VERTEX
  8
LAYER_2
 10
113.2014
 20
151.0959
  0
VERTEX
  8
LAYER_2
 10
113.2014
 20
151.1346
  0
SEQEND
  0
POLYLINE
  8
LAYER_2
 40
0.0882
 41
0.0882
 62
251
 66
1
 10
0
 20
0
 30
0
  0
VERTEX
  8
LAYER_2
 10
112.9674
 20
151.3297
  0
VERTEX
  8
LAYER_2
 10
112.9283
 20
151.3688
  0
VERTEX
  8
LAYER_2
 10
112.7724
 20
151.4465
  0
VERTEX
  8
LAYER_2
 10
112.5774
 20
151.4856
  0
VERTEX
  8
LAYER_2
 10
112.3824
 20
151.5247
  0
SEQEND
  0
POLYLINE
  8
LAYER_2
 40
0.0882
 41
0.0882
 62
251
 66
1
 10
0
 20
0
 30
0
  0
VERTEX
  8
LAYER_2
 10
86.3697
 20
152.4997
  0
VERTEX
  8
LAYER_2
 10
86.3697
 20
151.8366
  0
SEQEND
  0
POLYLINE
  8
LAYER_2
 40
0.0882
 41
0.0882
 62
251
 66
1
 10
0
 20
0
 30
0
  0
VERTEX
  8
LAYER_2
 10
86.3697
 20
151.5247
  0
VERTEX
  8
LAYER_2
 10
86.3697
 20
150.9007
  0
SEQEND
  0
POLYLINE
  8
LAYER_2
 40
0.0882
 41
0.0882
 62
251
 66
1
 10
0
 20
0
 30
0
  0
VERTEX
  8
LAYER_2
 10
86.3697
 20
150.5497
  0
VERTEX
  8
LAYER_2
 10
86.3697
 20
149.9257
  0
SEQEND
  0
POLYLINE
  8
LAYER_2
 40
0.0882
 41
0.0882
 62
251
 66
1
 10
0
 20
0
 30
0
  0
VERTEX
  8
LAYER_2
 10
86.3697
 20
149.6138
  0
VERTEX
  8
LAYER_2
 10
86.3697
 20
148.9898
  0
SEQEND
  0
POLYLINE
  8
LAYER_2
 40
0.0882
 41
0.0882
 62
251
 66
1
 10
0
 20
0
 30
0
  0
VERTEX
  8
LAYER_2
 10
86.3697
 20
148.6778
  0
VERTEX
  8
LAYER_2
 10
86.3697
 20
148.0147
  0
SEQEND
  0
POLYLINE
  8
LAYER_2
 40
0.0882
 41
0.0882
 62
251
 66
1
 10
0
 20
0
 30
0
  0
VERTEX
  8
LAYER_2
 10
86.3697
 20
147.7028
  0
VERTEX
  8
LAYER_2
 10
86.3697
 20
147.0788
  0
SEQEND
  0
POLYLINE
  8
LAYER_2
 40
0.0882
 41
0.0882
 62
251
 66
1
 10
0
 20
0
 30
0
  0
VERTEX
  8
LAYER_2
 10
86.3697
 20
146.7668
  0
VERTEX
  8
LAYER_2
 10
86.3697
 20
146.1427
  0
SEQEND
  0
POLYLINE
  8
LAYER_2
 40
0.0882
 41
0.0882
 62
251
 66
1
 10
0
 20
0
 30
0
  0
VERTEX
  8
LAYER_2
 10
86.3697
 20
145.7918
  0
VERTEX
  8
LAYER_2
 10
86.3697
 20
145.1678
  0
SEQEND
  0
POLYLINE
  8
LAYER_2
 40
0.0882
 41
0.0882
 62
251
 66
1
 10
0
 20
0
 30
0
  0
VERTEX
  8
LAYER_2
 10
86.3697
 20
144.8558
  0
VERTEX
  8
LAYER_2
 10
86.3697
 20
144.2318
  0
SEQEND
  0
POLYLINE
  8
LAYER_2
 40
0.0882
 41
0.0882
 62
251
 66
1
 10
0
 20
0
 30
0
  0
VERTEX
  8
LAYER_2
 10
86.3697
 20
143.9198
  0
VERTEX
  8
LAYER_2
 10
86.3697
 20
143.2567
  0
SEQEND
  0
POLYLINE
  8
LAYER_2
 40
0.0882
 41
0.0882
 62
251
 66
1
 10
0
 20
0
 30
0
  0
VERTEX
  8
LAYER_2
 10
86.3697
 20
142.9448
  0
VERTEX
  8
LAYER_2
 10
86.3697
 20
142.3208
  0
SEQEND
  0
POLYLINE
  8
LAYER_2
 40
0.0882
 41
0.0882
 62
251
 66
1
 10
0
 20
0
 30
0
  0
VERTEX
  8
LAYER_2
 10
86.3697
 20
142.0088
  0
VERTEX
  8
LAYER_2
 10
86.3697
 20
141.3458
  0
SEQEND
  0
POLYLINE
  8
LAYER_2
 40
0.0882
 41
0.0882
 62
251
 66
1
 10
0
 20
0
 30
0
  0
VERTEX
  8
LAYER_2
 10
86.3697
 20
141.0338
  0
VERTEX
  8
LAYER_2
 10
86.3697
 20
140.4098
  0
SEQEND
  0
POLYLINE
  8
LAYER_2
 40
0.0882
 41
0.0882
 62
251
 66
1
 10
0
 20
0
 30
0
  0
VERTEX
  8
LAYER_2
 10
86.3697
 20
140.0979
  0
VERTEX
  8
LAYER_2
 10
86.3697
 20
139.4739
  0
SEQEND
  0
POLYLINE
  8
LAYER_2
 40
0.0882
 41
0.0882
 62
251
 66
1
 10
0
 20
0
 30
0
  0
VERTEX
  8
LAYER_2
 10
86.3697
 20
139.1229
  0
VERTEX
  8
LAYER_2
 10
86.3697
 20
138.4989
  0
SEQEND
  0
POLYLINE
  8
LAYER_2
 40
0.0882
 41
0.0882
 62
251
 66
1
 10
0
 20
0
 30
0
  0
VERTEX
  8
LAYER_2
 10
86.3697
 20
138.1869
  0
VERTEX
  8
LAYER_2
 10
86.3697
 20
137.5238
  0
SEQEND
  0
POLYLINE
  8
LAYER_2
 40
0.0882
 41
0.0882
 62
251
 66
1
 10
0
 20
0
 30
0
  0
VERTEX
  8
LAYER_2
 10
84.3807
 20
135.4959
  0
VERTEX
  8
LAYER_2
 10
84.7316
 20
135.535
  0
VERTEX
  8
LAYER_2
 10
84.8489
 20
135.5741
  0
SEQEND
  0
POLYLINE
  8
LAYER_2
 40
0.0882
 41
0.0882
 62
251
 66
1
 10
0
 20
0
 30
0
  0
VERTEX
  8
LAYER_2
 10
85.1217
 20
135.6519
  0
VERTEX
  8
LAYER_2
 10
85.3949
 20
135.7687
  0
VERTEX
  8
LAYER_2
 10
85.6676
 20
135.9637
  0
VERTEX
  8
LAYER_2
 10
85.6676
 20
136.0028
  0
SEQEND
  0
POLYLINE
  8
LAYER_2
 40
0.0882
 41
0.0882
 62
251
 66
1
 10
0
 20
0
 30
0
  0
VERTEX
  8
LAYER_2
 10
85.9017
 20
136.1979
  0
VERTEX
  8
LAYER_2
 10
85.9017
 20
136.237
  0
VERTEX
  8
LAYER_2
 10
86.0967
 20
136.5097
  0
VERTEX
  8
LAYER_2
 10
86.2135
 20
136.7438
  0
SEQEND
  0
POLYLINE
  8
LAYER_2
 40
0.0882
 41
0.0882
 62
251
 66
1
 10
0
 20
0
 30
0
  0
VERTEX
  8
LAYER_2
 10
86.3307
 20
137.0559
  0
VERTEX
  8
LAYER_2
 10
86.3307
 20
137.1727
  0
VERTEX
  8
LAYER_2
 10
86.3698
 20
137.524
  0
SEQEND
  0
POLYLINE
  8
LAYER_2
 40
0.0882
 41
0.0882
 62
251
 66
1
 10
0
 20
0
 30
0
  0
VERTEX
  8
LAYER_2
 10
84.3807
 20
135.4959
  0
VERTEX
  8
LAYER_2
 10
83.9126
 20
135.4959
  0
SEQEND
  0
POLYLINE
  8
LAYER_2
 40
0.0882
 41
0.0882
 62
251
 66
1
 10
0
 20
0
 30
0
  0
VERTEX
  8
LAYER_2
 10
83.6008
 20
135.4959
  0
VERTEX
  8
LAYER_2
 10
82.9768
 20
135.4959
  0
SEQEND
  0
POLYLINE
  8
LAYER_2
 40
0.0882
 41
0.0882
 62
251
 66
1
 10
0
 20
0
 30
0
  0
VERTEX
  8
LAYER_2
 10
82.6648
 20
135.4959
  0
VERTEX
  8
LAYER_2
 10
82.0017
 20
135.4959
  0
SEQEND
  0
POLYLINE
  8
LAYER_2
 40
0.0882
 41
0.0882
 62
251
 66
1
 10
0
 20
0
 30
0
  0
VERTEX
  8
LAYER_2
 10
81.6898
 20
135.4959
  0
VERTEX
  8
LAYER_2
 10
81.0658
 20
135.4959
  0
SEQEND
  0
POLYLINE
  8
LAYER_2
 40
0.0882
 41
0.0882
 62
251
 66
1
 10
0
 20
0
 30
0
  0
VERTEX
  8
LAYER_2
 10
80.7538
 20
135.4959
  0
VERTEX
  8
LAYER_2
 10
80.0907
 20
135.4959
  0
SEQEND
  0
POLYLINE
  8
LAYER_2
 40
0.0882
 41
0.0882
 62
251
 66
1
 10
0
 20
0
 30
0
  0
VERTEX
  8
LAYER_2
 10
79.7788
 20
135.4959
  0
VERTEX
  8
LAYER_2
 10
79.1548
 20
135.4959
  0
SEQEND
  0
POLYLINE
  8
LAYER_2
 40
0.0882
 41
0.0882
 62
251
 66
1
 10
0
 20
0
 30
0
  0
VERTEX
  8
LAYER_2
 10
78.8428
 20
135.4959
  0
VERTEX
  8
LAYER_2
 10
78.2188
 20
135.4959
  0
SEQEND
  0
POLYLINE
  8
LAYER_2
 40
0.0882
 41
0.0882
 62
251
 66
1
 10
0
 20
0
 30
0
  0
VERTEX
  8
LAYER_2
 10
77.8678
 20
135.4959
  0
VERTEX
  8
LAYER_2
 10
77.2438
 20
135.4959
  0
SEQEND
  0
POLYLINE
  8
LAYER_2
 40
0.0882
 41
0.0882
 62
251
 66
1
 10
0
 20
0
 30
0
  0
VERTEX
  8
LAYER_2
 10
76.9318
 20
135.4959
  0
VERTEX
  8
LAYER_2
 10
76.3078
 20
135.4959
  0
SEQEND
  0
POLYLINE
  8
LAYER_2
 40
0.0882
 41
0.0882
 62
251
 66
1
 10
0
 20
0
 30
0
  0
VERTEX
  8
LAYER_2
 10
75.9958
 20
135.4959
  0
VERTEX
  8
LAYER_2
 10
75.3328
 20
135.4959
  0
SEQEND
  0
POLYLINE
  8
LAYER_2
 40
0.0882
 41
0.0882
 62
251
 66
1
 10
0
 20
0
 30
0
  0
VERTEX
  8
LAYER_2
 10
75.0209
 20
135.4959
  0
VERTEX
  8
LAYER_2
 10
74.3969
 20
135.4959
  0
SEQEND
  0
POLYLINE
  8
LAYER_2
 40
0.0882
 41
0.0882
 62
251
 66
1
 10
0
 20
0
 30
0
  0
VERTEX
  8
LAYER_2
 10
74.0849
 20
135.4959
  0
VERTEX
  8
LAYER_2
 10
73.4609
 20
135.4959
  0
SEQEND
  0
POLYLINE
  8
LAYER_2
 40
0.0882
 41
0.0882
 62
251
 66
1
 10
0
 20
0
 30
0
  0
VERTEX
  8
LAYER_2
 10
73.1099
 20
135.4959
  0
VERTEX
  8
LAYER_2
 10
72.4859
 20
135.4959
  0
SEQEND
  0
POLYLINE
  8
LAYER_2
 40
0.0882
 41
0.0882
 62
251
 66
1
 10
0
 20
0
 30
0
  0
VERTEX
  8
LAYER_2
 10
72.1739
 20
135.4959
  0
VERTEX
  8
LAYER_2
 10
71.5499
 20
135.4959
  0
SEQEND
  0
POLYLINE
  8
LAYER_2
 40
0.0882
 41
0.0882
 62
251
 66
1
 10
0
 20
0
 30
0
  0
VERTEX
  8
LAYER_2
 10
71.2379
 20
135.4959
  0
VERTEX
  8
LAYER_2
 10
70.5748
 20
135.4959
  0
SEQEND
  0
POLYLINE
  8
LAYER_2
 40
0.0882
 41
0.0882
 62
251
 66
1
 10
0
 20
0
 30
0
  0
VERTEX
  8
LAYER_2
 10
70.2629
 20
135.4959
  0
VERTEX
  8
LAYER_2
 10
69.6389
 20
135.4959
  0
SEQEND
  0
POLYLINE
  8
LAYER_2
 40
0.0882
 41
0.0882
 62
251
 66
1
 10
0
 20
0
 30
0
  0
VERTEX
  8
LAYER_2
 10
69.327
 20
135.4959
  0
VERTEX
  8
LAYER_2
 10
68.6639
 20
135.4959
  0
SEQEND
  0
POLYLINE
  8
LAYER_2
 40
0.0882
 41
0.0882
 62
251
 66
1
 10
0
 20
0
 30
0
  0
VERTEX
  8
LAYER_2
 10
68.352
 20
135.4959
  0
VERTEX
  8
LAYER_2
 10
67.728
 20
135.4959
  0
SEQEND
  0
POLYLINE
  8
LAYER_2
 40
0.0882
 41
0.0882
 62
251
 66
1
 10
0
 20
0
 30
0
  0
VERTEX
  8
LAYER_2
 10
67.416
 20
135.4959
  0
VERTEX
  8
LAYER_2
 10
66.792
 20
135.4959
  0
SEQEND
  0
POLYLINE
  8
LAYER_2
 40
0.0882
 41
0.0882
 62
251
 66
1
 10
0
 20
0
 30
0
  0
VERTEX
  8
LAYER_2
 10
66.441
 20
135.4959
  0
VERTEX
  8
LAYER_2
 10
65.817
 20
135.4959
  0
SEQEND
  0
POLYLINE
  8
LAYER_2
 40
0.0882
 41
0.0882
 62
251
 66
1
 10
0
 20
0
 30
0
  0
VERTEX
  8
LAYER_2
 10
65.505
 20
135.4959
  0
VERTEX
  8
LAYER_2
 10
64.881
 20
135.4959
  0
SEQEND
  0
POLYLINE
  8
LAYER_2
 40
0.0882
 41
0.0882
 62
251
 66
1
 10
0
 20
0
 30
0
  0
VERTEX
  8
LAYER_2
 10
64.569
 20
135.4959
  0
VERTEX
  8
LAYER_2
 10
63.9059
 20
135.4959
  0
SEQEND
  0
POLYLINE
  8
LAYER_2
 40
0.0882
 41
0.0882
 62
251
 66
1
 10
0
 20
0
 30
0
  0
VERTEX
  8
LAYER_2
 10
63.594
 20
135.4959
  0
VERTEX
  8
LAYER_2
 10
62.97
 20
135.4959
  0
SEQEND
  0
POLYLINE
  8
LAYER_2
 40
0.0882
 41
0.0882
 62
251
 66
1
 10
0
 20
0
 30
0
  0
VERTEX
  8
LAYER_2
 10
62.6581
 20
135.4959
  0
VERTEX
  8
LAYER_2
 10
61.995
 20
135.4959
  0
SEQEND
  0
POLYLINE
  8
LAYER_2
 40
0.0882
 41
0.0882
 62
251
 66
1
 10
0
 20
0
 30
0
  0
VERTEX
  8
LAYER_2
 10
61.6831
 20
135.4959
  0
VERTEX
  8
LAYER_2
 10
61.059
 20
135.4959
  0
SEQEND
  0
POLYLINE
  8
LAYER_2
 40
0.0882
 41
0.0882
 62
251
 66
1
 10
0
 20
0
 30
0
  0
VERTEX
  8
LAYER_2
 10
60.7471
 20
135.4959
  0
VERTEX
  8
LAYER_2
 10
60.123
 20
135.4959
  0
SEQEND
  0
POLYLINE
  8
LAYER_2
 40
0.0882
 41
0.0882
 62
251
 66
1
 10
0
 20
0
 30
0
  0
VERTEX
  8
LAYER_2
 10
59.7721
 20
135.4959
  0
VERTEX
  8
LAYER_2
 10
59.1481
 20
135.4959
  0
SEQEND
  0
POLYLINE
  8
LAYER_2
 40
0.0882
 41
0.0882
 62
251
 66
1
 10
0
 20
0
 30
0
  0
VERTEX
  8
LAYER_2
 10
58.8361
 20
135.4959
  0
VERTEX
  8
LAYER_2
 10
58.2121
 20
135.4959
  0
SEQEND
  0
POLYLINE
  8
LAYER_2
 40
0.0882
 41
0.0882
 62
251
 66
1
 10
0
 20
0
 30
0
  0
VERTEX
  8
LAYER_2
 10
57.9001
 20
135.4959
  0
VERTEX
  8
LAYER_2
 10
57.237
 20
135.4959
  0
SEQEND
  0
POLYLINE
  8
LAYER_2
 40
0.0882
 41
0.0882
 62
251
 66
1
 10
0
 20
0
 30
0
  0
VERTEX
  8
LAYER_2
 10
56.9251
 20
135.4959
  0
VERTEX
  8
LAYER_2
 10
56.3011
 20
135.4959
  0
SEQEND
  0
POLYLINE
  8
LAYER_2
 40
0.0882
 41
0.0882
 62
251
 66
1
 10
0
 20
0
 30
0
  0
VERTEX
  8
LAYER_2
 10
55.9891
 20
135.4959
  0
VERTEX
  8
LAYER_2
 10
55.3651
 20
135.4959
  0
SEQEND
  0
POLYLINE
  8
LAYER_2
 40
0.0882
 41
0.0882
 62
251
 66
1
 10
0
 20
0
 30
0
  0
VERTEX
  8
LAYER_2
 10
55.0141
 20
135.4959
  0
VERTEX
  8
LAYER_2
 10
54.3901
 20
135.4959
  0
SEQEND
  0
POLYLINE
  8
LAYER_2
 40
0.0882
 41
0.0882
 62
251
 66
1
 10
0
 20
0
 30
0
  0
VERTEX
  8
LAYER_2
 10
54.0781
 20
135.4959
  0
VERTEX
  8
LAYER_2
 10
53.4541
 20
135.4959
  0
SEQEND
  0
POLYLINE
  8
LAYER_2
 40
0.0882
 41
0.0882
 62
251
 66
1
 10
0
 20
0
 30
0
  0
VERTEX
  8
LAYER_2
 10
53.1422
 20
135.4959
  0
VERTEX
  8
LAYER_2
 10
52.4791
 20
135.4959
  0
SEQEND
  0
POLYLINE
  8
LAYER_2
 40
0.0882
 41
0.0882
 62
251
 66
1
 10
0
 20
0
 30
0
  0
VERTEX
  8
LAYER_2
 10
52.1672
 20
135.4959
  0
VERTEX
  8
LAYER_2
 10
51.5432
 20
135.4959
  0
SEQEND
  0
POLYLINE
  8
LAYER_2
 40
0.0882
 41
0.0882
 62
251
 66
1
 10
0
 20
0
 30
0
  0
VERTEX
  8
LAYER_2
 10
51.2312
 20
135.4959
  0
VERTEX
  8
LAYER_2
 10
50.5681
 20
135.4959
  0
SEQEND
  0
POLYLINE
  8
LAYER_2
 40
0.0882
 41
0.0882
 62
251
 66
1
 10
0
 20
0
 30
0
  0
VERTEX
  8
LAYER_2
 10
50.2562
 20
135.4959
  0
VERTEX
  8
LAYER_2
 10
49.6322
 20
135.4959
  0
SEQEND
  0
POLYLINE
  8
LAYER_2
 40
0.0882
 41
0.0882
 62
251
 66
1
 10
0
 20
0
 30
0
  0
VERTEX
  8
LAYER_2
 10
49.3202
 20
135.4959
  0
VERTEX
  8
LAYER_2
 10
48.6962
 20
135.4959
  0
SEQEND
  0
POLYLINE
  8
LAYER_2
 40
0.0882
 41
0.0882
 62
251
 66
1
 10
0
 20
0
 30
0
  0
VERTEX
  8
LAYER_2
 10
48.3452
 20
135.4959
  0
VERTEX
  8
LAYER_2
 10
47.7212
 20
135.4959
  0
SEQEND
  0
POLYLINE
  8
LAYER_2
 40
0.0882
 41
0.0882
 62
251
 66
1
 10
0
 20
0
 30
0
  0
VERTEX
  8
LAYER_2
 10
47.4093
 20
135.4959
  0
VERTEX
  8
LAYER_2
 10
46.7853
 20
135.4959
  0
SEQEND
  0
POLYLINE
  8
LAYER_2
 40
0.0882
 41
0.0882
 62
251
 66
1
 10
0
 20
0
 30
0
  0
VERTEX
  8
LAYER_2
 10
46.4733
 20
135.4959
  0
VERTEX
  8
LAYER_2
 10
45.8102
 20
135.4959
  0
SEQEND
  0
POLYLINE
  8
LAYER_2
 40
0.0882
 41
0.0882
 62
251
 66
1
 10
0
 20
0
 30
0
  0
VERTEX
  8
LAYER_2
 10
45.4983
 20
135.4959
  0
VERTEX
  8
LAYER_2
 10
44.8743
 20
135.4959
  0
SEQEND
  0
POLYLINE
  8
LAYER_2
 40
0.0882
 41
0.0882
 62
251
 66
1
 10
0
 20
0
 30
0
  0
VERTEX
  8
LAYER_2
 10
44.5623
 20
135.4959
  0
VERTEX
  8
LAYER_2
 10
43.8992
 20
135.4959
  0
SEQEND
  0
POLYLINE
  8
LAYER_2
 40
0.0882
 41
0.0882
 62
251
 66
1
 10
0
 20
0
 30
0
  0
VERTEX
  8
LAYER_2
 10
43.5873
 20
135.4959
  0
VERTEX
  8
LAYER_2
 10
42.9633
 20
135.4959
  0
SEQEND
  0
POLYLINE
  8
LAYER_2
 40
0.0882
 41
0.0882
 62
251
 66
1
 10
0
 20
0
 30
0
  0
VERTEX
  8
LAYER_2
 10
42.6513
 20
135.4959
  0
VERTEX
  8
LAYER_2
 10
42.0273
 20
135.4959
  0
SEQEND
  0
POLYLINE
  8
LAYER_2
 40
0.0882
 41
0.0882
 62
251
 66
1
 10
0
 20
0
 30
0
  0
VERTEX
  8
LAYER_2
 10
41.6763
 20
135.4959
  0
VERTEX
  8
LAYER_2
 10
41.0523
 20
135.4959
  0
SEQEND
  0
POLYLINE
  8
LAYER_2
 40
0.0882
 41
0.0882
 62
251
 66
1
 10
0
 20
0
 30
0
  0
VERTEX
  8
LAYER_2
 10
40.7403
 20
135.4959
  0
VERTEX
  8
LAYER_2
 10
40.1163
 20
135.4959
  0
SEQEND
  0
POLYLINE
  8
LAYER_2
 40
0.0882
 41
0.0882
 62
251
 66
1
 10
0
 20
0
 30
0
  0
VERTEX
  8
LAYER_2
 10
39.8043
 20
135.4959
  0
VERTEX
  8
LAYER_2
 10
39.1413
 20
135.4959
  0
SEQEND
  0
POLYLINE
  8
LAYER_2
 40
0.0882
 41
0.0882
 62
251
 66
1
 10
0
 20
0
 30
0
  0
VERTEX
  8
LAYER_2
 10
38.8293
 20
135.4959
  0
VERTEX
  8
LAYER_2
 10
38.3612
 20
135.4959
  0
SEQEND
  0
POLYLINE
  8
LAYER_2
 40
0.0882
 41
0.0882
 62
251
 66
1
 10
0
 20
0
 30
0
  0
VERTEX
  8
LAYER_2
 10
36.3724
 20
137.5239
  0
VERTEX
  8
LAYER_2
 10
36.4115
 20
137.1339
  0
VERTEX
  8
LAYER_2
 10
36.4505
 20
137.0558
  0
SEQEND
  0
POLYLINE
  8
LAYER_2
 40
0.0882
 41
0.0882
 62
251
 66
1
 10
0
 20
0
 30
0
  0
VERTEX
  8
LAYER_2
 10
36.5284
 20
136.7439
  0
VERTEX
  8
LAYER_2
 10
36.7234
 20
136.393
  0
VERTEX
  8
LAYER_2
 10
36.8793
 20
136.2367
  0
SEQEND
  0
POLYLINE
  8
LAYER_2
 40
0.0882
 41
0.0882
 62
251
 66
1
 10
0
 20
0
 30
0
  0
VERTEX
  8
LAYER_2
 10
37.0744
 20
136.0029
  0
VERTEX
  8
LAYER_2
 10
37.2693
 20
135.847
  0
VERTEX
  8
LAYER_2
 10
37.6202
 20
135.6521
  0
SEQEND
  0
POLYLINE
  8
LAYER_2
 40
0.0882
 41
0.0882
 62
251
 66
1
 10
0
 20
0
 30
0
  0
VERTEX
  8
LAYER_2
 10
37.9324
 20
135.5739
  0
VERTEX
  8
LAYER_2
 10
37.9715
 20
135.5349
  0
VERTEX
  8
LAYER_2
 10
38.3614
 20
135.4958
  0
SEQEND
  0
POLYLINE
  8
LAYER_2
 40
0.0882
 41
0.0882
 62
251
 66
1
 10
0
 20
0
 30
0
  0
VERTEX
  8
LAYER_2
 10
36.3724
 20
137.5239
  0
VERTEX
  8
LAYER_2
 10
36.3724
 20
138.187
  0
SEQEND
  0
POLYLINE
  8
LAYER_2
 40
0.0882
 41
0.0882
 62
251
 66
1
 10
0
 20
0
 30
0
  0
VERTEX
  8
LAYER_2
 10
36.3724
 20
138.4989
  0
VERTEX
  8
LAYER_2
 10
36.3724
 20
139.1229
  0
SEQEND
  0
POLYLINE
  8
LAYER_2
 40
0.0882
 41
0.0882
 62
251
 66
1
 10
0
 20
0
 30
0
  0
VERTEX
  8
LAYER_2
 10
36.3724
 20
139.4739
  0
VERTEX
  8
LAYER_2
 10
36.3724
 20
140.0979
  0
SEQEND
  0
POLYLINE
  8
LAYER_2
 40
0.0882
 41
0.0882
 62
251
 66
1
 10
0
 20
0
 30
0
  0
VERTEX
  8
LAYER_2
 10
36.3724
 20
140.4098
  0
VERTEX
  8
LAYER_2
 10
36.3724
 20
141.0338
  0
SEQEND
  0
POLYLINE
  8
LAYER_2
 40
0.0882
 41
0.0882
 62
251
 66
1
 10
0
 20
0
 30
0
  0
VERTEX
  8
LAYER_2
 10
36.3724
 20
141.3458
  0
VERTEX
  8
LAYER_2
 10
36.3724
 20
142.0089
  0
SEQEND
  0
POLYLINE
  8
LAYER_2
 40
0.0882
 41
0.0882
 62
251
 66
1
 10
0
 20
0
 30
0
  0
VERTEX
  8
LAYER_2
 10
36.3724
 20
142.3208
  0
VERTEX
  8
LAYER_2
 10
36.3724
 20
142.9448
  0
SEQEND
  0
POLYLINE
  8
LAYER_2
 40
0.0882
 41
0.0882
 62
251
 66
1
 10
0
 20
0
 30
0
  0
VERTEX
  8
LAYER_2
 10
36.3724
 20
143.2568
  0
VERTEX
  8
LAYER_2
 10
36.3724
 20
143.9199
  0
SEQEND
  0
POLYLINE
  8
LAYER_2
 40
0.0882
 41
0.0882
 62
251
 66
1
 10
0
 20
0
 30
0
  0
VERTEX
  8
LAYER_2
 10
36.3724
 20
144.2318
  0
VERTEX
  8
LAYER_2
 10
36.3724
 20
144.8558
  0
SEQEND
  0
POLYLINE
  8
LAYER_2
 40
0.0882
 41
0.0882
 62
251
 66
1
 10
0
 20
0
 30
0
  0
VERTEX
  8
LAYER_2
 10
36.3724
 20
145.1678
  0
VERTEX
  8
LAYER_2
 10
36.3724
 20
145.7918
  0
SEQEND
  0
POLYLINE
  8
LAYER_2
 40
0.0882
 41
0.0882
 62
251
 66
1
 10
0
 20
0
 30
0
  0
VERTEX
  8
LAYER_2
 10
36.3724
 20
146.1428
  0
VERTEX
  8
LAYER_2
 10
36.3724
 20
146.7668
  0
SEQEND
  0
POLYLINE
  8
LAYER_2
 40
0.0882
 41
0.0882
 62
251
 66
1
 10
0
 20
0
 30
0
  0
VERTEX
  8
LAYER_2
 10
36.3724
 20
147.0788
  0
VERTEX
  8
LAYER_2
 10
36.3724
 20
147.7028
  0
SEQEND
  0
POLYLINE
  8
LAYER_2
 40
0.0882
 41
0.0882
 62
251
 66
1
 10
0
 20
0
 30
0
  0
VERTEX
  8
LAYER_2
 10
36.3724
 20
148.0148
  0
VERTEX
  8
LAYER_2
 10
36.3724
 20
148.6778
  0
SEQEND
  0
POLYLINE
  8
LAYER_2
 40
0.0882
 41
0.0882
 62
251
 66
1
 10
0
 20
0
 30
0
  0
VERTEX
  8
LAYER_2
 10
36.3724
 20
148.9898
  0
VERTEX
  8
LAYER_2
 10
36.3724
 20
149.6138
  0
SEQEND
  0
POLYLINE
  8
LAYER_2
 40
0.0882
 41
0.0882
 62
251
 66
1
 10
0
 20
0
 30
0
  0
VERTEX
  8
LAYER_2
 10
36.3724
 20
149.9257
  0
VERTEX
  8
LAYER_2
 10
36.3724
 20
150.5497
  0
SEQEND
  0
POLYLINE
  8
LAYER_2
 40
0.0882
 41
0.0882
 62
251
 66
1
 10
0
 20
0
 30
0
  0
VERTEX
  8
LAYER_2
 10
36.3724
 20
150.9007
  0
VERTEX
  8
LAYER_2
 10
36.3724
 20
151.5247
  0
SEQEND
  0
POLYLINE
  8
LAYER_2
 40
0.0882
 41
0.0882
 62
251
 66
1
 10
0
 20
0
 30
0
  0
VERTEX
  8
LAYER_2
 10
36.3724
 20
151.8367
  0
VERTEX
  8
LAYER_2
 10
36.3724
 20
152.4998
  0
SEQEND
  0
POLYLINE
  8
LAYER_2
 40
0.0882
 41
0.0882
 62
251
 66
1
 10
0
 20
0
 30
0
  0
VERTEX
  8
LAYER_2
 10
87.3837
 20
150.5107
  0
VERTEX
  8
LAYER_2
 10
87.3837
 20
149.8867
  0
SEQEND
  0
POLYLINE
  8
LAYER_2
 40
0.0882
 41
0.0882
 62
251
 66
1
 10
0
 20
0
 30
0
  0
VERTEX
  8
LAYER_2
 10
87.3837
 20
149.5747
  0
VERTEX
  8
LAYER_2
 10
87.3837
 20
148.9507
  0
SEQEND
  0
POLYLINE
  8
LAYER_2
 40
0.0882
 41
0.0882
 62
251
 66
1
 10
0
 20
0
 30
0
  0
VERTEX
  8
LAYER_2
 10
87.3837
 20
148.5998
  0
VERTEX
  8
LAYER_2
 10
87.3837
 20
147.9758
  0
SEQEND
  0
POLYLINE
  8
LAYER_2
 40
0.0882
 41
0.0882
 62
251
 66
1
 10
0
 20
0
 30
0
  0
VERTEX
  8
LAYER_2
 10
87.3837
 20
147.6638
  0
VERTEX
  8
LAYER_2
 10
87.3837
 20
147.0398
  0
SEQEND
  0
POLYLINE
  8
LAYER_2
 40
0.0882
 41
0.0882
 62
251
 66
1
 10
0
 20
0
 30
0
  0
VERTEX
  8
LAYER_2
 10
87.3837
 20
146.7278
  0
VERTEX
  8
LAYER_2
 10
87.3837
 20
146.0647
  0
SEQEND
  0
POLYLINE
  8
LAYER_2
 40
0.0882
 41
0.0882
 62
251
 66
1
 10
0
 20
0
 30
0
  0
VERTEX
  8
LAYER_2
 10
87.3837
 20
145.7528
  0
VERTEX
  8
LAYER_2
 10
87.3837
 20
145.1288
  0
SEQEND
  0
POLYLINE
  8
LAYER_2
 40
0.0882
 41
0.0882
 62
251
 66
1
 10
0
 20
0
 30
0
  0
VERTEX
  8
LAYER_2
 10
87.3837
 20
144.8168
  0
VERTEX
  8
LAYER_2
 10
87.3837
 20
144.1537
  0
SEQEND
  0
POLYLINE
  8
LAYER_2
 40
0.0882
 41
0.0882
 62
251
 66
1
 10
0
 20
0
 30
0
  0
VERTEX
  8
LAYER_2
 10
87.3837
 20
143.8418
  0
VERTEX
  8
LAYER_2
 10
87.3837
 20
143.2178
  0
SEQEND
  0
POLYLINE
  8
LAYER_2
 40
0.0882
 41
0.0882
 62
251
 66
1
 10
0
 20
0
 30
0
  0
VERTEX
  8
LAYER_2
 10
87.3837
 20
142.9058
  0
VERTEX
  8
LAYER_2
 10
87.3837
 20
142.2818
  0
SEQEND
  0
POLYLINE
  8
LAYER_2
 40
0.0882
 41
0.0882
 62
251
 66
1
 10
0
 20
0
 30
0
  0
VERTEX
  8
LAYER_2
 10
87.3837
 20
141.9309
  0
VERTEX
  8
LAYER_2
 10
87.3837
 20
141.3068
  0
SEQEND
  0
POLYLINE
  8
LAYER_2
 40
0.0882
 41
0.0882
 62
251
 66
1
 10
0
 20
0
 30
0
  0
VERTEX
  8
LAYER_2
 10
87.3837
 20
140.9949
  0
VERTEX
  8
LAYER_2
 10
87.3837
 20
140.3708
  0
SEQEND
  0
POLYLINE
  8
LAYER_2
 40
0.0882
 41
0.0882
 62
251
 66
1
 10
0
 20
0
 30
0
  0
VERTEX
  8
LAYER_2
 10
87.3837
 20
140.0588
  0
VERTEX
  8
LAYER_2
 10
87.3837
 20
139.3958
  0
SEQEND
  0
POLYLINE
  8
LAYER_2
 40
0.0882
 41
0.0882
 62
251
 66
1
 10
0
 20
0
 30
0
  0
VERTEX
  8
LAYER_2
 10
87.3837
 20
139.0839
  0
VERTEX
  8
LAYER_2
 10
87.3837
 20
138.4599
  0
SEQEND
  0
POLYLINE
  8
LAYER_2
 40
0.0882
 41
0.0882
 62
251
 66
1
 10
0
 20
0
 30
0
  0
VERTEX
  8
LAYER_2
 10
87.3837
 20
138.1479
  0
VERTEX
  8
LAYER_2
 10
87.3837
 20
137.5239
  0
SEQEND
  0
POLYLINE
  8
LAYER_2
 40
0.0882
 41
0.0882
 62
251
 66
1
 10
0
 20
0
 30
0
  0
VERTEX
  8
LAYER_2
 10
88.3587
 20
151.5247
  0
VERTEX
  8
LAYER_2
 10
88.1637
 20
151.4856
  0
VERTEX
  8
LAYER_2
 10
88.0078
 20
151.4466
  0
VERTEX
  8
LAYER_2
 10
87.8128
 20
151.3297
  0
VERTEX
  8
LAYER_2
 10
87.7738
 20
151.3297
  0
SEQEND
  0
POLYLINE
  8
LAYER_2
 40
0.0882
 41
0.0882
 62
251
 66
1
 10
0
 20
0
 30
0
  0
VERTEX
  8
LAYER_2
 10
87.5787
 20
151.0957
  0
VERTEX
  8
LAYER_2
 10
87.5396
 20
151.0567
  0
VERTEX
  8
LAYER_2
 10
87.4619
 20
150.9008
  0
VERTEX
  8
LAYER_2
 10
87.3837
 20
150.7058
  0
VERTEX
  8
LAYER_2
 10
87.3837
 20
150.5108
  0
SEQEND
  0
POLYLINE
  8
LAYER_2
 40
0.0882
 41
0.0882
 62
251
 66
1
 10
0
 20
0
 30
0
  0
VERTEX
  8
LAYER_2
 10
84.3807
 20
134.521
  0
VERTEX
  8
LAYER_2
 10
84.8879
 20
134.56
  0
VERTEX
  8
LAYER_2
 10
85.1216
 20
134.6378
  0
SEQEND
  0
POLYLINE
  8
LAYER_2
 40
0.0882
 41
0.0882
 62
251
 66
1
 10
0
 20
0
 30
0
  0
VERTEX
  8
LAYER_2
 10
85.4337
 20
134.7159
  0
VERTEX
  8
LAYER_2
 10
85.8628
 20
134.9109
  0
VERTEX
  8
LAYER_2
 10
86.0187
 20
134.9891
  0
SEQEND
  0
POLYLINE
  8
LAYER_2
 40
0.0882
 41
0.0882
 62
251
 66
1
 10
0
 20
0
 30
0
  0
VERTEX
  8
LAYER_2
 10
86.2527
 20
135.1839
  0
VERTEX
  8
LAYER_2
 10
86.2918
 20
135.223
  0
VERTEX
  8
LAYER_2
 10
86.6817
 20
135.5739
  0
VERTEX
  8
LAYER_2
 10
86.7208
 20
135.613
  0
SEQEND
  0
POLYLINE
  8
LAYER_2
 40
0.0882
 41
0.0882
 62
251
 66
1
 10
0
 20
0
 30
0
  0
VERTEX
  8
LAYER_2
 10
86.8767
 20
135.8859
  0
VERTEX
  8
LAYER_2
 10
86.9935
 20
136.0028
  0
VERTEX
  8
LAYER_2
 10
87.1885
 20
136.4709
  0
SEQEND
  0
POLYLINE
  8
LAYER_2
 40
0.0882
 41
0.0882
 62
251
 66
1
 10
0
 20
0
 30
0
  0
VERTEX
  8
LAYER_2
 10
87.2667
 20
136.7439
  0
VERTEX
  8
LAYER_2
 10
87.3449
 20
136.978
  0
VERTEX
  8
LAYER_2
 10
87.3835
 20
137.5238
  0
SEQEND
  0
POLYLINE
  8
LAYER_2
 40
0.0882
 41
0.0882
 62
251
 66
1
 10
0
 20
0
 30
0
  0
VERTEX
  8
LAYER_2
 10
84.3807
 20
134.521
  0
VERTEX
  8
LAYER_2
 10
83.9126
 20
134.521
  0
SEQEND
  0
POLYLINE
  8
LAYER_2
 40
0.0882
 41
0.0882
 62
251
 66
1
 10
0
 20
0
 30
0
  0
VERTEX
  8
LAYER_2
 10
83.6008
 20
134.521
  0
VERTEX
  8
LAYER_2
 10
82.9768
 20
134.521
  0
SEQEND
  0
POLYLINE
  8
LAYER_2
 40
0.0882
 41
0.0882
 62
251
 66
1
 10
0
 20
0
 30
0
  0
VERTEX
  8
LAYER_2
 10
82.6648
 20
134.521
  0
VERTEX
  8
LAYER_2
 10
82.0017
 20
134.521
  0
SEQEND
  0
POLYLINE
  8
LAYER_2
 40
0.0882
 41
0.0882
 62
251
 66
1
 10
0
 20
0
 30
0
  0
VERTEX
  8
LAYER_2
 10
81.6898
 20
134.521
  0
VERTEX
  8
LAYER_2
 10
81.0658
 20
134.521
  0
SEQEND
  0
POLYLINE
  8
LAYER_2
 40
0.0882
 41
0.0882
 62
251
 66
1
 10
0
 20
0
 30
0
  0
VERTEX
  8
LAYER_2
 10
80.7538
 20
134.521
  0
VERTEX
  8
LAYER_2
 10
80.0907
 20
134.521
  0
SEQEND
  0
POLYLINE
  8
LAYER_2
 40
0.0882
 41
0.0882
 62
251
 66
1
 10
0
 20
0
 30
0
  0
VERTEX
  8
LAYER_2
 10
79.7788
 20
134.521
  0
VERTEX
  8
LAYER_2
 10
79.1548
 20
134.521
  0
SEQEND
  0
POLYLINE
  8
LAYER_2
 40
0.0882
 41
0.0882
 62
251
 66
1
 10
0
 20
0
 30
0
  0
VERTEX
  8
LAYER_2
 10
78.8428
 20
134.521
  0
VERTEX
  8
LAYER_2
 10
78.2188
 20
134.521
  0
SEQEND
  0
POLYLINE
  8
LAYER_2
 40
0.0882
 41
0.0882
 62
251
 66
1
 10
0
 20
0
 30
0
  0
VERTEX
  8
LAYER_2
 10
77.8678
 20
134.521
  0
VERTEX
  8
LAYER_2
 10
77.2438
 20
134.521
  0
SEQEND
  0
POLYLINE
  8
LAYER_2
 40
0.0882
 41
0.0882
 62
251
 66
1
 10
0
 20
0
 30
0
  0
VERTEX
  8
LAYER_2
 10
76.9318
 20
134.521
  0
VERTEX
  8
LAYER_2
 10
76.3078
 20
134.521
  0
SEQEND
  0
POLYLINE
  8
LAYER_2
 40
0.0882
 41
0.0882
 62
251
 66
1
 10
0
 20
0
 30
0
  0
VERTEX
  8
LAYER_2
 10
75.9958
 20
134.521
  0
VERTEX
  8
LAYER_2
 10
75.3328
 20
134.521
  0
SEQEND
  0
POLYLINE
  8
LAYER_2
 40
0.0882
 41
0.0882
 62
251
 66
1
 10
0
 20
0
 30
0
  0
VERTEX
  8
LAYER_2
 10
75.0209
 20
134.521
  0
VERTEX
  8
LAYER_2
 10
74.3969
 20
134.521
  0
SEQEND
  0
POLYLINE
  8
LAYER_2
 40
0.0882
 41
0.0882
 62
251
 66
1
 10
0
 20
0
 30
0
  0
VERTEX
  8
LAYER_2
 10
74.0849
 20
134.521
  0
VERTEX
  8
LAYER_2
 10
73.4609
 20
134.521
  0
SEQEND
  0
POLYLINE
  8
LAYER_2
 40
0.0882
 41
0.0882
 62
251
 66
1
 10
0
 20
0
 30
0
  0
VERTEX
  8
LAYER_2
 10
73.1099
 20
134.521
  0
VERTEX
  8
LAYER_2
 10
72.4859
 20
134.521
  0
SEQEND
  0
POLYLINE
  8
LAYER_2
 40
0.0882
 41
0.0882
 62
251
 66
1
 10
0
 20
0
 30
0
  0
VERTEX
  8
LAYER_2
 10
72.1739
 20
134.521
  0
VERTEX
  8
LAYER_2
 10
71.5499
 20
134.521
  0
SEQEND
  0
POLYLINE
  8
LAYER_2
 40
0.0882
 41
0.0882
 62
251
 66
1
 10
0
 20
0
 30
0
  0
VERTEX
  8
LAYER_2
 10
71.2379
 20
134.521
  0
VERTEX
  8
LAYER_2
 10
70.5748
 20
134.521
  0
SEQEND
  0
POLYLINE
  8
LAYER_2
 40
0.0882
 41
0.0882
 62
251
 66
1
 10
0
 20
0
 30
0
  0
VERTEX
  8
LAYER_2
 10
70.2629
 20
134.521
  0
VERTEX
  8
LAYER_2
 10
69.6389
 20
134.521
  0
SEQEND
  0
POLYLINE
  8
LAYER_2
 40
0.0882
 41
0.0882
 62
251
 66
1
 10
0
 20
0
 30
0
  0
VERTEX
  8
LAYER_2
 10
69.327
 20
134.521
  0
VERTEX
  8
LAYER_2
 10
68.6639
 20
134.521
  0
SEQEND
  0
POLYLINE
  8
LAYER_2
 40
0.0882
 41
0.0882
 62
251
 66
1
 10
0
 20
0
 30
0
  0
VERTEX
  8
LAYER_2
 10
68.352
 20
134.521
  0
VERTEX
  8
LAYER_2
 10
67.728
 20
134.521
  0
SEQEND
  0
POLYLINE
  8
LAYER_2
 40
0.0882
 41
0.0882
 62
251
 66
1
 10
0
 20
0
 30
0
  0
VERTEX
  8
LAYER_2
 10
67.416
 20
134.521
  0
VERTEX
  8
LAYER_2
 10
66.792
 20
134.521
  0
SEQEND
  0
POLYLINE
  8
LAYER_2
 40
0.0882
 41
0.0882
 62
251
 66
1
 10
0
 20
0
 30
0
  0
VERTEX
  8
LAYER_2
 10
66.441
 20
134.521
  0
VERTEX
  8
LAYER_2
 10
65.817
 20
134.521
  0
SEQEND
  0
POLYLINE
  8
LAYER_2
 40
0.0882
 41
0.0882
 62
251
 66
1
 10
0
 20
0
 30
0
  0
VERTEX
  8
LAYER_2
 10
65.505
 20
134.521
  0
VERTEX
  8
LAYER_2
 10
64.881
 20
134.521
  0
SEQEND
  0
POLYLINE
  8
LAYER_2
 40
0.0882
 41
0.0882
 62
251
 66
1
 10
0
 20
0
 30
0
  0
VERTEX
  8
LAYER_2
 10
64.569
 20
134.521
  0
VERTEX
  8
LAYER_2
 10
63.9059
 20
134.521
  0
SEQEND
  0
POLYLINE
  8
LAYER_2
 40
0.0882
 41
0.0882
 62
251
 66
1
 10
0
 20
0
 30
0
  0
VERTEX
  8
LAYER_2
 10
63.594
 20
134.521
  0
VERTEX
  8
LAYER_2
 10
62.97
 20
134.521
  0
SEQEND
  0
POLYLINE
  8
LAYER_2
 40
0.0882
 41
0.0882
 62
251
 66
1
 10
0
 20
0
 30
0
  0
VERTEX
  8
LAYER_2
 10
62.6581
 20
134.521
  0
VERTEX
  8
LAYER_2
 10
61.995
 20
134.521
  0
SEQEND
  0
POLYLINE
  8
LAYER_2
 40
0.0882
 41
0.0882
 62
251
 66
1
 10
0
 20
0
 30
0
  0
VERTEX
  8
LAYER_2
 10
61.6831
 20
134.521
  0
VERTEX
  8
LAYER_2
 10
61.059
 20
134.521
  0
SEQEND
  0
POLYLINE
  8
LAYER_2
 40
0.0882
 41
0.0882
 62
251
 66
1
 10
0
 20
0
 30
0
  0
VERTEX
  8
LAYER_2
 10
60.7471
 20
134.521
  0
VERTEX
  8
LAYER_2
 10
60.123
 20
134.521
  0
SEQEND
  0
POLYLINE
  8
LAYER_2
 40
0.0882
 41
0.0882
 62
251
 66
1
 10
0
 20
0
 30
0
  0
VERTEX
  8
LAYER_2
 10
59.7721
 20
134.521
  0
VERTEX
  8
LAYER_2
 10
59.1481
 20
134.521
  0
SEQEND
  0
POLYLINE
  8
LAYER_2
 40
0.0882
 41
0.0882
 62
251
 66
1
 10
0
 20
0
 30
0
  0
VERTEX
  8
LAYER_2
 10
58.8361
 20
134.521
  0
VERTEX
  8
LAYER_2
 10
58.2121
 20
134.521
  0
SEQEND
  0
POLYLINE
  8
LAYER_2
 40
0.0882
 41
0.0882
 62
251
 66
1
 10
0
 20
0
 30
0
  0
VERTEX
  8
LAYER_2
 10
57.9001
 20
134.521
  0
VERTEX
  8
LAYER_2
 10
57.237
 20
134.521
  0
SEQEND
  0
POLYLINE
  8
LAYER_2
 40
0.0882
 41
0.0882
 62
251
 66
1
 10
0
 20
0
 30
0
  0
VERTEX
  8
LAYER_2
 10
56.9251
 20
134.521
  0
VERTEX
  8
LAYER_2
 10
56.3011
 20
134.521
  0
SEQEND
  0
POLYLINE
  8
LAYER_2
 40
0.0882
 41
0.0882
 62
251
 66
1
 10
0
 20
0
 30
0
  0
VERTEX
  8
LAYER_2
 10
55.9891
 20
134.521
  0
VERTEX
  8
LAYER_2
 10
55.3651
 20
134.521
  0
SEQEND
  0
POLYLINE
  8
LAYER_2
 40
0.0882
 41
0.0882
 62
251
 66
1
 10
0
 20
0
 30
0
  0
VERTEX
  8
LAYER_2
 10
55.0141
 20
134.521
  0
VERTEX
  8
LAYER_2
 10
54.3901
 20
134.521
  0
SEQEND
  0
POLYLINE
  8
LAYER_2
 40
0.0882
 41
0.0882
 62
251
 66
1
 10
0
 20
0
 30
0
  0
VERTEX
  8
LAYER_2
 10
54.0781
 20
134.521
  0
VERTEX
  8
LAYER_2
 10
53.4541
 20
134.521
  0
SEQEND
  0
POLYLINE
  8
LAYER_2
 40
0.0882
 41
0.0882
 62
251
 66
1
 10
0
 20
0
 30
0
  0
VERTEX
  8
LAYER_2
 10
53.1422
 20
134.521
  0
VERTEX
  8
LAYER_2
 10
52.4791
 20
134.521
  0
SEQEND
  0
POLYLINE
  8
LAYER_2
 40
0.0882
 41
0.0882
 62
251
 66
1
 10
0
 20
0
 30
0
  0
VERTEX
  8
LAYER_2
 10
52.1672
 20
134.521
  0
VERTEX
  8
LAYER_2
 10
51.5432
 20
134.521
  0
SEQEND
  0
POLYLINE
  8
LAYER_2
 40
0.0882
 41
0.0882
 62
251
 66
1
 10
0
 20
0
 30
0
  0
VERTEX
  8
LAYER_2
 10
51.2312
 20
134.521
  0
VERTEX
  8
LAYER_2
 10
50.5681
 20
134.521
  0
SEQEND
  0
POLYLINE
  8
LAYER_2
 40
0.0882
 41
0.0882
 62
251
 66
1
 10
0
 20
0
 30
0
  0
VERTEX
  8
LAYER_2
 10
50.2562
 20
134.521
  0
VERTEX
  8
LAYER_2
 10
49.6322
 20
134.521
  0
SEQEND
  0
POLYLINE
  8
LAYER_2
 40
0.0882
 41
0.0882
 62
251
 66
1
 10
0
 20
0
 30
0
  0
VERTEX
  8
LAYER_2
 10
49.3202
 20
134.521
  0
VERTEX
  8
LAYER_2
 10
48.6962
 20
134.521
  0
SEQEND
  0
POLYLINE
  8
LAYER_2
 40
0.0882
 41
0.0882
 62
251
 66
1
 10
0
 20
0
 30
0
  0
VERTEX
  8
LAYER_2
 10
48.3452
 20
134.521
  0
VERTEX
  8
LAYER_2
 10
47.7212
 20
134.521
  0
SEQEND
  0
POLYLINE
  8
LAYER_2
 40
0.0882
 41
0.0882
 62
251
 66
1
 10
0
 20
0
 30
0
  0
VERTEX
  8
LAYER_2
 10
47.4093
 20
134.521
  0
VERTEX
  8
LAYER_2
 10
46.7853
 20
134.521
  0
SEQEND
  0
POLYLINE
  8
LAYER_2
 40
0.0882
 41
0.0882
 62
251
 66
1
 10
0
 20
0
 30
0
  0
VERTEX
  8
LAYER_2
 10
46.4733
 20
134.521
  0
VERTEX
  8
LAYER_2
 10
45.8102
 20
134.521
  0
SEQEND
  0
POLYLINE
  8
LAYER_2
 40
0.0882
 41
0.0882
 62
251
 66
1
 10
0
 20
0
 30
0
  0
VERTEX
  8
LAYER_2
 10
45.4983
 20
134.521
  0
VERTEX
  8
LAYER_2
 10
44.8743
 20
134.521
  0
SEQEND
  0
POLYLINE
  8
LAYER_2
 40
0.0882
 41
0.0882
 62
251
 66
1
 10
0
 20
0
 30
0
  0
VERTEX
  8
LAYER_2
 10
44.5623
 20
134.521
  0
VERTEX
  8
LAYER_2
 10
43.8992
 20
134.521
  0
SEQEND
  0
POLYLINE
  8
LAYER_2
 40
0.0882
 41
0.0882
 62
251
 66
1
 10
0
 20
0
 30
0
  0
VERTEX
  8
LAYER_2
 10
43.5873
 20
134.521
  0
VERTEX
  8
LAYER_2
 10
42.9633
 20
134.521
  0
SEQEND
  0
POLYLINE
  8
LAYER_2
 40
0.0882
 41
0.0882
 62
251
 66
1
 10
0
 20
0
 30
0
  0
VERTEX
  8
LAYER_2
 10
42.6513
 20
134.521
  0
VERTEX
  8
LAYER_2
 10
42.0273
 20
134.521
  0
SEQEND
  0
POLYLINE
  8
LAYER_2
 40
0.0882
 41
0.0882
 62
251
 66
1
 10
0
 20
0
 30
0
  0
VERTEX
  8
LAYER_2
 10
41.6763
 20
134.521
  0
VERTEX
  8
LAYER_2
 10
41.0523
 20
134.521
  0
SEQEND
  0
POLYLINE
  8
LAYER_2
 40
0.0882
 41
0.0882
 62
251
 66
1
 10
0
 20
0
 30
0
  0
VERTEX
  8
LAYER_2
 10
40.7403
 20
134.521
  0
VERTEX
  8
LAYER_2
 10
40.1163
 20
134.521
  0
SEQEND
  0
POLYLINE
  8
LAYER_2
 40
0.0882
 41
0.0882
 62
251
 66
1
 10
0
 20
0
 30
0
  0
VERTEX
  8
LAYER_2
 10
39.8043
 20
134.521
  0
VERTEX
  8
LAYER_2
 10
39.1413
 20
134.521
  0
SEQEND
  0
POLYLINE
  8
LAYER_2
 40
0.0882
 41
0.0882
 62
251
 66
1
 10
0
 20
0
 30
0
  0
VERTEX
  8
LAYER_2
 10
38.8293
 20
134.521
  0
VERTEX
  8
LAYER_2
 10
38.3612
 20
134.521
  0
SEQEND
  0
POLYLINE
  8
LAYER_2
 40
0.0882
 41
0.0882
 62
251
 66
1
 10
0
 20
0
 30
0
  0
VERTEX
  8
LAYER_2
 10
35.5534
 20
136.5099
  0
VERTEX
  8
LAYER_2
 10
35.7875
 20
136.0418
  0
VERTEX
  8
LAYER_2
 10
35.9043
 20
135.8468
  0
SEQEND
  0
POLYLINE
  8
LAYER_2
 40
0.0882
 41
0.0882
 62
251
 66
1
 10
0
 20
0
 30
0
  0
VERTEX
  8
LAYER_2
 10
36.0604
 20
135.6129
  0
VERTEX
  8
LAYER_2
 10
36.4503
 20
135.223
  0
VERTEX
  8
LAYER_2
 10
36.5285
 20
135.1448
  0
SEQEND
  0
POLYLINE
  8
LAYER_2
 40
0.0882
 41
0.0882
 62
251
 66
1
 10
0
 20
0
 30
0
  0
VERTEX
  8
LAYER_2
 10
36.8014
 20
134.9889
  0
VERTEX
  8
LAYER_2
 10
36.8795
 20
134.9108
  0
VERTEX
  8
LAYER_2
 10
37.3472
 20
134.6771
  0
SEQEND
  0
POLYLINE
  8
LAYER_2
 40
0.0882
 41
0.0882
 62
251
 66
1
 10
0
 20
0
 30
0
  0
VERTEX
  8
LAYER_2
 10
37.6594
 20
134.5989
  0
VERTEX
  8
LAYER_2
 10
37.8544
 20
134.5599
  0
VERTEX
  8
LAYER_2
 10
38.3615
 20
134.5208
  0
SEQEND
  0
POLYLINE
  8
LAYER_2
 40
0.3951
 41
0.3951
 66
1
 10
0
 20
0
 30
0
  0
VERTEX
  8
LAYER_2
 10
47.8772
 20
147.5078
  0
VERTEX
  8
LAYER_2
 10
48.8521
 20
147.5078
  0
SEQEND
  0
POLYLINE
  8
LAYER_2
 40
0.3951
 41
0.3951
 66
1
 10
0
 20
0
 30
0
  0
VERTEX
  8
LAYER_2
 10
48.8522
 20
149.4967
  0
VERTEX
  8
LAYER_2
 10
47.8774
 20
149.4967
  0
SEQEND
  0
POLYLINE
  8
LAYER_2
 40
0.3951
 41
0.3951
 66
1
 10
0
 20
0
 30
0
  0
VERTEX
  8
LAYER_2
 10
47.9093
 20
149.5356
 42
0.2701455831
  0
VERTEX
  8
LAYER_2
 10
47.0376
 20
149.0422
 42
0.2700544738
  0
VERTEX
  8
LAYER_2
 10
47.0376
 20
148.0403
 42
0.2701657894
  0
VERTEX
  8
LAYER_2
 10
47.9093
 20
147.5468
  0
SEQEND
  0
POLYLINE
  8
LAYER_2
 40
0.3951
 41
0.3951
 66
1
 10
0
 20
0
 30
0
  0
VERTEX
  8
LAYER_2
 10
48.8541
 20
147.5469
 42
0.2697238599
  0
VERTEX
  8
LAYER_2
 10
49.7275
 20
148.0346
 42
0.2695326519
  0
VERTEX
  8
LAYER_2
 10
49.735
 20
149.0348
 42
0.2697343443
  0
VERTEX
  8
LAYER_2
 10
48.869
 20
149.5357
  0
SEQEND
  0
POLYLINE
  8
LAYER_2
 40
0.3951
 41
0.3951
 66
1
 10
0
 20
0
 30
0
  0
VERTEX
  8
LAYER_2
 10
48.4622
 20
148.5217
  0
VERTEX
  8
LAYER_2
 10
48.2673
 20
148.5217
  0
SEQEND
  0
POLYLINE
  8
LAYER_2
 40
0.3951
 41
0.3951
 66
1
 10
0
 20
0
 30
0
  0
VERTEX
  8
LAYER_2
 10
48.3842
 20
148.5998
  0
VERTEX
  8
LAYER_2
 10
48.3842
 20
148.4048
  0
SEQEND
  0
POLYLINE
  8
LAYER_2
 40
0.3951
 41
0.3951
 66
1
 10
0
 20
0
 30
0
  0
VERTEX
  8
LAYER_2
 10
75.8789
 20
147.5078
  0
VERTEX
  8
LAYER_2
 10
76.8537
 20
147.5078
  0
SEQEND
  0
POLYLINE
  8
LAYER_2
 40
0.3951
 41
0.3951
 66
1
 10
0
 20
0
 30
0
  0
VERTEX
  8
LAYER_2
 10
76.8539
 20
149.4967
  0
VERTEX
  8
LAYER_2
 10
75.879
 20
149.4967
  0
SEQEND
  0
POLYLINE
  8
LAYER_2
 40
0.3951
 41
0.3951
 66
1
 10
0
 20
0
 30
0
  0
VERTEX
  8
LAYER_2
 10
75.911
 20
149.5356
 42
0.2701700077
  0
VERTEX
  8
LAYER_2
 10
75.0392
 20
149.0422
 42
0.2700493162
  0
VERTEX
  8
LAYER_2
 10
75.0392
 20
148.0403
 42
0.2701902135
  0
VERTEX
  8
LAYER_2
 10
75.911
 20
147.5468
  0
SEQEND
  0
POLYLINE
  8
LAYER_2
 40
0.3951
 41
0.3951
 66
1
 10
0
 20
0
 30
0
  0
VERTEX
  8
LAYER_2
 10
76.8557
 20
147.5469
 42
0.2697451417
  0
VERTEX
  8
LAYER_2
 10
77.7292
 20
148.0346
 42
0.2695343954
  0
VERTEX
  8
LAYER_2
 10
77.7366
 20
149.0348
 42
0.269715132
  0
VERTEX
  8
LAYER_2
 10
76.8707
 20
149.5357
  0
SEQEND
  0
POLYLINE
  8
LAYER_2
 40
0.3951
 41
0.3951
 66
1
 10
0
 20
0
 30
0
  0
VERTEX
  8
LAYER_2
 10
76.4639
 20
148.5217
  0
VERTEX
  8
LAYER_2
 10
76.2689
 20
148.5217
  0
SEQEND
  0
POLYLINE
  8
LAYER_2
 40
0.3951
 41
0.3951
 66
1
 10
0
 20
0
 30
0
  0
VERTEX
  8
LAYER_2
 10
76.3859
 20
148.5998
  0
VERTEX
  8
LAYER_2
 10
76.3859
 20
148.4048
  0
SEQEND
  0
POLYLINE
  8
LAYER_2
 40
0.3951
 41
0.3951
 66
1
 10
0
 20
0
 30
0
  0
VERTEX
  8
LAYER_2
 10
103.8805
 20
147.5078
  0
VERTEX
  8
LAYER_2
 10
104.8553
 20
147.5078
  0
SEQEND
  0
POLYLINE
  8
LAYER_2
 40
0.3951
 41
0.3951
 66
1
 10
0
 20
0
 30
0
  0
VERTEX
  8
LAYER_2
 10
104.8555
 20
149.4967
  0
VERTEX
  8
LAYER_2
 10
103.8806
 20
149.4967
  0
SEQEND
  0
POLYLINE
  8
LAYER_2
 40
0.3951
 41
0.3951
 66
1
 10
0
 20
0
 30
0
  0
VERTEX
  8
LAYER_2
 10
103.8736
 20
149.5356
 42
0.2701723624
  0
VERTEX
  8
LAYER_2
 10
103.0018
 20
149.0422
 42
0.2700504995
  0
VERTEX
  8
LAYER_2
 10
103.0018
 20
148.0403
 42
0.2701925687
  0
VERTEX
  8
LAYER_2
 10
103.8736
 20
147.5468
  0
SEQEND
  0
POLYLINE
  8
LAYER_2
 40
0.3951
 41
0.3951
 66
1
 10
0
 20
0
 30
0
  0
VERTEX
  8
LAYER_2
 10
104.8573
 20
147.5469
 42
0.2697419334
  0
VERTEX
  8
LAYER_2
 10
105.7308
 20
148.0346
 42
0.2695203831
  0
VERTEX
  8
LAYER_2
 10
105.7383
 20
149.0348
 42
0.2697328022
  0
VERTEX
  8
LAYER_2
 10
104.8723
 20
149.5357
  0
SEQEND
  0
POLYLINE
  8
LAYER_2
 40
0.3951
 41
0.3951
 66
1
 10
0
 20
0
 30
0
  0
VERTEX
  8
LAYER_2
 10
104.4655
 20
148.5217
  0
VERTEX
  8
LAYER_2
 10
104.2705
 20
148.5217
  0
SEQEND
  0
POLYLINE
  8
LAYER_2
 40
0.3951
 41
0.3951
 66
1
 10
0
 20
0
 30
0
  0
VERTEX
  8
LAYER_2
 10
104.3485
 20
148.5998
  0
VERTEX
  8
LAYER_2
 10
104.3485
 20
148.4048
  0
SEQEND
  0
POLYLINE
  8
LAYER_2
 40
0.1305
 41
0.1305
 66
1
 10
0
 20
0
 30
0
  0
VERTEX
  8
LAYER_2
 10
48.3842
 20
148.4437
  0
VERTEX
  8
LAYER_2
 10
48.3842
 20
148.4047
  0
SEQEND
  0
POLYLINE
  8
LAYER_2
 40
0.1305
 41
0.1305
 66
1
 10
0
 20
0
 30
0
  0
VERTEX
  8
LAYER_2
 10
76.3859
 20
148.5608
  0
VERTEX
  8
LAYER_2
 10
76.3859
 20
148.4049
  0
SEQEND
  0
POLYLINE
  8
LAYER_2
 40
0.1305
 41
0.1305
 66
1
 10
0
 20
0
 30
0
  0
VERTEX
  8
LAYER_2
 10
49.8662
 20
148.5217
  0
VERTEX
  8
LAYER_2
 10
58.8749
 20
148.5217
  0
SEQEND
  0
POLYLINE
  8
LAYER_2
 40
0.1305
 41
0.1305
 66
1
 10
0
 20
0
 30
0
  0
VERTEX
  8
LAYER_2
 10
74.8649
 20
148.5217
  0
VERTEX
  8
LAYER_2
 10
65.8561
 20
148.5217
  0
SEQEND
  0
POLYLINE
  8
LAYER_2
 40
0.05
 41
0.05
 66
1
 10
0
 20
0
 30
0
 70
1
  0
VERTEX
  8
LAYER_2
 10
49.8662
 20
148.7557
  0
VERTEX
  8
LAYER_2
 10
49.8662
 20
148.2486
  0
VERTEX
  8
LAYER_2
 10
48.3841
 20
148.5217
  0
SEQEND
  0
POLYLINE
  8
LAYER_2
 66
1
 10
0
 20
0
 30
0
 70
1
  0
VERTEX
  8
LAYER_2
 10
49.8662
 20
148.7557
  0
VERTEX
  8
LAYER_2
 10
49.8662
 20
148.2486
  0
VERTEX
  8
LAYER_2
 10
48.3841
 20
148.5217
  0
SEQEND
  0
POLYLINE
  8
LAYER_2
 40
0.05
 41
0.05
 66
1
 10
0
 20
0
 30
0
 70
1
  0
VERTEX
  8
LAYER_2
 10
74.8649
 20
148.7557
  0
VERTEX
  8
LAYER_2
 10
74.8649
 20
148.2486
  0
VERTEX
  8
LAYER_2
 10
76.386
 20
148.5217
  0
SEQEND
  0
POLYLINE
  8
LAYER_2
 66
1
 10
0
 20
0
 30
0
 70
1
  0
VERTEX
  8
LAYER_2
 10
74.8649
 20
148.7557
  0
VERTEX
  8
LAYER_2
 10
74.8649
 20
148.2486
  0
VERTEX
  8
LAYER_2
 10
76.386
 20
148.5217
  0
SEQEND
  0
TEXT
  8
LAYER_2
 10
58.7187
 20
147.1637
 11
58.7187
 21
147.1637
 40
3.6923
 41
0.5
  1
280
  0
POLYLINE
  8
LAYER_2
 40
0.1305
 41
0.1305
 66
1
 10
0
 20
0
 30
0
  0
VERTEX
  8
LAYER_2
 10
104.3485
 20
148.4437
  0
VERTEX
  8
LAYER_2
 10
104.3485
 20
148.4047
  0
SEQEND
  0
POLYLINE
  8
LAYER_2
 40
0.1305
 41
0.1305
 66
1
 10
0
 20
0
 30
0
  0
VERTEX
  8
LAYER_2
 10
76.3859
 20
148.5608
  0
VERTEX
  8
LAYER_2
 10
76.3859
 20
148.4049
  0
SEQEND
  0
POLYLINE
  8
LAYER_2
 40
0.1305
 41
0.1305
 66
1
 10
0
 20
0
 30
0
  0
VERTEX
  8
LAYER_2
 10
102.8665
 20
148.5217
  0
VERTEX
  8
LAYER_2
 10
93.8577
 20
148.5217
  0
SEQEND
  0
POLYLINE
  8
LAYER_2
 40
0.1305
 41
0.1305
 66
1
 10
0
 20
0
 30
0
  0
VERTEX
  8
LAYER_2
 10
77.8678
 20
148.5217
  0
VERTEX
  8
LAYER_2
 10
86.8766
 20
148.5217
  0
SEQEND
  0
POLYLINE
  8
LAYER_2
 40
0.05
 41
0.05
 66
1
 10
0
 20
0
 30
0
 70
1
  0
VERTEX
  8
LAYER_2
 10
102.8665
 20
148.7557
  0
VERTEX
  8
LAYER_2
 10
102.8665
 20
148.2486
  0
VERTEX
  8
LAYER_2
 10
104.3485
 20
148.5217
  0
SEQEND
  0
POLYLINE
  8
LAYER_2
 66
1
 10
0
 20
0
 30
0
 70
1
  0
VERTEX
  8
LAYER_2
 10
102.8665
 20
148.7557
  0
VERTEX
  8
LAYER_2
 10
102.8665
 20
148.2486
  0
VERTEX
  8
LAYER_2
 10
104.3485
 20
148.5217
  0
SEQEND
  0
POLYLINE
  8
LAYER_2
 40
0.05
 41
0.05
 66
1
 10
0
 20
0
 30
0
 70
1
  0
VERTEX
  8
LAYER_2
 10
77.8678
 20
148.7557
  0
VERTEX
  8
LAYER_2
 10
77.8678
 20
148.2486
  0
VERTEX
  8
LAYER_2
 10
76.3858
 20
148.5217
  0
SEQEND
  0
POLYLINE
  8
LAYER_2
 66
1
 10
0
 20
0
 30
0
 70
1
  0
VERTEX
  8
LAYER_2
 10
77.8678
 20
148.7557
  0
VERTEX
  8
LAYER_2
 10
77.8678
 20
148.2486
  0
VERTEX
  8
LAYER_2
 10
76.3858
 20
148.5217
  0
SEQEND
  0
TEXT
  8
LAYER_2
 10
87.8205
 20
147.1637
 11
87.8205
 21
147.1637
 40
3.6923
 41
0.5
  1
280
  0
POLYLINE
  8
LAYER_2
 40
0.0882
 41
0.0882
 62
251
 66
1
 10
0
 20
0
 30
0
  0
VERTEX
  8
LAYER_2
 10
40.5453
 20
152.4997
  0
VERTEX
  8
LAYER_2
 10
40.6235
 20
152.4997
  0
SEQEND
  0
POLYLINE
  8
LAYER_2
 40
0.0882
 41
0.0882
 62
251
 66
1
 10
0
 20
0
 30
0
  0
VERTEX
  8
LAYER_2
 10
40.5453
 20
135.4959
  0
VERTEX
  8
LAYER_2
 10
40.6235
 20
135.4959
  0
SEQEND
  0
POLYLINE
  8
LAYER_2
 40
0.0882
 41
0.0882
 62
251
 66
1
 10
0
 20
0
 30
0
  0
VERTEX
  8
LAYER_2
 10
40.4673
 20
151.0177
  0
VERTEX
  8
LAYER_2
 10
40.4673
 20
146.7279
  0
SEQEND
  0
POLYLINE
  8
LAYER_2
 40
0.0882
 41
0.0882
 62
251
 66
1
 10
0
 20
0
 30
0
  0
VERTEX
  8
LAYER_2
 10
40.4673
 20
137.0169
  0
VERTEX
  8
LAYER_2
 10
40.4673
 20
141.3068
  0
SEQEND
  0
POLYLINE
  8
LAYER_2
 40
0.05
 41
0.05
 66
1
 10
0
 20
0
 30
0
 70
1
  0
VERTEX
  8
LAYER_2
 10
40.2333
 20
151.0177
  0
VERTEX
  8
LAYER_2
 10
40.7405
 20
151.0177
  0
VERTEX
  8
LAYER_2
 10
40.4674
 20
152.4998
  0
SEQEND
  0
POLYLINE
  8
LAYER_2
 66
1
 10
0
 20
0
 30
0
 70
1
  0
VERTEX
  8
LAYER_2
 10
40.2333
 20
151.0177
  0
VERTEX
  8
LAYER_2
 10
40.7405
 20
151.0177
  0
VERTEX
  8
LAYER_2
 10
40.4674
 20
152.4998
  0
SEQEND
  0
POLYLINE
  8
LAYER_2
 40
0.05
 41
0.05
 66
1
 10
0
 20
0
 30
0
 70
1
  0
VERTEX
  8
LAYER_2
 10
40.2333
 20
137.0169
  0
VERTEX
  8
LAYER_2
 10
40.7405
 20
137.0169
  0
VERTEX
  8
LAYER_2
 10
40.4674
 20
135.4958
  0
SEQEND
  0
POLYLINE
  8
LAYER_2
 66
1
 10
0
 20
0
 30
0
 70
1
  0
VERTEX
  8
LAYER_2
 10
40.2333
 20
137.0169
  0
VERTEX
  8
LAYER_2
 10
40.7405
 20
137.0169
  0
VERTEX
  8
LAYER_2
 10
40.4674
 20
135.4958
  0
SEQEND
  0
TEXT
  8
LAYER_2
 10
41.8254
 20
140.9945
 11
41.8254
 21
140.9945
 40
3.6923
 41
0.5
 50
89.99999999
  1
170
  0
POLYLINE
  8
LAYER_2
 40
0.0882
 41
0.0882
 62
251
 66
1
 10
0
 20
0
 30
0
  0
VERTEX
  8
LAYER_2
 10
120.2213
 20
150.5107
  0
VERTEX
  8
LAYER_2
 10
120.2213
 20
149.9258
  0
SEQEND
  0
POLYLINE
  8
LAYER_2
 40
0.0882
 41
0.0882
 62
251
 66
1
 10
0
 20
0
 30
0
  0
VERTEX
  8
LAYER_2
 10
120.2213
 20
149.6138
  0
VERTEX
  8
LAYER_2
 10
120.2213
 20
148.9507
  0
SEQEND
  0
POLYLINE
  8
LAYER_2
 40
0.0882
 41
0.0882
 62
251
 66
1
 10
0
 20
0
 30
0
  0
VERTEX
  8
LAYER_2
 10
120.2213
 20
148.6388
  0
VERTEX
  8
LAYER_2
 10
120.2213
 20
148.0148
  0
SEQEND
  0
POLYLINE
  8
LAYER_2
 40
0.0882
 41
0.0882
 62
251
 66
1
 10
0
 20
0
 30
0
  0
VERTEX
  8
LAYER_2
 10
120.2603
 20
147.7028
  0
VERTEX
  8
LAYER_2
 10
120.2603
 20
147.0788
  0
SEQEND
  0
POLYLINE
  8
LAYER_2
 40
0.0882
 41
0.0882
 62
251
 66
1
 10
0
 20
0
 30
0
  0
VERTEX
  8
LAYER_2
 10
120.2603
 20
146.7278
  0
VERTEX
  8
LAYER_2
 10
120.2603
 20
146.1038
  0
SEQEND
  0
POLYLINE
  8
LAYER_2
 40
0.0882
 41
0.0882
 62
251
 66
1
 10
0
 20
0
 30
0
  0
VERTEX
  8
LAYER_2
 10
120.2603
 20
145.7918
  0
VERTEX
  8
LAYER_2
 10
120.2603
 20
145.1678
  0
SEQEND
  0
POLYLINE
  8
LAYER_2
 40
0.0882
 41
0.0882
 62
251
 66
1
 10
0
 20
0
 30
0
  0
VERTEX
  8
LAYER_2
 10
120.2603
 20
144.8558
  0
VERTEX
  8
LAYER_2
 10
120.2994
 20
144.1927
  0
SEQEND
  0
POLYLINE
  8
LAYER_2
 40
0.0882
 41
0.0882
 62
251
 66
1
 10
0
 20
0
 30
0
  0
VERTEX
  8
LAYER_2
 10
120.2993
 20
143.8808
  0
VERTEX
  8
LAYER_2
 10
120.2993
 20
143.2568
  0
SEQEND
  0
POLYLINE
  8
LAYER_2
 40
0.0882
 41
0.0882
 62
251
 66
1
 10
0
 20
0
 30
0
  0
VERTEX
  8
LAYER_2
 10
120.2993
 20
142.9448
  0
VERTEX
  8
LAYER_2
 10
120.2993
 20
142.2818
  0
SEQEND
  0
POLYLINE
  8
LAYER_2
 40
0.0882
 41
0.0882
 62
251
 66
1
 10
0
 20
0
 30
0
  0
VERTEX
  8
LAYER_2
 10
120.2993
 20
141.9698
  0
VERTEX
  8
LAYER_2
 10
120.2993
 20
141.3458
  0
SEQEND
  0
POLYLINE
  8
LAYER_2
 40
0.0882
 41
0.0882
 62
251
 66
1
 10
0
 20
0
 30
0
  0
VERTEX
  8
LAYER_2
 10
120.2993
 20
141.0338
  0
VERTEX
  8
LAYER_2
 10
120.3384
 20
140.4098
  0
SEQEND
  0
POLYLINE
  8
LAYER_2
 40
0.0882
 41
0.0882
 62
251
 66
1
 10
0
 20
0
 30
0
  0
VERTEX
  8
LAYER_2
 10
120.3383
 20
140.0979
  0
VERTEX
  8
LAYER_2
 10
120.3383
 20
139.4348
  0
SEQEND
  0
POLYLINE
  8
LAYER_2
 40
0.0882
 41
0.0882
 62
251
 66
1
 10
0
 20
0
 30
0
  0
VERTEX
  8
LAYER_2
 10
120.3383
 20
139.1229
  0
VERTEX
  8
LAYER_2
 10
120.3383
 20
138.5379
  0
SEQEND
  0
POLYLINE
  8
LAYER_2
 40
0.0882
 41
0.0882
 62
251
 66
1
 10
0
 20
0
 30
0
  0
VERTEX
  8
LAYER_2
 10
120.2213
 20
150.5107
  0
VERTEX
  8
LAYER_2
 10
120.1822
 20
150.7057
  0
VERTEX
  8
LAYER_2
 10
120.1431
 20
150.9007
  0
VERTEX
  8
LAYER_2
 10
120.0263
 20
151.0566
  0
VERTEX
  8
LAYER_2
 10
120.0263
 20
151.0957
  0
SEQEND
  0
POLYLINE
  8
LAYER_2
 40
0.0882
 41
0.0882
 62
251
 66
1
 10
0
 20
0
 30
0
  0
VERTEX
  8
LAYER_2
 10
119.7923
 20
151.3297
  0
VERTEX
  8
LAYER_2
 10
119.7532
 20
151.3297
  0
VERTEX
  8
LAYER_2
 10
119.5973
 20
151.4465
  0
VERTEX
  8
LAYER_2
 10
119.4023
 20
151.4856
  0
VERTEX
  8
LAYER_2
 10
119.2073
 20
151.5247
  0
SEQEND
  0
POLYLINE
  8
LAYER_2
 40
0.0882
 41
0.0882
 62
251
 66
1
 10
0
 20
0
 30
0
  0
VERTEX
  8
LAYER_2
 10
119.3243
 20
137.5239
  0
VERTEX
  8
LAYER_2
 10
118.8562
 20
137.5239
  0
SEQEND
  0
POLYLINE
  8
LAYER_2
 40
0.0882
 41
0.0882
 62
251
 66
1
 10
0
 20
0
 30
0
  0
VERTEX
  8
LAYER_2
 10
118.5443
 20
137.5239
  0
VERTEX
  8
LAYER_2
 10
117.8812
 20
137.5239
  0
SEQEND
  0
POLYLINE
  8
LAYER_2
 40
0.0882
 41
0.0882
 62
251
 66
1
 10
0
 20
0
 30
0
  0
VERTEX
  8
LAYER_2
 10
117.5693
 20
137.5239
  0
VERTEX
  8
LAYER_2
 10
116.9453
 20
137.5239
  0
SEQEND
  0
POLYLINE
  8
LAYER_2
 40
0.0882
 41
0.0882
 62
251
 66
1
 10
0
 20
0
 30
0
  0
VERTEX
  8
LAYER_2
 10
116.6333
 20
137.5239
  0
VERTEX
  8
LAYER_2
 10
116.1261
 20
137.5239
  0
SEQEND
  0
POLYLINE
  8
LAYER_2
 40
0.0882
 41
0.0882
 62
251
 66
1
 10
0
 20
0
 30
0
  0
VERTEX
  8
LAYER_2
 10
115.1123
 20
138.4599
  0
VERTEX
  8
LAYER_2
 10
115.1514
 20
138.2649
  0
VERTEX
  8
LAYER_2
 10
115.2292
 20
138.0699
  0
VERTEX
  8
LAYER_2
 10
115.3073
 20
137.914
  0
VERTEX
  8
LAYER_2
 10
115.3464
 20
137.914
  0
SEQEND
  0
POLYLINE
  8
LAYER_2
 40
0.0882
 41
0.0882
 62
251
 66
1
 10
0
 20
0
 30
0
  0
VERTEX
  8
LAYER_2
 10
115.5803
 20
137.6799
  0
VERTEX
  8
LAYER_2
 10
115.7362
 20
137.6018
  0
VERTEX
  8
LAYER_2
 10
115.9312
 20
137.524
  0
VERTEX
  8
LAYER_2
 10
116.1262
 20
137.524
  0
SEQEND
  0
POLYLINE
  8
LAYER_2
 40
0.0882
 41
0.0882
 62
251
 66
1
 10
0
 20
0
 30
0
  0
VERTEX
  8
LAYER_2
 10
119.3243
 20
137.5239
  0
VERTEX
  8
LAYER_2
 10
119.5193
 20
137.5239
  0
VERTEX
  8
LAYER_2
 10
119.6751
 20
137.563
  0
VERTEX
  8
LAYER_2
 10
119.8315
 20
137.6407
  0
VERTEX
  8
LAYER_2
 10
119.9483
 20
137.7189
  0
SEQEND
  0
POLYLINE
  8
LAYER_2
 40
0.0882
 41
0.0882
 62
251
 66
1
 10
0
 20
0
 30
0
  0
VERTEX
  8
LAYER_2
 10
120.1433
 20
137.9529
  0
VERTEX
  8
LAYER_2
 10
120.2214
 20
138.0311
  0
VERTEX
  8
LAYER_2
 10
120.2992
 20
138.187
  0
VERTEX
  8
LAYER_2
 10
120.3382
 20
138.3429
  0
VERTEX
  8
LAYER_2
 10
120.3382
 20
138.5378
  0
SEQEND
  0
POLYLINE
  8
LAYER_2
 40
0.0882
 41
0.0882
 62
251
 66
1
 10
0
 20
0
 30
0
  0
VERTEX
  8
LAYER_2
 10
115.1123
 20
138.4599
  0
VERTEX
  8
LAYER_2
 10
115.0733
 20
139.0839
  0
SEQEND
  0
POLYLINE
  8
LAYER_2
 40
0.0882
 41
0.0882
 62
251
 66
1
 10
0
 20
0
 30
0
  0
VERTEX
  8
LAYER_2
 10
115.0733
 20
139.3959
  0
VERTEX
  8
LAYER_2
 10
115.0343
 20
140.0199
  0
SEQEND
  0
POLYLINE
  8
LAYER_2
 40
0.0882
 41
0.0882
 62
251
 66
1
 10
0
 20
0
 30
0
  0
VERTEX
  8
LAYER_2
 10
114.9954
 20
140.3318
  0
VERTEX
  8
LAYER_2
 10
114.9563
 20
140.9559
  0
SEQEND
  0
POLYLINE
  8
LAYER_2
 40
0.0882
 41
0.0882
 62
251
 66
1
 10
0
 20
0
 30
0
  0
VERTEX
  8
LAYER_2
 10
114.9564
 20
141.2678
  0
VERTEX
  8
LAYER_2
 10
114.9173
 20
141.9309
  0
SEQEND
  0
POLYLINE
  8
LAYER_2
 40
0.0882
 41
0.0882
 62
251
 66
1
 10
0
 20
0
 30
0
  0
VERTEX
  8
LAYER_2
 10
114.9174
 20
142.2428
  0
VERTEX
  8
LAYER_2
 10
114.8783
 20
142.8669
  0
SEQEND
  0
POLYLINE
  8
LAYER_2
 40
0.0882
 41
0.0882
 62
251
 66
1
 10
0
 20
0
 30
0
  0
VERTEX
  8
LAYER_2
 10
114.8393
 20
143.1788
  0
VERTEX
  8
LAYER_2
 10
114.8003
 20
143.8028
  0
SEQEND
  0
POLYLINE
  8
LAYER_2
 40
0.0882
 41
0.0882
 62
251
 66
1
 10
0
 20
0
 30
0
  0
VERTEX
  8
LAYER_2
 10
114.8003
 20
144.1538
  0
VERTEX
  8
LAYER_2
 10
114.7613
 20
144.7778
  0
SEQEND
  0
POLYLINE
  8
LAYER_2
 40
0.0882
 41
0.0882
 62
251
 66
1
 10
0
 20
0
 30
0
  0
VERTEX
  8
LAYER_2
 10
114.7223
 20
145.0898
  0
VERTEX
  8
LAYER_2
 10
114.6833
 20
145.7138
  0
SEQEND
  0
POLYLINE
  8
LAYER_2
 40
0.0882
 41
0.0882
 62
251
 66
1
 10
0
 20
0
 30
0
  0
VERTEX
  8
LAYER_2
 10
114.6833
 20
146.0258
  0
VERTEX
  8
LAYER_2
 10
114.6443
 20
146.6889
  0
SEQEND
  0
POLYLINE
  8
LAYER_2
 40
0.0882
 41
0.0882
 62
251
 66
1
 10
0
 20
0
 30
0
  0
VERTEX
  8
LAYER_2
 10
114.6054
 20
147.0008
  0
VERTEX
  8
LAYER_2
 10
114.5663
 20
147.6248
  0
SEQEND
  0
POLYLINE
  8
LAYER_2
 40
0.0882
 41
0.0882
 62
251
 66
1
 10
0
 20
0
 30
0
  0
VERTEX
  8
LAYER_2
 10
114.5664
 20
147.9368
  0
VERTEX
  8
LAYER_2
 10
114.5273
 20
148.5608
  0
SEQEND
  0
POLYLINE
  8
LAYER_2
 40
0.0882
 41
0.0882
 62
251
 66
1
 10
0
 20
0
 30
0
  0
VERTEX
  8
LAYER_2
 10
114.4883
 20
148.8727
  0
VERTEX
  8
LAYER_2
 10
114.4493
 20
149.5358
  0
SEQEND
  0
POLYLINE
  8
LAYER_2
 40
0.0882
 41
0.0882
 62
251
 66
1
 10
0
 20
0
 30
0
  0
VERTEX
  8
LAYER_2
 10
114.4493
 20
149.8477
  0
VERTEX
  8
LAYER_2
 10
114.4103
 20
150.4717
  0
SEQEND
  0
POLYLINE
  8
LAYER_2
 40
0.0882
 41
0.0882
 62
251
 66
1
 10
0
 20
0
 30
0
  0
VERTEX
  8
LAYER_2
 10
114.1763
 20
137.4459
  0
VERTEX
  8
LAYER_2
 10
114.1372
 20
138.1481
  0
SEQEND
  0
POLYLINE
  8
LAYER_2
 40
0.0882
 41
0.0882
 62
251
 66
1
 10
0
 20
0
 30
0
  0
VERTEX
  8
LAYER_2
 10
114.1373
 20
138.4599
  0
VERTEX
  8
LAYER_2
 10
114.0983
 20
139.0839
  0
SEQEND
  0
POLYLINE
  8
LAYER_2
 40
0.0882
 41
0.0882
 62
251
 66
1
 10
0
 20
0
 30
0
  0
VERTEX
  8
LAYER_2
 10
114.0594
 20
139.4349
  0
VERTEX
  8
LAYER_2
 10
114.0203
 20
140.0589
  0
SEQEND
  0
POLYLINE
  8
LAYER_2
 40
0.0882
 41
0.0882
 62
251
 66
1
 10
0
 20
0
 30
0
  0
VERTEX
  8
LAYER_2
 10
114.0204
 20
140.3708
  0
VERTEX
  8
LAYER_2
 10
113.9813
 20
140.9949
  0
SEQEND
  0
POLYLINE
  8
LAYER_2
 40
0.0882
 41
0.0882
 62
251
 66
1
 10
0
 20
0
 30
0
  0
VERTEX
  8
LAYER_2
 10
113.9424
 20
141.3068
  0
VERTEX
  8
LAYER_2
 10
113.9033
 20
141.9699
  0
SEQEND
  0
POLYLINE
  8
LAYER_2
 40
0.0882
 41
0.0882
 62
251
 66
1
 10
0
 20
0
 30
0
  0
VERTEX
  8
LAYER_2
 10
113.9034
 20
142.2818
  0
VERTEX
  8
LAYER_2
 10
113.8643
 20
142.9059
  0
SEQEND
  0
POLYLINE
  8
LAYER_2
 40
0.0882
 41
0.0882
 62
251
 66
1
 10
0
 20
0
 30
0
  0
VERTEX
  8
LAYER_2
 10
113.8253
 20
143.2178
  0
VERTEX
  8
LAYER_2
 10
113.7863
 20
143.8418
  0
SEQEND
  0
POLYLINE
  8
LAYER_2
 40
0.0882
 41
0.0882
 62
251
 66
1
 10
0
 20
0
 30
0
  0
VERTEX
  8
LAYER_2
 10
113.7863
 20
144.1538
  0
VERTEX
  8
LAYER_2
 10
113.7473
 20
144.8169
  0
SEQEND
  0
POLYLINE
  8
LAYER_2
 40
0.0882
 41
0.0882
 62
251
 66
1
 10
0
 20
0
 30
0
  0
VERTEX
  8
LAYER_2
 10
113.7084
 20
145.1288
  0
VERTEX
  8
LAYER_2
 10
113.6693
 20
145.7528
  0
SEQEND
  0
POLYLINE
  8
LAYER_2
 40
0.0882
 41
0.0882
 62
251
 66
1
 10
0
 20
0
 30
0
  0
VERTEX
  8
LAYER_2
 10
113.6694
 20
146.0648
  0
VERTEX
  8
LAYER_2
 10
113.6303
 20
146.6888
  0
SEQEND
  0
POLYLINE
  8
LAYER_2
 40
0.0882
 41
0.0882
 62
251
 66
1
 10
0
 20
0
 30
0
  0
VERTEX
  8
LAYER_2
 10
113.5914
 20
147.0398
  0
VERTEX
  8
LAYER_2
 10
113.5523
 20
147.6638
  0
SEQEND
  0
POLYLINE
  8
LAYER_2
 40
0.0882
 41
0.0882
 62
251
 66
1
 10
0
 20
0
 30
0
  0
VERTEX
  8
LAYER_2
 10
113.5524
 20
147.9758
  0
VERTEX
  8
LAYER_2
 10
113.5133
 20
148.5998
  0
SEQEND
  0
POLYLINE
  8
LAYER_2
 40
0.0882
 41
0.0882
 62
251
 66
1
 10
0
 20
0
 30
0
  0
VERTEX
  8
LAYER_2
 10
113.5134
 20
148.9118
  0
VERTEX
  8
LAYER_2
 10
113.4743
 20
149.5748
  0
SEQEND
  0
POLYLINE
  8
LAYER_2
 40
0.0882
 41
0.0882
 62
251
 66
1
 10
0
 20
0
 30
0
  0
VERTEX
  8
LAYER_2
 10
113.4353
 20
149.8867
  0
VERTEX
  8
LAYER_2
 10
113.3963
 20
150.5889
  0
SEQEND
  0
POLYLINE
  8
LAYER_2
 40
0.0882
 41
0.0882
 62
251
 66
1
 10
0
 20
0
 30
0
  0
VERTEX
  8
LAYER_2
 10
119.2073
 20
151.5247
  0
VERTEX
  8
LAYER_2
 10
118.4274
 20
151.5247
  0
SEQEND
  0
POLYLINE
  8
LAYER_2
 40
0.0882
 41
0.0882
 62
251
 66
1
 10
0
 20
0
 30
0
  0
VERTEX
  8
LAYER_2
 10
118.1153
 20
151.5247
  0
VERTEX
  8
LAYER_2
 10
117.4522
 20
151.5247
  0
SEQEND
  0
POLYLINE
  8
LAYER_2
 40
0.0882
 41
0.0882
 62
251
 66
1
 10
0
 20
0
 30
0
  0
VERTEX
  8
LAYER_2
 10
117.1403
 20
151.5247
  0
VERTEX
  8
LAYER_2
 10
116.5163
 20
151.5247
  0
SEQEND
  0
POLYLINE
  8
LAYER_2
 40
0.0882
 41
0.0882
 62
251
 66
1
 10
0
 20
0
 30
0
  0
VERTEX
  8
LAYER_2
 10
116.2043
 20
151.5247
  0
VERTEX
  8
LAYER_2
 10
115.3853
 20
151.5247
  0
VERTEX
  8
LAYER_2
 10
115.2294
 20
151.4856
  0
VERTEX
  8
LAYER_2
 10
115.0345
 20
151.4466
  0
VERTEX
  8
LAYER_2
 10
114.8782
 20
151.3688
  0
VERTEX
  8
LAYER_2
 10
114.8004
 20
151.2907
  0
SEQEND
  0
POLYLINE
  8
LAYER_2
 40
0.0882
 41
0.0882
 62
251
 66
1
 10
0
 20
0
 30
0
  0
VERTEX
  8
LAYER_2
 10
114.5664
 20
151.0567
  0
VERTEX
  8
LAYER_2
 10
114.5273
 20
150.9786
  0
VERTEX
  8
LAYER_2
 10
114.4495
 20
150.8227
  0
VERTEX
  8
LAYER_2
 10
114.4105
 20
150.6277
  0
VERTEX
  8
LAYER_2
 10
114.4105
 20
150.4718
  0
SEQEND
  0
POLYLINE
  8
LAYER_2
 40
0.0882
 41
0.0882
 62
251
 66
1
 10
0
 20
0
 30
0
  0
VERTEX
  8
LAYER_2
 10
114.1763
 20
137.4459
  0
VERTEX
  8
LAYER_2
 10
114.2931
 20
137.2119
  0
VERTEX
  8
LAYER_2
 10
114.4104
 20
137.0169
  0
VERTEX
  8
LAYER_2
 10
114.4881
 20
136.9387
  0
SEQEND
  0
POLYLINE
  8
LAYER_2
 40
0.0882
 41
0.0882
 62
251
 66
1
 10
0
 20
0
 30
0
  0
VERTEX
  8
LAYER_2
 10
114.7223
 20
136.7439
  0
VERTEX
  8
LAYER_2
 10
114.8005
 20
136.6658
  0
VERTEX
  8
LAYER_2
 10
115.0341
 20
136.588
  0
VERTEX
  8
LAYER_2
 10
115.2682
 20
136.5099
  0
SEQEND
  0
POLYLINE
  8
LAYER_2
 40
0.0882
 41
0.0882
 62
251
 66
1
 10
0
 20
0
 30
0
  0
VERTEX
  8
LAYER_2
 10
173.9626
 20
152.4997
  0
VERTEX
  8
LAYER_2
 10
173.9626
 20
152.1488
  0
SEQEND
  0
POLYLINE
  8
LAYER_2
 40
0.0882
 41
0.0882
 62
251
 66
1
 10
0
 20
0
 30
0
  0
VERTEX
  8
LAYER_2
 10
173.9626
 20
151.8367
  0
VERTEX
  8
LAYER_2
 10
173.9626
 20
151.1736
  0
SEQEND
  0
POLYLINE
  8
LAYER_2
 40
0.0882
 41
0.0882
 62
251
 66
1
 10
0
 20
0
 30
0
  0
VERTEX
  8
LAYER_2
 10
173.9626
 20
150.8617
  0
VERTEX
  8
LAYER_2
 10
173.9626
 20
150.2377
  0
SEQEND
  0
POLYLINE
  8
LAYER_2
 40
0.0882
 41
0.0882
 62
251
 66
1
 10
0
 20
0
 30
0
  0
VERTEX
  8
LAYER_2
 10
173.9626
 20
149.9257
  0
VERTEX
  8
LAYER_2
 10
173.9626
 20
149.2626
  0
SEQEND
  0
POLYLINE
  8
LAYER_2
 40
0.0882
 41
0.0882
 62
251
 66
1
 10
0
 20
0
 30
0
  0
VERTEX
  8
LAYER_2
 10
173.9626
 20
148.9508
  0
VERTEX
  8
LAYER_2
 10
173.9626
 20
148.3268
  0
SEQEND
  0
POLYLINE
  8
LAYER_2
 40
0.0882
 41
0.0882
 62
251
 66
1
 10
0
 20
0
 30
0
  0
VERTEX
  8
LAYER_2
 10
173.9626
 20
148.0148
  0
VERTEX
  8
LAYER_2
 10
173.9626
 20
147.3908
  0
SEQEND
  0
POLYLINE
  8
LAYER_2
 40
0.0882
 41
0.0882
 62
251
 66
1
 10
0
 20
0
 30
0
  0
VERTEX
  8
LAYER_2
 10
173.9626
 20
147.0398
  0
VERTEX
  8
LAYER_2
 10
173.9626
 20
146.4158
  0
SEQEND
  0
POLYLINE
  8
LAYER_2
 40
0.0882
 41
0.0882
 62
251
 66
1
 10
0
 20
0
 30
0
  0
VERTEX
  8
LAYER_2
 10
173.9626
 20
146.1038
  0
VERTEX
  8
LAYER_2
 10
173.9626
 20
145.4798
  0
SEQEND
  0
POLYLINE
  8
LAYER_2
 40
0.0882
 41
0.0882
 62
251
 66
1
 10
0
 20
0
 30
0
  0
VERTEX
  8
LAYER_2
 10
173.9626
 20
145.1678
  0
VERTEX
  8
LAYER_2
 10
173.9626
 20
144.5047
  0
SEQEND
  0
POLYLINE
  8
LAYER_2
 40
0.0882
 41
0.0882
 62
251
 66
1
 10
0
 20
0
 30
0
  0
VERTEX
  8
LAYER_2
 10
173.9626
 20
144.1928
  0
VERTEX
  8
LAYER_2
 10
173.9626
 20
143.5688
  0
SEQEND
  0
POLYLINE
  8
LAYER_2
 40
0.0882
 41
0.0882
 62
251
 66
1
 10
0
 20
0
 30
0
  0
VERTEX
  8
LAYER_2
 10
173.9626
 20
143.2568
  0
VERTEX
  8
LAYER_2
 10
173.9626
 20
142.5938
  0
SEQEND
  0
POLYLINE
  8
LAYER_2
 40
0.0882
 41
0.0882
 62
251
 66
1
 10
0
 20
0
 30
0
  0
VERTEX
  8
LAYER_2
 10
173.9626
 20
142.2818
  0
VERTEX
  8
LAYER_2
 10
173.9626
 20
141.6578
  0
SEQEND
  0
POLYLINE
  8
LAYER_2
 40
0.0882
 41
0.0882
 62
251
 66
1
 10
0
 20
0
 30
0
  0
VERTEX
  8
LAYER_2
 10
173.9626
 20
141.3458
  0
VERTEX
  8
LAYER_2
 10
173.9626
 20
140.7218
  0
SEQEND
  0
POLYLINE
  8
LAYER_2
 40
0.0882
 41
0.0882
 62
251
 66
1
 10
0
 20
0
 30
0
  0
VERTEX
  8
LAYER_2
 10
173.9626
 20
140.3708
  0
VERTEX
  8
LAYER_2
 10
173.9626
 20
140.02
  0
SEQEND
  0
POLYLINE
  8
LAYER_2
 40
0.0882
 41
0.0882
 62
251
 66
1
 10
0
 20
0
 30
0
  0
VERTEX
  8
LAYER_2
 10
169.4776
 20
135.4959
  0
VERTEX
  8
LAYER_2
 10
169.9848
 20
135.5741
  0
SEQEND
  0
POLYLINE
  8
LAYER_2
 40
0.0882
 41
0.0882
 62
251
 66
1
 10
0
 20
0
 30
0
  0
VERTEX
  8
LAYER_2
 10
170.2966
 20
135.5739
  0
VERTEX
  8
LAYER_2
 10
170.9206
 20
135.7689
  0
SEQEND
  0
POLYLINE
  8
LAYER_2
 40
0.0882
 41
0.0882
 62
251
 66
1
 10
0
 20
0
 30
0
  0
VERTEX
  8
LAYER_2
 10
171.2326
 20
135.8859
  0
VERTEX
  8
LAYER_2
 10
171.7398
 20
136.12
  0
VERTEX
  8
LAYER_2
 10
171.7784
 20
136.1591
  0
SEQEND
  0
POLYLINE
  8
LAYER_2
 40
0.0882
 41
0.0882
 62
251
 66
1
 10
0
 20
0
 30
0
  0
VERTEX
  8
LAYER_2
 10
172.0516
 20
136.3539
  0
VERTEX
  8
LAYER_2
 10
172.3634
 20
136.5489
  0
VERTEX
  8
LAYER_2
 10
172.5197
 20
136.7439
  0
SEQEND
  0
POLYLINE
  8
LAYER_2
 40
0.0882
 41
0.0882
 62
251
 66
1
 10
0
 20
0
 30
0
  0
VERTEX
  8
LAYER_2
 10
172.7536
 20
136.9389
  0
VERTEX
  8
LAYER_2
 10
172.9094
 20
137.1339
  0
VERTEX
  8
LAYER_2
 10
173.1435
 20
137.4461
  0
SEQEND
  0
POLYLINE
  8
LAYER_2
 40
0.0882
 41
0.0882
 62
251
 66
1
 10
0
 20
0
 30
0
  0
VERTEX
  8
LAYER_2
 10
173.3386
 20
137.7189
  0
VERTEX
  8
LAYER_2
 10
173.3776
 20
137.758
  0
VERTEX
  8
LAYER_2
 10
173.6117
 20
138.2647
  0
SEQEND
  0
POLYLINE
  8
LAYER_2
 40
0.0882
 41
0.0882
 62
251
 66
1
 10
0
 20
0
 30
0
  0
VERTEX
  8
LAYER_2
 10
173.7286
 20
138.5769
  0
VERTEX
  8
LAYER_2
 10
173.8844
 20
139.2009
  0
SEQEND
  0
POLYLINE
  8
LAYER_2
 40
0.0882
 41
0.0882
 62
251
 66
1
 10
0
 20
0
 30
0
  0
VERTEX
  8
LAYER_2
 10
173.9236
 20
139.5129
  0
VERTEX
  8
LAYER_2
 10
173.9627
 20
140.0201
  0
SEQEND
  0
POLYLINE
  8
LAYER_2
 40
0.0882
 41
0.0882
 62
251
 66
1
 10
0
 20
0
 30
0
  0
VERTEX
  8
LAYER_2
 10
169.4776
 20
135.4959
  0
VERTEX
  8
LAYER_2
 10
168.6977
 20
135.4959
  0
SEQEND
  0
POLYLINE
  8
LAYER_2
 40
0.0882
 41
0.0882
 62
251
 66
1
 10
0
 20
0
 30
0
  0
VERTEX
  8
LAYER_2
 10
168.3856
 20
135.4959
  0
VERTEX
  8
LAYER_2
 10
167.7616
 20
135.4959
  0
SEQEND
  0
POLYLINE
  8
LAYER_2
 40
0.0882
 41
0.0882
 62
251
 66
1
 10
0
 20
0
 30
0
  0
VERTEX
  8
LAYER_2
 10
167.4106
 20
135.4959
  0
VERTEX
  8
LAYER_2
 10
166.7866
 20
135.4959
  0
SEQEND
  0
POLYLINE
  8
LAYER_2
 40
0.0882
 41
0.0882
 62
251
 66
1
 10
0
 20
0
 30
0
  0
VERTEX
  8
LAYER_2
 10
166.4746
 20
135.4959
  0
VERTEX
  8
LAYER_2
 10
165.8506
 20
135.4959
  0
SEQEND
  0
POLYLINE
  8
LAYER_2
 40
0.0882
 41
0.0882
 62
251
 66
1
 10
0
 20
0
 30
0
  0
VERTEX
  8
LAYER_2
 10
165.5387
 20
135.4959
  0
VERTEX
  8
LAYER_2
 10
164.8756
 20
135.4959
  0
SEQEND
  0
POLYLINE
  8
LAYER_2
 40
0.0882
 41
0.0882
 62
251
 66
1
 10
0
 20
0
 30
0
  0
VERTEX
  8
LAYER_2
 10
164.5637
 20
135.4959
  0
VERTEX
  8
LAYER_2
 10
163.9397
 20
135.4959
  0
SEQEND
  0
POLYLINE
  8
LAYER_2
 40
0.0882
 41
0.0882
 62
251
 66
1
 10
0
 20
0
 30
0
  0
VERTEX
  8
LAYER_2
 10
163.6277
 20
135.4959
  0
VERTEX
  8
LAYER_2
 10
162.9646
 20
135.4959
  0
SEQEND
  0
POLYLINE
  8
LAYER_2
 40
0.0882
 41
0.0882
 62
251
 66
1
 10
0
 20
0
 30
0
  0
VERTEX
  8
LAYER_2
 10
162.6527
 20
135.4959
  0
VERTEX
  8
LAYER_2
 10
162.0287
 20
135.4959
  0
SEQEND
  0
POLYLINE
  8
LAYER_2
 40
0.0882
 41
0.0882
 62
251
 66
1
 10
0
 20
0
 30
0
  0
VERTEX
  8
LAYER_2
 10
161.7167
 20
135.4959
  0
VERTEX
  8
LAYER_2
 10
161.0927
 20
135.4959
  0
SEQEND
  0
POLYLINE
  8
LAYER_2
 40
0.0882
 41
0.0882
 62
251
 66
1
 10
0
 20
0
 30
0
  0
VERTEX
  8
LAYER_2
 10
160.7417
 20
135.4959
  0
VERTEX
  8
LAYER_2
 10
160.1177
 20
135.4959
  0
SEQEND
  0
POLYLINE
  8
LAYER_2
 40
0.0882
 41
0.0882
 62
251
 66
1
 10
0
 20
0
 30
0
  0
VERTEX
  8
LAYER_2
 10
159.8058
 20
135.4959
  0
VERTEX
  8
LAYER_2
 10
159.1817
 20
135.4959
  0
SEQEND
  0
POLYLINE
  8
LAYER_2
 40
0.0882
 41
0.0882
 62
251
 66
1
 10
0
 20
0
 30
0
  0
VERTEX
  8
LAYER_2
 10
158.8698
 20
135.4959
  0
VERTEX
  8
LAYER_2
 10
158.2067
 20
135.4959
  0
SEQEND
  0
POLYLINE
  8
LAYER_2
 40
0.0882
 41
0.0882
 62
251
 66
1
 10
0
 20
0
 30
0
  0
VERTEX
  8
LAYER_2
 10
157.8948
 20
135.4959
  0
VERTEX
  8
LAYER_2
 10
157.2707
 20
135.4959
  0
SEQEND
  0
POLYLINE
  8
LAYER_2
 40
0.0882
 41
0.0882
 62
251
 66
1
 10
0
 20
0
 30
0
  0
VERTEX
  8
LAYER_2
 10
156.9588
 20
135.4959
  0
VERTEX
  8
LAYER_2
 10
156.2957
 20
135.4959
  0
SEQEND
  0
POLYLINE
  8
LAYER_2
 40
0.0882
 41
0.0882
 62
251
 66
1
 10
0
 20
0
 30
0
  0
VERTEX
  8
LAYER_2
 10
155.9838
 20
135.4959
  0
VERTEX
  8
LAYER_2
 10
155.3598
 20
135.4959
  0
SEQEND
  0
POLYLINE
  8
LAYER_2
 40
0.0882
 41
0.0882
 62
251
 66
1
 10
0
 20
0
 30
0
  0
VERTEX
  8
LAYER_2
 10
155.0478
 20
135.4959
  0
VERTEX
  8
LAYER_2
 10
154.4238
 20
135.4959
  0
SEQEND
  0
POLYLINE
  8
LAYER_2
 40
0.0882
 41
0.0882
 62
251
 66
1
 10
0
 20
0
 30
0
  0
VERTEX
  8
LAYER_2
 10
154.0728
 20
135.4959
  0
VERTEX
  8
LAYER_2
 10
153.4488
 20
135.4959
  0
SEQEND
  0
POLYLINE
  8
LAYER_2
 40
0.0882
 41
0.0882
 62
251
 66
1
 10
0
 20
0
 30
0
  0
VERTEX
  8
LAYER_2
 10
153.1368
 20
135.4959
  0
VERTEX
  8
LAYER_2
 10
152.5128
 20
135.4959
  0
SEQEND
  0
POLYLINE
  8
LAYER_2
 40
0.0882
 41
0.0882
 62
251
 66
1
 10
0
 20
0
 30
0
  0
VERTEX
  8
LAYER_2
 10
152.2008
 20
135.4959
  0
VERTEX
  8
LAYER_2
 10
151.5378
 20
135.4959
  0
SEQEND
  0
POLYLINE
  8
LAYER_2
 40
0.0882
 41
0.0882
 62
251
 66
1
 10
0
 20
0
 30
0
  0
VERTEX
  8
LAYER_2
 10
151.2258
 20
135.4959
  0
VERTEX
  8
LAYER_2
 10
150.6018
 20
135.4959
  0
SEQEND
  0
POLYLINE
  8
LAYER_2
 40
0.0882
 41
0.0882
 62
251
 66
1
 10
0
 20
0
 30
0
  0
VERTEX
  8
LAYER_2
 10
150.2899
 20
135.4959
  0
VERTEX
  8
LAYER_2
 10
149.6659
 20
135.4959
  0
SEQEND
  0
POLYLINE
  8
LAYER_2
 40
0.0882
 41
0.0882
 62
251
 66
1
 10
0
 20
0
 30
0
  0
VERTEX
  8
LAYER_2
 10
149.3149
 20
135.4959
  0
VERTEX
  8
LAYER_2
 10
148.6909
 20
135.4959
  0
SEQEND
  0
POLYLINE
  8
LAYER_2
 40
0.0882
 41
0.0882
 62
251
 66
1
 10
0
 20
0
 30
0
  0
VERTEX
  8
LAYER_2
 10
148.3789
 20
135.4959
  0
VERTEX
  8
LAYER_2
 10
147.7549
 20
135.4959
  0
SEQEND
  0
POLYLINE
  8
LAYER_2
 40
0.0882
 41
0.0882
 62
251
 66
1
 10
0
 20
0
 30
0
  0
VERTEX
  8
LAYER_2
 10
147.4429
 20
135.4959
  0
VERTEX
  8
LAYER_2
 10
146.7798
 20
135.4959
  0
SEQEND
  0
POLYLINE
  8
LAYER_2
 40
0.0882
 41
0.0882
 62
251
 66
1
 10
0
 20
0
 30
0
  0
VERTEX
  8
LAYER_2
 10
146.4679
 20
135.4959
  0
VERTEX
  8
LAYER_2
 10
145.8439
 20
135.4959
  0
SEQEND
  0
POLYLINE
  8
LAYER_2
 40
0.0882
 41
0.0882
 62
251
 66
1
 10
0
 20
0
 30
0
  0
VERTEX
  8
LAYER_2
 10
145.5319
 20
135.4959
  0
VERTEX
  8
LAYER_2
 10
144.8688
 20
135.4959
  0
SEQEND
  0
POLYLINE
  8
LAYER_2
 40
0.0882
 41
0.0882
 62
251
 66
1
 10
0
 20
0
 30
0
  0
VERTEX
  8
LAYER_2
 10
144.5569
 20
135.4959
  0
VERTEX
  8
LAYER_2
 10
143.9329
 20
135.4959
  0
SEQEND
  0
POLYLINE
  8
LAYER_2
 40
0.0882
 41
0.0882
 62
251
 66
1
 10
0
 20
0
 30
0
  0
VERTEX
  8
LAYER_2
 10
143.621
 20
135.4959
  0
VERTEX
  8
LAYER_2
 10
142.997
 20
135.4959
  0
SEQEND
  0
POLYLINE
  8
LAYER_2
 40
0.0882
 41
0.0882
 62
251
 66
1
 10
0
 20
0
 30
0
  0
VERTEX
  8
LAYER_2
 10
142.646
 20
135.4959
  0
VERTEX
  8
LAYER_2
 10
142.022
 20
135.4959
  0
SEQEND
  0
POLYLINE
  8
LAYER_2
 40
0.0882
 41
0.0882
 62
251
 66
1
 10
0
 20
0
 30
0
  0
VERTEX
  8
LAYER_2
 10
141.71
 20
135.4959
  0
VERTEX
  8
LAYER_2
 10
141.086
 20
135.4959
  0
SEQEND
  0
POLYLINE
  8
LAYER_2
 40
0.0882
 41
0.0882
 62
251
 66
1
 10
0
 20
0
 30
0
  0
VERTEX
  8
LAYER_2
 10
140.774
 20
135.4959
  0
VERTEX
  8
LAYER_2
 10
139.9941
 20
135.4959
  0
SEQEND
  0
POLYLINE
  8
LAYER_2
 40
0.0882
 41
0.0882
 62
251
 66
1
 10
0
 20
0
 30
0
  0
VERTEX
  8
LAYER_2
 10
137.966
 20
137.5239
  0
VERTEX
  8
LAYER_2
 10
138.0051
 20
137.173
  0
VERTEX
  8
LAYER_2
 10
138.0442
 20
137.0558
  0
SEQEND
  0
POLYLINE
  8
LAYER_2
 40
0.0882
 41
0.0882
 62
251
 66
1
 10
0
 20
0
 30
0
  0
VERTEX
  8
LAYER_2
 10
138.122
 20
136.7439
  0
VERTEX
  8
LAYER_2
 10
138.2388
 20
136.5099
  0
VERTEX
  8
LAYER_2
 10
138.4338
 20
136.2367
  0
VERTEX
  8
LAYER_2
 10
138.4729
 20
136.1981
  0
SEQEND
  0
POLYLINE
  8
LAYER_2
 40
0.0882
 41
0.0882
 62
251
 66
1
 10
0
 20
0
 30
0
  0
VERTEX
  8
LAYER_2
 10
138.668
 20
136.0029
  0
VERTEX
  8
LAYER_2
 10
138.7071
 20
135.9638
  0
VERTEX
  8
LAYER_2
 10
138.9798
 20
135.7689
  0
VERTEX
  8
LAYER_2
 10
139.2139
 20
135.6521
  0
SEQEND
  0
POLYLINE
  8
LAYER_2
 40
0.0882
 41
0.0882
 62
251
 66
1
 10
0
 20
0
 30
0
  0
VERTEX
  8
LAYER_2
 10
139.526
 20
135.5739
  0
VERTEX
  8
LAYER_2
 10
139.6428
 20
135.5349
  0
VERTEX
  8
LAYER_2
 10
139.9941
 20
135.4958
  0
SEQEND
  0
POLYLINE
  8
LAYER_2
 40
0.0882
 41
0.0882
 62
251
 66
1
 10
0
 20
0
 30
0
  0
VERTEX
  8
LAYER_2
 10
137.966
 20
137.5239
  0
VERTEX
  8
LAYER_2
 10
137.966
 20
138.187
  0
SEQEND
  0
POLYLINE
  8
LAYER_2
 40
0.0882
 41
0.0882
 62
251
 66
1
 10
0
 20
0
 30
0
  0
VERTEX
  8
LAYER_2
 10
137.966
 20
138.4989
  0
VERTEX
  8
LAYER_2
 10
137.966
 20
139.1229
  0
SEQEND
  0
POLYLINE
  8
LAYER_2
 40
0.0882
 41
0.0882
 62
251
 66
1
 10
0
 20
0
 30
0
  0
VERTEX
  8
LAYER_2
 10
137.966
 20
139.4739
  0
VERTEX
  8
LAYER_2
 10
137.966
 20
140.0979
  0
SEQEND
  0
POLYLINE
  8
LAYER_2
 40
0.0882
 41
0.0882
 62
251
 66
1
 10
0
 20
0
 30
0
  0
VERTEX
  8
LAYER_2
 10
137.966
 20
140.4098
  0
VERTEX
  8
LAYER_2
 10
137.966
 20
141.0338
  0
SEQEND
  0
POLYLINE
  8
LAYER_2
 40
0.0882
 41
0.0882
 62
251
 66
1
 10
0
 20
0
 30
0
  0
VERTEX
  8
LAYER_2
 10
137.966
 20
141.3458
  0
VERTEX
  8
LAYER_2
 10
137.966
 20
142.0089
  0
SEQEND
  0
POLYLINE
  8
LAYER_2
 40
0.0882
 41
0.0882
 62
251
 66
1
 10
0
 20
0
 30
0
  0
VERTEX
  8
LAYER_2
 10
137.966
 20
142.3208
  0
VERTEX
  8
LAYER_2
 10
137.966
 20
142.9448
  0
SEQEND
  0
POLYLINE
  8
LAYER_2
 40
0.0882
 41
0.0882
 62
251
 66
1
 10
0
 20
0
 30
0
  0
VERTEX
  8
LAYER_2
 10
137.966
 20
143.2568
  0
VERTEX
  8
LAYER_2
 10
137.966
 20
143.9199
  0
SEQEND
  0
POLYLINE
  8
LAYER_2
 40
0.0882
 41
0.0882
 62
251
 66
1
 10
0
 20
0
 30
0
  0
VERTEX
  8
LAYER_2
 10
137.966
 20
144.2318
  0
VERTEX
  8
LAYER_2
 10
137.966
 20
144.8558
  0
SEQEND
  0
POLYLINE
  8
LAYER_2
 40
0.0882
 41
0.0882
 62
251
 66
1
 10
0
 20
0
 30
0
  0
VERTEX
  8
LAYER_2
 10
137.966
 20
145.1678
  0
VERTEX
  8
LAYER_2
 10
137.966
 20
145.7918
  0
SEQEND
  0
POLYLINE
  8
LAYER_2
 40
0.0882
 41
0.0882
 62
251
 66
1
 10
0
 20
0
 30
0
  0
VERTEX
  8
LAYER_2
 10
137.966
 20
146.1428
  0
VERTEX
  8
LAYER_2
 10
137.966
 20
146.7668
  0
SEQEND
  0
POLYLINE
  8
LAYER_2
 40
0.0882
 41
0.0882
 62
251
 66
1
 10
0
 20
0
 30
0
  0
VERTEX
  8
LAYER_2
 10
137.966
 20
147.0788
  0
VERTEX
  8
LAYER_2
 10
137.966
 20
147.7028
  0
SEQEND
  0
POLYLINE
  8
LAYER_2
 40
0.0882
 41
0.0882
 62
251
 66
1
 10
0
 20
0
 30
0
  0
VERTEX
  8
LAYER_2
 10
137.966
 20
148.0148
  0
VERTEX
  8
LAYER_2
 10
137.966
 20
148.6778
  0
SEQEND
  0
POLYLINE
  8
LAYER_2
 40
0.0882
 41
0.0882
 62
251
 66
1
 10
0
 20
0
 30
0
  0
VERTEX
  8
LAYER_2
 10
137.966
 20
148.9898
  0
VERTEX
  8
LAYER_2
 10
137.966
 20
149.6138
  0
SEQEND
  0
POLYLINE
  8
LAYER_2
 40
0.0882
 41
0.0882
 62
251
 66
1
 10
0
 20
0
 30
0
  0
VERTEX
  8
LAYER_2
 10
137.966
 20
149.9257
  0
VERTEX
  8
LAYER_2
 10
137.966
 20
150.5497
  0
SEQEND
  0
POLYLINE
  8
LAYER_2
 40
0.0882
 41
0.0882
 62
251
 66
1
 10
0
 20
0
 30
0
  0
VERTEX
  8
LAYER_2
 10
137.966
 20
150.9007
  0
VERTEX
  8
LAYER_2
 10
137.966
 20
151.5247
  0
SEQEND
  0
POLYLINE
  8
LAYER_2
 40
0.0882
 41
0.0882
 62
251
 66
1
 10
0
 20
0
 30
0
  0
VERTEX
  8
LAYER_2
 10
137.966
 20
151.8367
  0
VERTEX
  8
LAYER_2
 10
137.966
 20
152.4998
  0
SEQEND
  0
POLYLINE
  8
LAYER_2
 40
0.0882
 41
0.0882
 62
251
 66
1
 10
0
 20
0
 30
0
  0
VERTEX
  8
LAYER_2
 10
135.9771
 20
137.5239
  0
VERTEX
  8
LAYER_2
 10
136.172
 20
137.5239
  0
VERTEX
  8
LAYER_2
 10
136.3279
 20
137.563
  0
VERTEX
  8
LAYER_2
 10
136.4842
 20
137.6407
  0
VERTEX
  8
LAYER_2
 10
136.562
 20
137.7189
  0
SEQEND
  0
POLYLINE
  8
LAYER_2
 40
0.0882
 41
0.0882
 62
251
 66
1
 10
0
 20
0
 30
0
  0
VERTEX
  8
LAYER_2
 10
136.796
 20
137.9529
  0
VERTEX
  8
LAYER_2
 10
136.8351
 20
138.0311
  0
VERTEX
  8
LAYER_2
 10
136.9128
 20
138.187
  0
VERTEX
  8
LAYER_2
 10
136.9519
 20
138.3429
  0
VERTEX
  8
LAYER_2
 10
136.991
 20
138.5378
  0
SEQEND
  0
POLYLINE
  8
LAYER_2
 40
0.1305
 41
0.1305
 66
1
 10
0
 20
0
 30
0
  0
VERTEX
  8
LAYER_2
 10
48.1892
 20
148.5217
  0
VERTEX
  8
LAYER_2
 10
45.4592
 20
148.5217
  0
SEQEND
  0
POLYLINE
  8
LAYER_2
 40
0.1305
 41
0.1305
 66
1
 10
0
 20
0
 30
0
  0
VERTEX
  8
LAYER_2
 10
48.1892
 20
156.5166
  0
VERTEX
  8
LAYER_2
 10
45.4592
 20
156.5166
  0
SEQEND
  0
POLYLINE
  8
LAYER_2
 40
0.1305
 41
0.1305
 66
1
 10
0
 20
0
 30
0
  0
VERTEX
  8
LAYER_2
 10
45.5763
 20
147.0008
  0
VERTEX
  8
LAYER_2
 10
45.5763
 20
145.5187
  0
SEQEND
  0
POLYLINE
  8
LAYER_2
 40
0.1305
 41
0.1305
 66
1
 10
0
 20
0
 30
0
  0
VERTEX
  8
LAYER_2
 10
45.5763
 20
157.9986
  0
VERTEX
  8
LAYER_2
 10
45.5763
 20
159.5197
  0
SEQEND
  0
POLYLINE
  8
LAYER_2
 40
0.1305
 41
0.1305
 66
1
 10
0
 20
0
 30
0
  0
VERTEX
  8
LAYER_2
 10
45.5763
 20
148.5217
  0
VERTEX
  8
LAYER_2
 10
45.5763
 20
150.0038
  0
SEQEND
  0
POLYLINE
  8
LAYER_2
 40
0.1305
 41
0.1305
 66
1
 10
0
 20
0
 30
0
  0
VERTEX
  8
LAYER_2
 10
45.5763
 20
156.5166
  0
VERTEX
  8
LAYER_2
 10
45.5763
 20
155.0346
  0
SEQEND
  0
POLYLINE
  8
LAYER_2
 40
0.05
 41
0.05
 66
1
 10
0
 20
0
 30
0
 70
1
  0
VERTEX
  8
LAYER_2
 10
45.3423
 20
147.0008
  0
VERTEX
  8
LAYER_2
 10
45.8495
 20
147.0008
  0
VERTEX
  8
LAYER_2
 10
45.5763
 20
148.5219
  0
SEQEND
  0
POLYLINE
  8
LAYER_2
 66
1
 10
0
 20
0
 30
0
 70
1
  0
VERTEX
  8
LAYER_2
 10
45.3423
 20
147.0008
  0
VERTEX
  8
LAYER_2
 10
45.8495
 20
147.0008
  0
VERTEX
  8
LAYER_2
 10
45.5763
 20
148.5219
  0
SEQEND
  0
POLYLINE
  8
LAYER_2
 40
0.05
 41
0.05
 66
1
 10
0
 20
0
 30
0
 70
1
  0
VERTEX
  8
LAYER_2
 10
45.3423
 20
157.9986
  0
VERTEX
  8
LAYER_2
 10
45.8495
 20
157.9986
  0
VERTEX
  8
LAYER_2
 10
45.5763
 20
156.5166
  0
SEQEND
  0
POLYLINE
  8
LAYER_2
 66
1
 10
0
 20
0
 30
0
 70
1
  0
VERTEX
  8
LAYER_2
 10
45.3423
 20
157.9986
  0
VERTEX
  8
LAYER_2
 10
45.8495
 20
157.9986
  0
VERTEX
  8
LAYER_2
 10
45.5763
 20
156.5166
  0
SEQEND
  0
TEXT
  8
LAYER_2
 10
46.9337
 20
150.7272
 11
46.9337
 21
150.7272
 40
3.6923
 41
0.5
 50
89.99999999
  1
80
  0
POLYLINE
  8
LAYER_2
 40
0.1305
 41
0.1305
 66
1
 10
0
 20
0
 30
0
 70
1
  0
VERTEX
  8
LAYER_2
 10
94.8718
 20
103.0484
  0
VERTEX
  8
LAYER_2
 10
97.8746
 20
103.0484
  0
VERTEX
  8
LAYER_2
 10
97.8746
 20
101.0982
  0
VERTEX
  8
LAYER_2
 10
94.8718
 20
101.0982
  0
SEQEND
  0
POLYLINE
  8
LAYER_2
 40
0.1305
 41
0.1305
 66
1
 10
0
 20
0
 30
0
 70
1
  0
VERTEX
  8
LAYER_2
 10
94.8718
 20
100.9814
  0
VERTEX
  8
LAYER_2
 10
97.8746
 20
100.9814
  0
VERTEX
  8
LAYER_2
 10
97.8746
 20
98.5245
  0
VERTEX
  8
LAYER_2
 10
94.8718
 20
98.5245
  0
SEQEND
  0
POLYLINE
  8
LAYER_2
 40
0.1305
 41
0.1305
 66
1
 10
0
 20
0
 30
0
 70
1
  0
VERTEX
  8
LAYER_2
 10
104.3486
 20
103.3215
  0
VERTEX
  8
LAYER_2
 10
88.3586
 20
103.3215
  0
VERTEX
  8
LAYER_2
 10
88.3586
 20
103.0484
  0
VERTEX
  8
LAYER_2
 10
104.3486
 20
103.0484
  0
SEQEND
  0
POLYLINE
  8
LAYER_2
 40
0.1305
 41
0.1305
 66
1
 10
0
 20
0
 30
0
 70
1
  0
VERTEX
  8
LAYER_2
 10
40.2723
 20
106.3243
  0
VERTEX
  8
LAYER_2
 10
112.2652
 20
106.3243
  0
VERTEX
  8
LAYER_2
 10
112.2652
 20
103.3215
  0
VERTEX
  8
LAYER_2
 10
40.2723
 20
103.3215
  0
SEQEND
  0
POLYLINE
  8
LAYER_2
 40
0.1305
 41
0.1305
 66
1
 10
0
 20
0
 30
0
 70
1
  0
VERTEX
  8
LAYER_2
 10
57.6662
 20
103.0484
  0
VERTEX
  8
LAYER_2
 10
54.6634
 20
103.0484
  0
VERTEX
  8
LAYER_2
 10
54.6634
 20
101.0982
  0
VERTEX
  8
LAYER_2
 10
57.6662
 20
101.0982
  0
SEQEND
  0
POLYLINE
  8
LAYER_2
 40
0.1305
 41
0.1305
 66
1
 10
0
 20
0
 30
0
 70
1
  0
VERTEX
  8
LAYER_2
 10
57.6662
 20
100.9814
  0
VERTEX
  8
LAYER_2
 10
54.6634
 20
100.9814
  0
VERTEX
  8
LAYER_2
 10
54.6634
 20
98.5245
  0
VERTEX
  8
LAYER_2
 10
57.6662
 20
98.5245
  0
SEQEND
  0
POLYLINE
  8
LAYER_2
 40
0.1305
 41
0.1305
 66
1
 10
0
 20
0
 30
0
 70
1
  0
VERTEX
  8
LAYER_2
 10
48.1502
 20
103.3215
  0
VERTEX
  8
LAYER_2
 10
64.1789
 20
103.3215
  0
VERTEX
  8
LAYER_2
 10
64.1789
 20
103.0484
  0
VERTEX
  8
LAYER_2
 10
48.1502
 20
103.0484
  0
SEQEND
  0
POLYLINE
  8
LAYER_2
 40
0.1305
 41
0.1305
 66
1
 10
0
 20
0
 30
0
  0
VERTEX
  8
LAYER_2
 10
90.7377
 20
99.6554
  0
SEQEND
  0
POLYLINE
  8
LAYER_2
 40
0.0882
 41
0.0882
 62
251
 66
1
 10
0
 20
0
 30
0
  0
VERTEX
  8
LAYER_2
 10
94.9106
 20
98.5244
  0
VERTEX
  8
LAYER_2
 10
94.9888
 20
98.5244
  0
SEQEND
  0
POLYLINE
  8
LAYER_2
 40
0.0882
 41
0.0882
 62
251
 66
1
 10
0
 20
0
 30
0
  0
VERTEX
  8
LAYER_2
 10
94.9106
 20
67.5588
  0
VERTEX
  8
LAYER_2
 10
94.9888
 20
67.5588
  0
SEQEND
  0
POLYLINE
  8
LAYER_2
 40
0.0882
 41
0.0882
 62
251
 66
1
 10
0
 20
0
 30
0
  0
VERTEX
  8
LAYER_2
 10
94.8716
 20
97.0424
  0
VERTEX
  8
LAYER_2
 10
94.8716
 20
85.8495
  0
SEQEND
  0
POLYLINE
  8
LAYER_2
 40
0.0882
 41
0.0882
 62
251
 66
1
 10
0
 20
0
 30
0
  0
VERTEX
  8
LAYER_2
 10
94.8716
 20
69.0798
  0
VERTEX
  8
LAYER_2
 10
94.8716
 20
80.2337
  0
SEQEND
  0
POLYLINE
  8
LAYER_2
 40
0.05
 41
0.05
 66
1
 10
0
 20
0
 30
0
 70
1
  0
VERTEX
  8
LAYER_2
 10
94.5986
 20
97.0424
  0
VERTEX
  8
LAYER_2
 10
95.1058
 20
97.0424
  0
VERTEX
  8
LAYER_2
 10
94.8717
 20
98.5245
  0
SEQEND
  0
POLYLINE
  8
LAYER_2
 66
1
 10
0
 20
0
 30
0
 70
1
  0
VERTEX
  8
LAYER_2
 10
94.5986
 20
97.0424
  0
VERTEX
  8
LAYER_2
 10
95.1058
 20
97.0424
  0
VERTEX
  8
LAYER_2
 10
94.8717
 20
98.5245
  0
SEQEND
  0
POLYLINE
  8
LAYER_2
 40
0.05
 41
0.05
 66
1
 10
0
 20
0
 30
0
 70
1
  0
VERTEX
  8
LAYER_2
 10
94.5986
 20
69.0798
  0
VERTEX
  8
LAYER_2
 10
95.1058
 20
69.0798
  0
VERTEX
  8
LAYER_2
 10
94.8717
 20
67.5587
  0
SEQEND
  0
POLYLINE
  8
LAYER_2
 66
1
 10
0
 20
0
 30
0
 70
1
  0
VERTEX
  8
LAYER_2
 10
94.5986
 20
69.0798
  0
VERTEX
  8
LAYER_2
 10
95.1058
 20
69.0798
  0
VERTEX
  8
LAYER_2
 10
94.8717
 20
67.5587
  0
SEQEND
  0
TEXT
  8
LAYER_2
 10
96.1903
 20
80.1552
 11
96.1903
 21
80.1552
 40
3.6923
 41
0.5
 50
89.99999999
  1
310
  0
POLYLINE
  8
LAYER_2
 40
0.0882
 41
0.0882
 62
251
 66
1
 10
0
 20
0
 30
0
  0
VERTEX
  8
LAYER_2
 10
112.3434
 20
106.3243
  0
VERTEX
  8
LAYER_2
 10
112.3824
 20
106.3243
  0
SEQEND
  0
POLYLINE
  8
LAYER_2
 40
0.0882
 41
0.0882
 62
251
 66
1
 10
0
 20
0
 30
0
  0
VERTEX
  8
LAYER_2
 10
112.3434
 20
67.5588
  0
VERTEX
  8
LAYER_2
 10
112.3824
 20
67.5588
  0
SEQEND
  0
POLYLINE
  8
LAYER_2
 40
0.0882
 41
0.0882
 62
251
 66
1
 10
0
 20
0
 30
0
  0
VERTEX
  8
LAYER_2
 10
112.2654
 20
104.8423
  0
VERTEX
  8
LAYER_2
 10
112.2654
 20
89.7495
  0
SEQEND
  0
POLYLINE
  8
LAYER_2
 40
0.0882
 41
0.0882
 62
251
 66
1
 10
0
 20
0
 30
0
  0
VERTEX
  8
LAYER_2
 10
112.2654
 20
69.0798
  0
VERTEX
  8
LAYER_2
 10
112.2654
 20
84.1336
  0
SEQEND
  0
POLYLINE
  8
LAYER_2
 40
0.05
 41
0.05
 66
1
 10
0
 20
0
 30
0
 70
1
  0
VERTEX
  8
LAYER_2
 10
112.0314
 20
104.8423
  0
VERTEX
  8
LAYER_2
 10
112.4995
 20
104.8423
  0
VERTEX
  8
LAYER_2
 10
112.2654
 20
106.3244
  0
SEQEND
  0
POLYLINE
  8
LAYER_2
 66
1
 10
0
 20
0
 30
0
 70
1
  0
VERTEX
  8
LAYER_2
 10
112.0314
 20
104.8423
  0
VERTEX
  8
LAYER_2
 10
112.4995
 20
104.8423
  0
VERTEX
  8
LAYER_2
 10
112.2654
 20
106.3244
  0
SEQEND
  0
POLYLINE
  8
LAYER_2
 40
0.05
 41
0.05
 66
1
 10
0
 20
0
 30
0
 70
1
  0
VERTEX
  8
LAYER_2
 10
112.0314
 20
69.0798
  0
VERTEX
  8
LAYER_2
 10
112.4995
 20
69.0798
  0
VERTEX
  8
LAYER_2
 10
112.2654
 20
67.5587
  0
SEQEND
  0
POLYLINE
  8
LAYER_2
 66
1
 10
0
 20
0
 30
0
 70
1
  0
VERTEX
  8
LAYER_2
 10
112.0314
 20
69.0798
  0
VERTEX
  8
LAYER_2
 10
112.4995
 20
69.0798
  0
VERTEX
  8
LAYER_2
 10
112.2654
 20
67.5587
  0
SEQEND
  0
TEXT
  8
LAYER_2
 10
113.6232
 20
84.055
 11
113.6232
 21
84.055
 40
3.6923
 41
0.5
 50
89.99999999
  1
390
  0
ENDSEC
  0
EOF
