  0
SECTION
  2
HEADER
  9
$ACADVER
  1
AC1009
  9
$LUNITS
 70
2
  9
$LUPREC
 70
4
  9
$LTSCALE
 40
1.0
  9
$EXTMIN
 10
-30.3177
 20
33.3285
 30
0
  9
$EXTMAX
 10
251.6749
 20
230.337
 30
0
  0
ENDSEC
  0
SECTION
  2
TABLES
  0
TABLE
  2
LTYPE
 70
256
  0
LTYPE
  2
AIGENLINE001
 70
64
  3
generate AI->DXF Converter
 72
65
 73
2
 40
0.9024
 49
0.4512
 49
-0.4512
  0
LTYPE
  2
AIGENLINE002
 70
64
  3
generate AI->DXF Converter
 72
65
 73
2
 40
0.5412
 49
0.2706
 49
-0.2706
  0
LTYPE
  2
AIGENLINE003
 70
64
  3
generate AI->DXF Converter
 72
65
 73
2
 40
0.647
 49
0.3235
 49
-0.3235
  0
LTYPE
  2
AIGENLINE004
 70
64
  3
generate AI->DXF Converter
 72
65
 73
2
 40
0.8692
 49
0.4346
 49
-0.4346
  0
LTYPE
  2
AIGENLINE005
 70
64
  3
generate AI->DXF Converter
 72
65
 73
2
 40
0.913
 49
0.4565
 49
-0.4565
  0
LTYPE
  2
AIGENLINE006
 70
64
  3
generate AI->DXF Converter
 72
65
 73
2
 40
1.1141
 49
0.557
 49
-0.557
  0
LTYPE
  2
AIGENLINE007
 70
64
  3
generate AI->DXF Converter
 72
65
 73
2
 40
0.9017
 49
0.4508
 49
-0.4508
  0
LTYPE
  2
AIGENLINE008
 70
64
  3
generate AI->DXF Converter
 72
65
 73
2
 40
0.9299
 49
0.465
 49
-0.465
  0
LTYPE
  2
AIGENLINE009
 70
64
  3
generate AI->DXF Converter
 72
65
 73
0
 40
0
  0
ENDTAB
  0
TABLE
  2
LAYER
 70
2
  0
LAYER
  2
LAYER_1
 70
64
 62
7
  6
CONTINUOUS
  0
LAYER
  2
LAYER_2
 70
64
 62
7
  6
CONTINUOUS
  0
ENDTAB
  0
TABLE
  2
STYLE
 70
6
  0
STYLE
  2
STANDARD
 70
0
 40
0
 50
0
 71
0
 41
0
 42
0
  3
TXT
  4
BIGFONT
  0
ENDTAB
  0
ENDSEC
  0
SECTION
  2
BLOCKS
  0
BLOCK
  8
LAYER_2
  2
AIGNBL02040009
 70
64
 10
0
 20
0
 30
0
  3
AIGNBL02040009
  0
POLYLINE
  8
LAYER_2
 40
0.05
 41
0.05
 66
1
 10
0
 20
0
 30
0
 70
1
  0
VERTEX
  8
LAYER_2
 10
146.7545
 20
39.1418
  0
VERTEX
  8
LAYER_2
 10
146.2656
 20
37.9567
  0
VERTEX
  8
LAYER_2
 10
145.6376
 20
37.9567
  0
VERTEX
  8
LAYER_2
 10
147.2372
 20
41.7225
  0
VERTEX
  8
LAYER_2
 10
147.9703
 20
41.7225
  0
VERTEX
  8
LAYER_2
 10
149.5768
 20
37.9567
  0
VERTEX
  8
LAYER_2
 10
148.9267
 20
37.9567
  0
VERTEX
  8
LAYER_2
 10
148.424
 20
39.1418
  0
SEQEND
  0
POLYLINE
  8
LAYER_2
 40
0.05
 41
0.05
 66
1
 10
0
 20
0
 30
0
 70
1
  0
VERTEX
  8
LAYER_2
 10
148.2983
 20
39.5207
  0
VERTEX
  8
LAYER_2
 10
147.8373
 20
40.6056
 42
-0.02317247198
  0
VERTEX
  8
LAYER_2
 10
147.5927
 20
41.2926
  0
VERTEX
  8
LAYER_2
 10
147.5789
 20
41.2926
 42
-0.02064481114
  0
VERTEX
  8
LAYER_2
 10
147.3412
 20
40.6101
  0
VERTEX
  8
LAYER_2
 10
146.8806
 20
39.5207
  0
SEQEND
  0
ENDBLK
  0
BLOCK
  8
LAYER_2
  2
AIGNBL0204000A
 70
64
 10
0
 20
0
 30
0
  3
AIGNBL0204000A
  0
POLYLINE
  8
LAYER_2
 40
0.05
 41
0.05
 66
1
 10
0
 20
0
 30
0
 70
1
  0
VERTEX
  8
LAYER_2
 10
153.942
 20
37.4034
 42
-0.01520763512
  0
VERTEX
  8
LAYER_2
 10
152.1399
 20
37.8395
 42
0.09160443264
  0
VERTEX
  8
LAYER_2
 10
151.8533
 20
37.895
 42
-0.09256808484
  0
VERTEX
  8
LAYER_2
 10
150.8994
 20
38.0977
 42
-0.09799469934
  0
VERTEX
  8
LAYER_2
 10
150.2621
 20
38.5324
 42
-0.1630918382
  0
VERTEX
  8
LAYER_2
 10
149.7964
 20
39.5259
 42
-0.0316951694
  0
VERTEX
  8
LAYER_2
 10
149.7793
 20
39.7998
 42
-0.1055313794
  0
VERTEX
  8
LAYER_2
 10
149.9533
 20
40.6417
 42
-0.1619874109
  0
VERTEX
  8
LAYER_2
 10
150.7418
 20
41.4867
 42
-0.09224146328
  0
VERTEX
  8
LAYER_2
 10
151.5409
 20
41.7524
 42
-0.03717154931
  0
VERTEX
  8
LAYER_2
 10
151.9725
 20
41.7838
 42
-0.09530639066
  0
VERTEX
  8
LAYER_2
 10
152.9361
 20
41.6062
 42
-0.1001950085
  0
VERTEX
  8
LAYER_2
 10
153.5732
 20
41.1834
 42
-0.1611155306
  0
VERTEX
  8
LAYER_2
 10
154.0599
 20
40.1825
 42
-0.03590167283
  0
VERTEX
  8
LAYER_2
 10
154.0815
 20
39.8784
 42
-0.1066761192
  0
VERTEX
  8
LAYER_2
 10
153.9051
 20
39.0236
 42
-0.2183970027
  0
VERTEX
  8
LAYER_2
 10
152.7953
 20
38.0897
 42
-0.006706711403
  0
VERTEX
  8
LAYER_2
 10
152.7407
 20
38.0738
  0
VERTEX
  8
LAYER_2
 10
152.7407
 20
38.0514
 42
0.01533555045
  0
VERTEX
  8
LAYER_2
 10
154.117
 20
37.8113
  0
SEQEND
  0
POLYLINE
  8
LAYER_2
 40
0.05
 41
0.05
 66
1
 10
0
 20
0
 30
0
 70
1
  0
VERTEX
  8
LAYER_2
 10
153.4394
 20
39.857
 42
0.1175610784
  0
VERTEX
  8
LAYER_2
 10
153.257
 20
40.6254
 42
0.1170135141
  0
VERTEX
  8
LAYER_2
 10
152.8315
 20
41.1234
 42
0.1200044572
  0
VERTEX
  8
LAYER_2
 10
152.2186
 20
41.3675
 42
0.03774262044
  0
VERTEX
  8
LAYER_2
 10
151.9511
 20
41.3873
 42
0.1153139376
  0
VERTEX
  8
LAYER_2
 10
151.2089
 20
41.2226
 42
0.1853550912
  0
VERTEX
  8
LAYER_2
 10
150.5507
 20
40.4882
 42
0.09859892291
  0
VERTEX
  8
LAYER_2
 10
150.4287
 20
39.8122
 42
0.1178359247
  0
VERTEX
  8
LAYER_2
 10
150.5964
 20
39.0734
 42
0.2866694251
  0
VERTEX
  8
LAYER_2
 10
151.9232
 20
38.2912
 42
0.1188197759
  0
VERTEX
  8
LAYER_2
 10
152.6722
 20
38.4633
 42
0.1796740134
  0
VERTEX
  8
LAYER_2
 10
153.3126
 20
39.18
 42
0.09850052237
  0
SEQEND
  0
ENDBLK
  0
BLOCK
  8
LAYER_2
  2
AIGNBL0204000B
 70
64
 10
0
 20
0
 30
0
  3
AIGNBL0204000B
  0
POLYLINE
  8
LAYER_2
 40
0.05
 41
0.05
 66
1
 10
0
 20
0
 30
0
 70
1
  0
VERTEX
  8
LAYER_2
 10
155.4089
 20
41.7225
  0
VERTEX
  8
LAYER_2
 10
155.4089
 20
39.4932
 42
0.1220213404
  0
VERTEX
  8
LAYER_2
 10
155.569
 20
38.7775
 42
0.2218709818
  0
VERTEX
  8
LAYER_2
 10
156.2104
 20
38.3206
 42
0.05223876895
  0
VERTEX
  8
LAYER_2
 10
156.5055
 20
38.2912
 42
0.1302821267
  0
VERTEX
  8
LAYER_2
 10
157.1748
 20
38.452
 42
0.1509367336
  0
VERTEX
  8
LAYER_2
 10
157.526
 20
38.8454
 42
0.1174732039
  0
VERTEX
  8
LAYER_2
 10
157.651
 20
39.4932
  0
VERTEX
  8
LAYER_2
 10
157.651
 20
41.7225
  0
VERTEX
  8
LAYER_2
 10
158.2656
 20
41.7225
  0
VERTEX
  8
LAYER_2
 10
158.2656
 20
39.5266
 42
-0.1106199636
  0
VERTEX
  8
LAYER_2
 10
158.0961
 20
38.708
 42
-0.1822316276
  0
VERTEX
  8
LAYER_2
 10
157.4057
 20
38.0637
 42
-0.09768689614
  0
VERTEX
  8
LAYER_2
 10
156.6028
 20
37.8972
 42
-0.01000776787
  0
VERTEX
  8
LAYER_2
 10
156.4845
 20
37.895
 42
-0.09899539667
  0
VERTEX
  8
LAYER_2
 10
155.612
 20
38.0554
 42
-0.120955925
  0
VERTEX
  8
LAYER_2
 10
155.1093
 20
38.4366
 42
-0.1193006487
  0
VERTEX
  8
LAYER_2
 10
154.8407
 20
39.0316
 42
-0.05319923583
  0
VERTEX
  8
LAYER_2
 10
154.7943
 20
39.5045
  0
VERTEX
  8
LAYER_2
 10
154.7943
 20
41.7225
  0
SEQEND
  0
ENDBLK
  0
BLOCK
  8
LAYER_2
  2
AIGNBL0204000C
 70
64
 10
0
 20
0
 30
0
  3
AIGNBL0204000C
  0
POLYLINE
  8
LAYER_2
 40
0.05
 41
0.05
 66
1
 10
0
 20
0
 30
0
 70
1
  0
VERTEX
  8
LAYER_2
 10
160.0119
 20
39.1418
  0
VERTEX
  8
LAYER_2
 10
159.5227
 20
37.9567
  0
VERTEX
  8
LAYER_2
 10
158.8947
 20
37.9567
  0
VERTEX
  8
LAYER_2
 10
160.4939
 20
41.7225
  0
VERTEX
  8
LAYER_2
 10
161.227
 20
41.7225
  0
VERTEX
  8
LAYER_2
 10
162.8335
 20
37.9567
  0
VERTEX
  8
LAYER_2
 10
162.1841
 20
37.9567
  0
VERTEX
  8
LAYER_2
 10
161.6814
 20
39.1418
  0
SEQEND
  0
POLYLINE
  8
LAYER_2
 40
0.05
 41
0.05
 66
1
 10
0
 20
0
 30
0
 70
1
  0
VERTEX
  8
LAYER_2
 10
161.5553
 20
39.5207
  0
VERTEX
  8
LAYER_2
 10
161.094
 20
40.6056
 42
-0.02227599701
  0
VERTEX
  8
LAYER_2
 10
160.8494
 20
41.2926
  0
VERTEX
  8
LAYER_2
 10
160.8357
 20
41.2926
 42
-0.0208222547
  0
VERTEX
  8
LAYER_2
 10
160.5983
 20
40.6101
  0
VERTEX
  8
LAYER_2
 10
160.1373
 20
39.5207
  0
SEQEND
  0
ENDBLK
  0
BLOCK
  8
LAYER_2
  2
AIGNBL0204000D
 70
64
 10
0
 20
0
 30
0
  3
AIGNBL0204000D
  0
POLYLINE
  8
LAYER_2
 40
0.05
 41
0.05
 66
1
 10
0
 20
0
 30
0
 70
1
  0
VERTEX
  8
LAYER_2
 10
163.8742
 20
41.6777
 42
-0.03334485223
  0
VERTEX
  8
LAYER_2
 10
165.0411
 20
41.7508
 42
-0.08844478427
  0
VERTEX
  8
LAYER_2
 10
166.0871
 20
41.5858
 42
-0.06037505309
  0
VERTEX
  8
LAYER_2
 10
166.3609
 20
41.4379
 42
-0.2472514979
  0
VERTEX
  8
LAYER_2
 10
166.7726
 20
40.6497
 42
-0.1483298328
  0
VERTEX
  8
LAYER_2
 10
166.6029
 20
40.0554
 42
-0.07223194904
  0
VERTEX
  8
LAYER_2
 10
166.4095
 20
39.8456
 42
-0.1209372404
  0
VERTEX
  8
LAYER_2
 10
165.7228
 20
39.517
 42
-0.06224269186
  0
VERTEX
  8
LAYER_2
 10
164.9708
 20
39.4319
 42
-0.05738783264
  0
VERTEX
  8
LAYER_2
 10
164.4823
 20
39.4653
  0
VERTEX
  8
LAYER_2
 10
164.4823
 20
37.9567
  0
VERTEX
  8
LAYER_2
 10
163.8742
 20
37.9567
  0
SEQEND
  0
POLYLINE
  8
LAYER_2
 40
0.05
 41
0.05
 66
1
 10
0
 20
0
 30
0
 70
1
  0
VERTEX
  8
LAYER_2
 10
164.4823
 20
39.8622
 42
0.05012782438
  0
VERTEX
  8
LAYER_2
 10
164.9846
 20
39.8229
 42
0.1135299982
  0
VERTEX
  8
LAYER_2
 10
165.7697
 20
39.9822
 42
0.1653556145
  0
VERTEX
  8
LAYER_2
 10
166.1074
 20
40.3302
 42
0.1044590446
  0
VERTEX
  8
LAYER_2
 10
166.1656
 20
40.6273
 42
0.2826437488
  0
VERTEX
  8
LAYER_2
 10
165.8147
 20
41.2103
 42
0.0629694601
  0
VERTEX
  8
LAYER_2
 10
165.549
 20
41.3107
 42
0.06259589917
  0
VERTEX
  8
LAYER_2
 10
165.0552
 20
41.3649
 42
0.05192366909
  0
VERTEX
  8
LAYER_2
 10
164.4823
 20
41.3257
  0
SEQEND
  0
ENDBLK
  0
BLOCK
  8
LAYER_2
  2
AIGNBL0204000E
 70
64
 10
0
 20
0
 30
0
  3
AIGNBL0204000E
  0
POLYLINE
  8
LAYER_2
 40
0.05
 41
0.05
 66
1
 10
0
 20
0
 30
0
 70
1
  0
VERTEX
  8
LAYER_2
 10
168.3246
 20
41.4207
 42
-0.3048675751
  0
VERTEX
  8
LAYER_2
 10
168.1582
 20
41.1661
 42
-0.1151020929
  0
VERTEX
  8
LAYER_2
 10
167.9329
 20
41.1189
 42
-0.2442513348
  0
VERTEX
  8
LAYER_2
 10
167.6028
 20
41.2794
 42
-0.1394546152
  0
VERTEX
  8
LAYER_2
 10
167.5626
 20
41.4207
 42
-0.287439772
  0
VERTEX
  8
LAYER_2
 10
167.7346
 20
41.6803
 42
-0.1179404017
  0
VERTEX
  8
LAYER_2
 10
167.9467
 20
41.7277
 42
-0.2416274379
  0
VERTEX
  8
LAYER_2
 10
168.2814
 20
41.5719
 42
-0.1426378456
  0
SEQEND
  0
POLYLINE
  8
LAYER_2
 40
0.05
 41
0.05
 66
1
 10
0
 20
0
 30
0
 70
1
  0
VERTEX
  8
LAYER_2
 10
167.639
 20
37.9567
  0
VERTEX
  8
LAYER_2
 10
167.639
 20
40.6607
  0
VERTEX
  8
LAYER_2
 10
168.2537
 20
40.6607
  0
VERTEX
  8
LAYER_2
 10
168.2537
 20
37.9567
  0
SEQEND
  0
ENDBLK
  0
BLOCK
  8
LAYER_2
  2
AIGNBL0204000F
 70
64
 10
0
 20
0
 30
0
  3
AIGNBL0204000F
  0
POLYLINE
  8
LAYER_2
 40
0.05
 41
0.05
 66
1
 10
0
 20
0
 30
0
 70
1
  0
VERTEX
  8
LAYER_2
 10
170.1254
 20
39.1418
  0
VERTEX
  8
LAYER_2
 10
169.6372
 20
37.9567
  0
VERTEX
  8
LAYER_2
 10
169.0081
 20
37.9567
  0
VERTEX
  8
LAYER_2
 10
170.6077
 20
41.7225
  0
VERTEX
  8
LAYER_2
 10
171.3415
 20
41.7225
  0
VERTEX
  8
LAYER_2
 10
172.9479
 20
37.9567
  0
VERTEX
  8
LAYER_2
 10
172.2982
 20
37.9567
  0
VERTEX
  8
LAYER_2
 10
171.7955
 20
39.1418
  0
SEQEND
  0
POLYLINE
  8
LAYER_2
 40
0.05
 41
0.05
 66
1
 10
0
 20
0
 30
0
 70
1
  0
VERTEX
  8
LAYER_2
 10
171.6695
 20
39.5207
  0
VERTEX
  8
LAYER_2
 10
171.2085
 20
40.6056
 42
-0.02430767271
  0
VERTEX
  8
LAYER_2
 10
170.9646
 20
41.2926
  0
VERTEX
  8
LAYER_2
 10
170.9498
 20
41.2926
 42
-0.02034719794
  0
VERTEX
  8
LAYER_2
 10
170.7128
 20
40.6101
  0
VERTEX
  8
LAYER_2
 10
170.2518
 20
39.5207
  0
SEQEND
  0
ENDBLK
  0
BLOCK
  8
LAYER_2
  2
AIGNBL02030008
 70
64
 10
0
 20
0
 30
0
  3
AIGNBL02030008
  0
INSERT
  8
LAYER_2
  2
AIGNBL02040009
 10
0
 20
0
 30
0
  0
INSERT
  8
LAYER_2
  2
AIGNBL0204000A
 10
0
 20
0
 30
0
  0
INSERT
  8
LAYER_2
  2
AIGNBL0204000B
 10
0
 20
0
 30
0
  0
INSERT
  8
LAYER_2
  2
AIGNBL0204000C
 10
0
 20
0
 30
0
  0
INSERT
  8
LAYER_2
  2
AIGNBL0204000D
 10
0
 20
0
 30
0
  0
INSERT
  8
LAYER_2
  2
AIGNBL0204000E
 10
0
 20
0
 30
0
  0
INSERT
  8
LAYER_2
  2
AIGNBL0204000F
 10
0
 20
0
 30
0
  0
ENDBLK
  0
BLOCK
  8
LAYER_2
  2
AIGNBL02030011
 70
64
 10
0
 20
0
 30
0
  3
AIGNBL02030011
  0
POLYLINE
  8
LAYER_2
 40
0.05
 41
0.05
 66
1
 10
0
 20
0
 30
0
 70
1
  0
VERTEX
  8
LAYER_2
 10
145.7475
 20
36.0574
  0
VERTEX
  8
LAYER_2
 10
146.3008
 20
36.0574
  0
VERTEX
  8
LAYER_2
 10
146.3008
 20
35.9637
  0
VERTEX
  8
LAYER_2
 10
145.6424
 20
35.9637
  0
VERTEX
  8
LAYER_2
 10
145.6424
 20
36.9969
  0
VERTEX
  8
LAYER_2
 10
146.2832
 20
36.9969
  0
VERTEX
  8
LAYER_2
 10
146.2832
 20
36.9035
  0
VERTEX
  8
LAYER_2
 10
145.7475
 20
36.9035
  0
VERTEX
  8
LAYER_2
 10
145.7475
 20
36.549
  0
VERTEX
  8
LAYER_2
 10
146.2481
 20
36.549
  0
VERTEX
  8
LAYER_2
 10
146.2481
 20
36.4557
  0
VERTEX
  8
LAYER_2
 10
145.7475
 20
36.4557
  0
SEQEND
  0
ENDBLK
  0
BLOCK
  8
LAYER_2
  2
AIGNBL02030012
 70
64
 10
0
 20
0
 30
0
  3
AIGNBL02030012
  0
POLYLINE
  8
LAYER_2
 40
0.05
 41
0.05
 66
1
 10
0
 20
0
 30
0
 70
1
  0
VERTEX
  8
LAYER_2
 10
147.4404
 20
36.117
  0
VERTEX
  8
LAYER_2
 10
147.4432
 20
36.117
  0
VERTEX
  8
LAYER_2
 10
147.4432
 20
36.9969
  0
VERTEX
  8
LAYER_2
 10
147.5483
 20
36.9969
  0
VERTEX
  8
LAYER_2
 10
147.5483
 20
35.9637
  0
VERTEX
  8
LAYER_2
 10
147.4174
 20
35.9637
  0
VERTEX
  8
LAYER_2
 10
146.8162
 20
36.8525
  0
VERTEX
  8
LAYER_2
 10
146.8127
 20
36.8525
  0
VERTEX
  8
LAYER_2
 10
146.8127
 20
35.9637
  0
VERTEX
  8
LAYER_2
 10
146.708
 20
35.9637
  0
VERTEX
  8
LAYER_2
 10
146.708
 20
36.9969
  0
VERTEX
  8
LAYER_2
 10
146.8393
 20
36.9969
  0
SEQEND
  0
ENDBLK
  0
BLOCK
  8
LAYER_2
  2
AIGNBL02030013
 70
64
 10
0
 20
0
 30
0
  3
AIGNBL02030013
  0
POLYLINE
  8
LAYER_2
 40
0.05
 41
0.05
 66
1
 10
0
 20
0
 30
0
 70
1
  0
VERTEX
  8
LAYER_2
 10
148.0213
 20
36.1756
 42
0.1557655154
  0
VERTEX
  8
LAYER_2
 10
148.0757
 20
36.0725
 42
0.1918235184
  0
VERTEX
  8
LAYER_2
 10
148.1891
 20
36.0309
  0
VERTEX
  8
LAYER_2
 10
148.2783
 20
36.0505
  0
VERTEX
  8
LAYER_2
 10
148.3344
 20
36.1039
  0
VERTEX
  8
LAYER_2
 10
148.3634
 20
36.1804
  0
VERTEX
  8
LAYER_2
 10
148.3717
 20
36.27
  0
VERTEX
  8
LAYER_2
 10
148.3717
 20
36.9969
  0
VERTEX
  8
LAYER_2
 10
148.4767
 20
36.9969
  0
VERTEX
  8
LAYER_2
 10
148.4767
 20
36.2614
  0
VERTEX
  8
LAYER_2
 10
148.4654
 20
36.1535
 42
-0.0973308998
  0
VERTEX
  8
LAYER_2
 10
148.424
 20
36.0485
 42
-0.1149355521
  0
VERTEX
  8
LAYER_2
 10
148.3393
 20
35.9689
 42
-0.1249341208
  0
VERTEX
  8
LAYER_2
 10
148.2004
 20
35.9375
 42
-0.1793665557
  0
VERTEX
  8
LAYER_2
 10
148.0158
 20
35.9974
 42
-0.1772363953
  0
VERTEX
  8
LAYER_2
 10
147.9234
 20
36.149
  0
SEQEND
  0
ENDBLK
  0
BLOCK
  8
LAYER_2
  2
AIGNBL02030014
 70
64
 10
0
 20
0
 30
0
  3
AIGNBL02030014
  0
POLYLINE
  8
LAYER_2
 40
0.05
 41
0.05
 66
1
 10
0
 20
0
 30
0
 70
1
  0
VERTEX
  8
LAYER_2
 10
149.965
 20
36.4805
 42
-0.1019307791
  0
VERTEX
  8
LAYER_2
 10
149.924
 20
36.2631
 42
-0.1000112985
  0
VERTEX
  8
LAYER_2
 10
149.8113
 20
36.0915
 42
-0.09646612644
  0
VERTEX
  8
LAYER_2
 10
149.6405
 20
35.9785
 42
-0.09758594962
  0
VERTEX
  8
LAYER_2
 10
149.4265
 20
35.9375
 42
-0.1000844711
  0
VERTEX
  8
LAYER_2
 10
149.2129
 20
35.9785
 42
-0.09954994557
  0
VERTEX
  8
LAYER_2
 10
149.042
 20
36.0915
 42
-0.09699237735
  0
VERTEX
  8
LAYER_2
 10
148.9287
 20
36.2631
 42
-0.09653980076
  0
VERTEX
  8
LAYER_2
 10
148.8881
 20
36.4805
 42
-0.1004051845
  0
VERTEX
  8
LAYER_2
 10
148.9287
 20
36.6978
 42
-0.0998654539
  0
VERTEX
  8
LAYER_2
 10
149.042
 20
36.8694
 42
-0.09851519288
  0
VERTEX
  8
LAYER_2
 10
149.2129
 20
36.9824
 42
-0.09768823248
  0
VERTEX
  8
LAYER_2
 10
149.4265
 20
37.0234
 42
-0.1000514256
  0
VERTEX
  8
LAYER_2
 10
149.6405
 20
36.9824
 42
-0.09863053528
  0
VERTEX
  8
LAYER_2
 10
149.8113
 20
36.8694
 42
-0.09807107579
  0
VERTEX
  8
LAYER_2
 10
149.924
 20
36.6978
 42
-0.0978256893
  0
SEQEND
  0
POLYLINE
  8
LAYER_2
 40
0.05
 41
0.05
 66
1
 10
0
 20
0
 30
0
 70
1
  0
VERTEX
  8
LAYER_2
 10
149.8541
 20
36.4798
 42
0.08634913196
  0
VERTEX
  8
LAYER_2
 10
149.8251
 20
36.6517
 42
0.09649608129
  0
VERTEX
  8
LAYER_2
 10
149.7404
 20
36.795
 42
0.1032857511
  0
VERTEX
  8
LAYER_2
 10
149.6053
 20
36.8932
 42
0.1061320656
  0
VERTEX
  8
LAYER_2
 10
149.4265
 20
36.93
 42
0.1115874499
  0
VERTEX
  8
LAYER_2
 10
149.2478
 20
36.8932
 42
0.1058584166
  0
VERTEX
  8
LAYER_2
 10
149.113
 20
36.795
 42
0.09787799956
  0
VERTEX
  8
LAYER_2
 10
149.0283
 20
36.6517
 42
0.08491464556
  0
VERTEX
  8
LAYER_2
 10
148.999
 20
36.4798
 42
0.08693146424
  0
VERTEX
  8
LAYER_2
 10
149.0283
 20
36.3079
 42
0.1009797617
  0
VERTEX
  8
LAYER_2
 10
149.113
 20
36.1649
 42
0.09998489394
  0
VERTEX
  8
LAYER_2
 10
149.2478
 20
36.0674
 42
0.1061678446
  0
VERTEX
  8
LAYER_2
 10
149.4265
 20
36.0309
 42
0.1126980581
  0
VERTEX
  8
LAYER_2
 10
149.6053
 20
36.0674
 42
0.1036982708
  0
VERTEX
  8
LAYER_2
 10
149.7404
 20
36.1649
 42
0.09370250368
  0
VERTEX
  8
LAYER_2
 10
149.8251
 20
36.3079
 42
0.08466662837
  0
SEQEND
  0
ENDBLK
  0
BLOCK
  8
LAYER_2
  2
AIGNBL02030015
 70
64
 10
0
 20
0
 30
0
  3
AIGNBL02030015
  0
POLYLINE
  8
LAYER_2
 40
0.05
 41
0.05
 66
1
 10
0
 20
0
 30
0
 70
1
  0
VERTEX
  8
LAYER_2
 10
150.7398
 20
35.9637
  0
VERTEX
  8
LAYER_2
 10
150.6351
 20
35.9637
  0
VERTEX
  8
LAYER_2
 10
150.6351
 20
36.4091
  0
VERTEX
  8
LAYER_2
 10
150.2482
 20
36.9969
  0
VERTEX
  8
LAYER_2
 10
150.3795
 20
36.9969
  0
VERTEX
  8
LAYER_2
 10
150.6905
 20
36.4967
  0
VERTEX
  8
LAYER_2
 10
151.0041
 20
36.9969
  0
VERTEX
  8
LAYER_2
 10
151.1263
 20
36.9969
  0
VERTEX
  8
LAYER_2
 10
150.7398
 20
36.4091
  0
SEQEND
  0
ENDBLK
  0
BLOCK
  8
LAYER_2
  2
AIGNBL02030016
 70
64
 10
0
 20
0
 30
0
  3
AIGNBL02030016
  0
POLYLINE
  8
LAYER_2
 40
0.05
 41
0.05
 66
1
 10
0
 20
0
 30
0
 70
1
  0
VERTEX
  8
LAYER_2
 10
152.0314
 20
36.9969
  0
VERTEX
  8
LAYER_2
 10
152.339
 20
36.9969
  0
VERTEX
  8
LAYER_2
 10
152.4575
 20
36.9845
  0
VERTEX
  8
LAYER_2
 10
152.5643
 20
36.9421
 42
-0.1168262011
  0
VERTEX
  8
LAYER_2
 10
152.6422
 20
36.8611
 42
-0.1230288266
  0
VERTEX
  8
LAYER_2
 10
152.6718
 20
36.733
 42
-0.1795449175
  0
VERTEX
  8
LAYER_2
 10
152.6219
 20
36.5907
 42
-0.170141964
  0
VERTEX
  8
LAYER_2
 10
152.4885
 20
36.5111
  0
VERTEX
  8
LAYER_2
 10
152.4885
 20
36.5084
 42
-0.1719890535
  0
VERTEX
  8
LAYER_2
 10
152.6553
 20
36.4302
 42
-0.2018462152
  0
VERTEX
  8
LAYER_2
 10
152.7214
 20
36.2496
 42
-0.1247085485
  0
VERTEX
  8
LAYER_2
 10
152.6942
 20
36.1325
 42
-0.1153486961
  0
VERTEX
  8
LAYER_2
 10
152.6181
 20
36.0419
 42
-0.08656795839
  0
VERTEX
  8
LAYER_2
 10
152.4972
 20
35.9844
 42
-0.06557363107
  0
VERTEX
  8
LAYER_2
 10
152.3373
 20
35.9637
  0
VERTEX
  8
LAYER_2
 10
152.0314
 20
35.9637
  0
SEQEND
  0
POLYLINE
  8
LAYER_2
 40
0.05
 41
0.05
 66
1
 10
0
 20
0
 30
0
 70
1
  0
VERTEX
  8
LAYER_2
 10
152.1364
 20
36.5445
  0
VERTEX
  8
LAYER_2
 10
152.348
 20
36.5445
  0
VERTEX
  8
LAYER_2
 10
152.4248
 20
36.5535
  0
VERTEX
  8
LAYER_2
 10
152.4951
 20
36.5831
  0
VERTEX
  8
LAYER_2
 10
152.5471
 20
36.6396
 42
0.1162126025
  0
VERTEX
  8
LAYER_2
 10
152.5668
 20
36.7258
  0
VERTEX
  8
LAYER_2
 10
152.5471
 20
36.8095
  0
VERTEX
  8
LAYER_2
 10
152.494
 20
36.8656
  0
VERTEX
  8
LAYER_2
 10
152.4152
 20
36.897
  0
VERTEX
  8
LAYER_2
 10
152.3187
 20
36.9066
  0
VERTEX
  8
LAYER_2
 10
152.1364
 20
36.9066
  0
SEQEND
  0
POLYLINE
  8
LAYER_2
 40
0.05
 41
0.05
 66
1
 10
0
 20
0
 30
0
 70
1
  0
VERTEX
  8
LAYER_2
 10
152.1364
 20
36.0543
  0
VERTEX
  8
LAYER_2
 10
152.3321
 20
36.0543
  0
VERTEX
  8
LAYER_2
 10
152.4406
 20
36.0653
  0
VERTEX
  8
LAYER_2
 10
152.5313
 20
36.1001
 42
0.1172546835
  0
VERTEX
  8
LAYER_2
 10
152.5929
 20
36.1632
 42
0.1286243504
  0
VERTEX
  8
LAYER_2
 10
152.6164
 20
36.2559
 42
0.2498669706
  0
VERTEX
  8
LAYER_2
 10
152.5471
 20
36.4081
 42
0.1538083763
  0
VERTEX
  8
LAYER_2
 10
152.3511
 20
36.4584
  0
VERTEX
  8
LAYER_2
 10
152.1364
 20
36.4584
  0
SEQEND
  0
ENDBLK
  0
BLOCK
  8
LAYER_2
  2
AIGNBL02030017
 70
64
 10
0
 20
0
 30
0
  3
AIGNBL02030017
  0
POLYLINE
  8
LAYER_2
 40
0.05
 41
0.05
 66
1
 10
0
 20
0
 30
0
 70
1
  0
VERTEX
  8
LAYER_2
 10
153.1534
 20
35.9637
  0
VERTEX
  8
LAYER_2
 10
153.038
 20
35.9637
  0
VERTEX
  8
LAYER_2
 10
153.4849
 20
36.9969
  0
VERTEX
  8
LAYER_2
 10
153.5872
 20
36.9969
  0
VERTEX
  8
LAYER_2
 10
154.0306
 20
35.9637
  0
VERTEX
  8
LAYER_2
 10
153.9138
 20
35.9637
  0
VERTEX
  8
LAYER_2
 10
153.7997
 20
36.2352
  0
VERTEX
  8
LAYER_2
 10
153.2657
 20
36.2352
  0
SEQEND
  0
POLYLINE
  8
LAYER_2
 40
0.05
 41
0.05
 66
1
 10
0
 20
0
 30
0
 70
1
  0
VERTEX
  8
LAYER_2
 10
153.305
 20
36.3316
  0
VERTEX
  8
LAYER_2
 10
153.7604
 20
36.3316
  0
VERTEX
  8
LAYER_2
 10
153.5327
 20
36.8804
  0
SEQEND
  0
ENDBLK
  0
BLOCK
  8
LAYER_2
  2
AIGNBL02030018
 70
64
 10
0
 20
0
 30
0
  3
AIGNBL02030018
  0
POLYLINE
  8
LAYER_2
 40
0.05
 41
0.05
 66
1
 10
0
 20
0
 30
0
 70
1
  0
VERTEX
  8
LAYER_2
 10
154.7151
 20
35.9637
  0
VERTEX
  8
LAYER_2
 10
154.61
 20
35.9637
  0
VERTEX
  8
LAYER_2
 10
154.61
 20
36.9035
  0
VERTEX
  8
LAYER_2
 10
154.2638
 20
36.9035
  0
VERTEX
  8
LAYER_2
 10
154.2638
 20
36.9969
  0
VERTEX
  8
LAYER_2
 10
155.0606
 20
36.9969
  0
VERTEX
  8
LAYER_2
 10
155.0606
 20
36.9035
  0
VERTEX
  8
LAYER_2
 10
154.7151
 20
36.9035
  0
SEQEND
  0
ENDBLK
  0
BLOCK
  8
LAYER_2
  2
AIGNBL02030019
 70
64
 10
0
 20
0
 30
0
  3
AIGNBL02030019
  0
POLYLINE
  8
LAYER_2
 40
0.05
 41
0.05
 66
1
 10
0
 20
0
 30
0
 70
1
  0
VERTEX
  8
LAYER_2
 10
155.4169
 20
36.9969
  0
VERTEX
  8
LAYER_2
 10
155.5216
 20
36.9969
  0
VERTEX
  8
LAYER_2
 10
155.5216
 20
36.549
  0
VERTEX
  8
LAYER_2
 10
156.0852
 20
36.549
  0
VERTEX
  8
LAYER_2
 10
156.0852
 20
36.9969
  0
VERTEX
  8
LAYER_2
 10
156.1903
 20
36.9969
  0
VERTEX
  8
LAYER_2
 10
156.1903
 20
35.9637
  0
VERTEX
  8
LAYER_2
 10
156.0852
 20
35.9637
  0
VERTEX
  8
LAYER_2
 10
156.0852
 20
36.4529
  0
VERTEX
  8
LAYER_2
 10
155.5216
 20
36.4529
  0
VERTEX
  8
LAYER_2
 10
155.5216
 20
35.9637
  0
VERTEX
  8
LAYER_2
 10
155.4169
 20
35.9637
  0
SEQEND
  0
ENDBLK
  0
BLOCK
  8
LAYER_2
  2
AIGNBL0203001A
 70
64
 10
0
 20
0
 30
0
  3
AIGNBL0203001A
  0
POLYLINE
  8
LAYER_2
 40
0.05
 41
0.05
 66
1
 10
0
 20
0
 30
0
 70
1
  0
VERTEX
  8
LAYER_2
 10
156.7708
 20
35.9637
  0
VERTEX
  8
LAYER_2
 10
156.6657
 20
35.9637
  0
VERTEX
  8
LAYER_2
 10
156.6657
 20
36.9969
  0
VERTEX
  8
LAYER_2
 10
156.9696
 20
36.9969
  0
VERTEX
  8
LAYER_2
 10
157.1101
 20
36.9824
 42
-0.1032885834
  0
VERTEX
  8
LAYER_2
 10
157.2228
 20
36.9349
 42
-0.1280591957
  0
VERTEX
  8
LAYER_2
 10
157.2962
 20
36.8494
 42
-0.1078860225
  0
VERTEX
  8
LAYER_2
 10
157.3223
 20
36.7213
  0
VERTEX
  8
LAYER_2
 10
157.3024
 20
36.6176
  0
VERTEX
  8
LAYER_2
 10
157.2469
 20
36.5366
  0
VERTEX
  8
LAYER_2
 10
157.1635
 20
36.4818
  0
VERTEX
  8
LAYER_2
 10
157.0585
 20
36.4557
  0
VERTEX
  8
LAYER_2
 10
157.3606
 20
35.9637
  0
VERTEX
  8
LAYER_2
 10
157.2321
 20
35.9637
  0
VERTEX
  8
LAYER_2
 10
156.9461
 20
36.4467
  0
VERTEX
  8
LAYER_2
 10
156.7708
 20
36.4467
  0
SEQEND
  0
POLYLINE
  8
LAYER_2
 40
0.05
 41
0.05
 66
1
 10
0
 20
0
 30
0
 70
1
  0
VERTEX
  8
LAYER_2
 10
156.7708
 20
36.5373
  0
VERTEX
  8
LAYER_2
 10
156.9534
 20
36.5373
 42
0.153451873
  0
VERTEX
  8
LAYER_2
 10
157.1491
 20
36.5831
 42
0.2580279849
  0
VERTEX
  8
LAYER_2
 10
157.2176
 20
36.7213
  0
VERTEX
  8
LAYER_2
 10
157.1983
 20
36.8071
  0
VERTEX
  8
LAYER_2
 10
157.146
 20
36.8643
  0
VERTEX
  8
LAYER_2
 10
157.0643
 20
36.8963
  0
VERTEX
  8
LAYER_2
 10
156.9578
 20
36.9066
  0
VERTEX
  8
LAYER_2
 10
156.7708
 20
36.9066
  0
SEQEND
  0
ENDBLK
  0
BLOCK
  8
LAYER_2
  2
AIGNBL0203001B
 70
64
 10
0
 20
0
 30
0
  3
AIGNBL0203001B
  0
POLYLINE
  8
LAYER_2
 40
0.05
 41
0.05
 66
1
 10
0
 20
0
 30
0
 70
1
  0
VERTEX
  8
LAYER_2
 10
158.7627
 20
36.4805
 42
-0.09904480664
  0
VERTEX
  8
LAYER_2
 10
158.7221
 20
36.2631
 42
-0.09984043552
  0
VERTEX
  8
LAYER_2
 10
158.6087
 20
36.0915
 42
-0.09841590082
  0
VERTEX
  8
LAYER_2
 10
158.4382
 20
35.9785
 42
-0.09758412454
  0
VERTEX
  8
LAYER_2
 10
158.2243
 20
35.9375
 42
-0.09999517154
  0
VERTEX
  8
LAYER_2
 10
158.0103
 20
35.9785
 42
-0.09953435427
  0
VERTEX
  8
LAYER_2
 10
157.8398
 20
36.0915
 42
-0.09853706159
  0
VERTEX
  8
LAYER_2
 10
157.7268
 20
36.2631
 42
-0.09653980076
  0
VERTEX
  8
LAYER_2
 10
157.6862
 20
36.4805
 42
-0.1004051845
  0
VERTEX
  8
LAYER_2
 10
157.7268
 20
36.6978
 42
-0.1008040346
  0
VERTEX
  8
LAYER_2
 10
157.8398
 20
36.8694
 42
-0.09763764092
  0
VERTEX
  8
LAYER_2
 10
158.0103
 20
36.9824
 42
-0.09752919603
  0
VERTEX
  8
LAYER_2
 10
158.2243
 20
37.0234
 42
-0.1000174927
  0
VERTEX
  8
LAYER_2
 10
158.4382
 20
36.9824
 42
-0.1009762109
  0
VERTEX
  8
LAYER_2
 10
158.6087
 20
36.8694
 42
-0.09735230618
  0
VERTEX
  8
LAYER_2
 10
158.7221
 20
36.6978
 42
-0.09580191209
  0
SEQEND
  0
POLYLINE
  8
LAYER_2
 40
0.05
 41
0.05
 66
1
 10
0
 20
0
 30
0
 70
1
  0
VERTEX
  8
LAYER_2
 10
158.6518
 20
36.4798
 42
0.08852014676
  0
VERTEX
  8
LAYER_2
 10
158.6225
 20
36.6517
 42
0.09973444611
  0
VERTEX
  8
LAYER_2
 10
158.5378
 20
36.795
 42
0.1024799068
  0
VERTEX
  8
LAYER_2
 10
158.4031
 20
36.8932
 42
0.1060321998
  0
VERTEX
  8
LAYER_2
 10
158.2243
 20
36.93
 42
0.1116325688
  0
VERTEX
  8
LAYER_2
 10
158.0455
 20
36.8932
 42
0.1060506217
  0
VERTEX
  8
LAYER_2
 10
157.9104
 20
36.795
 42
0.09526104957
  0
VERTEX
  8
LAYER_2
 10
157.8257
 20
36.6517
 42
0.08422602157
  0
VERTEX
  8
LAYER_2
 10
157.7968
 20
36.4798
 42
0.0876992245
  0
VERTEX
  8
LAYER_2
 10
157.8257
 20
36.3079
 42
0.09826867926
  0
VERTEX
  8
LAYER_2
 10
157.9104
 20
36.1649
 42
0.09965756504
  0
VERTEX
  8
LAYER_2
 10
158.0455
 20
36.0674
 42
0.1061654103
  0
VERTEX
  8
LAYER_2
 10
158.2243
 20
36.0309
 42
0.1124388132
  0
VERTEX
  8
LAYER_2
 10
158.4031
 20
36.0674
 42
0.1029122982
  0
VERTEX
  8
LAYER_2
 10
158.5378
 20
36.1649
 42
0.09882210045
  0
VERTEX
  8
LAYER_2
 10
158.6225
 20
36.3079
 42
0.08589740831
  0
SEQEND
  0
ENDBLK
  0
BLOCK
  8
LAYER_2
  2
AIGNBL0203001C
 70
64
 10
0
 20
0
 30
0
  3
AIGNBL0203001C
  0
POLYLINE
  8
LAYER_2
 40
0.05
 41
0.05
 66
1
 10
0
 20
0
 30
0
 70
1
  0
VERTEX
  8
LAYER_2
 10
160.2045
 20
36.4805
 42
-0.1019307791
  0
VERTEX
  8
LAYER_2
 10
160.1635
 20
36.2631
 42
-0.09929652324
  0
VERTEX
  8
LAYER_2
 10
160.0509
 20
36.0915
 42
-0.09710469009
  0
VERTEX
  8
LAYER_2
 10
159.88
 20
35.9785
 42
-0.09758412454
  0
VERTEX
  8
LAYER_2
 10
159.6661
 20
35.9375
 42
-0.1005051182
  0
VERTEX
  8
LAYER_2
 10
159.4524
 20
35.9785
 42
-0.1009789173
  0
VERTEX
  8
LAYER_2
 10
159.2816
 20
36.0915
 42
-0.09724598852
  0
VERTEX
  8
LAYER_2
 10
159.1682
 20
36.2631
 42
-0.09653980076
  0
VERTEX
  8
LAYER_2
 10
159.1276
 20
36.4805
 42
-0.1004051845
  0
VERTEX
  8
LAYER_2
 10
159.1682
 20
36.6978
 42
-0.1001669327
  0
VERTEX
  8
LAYER_2
 10
159.2816
 20
36.8694
 42
-0.09846843416
  0
VERTEX
  8
LAYER_2
 10
159.4524
 20
36.9824
 42
-0.09783444074
  0
VERTEX
  8
LAYER_2
 10
159.6661
 20
37.0234
 42
-0.1000174927
  0
VERTEX
  8
LAYER_2
 10
159.88
 20
36.9824
 42
-0.098457988
  0
VERTEX
  8
LAYER_2
 10
160.0509
 20
36.8694
 42
-0.09762598086
  0
VERTEX
  8
LAYER_2
 10
160.1635
 20
36.6978
 42
-0.0978256893
  0
SEQEND
  0
POLYLINE
  8
LAYER_2
 40
0.05
 41
0.05
 66
1
 10
0
 20
0
 30
0
 70
1
  0
VERTEX
  8
LAYER_2
 10
160.0936
 20
36.4798
 42
0.08653869446
  0
VERTEX
  8
LAYER_2
 10
160.0647
 20
36.6517
 42
0.09689814906
  0
VERTEX
  8
LAYER_2
 10
159.9799
 20
36.795
 42
0.1032857511
  0
VERTEX
  8
LAYER_2
 10
159.8448
 20
36.8932
 42
0.1061350344
  0
VERTEX
  8
LAYER_2
 10
159.6661
 20
36.93
 42
0.1114208933
  0
VERTEX
  8
LAYER_2
 10
159.4872
 20
36.8932
 42
0.1056595975
  0
VERTEX
  8
LAYER_2
 10
159.3525
 20
36.795
 42
0.09787799956
  0
VERTEX
  8
LAYER_2
 10
159.2678
 20
36.6517
 42
0.08491464556
  0
VERTEX
  8
LAYER_2
 10
159.2385
 20
36.4798
 42
0.08693146424
  0
VERTEX
  8
LAYER_2
 10
159.2678
 20
36.3079
 42
0.1009797617
  0
VERTEX
  8
LAYER_2
 10
159.3525
 20
36.1649
 42
0.09978391674
  0
VERTEX
  8
LAYER_2
 10
159.4872
 20
36.0674
 42
0.1060616244
  0
VERTEX
  8
LAYER_2
 10
159.6661
 20
36.0309
 42
0.1126531325
  0
VERTEX
  8
LAYER_2
 10
159.8448
 20
36.0674
 42
0.1036982708
  0
VERTEX
  8
LAYER_2
 10
159.9799
 20
36.1649
 42
0.09401062747
  0
VERTEX
  8
LAYER_2
 10
160.0647
 20
36.3079
 42
0.0844927763
  0
SEQEND
  0
ENDBLK
  0
BLOCK
  8
LAYER_2
  2
AIGNBL0203001D
 70
64
 10
0
 20
0
 30
0
  3
AIGNBL0203001D
  0
POLYLINE
  8
LAYER_2
 40
0.05
 41
0.05
 66
1
 10
0
 20
0
 30
0
 70
1
  0
VERTEX
  8
LAYER_2
 10
161.1354
 20
36.1418
  0
VERTEX
  8
LAYER_2
 10
161.1371
 20
36.1418
  0
VERTEX
  8
LAYER_2
 10
161.4826
 20
36.9969
  0
VERTEX
  8
LAYER_2
 10
161.6435
 20
36.9969
  0
VERTEX
  8
LAYER_2
 10
161.6435
 20
35.9637
  0
VERTEX
  8
LAYER_2
 10
161.5381
 20
35.9637
  0
VERTEX
  8
LAYER_2
 10
161.5381
 20
36.8611
  0
VERTEX
  8
LAYER_2
 10
161.5354
 20
36.8611
  0
VERTEX
  8
LAYER_2
 10
161.1619
 20
35.9637
  0
VERTEX
  8
LAYER_2
 10
161.1064
 20
35.9637
  0
VERTEX
  8
LAYER_2
 10
160.7326
 20
36.8611
  0
VERTEX
  8
LAYER_2
 10
160.7299
 20
36.8611
  0
VERTEX
  8
LAYER_2
 10
160.7299
 20
35.9637
  0
VERTEX
  8
LAYER_2
 10
160.6248
 20
35.9637
  0
VERTEX
  8
LAYER_2
 10
160.6248
 20
36.9969
  0
VERTEX
  8
LAYER_2
 10
160.7853
 20
36.9969
  0
SEQEND
  0
ENDBLK
  0
BLOCK
  8
LAYER_2
  2
AIGNBL0203001E
 70
64
 10
0
 20
0
 30
0
  3
AIGNBL0203001E
  0
POLYLINE
  8
LAYER_2
 40
0.05
 41
0.05
 66
1
 10
0
 20
0
 30
0
 70
1
  0
VERTEX
  8
LAYER_2
 10
162.79
 20
36.0574
  0
VERTEX
  8
LAYER_2
 10
163.3433
 20
36.0574
  0
VERTEX
  8
LAYER_2
 10
163.3433
 20
35.9637
  0
VERTEX
  8
LAYER_2
 10
162.685
 20
35.9637
  0
VERTEX
  8
LAYER_2
 10
162.685
 20
36.9969
  0
VERTEX
  8
LAYER_2
 10
163.3258
 20
36.9969
  0
VERTEX
  8
LAYER_2
 10
163.3258
 20
36.9035
  0
VERTEX
  8
LAYER_2
 10
162.79
 20
36.9035
  0
VERTEX
  8
LAYER_2
 10
162.79
 20
36.549
  0
VERTEX
  8
LAYER_2
 10
163.2906
 20
36.549
  0
VERTEX
  8
LAYER_2
 10
163.2906
 20
36.4557
  0
VERTEX
  8
LAYER_2
 10
162.79
 20
36.4557
  0
SEQEND
  0
ENDBLK
  0
BLOCK
  8
LAYER_2
  2
AIGNBL0203001F
 70
64
 10
0
 20
0
 30
0
  3
AIGNBL0203001F
  0
POLYLINE
  8
LAYER_2
 40
0.05
 41
0.05
 66
1
 10
0
 20
0
 30
0
 70
1
  0
VERTEX
  8
LAYER_2
 10
164.0885
 20
36.5797
  0
VERTEX
  8
LAYER_2
 10
164.3707
 20
36.9969
  0
VERTEX
  8
LAYER_2
 10
164.4957
 20
36.9969
  0
VERTEX
  8
LAYER_2
 10
164.1533
 20
36.5053
  0
VERTEX
  8
LAYER_2
 10
164.5326
 20
35.9637
  0
VERTEX
  8
LAYER_2
 10
164.4013
 20
35.9637
  0
VERTEX
  8
LAYER_2
 10
164.0858
 20
36.4295
  0
VERTEX
  8
LAYER_2
 10
163.7722
 20
35.9637
  0
VERTEX
  8
LAYER_2
 10
163.6407
 20
35.9637
  0
VERTEX
  8
LAYER_2
 10
164.0203
 20
36.5066
  0
VERTEX
  8
LAYER_2
 10
163.6744
 20
36.9969
  0
VERTEX
  8
LAYER_2
 10
163.806
 20
36.9969
  0
SEQEND
  0
ENDBLK
  0
BLOCK
  8
LAYER_2
  2
AIGNBL02030020
 70
64
 10
0
 20
0
 30
0
  3
AIGNBL02030020
  0
POLYLINE
  8
LAYER_2
 40
0.05
 41
0.05
 66
1
 10
0
 20
0
 30
0
 70
1
  0
VERTEX
  8
LAYER_2
 10
164.8988
 20
36.9969
  0
VERTEX
  8
LAYER_2
 10
165.1909
 20
36.9969
  0
VERTEX
  8
LAYER_2
 10
165.3339
 20
36.9804
 42
-0.104160294
  0
VERTEX
  8
LAYER_2
 10
165.4438
 20
36.929
 42
-0.1209616443
  0
VERTEX
  8
LAYER_2
 10
165.5148
 20
36.8429
 42
-0.1032545831
  0
VERTEX
  8
LAYER_2
 10
165.5392
 20
36.7213
 42
-0.1239274235
  0
VERTEX
  8
LAYER_2
 10
165.5141
 20
36.5993
 42
-0.1163667494
  0
VERTEX
  8
LAYER_2
 10
165.4424
 20
36.5132
 42
-0.08715194998
  0
VERTEX
  8
LAYER_2
 10
165.3315
 20
36.4615
 42
-0.06075348808
  0
VERTEX
  8
LAYER_2
 10
165.1878
 20
36.444
  0
VERTEX
  8
LAYER_2
 10
165.0039
 20
36.444
  0
VERTEX
  8
LAYER_2
 10
165.0039
 20
35.9637
  0
VERTEX
  8
LAYER_2
 10
164.8988
 20
35.9637
  0
SEQEND
  0
POLYLINE
  8
LAYER_2
 40
0.05
 41
0.05
 66
1
 10
0
 20
0
 30
0
 70
1
  0
VERTEX
  8
LAYER_2
 10
165.0039
 20
36.5328
  0
VERTEX
  8
LAYER_2
 10
165.1816
 20
36.5328
 42
0.1694225951
  0
VERTEX
  8
LAYER_2
 10
165.3701
 20
36.581
 42
0.2442570363
  0
VERTEX
  8
LAYER_2
 10
165.4345
 20
36.7213
 42
0.2590967024
  0
VERTEX
  8
LAYER_2
 10
165.368
 20
36.8622
 42
0.143072224
  0
VERTEX
  8
LAYER_2
 10
165.1816
 20
36.9066
  0
VERTEX
  8
LAYER_2
 10
165.0039
 20
36.9066
  0
SEQEND
  0
ENDBLK
  0
BLOCK
  8
LAYER_2
  2
AIGNBL02030021
 70
64
 10
0
 20
0
 30
0
  3
AIGNBL02030021
  0
POLYLINE
  8
LAYER_2
 40
0.05
 41
0.05
 66
1
 10
0
 20
0
 30
0
 70
1
  0
VERTEX
  8
LAYER_2
 10
166.0515
 20
36.0574
  0
VERTEX
  8
LAYER_2
 10
166.6048
 20
36.0574
  0
VERTEX
  8
LAYER_2
 10
166.6048
 20
35.9637
  0
VERTEX
  8
LAYER_2
 10
165.9465
 20
35.9637
  0
VERTEX
  8
LAYER_2
 10
165.9465
 20
36.9969
  0
VERTEX
  8
LAYER_2
 10
166.5872
 20
36.9969
  0
VERTEX
  8
LAYER_2
 10
166.5872
 20
36.9035
  0
VERTEX
  8
LAYER_2
 10
166.0515
 20
36.9035
  0
VERTEX
  8
LAYER_2
 10
166.0515
 20
36.549
  0
VERTEX
  8
LAYER_2
 10
166.5521
 20
36.549
  0
VERTEX
  8
LAYER_2
 10
166.5521
 20
36.4557
  0
VERTEX
  8
LAYER_2
 10
166.0515
 20
36.4557
  0
SEQEND
  0
ENDBLK
  0
BLOCK
  8
LAYER_2
  2
AIGNBL02030022
 70
64
 10
0
 20
0
 30
0
  3
AIGNBL02030022
  0
POLYLINE
  8
LAYER_2
 40
0.05
 41
0.05
 66
1
 10
0
 20
0
 30
0
 70
1
  0
VERTEX
  8
LAYER_2
 10
167.1168
 20
35.9637
  0
VERTEX
  8
LAYER_2
 10
167.0117
 20
35.9637
  0
VERTEX
  8
LAYER_2
 10
167.0117
 20
36.9969
  0
VERTEX
  8
LAYER_2
 10
167.3155
 20
36.9969
  0
VERTEX
  8
LAYER_2
 10
167.4561
 20
36.9824
 42
-0.1039428931
  0
VERTEX
  8
LAYER_2
 10
167.5687
 20
36.9349
 42
-0.1259973384
  0
VERTEX
  8
LAYER_2
 10
167.6425
 20
36.8494
 42
-0.1064650891
  0
VERTEX
  8
LAYER_2
 10
167.6683
 20
36.7213
  0
VERTEX
  8
LAYER_2
 10
167.6483
 20
36.6176
  0
VERTEX
  8
LAYER_2
 10
167.5929
 20
36.5366
  0
VERTEX
  8
LAYER_2
 10
167.5095
 20
36.4818
  0
VERTEX
  8
LAYER_2
 10
167.4044
 20
36.4557
  0
VERTEX
  8
LAYER_2
 10
167.7066
 20
35.9637
  0
VERTEX
  8
LAYER_2
 10
167.578
 20
35.9637
  0
VERTEX
  8
LAYER_2
 10
167.2921
 20
36.4467
  0
VERTEX
  8
LAYER_2
 10
167.1168
 20
36.4467
  0
SEQEND
  0
POLYLINE
  8
LAYER_2
 40
0.05
 41
0.05
 66
1
 10
0
 20
0
 30
0
 70
1
  0
VERTEX
  8
LAYER_2
 10
167.1168
 20
36.5373
  0
VERTEX
  8
LAYER_2
 10
167.2994
 20
36.5373
 42
0.1542400453
  0
VERTEX
  8
LAYER_2
 10
167.495
 20
36.5831
 42
0.2583775622
  0
VERTEX
  8
LAYER_2
 10
167.5636
 20
36.7213
  0
VERTEX
  8
LAYER_2
 10
167.5446
 20
36.8071
  0
VERTEX
  8
LAYER_2
 10
167.4919
 20
36.8643
  0
VERTEX
  8
LAYER_2
 10
167.4103
 20
36.8963
  0
VERTEX
  8
LAYER_2
 10
167.3038
 20
36.9066
  0
VERTEX
  8
LAYER_2
 10
167.1168
 20
36.9066
  0
SEQEND
  0
ENDBLK
  0
BLOCK
  8
LAYER_2
  2
AIGNBL02030023
 70
64
 10
0
 20
0
 30
0
  3
AIGNBL02030023
  0
POLYLINE
  8
LAYER_2
 40
0.05
 41
0.05
 66
1
 10
0
 20
0
 30
0
 70
1
  0
VERTEX
  8
LAYER_2
 10
168.1923
 20
35.9637
  0
VERTEX
  8
LAYER_2
 10
168.0876
 20
35.9637
  0
VERTEX
  8
LAYER_2
 10
168.0876
 20
36.9969
  0
VERTEX
  8
LAYER_2
 10
168.1923
 20
36.9969
  0
SEQEND
  0
ENDBLK
  0
BLOCK
  8
LAYER_2
  2
AIGNBL02030024
 70
64
 10
0
 20
0
 30
0
  3
AIGNBL02030024
  0
POLYLINE
  8
LAYER_2
 40
0.05
 41
0.05
 66
1
 10
0
 20
0
 30
0
 70
1
  0
VERTEX
  8
LAYER_2
 10
168.7732
 20
36.0574
  0
VERTEX
  8
LAYER_2
 10
169.3261
 20
36.0574
  0
VERTEX
  8
LAYER_2
 10
169.3261
 20
35.9637
  0
VERTEX
  8
LAYER_2
 10
168.6681
 20
35.9637
  0
VERTEX
  8
LAYER_2
 10
168.6681
 20
36.9969
  0
VERTEX
  8
LAYER_2
 10
169.3089
 20
36.9969
  0
VERTEX
  8
LAYER_2
 10
169.3089
 20
36.9035
  0
VERTEX
  8
LAYER_2
 10
168.7732
 20
36.9035
  0
VERTEX
  8
LAYER_2
 10
168.7732
 20
36.549
  0
VERTEX
  8
LAYER_2
 10
169.2737
 20
36.549
  0
VERTEX
  8
LAYER_2
 10
169.2737
 20
36.4557
  0
VERTEX
  8
LAYER_2
 10
168.7732
 20
36.4557
  0
SEQEND
  0
ENDBLK
  0
BLOCK
  8
LAYER_2
  2
AIGNBL02030025
 70
64
 10
0
 20
0
 30
0
  3
AIGNBL02030025
  0
POLYLINE
  8
LAYER_2
 40
0.05
 41
0.05
 66
1
 10
0
 20
0
 30
0
 70
1
  0
VERTEX
  8
LAYER_2
 10
170.4661
 20
36.117
  0
VERTEX
  8
LAYER_2
 10
170.4689
 20
36.117
  0
VERTEX
  8
LAYER_2
 10
170.4689
 20
36.9969
  0
VERTEX
  8
LAYER_2
 10
170.5739
 20
36.9969
  0
VERTEX
  8
LAYER_2
 10
170.5739
 20
35.9637
  0
VERTEX
  8
LAYER_2
 10
170.4426
 20
35.9637
  0
VERTEX
  8
LAYER_2
 10
169.8415
 20
36.8525
  0
VERTEX
  8
LAYER_2
 10
169.8384
 20
36.8525
  0
VERTEX
  8
LAYER_2
 10
169.8384
 20
35.9637
  0
VERTEX
  8
LAYER_2
 10
169.7333
 20
35.9637
  0
VERTEX
  8
LAYER_2
 10
169.7333
 20
36.9969
  0
VERTEX
  8
LAYER_2
 10
169.8649
 20
36.9969
  0
SEQEND
  0
ENDBLK
  0
BLOCK
  8
LAYER_2
  2
AIGNBL02030026
 70
64
 10
0
 20
0
 30
0
  3
AIGNBL02030026
  0
POLYLINE
  8
LAYER_2
 40
0.05
 41
0.05
 66
1
 10
0
 20
0
 30
0
 70
1
  0
VERTEX
  8
LAYER_2
 10
171.9196
 20
36.1315
  0
VERTEX
  8
LAYER_2
 10
171.8558
 20
36.0571
  0
VERTEX
  8
LAYER_2
 10
171.7697
 20
35.9954
  0
VERTEX
  8
LAYER_2
 10
171.6615
 20
35.953
  0
VERTEX
  8
LAYER_2
 10
171.5327
 20
35.9375
 42
-0.0997799169
  0
VERTEX
  8
LAYER_2
 10
171.3167
 20
35.9785
 42
-0.102530266
  0
VERTEX
  8
LAYER_2
 10
171.1461
 20
36.0915
 42
-0.09968794278
  0
VERTEX
  8
LAYER_2
 10
171.0345
 20
36.2631
 42
-0.09630702324
  0
VERTEX
  8
LAYER_2
 10
170.9942
 20
36.4805
 42
-0.1018981748
  0
VERTEX
  8
LAYER_2
 10
171.0352
 20
36.6978
 42
-0.09989904409
  0
VERTEX
  8
LAYER_2
 10
171.1479
 20
36.8694
 42
-0.09694965588
  0
VERTEX
  8
LAYER_2
 10
171.3187
 20
36.9824
 42
-0.09744116728
  0
VERTEX
  8
LAYER_2
 10
171.5327
 20
37.0234
  0
VERTEX
  8
LAYER_2
 10
171.6443
 20
37.0114
  0
VERTEX
  8
LAYER_2
 10
171.7473
 20
36.9779
  0
VERTEX
  8
LAYER_2
 10
171.8348
 20
36.9263
  0
VERTEX
  8
LAYER_2
 10
171.9006
 20
36.8584
  0
VERTEX
  8
LAYER_2
 10
171.8131
 20
36.794
  0
VERTEX
  8
LAYER_2
 10
171.7697
 20
36.8439
  0
VERTEX
  8
LAYER_2
 10
171.7063
 20
36.8877
  0
VERTEX
  8
LAYER_2
 10
171.6267
 20
36.9183
  0
VERTEX
  8
LAYER_2
 10
171.5341
 20
36.93
 42
0.1106055686
  0
VERTEX
  8
LAYER_2
 10
171.3539
 20
36.8935
 42
0.1037389517
  0
VERTEX
  8
LAYER_2
 10
171.2188
 20
36.7954
 42
0.09534605581
  0
VERTEX
  8
LAYER_2
 10
171.1341
 20
36.652
 42
0.08447361069
  0
VERTEX
  8
LAYER_2
 10
171.1052
 20
36.4805
 42
0.09038739564
  0
VERTEX
  8
LAYER_2
 10
171.1351
 20
36.3089
 42
0.09795352863
  0
VERTEX
  8
LAYER_2
 10
171.2205
 20
36.1656
 42
0.1034747097
  0
VERTEX
  8
LAYER_2
 10
171.3556
 20
36.0674
 42
0.1064777274
  0
VERTEX
  8
LAYER_2
 10
171.5341
 20
36.0309
 42
0.1092499226
  0
VERTEX
  8
LAYER_2
 10
171.7032
 20
36.0674
 42
0.1370031249
  0
VERTEX
  8
LAYER_2
 10
171.8376
 20
36.1842
  0
SEQEND
  0
ENDBLK
  0
BLOCK
  8
LAYER_2
  2
AIGNBL02030027
 70
64
 10
0
 20
0
 30
0
  3
AIGNBL02030027
  0
POLYLINE
  8
LAYER_2
 40
0.05
 41
0.05
 66
1
 10
0
 20
0
 30
0
 70
1
  0
VERTEX
  8
LAYER_2
 10
172.4067
 20
36.0574
  0
VERTEX
  8
LAYER_2
 10
172.96
 20
36.0574
  0
VERTEX
  8
LAYER_2
 10
172.96
 20
35.9637
  0
VERTEX
  8
LAYER_2
 10
172.3016
 20
35.9637
  0
VERTEX
  8
LAYER_2
 10
172.3016
 20
36.9969
  0
VERTEX
  8
LAYER_2
 10
172.9424
 20
36.9969
  0
VERTEX
  8
LAYER_2
 10
172.9424
 20
36.9035
  0
VERTEX
  8
LAYER_2
 10
172.4067
 20
36.9035
  0
VERTEX
  8
LAYER_2
 10
172.4067
 20
36.549
  0
VERTEX
  8
LAYER_2
 10
172.9073
 20
36.549
  0
VERTEX
  8
LAYER_2
 10
172.9073
 20
36.4557
  0
VERTEX
  8
LAYER_2
 10
172.4067
 20
36.4557
  0
SEQEND
  0
ENDBLK
  0
BLOCK
  8
LAYER_2
  2
AIGNBL02020004
 70
64
 10
0
 20
0
 30
0
  3
AIGNBL02020004
  0
POLYLINE
  8
LAYER_2
 40
0.05
 41
0.05
 66
1
 10
0
 20
0
 30
0
  0
VERTEX
  8
LAYER_2
 10
-1.196
 20
217.6012
 42
-0.04245719054
  0
VERTEX
  8
LAYER_2
 10
-1.2437
 20
216.7495
 42
-0.1145799327
  0
VERTEX
  8
LAYER_2
 10
-1.4854
 20
216.1042
 42
-0.03657724702
  0
VERTEX
  8
LAYER_2
 10
-1.5732
 20
216.0054
 42
-0.1577844027
  0
VERTEX
  8
LAYER_2
 10
-2.1025
 20
215.7362
 42
-0.04286355862
  0
VERTEX
  8
LAYER_2
 10
-2.3408
 20
215.7164
 42
-0.1461347274
  0
VERTEX
  8
LAYER_2
 10
-2.9525
 20
215.8874
 42
-0.04825720136
  0
VERTEX
  8
LAYER_2
 10
-3.0956
 20
216.0054
 42
-0.1514389093
  0
VERTEX
  8
LAYER_2
 10
-3.3903
 20
216.5711
 42
-0.04033585951
  0
VERTEX
  8
LAYER_2
 10
-3.4563
 20
217.0249
 42
-0.01781626242
  0
VERTEX
  8
LAYER_2
 10
-3.4732
 20
217.6012
 42
-0.04130139583
  0
VERTEX
  8
LAYER_2
 10
-3.4273
 20
218.4296
 42
-0.115134122
  0
VERTEX
  8
LAYER_2
 10
-3.1834
 20
219.0859
 42
-0.03655204802
  0
VERTEX
  8
LAYER_2
 10
-3.0956
 20
219.1845
 42
-0.2077091659
  0
VERTEX
  8
LAYER_2
 10
-2.3408
 20
219.4732
 42
-0.1450941273
  0
VERTEX
  8
LAYER_2
 10
-1.7165
 20
219.3022
 42
-0.04840000405
  0
VERTEX
  8
LAYER_2
 10
-1.5732
 20
219.1845
 42
-0.1513847701
  0
VERTEX
  8
LAYER_2
 10
-1.2787
 20
218.6201
 42
-0.04039612069
  0
VERTEX
  8
LAYER_2
 10
-1.2128
 20
218.1697
 42
-0.01794233576
  0
VERTEX
  8
LAYER_2
 10
-1.196
 20
217.6012
  0
SEQEND
  0
POLYLINE
  8
LAYER_2
 40
0.05
 41
0.05
 66
1
 10
0
 20
0
 30
0
  0
VERTEX
  8
LAYER_2
 10
0.4394
 20
217.6012
 42
0.03175065208
  0
VERTEX
  8
LAYER_2
 10
0.3919
 20
218.5427
 42
0.07858555415
  0
VERTEX
  8
LAYER_2
 10
0.123
 20
219.5272
 42
0.07786217308
  0
VERTEX
  8
LAYER_2
 10
-0.303
 20
220.1395
 42
0.1422741765
  0
VERTEX
  8
LAYER_2
 10
-1.5044
 20
220.8409
 42
0.06575783118
  0
VERTEX
  8
LAYER_2
 10
-2.3408
 20
220.9436
 42
0.08626163736
  0
VERTEX
  8
LAYER_2
 10
-3.3996
 20
220.7669
 42
0.1130730203
  0
VERTEX
  8
LAYER_2
 10
-4.3662
 20
220.1395
 42
0.09873852385
  0
VERTEX
  8
LAYER_2
 10
-4.8748
 20
219.3361
 42
0.04046067269
  0
VERTEX
  8
LAYER_2
 10
-5.006
 20
218.8809
 42
0.03220856709
  0
VERTEX
  8
LAYER_2
 10
-5.0854
 20
218.2915
 42
0.01857685015
  0
VERTEX
  8
LAYER_2
 10
-5.1082
 20
217.6012
 42
0.03149278186
  0
VERTEX
  8
LAYER_2
 10
-5.0608
 20
216.6571
 42
0.0779698511
  0
VERTEX
  8
LAYER_2
 10
-4.7923
 20
215.6655
 42
0.07853580552
  0
VERTEX
  8
LAYER_2
 10
-4.3662
 20
215.0504
 42
0.1826502598
  0
VERTEX
  8
LAYER_2
 10
-2.668
 20
214.2613
 42
0.02311737764
  0
VERTEX
  8
LAYER_2
 10
-2.3408
 20
214.2463
 42
0.08564977323
  0
VERTEX
  8
LAYER_2
 10
-1.2772
 20
214.423
 42
0.1129150187
  0
VERTEX
  8
LAYER_2
 10
-0.303
 20
215.0504
 42
0.1497181056
  0
VERTEX
  8
LAYER_2
 10
0.3325
 20
216.2722
 42
0.03273812963
  0
VERTEX
  8
LAYER_2
 10
0.4143
 20
216.8609
 42
0.01955851524
  0
VERTEX
  8
LAYER_2
 10
0.4394
 20
217.6012
  0
SEQEND
  0
POLYLINE
  8
LAYER_2
 40
0.05
 41
0.05
 66
1
 10
0
 20
0
 30
0
  0
VERTEX
  8
LAYER_2
 10
-11.3166
 20
218.2044
  0
VERTEX
  8
LAYER_2
 10
-13.8074
 20
218.2044
 42
-0.1126267973
  0
VERTEX
  8
LAYER_2
 10
-13.6562
 20
218.9079
 42
-0.1394863081
  0
VERTEX
  8
LAYER_2
 10
-13.2507
 20
219.3934
 42
-0.1317584651
  0
VERTEX
  8
LAYER_2
 10
-12.676
 20
219.5824
 42
-0.01996454454
  0
VERTEX
  8
LAYER_2
 10
-12.562
 20
219.5866
 42
-0.137467943
  0
VERTEX
  8
LAYER_2
 10
-11.8991
 20
219.4101
 42
-0.150691583
  0
VERTEX
  8
LAYER_2
 10
-11.4672
 20
218.9079
 42
-0.1174358853
  0
VERTEX
  8
LAYER_2
 10
-11.3166
 20
218.2044
  0
SEQEND
  0
POLYLINE
  8
LAYER_2
 40
0.05
 41
0.05
 66
1
 10
0
 20
0
 30
0
 70
1
  0
VERTEX
  8
LAYER_2
 10
-9.7064
 20
217.0861
  0
VERTEX
  8
LAYER_2
 10
-9.7064
 20
217.7772
 42
0.07163312002
  0
VERTEX
  8
LAYER_2
 10
-9.8733
 20
218.9838
 42
0.08028385511
  0
VERTEX
  8
LAYER_2
 10
-10.299
 20
219.8659
 42
0.0865588964
  0
VERTEX
  8
LAYER_2
 10
-10.9136
 20
220.4722
 42
0.08455684744
  0
VERTEX
  8
LAYER_2
 10
-11.6929
 20
220.8316
 42
0.06903226706
  0
VERTEX
  8
LAYER_2
 10
-12.562
 20
220.9436
 42
0.08515866825
  0
VERTEX
  8
LAYER_2
 10
-13.5923
 20
220.7733
 42
0.2152076095
  0
VERTEX
  8
LAYER_2
 10
-15.1128
 20
219.2869
 42
0.07250212731
  0
VERTEX
  8
LAYER_2
 10
-15.3825
 20
218.223
 42
0.02934637219
  0
VERTEX
  8
LAYER_2
 10
-15.4177
 20
217.6012
 42
0.06683021014
  0
VERTEX
  8
LAYER_2
 10
-15.2459
 20
216.2162
 42
0.08312981404
  0
VERTEX
  8
LAYER_2
 10
-14.8229
 20
215.3116
 42
0.184288283
  0
VERTEX
  8
LAYER_2
 10
-13.3775
 20
214.3603
 42
0.06413161868
  0
VERTEX
  8
LAYER_2
 10
-12.386
 20
214.2463
 42
0.07683816196
  0
VERTEX
  8
LAYER_2
 10
-11.1942
 20
214.4123
 42
0.08470040866
  0
VERTEX
  8
LAYER_2
 10
-10.383
 20
214.8416
 42
0.03763897922
  0
VERTEX
  8
LAYER_2
 10
-9.8948
 20
215.2768
  0
VERTEX
  8
LAYER_2
 10
-10.8887
 20
216.2442
 42
-0.1072414833
  0
VERTEX
  8
LAYER_2
 10
-11.6397
 20
215.7366
 42
-0.09138316631
  0
VERTEX
  8
LAYER_2
 10
-12.3732
 20
215.6285
 42
-0.1206713536
  0
VERTEX
  8
LAYER_2
 10
-13.1336
 20
215.8026
 42
-0.1907051017
  0
VERTEX
  8
LAYER_2
 10
-13.7142
 20
216.4979
 42
-0.08636520349
  0
VERTEX
  8
LAYER_2
 10
-13.8074
 20
217.0861
  0
SEQEND
  0
POLYLINE
  8
LAYER_2
 40
0.05
 41
0.05
 66
1
 10
0
 20
0
 30
0
 70
1
  0
VERTEX
  8
LAYER_2
 10
-16.9018
 20
223.2773
  0
VERTEX
  8
LAYER_2
 10
-18.5517
 20
223.2773
  0
VERTEX
  8
LAYER_2
 10
-18.5517
 20
221.9454
  0
VERTEX
  8
LAYER_2
 10
-16.9018
 20
221.9454
  0
SEQEND
  0
POLYLINE
  8
LAYER_2
 40
0.05
 41
0.05
 66
1
 10
0
 20
0
 30
0
 70
1
  0
VERTEX
  8
LAYER_2
 10
-16.9146
 20
220.79
  0
VERTEX
  8
LAYER_2
 10
-18.5499
 20
220.79
  0
VERTEX
  8
LAYER_2
 10
-18.5499
 20
214.3218
  0
VERTEX
  8
LAYER_2
 10
-16.9146
 20
214.3218
  0
SEQEND
  0
POLYLINE
  8
LAYER_2
 40
0.05
 41
0.05
 66
1
 10
0
 20
0
 30
0
  0
VERTEX
  8
LAYER_2
 10
-19.8205
 20
215.1386
  0
VERTEX
  8
LAYER_2
 10
-20.9274
 20
216.2317
 42
-0.1240518821
  0
VERTEX
  8
LAYER_2
 10
-21.5761
 20
215.7751
 42
-0.08031715103
  0
VERTEX
  8
LAYER_2
 10
-21.984
 20
215.7164
 42
-0.1386946894
  0
VERTEX
  8
LAYER_2
 10
-22.625
 20
215.8856
 42
-0.08219094685
  0
VERTEX
  8
LAYER_2
 10
-22.9149
 20
216.1436
 42
-0.1253393202
  0
VERTEX
  8
LAYER_2
 10
-23.215
 20
216.8347
 42
-0.05211869655
  0
VERTEX
  8
LAYER_2
 10
-23.2797
 20
217.6012
 42
-0.0435450793
  0
VERTEX
  8
LAYER_2
 10
-23.2306
 20
218.2793
 42
-0.1072750387
  0
VERTEX
  8
LAYER_2
 10
-22.9604
 20
218.9857
 42
-0.01439054395
  0
VERTEX
  8
LAYER_2
 10
-22.9149
 20
219.0461
 42
-0.143087315
  0
VERTEX
  8
LAYER_2
 10
-22.387
 20
219.4143
 42
-0.07946465155
  0
VERTEX
  8
LAYER_2
 10
-21.984
 20
219.4732
 42
-0.1421084185
  0
VERTEX
  8
LAYER_2
 10
-21.3214
 20
219.2962
 42
-0.06975828358
  0
VERTEX
  8
LAYER_2
 10
-20.9274
 20
218.9585
  0
VERTEX
  8
LAYER_2
 10
-19.8205
 20
220.0637
 42
0.08882909472
  0
VERTEX
  8
LAYER_2
 10
-20.632
 20
220.6645
 42
0.08605806955
  0
VERTEX
  8
LAYER_2
 10
-21.5364
 20
220.9189
 42
0.02865290108
  0
VERTEX
  8
LAYER_2
 10
-21.984
 20
220.9436
 42
0.0806713287
  0
VERTEX
  8
LAYER_2
 10
-23.0569
 20
220.7735
 42
0.08357777431
  0
VERTEX
  8
LAYER_2
 10
-23.8317
 20
220.3573
 42
0.09024198391
  0
VERTEX
  8
LAYER_2
 10
-24.4186
 20
219.692
 42
0.07835989587
  0
VERTEX
  8
LAYER_2
 10
-24.7811
 20
218.801
 42
0.06322906838
  0
VERTEX
  8
LAYER_2
 10
-24.9151
 20
217.6012
 42
0.06782437491
  0
VERTEX
  8
LAYER_2
 10
-24.7438
 20
216.2613
 42
0.08255528881
  0
VERTEX
  8
LAYER_2
 10
-24.3104
 20
215.3428
 42
0.176800775
  0
VERTEX
  8
LAYER_2
 10
-22.8675
 20
214.3603
 42
0.06692285682
  0
VERTEX
  8
LAYER_2
 10
-21.984
 20
214.2463
 42
0.08462179993
  0
VERTEX
  8
LAYER_2
 10
-20.8976
 20
214.4204
 42
0.08609104881
  0
VERTEX
  8
LAYER_2
 10
-20.1139
 20
214.8669
 42
0.03054496576
  0
VERTEX
  8
LAYER_2
 10
-19.8205
 20
215.1386
  0
SEQEND
  0
ENDBLK
  0
BLOCK
  8
LAYER_2
  2
AIGNBL02020005
 70
64
 10
0
 20
0
 30
0
  3
AIGNBL02020005
  0
POLYLINE
  8
LAYER_2
 40
0.05
 41
0.05
 66
1
 10
0
 20
0
 30
0
 70
1
  0
VERTEX
  8
LAYER_2
 10
0.3288
 20
212.6805
  0
VERTEX
  8
LAYER_2
 10
0.0009
 20
212.6805
  0
VERTEX
  8
LAYER_2
 10
-0.2479
 20
211.9109
  0
VERTEX
  8
LAYER_2
 10
-0.5066
 20
212.6805
  0
VERTEX
  8
LAYER_2
 10
-0.8342
 20
212.6805
  0
VERTEX
  8
LAYER_2
 10
-0.4084
 20
211.5234
  0
VERTEX
  8
LAYER_2
 10
-0.4611
 20
211.3704
 42
-0.3961336399
  0
VERTEX
  8
LAYER_2
 10
-0.6165
 20
211.2581
  0
VERTEX
  8
LAYER_2
 10
-0.6882
 20
211.2581
  0
VERTEX
  8
LAYER_2
 10
-0.6882
 20
210.9783
  0
VERTEX
  8
LAYER_2
 10
-0.5662
 20
210.9783
 42
0.2034440672
  0
VERTEX
  8
LAYER_2
 10
-0.2985
 20
211.0741
 42
0.1004639661
  0
VERTEX
  8
LAYER_2
 10
-0.2048
 20
211.2343
  0
SEQEND
  0
POLYLINE
  8
LAYER_2
 40
0.05
 41
0.05
 66
1
 10
0
 20
0
 30
0
 70
1
  0
VERTEX
  8
LAYER_2
 10
-0.8704
 20
211.4352
  0
VERTEX
  8
LAYER_2
 10
-0.8704
 20
211.6977
  0
VERTEX
  8
LAYER_2
 10
-0.9899
 20
211.6977
 42
-0.4751531158
  0
VERTEX
  8
LAYER_2
 10
-1.0998
 20
211.8103
  0
VERTEX
  8
LAYER_2
 10
-1.0998
 20
213.137
  0
VERTEX
  8
LAYER_2
 10
-1.4109
 20
213.137
  0
VERTEX
  8
LAYER_2
 10
-1.4109
 20
211.7914
 42
0.2572712742
  0
VERTEX
  8
LAYER_2
 10
-1.2491
 20
211.4844
 42
0.1351549622
  0
VERTEX
  8
LAYER_2
 10
-1.0475
 20
211.4352
  0
SEQEND
  0
POLYLINE
  8
LAYER_2
 40
0.05
 41
0.05
 66
1
 10
0
 20
0
 30
0
 70
1
  0
VERTEX
  8
LAYER_2
 10
-1.9739
 20
211.894
 42
-0.2469446344
  0
VERTEX
  8
LAYER_2
 10
-2.0214
 20
211.7363
 42
-0.2123665607
  0
VERTEX
  8
LAYER_2
 10
-2.2057
 20
211.6763
 42
-0.2053009356
  0
VERTEX
  8
LAYER_2
 10
-2.3584
 20
211.723
 42
-0.206083917
  0
VERTEX
  8
LAYER_2
 10
-2.3949
 20
211.8175
 42
-0.4725867343
  0
VERTEX
  8
LAYER_2
 10
-2.2105
 20
211.9609
  0
VERTEX
  8
LAYER_2
 10
-1.9739
 20
211.9609
  0
SEQEND
  0
POLYLINE
  8
LAYER_2
 40
0.05
 41
0.05
 66
1
 10
0
 20
0
 30
0
 70
1
  0
VERTEX
  8
LAYER_2
 10
-1.6624
 20
211.4352
  0
VERTEX
  8
LAYER_2
 10
-1.6624
 20
212.2551
 42
0.2451162416
  0
VERTEX
  8
LAYER_2
 10
-1.8225
 20
212.6039
 42
0.1630344424
  0
VERTEX
  8
LAYER_2
 10
-2.194
 20
212.6947
 42
0.223003002
  0
VERTEX
  8
LAYER_2
 10
-2.6298
 20
212.5302
 42
0.006267388191
  0
VERTEX
  8
LAYER_2
 10
-2.6412
 20
212.5179
  0
VERTEX
  8
LAYER_2
 10
-2.4452
 20
212.3243
 42
-0.2474228759
  0
VERTEX
  8
LAYER_2
 10
-2.2057
 20
212.4322
 42
-0.1875116517
  0
VERTEX
  8
LAYER_2
 10
-2.0297
 20
212.3865
 42
-0.2385471677
  0
VERTEX
  8
LAYER_2
 10
-1.9739
 20
212.2358
  0
VERTEX
  8
LAYER_2
 10
-1.9739
 20
212.1738
  0
VERTEX
  8
LAYER_2
 10
-2.2633
 20
212.1738
 42
0.2343493414
  0
VERTEX
  8
LAYER_2
 10
-2.6354
 20
212.0142
 42
0.1534284984
  0
VERTEX
  8
LAYER_2
 10
-2.6942
 20
211.8127
 42
0.1895201048
  0
VERTEX
  8
LAYER_2
 10
-2.5912
 20
211.533
 42
0.2074502918
  0
VERTEX
  8
LAYER_2
 10
-2.2729
 20
211.4228
 42
0.2214267061
  0
VERTEX
  8
LAYER_2
 10
-1.9663
 20
211.5426
  0
VERTEX
  8
LAYER_2
 10
-1.9663
 20
211.4352
  0
SEQEND
  0
POLYLINE
  8
LAYER_2
 40
0.05
 41
0.05
 66
1
 10
0
 20
0
 30
0
 70
1
  0
VERTEX
  8
LAYER_2
 10
-2.8758
 20
211.4352
  0
VERTEX
  8
LAYER_2
 10
-2.8758
 20
211.6977
  0
VERTEX
  8
LAYER_2
 10
-2.9884
 20
211.6977
 42
-0.4616084329
  0
VERTEX
  8
LAYER_2
 10
-3.0963
 20
211.8103
  0
VERTEX
  8
LAYER_2
 10
-3.0963
 20
212.4081
  0
VERTEX
  8
LAYER_2
 10
-2.8758
 20
212.4081
  0
VERTEX
  8
LAYER_2
 10
-2.8758
 20
212.6444
  0
VERTEX
  8
LAYER_2
 10
-3.0963
 20
212.6444
  0
VERTEX
  8
LAYER_2
 10
-3.0963
 20
213.0126
  0
VERTEX
  8
LAYER_2
 10
-3.407
 20
213.0126
  0
VERTEX
  8
LAYER_2
 10
-3.407
 20
212.6444
  0
VERTEX
  8
LAYER_2
 10
-3.539
 20
212.6444
  0
VERTEX
  8
LAYER_2
 10
-3.539
 20
212.4081
  0
VERTEX
  8
LAYER_2
 10
-3.407
 20
212.4081
  0
VERTEX
  8
LAYER_2
 10
-3.407
 20
211.7914
 42
0.2563568817
  0
VERTEX
  8
LAYER_2
 10
-3.2458
 20
211.4844
 42
0.1357760723
  0
VERTEX
  8
LAYER_2
 10
-3.0456
 20
211.4352
  0
SEQEND
  0
POLYLINE
  8
LAYER_2
 40
0.05
 41
0.05
 66
1
 10
0
 20
0
 30
0
 70
1
  0
VERTEX
  8
LAYER_2
 10
-3.8091
 20
213.137
  0
VERTEX
  8
LAYER_2
 10
-4.1419
 20
213.137
  0
VERTEX
  8
LAYER_2
 10
-4.1419
 20
211.4352
  0
VERTEX
  8
LAYER_2
 10
-3.8091
 20
211.4352
  0
SEQEND
  0
POLYLINE
  8
LAYER_2
 40
0.05
 41
0.05
 66
1
 10
0
 20
0
 30
0
 70
1
  0
VERTEX
  8
LAYER_2
 10
-5.0562
 20
211.4352
  0
VERTEX
  8
LAYER_2
 10
-5.0562
 20
212.231
 42
0.2072987281
  0
VERTEX
  8
LAYER_2
 10
-5.183
 20
212.5844
 42
0.2031043538
  0
VERTEX
  8
LAYER_2
 10
-5.4775
 20
212.6947
 42
0.201378382
  0
VERTEX
  8
LAYER_2
 10
-5.7886
 20
212.5658
  0
VERTEX
  8
LAYER_2
 10
-5.7886
 20
212.6805
  0
VERTEX
  8
LAYER_2
 10
-6.0925
 20
212.6805
  0
VERTEX
  8
LAYER_2
 10
-6.0925
 20
211.4352
  0
VERTEX
  8
LAYER_2
 10
-5.7814
 20
211.4352
  0
VERTEX
  8
LAYER_2
 10
-5.7814
 20
212.1882
 42
-0.4179312156
  0
VERTEX
  8
LAYER_2
 10
-5.573
 20
212.4149
 42
-0.4343639015
  0
VERTEX
  8
LAYER_2
 10
-5.3673
 20
212.1882
  0
VERTEX
  8
LAYER_2
 10
-5.3673
 20
211.4352
  0
SEQEND
  0
POLYLINE
  8
LAYER_2
 40
0.05
 41
0.05
 66
1
 10
0
 20
0
 30
0
 70
1
  0
VERTEX
  8
LAYER_2
 10
-6.437
 20
213.1467
  0
VERTEX
  8
LAYER_2
 10
-6.7553
 20
213.1467
  0
VERTEX
  8
LAYER_2
 10
-6.7553
 20
212.8931
  0
VERTEX
  8
LAYER_2
 10
-6.437
 20
212.8931
  0
SEQEND
  0
POLYLINE
  8
LAYER_2
 40
0.05
 41
0.05
 66
1
 10
0
 20
0
 30
0
 70
1
  0
VERTEX
  8
LAYER_2
 10
-6.4394
 20
212.6444
  0
VERTEX
  8
LAYER_2
 10
-6.7508
 20
212.6444
  0
VERTEX
  8
LAYER_2
 10
-6.7508
 20
211.4352
  0
VERTEX
  8
LAYER_2
 10
-6.4394
 20
211.4352
  0
SEQEND
  0
POLYLINE
  8
LAYER_2
 40
0.05
 41
0.05
 66
1
 10
0
 20
0
 30
0
  0
VERTEX
  8
LAYER_2
 10
-7.8994
 20
212.1738
  0
VERTEX
  8
LAYER_2
 10
-8.3735
 20
212.1738
 42
-0.1150247832
  0
VERTEX
  8
LAYER_2
 10
-8.3445
 20
212.3074
 42
-0.3021002553
  0
VERTEX
  8
LAYER_2
 10
-8.1365
 20
212.4363
 42
-0.2972451875
  0
VERTEX
  8
LAYER_2
 10
-7.9284
 20
212.3074
 42
-0.09898717384
  0
VERTEX
  8
LAYER_2
 10
-7.8994
 20
212.1738
  0
SEQEND
  0
POLYLINE
  8
LAYER_2
 40
0.05
 41
0.05
 66
1
 10
0
 20
0
 30
0
 70
1
  0
VERTEX
  8
LAYER_2
 10
-7.5932
 20
211.9609
  0
VERTEX
  8
LAYER_2
 10
-7.5932
 20
212.0925
 42
0.1892091988
  0
VERTEX
  8
LAYER_2
 10
-7.7571
 20
212.5503
 42
0.2074689034
  0
VERTEX
  8
LAYER_2
 10
-8.1365
 20
212.6947
 42
0.212635805
  0
VERTEX
  8
LAYER_2
 10
-8.5293
 20
212.5292
 42
0.1815550622
  0
VERTEX
  8
LAYER_2
 10
-8.6787
 20
212.1059
 42
0.01190200981
  0
VERTEX
  8
LAYER_2
 10
-8.6797
 20
212.0591
 42
0.1802893809
  0
VERTEX
  8
LAYER_2
 10
-8.5263
 20
211.5744
 42
0.2020162133
  0
VERTEX
  8
LAYER_2
 10
-8.158
 20
211.4223
 42
0.01695408336
  0
VERTEX
  8
LAYER_2
 10
-8.103
 20
211.4207
 42
0.2069028033
  0
VERTEX
  8
LAYER_2
 10
-7.6557
 20
211.5904
 42
0.01111068861
  0
VERTEX
  8
LAYER_2
 10
-7.629
 20
211.6167
  0
VERTEX
  8
LAYER_2
 10
-7.8181
 20
211.801
 42
-0.224324849
  0
VERTEX
  8
LAYER_2
 10
-8.1003
 20
211.6839
 42
-0.4264622019
  0
VERTEX
  8
LAYER_2
 10
-8.3735
 20
211.9609
  0
SEQEND
  0
POLYLINE
  8
LAYER_2
 40
0.05
 41
0.05
 66
1
 10
0
 20
0
 30
0
  0
VERTEX
  8
LAYER_2
 10
-9.2778
 20
212.0591
 42
-0.1438386142
  0
VERTEX
  8
LAYER_2
 10
-9.3235
 20
211.7869
 42
-0.2886460427
  0
VERTEX
  8
LAYER_2
 10
-9.4911
 20
211.7004
 42
-0.3841580528
  0
VERTEX
  8
LAYER_2
 10
-9.6851
 20
211.8609
 42
-0.05455021257
  0
VERTEX
  8
LAYER_2
 10
-9.7016
 20
212.0591
 42
-0.1483049254
  0
VERTEX
  8
LAYER_2
 10
-9.6559
 20
212.3323
 42
-0.2855556046
  0
VERTEX
  8
LAYER_2
 10
-9.4911
 20
212.4149
 42
-0.3794480357
  0
VERTEX
  8
LAYER_2
 10
-9.2951
 20
212.2564
 42
-0.05697683845
  0
VERTEX
  8
LAYER_2
 10
-9.2778
 20
212.0591
  0
SEQEND
  0
POLYLINE
  8
LAYER_2
 40
0.05
 41
0.05
 66
1
 10
0
 20
0
 30
0
 70
1
  0
VERTEX
  8
LAYER_2
 10
-8.9667
 20
211.4352
  0
VERTEX
  8
LAYER_2
 10
-8.9667
 20
213.137
  0
VERTEX
  8
LAYER_2
 10
-9.2778
 20
213.137
  0
VERTEX
  8
LAYER_2
 10
-9.2778
 20
212.5707
 42
0.2297998422
  0
VERTEX
  8
LAYER_2
 10
-9.582
 20
212.6947
 42
0.1954770263
  0
VERTEX
  8
LAYER_2
 10
-9.8835
 20
212.5824
 42
0.1230294745
  0
VERTEX
  8
LAYER_2
 10
-9.9795
 20
212.4101
 42
0.0747779445
  0
VERTEX
  8
LAYER_2
 10
-10.013
 20
212.0591
 42
0.0994726102
  0
VERTEX
  8
LAYER_2
 10
-9.9681
 20
211.6704
 42
0.1089535567
  0
VERTEX
  8
LAYER_2
 10
-9.8835
 20
211.533
 42
0.2047870903
  0
VERTEX
  8
LAYER_2
 10
-9.5796
 20
211.4207
 42
0.2301632332
  0
VERTEX
  8
LAYER_2
 10
-9.2709
 20
211.5523
  0
VERTEX
  8
LAYER_2
 10
-9.2709
 20
211.4352
  0
SEQEND
  0
POLYLINE
  8
LAYER_2
 40
0.05
 41
0.05
 66
1
 10
0
 20
0
 30
0
 70
1
  0
VERTEX
  8
LAYER_2
 10
-10.6062
 20
211.894
 42
-0.2466163696
  0
VERTEX
  8
LAYER_2
 10
-10.6541
 20
211.7363
 42
-0.212724989
  0
VERTEX
  8
LAYER_2
 10
-10.8384
 20
211.6763
 42
-0.2058776096
  0
VERTEX
  8
LAYER_2
 10
-10.9909
 20
211.723
 42
-0.205582218
  0
VERTEX
  8
LAYER_2
 10
-11.0272
 20
211.8175
 42
-0.4728058788
  0
VERTEX
  8
LAYER_2
 10
-10.8433
 20
211.9609
  0
VERTEX
  8
LAYER_2
 10
-10.6062
 20
211.9609
  0
SEQEND
  0
POLYLINE
  8
LAYER_2
 40
0.05
 41
0.05
 66
1
 10
0
 20
0
 30
0
 70
1
  0
VERTEX
  8
LAYER_2
 10
-10.2951
 20
211.4352
  0
VERTEX
  8
LAYER_2
 10
-10.2951
 20
212.2551
 42
0.2450199827
  0
VERTEX
  8
LAYER_2
 10
-10.455
 20
212.6039
 42
0.1631220144
  0
VERTEX
  8
LAYER_2
 10
-10.8267
 20
212.6947
 42
0.223003002
  0
VERTEX
  8
LAYER_2
 10
-11.2625
 20
212.5302
 42
0.006267388191
  0
VERTEX
  8
LAYER_2
 10
-11.2739
 20
212.5179
  0
VERTEX
  8
LAYER_2
 10
-11.0779
 20
212.3243
 42
-0.2470834876
  0
VERTEX
  8
LAYER_2
 10
-10.8384
 20
212.4322
 42
-0.1872740545
  0
VERTEX
  8
LAYER_2
 10
-10.6621
 20
212.3865
 42
-0.238797369
  0
VERTEX
  8
LAYER_2
 10
-10.6062
 20
212.2358
  0
VERTEX
  8
LAYER_2
 10
-10.6062
 20
212.1738
  0
VERTEX
  8
LAYER_2
 10
-10.896
 20
212.1738
 42
0.2346153399
  0
VERTEX
  8
LAYER_2
 10
-11.268
 20
212.0142
 42
0.1531846975
  0
VERTEX
  8
LAYER_2
 10
-11.3266
 20
211.8127
 42
0.1894880782
  0
VERTEX
  8
LAYER_2
 10
-11.2239
 20
211.533
 42
0.2078362131
  0
VERTEX
  8
LAYER_2
 10
-10.9053
 20
211.4228
 42
0.2218282602
  0
VERTEX
  8
LAYER_2
 10
-10.599
 20
211.5426
  0
VERTEX
  8
LAYER_2
 10
-10.599
 20
211.4352
  0
SEQEND
  0
POLYLINE
  8
LAYER_2
 40
0.05
 41
0.05
 66
1
 10
0
 20
0
 30
0
 70
1
  0
VERTEX
  8
LAYER_2
 10
-11.5733
 20
211.4352
  0
VERTEX
  8
LAYER_2
 10
-11.5733
 20
212.231
 42
0.205542241
  0
VERTEX
  8
LAYER_2
 10
-11.7097
 20
212.5844
 42
0.1987814349
  0
VERTEX
  8
LAYER_2
 10
-12.016
 20
212.6947
 42
0.2182066523
  0
VERTEX
  8
LAYER_2
 10
-12.3894
 20
212.5369
 42
0.2492914965
  0
VERTEX
  8
LAYER_2
 10
-12.7198
 20
212.6947
 42
0.1963594215
  0
VERTEX
  8
LAYER_2
 10
-13.0309
 20
212.5658
  0
VERTEX
  8
LAYER_2
 10
-13.0309
 20
212.6805
  0
VERTEX
  8
LAYER_2
 10
-13.3348
 20
212.6805
  0
VERTEX
  8
LAYER_2
 10
-13.3348
 20
211.4352
  0
VERTEX
  8
LAYER_2
 10
-13.0233
 20
211.4352
  0
VERTEX
  8
LAYER_2
 10
-13.0233
 20
212.1882
 42
-0.4178253314
  0
VERTEX
  8
LAYER_2
 10
-12.8153
 20
212.4149
 42
-0.4343639015
  0
VERTEX
  8
LAYER_2
 10
-12.6096
 20
212.1882
  0
VERTEX
  8
LAYER_2
 10
-12.6096
 20
211.4352
  0
VERTEX
  8
LAYER_2
 10
-12.2985
 20
211.4352
  0
VERTEX
  8
LAYER_2
 10
-12.2985
 20
212.1951
 42
-0.4176164983
  0
VERTEX
  8
LAYER_2
 10
-12.0904
 20
212.4149
 42
-0.434797635
  0
VERTEX
  8
LAYER_2
 10
-11.8844
 20
212.1882
  0
VERTEX
  8
LAYER_2
 10
-11.8844
 20
211.4352
  0
SEQEND
  0
POLYLINE
  8
LAYER_2
 40
0.05
 41
0.05
 66
1
 10
0
 20
0
 30
0
  0
VERTEX
  8
LAYER_2
 10
-13.8973
 20
212.0229
 42
-0.1159462989
  0
VERTEX
  8
LAYER_2
 10
-13.9445
 20
211.7201
 42
-0.3129536504
  0
VERTEX
  8
LAYER_2
 10
-14.1915
 20
211.5736
 42
-0.314965659
  0
VERTEX
  8
LAYER_2
 10
-14.446
 20
211.7323
 42
-0.1053090454
  0
VERTEX
  8
LAYER_2
 10
-14.4882
 20
212.0229
 42
-0.113954245
  0
VERTEX
  8
LAYER_2
 10
-14.4424
 20
212.3219
 42
-0.3163619605
  0
VERTEX
  8
LAYER_2
 10
-14.1915
 20
212.4725
 42
-0.3164516036
  0
VERTEX
  8
LAYER_2
 10
-13.9392
 20
212.3138
 42
-0.103439187
  0
VERTEX
  8
LAYER_2
 10
-13.8973
 20
212.0229
  0
SEQEND
  0
POLYLINE
  8
LAYER_2
 40
0.05
 41
0.05
 66
1
 10
0
 20
0
 30
0
 70
1
  0
VERTEX
  8
LAYER_2
 10
-13.7247
 20
211.4352
  0
VERTEX
  8
LAYER_2
 10
-13.7247
 20
213.137
  0
VERTEX
  8
LAYER_2
 10
-13.8973
 20
213.137
  0
VERTEX
  8
LAYER_2
 10
-13.8973
 20
212.4749
 42
0.2525818121
  0
VERTEX
  8
LAYER_2
 10
-14.2298
 20
212.6258
 42
0.1886393528
  0
VERTEX
  8
LAYER_2
 10
-14.5171
 20
212.5224
 42
0.1172978386
  0
VERTEX
  8
LAYER_2
 10
-14.6205
 20
212.3434
 42
0.07876818405
  0
VERTEX
  8
LAYER_2
 10
-14.6608
 20
212.0229
 42
0.09207329595
  0
VERTEX
  8
LAYER_2
 10
-14.6127
 20
211.6805
 42
0.1077667615
  0
VERTEX
  8
LAYER_2
 10
-14.5171
 20
211.5234
 42
0.198210181
  0
VERTEX
  8
LAYER_2
 10
-14.2298
 20
211.4207
 42
0.2515984765
  0
VERTEX
  8
LAYER_2
 10
-13.8949
 20
211.5761
  0
VERTEX
  8
LAYER_2
 10
-13.8949
 20
211.4352
  0
SEQEND
  0
POLYLINE
  8
LAYER_2
 40
0.05
 41
0.05
 66
1
 10
0
 20
0
 30
0
 70
1
  0
VERTEX
  8
LAYER_2
 10
-15.0173
 20
211.4352
  0
VERTEX
  8
LAYER_2
 10
-15.0173
 20
212.1882
 42
0.2025955741
  0
VERTEX
  8
LAYER_2
 10
-15.1393
 20
212.5156
 42
0.2044555257
  0
VERTEX
  8
LAYER_2
 10
-15.4411
 20
212.6258
 42
0.2165707378
  0
VERTEX
  8
LAYER_2
 10
-15.7711
 20
212.4818
  0
VERTEX
  8
LAYER_2
 10
-15.7711
 20
212.6113
  0
VERTEX
  8
LAYER_2
 10
-15.9434
 20
212.6113
  0
VERTEX
  8
LAYER_2
 10
-15.9434
 20
211.4352
  0
VERTEX
  8
LAYER_2
 10
-15.7711
 20
211.4352
  0
VERTEX
  8
LAYER_2
 10
-15.7711
 20
212.1593
 42
-0.2837547598
  0
VERTEX
  8
LAYER_2
 10
-15.6189
 20
212.4442
 42
-0.1086336204
  0
VERTEX
  8
LAYER_2
 10
-15.479
 20
212.4725
 42
-0.442304779
  0
VERTEX
  8
LAYER_2
 10
-15.1896
 20
212.1593
  0
VERTEX
  8
LAYER_2
 10
-15.1896
 20
211.4352
  0
SEQEND
  0
POLYLINE
  8
LAYER_2
 40
0.05
 41
0.05
 66
1
 10
0
 20
0
 30
0
 70
1
  0
VERTEX
  8
LAYER_2
 10
-16.5346
 20
211.8506
 42
-0.2101171453
  0
VERTEX
  8
LAYER_2
 10
-16.5945
 20
211.6477
 42
-0.2061049303
  0
VERTEX
  8
LAYER_2
 10
-16.8553
 20
211.5688
 42
-0.162375608
  0
VERTEX
  8
LAYER_2
 10
-17.0584
 20
211.6151
 42
-0.2625865829
  0
VERTEX
  8
LAYER_2
 10
-17.1281
 20
211.77
 42
-0.3766203625
  0
VERTEX
  8
LAYER_2
 10
-16.9692
 20
211.9668
 42
-0.05119198821
  0
VERTEX
  8
LAYER_2
 10
-16.8625
 20
211.9774
  0
VERTEX
  8
LAYER_2
 10
-16.5346
 20
211.9774
  0
SEQEND
  0
POLYLINE
  8
LAYER_2
 40
0.05
 41
0.05
 66
1
 10
0
 20
0
 30
0
 70
1
  0
VERTEX
  8
LAYER_2
 10
-16.362
 20
211.4352
  0
VERTEX
  8
LAYER_2
 10
-16.362
 20
212.233
 42
0.2623610217
  0
VERTEX
  8
LAYER_2
 10
-16.5224
 20
212.5561
 42
0.1450933816
  0
VERTEX
  8
LAYER_2
 10
-16.8336
 20
212.6258
 42
0.2362276322
  0
VERTEX
  8
LAYER_2
 10
-17.2355
 20
212.4672
 42
0.01170794038
  0
VERTEX
  8
LAYER_2
 10
-17.2501
 20
212.4487
  0
VERTEX
  8
LAYER_2
 10
-17.133
 20
212.3409
 42
-0.2755800686
  0
VERTEX
  8
LAYER_2
 10
-16.8364
 20
212.4776
 42
-0.1517468402
  0
VERTEX
  8
LAYER_2
 10
-16.6283
 20
212.4308
 42
-0.2800643637
  0
VERTEX
  8
LAYER_2
 10
-16.5346
 20
212.2193
  0
VERTEX
  8
LAYER_2
 10
-16.5346
 20
212.1066
  0
VERTEX
  8
LAYER_2
 10
-16.8863
 20
212.1066
 42
0.2378691362
  0
VERTEX
  8
LAYER_2
 10
-17.2451
 20
211.9523
 42
0.1477379502
  0
VERTEX
  8
LAYER_2
 10
-17.2956
 20
211.7673
 42
0.1983884986
  0
VERTEX
  8
LAYER_2
 10
-17.2071
 20
211.5282
 42
0.2222408302
  0
VERTEX
  8
LAYER_2
 10
-16.8742
 20
211.4207
 42
0.21971579
  0
VERTEX
  8
LAYER_2
 10
-16.5346
 20
211.5471
  0
VERTEX
  8
LAYER_2
 10
-16.5346
 20
211.4352
  0
SEQEND
  0
POLYLINE
  8
LAYER_2
 40
0.05
 41
0.05
 66
1
 10
0
 20
0
 30
0
 70
1
  0
VERTEX
  8
LAYER_2
 10
-17.6211
 20
211.4352
  0
VERTEX
  8
LAYER_2
 10
-17.6211
 20
212.1903
 42
0.2366048602
  0
VERTEX
  8
LAYER_2
 10
-17.7848
 20
212.5524
 42
0.1585996094
  0
VERTEX
  8
LAYER_2
 10
-18.0449
 20
212.6258
 42
0.2174282511
  0
VERTEX
  8
LAYER_2
 10
-18.3749
 20
212.4818
  0
VERTEX
  8
LAYER_2
 10
-18.3749
 20
213.137
  0
VERTEX
  8
LAYER_2
 10
-18.5475
 20
213.137
  0
VERTEX
  8
LAYER_2
 10
-18.5475
 20
211.4352
  0
VERTEX
  8
LAYER_2
 10
-18.3749
 20
211.4352
  0
VERTEX
  8
LAYER_2
 10
-18.3749
 20
212.1617
 42
-0.2889308341
  0
VERTEX
  8
LAYER_2
 10
-18.2221
 20
212.4453
 42
-0.1047577161
  0
VERTEX
  8
LAYER_2
 10
-18.0807
 20
212.4725
 42
-0.4463558923
  0
VERTEX
  8
LAYER_2
 10
-17.7934
 20
212.1617
  0
VERTEX
  8
LAYER_2
 10
-17.7934
 20
211.4352
  0
SEQEND
  0
ENDBLK
  0
BLOCK
  8
LAYER_2
  2
AIGNBL02020007
 70
64
 10
0
 20
0
 30
0
  3
AIGNBL02020007
  0
INSERT
  8
LAYER_2
  2
AIGNBL02030008
 10
0
 20
0
 30
0
  0
ENDBLK
  0
BLOCK
  8
LAYER_2
  2
AIGNBL02020010
 70
64
 10
0
 20
0
 30
0
  3
AIGNBL02020010
  0
INSERT
  8
LAYER_2
  2
AIGNBL02030011
 10
0
 20
0
 30
0
  0
INSERT
  8
LAYER_2
  2
AIGNBL02030012
 10
0
 20
0
 30
0
  0
INSERT
  8
LAYER_2
  2
AIGNBL02030013
 10
0
 20
0
 30
0
  0
INSERT
  8
LAYER_2
  2
AIGNBL02030014
 10
0
 20
0
 30
0
  0
INSERT
  8
LAYER_2
  2
AIGNBL02030015
 10
0
 20
0
 30
0
  0
INSERT
  8
LAYER_2
  2
AIGNBL02030016
 10
0
 20
0
 30
0
  0
INSERT
  8
LAYER_2
  2
AIGNBL02030017
 10
0
 20
0
 30
0
  0
INSERT
  8
LAYER_2
  2
AIGNBL02030018
 10
0
 20
0
 30
0
  0
INSERT
  8
LAYER_2
  2
AIGNBL02030019
 10
0
 20
0
 30
0
  0
INSERT
  8
LAYER_2
  2
AIGNBL0203001A
 10
0
 20
0
 30
0
  0
INSERT
  8
LAYER_2
  2
AIGNBL0203001B
 10
0
 20
0
 30
0
  0
INSERT
  8
LAYER_2
  2
AIGNBL0203001C
 10
0
 20
0
 30
0
  0
INSERT
  8
LAYER_2
  2
AIGNBL0203001D
 10
0
 20
0
 30
0
  0
INSERT
  8
LAYER_2
  2
AIGNBL0203001E
 10
0
 20
0
 30
0
  0
INSERT
  8
LAYER_2
  2
AIGNBL0203001F
 10
0
 20
0
 30
0
  0
INSERT
  8
LAYER_2
  2
AIGNBL02030020
 10
0
 20
0
 30
0
  0
INSERT
  8
LAYER_2
  2
AIGNBL02030021
 10
0
 20
0
 30
0
  0
INSERT
  8
LAYER_2
  2
AIGNBL02030022
 10
0
 20
0
 30
0
  0
INSERT
  8
LAYER_2
  2
AIGNBL02030023
 10
0
 20
0
 30
0
  0
INSERT
  8
LAYER_2
  2
AIGNBL02030024
 10
0
 20
0
 30
0
  0
INSERT
  8
LAYER_2
  2
AIGNBL02030025
 10
0
 20
0
 30
0
  0
INSERT
  8
LAYER_2
  2
AIGNBL02030026
 10
0
 20
0
 30
0
  0
INSERT
  8
LAYER_2
  2
AIGNBL02030027
 10
0
 20
0
 30
0
  0
ENDBLK
  0
BLOCK
  8
LAYER_1
  2
AIGNBL01010002
 70
64
 10
0
 20
0
 30
0
  3
AIGNBL01010002
  0
POLYLINE
  8
LAYER_1
 40
0.1058
 41
0.1058
 66
1
 10
0
 20
0
 30
0
  0
VERTEX
  8
LAYER_1
 10
54.9117
 20
154.6657
  0
VERTEX
  8
LAYER_1
 10
53.9123
 20
154.6657
  0
SEQEND
  0
POLYLINE
  8
LAYER_1
 40
0.1058
 41
0.1058
 66
1
 10
0
 20
0
 30
0
  0
VERTEX
  8
LAYER_1
 10
53.9116
 20
154.6657
  0
VERTEX
  8
LAYER_1
 10
52.3227
 20
156.1233
  0
SEQEND
  0
POLYLINE
  8
LAYER_1
 40
0.05
 41
0.05
 66
1
 10
0
 20
0
 30
0
  0
VERTEX
  8
LAYER_1
 10
52.4354
 20
156.2463
  0
VERTEX
  8
LAYER_1
 10
52.2101
 20
156.0003
  0
VERTEX
  8
LAYER_1
 10
51.5862
 20
156.7992
  0
SEQEND
  0
ENDBLK
  0
BLOCK
  8
LAYER_1
  2
AIGNBL01010003
 70
64
 10
0
 20
0
 30
0
  3
AIGNBL01010003
  0
CIRCLE
  8
LAYER_1
  6
AIGENLINE001
 10
35.2378
 20
91.6816
 40
1.1841
  0
POLYLINE
  8
LAYER_1
  6
AIGENLINE001
 40
0.1129
 41
0.1129
 66
1
 10
0
 20
0
 30
0
 70
128
  0
VERTEX
  8
LAYER_1
 10
51.5018
 20
85.5038
  0
VERTEX
  8
LAYER_1
 10
51.4322
 20
85.3977
  0
VERTEX
  8
LAYER_1
 10
51.4084
 20
85.2785
  0
SEQEND
  0
POLYLINE
  8
LAYER_1
  6
AIGENLINE001
 40
0.1129
 41
0.1129
 66
1
 10
0
 20
0
 30
0
 70
128
  0
VERTEX
  8
LAYER_1
 10
46.9122
 20
85.4091
  0
VERTEX
  8
LAYER_1
 10
49.1601
 20
85.4091
  0
SEQEND
  0
ENDBLK
  0
BLOCK
  8
LAYER_1
  2
AIGNBL01010004
 70
64
 10
0
 20
0
 30
0
  3
AIGNBL01010004
  0
POLYLINE
  8
LAYER_1
  6
AIGENLINE001
 40
0.1129
 41
0.1129
 66
1
 10
0
 20
0
 30
0
 70
128
  0
VERTEX
  8
LAYER_1
 10
169.9934
 20
98.5328
  0
VERTEX
  8
LAYER_1
 10
169.8408
 20
98.5097
  0
VERTEX
  8
LAYER_1
 10
169.7009
 20
98.4381
  0
VERTEX
  8
LAYER_1
 10
169.5845
 20
98.3206
  0
VERTEX
  8
LAYER_1
 10
169.5149
 20
98.1787
  0
VERTEX
  8
LAYER_1
 10
169.4911
 20
98.0243
  0
VERTEX
  8
LAYER_1
 10
169.4911
 20
87.1823
  0
VERTEX
  8
LAYER_1
 10
169.4329
 20
86.9935
 42
-0.1530524239
  0
VERTEX
  8
LAYER_1
 10
169.0474
 20
86.5216
 42
-0.08154065668
  0
VERTEX
  8
LAYER_1
 10
168.6991
 20
86.3778
  0
VERTEX
  8
LAYER_1
 10
168.501
 20
86.3548
  0
VERTEX
  8
LAYER_1
 10
163.8729
 20
86.3548
  0
VERTEX
  8
LAYER_1
 10
163.5156
 20
86.3548
  0
VERTEX
  8
LAYER_1
 10
159.9861
 20
86.3548
  0
VERTEX
  8
LAYER_1
 10
156.3632
 20
86.3548
  0
VERTEX
  8
LAYER_1
 10
156.2509
 20
86.3548
  0
VERTEX
  8
LAYER_1
 10
144.0081
 20
86.3548
  0
VERTEX
  8
LAYER_1
 10
143.6305
 20
86.3548
  0
VERTEX
  8
LAYER_1
 10
143.4445
 20
86.3778
  0
VERTEX
  8
LAYER_1
 10
143.2588
 20
86.4264
  0
VERTEX
  8
LAYER_1
 10
143.0945
 20
86.5211
  0
VERTEX
  8
LAYER_1
 10
142.9435
 20
86.639
  0
VERTEX
  8
LAYER_1
 10
142.8157
 20
86.7802
  0
VERTEX
  8
LAYER_1
 10
142.7217
 20
86.9453
  0
VERTEX
  8
LAYER_1
 10
138.1204
 20
98.2365
  0
VERTEX
  8
LAYER_1
 10
138.0508
 20
98.3544
  0
VERTEX
  8
LAYER_1
 10
137.9344
 20
98.4498
  0
VERTEX
  8
LAYER_1
 10
137.8055
 20
98.5097
  0
VERTEX
  8
LAYER_1
 10
137.666
 20
98.5328
  0
SEQEND
  0
POLYLINE
  8
LAYER_1
  6
AIGENLINE001
 40
0.1129
 41
0.1129
 66
1
 10
0
 20
0
 30
0
 70
128
  0
VERTEX
  8
LAYER_1
 10
157.785
 20
85.4091
  0
VERTEX
  8
LAYER_1
 10
159.2509
 20
85.4091
  0
VERTEX
  8
LAYER_1
 10
162.2936
 20
85.4091
  0
SEQEND
  0
POLYLINE
  8
LAYER_1
  6
AIGENLINE001
 40
0.1129
 41
0.1129
 66
1
 10
0
 20
0
 30
0
 70
128
  0
VERTEX
  8
LAYER_1
 10
156.8762
 20
86.2721
  0
VERTEX
  8
LAYER_1
 10
157.6448
 20
85.5038
  0
VERTEX
  8
LAYER_1
 10
157.7151
 20
85.3977
  0
VERTEX
  8
LAYER_1
 10
157.7371
 20
85.2785
  0
VERTEX
  8
LAYER_1
 10
157.7371
 20
83.3052
  0
SEQEND
  0
POLYLINE
  8
LAYER_1
  6
AIGENLINE001
 40
0.1129
 41
0.1129
 66
1
 10
0
 20
0
 30
0
 70
128
  0
VERTEX
  8
LAYER_1
 10
163.1084
 20
86.2721
  0
VERTEX
  8
LAYER_1
 10
162.3394
 20
85.5038
  0
VERTEX
  8
LAYER_1
 10
162.2692
 20
85.3977
  0
VERTEX
  8
LAYER_1
 10
162.2468
 20
85.2785
  0
VERTEX
  8
LAYER_1
 10
162.2468
 20
83.3052
  0
SEQEND
  0
ENDBLK
  0
BLOCK
  8
LAYER_1
  2
AIGNBL01010005
 70
64
 10
0
 20
0
 30
0
  3
AIGNBL01010005
  0
POLYLINE
  8
LAYER_1
 40
0.05
 41
0.05
 66
1
 10
0
 20
0
 30
0
  0
VERTEX
  8
LAYER_1
 10
151.9883
 20
157.0736
 42
-0.07964786563
  0
VERTEX
  8
LAYER_1
 10
151.2669
 20
157.1894
  0
VERTEX
  8
LAYER_1
 10
151.2107
 20
157.301
  0
VERTEX
  8
LAYER_1
 10
151.3224
 20
157.3565
 42
0.07959281034
  0
VERTEX
  8
LAYER_1
 10
151.9883
 20
157.2493
  0
VERTEX
  8
LAYER_1
 10
152.0765
 20
157.1615
  0
VERTEX
  8
LAYER_1
 10
151.9883
 20
157.0736
  0
SEQEND
  0
POLYLINE
  8
LAYER_1
 40
0.05
 41
0.05
 66
1
 10
0
 20
0
 30
0
  0
VERTEX
  8
LAYER_1
 10
153.324
 20
157.5008
 42
-0.07951302762
  0
VERTEX
  8
LAYER_1
 10
152.6697
 20
157.1759
  0
VERTEX
  8
LAYER_1
 10
152.5592
 20
157.2349
  0
VERTEX
  8
LAYER_1
 10
152.6174
 20
157.3451
 42
0.08091490339
  0
VERTEX
  8
LAYER_1
 10
153.2213
 20
157.6452
  0
VERTEX
  8
LAYER_1
 10
153.3443
 20
157.6241
  0
VERTEX
  8
LAYER_1
 10
153.324
 20
157.5008
  0
SEQEND
  0
POLYLINE
  8
LAYER_1
 40
0.05
 41
0.05
 66
1
 10
0
 20
0
 30
0
  0
VERTEX
  8
LAYER_1
 10
154.1822
 20
158.6604
 42
-0.07897008162
  0
VERTEX
  8
LAYER_1
 10
153.8442
 20
158.0134
  0
VERTEX
  8
LAYER_1
 10
153.7215
 20
157.9948
  0
VERTEX
  8
LAYER_1
 10
153.7033
 20
158.1178
 42
0.07770525988
  0
VERTEX
  8
LAYER_1
 10
154.0147
 20
158.7169
  0
VERTEX
  8
LAYER_1
 10
154.1267
 20
158.7724
  0
VERTEX
  8
LAYER_1
 10
154.1822
 20
158.6604
  0
SEQEND
  0
POLYLINE
  8
LAYER_1
 40
0.05
 41
0.05
 66
1
 10
0
 20
0
 30
0
  0
VERTEX
  8
LAYER_1
 10
154.2014
 20
160.1029
 42
-0.07520458238
  0
VERTEX
  8
LAYER_1
 10
154.3044
 20
159.4115
  0
VERTEX
  8
LAYER_1
 10
154.3044
 20
159.3801
  0
VERTEX
  8
LAYER_1
 10
154.2145
 20
159.293
  0
VERTEX
  8
LAYER_1
 10
154.127
 20
159.3825
  0
VERTEX
  8
LAYER_1
 10
154.1277
 20
159.4115
 42
0.07455300825
  0
VERTEX
  8
LAYER_1
 10
154.0323
 20
160.0509
  0
VERTEX
  8
LAYER_1
 10
154.0912
 20
160.1615
  0
VERTEX
  8
LAYER_1
 10
154.2014
 20
160.1029
  0
SEQEND
  0
POLYLINE
  8
LAYER_1
 40
0.05
 41
0.05
 66
1
 10
0
 20
0
 30
0
  0
VERTEX
  8
LAYER_1
 10
153.3746
 20
161.2849
 42
-0.07857307484
  0
VERTEX
  8
LAYER_1
 10
153.8814
 20
160.7588
  0
VERTEX
  8
LAYER_1
 10
153.86
 20
160.6358
  0
VERTEX
  8
LAYER_1
 10
153.7367
 20
160.6579
 42
0.07885241433
  0
VERTEX
  8
LAYER_1
 10
153.2678
 20
161.1437
  0
VERTEX
  8
LAYER_1
 10
153.2506
 20
161.267
  0
VERTEX
  8
LAYER_1
 10
153.3746
 20
161.2849
  0
SEQEND
  0
POLYLINE
  8
LAYER_1
 40
0.05
 41
0.05
 66
1
 10
0
 20
0
 30
0
  0
VERTEX
  8
LAYER_1
 10
152.0086
 20
161.7496
 42
-0.08006455455
  0
VERTEX
  8
LAYER_1
 10
152.7297
 20
161.6274
  0
VERTEX
  8
LAYER_1
 10
152.7845
 20
161.5154
  0
VERTEX
  8
LAYER_1
 10
152.6718
 20
161.4602
 42
0.08000249655
  0
VERTEX
  8
LAYER_1
 10
152.0076
 20
161.5732
  0
VERTEX
  8
LAYER_1
 10
151.9198
 20
161.6621
  0
VERTEX
  8
LAYER_1
 10
152.0086
 20
161.7496
  0
SEQEND
  0
POLYLINE
  8
LAYER_1
 40
0.05
 41
0.05
 66
1
 10
0
 20
0
 30
0
  0
VERTEX
  8
LAYER_1
 10
150.6354
 20
161.3097
 42
-0.07900553135
  0
VERTEX
  8
LAYER_1
 10
151.2866
 20
161.6408
  0
VERTEX
  8
LAYER_1
 10
151.3982
 20
161.5833
  0
VERTEX
  8
LAYER_1
 10
151.3406
 20
161.4723
 42
0.07980116577
  0
VERTEX
  8
LAYER_1
 10
150.7391
 20
161.1667
  0
VERTEX
  8
LAYER_1
 10
150.6158
 20
161.186
  0
VERTEX
  8
LAYER_1
 10
150.6354
 20
161.3097
  0
SEQEND
  0
POLYLINE
  8
LAYER_1
 40
0.05
 41
0.05
 66
1
 10
0
 20
0
 30
0
  0
VERTEX
  8
LAYER_1
 10
149.7879
 20
160.1425
 42
-0.07792425014
  0
VERTEX
  8
LAYER_1
 10
150.119
 20
160.7933
  0
VERTEX
  8
LAYER_1
 10
150.2427
 20
160.8126
  0
VERTEX
  8
LAYER_1
 10
150.2623
 20
160.6889
 42
0.07896646458
  0
VERTEX
  8
LAYER_1
 10
149.9554
 20
160.0881
  0
VERTEX
  8
LAYER_1
 10
149.8444
 20
160.0312
  0
VERTEX
  8
LAYER_1
 10
149.7879
 20
160.1425
  0
SEQEND
  0
POLYLINE
  8
LAYER_1
 40
0.05
 41
0.05
 66
1
 10
0
 20
0
 30
0
  0
VERTEX
  8
LAYER_1
 10
149.7807
 20
158.7007
 42
-0.07653766353
  0
VERTEX
  8
LAYER_1
 10
149.6725
 20
159.4115
  0
VERTEX
  8
LAYER_1
 10
149.6725
 20
159.4221
  0
VERTEX
  8
LAYER_1
 10
149.7607
 20
159.51
  0
VERTEX
  8
LAYER_1
 10
149.8486
 20
159.4211
  0
VERTEX
  8
LAYER_1
 10
149.8486
 20
159.4115
 42
0.07610402307
  0
VERTEX
  8
LAYER_1
 10
149.9495
 20
158.7535
  0
VERTEX
  8
LAYER_1
 10
149.8916
 20
158.6425
  0
VERTEX
  8
LAYER_1
 10
149.7807
 20
158.7007
  0
SEQEND
  0
POLYLINE
  8
LAYER_1
 40
0.05
 41
0.05
 66
1
 10
0
 20
0
 30
0
  0
VERTEX
  8
LAYER_1
 10
150.6185
 20
157.5256
 42
-0.07876652362
  0
VERTEX
  8
LAYER_1
 10
150.1073
 20
158.0472
  0
VERTEX
  8
LAYER_1
 10
150.1276
 20
158.1695
  0
VERTEX
  8
LAYER_1
 10
150.2513
 20
158.1492
 42
0.07917817825
  0
VERTEX
  8
LAYER_1
 10
150.7236
 20
157.6679
  0
VERTEX
  8
LAYER_1
 10
150.7419
 20
157.5439
  0
VERTEX
  8
LAYER_1
 10
150.6185
 20
157.5256
  0
SEQEND
  0
ENDBLK
  0
BLOCK
  8
LAYER_1
  2
AIGNBL01010006
 70
64
 10
0
 20
0
 30
0
  3
AIGNBL01010006
  0
POLYLINE
  8
LAYER_1
 40
0.05
 41
0.05
 66
1
 10
0
 20
0
 30
0
  0
VERTEX
  8
LAYER_1
 10
152.3001
 20
156.1303
  0
VERTEX
  8
LAYER_1
 10
151.9876
 20
156.1155
 42
-0.05623520979
  0
VERTEX
  8
LAYER_1
 10
151.2683
 20
156.1961
  0
VERTEX
  8
LAYER_1
 10
151.2021
 20
156.3009
  0
VERTEX
  8
LAYER_1
 10
151.3083
 20
156.3677
 42
0.05563284977
  0
VERTEX
  8
LAYER_1
 10
151.9876
 20
156.2923
  0
VERTEX
  8
LAYER_1
 10
152.2829
 20
156.3061
  0
VERTEX
  8
LAYER_1
 10
152.38
 20
156.2268
  0
VERTEX
  8
LAYER_1
 10
152.3001
 20
156.1303
  0
SEQEND
  0
POLYLINE
  8
LAYER_1
 40
0.05
 41
0.05
 66
1
 10
0
 20
0
 30
0
  0
VERTEX
  8
LAYER_1
 10
153.665
 20
156.5834
 42
-0.05565241351
  0
VERTEX
  8
LAYER_1
 10
153.0087
 20
156.2798
  0
VERTEX
  8
LAYER_1
 10
152.8964
 20
156.336
  0
VERTEX
  8
LAYER_1
 10
152.9526
 20
156.447
 42
0.05598125653
  0
VERTEX
  8
LAYER_1
 10
153.5737
 20
156.7346
  0
VERTEX
  8
LAYER_1
 10
153.695
 20
156.705
  0
VERTEX
  8
LAYER_1
 10
153.665
 20
156.5834
  0
SEQEND
  0
POLYLINE
  8
LAYER_1
 40
0.05
 41
0.05
 66
1
 10
0
 20
0
 30
0
  0
VERTEX
  8
LAYER_1
 10
154.702
 20
157.58
 42
-0.05564894016
  0
VERTEX
  8
LAYER_1
 10
154.2386
 20
157.0247
  0
VERTEX
  8
LAYER_1
 10
154.1143
 20
157.0275
  0
VERTEX
  8
LAYER_1
 10
154.1163
 20
157.1518
 42
0.05539515367
  0
VERTEX
  8
LAYER_1
 10
154.5549
 20
157.6776
  0
VERTEX
  8
LAYER_1
 10
154.6772
 20
157.7024
  0
VERTEX
  8
LAYER_1
 10
154.702
 20
157.58
  0
SEQEND
  0
POLYLINE
  8
LAYER_1
 40
0.05
 41
0.05
 66
1
 10
0
 20
0
 30
0
  0
VERTEX
  8
LAYER_1
 10
155.2167
 20
158.9233
 42
-0.05518306167
  0
VERTEX
  8
LAYER_1
 10
155.0334
 20
158.2236
  0
VERTEX
  8
LAYER_1
 10
154.9197
 20
158.173
  0
VERTEX
  8
LAYER_1
 10
154.8691
 20
158.2866
 42
0.05433211986
  0
VERTEX
  8
LAYER_1
 10
155.0421
 20
158.9491
  0
VERTEX
  8
LAYER_1
 10
155.1423
 20
159.0235
  0
VERTEX
  8
LAYER_1
 10
155.2167
 20
158.9233
  0
SEQEND
  0
POLYLINE
  8
LAYER_1
 40
0.05
 41
0.05
 66
1
 10
0
 20
0
 30
0
  0
VERTEX
  8
LAYER_1
 10
155.1154
 20
160.3571
 42
-0.05495645605
  0
VERTEX
  8
LAYER_1
 10
155.2439
 20
159.6457
  0
VERTEX
  8
LAYER_1
 10
155.1616
 20
159.552
  0
VERTEX
  8
LAYER_1
 10
155.0679
 20
159.6333
 42
0.05470646898
  0
VERTEX
  8
LAYER_1
 10
154.9463
 20
160.3079
  0
VERTEX
  8
LAYER_1
 10
155.0059
 20
160.4174
  0
VERTEX
  8
LAYER_1
 10
155.1154
 20
160.3571
  0
SEQEND
  0
POLYLINE
  8
LAYER_1
 40
0.05
 41
0.05
 66
1
 10
0
 20
0
 30
0
  0
VERTEX
  8
LAYER_1
 10
154.4161
 20
161.6139
 42
-0.05597549554
  0
VERTEX
  8
LAYER_1
 10
154.835
 20
161.0245
  0
VERTEX
  8
LAYER_1
 10
154.8012
 20
160.9042
  0
VERTEX
  8
LAYER_1
 10
154.6806
 20
160.939
 42
0.05491596545
  0
VERTEX
  8
LAYER_1
 10
154.2841
 20
161.4964
  0
VERTEX
  8
LAYER_1
 10
154.292
 20
161.6211
  0
VERTEX
  8
LAYER_1
 10
154.4161
 20
161.6139
  0
SEQEND
  0
POLYLINE
  8
LAYER_1
 40
0.05
 41
0.05
 66
1
 10
0
 20
0
 30
0
  0
VERTEX
  8
LAYER_1
 10
153.2475
 20
162.4528
 42
-0.0552089212
  0
VERTEX
  8
LAYER_1
 10
153.8786
 20
162.0986
  0
VERTEX
  8
LAYER_1
 10
153.8983
 20
161.9749
  0
VERTEX
  8
LAYER_1
 10
153.7753
 20
161.9546
 42
0.05535684187
  0
VERTEX
  8
LAYER_1
 10
153.1789
 20
162.2898
  0
VERTEX
  8
LAYER_1
 10
153.1321
 20
162.4059
  0
VERTEX
  8
LAYER_1
 10
153.2475
 20
162.4528
  0
SEQEND
  0
POLYLINE
  8
LAYER_1
 40
0.05
 41
0.05
 66
1
 10
0
 20
0
 30
0
  0
VERTEX
  8
LAYER_1
 10
151.8316
 20
162.7033
  0
VERTEX
  8
LAYER_1
 10
151.9876
 20
162.7067
 42
-0.04352543258
  0
VERTEX
  8
LAYER_1
 10
152.5533
 20
162.6578
  0
VERTEX
  8
LAYER_1
 10
152.625
 20
162.5554
  0
VERTEX
  8
LAYER_1
 10
152.5227
 20
162.4842
 42
0.0428455356
  0
VERTEX
  8
LAYER_1
 10
151.9876
 20
162.5306
  0
VERTEX
  8
LAYER_1
 10
151.8395
 20
162.5269
  0
VERTEX
  8
LAYER_1
 10
151.7468
 20
162.6109
  0
VERTEX
  8
LAYER_1
 10
151.8316
 20
162.7033
  0
SEQEND
  0
POLYLINE
  8
LAYER_1
 40
0.05
 41
0.05
 66
1
 10
0
 20
0
 30
0
  0
VERTEX
  8
LAYER_1
 10
150.4453
 20
162.3167
 42
-0.05668974197
  0
VERTEX
  8
LAYER_1
 10
151.1163
 20
162.5885
  0
VERTEX
  8
LAYER_1
 10
151.2252
 20
162.5269
  0
VERTEX
  8
LAYER_1
 10
151.1643
 20
162.418
 42
0.05695466477
  0
VERTEX
  8
LAYER_1
 10
150.5296
 20
162.1613
  0
VERTEX
  8
LAYER_1
 10
150.4101
 20
162.1972
  0
VERTEX
  8
LAYER_1
 10
150.4453
 20
162.3167
  0
SEQEND
  0
POLYLINE
  8
LAYER_1
 40
0.05
 41
0.05
 66
1
 10
0
 20
0
 30
0
  0
VERTEX
  8
LAYER_1
 10
149.3621
 20
161.3707
 42
-0.05419196754
  0
VERTEX
  8
LAYER_1
 10
149.8513
 20
161.904
  0
VERTEX
  8
LAYER_1
 10
149.9764
 20
161.8957
  0
VERTEX
  8
LAYER_1
 10
149.9671
 20
161.7707
 42
0.05549041356
  0
VERTEX
  8
LAYER_1
 10
149.5051
 20
161.2659
  0
VERTEX
  8
LAYER_1
 10
149.3814
 20
161.2481
  0
VERTEX
  8
LAYER_1
 10
149.3621
 20
161.3707
  0
SEQEND
  0
POLYLINE
  8
LAYER_1
 40
0.05
 41
0.05
 66
1
 10
0
 20
0
 30
0
  0
VERTEX
  8
LAYER_1
 10
148.785
 20
160.0533
 42
-0.05473679057
  0
VERTEX
  8
LAYER_1
 10
149.0007
 20
160.744
  0
VERTEX
  8
LAYER_1
 10
149.1168
 20
160.7895
  0
VERTEX
  8
LAYER_1
 10
149.1623
 20
160.6731
 42
0.05537233101
  0
VERTEX
  8
LAYER_1
 10
148.9587
 20
160.0192
  0
VERTEX
  8
LAYER_1
 10
148.8547
 20
159.9496
  0
VERTEX
  8
LAYER_1
 10
148.785
 20
160.0533
  0
SEQEND
  0
POLYLINE
  8
LAYER_1
 40
0.05
 41
0.05
 66
1
 10
0
 20
0
 30
0
  0
VERTEX
  8
LAYER_1
 10
148.8185
 20
158.6163
 42
-0.05371173684
  0
VERTEX
  8
LAYER_1
 10
148.7241
 20
159.3329
  0
VERTEX
  8
LAYER_1
 10
148.8106
 20
159.4232
  0
VERTEX
  8
LAYER_1
 10
148.9005
 20
159.3367
 42
0.05475670564
  0
VERTEX
  8
LAYER_1
 10
148.9904
 20
158.6583
  0
VERTEX
  8
LAYER_1
 10
148.9256
 20
158.5509
  0
VERTEX
  8
LAYER_1
 10
148.8185
 20
158.6163
  0
SEQEND
  0
POLYLINE
  8
LAYER_1
 40
0.05
 41
0.05
 66
1
 10
0
 20
0
 30
0
  0
VERTEX
  8
LAYER_1
 10
149.4579
 20
157.3279
 42
-0.05422823771
  0
VERTEX
  8
LAYER_1
 10
149.0676
 20
157.9369
  0
VERTEX
  8
LAYER_1
 10
149.1072
 20
158.0548
  0
VERTEX
  8
LAYER_1
 10
149.2257
 20
158.0155
 42
0.05469035993
  0
VERTEX
  8
LAYER_1
 10
149.595
 20
157.4388
  0
VERTEX
  8
LAYER_1
 10
149.5819
 20
157.3144
  0
VERTEX
  8
LAYER_1
 10
149.4579
 20
157.3279
  0
SEQEND
  0
POLYLINE
  8
LAYER_1
 40
0.05
 41
0.05
 66
1
 10
0
 20
0
 30
0
  0
VERTEX
  8
LAYER_1
 10
150.5848
 20
156.4342
 42
-0.05524657075
  0
VERTEX
  8
LAYER_1
 10
149.9719
 20
156.8187
  0
VERTEX
  8
LAYER_1
 10
149.9574
 20
156.9427
  0
VERTEX
  8
LAYER_1
 10
150.0814
 20
156.9572
 42
0.05596965966
  0
VERTEX
  8
LAYER_1
 10
150.6616
 20
156.5937
  0
VERTEX
  8
LAYER_1
 10
150.7026
 20
156.4755
  0
VERTEX
  8
LAYER_1
 10
150.5848
 20
156.4342
  0
SEQEND
  0
ENDBLK
  0
BLOCK
  8
LAYER_1
  2
AIGNBL01010007
 70
64
 10
0
 20
0
 30
0
  3
AIGNBL01010007
  0
POLYLINE
  8
LAYER_1
 40
0.05
 41
0.05
 66
1
 10
0
 20
0
 30
0
  0
VERTEX
  8
LAYER_1
 10
153.6661
 20
175.6335
  0
VERTEX
  8
LAYER_1
 10
153.6433
 20
175.9105
  0
VERTEX
  8
LAYER_1
 10
153.5861
 20
176.1768
  0
VERTEX
  8
LAYER_1
 10
153.6723
 20
176.1957
  0
VERTEX
  8
LAYER_1
 10
153.5896
 20
176.1658
  0
VERTEX
  8
LAYER_1
 10
153.5389
 20
176.2939
  0
VERTEX
  8
LAYER_1
 10
153.5848
 20
176.4097
  0
VERTEX
  8
LAYER_1
 10
153.7009
 20
176.3638
 42
-0.06612536397
  0
VERTEX
  8
LAYER_1
 10
153.8054
 20
176.0191
 42
-0.03014795953
  0
VERTEX
  8
LAYER_1
 10
153.8421
 20
175.6479
  0
VERTEX
  8
LAYER_1
 10
153.7615
 20
175.5525
  0
VERTEX
  8
LAYER_1
 10
153.6661
 20
175.6335
  0
SEQEND
  0
POLYLINE
  8
LAYER_1
 40
0.05
 41
0.05
 66
1
 10
0
 20
0
 30
0
  0
VERTEX
  8
LAYER_1
 10
153.3023
 20
174.5903
 42
0.08142194983
  0
VERTEX
  8
LAYER_1
 10
153.5889
 20
175.1257
  0
VERTEX
  8
LAYER_1
 10
153.6723
 20
175.0967
  0
VERTEX
  8
LAYER_1
 10
153.5861
 20
175.115
  0
VERTEX
  8
LAYER_1
 10
153.5996
 20
175.1804
  0
VERTEX
  8
LAYER_1
 10
153.7046
 20
175.2483
  0
VERTEX
  8
LAYER_1
 10
153.7732
 20
175.1436
  0
VERTEX
  8
LAYER_1
 10
153.7588
 20
175.0778
  0
VERTEX
  8
LAYER_1
 10
153.756
 20
175.0668
 42
-0.07896865278
  0
VERTEX
  8
LAYER_1
 10
153.4418
 20
174.4818
  0
VERTEX
  8
LAYER_1
 10
153.3178
 20
174.4666
  0
VERTEX
  8
LAYER_1
 10
153.3012
 20
174.5903
  0
VERTEX
  8
LAYER_1
 10
153.3023
 20
174.5903
  0
SEQEND
  0
POLYLINE
  8
LAYER_1
 40
0.05
 41
0.05
 66
1
 10
0
 20
0
 30
0
  0
VERTEX
  8
LAYER_1
 10
152.1623
 20
173.9633
 42
0.1017501091
  0
VERTEX
  8
LAYER_1
 10
152.7986
 20
174.1569
  0
VERTEX
  8
LAYER_1
 10
152.9175
 20
174.1221
  0
VERTEX
  8
LAYER_1
 10
152.8827
 20
174.0026
 42
-0.1030815715
  0
VERTEX
  8
LAYER_1
 10
152.1785
 20
173.788
  0
VERTEX
  8
LAYER_1
 10
152.0824
 20
173.8679
  0
VERTEX
  8
LAYER_1
 10
152.1623
 20
173.9633
  0
SEQEND
  0
POLYLINE
  8
LAYER_1
 40
0.05
 41
0.05
 66
1
 10
0
 20
0
 30
0
  0
VERTEX
  8
LAYER_1
 10
150.921
 20
174.3605
 42
0.1019306544
  0
VERTEX
  8
LAYER_1
 10
151.5001
 20
174.0356
  0
VERTEX
  8
LAYER_1
 10
151.5584
 20
173.9247
  0
VERTEX
  8
LAYER_1
 10
151.4471
 20
173.8675
 42
-0.1028610096
  0
VERTEX
  8
LAYER_1
 10
150.8046
 20
174.2282
  0
VERTEX
  8
LAYER_1
 10
150.796
 20
174.3529
  0
VERTEX
  8
LAYER_1
 10
150.921
 20
174.3605
  0
SEQEND
  0
POLYLINE
  8
LAYER_1
 40
0.05
 41
0.05
 66
1
 10
0
 20
0
 30
0
  0
VERTEX
  8
LAYER_1
 10
150.3567
 20
175.5408
  0
VERTEX
  8
LAYER_1
 10
150.3708
 20
175.3751
  0
VERTEX
  8
LAYER_1
 10
150.2823
 20
175.3682
  0
VERTEX
  8
LAYER_1
 10
150.3698
 20
175.3823
 42
0.06972346643
  0
VERTEX
  8
LAYER_1
 10
150.5217
 20
174.8918
  0
VERTEX
  8
LAYER_1
 10
150.4797
 20
174.7743
  0
VERTEX
  8
LAYER_1
 10
150.3622
 20
174.817
 42
-0.06806474988
  0
VERTEX
  8
LAYER_1
 10
150.1951
 20
175.3531
  0
VERTEX
  8
LAYER_1
 10
150.1941
 20
175.361
  0
VERTEX
  8
LAYER_1
 10
150.181
 20
175.5256
  0
VERTEX
  8
LAYER_1
 10
150.2613
 20
175.6214
  0
VERTEX
  8
LAYER_1
 10
150.3567
 20
175.5408
  0
SEQEND
  0
POLYLINE
  8
LAYER_1
 40
0.05
 41
0.05
 66
1
 10
0
 20
0
 30
0
  0
VERTEX
  8
LAYER_1
 10
150.776
 20
176.7776
 42
0.09936321023
  0
VERTEX
  8
LAYER_1
 10
150.4446
 20
176.1988
  0
VERTEX
  8
LAYER_1
 10
150.3326
 20
176.1437
  0
VERTEX
  8
LAYER_1
 10
150.2771
 20
176.2557
 42
-0.09806366307
  0
VERTEX
  8
LAYER_1
 10
150.6433
 20
176.894
  0
VERTEX
  8
LAYER_1
 10
150.7674
 20
176.902
  0
VERTEX
  8
LAYER_1
 10
150.776
 20
176.7776
  0
SEQEND
  0
POLYLINE
  8
LAYER_1
 40
0.05
 41
0.05
 66
1
 10
0
 20
0
 30
0
  0
VERTEX
  8
LAYER_1
 10
151.9552
 20
177.3267
 42
0.1000342613
  0
VERTEX
  8
LAYER_1
 10
151.3083
 20
177.1745
  0
VERTEX
  8
LAYER_1
 10
151.1908
 20
177.2169
  0
VERTEX
  8
LAYER_1
 10
151.2335
 20
177.3343
 42
-0.1016590927
  0
VERTEX
  8
LAYER_1
 10
151.9504
 20
177.5025
  0
VERTEX
  8
LAYER_1
 10
152.0414
 20
177.4173
  0
VERTEX
  8
LAYER_1
 10
151.9552
 20
177.3267
  0
SEQEND
  0
POLYLINE
  8
LAYER_1
 40
0.05
 41
0.05
 66
1
 10
0
 20
0
 30
0
  0
VERTEX
  8
LAYER_1
 10
153.1672
 20
176.8489
 42
0.102775778
  0
VERTEX
  8
LAYER_1
 10
152.6112
 20
177.2134
  0
VERTEX
  8
LAYER_1
 10
152.5609
 20
177.3278
  0
VERTEX
  8
LAYER_1
 10
152.6756
 20
177.3777
 42
-0.1041719582
  0
VERTEX
  8
LAYER_1
 10
153.2916
 20
176.9736
  0
VERTEX
  8
LAYER_1
 10
153.2916
 20
176.8489
  0
VERTEX
  8
LAYER_1
 10
153.1672
 20
176.8489
  0
SEQEND
  0
ENDBLK
  0
BLOCK
  8
LAYER_1
  2
AIGNBL01010008
 70
64
 10
0
 20
0
 30
0
  3
AIGNBL01010008
  0
POLYLINE
  8
LAYER_1
 40
0.05
 41
0.05
 66
1
 10
0
 20
0
 30
0
  0
VERTEX
  8
LAYER_1
 10
182.0764
 20
135.7716
  0
VERTEX
  8
LAYER_1
 10
182.0764
 20
135.651
 42
-0.4045921446
  0
VERTEX
  8
LAYER_1
 10
181.8628
 20
135.4667
  0
VERTEX
  8
LAYER_1
 10
181.3315
 20
135.4667
  0
VERTEX
  8
LAYER_1
 10
181.2434
 20
135.5545
  0
VERTEX
  8
LAYER_1
 10
181.3315
 20
135.6423
  0
VERTEX
  8
LAYER_1
 10
181.8628
 20
135.6423
  0
VERTEX
  8
LAYER_1
 10
181.8973
 20
135.653
  0
VERTEX
  8
LAYER_1
 10
181.901
 20
135.6565
  0
VERTEX
  8
LAYER_1
 10
181.9107
 20
135.651
  0
VERTEX
  8
LAYER_1
 10
181.899
 20
135.651
  0
VERTEX
  8
LAYER_1
 10
181.901
 20
135.6565
  0
VERTEX
  8
LAYER_1
 10
181.9107
 20
135.651
  0
VERTEX
  8
LAYER_1
 10
181.899
 20
135.651
  0
VERTEX
  8
LAYER_1
 10
181.899
 20
135.7716
  0
VERTEX
  8
LAYER_1
 10
181.9872
 20
135.8601
  0
VERTEX
  8
LAYER_1
 10
182.0764
 20
135.7716
  0
SEQEND
  0
POLYLINE
  8
LAYER_1
 40
0.05
 41
0.05
 66
1
 10
0
 20
0
 30
0
  0
VERTEX
  8
LAYER_1
 10
182.0764
 20
137.1827
  0
VERTEX
  8
LAYER_1
 10
182.0764
 20
136.4774
  0
VERTEX
  8
LAYER_1
 10
181.9872
 20
136.3889
  0
VERTEX
  8
LAYER_1
 10
181.899
 20
136.4774
  0
VERTEX
  8
LAYER_1
 10
181.899
 20
137.1827
  0
VERTEX
  8
LAYER_1
 10
181.9872
 20
137.2712
  0
VERTEX
  8
LAYER_1
 10
182.0764
 20
137.1827
  0
SEQEND
  0
POLYLINE
  8
LAYER_1
 40
0.05
 41
0.05
 66
1
 10
0
 20
0
 30
0
  0
VERTEX
  8
LAYER_1
 10
182.0764
 20
138.5945
  0
VERTEX
  8
LAYER_1
 10
182.0764
 20
137.8886
  0
VERTEX
  8
LAYER_1
 10
181.9872
 20
137.8
  0
VERTEX
  8
LAYER_1
 10
181.899
 20
137.8886
  0
VERTEX
  8
LAYER_1
 10
181.899
 20
138.5945
  0
VERTEX
  8
LAYER_1
 10
181.9872
 20
138.6827
  0
VERTEX
  8
LAYER_1
 10
182.0764
 20
138.5945
  0
SEQEND
  0
POLYLINE
  8
LAYER_1
 40
0.05
 41
0.05
 66
1
 10
0
 20
0
 30
0
  0
VERTEX
  8
LAYER_1
 10
182.0764
 20
140.0056
  0
VERTEX
  8
LAYER_1
 10
182.0764
 20
139.3
  0
VERTEX
  8
LAYER_1
 10
181.9872
 20
139.2118
  0
VERTEX
  8
LAYER_1
 10
181.899
 20
139.3
  0
VERTEX
  8
LAYER_1
 10
181.899
 20
140.0056
  0
VERTEX
  8
LAYER_1
 10
181.9872
 20
140.0938
  0
VERTEX
  8
LAYER_1
 10
182.0764
 20
140.0056
  0
SEQEND
  0
POLYLINE
  8
LAYER_1
 40
0.05
 41
0.05
 66
1
 10
0
 20
0
 30
0
  0
VERTEX
  8
LAYER_1
 10
182.0764
 20
141.417
  0
VERTEX
  8
LAYER_1
 10
182.0764
 20
140.7111
  0
VERTEX
  8
LAYER_1
 10
181.9872
 20
140.6229
  0
VERTEX
  8
LAYER_1
 10
181.899
 20
140.7111
  0
VERTEX
  8
LAYER_1
 10
181.899
 20
141.417
  0
VERTEX
  8
LAYER_1
 10
181.9872
 20
141.5049
  0
VERTEX
  8
LAYER_1
 10
182.0764
 20
141.417
  0
SEQEND
  0
POLYLINE
  8
LAYER_1
 40
0.05
 41
0.05
 66
1
 10
0
 20
0
 30
0
  0
VERTEX
  8
LAYER_1
 10
182.0764
 20
142.8281
  0
VERTEX
  8
LAYER_1
 10
182.0764
 20
142.1222
  0
VERTEX
  8
LAYER_1
 10
181.9872
 20
142.034
  0
VERTEX
  8
LAYER_1
 10
181.899
 20
142.1222
  0
VERTEX
  8
LAYER_1
 10
181.899
 20
142.8281
  0
VERTEX
  8
LAYER_1
 10
181.9872
 20
142.9163
  0
VERTEX
  8
LAYER_1
 10
182.0764
 20
142.8281
  0
SEQEND
  0
POLYLINE
  8
LAYER_1
 40
0.05
 41
0.05
 66
1
 10
0
 20
0
 30
0
  0
VERTEX
  8
LAYER_1
 10
182.0764
 20
144.2393
  0
VERTEX
  8
LAYER_1
 10
182.0764
 20
143.5341
  0
VERTEX
  8
LAYER_1
 10
181.9872
 20
143.4455
  0
VERTEX
  8
LAYER_1
 10
181.899
 20
143.5341
  0
VERTEX
  8
LAYER_1
 10
181.899
 20
144.2393
  0
VERTEX
  8
LAYER_1
 10
181.9872
 20
144.3281
  0
VERTEX
  8
LAYER_1
 10
182.0764
 20
144.2393
  0
SEQEND
  0
POLYLINE
  8
LAYER_1
 40
0.05
 41
0.05
 66
1
 10
0
 20
0
 30
0
  0
VERTEX
  8
LAYER_1
 10
182.0764
 20
145.6507
  0
VERTEX
  8
LAYER_1
 10
182.0764
 20
144.9452
  0
VERTEX
  8
LAYER_1
 10
181.9872
 20
144.8566
  0
VERTEX
  8
LAYER_1
 10
181.899
 20
144.9452
  0
VERTEX
  8
LAYER_1
 10
181.899
 20
145.6507
  0
VERTEX
  8
LAYER_1
 10
181.9872
 20
145.7396
  0
VERTEX
  8
LAYER_1
 10
182.0764
 20
145.6507
  0
SEQEND
  0
POLYLINE
  8
LAYER_1
 40
0.05
 41
0.05
 66
1
 10
0
 20
0
 30
0
  0
VERTEX
  8
LAYER_1
 10
182.0764
 20
147.0625
  0
VERTEX
  8
LAYER_1
 10
182.0764
 20
146.3563
  0
VERTEX
  8
LAYER_1
 10
181.9872
 20
146.2684
  0
VERTEX
  8
LAYER_1
 10
181.899
 20
146.3563
  0
VERTEX
  8
LAYER_1
 10
181.899
 20
147.0625
  0
VERTEX
  8
LAYER_1
 10
181.9872
 20
147.1507
  0
VERTEX
  8
LAYER_1
 10
182.0764
 20
147.0625
  0
SEQEND
  0
POLYLINE
  8
LAYER_1
 40
0.05
 41
0.05
 66
1
 10
0
 20
0
 30
0
  0
VERTEX
  8
LAYER_1
 10
182.0764
 20
148.474
  0
VERTEX
  8
LAYER_1
 10
182.0764
 20
147.7684
  0
VERTEX
  8
LAYER_1
 10
181.9872
 20
147.6795
  0
VERTEX
  8
LAYER_1
 10
181.899
 20
147.7684
  0
VERTEX
  8
LAYER_1
 10
181.899
 20
148.474
  0
VERTEX
  8
LAYER_1
 10
181.9872
 20
148.5615
  0
VERTEX
  8
LAYER_1
 10
182.0764
 20
148.474
  0
SEQEND
  0
POLYLINE
  8
LAYER_1
 40
0.05
 41
0.05
 66
1
 10
0
 20
0
 30
0
  0
VERTEX
  8
LAYER_1
 10
182.0764
 20
149.8851
  0
VERTEX
  8
LAYER_1
 10
182.0764
 20
149.1795
  0
VERTEX
  8
LAYER_1
 10
181.9872
 20
149.0903
  0
VERTEX
  8
LAYER_1
 10
181.899
 20
149.1795
  0
VERTEX
  8
LAYER_1
 10
181.899
 20
149.8851
  0
VERTEX
  8
LAYER_1
 10
181.9872
 20
149.9729
  0
VERTEX
  8
LAYER_1
 10
182.0764
 20
149.8851
  0
SEQEND
  0
POLYLINE
  8
LAYER_1
 40
0.05
 41
0.05
 66
1
 10
0
 20
0
 30
0
  0
VERTEX
  8
LAYER_1
 10
182.0764
 20
151.2962
  0
VERTEX
  8
LAYER_1
 10
182.0764
 20
150.591
  0
VERTEX
  8
LAYER_1
 10
181.9872
 20
150.5028
  0
VERTEX
  8
LAYER_1
 10
181.899
 20
150.591
  0
VERTEX
  8
LAYER_1
 10
181.899
 20
151.2962
  0
VERTEX
  8
LAYER_1
 10
181.9872
 20
151.384
  0
VERTEX
  8
LAYER_1
 10
182.0764
 20
151.2962
  0
SEQEND
  0
POLYLINE
  8
LAYER_1
 40
0.05
 41
0.05
 66
1
 10
0
 20
0
 30
0
  0
VERTEX
  8
LAYER_1
 10
182.0764
 20
152.7073
  0
VERTEX
  8
LAYER_1
 10
182.0764
 20
152.0014
  0
VERTEX
  8
LAYER_1
 10
181.9872
 20
151.9136
  0
VERTEX
  8
LAYER_1
 10
181.899
 20
152.0014
  0
VERTEX
  8
LAYER_1
 10
181.899
 20
152.7073
  0
VERTEX
  8
LAYER_1
 10
181.9872
 20
152.7958
  0
VERTEX
  8
LAYER_1
 10
182.0764
 20
152.7073
  0
SEQEND
  0
POLYLINE
  8
LAYER_1
 40
0.05
 41
0.05
 66
1
 10
0
 20
0
 30
0
  0
VERTEX
  8
LAYER_1
 10
182.0764
 20
154.1184
  0
VERTEX
  8
LAYER_1
 10
182.0764
 20
153.4125
  0
VERTEX
  8
LAYER_1
 10
181.9872
 20
153.3253
  0
VERTEX
  8
LAYER_1
 10
181.899
 20
153.4125
  0
VERTEX
  8
LAYER_1
 10
181.899
 20
154.1184
  0
VERTEX
  8
LAYER_1
 10
181.9872
 20
154.207
  0
VERTEX
  8
LAYER_1
 10
182.0764
 20
154.1184
  0
SEQEND
  0
POLYLINE
  8
LAYER_1
 40
0.05
 41
0.05
 66
1
 10
0
 20
0
 30
0
  0
VERTEX
  8
LAYER_1
 10
182.0764
 20
155.5302
  0
VERTEX
  8
LAYER_1
 10
182.0764
 20
154.8243
  0
VERTEX
  8
LAYER_1
 10
181.9872
 20
154.7358
  0
VERTEX
  8
LAYER_1
 10
181.899
 20
154.8243
  0
VERTEX
  8
LAYER_1
 10
181.899
 20
155.5302
  0
VERTEX
  8
LAYER_1
 10
181.9872
 20
155.6177
  0
VERTEX
  8
LAYER_1
 10
182.0764
 20
155.5302
  0
SEQEND
  0
POLYLINE
  8
LAYER_1
 40
0.05
 41
0.05
 66
1
 10
0
 20
0
 30
0
  0
VERTEX
  8
LAYER_1
 10
182.0764
 20
156.941
  0
VERTEX
  8
LAYER_1
 10
182.0764
 20
156.2354
  0
VERTEX
  8
LAYER_1
 10
181.9872
 20
156.1469
  0
VERTEX
  8
LAYER_1
 10
181.899
 20
156.2354
  0
VERTEX
  8
LAYER_1
 10
181.899
 20
156.941
  0
VERTEX
  8
LAYER_1
 10
181.9872
 20
157.0295
  0
VERTEX
  8
LAYER_1
 10
182.0764
 20
156.941
  0
SEQEND
  0
POLYLINE
  8
LAYER_1
 40
0.05
 41
0.05
 66
1
 10
0
 20
0
 30
0
  0
VERTEX
  8
LAYER_1
 10
182.0764
 20
158.3521
  0
VERTEX
  8
LAYER_1
 10
182.0764
 20
157.6469
  0
VERTEX
  8
LAYER_1
 10
181.9872
 20
157.5587
  0
VERTEX
  8
LAYER_1
 10
181.899
 20
157.6469
  0
VERTEX
  8
LAYER_1
 10
181.899
 20
158.3521
  0
VERTEX
  8
LAYER_1
 10
181.9872
 20
158.4406
  0
VERTEX
  8
LAYER_1
 10
182.0764
 20
158.3521
  0
SEQEND
  0
POLYLINE
  8
LAYER_1
 40
0.05
 41
0.05
 66
1
 10
0
 20
0
 30
0
  0
VERTEX
  8
LAYER_1
 10
182.0764
 20
159.7639
  0
VERTEX
  8
LAYER_1
 10
182.0764
 20
159.058
  0
VERTEX
  8
LAYER_1
 10
181.9872
 20
158.9698
  0
VERTEX
  8
LAYER_1
 10
181.899
 20
159.058
  0
VERTEX
  8
LAYER_1
 10
181.899
 20
159.7639
  0
VERTEX
  8
LAYER_1
 10
181.9872
 20
159.8521
  0
VERTEX
  8
LAYER_1
 10
182.0764
 20
159.7639
  0
SEQEND
  0
POLYLINE
  8
LAYER_1
 40
0.05
 41
0.05
 66
1
 10
0
 20
0
 30
0
  0
VERTEX
  8
LAYER_1
 10
182.0764
 20
161.175
  0
VERTEX
  8
LAYER_1
 10
182.0764
 20
160.4694
  0
VERTEX
  8
LAYER_1
 10
181.9872
 20
160.3809
  0
VERTEX
  8
LAYER_1
 10
181.899
 20
160.4694
  0
VERTEX
  8
LAYER_1
 10
181.899
 20
161.175
  0
VERTEX
  8
LAYER_1
 10
181.9872
 20
161.2632
  0
VERTEX
  8
LAYER_1
 10
182.0764
 20
161.175
  0
SEQEND
  0
POLYLINE
  8
LAYER_1
 40
0.05
 41
0.05
 66
1
 10
0
 20
0
 30
0
  0
VERTEX
  8
LAYER_1
 10
182.0764
 20
162.5861
  0
VERTEX
  8
LAYER_1
 10
182.0764
 20
161.8805
  0
VERTEX
  8
LAYER_1
 10
181.9872
 20
161.7924
  0
VERTEX
  8
LAYER_1
 10
181.899
 20
161.8805
  0
VERTEX
  8
LAYER_1
 10
181.899
 20
162.5861
  0
VERTEX
  8
LAYER_1
 10
181.9872
 20
162.6747
  0
VERTEX
  8
LAYER_1
 10
182.0764
 20
162.5861
  0
SEQEND
  0
POLYLINE
  8
LAYER_1
 40
0.05
 41
0.05
 66
1
 10
0
 20
0
 30
0
  0
VERTEX
  8
LAYER_1
 10
182.0764
 20
163.9976
  0
VERTEX
  8
LAYER_1
 10
182.0764
 20
163.2917
  0
VERTEX
  8
LAYER_1
 10
181.9872
 20
163.2038
  0
VERTEX
  8
LAYER_1
 10
181.899
 20
163.2917
  0
VERTEX
  8
LAYER_1
 10
181.899
 20
163.9976
  0
VERTEX
  8
LAYER_1
 10
181.9872
 20
164.0861
  0
VERTEX
  8
LAYER_1
 10
182.0764
 20
163.9976
  0
SEQEND
  0
POLYLINE
  8
LAYER_1
 40
0.05
 41
0.05
 66
1
 10
0
 20
0
 30
0
  0
VERTEX
  8
LAYER_1
 10
182.0764
 20
165.409
  0
VERTEX
  8
LAYER_1
 10
182.0764
 20
164.7031
  0
VERTEX
  8
LAYER_1
 10
181.9872
 20
164.6149
  0
VERTEX
  8
LAYER_1
 10
181.899
 20
164.7031
  0
VERTEX
  8
LAYER_1
 10
181.899
 20
165.409
  0
VERTEX
  8
LAYER_1
 10
181.9872
 20
165.4972
  0
VERTEX
  8
LAYER_1
 10
182.0764
 20
165.409
  0
SEQEND
  0
POLYLINE
  8
LAYER_1
 40
0.05
 41
0.05
 66
1
 10
0
 20
0
 30
0
  0
VERTEX
  8
LAYER_1
 10
182.0764
 20
166.8201
  0
VERTEX
  8
LAYER_1
 10
182.0764
 20
166.1146
  0
VERTEX
  8
LAYER_1
 10
181.9872
 20
166.026
  0
VERTEX
  8
LAYER_1
 10
181.899
 20
166.1146
  0
VERTEX
  8
LAYER_1
 10
181.899
 20
166.8201
  0
VERTEX
  8
LAYER_1
 10
181.9872
 20
166.9083
  0
VERTEX
  8
LAYER_1
 10
182.0764
 20
166.8201
  0
SEQEND
  0
POLYLINE
  8
LAYER_1
 40
0.05
 41
0.05
 66
1
 10
0
 20
0
 30
0
  0
VERTEX
  8
LAYER_1
 10
182.0764
 20
168.2313
  0
VERTEX
  8
LAYER_1
 10
182.0764
 20
167.5261
  0
VERTEX
  8
LAYER_1
 10
181.9872
 20
167.4375
  0
VERTEX
  8
LAYER_1
 10
181.899
 20
167.5261
  0
VERTEX
  8
LAYER_1
 10
181.899
 20
168.2313
  0
VERTEX
  8
LAYER_1
 10
181.9872
 20
168.3205
  0
VERTEX
  8
LAYER_1
 10
182.0764
 20
168.2313
  0
SEQEND
  0
POLYLINE
  8
LAYER_1
 40
0.05
 41
0.05
 66
1
 10
0
 20
0
 30
0
  0
VERTEX
  8
LAYER_1
 10
182.0764
 20
169.6427
  0
VERTEX
  8
LAYER_1
 10
182.0764
 20
168.9372
  0
VERTEX
  8
LAYER_1
 10
181.9872
 20
168.849
  0
VERTEX
  8
LAYER_1
 10
181.899
 20
168.9372
  0
VERTEX
  8
LAYER_1
 10
181.899
 20
169.6427
  0
VERTEX
  8
LAYER_1
 10
181.9872
 20
169.7316
  0
VERTEX
  8
LAYER_1
 10
182.0764
 20
169.6427
  0
SEQEND
  0
POLYLINE
  8
LAYER_1
 40
0.05
 41
0.05
 66
1
 10
0
 20
0
 30
0
  0
VERTEX
  8
LAYER_1
 10
182.0764
 20
171.0545
  0
VERTEX
  8
LAYER_1
 10
182.0764
 20
170.3489
  0
VERTEX
  8
LAYER_1
 10
181.9872
 20
170.2601
  0
VERTEX
  8
LAYER_1
 10
181.899
 20
170.3489
  0
VERTEX
  8
LAYER_1
 10
181.899
 20
171.0545
  0
VERTEX
  8
LAYER_1
 10
181.9872
 20
171.1423
  0
VERTEX
  8
LAYER_1
 10
182.0764
 20
171.0545
  0
SEQEND
  0
POLYLINE
  8
LAYER_1
 40
0.05
 41
0.05
 66
1
 10
0
 20
0
 30
0
  0
VERTEX
  8
LAYER_1
 10
182.0764
 20
172.4653
  0
VERTEX
  8
LAYER_1
 10
182.0764
 20
171.7601
  0
VERTEX
  8
LAYER_1
 10
181.9872
 20
171.6712
  0
VERTEX
  8
LAYER_1
 10
181.899
 20
171.7601
  0
VERTEX
  8
LAYER_1
 10
181.899
 20
172.4653
  0
VERTEX
  8
LAYER_1
 10
181.9872
 20
172.5534
  0
VERTEX
  8
LAYER_1
 10
182.0764
 20
172.4653
  0
SEQEND
  0
POLYLINE
  8
LAYER_1
 40
0.05
 41
0.05
 66
1
 10
0
 20
0
 30
0
  0
VERTEX
  8
LAYER_1
 10
182.0764
 20
173.8767
  0
VERTEX
  8
LAYER_1
 10
182.0764
 20
173.1712
  0
VERTEX
  8
LAYER_1
 10
181.9872
 20
173.0826
  0
VERTEX
  8
LAYER_1
 10
181.899
 20
173.1712
  0
VERTEX
  8
LAYER_1
 10
181.899
 20
173.8767
  0
VERTEX
  8
LAYER_1
 10
181.9872
 20
173.9649
  0
VERTEX
  8
LAYER_1
 10
182.0764
 20
173.8767
  0
SEQEND
  0
POLYLINE
  8
LAYER_1
 40
0.05
 41
0.05
 66
1
 10
0
 20
0
 30
0
  0
VERTEX
  8
LAYER_1
 10
182.0764
 20
175.2878
  0
VERTEX
  8
LAYER_1
 10
182.0764
 20
174.5823
  0
VERTEX
  8
LAYER_1
 10
181.9872
 20
174.4944
  0
VERTEX
  8
LAYER_1
 10
181.899
 20
174.5823
  0
VERTEX
  8
LAYER_1
 10
181.899
 20
175.2878
  0
VERTEX
  8
LAYER_1
 10
181.9872
 20
175.3764
  0
VERTEX
  8
LAYER_1
 10
182.0764
 20
175.2878
  0
SEQEND
  0
POLYLINE
  8
LAYER_1
 40
0.05
 41
0.05
 66
1
 10
0
 20
0
 30
0
  0
VERTEX
  8
LAYER_1
 10
182.0764
 20
176.6993
  0
VERTEX
  8
LAYER_1
 10
182.0764
 20
175.9937
  0
VERTEX
  8
LAYER_1
 10
181.9872
 20
175.9052
  0
VERTEX
  8
LAYER_1
 10
181.899
 20
175.9937
  0
VERTEX
  8
LAYER_1
 10
181.899
 20
176.6993
  0
VERTEX
  8
LAYER_1
 10
181.9872
 20
176.7875
  0
VERTEX
  8
LAYER_1
 10
182.0764
 20
176.6993
  0
SEQEND
  0
POLYLINE
  8
LAYER_1
 40
0.05
 41
0.05
 66
1
 10
0
 20
0
 30
0
  0
VERTEX
  8
LAYER_1
 10
182.0764
 20
178.1108
  0
VERTEX
  8
LAYER_1
 10
182.0764
 20
177.4048
  0
VERTEX
  8
LAYER_1
 10
181.9872
 20
177.3167
  0
VERTEX
  8
LAYER_1
 10
181.899
 20
177.4048
  0
VERTEX
  8
LAYER_1
 10
181.899
 20
178.1108
  0
VERTEX
  8
LAYER_1
 10
181.9872
 20
178.1986
  0
VERTEX
  8
LAYER_1
 10
182.0764
 20
178.1108
  0
SEQEND
  0
POLYLINE
  8
LAYER_1
 40
0.05
 41
0.05
 66
1
 10
0
 20
0
 30
0
  0
VERTEX
  8
LAYER_1
 10
182.0764
 20
179.5219
  0
VERTEX
  8
LAYER_1
 10
182.0764
 20
178.8163
  0
VERTEX
  8
LAYER_1
 10
181.9872
 20
178.7278
  0
VERTEX
  8
LAYER_1
 10
181.899
 20
178.8163
  0
VERTEX
  8
LAYER_1
 10
181.899
 20
179.5219
  0
VERTEX
  8
LAYER_1
 10
181.9872
 20
179.6101
  0
VERTEX
  8
LAYER_1
 10
182.0764
 20
179.5219
  0
SEQEND
  0
POLYLINE
  8
LAYER_1
 40
0.05
 41
0.05
 66
1
 10
0
 20
0
 30
0
  0
VERTEX
  8
LAYER_1
 10
182.0764
 20
180.933
  0
VERTEX
  8
LAYER_1
 10
182.0764
 20
180.2274
  0
VERTEX
  8
LAYER_1
 10
181.9872
 20
180.1392
  0
VERTEX
  8
LAYER_1
 10
181.899
 20
180.2274
  0
VERTEX
  8
LAYER_1
 10
181.899
 20
180.933
  0
VERTEX
  8
LAYER_1
 10
181.9872
 20
181.0215
  0
VERTEX
  8
LAYER_1
 10
182.0764
 20
180.933
  0
SEQEND
  0
POLYLINE
  8
LAYER_1
 40
0.05
 41
0.05
 66
1
 10
0
 20
0
 30
0
  0
VERTEX
  8
LAYER_1
 10
181.1521
 20
181.6433
  0
VERTEX
  8
LAYER_1
 10
181.858
 20
181.6433
  0
VERTEX
  8
LAYER_1
 10
181.9465
 20
181.5548
  0
VERTEX
  8
LAYER_1
 10
181.858
 20
181.4673
  0
VERTEX
  8
LAYER_1
 10
181.1521
 20
181.4673
  0
VERTEX
  8
LAYER_1
 10
181.0639
 20
181.5548
  0
VERTEX
  8
LAYER_1
 10
181.1521
 20
181.6433
  0
SEQEND
  0
POLYLINE
  8
LAYER_1
 40
0.05
 41
0.05
 66
1
 10
0
 20
0
 30
0
  0
VERTEX
  8
LAYER_1
 10
179.741
 20
181.6433
  0
VERTEX
  8
LAYER_1
 10
180.4465
 20
181.6433
  0
VERTEX
  8
LAYER_1
 10
180.5347
 20
181.5548
  0
VERTEX
  8
LAYER_1
 10
180.4465
 20
181.4673
  0
VERTEX
  8
LAYER_1
 10
179.741
 20
181.4673
  0
VERTEX
  8
LAYER_1
 10
179.6528
 20
181.5548
  0
VERTEX
  8
LAYER_1
 10
179.741
 20
181.6433
  0
SEQEND
  0
POLYLINE
  8
LAYER_1
 40
0.05
 41
0.05
 66
1
 10
0
 20
0
 30
0
  0
VERTEX
  8
LAYER_1
 10
178.3295
 20
181.6433
  0
VERTEX
  8
LAYER_1
 10
179.0354
 20
181.6433
  0
VERTEX
  8
LAYER_1
 10
179.1236
 20
181.5548
  0
VERTEX
  8
LAYER_1
 10
179.0354
 20
181.4673
  0
VERTEX
  8
LAYER_1
 10
178.3295
 20
181.4673
  0
VERTEX
  8
LAYER_1
 10
178.241
 20
181.5548
  0
VERTEX
  8
LAYER_1
 10
178.3295
 20
181.6433
  0
SEQEND
  0
POLYLINE
  8
LAYER_1
 40
0.05
 41
0.05
 66
1
 10
0
 20
0
 30
0
  0
VERTEX
  8
LAYER_1
 10
176.9184
 20
181.6433
  0
VERTEX
  8
LAYER_1
 10
177.6243
 20
181.6433
  0
VERTEX
  8
LAYER_1
 10
177.7122
 20
181.5548
  0
VERTEX
  8
LAYER_1
 10
177.6243
 20
181.4673
  0
VERTEX
  8
LAYER_1
 10
176.9184
 20
181.4673
  0
VERTEX
  8
LAYER_1
 10
176.8302
 20
181.5548
  0
VERTEX
  8
LAYER_1
 10
176.9184
 20
181.6433
  0
SEQEND
  0
POLYLINE
  8
LAYER_1
 40
0.05
 41
0.05
 66
1
 10
0
 20
0
 30
0
  0
VERTEX
  8
LAYER_1
 10
175.5069
 20
181.6433
  0
VERTEX
  8
LAYER_1
 10
176.2125
 20
181.6433
  0
VERTEX
  8
LAYER_1
 10
176.301
 20
181.5548
  0
VERTEX
  8
LAYER_1
 10
176.2125
 20
181.4673
  0
VERTEX
  8
LAYER_1
 10
175.5069
 20
181.4673
  0
VERTEX
  8
LAYER_1
 10
175.4191
 20
181.5548
  0
VERTEX
  8
LAYER_1
 10
175.5069
 20
181.6433
  0
SEQEND
  0
POLYLINE
  8
LAYER_1
 40
0.05
 41
0.05
 66
1
 10
0
 20
0
 30
0
  0
VERTEX
  8
LAYER_1
 10
174.0958
 20
181.6433
  0
VERTEX
  8
LAYER_1
 10
174.8014
 20
181.6433
  0
VERTEX
  8
LAYER_1
 10
174.8899
 20
181.5548
  0
VERTEX
  8
LAYER_1
 10
174.8014
 20
181.4673
  0
VERTEX
  8
LAYER_1
 10
174.0958
 20
181.4673
  0
VERTEX
  8
LAYER_1
 10
174.0073
 20
181.5548
  0
VERTEX
  8
LAYER_1
 10
174.0958
 20
181.6433
  0
SEQEND
  0
POLYLINE
  8
LAYER_1
 40
0.05
 41
0.05
 66
1
 10
0
 20
0
 30
0
  0
VERTEX
  8
LAYER_1
 10
172.6847
 20
181.6433
  0
VERTEX
  8
LAYER_1
 10
173.3899
 20
181.6433
  0
VERTEX
  8
LAYER_1
 10
173.4781
 20
181.5548
  0
VERTEX
  8
LAYER_1
 10
173.3899
 20
181.4673
  0
VERTEX
  8
LAYER_1
 10
172.6847
 20
181.4673
  0
VERTEX
  8
LAYER_1
 10
172.5962
 20
181.5548
  0
VERTEX
  8
LAYER_1
 10
172.6847
 20
181.6433
  0
SEQEND
  0
POLYLINE
  8
LAYER_1
 40
0.05
 41
0.05
 66
1
 10
0
 20
0
 30
0
  0
VERTEX
  8
LAYER_1
 10
171.2729
 20
181.6433
  0
VERTEX
  8
LAYER_1
 10
171.9788
 20
181.6433
  0
VERTEX
  8
LAYER_1
 10
172.067
 20
181.5548
  0
VERTEX
  8
LAYER_1
 10
171.9788
 20
181.4673
  0
VERTEX
  8
LAYER_1
 10
171.2729
 20
181.4673
  0
VERTEX
  8
LAYER_1
 10
171.1847
 20
181.5548
  0
VERTEX
  8
LAYER_1
 10
171.2729
 20
181.6433
  0
SEQEND
  0
POLYLINE
  8
LAYER_1
 40
0.05
 41
0.05
 66
1
 10
0
 20
0
 30
0
  0
VERTEX
  8
LAYER_1
 10
169.8618
 20
181.6433
  0
VERTEX
  8
LAYER_1
 10
170.5677
 20
181.6433
  0
VERTEX
  8
LAYER_1
 10
170.6555
 20
181.5548
  0
VERTEX
  8
LAYER_1
 10
170.5677
 20
181.4673
  0
VERTEX
  8
LAYER_1
 10
169.8618
 20
181.4673
  0
VERTEX
  8
LAYER_1
 10
169.7736
 20
181.5548
  0
VERTEX
  8
LAYER_1
 10
169.8618
 20
181.6433
  0
SEQEND
  0
POLYLINE
  8
LAYER_1
 40
0.05
 41
0.05
 66
1
 10
0
 20
0
 30
0
  0
VERTEX
  8
LAYER_1
 10
168.4504
 20
181.6433
  0
VERTEX
  8
LAYER_1
 10
169.1562
 20
181.6433
  0
VERTEX
  8
LAYER_1
 10
169.2444
 20
181.5548
  0
VERTEX
  8
LAYER_1
 10
169.1562
 20
181.4673
  0
VERTEX
  8
LAYER_1
 10
168.4504
 20
181.4673
  0
VERTEX
  8
LAYER_1
 10
168.3625
 20
181.5548
  0
VERTEX
  8
LAYER_1
 10
168.4504
 20
181.6433
  0
SEQEND
  0
POLYLINE
  8
LAYER_1
 40
0.05
 41
0.05
 66
1
 10
0
 20
0
 30
0
  0
VERTEX
  8
LAYER_1
 10
167.0393
 20
181.6433
  0
VERTEX
  8
LAYER_1
 10
167.7451
 20
181.6433
  0
VERTEX
  8
LAYER_1
 10
167.8333
 20
181.5548
  0
VERTEX
  8
LAYER_1
 10
167.7451
 20
181.4673
  0
VERTEX
  8
LAYER_1
 10
167.0393
 20
181.4673
  0
VERTEX
  8
LAYER_1
 10
166.9507
 20
181.5548
  0
VERTEX
  8
LAYER_1
 10
167.0393
 20
181.6433
  0
SEQEND
  0
POLYLINE
  8
LAYER_1
 40
0.05
 41
0.05
 66
1
 10
0
 20
0
 30
0
  0
VERTEX
  8
LAYER_1
 10
165.6281
 20
181.6433
  0
VERTEX
  8
LAYER_1
 10
166.3333
 20
181.6433
  0
VERTEX
  8
LAYER_1
 10
166.4219
 20
181.5548
  0
VERTEX
  8
LAYER_1
 10
166.3333
 20
181.4673
  0
VERTEX
  8
LAYER_1
 10
165.6281
 20
181.4673
  0
VERTEX
  8
LAYER_1
 10
165.5399
 20
181.5548
  0
VERTEX
  8
LAYER_1
 10
165.6281
 20
181.6433
  0
SEQEND
  0
POLYLINE
  8
LAYER_1
 40
0.05
 41
0.05
 66
1
 10
0
 20
0
 30
0
  0
VERTEX
  8
LAYER_1
 10
164.2167
 20
181.6433
  0
VERTEX
  8
LAYER_1
 10
164.9222
 20
181.6433
  0
VERTEX
  8
LAYER_1
 10
165.0108
 20
181.5548
  0
VERTEX
  8
LAYER_1
 10
164.9222
 20
181.4673
  0
VERTEX
  8
LAYER_1
 10
164.2167
 20
181.4673
  0
VERTEX
  8
LAYER_1
 10
164.1281
 20
181.5548
  0
VERTEX
  8
LAYER_1
 10
164.2167
 20
181.6433
  0
SEQEND
  0
POLYLINE
  8
LAYER_1
 40
0.05
 41
0.05
 66
1
 10
0
 20
0
 30
0
  0
VERTEX
  8
LAYER_1
 10
162.8056
 20
181.6433
  0
VERTEX
  8
LAYER_1
 10
163.5111
 20
181.6433
  0
VERTEX
  8
LAYER_1
 10
163.599
 20
181.5548
  0
VERTEX
  8
LAYER_1
 10
163.5111
 20
181.4673
  0
VERTEX
  8
LAYER_1
 10
162.8056
 20
181.4673
  0
VERTEX
  8
LAYER_1
 10
162.717
 20
181.5548
  0
VERTEX
  8
LAYER_1
 10
162.8056
 20
181.6433
  0
SEQEND
  0
POLYLINE
  8
LAYER_1
 40
0.05
 41
0.05
 66
1
 10
0
 20
0
 30
0
  0
VERTEX
  8
LAYER_1
 10
161.3945
 20
181.6433
  0
VERTEX
  8
LAYER_1
 10
162.0997
 20
181.6433
  0
VERTEX
  8
LAYER_1
 10
162.1879
 20
181.5548
  0
VERTEX
  8
LAYER_1
 10
162.0997
 20
181.4673
  0
VERTEX
  8
LAYER_1
 10
161.3945
 20
181.4673
  0
VERTEX
  8
LAYER_1
 10
161.3059
 20
181.5548
  0
VERTEX
  8
LAYER_1
 10
161.3945
 20
181.6433
  0
SEQEND
  0
POLYLINE
  8
LAYER_1
 40
0.05
 41
0.05
 66
1
 10
0
 20
0
 30
0
  0
VERTEX
  8
LAYER_1
 10
159.9826
 20
181.6433
  0
VERTEX
  8
LAYER_1
 10
160.6885
 20
181.6433
  0
VERTEX
  8
LAYER_1
 10
160.7767
 20
181.5548
  0
VERTEX
  8
LAYER_1
 10
160.6885
 20
181.4673
  0
VERTEX
  8
LAYER_1
 10
159.9826
 20
181.4673
  0
VERTEX
  8
LAYER_1
 10
159.8944
 20
181.5548
  0
VERTEX
  8
LAYER_1
 10
159.9826
 20
181.6433
  0
SEQEND
  0
POLYLINE
  8
LAYER_1
 40
0.05
 41
0.05
 66
1
 10
0
 20
0
 30
0
  0
VERTEX
  8
LAYER_1
 10
158.5715
 20
181.6433
  0
VERTEX
  8
LAYER_1
 10
159.2768
 20
181.6433
  0
VERTEX
  8
LAYER_1
 10
159.3653
 20
181.5548
  0
VERTEX
  8
LAYER_1
 10
159.2768
 20
181.4673
  0
VERTEX
  8
LAYER_1
 10
158.5715
 20
181.4673
  0
VERTEX
  8
LAYER_1
 10
158.4833
 20
181.5548
  0
VERTEX
  8
LAYER_1
 10
158.5715
 20
181.6433
  0
SEQEND
  0
POLYLINE
  8
LAYER_1
 40
0.05
 41
0.05
 66
1
 10
0
 20
0
 30
0
  0
VERTEX
  8
LAYER_1
 10
157.1601
 20
181.6433
  0
VERTEX
  8
LAYER_1
 10
157.866
 20
181.6433
  0
VERTEX
  8
LAYER_1
 10
157.9542
 20
181.5548
  0
VERTEX
  8
LAYER_1
 10
157.866
 20
181.4673
  0
VERTEX
  8
LAYER_1
 10
157.1601
 20
181.4673
  0
VERTEX
  8
LAYER_1
 10
157.0715
 20
181.5548
  0
VERTEX
  8
LAYER_1
 10
157.1601
 20
181.6433
  0
SEQEND
  0
POLYLINE
  8
LAYER_1
 40
0.05
 41
0.05
 66
1
 10
0
 20
0
 30
0
  0
VERTEX
  8
LAYER_1
 10
155.749
 20
181.6433
  0
VERTEX
  8
LAYER_1
 10
156.4549
 20
181.6433
  0
VERTEX
  8
LAYER_1
 10
156.5427
 20
181.5548
  0
VERTEX
  8
LAYER_1
 10
156.4549
 20
181.4673
  0
VERTEX
  8
LAYER_1
 10
155.749
 20
181.4673
  0
VERTEX
  8
LAYER_1
 10
155.6604
 20
181.5548
  0
VERTEX
  8
LAYER_1
 10
155.749
 20
181.6433
  0
SEQEND
  0
POLYLINE
  8
LAYER_1
 40
0.05
 41
0.05
 66
1
 10
0
 20
0
 30
0
  0
VERTEX
  8
LAYER_1
 10
154.3379
 20
181.6433
  0
VERTEX
  8
LAYER_1
 10
155.0431
 20
181.6433
  0
VERTEX
  8
LAYER_1
 10
155.1316
 20
181.5548
  0
VERTEX
  8
LAYER_1
 10
155.0431
 20
181.4673
  0
VERTEX
  8
LAYER_1
 10
154.3379
 20
181.4673
  0
VERTEX
  8
LAYER_1
 10
154.2493
 20
181.5548
  0
VERTEX
  8
LAYER_1
 10
154.3379
 20
181.6433
  0
SEQEND
  0
POLYLINE
  8
LAYER_1
 40
0.05
 41
0.05
 66
1
 10
0
 20
0
 30
0
  0
VERTEX
  8
LAYER_1
 10
152.9261
 20
181.6433
  0
VERTEX
  8
LAYER_1
 10
153.632
 20
181.6433
  0
VERTEX
  8
LAYER_1
 10
153.7205
 20
181.5548
  0
VERTEX
  8
LAYER_1
 10
153.632
 20
181.4673
  0
VERTEX
  8
LAYER_1
 10
152.9261
 20
181.4673
  0
VERTEX
  8
LAYER_1
 10
152.8379
 20
181.5548
  0
VERTEX
  8
LAYER_1
 10
152.9261
 20
181.6433
  0
SEQEND
  0
POLYLINE
  8
LAYER_1
 40
0.05
 41
0.05
 66
1
 10
0
 20
0
 30
0
  0
VERTEX
  8
LAYER_1
 10
151.5153
 20
181.6433
  0
VERTEX
  8
LAYER_1
 10
152.2205
 20
181.6433
  0
VERTEX
  8
LAYER_1
 10
152.3087
 20
181.5548
  0
VERTEX
  8
LAYER_1
 10
152.2205
 20
181.4673
  0
VERTEX
  8
LAYER_1
 10
151.5153
 20
181.4673
  0
VERTEX
  8
LAYER_1
 10
151.4268
 20
181.5548
  0
VERTEX
  8
LAYER_1
 10
151.5153
 20
181.6433
  0
SEQEND
  0
POLYLINE
  8
LAYER_1
 40
0.05
 41
0.05
 66
1
 10
0
 20
0
 30
0
  0
VERTEX
  8
LAYER_1
 10
150.1035
 20
181.6433
  0
VERTEX
  8
LAYER_1
 10
150.8094
 20
181.6433
  0
VERTEX
  8
LAYER_1
 10
150.8976
 20
181.5548
  0
VERTEX
  8
LAYER_1
 10
150.8094
 20
181.4673
  0
VERTEX
  8
LAYER_1
 10
150.1035
 20
181.4673
  0
VERTEX
  8
LAYER_1
 10
150.0156
 20
181.5548
  0
VERTEX
  8
LAYER_1
 10
150.1035
 20
181.6433
  0
SEQEND
  0
POLYLINE
  8
LAYER_1
 40
0.05
 41
0.05
 66
1
 10
0
 20
0
 30
0
  0
VERTEX
  8
LAYER_1
 10
148.6924
 20
181.6433
  0
VERTEX
  8
LAYER_1
 10
149.3983
 20
181.6433
  0
VERTEX
  8
LAYER_1
 10
149.4865
 20
181.5548
  0
VERTEX
  8
LAYER_1
 10
149.3983
 20
181.4673
  0
VERTEX
  8
LAYER_1
 10
148.6924
 20
181.4673
  0
VERTEX
  8
LAYER_1
 10
148.6042
 20
181.5548
  0
VERTEX
  8
LAYER_1
 10
148.6924
 20
181.6433
  0
SEQEND
  0
POLYLINE
  8
LAYER_1
 40
0.05
 41
0.05
 66
1
 10
0
 20
0
 30
0
  0
VERTEX
  8
LAYER_1
 10
147.2813
 20
181.6433
  0
VERTEX
  8
LAYER_1
 10
147.9865
 20
181.6433
  0
VERTEX
  8
LAYER_1
 10
148.075
 20
181.5548
  0
VERTEX
  8
LAYER_1
 10
147.9865
 20
181.4673
  0
VERTEX
  8
LAYER_1
 10
147.2813
 20
181.4673
  0
VERTEX
  8
LAYER_1
 10
147.1931
 20
181.5548
  0
VERTEX
  8
LAYER_1
 10
147.2813
 20
181.6433
  0
SEQEND
  0
POLYLINE
  8
LAYER_1
 40
0.05
 41
0.05
 66
1
 10
0
 20
0
 30
0
  0
VERTEX
  8
LAYER_1
 10
145.8698
 20
181.6433
  0
VERTEX
  8
LAYER_1
 10
146.5754
 20
181.6433
  0
VERTEX
  8
LAYER_1
 10
146.6639
 20
181.5548
  0
VERTEX
  8
LAYER_1
 10
146.5754
 20
181.4673
  0
VERTEX
  8
LAYER_1
 10
145.8698
 20
181.4673
  0
VERTEX
  8
LAYER_1
 10
145.7813
 20
181.5548
  0
VERTEX
  8
LAYER_1
 10
145.8698
 20
181.6433
  0
SEQEND
  0
POLYLINE
  8
LAYER_1
 40
0.05
 41
0.05
 66
1
 10
0
 20
0
 30
0
  0
VERTEX
  8
LAYER_1
 10
144.4587
 20
181.6433
  0
VERTEX
  8
LAYER_1
 10
145.1646
 20
181.6433
  0
VERTEX
  8
LAYER_1
 10
145.2521
 20
181.5548
  0
VERTEX
  8
LAYER_1
 10
145.1646
 20
181.4673
  0
VERTEX
  8
LAYER_1
 10
144.4587
 20
181.4673
  0
VERTEX
  8
LAYER_1
 10
144.3702
 20
181.5548
  0
VERTEX
  8
LAYER_1
 10
144.4587
 20
181.6433
  0
SEQEND
  0
POLYLINE
  8
LAYER_1
 40
0.05
 41
0.05
 66
1
 10
0
 20
0
 30
0
  0
VERTEX
  8
LAYER_1
 10
143.0469
 20
181.6433
  0
VERTEX
  8
LAYER_1
 10
143.7528
 20
181.6433
  0
VERTEX
  8
LAYER_1
 10
143.8414
 20
181.5548
  0
VERTEX
  8
LAYER_1
 10
143.7528
 20
181.4673
  0
VERTEX
  8
LAYER_1
 10
143.0469
 20
181.4673
  0
VERTEX
  8
LAYER_1
 10
142.9591
 20
181.5548
  0
VERTEX
  8
LAYER_1
 10
143.0469
 20
181.6433
  0
SEQEND
  0
POLYLINE
  8
LAYER_1
 40
0.05
 41
0.05
 66
1
 10
0
 20
0
 30
0
  0
VERTEX
  8
LAYER_1
 10
141.6358
 20
181.6433
  0
VERTEX
  8
LAYER_1
 10
142.3417
 20
181.6433
  0
VERTEX
  8
LAYER_1
 10
142.4302
 20
181.5548
  0
VERTEX
  8
LAYER_1
 10
142.3417
 20
181.4673
  0
VERTEX
  8
LAYER_1
 10
141.6358
 20
181.4673
  0
VERTEX
  8
LAYER_1
 10
141.5476
 20
181.5548
  0
VERTEX
  8
LAYER_1
 10
141.6358
 20
181.6433
  0
SEQEND
  0
POLYLINE
  8
LAYER_1
 40
0.05
 41
0.05
 66
1
 10
0
 20
0
 30
0
  0
VERTEX
  8
LAYER_1
 10
140.2247
 20
181.6433
  0
VERTEX
  8
LAYER_1
 10
140.9302
 20
181.6433
  0
VERTEX
  8
LAYER_1
 10
141.0184
 20
181.5548
  0
VERTEX
  8
LAYER_1
 10
140.9302
 20
181.4673
  0
VERTEX
  8
LAYER_1
 10
140.2247
 20
181.4673
  0
VERTEX
  8
LAYER_1
 10
140.1365
 20
181.5548
  0
VERTEX
  8
LAYER_1
 10
140.2247
 20
181.6433
  0
SEQEND
  0
POLYLINE
  8
LAYER_1
 40
0.05
 41
0.05
 66
1
 10
0
 20
0
 30
0
  0
VERTEX
  8
LAYER_1
 10
138.8139
 20
181.6433
  0
VERTEX
  8
LAYER_1
 10
139.5191
 20
181.6433
  0
VERTEX
  8
LAYER_1
 10
139.6073
 20
181.5548
  0
VERTEX
  8
LAYER_1
 10
139.5191
 20
181.4673
  0
VERTEX
  8
LAYER_1
 10
138.8139
 20
181.4673
  0
VERTEX
  8
LAYER_1
 10
138.725
 20
181.5548
  0
VERTEX
  8
LAYER_1
 10
138.8139
 20
181.6433
  0
SEQEND
  0
POLYLINE
  8
LAYER_1
 40
0.05
 41
0.05
 66
1
 10
0
 20
0
 30
0
  0
VERTEX
  8
LAYER_1
 10
137.4021
 20
181.6433
  0
VERTEX
  8
LAYER_1
 10
138.108
 20
181.6433
  0
VERTEX
  8
LAYER_1
 10
138.1959
 20
181.5548
  0
VERTEX
  8
LAYER_1
 10
138.108
 20
181.4673
  0
VERTEX
  8
LAYER_1
 10
137.4021
 20
181.4673
  0
VERTEX
  8
LAYER_1
 10
137.3139
 20
181.5548
  0
VERTEX
  8
LAYER_1
 10
137.4021
 20
181.6433
  0
SEQEND
  0
POLYLINE
  8
LAYER_1
 40
0.05
 41
0.05
 66
1
 10
0
 20
0
 30
0
  0
VERTEX
  8
LAYER_1
 10
135.9907
 20
181.6433
  0
VERTEX
  8
LAYER_1
 10
136.6962
 20
181.6433
  0
VERTEX
  8
LAYER_1
 10
136.7847
 20
181.5548
  0
VERTEX
  8
LAYER_1
 10
136.6962
 20
181.4673
  0
VERTEX
  8
LAYER_1
 10
135.9907
 20
181.4673
  0
VERTEX
  8
LAYER_1
 10
135.9028
 20
181.5548
  0
VERTEX
  8
LAYER_1
 10
135.9907
 20
181.6433
  0
SEQEND
  0
POLYLINE
  8
LAYER_1
 40
0.05
 41
0.05
 66
1
 10
0
 20
0
 30
0
  0
VERTEX
  8
LAYER_1
 10
134.5796
 20
181.6433
  0
VERTEX
  8
LAYER_1
 10
135.2851
 20
181.6433
  0
VERTEX
  8
LAYER_1
 10
135.3736
 20
181.5548
  0
VERTEX
  8
LAYER_1
 10
135.2851
 20
181.4673
  0
VERTEX
  8
LAYER_1
 10
134.5796
 20
181.4673
  0
VERTEX
  8
LAYER_1
 10
134.491
 20
181.5548
  0
VERTEX
  8
LAYER_1
 10
134.5796
 20
181.6433
  0
SEQEND
  0
POLYLINE
  8
LAYER_1
 40
0.05
 41
0.05
 66
1
 10
0
 20
0
 30
0
  0
VERTEX
  8
LAYER_1
 10
133.1685
 20
181.6433
  0
VERTEX
  8
LAYER_1
 10
133.8737
 20
181.6433
  0
VERTEX
  8
LAYER_1
 10
133.9619
 20
181.5548
  0
VERTEX
  8
LAYER_1
 10
133.8737
 20
181.4673
  0
VERTEX
  8
LAYER_1
 10
133.1685
 20
181.4673
  0
VERTEX
  8
LAYER_1
 10
133.0799
 20
181.5548
  0
VERTEX
  8
LAYER_1
 10
133.1685
 20
181.6433
  0
SEQEND
  0
POLYLINE
  8
LAYER_1
 40
0.05
 41
0.05
 66
1
 10
0
 20
0
 30
0
  0
VERTEX
  8
LAYER_1
 10
131.7566
 20
181.6433
  0
VERTEX
  8
LAYER_1
 10
132.4625
 20
181.6433
  0
VERTEX
  8
LAYER_1
 10
132.5507
 20
181.5548
  0
VERTEX
  8
LAYER_1
 10
132.4625
 20
181.4673
  0
VERTEX
  8
LAYER_1
 10
131.7566
 20
181.4673
  0
VERTEX
  8
LAYER_1
 10
131.6684
 20
181.5548
  0
VERTEX
  8
LAYER_1
 10
131.7566
 20
181.6433
  0
SEQEND
  0
POLYLINE
  8
LAYER_1
 40
0.05
 41
0.05
 66
1
 10
0
 20
0
 30
0
  0
VERTEX
  8
LAYER_1
 10
130.3455
 20
181.6433
  0
VERTEX
  8
LAYER_1
 10
131.0514
 20
181.6433
  0
VERTEX
  8
LAYER_1
 10
131.1393
 20
181.5548
  0
VERTEX
  8
LAYER_1
 10
131.0514
 20
181.4673
  0
VERTEX
  8
LAYER_1
 10
130.3455
 20
181.4673
  0
VERTEX
  8
LAYER_1
 10
130.2573
 20
181.5548
  0
VERTEX
  8
LAYER_1
 10
130.3455
 20
181.6433
  0
SEQEND
  0
POLYLINE
  8
LAYER_1
 40
0.05
 41
0.05
 66
1
 10
0
 20
0
 30
0
  0
VERTEX
  8
LAYER_1
 10
128.9341
 20
181.6433
  0
VERTEX
  8
LAYER_1
 10
129.64
 20
181.6433
  0
VERTEX
  8
LAYER_1
 10
129.7282
 20
181.5548
  0
VERTEX
  8
LAYER_1
 10
129.64
 20
181.4673
  0
VERTEX
  8
LAYER_1
 10
128.9341
 20
181.4673
  0
VERTEX
  8
LAYER_1
 10
128.8462
 20
181.5548
  0
VERTEX
  8
LAYER_1
 10
128.9341
 20
181.6433
  0
SEQEND
  0
POLYLINE
  8
LAYER_1
 40
0.05
 41
0.05
 66
1
 10
0
 20
0
 30
0
  0
VERTEX
  8
LAYER_1
 10
127.523
 20
181.6433
  0
VERTEX
  8
LAYER_1
 10
128.2289
 20
181.6433
  0
VERTEX
  8
LAYER_1
 10
128.3171
 20
181.5548
  0
VERTEX
  8
LAYER_1
 10
128.2289
 20
181.4673
  0
VERTEX
  8
LAYER_1
 10
127.523
 20
181.4673
  0
VERTEX
  8
LAYER_1
 10
127.4344
 20
181.5548
  0
VERTEX
  8
LAYER_1
 10
127.523
 20
181.6433
  0
SEQEND
  0
POLYLINE
  8
LAYER_1
 40
0.05
 41
0.05
 66
1
 10
0
 20
0
 30
0
  0
VERTEX
  8
LAYER_1
 10
126.1118
 20
181.6433
  0
VERTEX
  8
LAYER_1
 10
126.817
 20
181.6433
  0
VERTEX
  8
LAYER_1
 10
126.9056
 20
181.5548
  0
VERTEX
  8
LAYER_1
 10
126.817
 20
181.4673
  0
VERTEX
  8
LAYER_1
 10
126.1118
 20
181.4673
  0
VERTEX
  8
LAYER_1
 10
126.0236
 20
181.5548
  0
VERTEX
  8
LAYER_1
 10
126.1118
 20
181.6433
  0
SEQEND
  0
POLYLINE
  8
LAYER_1
 40
0.05
 41
0.05
 66
1
 10
0
 20
0
 30
0
  0
VERTEX
  8
LAYER_1
 10
124.7004
 20
181.6433
  0
VERTEX
  8
LAYER_1
 10
125.4059
 20
181.6433
  0
VERTEX
  8
LAYER_1
 10
125.4945
 20
181.5548
  0
VERTEX
  8
LAYER_1
 10
125.4059
 20
181.4673
  0
VERTEX
  8
LAYER_1
 10
124.7004
 20
181.4673
  0
VERTEX
  8
LAYER_1
 10
124.6119
 20
181.5548
  0
VERTEX
  8
LAYER_1
 10
124.7004
 20
181.6433
  0
SEQEND
  0
POLYLINE
  8
LAYER_1
 40
0.05
 41
0.05
 66
1
 10
0
 20
0
 30
0
  0
VERTEX
  8
LAYER_1
 10
123.2893
 20
181.6433
  0
VERTEX
  8
LAYER_1
 10
123.9948
 20
181.6433
  0
VERTEX
  8
LAYER_1
 10
124.0827
 20
181.5548
  0
VERTEX
  8
LAYER_1
 10
123.9948
 20
181.4673
  0
VERTEX
  8
LAYER_1
 10
123.2893
 20
181.4673
  0
VERTEX
  8
LAYER_1
 10
123.2008
 20
181.5548
  0
VERTEX
  8
LAYER_1
 10
123.2893
 20
181.6433
  0
SEQEND
  0
POLYLINE
  8
LAYER_1
 40
0.05
 41
0.05
 66
1
 10
0
 20
0
 30
0
  0
VERTEX
  8
LAYER_1
 10
121.8995
 20
181.3988
  0
VERTEX
  8
LAYER_1
 10
121.8995
 20
181.4601
 42
-0.4054302795
  0
VERTEX
  8
LAYER_1
 10
122.1124
 20
181.6433
  0
VERTEX
  8
LAYER_1
 10
122.5834
 20
181.6433
  0
VERTEX
  8
LAYER_1
 10
122.6716
 20
181.5548
  0
VERTEX
  8
LAYER_1
 10
122.5834
 20
181.4673
  0
VERTEX
  8
LAYER_1
 10
122.1124
 20
181.4673
  0
VERTEX
  8
LAYER_1
 10
122.078
 20
181.4573
  0
VERTEX
  8
LAYER_1
 10
122.0752
 20
181.4552
  0
VERTEX
  8
LAYER_1
 10
122.0656
 20
181.4601
  0
VERTEX
  8
LAYER_1
 10
122.0759
 20
181.4601
  0
VERTEX
  8
LAYER_1
 10
122.0752
 20
181.4552
  0
VERTEX
  8
LAYER_1
 10
122.0656
 20
181.4601
  0
VERTEX
  8
LAYER_1
 10
122.0759
 20
181.4601
  0
VERTEX
  8
LAYER_1
 10
122.0759
 20
181.3988
  0
VERTEX
  8
LAYER_1
 10
121.9874
 20
181.3106
  0
VERTEX
  8
LAYER_1
 10
121.8995
 20
181.3988
  0
SEQEND
  0
POLYLINE
  8
LAYER_1
 40
0.05
 41
0.05
 66
1
 10
0
 20
0
 30
0
  0
VERTEX
  8
LAYER_1
 10
121.8995
 20
179.9876
  0
VERTEX
  8
LAYER_1
 10
121.8995
 20
180.6932
  0
VERTEX
  8
LAYER_1
 10
121.9874
 20
180.7814
  0
VERTEX
  8
LAYER_1
 10
122.0759
 20
180.6932
  0
VERTEX
  8
LAYER_1
 10
122.0759
 20
179.9876
  0
VERTEX
  8
LAYER_1
 10
121.9874
 20
179.8991
  0
VERTEX
  8
LAYER_1
 10
121.8995
 20
179.9876
  0
SEQEND
  0
POLYLINE
  8
LAYER_1
 40
0.05
 41
0.05
 66
1
 10
0
 20
0
 30
0
  0
VERTEX
  8
LAYER_1
 10
121.8995
 20
178.5762
  0
VERTEX
  8
LAYER_1
 10
121.8995
 20
179.2821
  0
VERTEX
  8
LAYER_1
 10
121.9874
 20
179.3699
  0
VERTEX
  8
LAYER_1
 10
122.0759
 20
179.2821
  0
VERTEX
  8
LAYER_1
 10
122.0759
 20
178.5762
  0
VERTEX
  8
LAYER_1
 10
121.9874
 20
178.4887
  0
VERTEX
  8
LAYER_1
 10
121.8995
 20
178.5762
  0
SEQEND
  0
POLYLINE
  8
LAYER_1
 40
0.05
 41
0.05
 66
1
 10
0
 20
0
 30
0
  0
VERTEX
  8
LAYER_1
 10
121.8995
 20
177.1647
  0
VERTEX
  8
LAYER_1
 10
121.8995
 20
177.8706
  0
VERTEX
  8
LAYER_1
 10
121.9874
 20
177.9588
  0
VERTEX
  8
LAYER_1
 10
122.0759
 20
177.8706
  0
VERTEX
  8
LAYER_1
 10
122.0759
 20
177.1647
  0
VERTEX
  8
LAYER_1
 10
121.9874
 20
177.0772
  0
VERTEX
  8
LAYER_1
 10
121.8995
 20
177.1647
  0
SEQEND
  0
POLYLINE
  8
LAYER_1
 40
0.05
 41
0.05
 66
1
 10
0
 20
0
 30
0
  0
VERTEX
  8
LAYER_1
 10
121.8995
 20
175.7536
  0
VERTEX
  8
LAYER_1
 10
121.8995
 20
176.4592
  0
VERTEX
  8
LAYER_1
 10
121.9874
 20
176.5477
  0
VERTEX
  8
LAYER_1
 10
122.0759
 20
176.4592
  0
VERTEX
  8
LAYER_1
 10
122.0759
 20
175.7536
  0
VERTEX
  8
LAYER_1
 10
121.9874
 20
175.6658
  0
VERTEX
  8
LAYER_1
 10
121.8995
 20
175.7536
  0
SEQEND
  0
POLYLINE
  8
LAYER_1
 40
0.05
 41
0.05
 66
1
 10
0
 20
0
 30
0
  0
VERTEX
  8
LAYER_1
 10
121.8995
 20
174.3428
  0
VERTEX
  8
LAYER_1
 10
121.8995
 20
175.0484
  0
VERTEX
  8
LAYER_1
 10
121.9874
 20
175.1362
  0
VERTEX
  8
LAYER_1
 10
122.0759
 20
175.0484
  0
VERTEX
  8
LAYER_1
 10
122.0759
 20
174.3428
  0
VERTEX
  8
LAYER_1
 10
121.9874
 20
174.2546
  0
VERTEX
  8
LAYER_1
 10
121.8995
 20
174.3428
  0
SEQEND
  0
POLYLINE
  8
LAYER_1
 40
0.05
 41
0.05
 66
1
 10
0
 20
0
 30
0
  0
VERTEX
  8
LAYER_1
 10
121.8995
 20
172.9314
  0
VERTEX
  8
LAYER_1
 10
121.8995
 20
173.6369
  0
VERTEX
  8
LAYER_1
 10
121.9874
 20
173.7248
  0
VERTEX
  8
LAYER_1
 10
122.0759
 20
173.6369
  0
VERTEX
  8
LAYER_1
 10
122.0759
 20
172.9314
  0
VERTEX
  8
LAYER_1
 10
121.9874
 20
172.8432
  0
VERTEX
  8
LAYER_1
 10
121.8995
 20
172.9314
  0
SEQEND
  0
POLYLINE
  8
LAYER_1
 40
0.05
 41
0.05
 66
1
 10
0
 20
0
 30
0
  0
VERTEX
  8
LAYER_1
 10
121.8995
 20
171.5203
  0
VERTEX
  8
LAYER_1
 10
121.8995
 20
172.2258
  0
VERTEX
  8
LAYER_1
 10
121.9874
 20
172.314
  0
VERTEX
  8
LAYER_1
 10
122.0759
 20
172.2258
  0
VERTEX
  8
LAYER_1
 10
122.0759
 20
171.5203
  0
VERTEX
  8
LAYER_1
 10
121.9874
 20
171.4321
  0
VERTEX
  8
LAYER_1
 10
121.8995
 20
171.5203
  0
SEQEND
  0
POLYLINE
  8
LAYER_1
 40
0.05
 41
0.05
 66
1
 10
0
 20
0
 30
0
  0
VERTEX
  8
LAYER_1
 10
121.8995
 20
170.1092
  0
VERTEX
  8
LAYER_1
 10
121.8995
 20
170.8147
  0
VERTEX
  8
LAYER_1
 10
121.9874
 20
170.9029
  0
VERTEX
  8
LAYER_1
 10
122.0759
 20
170.8147
  0
VERTEX
  8
LAYER_1
 10
122.0759
 20
170.1092
  0
VERTEX
  8
LAYER_1
 10
121.9874
 20
170.0203
  0
VERTEX
  8
LAYER_1
 10
121.8995
 20
170.1092
  0
SEQEND
  0
POLYLINE
  8
LAYER_1
 40
0.05
 41
0.05
 66
1
 10
0
 20
0
 30
0
  0
VERTEX
  8
LAYER_1
 10
121.8995
 20
168.6977
  0
VERTEX
  8
LAYER_1
 10
121.8995
 20
169.4032
  0
VERTEX
  8
LAYER_1
 10
121.9874
 20
169.4918
  0
VERTEX
  8
LAYER_1
 10
122.0759
 20
169.4032
  0
VERTEX
  8
LAYER_1
 10
122.0759
 20
168.6977
  0
VERTEX
  8
LAYER_1
 10
121.9874
 20
168.6088
  0
VERTEX
  8
LAYER_1
 10
121.8995
 20
168.6977
  0
SEQEND
  0
POLYLINE
  8
LAYER_1
 40
0.05
 41
0.05
 66
1
 10
0
 20
0
 30
0
  0
VERTEX
  8
LAYER_1
 10
121.8995
 20
167.2859
  0
VERTEX
  8
LAYER_1
 10
121.8995
 20
167.9918
  0
VERTEX
  8
LAYER_1
 10
121.9874
 20
168.0803
  0
VERTEX
  8
LAYER_1
 10
122.0759
 20
167.9918
  0
VERTEX
  8
LAYER_1
 10
122.0759
 20
167.2859
  0
VERTEX
  8
LAYER_1
 10
121.9874
 20
167.1974
  0
VERTEX
  8
LAYER_1
 10
121.8995
 20
167.2859
  0
SEQEND
  0
POLYLINE
  8
LAYER_1
 40
0.05
 41
0.05
 66
1
 10
0
 20
0
 30
0
  0
VERTEX
  8
LAYER_1
 10
121.8995
 20
165.8744
  0
VERTEX
  8
LAYER_1
 10
121.8995
 20
166.58
  0
VERTEX
  8
LAYER_1
 10
121.9874
 20
166.6689
  0
VERTEX
  8
LAYER_1
 10
122.0759
 20
166.58
  0
VERTEX
  8
LAYER_1
 10
122.0759
 20
165.8744
  0
VERTEX
  8
LAYER_1
 10
121.9874
 20
165.7863
  0
VERTEX
  8
LAYER_1
 10
121.8995
 20
165.8744
  0
SEQEND
  0
POLYLINE
  8
LAYER_1
 40
0.05
 41
0.05
 66
1
 10
0
 20
0
 30
0
  0
VERTEX
  8
LAYER_1
 10
121.8995
 20
164.463
  0
VERTEX
  8
LAYER_1
 10
121.8995
 20
165.1689
  0
VERTEX
  8
LAYER_1
 10
121.9874
 20
165.2571
  0
VERTEX
  8
LAYER_1
 10
122.0759
 20
165.1689
  0
VERTEX
  8
LAYER_1
 10
122.0759
 20
164.463
  0
VERTEX
  8
LAYER_1
 10
121.9874
 20
164.3751
  0
VERTEX
  8
LAYER_1
 10
121.8995
 20
164.463
  0
SEQEND
  0
POLYLINE
  8
LAYER_1
 40
0.05
 41
0.05
 66
1
 10
0
 20
0
 30
0
  0
VERTEX
  8
LAYER_1
 10
121.8995
 20
163.0519
  0
VERTEX
  8
LAYER_1
 10
121.8995
 20
163.7574
  0
VERTEX
  8
LAYER_1
 10
121.9874
 20
163.846
  0
VERTEX
  8
LAYER_1
 10
122.0759
 20
163.7574
  0
VERTEX
  8
LAYER_1
 10
122.0759
 20
163.0519
  0
VERTEX
  8
LAYER_1
 10
121.9874
 20
162.9637
  0
VERTEX
  8
LAYER_1
 10
121.8995
 20
163.0519
  0
SEQEND
  0
POLYLINE
  8
LAYER_1
 40
0.05
 41
0.05
 66
1
 10
0
 20
0
 30
0
  0
VERTEX
  8
LAYER_1
 10
121.8995
 20
161.6408
  0
VERTEX
  8
LAYER_1
 10
121.8995
 20
162.3463
  0
VERTEX
  8
LAYER_1
 10
121.9874
 20
162.4345
  0
VERTEX
  8
LAYER_1
 10
122.0759
 20
162.3463
  0
VERTEX
  8
LAYER_1
 10
122.0759
 20
161.6408
  0
VERTEX
  8
LAYER_1
 10
121.9874
 20
161.5523
  0
VERTEX
  8
LAYER_1
 10
121.8995
 20
161.6408
  0
SEQEND
  0
POLYLINE
  8
LAYER_1
 40
0.05
 41
0.05
 66
1
 10
0
 20
0
 30
0
  0
VERTEX
  8
LAYER_1
 10
121.8995
 20
160.2293
  0
VERTEX
  8
LAYER_1
 10
121.8995
 20
160.9349
  0
VERTEX
  8
LAYER_1
 10
121.9874
 20
161.0234
  0
VERTEX
  8
LAYER_1
 10
122.0759
 20
160.9349
  0
VERTEX
  8
LAYER_1
 10
122.0759
 20
160.2293
  0
VERTEX
  8
LAYER_1
 10
121.9874
 20
160.1411
  0
VERTEX
  8
LAYER_1
 10
121.8995
 20
160.2293
  0
SEQEND
  0
POLYLINE
  8
LAYER_1
 40
0.05
 41
0.05
 66
1
 10
0
 20
0
 30
0
  0
VERTEX
  8
LAYER_1
 10
121.8995
 20
158.8182
  0
VERTEX
  8
LAYER_1
 10
121.8995
 20
159.5234
  0
VERTEX
  8
LAYER_1
 10
121.9874
 20
159.612
  0
VERTEX
  8
LAYER_1
 10
122.0759
 20
159.5234
  0
VERTEX
  8
LAYER_1
 10
122.0759
 20
158.8182
  0
VERTEX
  8
LAYER_1
 10
121.9874
 20
158.73
  0
VERTEX
  8
LAYER_1
 10
121.8995
 20
158.8182
  0
SEQEND
  0
POLYLINE
  8
LAYER_1
 40
0.05
 41
0.05
 66
1
 10
0
 20
0
 30
0
  0
VERTEX
  8
LAYER_1
 10
121.8995
 20
157.4068
  0
VERTEX
  8
LAYER_1
 10
121.8995
 20
158.1123
  0
VERTEX
  8
LAYER_1
 10
121.9874
 20
158.2009
  0
VERTEX
  8
LAYER_1
 10
122.0759
 20
158.1123
  0
VERTEX
  8
LAYER_1
 10
122.0759
 20
157.4068
  0
VERTEX
  8
LAYER_1
 10
121.9874
 20
157.3182
  0
VERTEX
  8
LAYER_1
 10
121.8995
 20
157.4068
  0
SEQEND
  0
POLYLINE
  8
LAYER_1
 40
0.05
 41
0.05
 66
1
 10
0
 20
0
 30
0
  0
VERTEX
  8
LAYER_1
 10
121.8995
 20
155.9956
  0
VERTEX
  8
LAYER_1
 10
121.8995
 20
156.7009
  0
VERTEX
  8
LAYER_1
 10
121.9874
 20
156.789
  0
VERTEX
  8
LAYER_1
 10
122.0759
 20
156.7009
  0
VERTEX
  8
LAYER_1
 10
122.0759
 20
155.9956
  0
VERTEX
  8
LAYER_1
 10
121.9874
 20
155.9078
  0
VERTEX
  8
LAYER_1
 10
121.8995
 20
155.9956
  0
SEQEND
  0
POLYLINE
  8
LAYER_1
 40
0.05
 41
0.05
 66
1
 10
0
 20
0
 30
0
  0
VERTEX
  8
LAYER_1
 10
121.8995
 20
154.5838
  0
VERTEX
  8
LAYER_1
 10
121.8995
 20
155.2897
  0
VERTEX
  8
LAYER_1
 10
121.9874
 20
155.3779
  0
VERTEX
  8
LAYER_1
 10
122.0759
 20
155.2897
  0
VERTEX
  8
LAYER_1
 10
122.0759
 20
154.5838
  0
VERTEX
  8
LAYER_1
 10
121.9874
 20
154.4967
  0
VERTEX
  8
LAYER_1
 10
121.8995
 20
154.5838
  0
SEQEND
  0
POLYLINE
  8
LAYER_1
 40
0.05
 41
0.05
 66
1
 10
0
 20
0
 30
0
  0
VERTEX
  8
LAYER_1
 10
121.8995
 20
153.1734
  0
VERTEX
  8
LAYER_1
 10
121.8995
 20
153.8793
  0
VERTEX
  8
LAYER_1
 10
121.9874
 20
153.9672
  0
VERTEX
  8
LAYER_1
 10
122.0759
 20
153.8793
  0
VERTEX
  8
LAYER_1
 10
122.0759
 20
153.1734
  0
VERTEX
  8
LAYER_1
 10
121.9874
 20
153.0849
  0
VERTEX
  8
LAYER_1
 10
121.8995
 20
153.1734
  0
SEQEND
  0
POLYLINE
  8
LAYER_1
 40
0.05
 41
0.05
 66
1
 10
0
 20
0
 30
0
  0
VERTEX
  8
LAYER_1
 10
121.8995
 20
151.7623
  0
VERTEX
  8
LAYER_1
 10
121.8995
 20
152.4675
  0
VERTEX
  8
LAYER_1
 10
121.9874
 20
152.5554
  0
VERTEX
  8
LAYER_1
 10
122.0759
 20
152.4675
  0
VERTEX
  8
LAYER_1
 10
122.0759
 20
151.7623
  0
VERTEX
  8
LAYER_1
 10
121.9874
 20
151.6738
  0
VERTEX
  8
LAYER_1
 10
121.8995
 20
151.7623
  0
SEQEND
  0
POLYLINE
  8
LAYER_1
 40
0.05
 41
0.05
 66
1
 10
0
 20
0
 30
0
  0
VERTEX
  8
LAYER_1
 10
121.8995
 20
150.3505
  0
VERTEX
  8
LAYER_1
 10
121.8995
 20
151.0564
  0
VERTEX
  8
LAYER_1
 10
121.9874
 20
151.145
  0
VERTEX
  8
LAYER_1
 10
122.0759
 20
151.0564
  0
VERTEX
  8
LAYER_1
 10
122.0759
 20
150.3505
  0
VERTEX
  8
LAYER_1
 10
121.9874
 20
150.2623
  0
VERTEX
  8
LAYER_1
 10
121.8995
 20
150.3505
  0
SEQEND
  0
POLYLINE
  8
LAYER_1
 40
0.05
 41
0.05
 66
1
 10
0
 20
0
 30
0
  0
VERTEX
  8
LAYER_1
 10
121.8995
 20
148.9397
  0
VERTEX
  8
LAYER_1
 10
121.8995
 20
149.6453
  0
VERTEX
  8
LAYER_1
 10
121.9874
 20
149.7331
  0
VERTEX
  8
LAYER_1
 10
122.0759
 20
149.6453
  0
VERTEX
  8
LAYER_1
 10
122.0759
 20
148.9397
  0
VERTEX
  8
LAYER_1
 10
121.9874
 20
148.8512
  0
VERTEX
  8
LAYER_1
 10
121.8995
 20
148.9397
  0
SEQEND
  0
POLYLINE
  8
LAYER_1
 40
0.05
 41
0.05
 66
1
 10
0
 20
0
 30
0
  0
VERTEX
  8
LAYER_1
 10
121.8995
 20
147.5286
  0
VERTEX
  8
LAYER_1
 10
121.8995
 20
148.2338
  0
VERTEX
  8
LAYER_1
 10
121.9874
 20
148.322
  0
VERTEX
  8
LAYER_1
 10
122.0759
 20
148.2338
  0
VERTEX
  8
LAYER_1
 10
122.0759
 20
147.5286
  0
VERTEX
  8
LAYER_1
 10
121.9874
 20
147.4401
  0
VERTEX
  8
LAYER_1
 10
121.8995
 20
147.5286
  0
SEQEND
  0
POLYLINE
  8
LAYER_1
 40
0.05
 41
0.05
 66
1
 10
0
 20
0
 30
0
  0
VERTEX
  8
LAYER_1
 10
121.8995
 20
146.1168
  0
VERTEX
  8
LAYER_1
 10
121.8995
 20
146.8227
  0
VERTEX
  8
LAYER_1
 10
121.9874
 20
146.9109
  0
VERTEX
  8
LAYER_1
 10
122.0759
 20
146.8227
  0
VERTEX
  8
LAYER_1
 10
122.0759
 20
146.1168
  0
VERTEX
  8
LAYER_1
 10
121.9874
 20
146.0279
  0
VERTEX
  8
LAYER_1
 10
121.8995
 20
146.1168
  0
SEQEND
  0
POLYLINE
  8
LAYER_1
 40
0.05
 41
0.05
 66
1
 10
0
 20
0
 30
0
  0
VERTEX
  8
LAYER_1
 10
121.8995
 20
144.7057
  0
VERTEX
  8
LAYER_1
 10
121.8995
 20
145.4109
  0
VERTEX
  8
LAYER_1
 10
121.9874
 20
145.4995
  0
VERTEX
  8
LAYER_1
 10
122.0759
 20
145.4109
  0
VERTEX
  8
LAYER_1
 10
122.0759
 20
144.7057
  0
VERTEX
  8
LAYER_1
 10
121.9874
 20
144.6168
  0
VERTEX
  8
LAYER_1
 10
121.8995
 20
144.7057
  0
SEQEND
  0
POLYLINE
  8
LAYER_1
 40
0.05
 41
0.05
 66
1
 10
0
 20
0
 30
0
  0
VERTEX
  8
LAYER_1
 10
121.8995
 20
143.2936
  0
VERTEX
  8
LAYER_1
 10
121.8995
 20
143.9995
  0
VERTEX
  8
LAYER_1
 10
121.9874
 20
144.0884
  0
VERTEX
  8
LAYER_1
 10
122.0759
 20
143.9995
  0
VERTEX
  8
LAYER_1
 10
122.0759
 20
143.2936
  0
VERTEX
  8
LAYER_1
 10
121.9874
 20
143.2054
  0
VERTEX
  8
LAYER_1
 10
121.8995
 20
143.2936
  0
SEQEND
  0
POLYLINE
  8
LAYER_1
 40
0.05
 41
0.05
 66
1
 10
0
 20
0
 30
0
  0
VERTEX
  8
LAYER_1
 10
121.8995
 20
141.8825
  0
VERTEX
  8
LAYER_1
 10
121.8995
 20
142.5884
  0
VERTEX
  8
LAYER_1
 10
121.9874
 20
142.6769
  0
VERTEX
  8
LAYER_1
 10
122.0759
 20
142.5884
  0
VERTEX
  8
LAYER_1
 10
122.0759
 20
141.8825
  0
VERTEX
  8
LAYER_1
 10
121.9874
 20
141.7943
  0
VERTEX
  8
LAYER_1
 10
121.8995
 20
141.8825
  0
SEQEND
  0
POLYLINE
  8
LAYER_1
 40
0.05
 41
0.05
 66
1
 10
0
 20
0
 30
0
  0
VERTEX
  8
LAYER_1
 10
121.8995
 20
140.4713
  0
VERTEX
  8
LAYER_1
 10
121.8995
 20
141.1769
  0
VERTEX
  8
LAYER_1
 10
121.9874
 20
141.2651
  0
VERTEX
  8
LAYER_1
 10
122.0759
 20
141.1769
  0
VERTEX
  8
LAYER_1
 10
122.0759
 20
140.4713
  0
VERTEX
  8
LAYER_1
 10
121.9874
 20
140.3832
  0
VERTEX
  8
LAYER_1
 10
121.8995
 20
140.4713
  0
SEQEND
  0
POLYLINE
  8
LAYER_1
 40
0.05
 41
0.05
 66
1
 10
0
 20
0
 30
0
  0
VERTEX
  8
LAYER_1
 10
121.8995
 20
139.0599
  0
VERTEX
  8
LAYER_1
 10
121.8995
 20
139.7658
  0
VERTEX
  8
LAYER_1
 10
121.9874
 20
139.854
  0
VERTEX
  8
LAYER_1
 10
122.0759
 20
139.7658
  0
VERTEX
  8
LAYER_1
 10
122.0759
 20
139.0599
  0
VERTEX
  8
LAYER_1
 10
121.9874
 20
138.9714
  0
VERTEX
  8
LAYER_1
 10
121.8995
 20
139.0599
  0
SEQEND
  0
POLYLINE
  8
LAYER_1
 40
0.05
 41
0.05
 66
1
 10
0
 20
0
 30
0
  0
VERTEX
  8
LAYER_1
 10
121.8995
 20
137.6488
  0
VERTEX
  8
LAYER_1
 10
121.8995
 20
138.354
  0
VERTEX
  8
LAYER_1
 10
121.9874
 20
138.4425
  0
VERTEX
  8
LAYER_1
 10
122.0759
 20
138.354
  0
VERTEX
  8
LAYER_1
 10
122.0759
 20
137.6488
  0
VERTEX
  8
LAYER_1
 10
121.9874
 20
137.5603
  0
VERTEX
  8
LAYER_1
 10
121.8995
 20
137.6488
  0
SEQEND
  0
POLYLINE
  8
LAYER_1
 40
0.05
 41
0.05
 66
1
 10
0
 20
0
 30
0
  0
VERTEX
  8
LAYER_1
 10
121.8995
 20
136.237
  0
VERTEX
  8
LAYER_1
 10
121.8995
 20
136.9429
  0
VERTEX
  8
LAYER_1
 10
121.9874
 20
137.0314
  0
VERTEX
  8
LAYER_1
 10
122.0759
 20
136.9429
  0
VERTEX
  8
LAYER_1
 10
122.0759
 20
136.237
  0
VERTEX
  8
LAYER_1
 10
121.9874
 20
136.1495
  0
VERTEX
  8
LAYER_1
 10
121.8995
 20
136.237
  0
SEQEND
  0
POLYLINE
  8
LAYER_1
 40
0.05
 41
0.05
 66
1
 10
0
 20
0
 30
0
  0
VERTEX
  8
LAYER_1
 10
122.7629
 20
135.4667
  0
VERTEX
  8
LAYER_1
 10
122.1124
 20
135.4667
  0
VERTEX
  8
LAYER_1
 10
122.0277
 20
135.4811
  0
VERTEX
  8
LAYER_1
 10
121.976
 20
135.5948
  0
VERTEX
  8
LAYER_1
 10
122.0894
 20
135.6472
  0
VERTEX
  8
LAYER_1
 10
122.1124
 20
135.6423
  0
VERTEX
  8
LAYER_1
 10
122.7629
 20
135.6423
  0
VERTEX
  8
LAYER_1
 10
122.8511
 20
135.5545
  0
VERTEX
  8
LAYER_1
 10
122.7629
 20
135.4667
  0
SEQEND
  0
POLYLINE
  8
LAYER_1
 40
0.05
 41
0.05
 66
1
 10
0
 20
0
 30
0
  0
VERTEX
  8
LAYER_1
 10
124.174
 20
135.4667
  0
VERTEX
  8
LAYER_1
 10
123.4684
 20
135.4667
  0
VERTEX
  8
LAYER_1
 10
123.3802
 20
135.5545
  0
VERTEX
  8
LAYER_1
 10
123.4684
 20
135.6423
  0
VERTEX
  8
LAYER_1
 10
124.174
 20
135.6423
  0
VERTEX
  8
LAYER_1
 10
124.2622
 20
135.5545
  0
VERTEX
  8
LAYER_1
 10
124.174
 20
135.4667
  0
SEQEND
  0
POLYLINE
  8
LAYER_1
 40
0.05
 41
0.05
 66
1
 10
0
 20
0
 30
0
  0
VERTEX
  8
LAYER_1
 10
125.5854
 20
135.4667
  0
VERTEX
  8
LAYER_1
 10
124.8796
 20
135.4667
  0
VERTEX
  8
LAYER_1
 10
124.7917
 20
135.5545
  0
VERTEX
  8
LAYER_1
 10
124.8796
 20
135.6423
  0
VERTEX
  8
LAYER_1
 10
125.5854
 20
135.6423
  0
VERTEX
  8
LAYER_1
 10
125.674
 20
135.5545
  0
VERTEX
  8
LAYER_1
 10
125.5854
 20
135.4667
  0
SEQEND
  0
POLYLINE
  8
LAYER_1
 40
0.05
 41
0.05
 66
1
 10
0
 20
0
 30
0
  0
VERTEX
  8
LAYER_1
 10
126.9965
 20
135.4667
  0
VERTEX
  8
LAYER_1
 10
126.2913
 20
135.4667
  0
VERTEX
  8
LAYER_1
 10
126.2028
 20
135.5545
  0
VERTEX
  8
LAYER_1
 10
126.2913
 20
135.6423
  0
VERTEX
  8
LAYER_1
 10
126.9965
 20
135.6423
  0
VERTEX
  8
LAYER_1
 10
127.0847
 20
135.5545
  0
VERTEX
  8
LAYER_1
 10
126.9965
 20
135.4667
  0
SEQEND
  0
POLYLINE
  8
LAYER_1
 40
0.05
 41
0.05
 66
1
 10
0
 20
0
 30
0
  0
VERTEX
  8
LAYER_1
 10
128.408
 20
135.4667
  0
VERTEX
  8
LAYER_1
 10
127.7024
 20
135.4667
  0
VERTEX
  8
LAYER_1
 10
127.6139
 20
135.5545
  0
VERTEX
  8
LAYER_1
 10
127.7024
 20
135.6423
  0
VERTEX
  8
LAYER_1
 10
128.408
 20
135.6423
  0
VERTEX
  8
LAYER_1
 10
128.4958
 20
135.5545
  0
VERTEX
  8
LAYER_1
 10
128.408
 20
135.4667
  0
SEQEND
  0
POLYLINE
  8
LAYER_1
 40
0.05
 41
0.05
 66
1
 10
0
 20
0
 30
0
  0
VERTEX
  8
LAYER_1
 10
129.8191
 20
135.4667
  0
VERTEX
  8
LAYER_1
 10
129.1136
 20
135.4667
  0
VERTEX
  8
LAYER_1
 10
129.025
 20
135.5545
  0
VERTEX
  8
LAYER_1
 10
129.1136
 20
135.6423
  0
VERTEX
  8
LAYER_1
 10
129.8191
 20
135.6423
  0
VERTEX
  8
LAYER_1
 10
129.9077
 20
135.5545
  0
VERTEX
  8
LAYER_1
 10
129.8191
 20
135.4667
  0
SEQEND
  0
POLYLINE
  8
LAYER_1
 40
0.05
 41
0.05
 66
1
 10
0
 20
0
 30
0
  0
VERTEX
  8
LAYER_1
 10
131.2302
 20
135.4667
  0
VERTEX
  8
LAYER_1
 10
130.525
 20
135.4667
  0
VERTEX
  8
LAYER_1
 10
130.4368
 20
135.5545
  0
VERTEX
  8
LAYER_1
 10
130.525
 20
135.6423
  0
VERTEX
  8
LAYER_1
 10
131.2302
 20
135.6423
  0
VERTEX
  8
LAYER_1
 10
131.3188
 20
135.5545
  0
VERTEX
  8
LAYER_1
 10
131.2302
 20
135.4667
  0
SEQEND
  0
POLYLINE
  8
LAYER_1
 40
0.05
 41
0.05
 66
1
 10
0
 20
0
 30
0
  0
VERTEX
  8
LAYER_1
 10
132.642
 20
135.4667
  0
VERTEX
  8
LAYER_1
 10
131.9361
 20
135.4667
  0
VERTEX
  8
LAYER_1
 10
131.8479
 20
135.5545
  0
VERTEX
  8
LAYER_1
 10
131.9361
 20
135.6423
  0
VERTEX
  8
LAYER_1
 10
132.642
 20
135.6423
  0
VERTEX
  8
LAYER_1
 10
132.7302
 20
135.5545
  0
VERTEX
  8
LAYER_1
 10
132.642
 20
135.4667
  0
SEQEND
  0
POLYLINE
  8
LAYER_1
 40
0.05
 41
0.05
 66
1
 10
0
 20
0
 30
0
  0
VERTEX
  8
LAYER_1
 10
134.0532
 20
135.4667
  0
VERTEX
  8
LAYER_1
 10
133.3472
 20
135.4667
  0
VERTEX
  8
LAYER_1
 10
133.2594
 20
135.5545
  0
VERTEX
  8
LAYER_1
 10
133.3472
 20
135.6423
  0
VERTEX
  8
LAYER_1
 10
134.0532
 20
135.6423
  0
VERTEX
  8
LAYER_1
 10
134.1413
 20
135.5545
  0
VERTEX
  8
LAYER_1
 10
134.0532
 20
135.4667
  0
SEQEND
  0
POLYLINE
  8
LAYER_1
 40
0.05
 41
0.05
 66
1
 10
0
 20
0
 30
0
  0
VERTEX
  8
LAYER_1
 10
135.4646
 20
135.4667
  0
VERTEX
  8
LAYER_1
 10
134.7587
 20
135.4667
  0
VERTEX
  8
LAYER_1
 10
134.6705
 20
135.5545
  0
VERTEX
  8
LAYER_1
 10
134.7587
 20
135.6423
  0
VERTEX
  8
LAYER_1
 10
135.4646
 20
135.6423
  0
VERTEX
  8
LAYER_1
 10
135.5525
 20
135.5545
  0
VERTEX
  8
LAYER_1
 10
135.4646
 20
135.4667
  0
SEQEND
  0
POLYLINE
  8
LAYER_1
 40
0.05
 41
0.05
 66
1
 10
0
 20
0
 30
0
  0
VERTEX
  8
LAYER_1
 10
136.8757
 20
135.4667
  0
VERTEX
  8
LAYER_1
 10
136.1698
 20
135.4667
  0
VERTEX
  8
LAYER_1
 10
136.0816
 20
135.5545
  0
VERTEX
  8
LAYER_1
 10
136.1698
 20
135.6423
  0
VERTEX
  8
LAYER_1
 10
136.8757
 20
135.6423
  0
VERTEX
  8
LAYER_1
 10
136.9642
 20
135.5545
  0
VERTEX
  8
LAYER_1
 10
136.8757
 20
135.4667
  0
SEQEND
  0
POLYLINE
  8
LAYER_1
 40
0.05
 41
0.05
 66
1
 10
0
 20
0
 30
0
  0
VERTEX
  8
LAYER_1
 10
138.2868
 20
135.4667
  0
VERTEX
  8
LAYER_1
 10
137.5816
 20
135.4667
  0
VERTEX
  8
LAYER_1
 10
137.4931
 20
135.5545
  0
VERTEX
  8
LAYER_1
 10
137.5816
 20
135.6423
  0
VERTEX
  8
LAYER_1
 10
138.2868
 20
135.6423
  0
VERTEX
  8
LAYER_1
 10
138.3754
 20
135.5545
  0
VERTEX
  8
LAYER_1
 10
138.2868
 20
135.4667
  0
SEQEND
  0
POLYLINE
  8
LAYER_1
 40
0.05
 41
0.05
 66
1
 10
0
 20
0
 30
0
  0
VERTEX
  8
LAYER_1
 10
139.6986
 20
135.4667
  0
VERTEX
  8
LAYER_1
 10
138.9927
 20
135.4667
  0
VERTEX
  8
LAYER_1
 10
138.9042
 20
135.5545
  0
VERTEX
  8
LAYER_1
 10
138.9927
 20
135.6423
  0
VERTEX
  8
LAYER_1
 10
139.6986
 20
135.6423
  0
VERTEX
  8
LAYER_1
 10
139.7868
 20
135.5545
  0
VERTEX
  8
LAYER_1
 10
139.6986
 20
135.4667
  0
SEQEND
  0
POLYLINE
  8
LAYER_1
 40
0.05
 41
0.05
 66
1
 10
0
 20
0
 30
0
  0
VERTEX
  8
LAYER_1
 10
141.1094
 20
135.4667
  0
VERTEX
  8
LAYER_1
 10
140.4038
 20
135.4667
  0
VERTEX
  8
LAYER_1
 10
140.316
 20
135.5545
  0
VERTEX
  8
LAYER_1
 10
140.4038
 20
135.6423
  0
VERTEX
  8
LAYER_1
 10
141.1094
 20
135.6423
  0
VERTEX
  8
LAYER_1
 10
141.1979
 20
135.5545
  0
VERTEX
  8
LAYER_1
 10
141.1094
 20
135.4667
  0
SEQEND
  0
POLYLINE
  8
LAYER_1
 40
0.05
 41
0.05
 66
1
 10
0
 20
0
 30
0
  0
VERTEX
  8
LAYER_1
 10
142.5212
 20
135.4667
  0
VERTEX
  8
LAYER_1
 10
141.8153
 20
135.4667
  0
VERTEX
  8
LAYER_1
 10
141.7271
 20
135.5545
  0
VERTEX
  8
LAYER_1
 10
141.8153
 20
135.6423
  0
VERTEX
  8
LAYER_1
 10
142.5212
 20
135.6423
  0
VERTEX
  8
LAYER_1
 10
142.609
 20
135.5545
  0
VERTEX
  8
LAYER_1
 10
142.5212
 20
135.4667
  0
SEQEND
  0
POLYLINE
  8
LAYER_1
 40
0.05
 41
0.05
 66
1
 10
0
 20
0
 30
0
  0
VERTEX
  8
LAYER_1
 10
143.9323
 20
135.4667
  0
VERTEX
  8
LAYER_1
 10
143.2264
 20
135.4667
  0
VERTEX
  8
LAYER_1
 10
143.1382
 20
135.5545
  0
VERTEX
  8
LAYER_1
 10
143.2264
 20
135.6423
  0
VERTEX
  8
LAYER_1
 10
143.9323
 20
135.6423
  0
VERTEX
  8
LAYER_1
 10
144.0205
 20
135.5545
  0
VERTEX
  8
LAYER_1
 10
143.9323
 20
135.4667
  0
SEQEND
  0
POLYLINE
  8
LAYER_1
 40
0.05
 41
0.05
 66
1
 10
0
 20
0
 30
0
  0
VERTEX
  8
LAYER_1
 10
145.3434
 20
135.4667
  0
VERTEX
  8
LAYER_1
 10
144.6382
 20
135.4667
  0
VERTEX
  8
LAYER_1
 10
144.5497
 20
135.5545
  0
VERTEX
  8
LAYER_1
 10
144.6382
 20
135.6423
  0
VERTEX
  8
LAYER_1
 10
145.3434
 20
135.6423
  0
VERTEX
  8
LAYER_1
 10
145.4316
 20
135.5545
  0
VERTEX
  8
LAYER_1
 10
145.3434
 20
135.4667
  0
SEQEND
  0
POLYLINE
  8
LAYER_1
 40
0.05
 41
0.05
 66
1
 10
0
 20
0
 30
0
  0
VERTEX
  8
LAYER_1
 10
146.7548
 20
135.4667
  0
VERTEX
  8
LAYER_1
 10
146.0493
 20
135.4667
  0
VERTEX
  8
LAYER_1
 10
145.9608
 20
135.5545
  0
VERTEX
  8
LAYER_1
 10
146.0493
 20
135.6423
  0
VERTEX
  8
LAYER_1
 10
146.7548
 20
135.6423
  0
VERTEX
  8
LAYER_1
 10
146.8434
 20
135.5545
  0
VERTEX
  8
LAYER_1
 10
146.7548
 20
135.4667
  0
SEQEND
  0
POLYLINE
  8
LAYER_1
 40
0.05
 41
0.05
 66
1
 10
0
 20
0
 30
0
  0
VERTEX
  8
LAYER_1
 10
148.166
 20
135.4667
  0
VERTEX
  8
LAYER_1
 10
147.4601
 20
135.4667
  0
VERTEX
  8
LAYER_1
 10
147.3726
 20
135.5545
  0
VERTEX
  8
LAYER_1
 10
147.4601
 20
135.6423
  0
VERTEX
  8
LAYER_1
 10
148.166
 20
135.6423
  0
VERTEX
  8
LAYER_1
 10
148.2545
 20
135.5545
  0
VERTEX
  8
LAYER_1
 10
148.166
 20
135.4667
  0
SEQEND
  0
POLYLINE
  8
LAYER_1
 40
0.05
 41
0.05
 66
1
 10
0
 20
0
 30
0
  0
VERTEX
  8
LAYER_1
 10
149.5771
 20
135.4667
  0
VERTEX
  8
LAYER_1
 10
148.8719
 20
135.4667
  0
VERTEX
  8
LAYER_1
 10
148.7833
 20
135.5545
  0
VERTEX
  8
LAYER_1
 10
148.8719
 20
135.6423
  0
VERTEX
  8
LAYER_1
 10
149.5771
 20
135.6423
  0
VERTEX
  8
LAYER_1
 10
149.6656
 20
135.5545
  0
VERTEX
  8
LAYER_1
 10
149.5771
 20
135.4667
  0
SEQEND
  0
POLYLINE
  8
LAYER_1
 40
0.05
 41
0.05
 66
1
 10
0
 20
0
 30
0
  0
VERTEX
  8
LAYER_1
 10
150.9889
 20
135.4667
  0
VERTEX
  8
LAYER_1
 10
150.283
 20
135.4667
  0
VERTEX
  8
LAYER_1
 10
150.1944
 20
135.5545
  0
VERTEX
  8
LAYER_1
 10
150.283
 20
135.6423
  0
VERTEX
  8
LAYER_1
 10
150.9889
 20
135.6423
  0
VERTEX
  8
LAYER_1
 10
151.0771
 20
135.5545
  0
VERTEX
  8
LAYER_1
 10
150.9889
 20
135.4667
  0
SEQEND
  0
POLYLINE
  8
LAYER_1
 40
0.05
 41
0.05
 66
1
 10
0
 20
0
 30
0
  0
VERTEX
  8
LAYER_1
 10
152.3996
 20
135.4667
  0
VERTEX
  8
LAYER_1
 10
151.6944
 20
135.4667
  0
VERTEX
  8
LAYER_1
 10
151.6063
 20
135.5545
  0
VERTEX
  8
LAYER_1
 10
151.6944
 20
135.6423
  0
VERTEX
  8
LAYER_1
 10
152.3996
 20
135.6423
  0
VERTEX
  8
LAYER_1
 10
152.4882
 20
135.5545
  0
VERTEX
  8
LAYER_1
 10
152.3996
 20
135.4667
  0
SEQEND
  0
POLYLINE
  8
LAYER_1
 40
0.05
 41
0.05
 66
1
 10
0
 20
0
 30
0
  0
VERTEX
  8
LAYER_1
 10
153.8115
 20
135.4667
  0
VERTEX
  8
LAYER_1
 10
153.1056
 20
135.4667
  0
VERTEX
  8
LAYER_1
 10
153.0174
 20
135.5545
  0
VERTEX
  8
LAYER_1
 10
153.1056
 20
135.6423
  0
VERTEX
  8
LAYER_1
 10
153.8115
 20
135.6423
  0
VERTEX
  8
LAYER_1
 10
153.8993
 20
135.5545
  0
VERTEX
  8
LAYER_1
 10
153.8115
 20
135.4667
  0
SEQEND
  0
POLYLINE
  8
LAYER_1
 40
0.05
 41
0.05
 66
1
 10
0
 20
0
 30
0
  0
VERTEX
  8
LAYER_1
 10
155.2226
 20
135.4667
  0
VERTEX
  8
LAYER_1
 10
154.5167
 20
135.4667
  0
VERTEX
  8
LAYER_1
 10
154.4288
 20
135.5545
  0
VERTEX
  8
LAYER_1
 10
154.5167
 20
135.6423
  0
VERTEX
  8
LAYER_1
 10
155.2226
 20
135.6423
  0
VERTEX
  8
LAYER_1
 10
155.3108
 20
135.5545
  0
VERTEX
  8
LAYER_1
 10
155.2226
 20
135.4667
  0
SEQEND
  0
POLYLINE
  8
LAYER_1
 40
0.05
 41
0.05
 66
1
 10
0
 20
0
 30
0
  0
VERTEX
  8
LAYER_1
 10
156.6337
 20
135.4667
  0
VERTEX
  8
LAYER_1
 10
155.9285
 20
135.4667
  0
VERTEX
  8
LAYER_1
 10
155.8399
 20
135.5545
  0
VERTEX
  8
LAYER_1
 10
155.9285
 20
135.6423
  0
VERTEX
  8
LAYER_1
 10
156.6337
 20
135.6423
  0
VERTEX
  8
LAYER_1
 10
156.7219
 20
135.5545
  0
VERTEX
  8
LAYER_1
 10
156.6337
 20
135.4667
  0
SEQEND
  0
POLYLINE
  8
LAYER_1
 40
0.05
 41
0.05
 66
1
 10
0
 20
0
 30
0
  0
VERTEX
  8
LAYER_1
 10
158.0452
 20
135.4667
  0
VERTEX
  8
LAYER_1
 10
157.3396
 20
135.4667
  0
VERTEX
  8
LAYER_1
 10
157.251
 20
135.5545
  0
VERTEX
  8
LAYER_1
 10
157.3396
 20
135.6423
  0
VERTEX
  8
LAYER_1
 10
158.0452
 20
135.6423
  0
VERTEX
  8
LAYER_1
 10
158.1337
 20
135.5545
  0
VERTEX
  8
LAYER_1
 10
158.0452
 20
135.4667
  0
SEQEND
  0
POLYLINE
  8
LAYER_1
 40
0.05
 41
0.05
 66
1
 10
0
 20
0
 30
0
  0
VERTEX
  8
LAYER_1
 10
159.4563
 20
135.4667
  0
VERTEX
  8
LAYER_1
 10
158.751
 20
135.4667
  0
VERTEX
  8
LAYER_1
 10
158.6628
 20
135.5545
  0
VERTEX
  8
LAYER_1
 10
158.751
 20
135.6423
  0
VERTEX
  8
LAYER_1
 10
159.4563
 20
135.6423
  0
VERTEX
  8
LAYER_1
 10
159.5448
 20
135.5545
  0
VERTEX
  8
LAYER_1
 10
159.4563
 20
135.4667
  0
SEQEND
  0
POLYLINE
  8
LAYER_1
 40
0.05
 41
0.05
 66
1
 10
0
 20
0
 30
0
  0
VERTEX
  8
LAYER_1
 10
160.868
 20
135.4667
  0
VERTEX
  8
LAYER_1
 10
160.1621
 20
135.4667
  0
VERTEX
  8
LAYER_1
 10
160.0736
 20
135.5545
  0
VERTEX
  8
LAYER_1
 10
160.1621
 20
135.6423
  0
VERTEX
  8
LAYER_1
 10
160.868
 20
135.6423
  0
VERTEX
  8
LAYER_1
 10
160.9559
 20
135.5545
  0
VERTEX
  8
LAYER_1
 10
160.868
 20
135.4667
  0
SEQEND
  0
POLYLINE
  8
LAYER_1
 40
0.05
 41
0.05
 66
1
 10
0
 20
0
 30
0
  0
VERTEX
  8
LAYER_1
 10
162.2791
 20
135.4667
  0
VERTEX
  8
LAYER_1
 10
161.5732
 20
135.4667
  0
VERTEX
  8
LAYER_1
 10
161.4847
 20
135.5545
  0
VERTEX
  8
LAYER_1
 10
161.5732
 20
135.6423
  0
VERTEX
  8
LAYER_1
 10
162.2791
 20
135.6423
  0
VERTEX
  8
LAYER_1
 10
162.3673
 20
135.5545
  0
VERTEX
  8
LAYER_1
 10
162.2791
 20
135.4667
  0
SEQEND
  0
POLYLINE
  8
LAYER_1
 40
0.05
 41
0.05
 66
1
 10
0
 20
0
 30
0
  0
VERTEX
  8
LAYER_1
 10
163.6903
 20
135.4667
  0
VERTEX
  8
LAYER_1
 10
162.9847
 20
135.4667
  0
VERTEX
  8
LAYER_1
 10
162.8965
 20
135.5545
  0
VERTEX
  8
LAYER_1
 10
162.9847
 20
135.6423
  0
VERTEX
  8
LAYER_1
 10
163.6903
 20
135.6423
  0
VERTEX
  8
LAYER_1
 10
163.7785
 20
135.5545
  0
VERTEX
  8
LAYER_1
 10
163.6903
 20
135.4667
  0
SEQEND
  0
POLYLINE
  8
LAYER_1
 40
0.05
 41
0.05
 66
1
 10
0
 20
0
 30
0
  0
VERTEX
  8
LAYER_1
 10
165.1017
 20
135.4667
  0
VERTEX
  8
LAYER_1
 10
164.3958
 20
135.4667
  0
VERTEX
  8
LAYER_1
 10
164.3076
 20
135.5545
  0
VERTEX
  8
LAYER_1
 10
164.3958
 20
135.6423
  0
VERTEX
  8
LAYER_1
 10
165.1017
 20
135.6423
  0
VERTEX
  8
LAYER_1
 10
165.1903
 20
135.5545
  0
VERTEX
  8
LAYER_1
 10
165.1017
 20
135.4667
  0
SEQEND
  0
POLYLINE
  8
LAYER_1
 40
0.05
 41
0.05
 66
1
 10
0
 20
0
 30
0
  0
VERTEX
  8
LAYER_1
 10
166.5128
 20
135.4667
  0
VERTEX
  8
LAYER_1
 10
165.8076
 20
135.4667
  0
VERTEX
  8
LAYER_1
 10
165.7191
 20
135.5545
  0
VERTEX
  8
LAYER_1
 10
165.8076
 20
135.6423
  0
VERTEX
  8
LAYER_1
 10
166.5128
 20
135.6423
  0
VERTEX
  8
LAYER_1
 10
166.601
 20
135.5545
  0
VERTEX
  8
LAYER_1
 10
166.5128
 20
135.4667
  0
SEQEND
  0
POLYLINE
  8
LAYER_1
 40
0.05
 41
0.05
 66
1
 10
0
 20
0
 30
0
  0
VERTEX
  8
LAYER_1
 10
167.9243
 20
135.4667
  0
VERTEX
  8
LAYER_1
 10
167.2187
 20
135.4667
  0
VERTEX
  8
LAYER_1
 10
167.1302
 20
135.5545
  0
VERTEX
  8
LAYER_1
 10
167.2187
 20
135.6423
  0
VERTEX
  8
LAYER_1
 10
167.9243
 20
135.6423
  0
VERTEX
  8
LAYER_1
 10
168.0121
 20
135.5545
  0
VERTEX
  8
LAYER_1
 10
167.9243
 20
135.4667
  0
SEQEND
  0
POLYLINE
  8
LAYER_1
 40
0.05
 41
0.05
 66
1
 10
0
 20
0
 30
0
  0
VERTEX
  8
LAYER_1
 10
169.3354
 20
135.4667
  0
VERTEX
  8
LAYER_1
 10
168.6299
 20
135.4667
  0
VERTEX
  8
LAYER_1
 10
168.5413
 20
135.5545
  0
VERTEX
  8
LAYER_1
 10
168.6299
 20
135.6423
  0
VERTEX
  8
LAYER_1
 10
169.3354
 20
135.6423
  0
VERTEX
  8
LAYER_1
 10
169.4239
 20
135.5545
  0
VERTEX
  8
LAYER_1
 10
169.3354
 20
135.4667
  0
SEQEND
  0
POLYLINE
  8
LAYER_1
 40
0.05
 41
0.05
 66
1
 10
0
 20
0
 30
0
  0
VERTEX
  8
LAYER_1
 10
170.7465
 20
135.4667
  0
VERTEX
  8
LAYER_1
 10
170.0413
 20
135.4667
  0
VERTEX
  8
LAYER_1
 10
169.9531
 20
135.5545
  0
VERTEX
  8
LAYER_1
 10
170.0413
 20
135.6423
  0
VERTEX
  8
LAYER_1
 10
170.7465
 20
135.6423
  0
VERTEX
  8
LAYER_1
 10
170.835
 20
135.5545
  0
VERTEX
  8
LAYER_1
 10
170.7465
 20
135.4667
  0
SEQEND
  0
POLYLINE
  8
LAYER_1
 40
0.05
 41
0.05
 66
1
 10
0
 20
0
 30
0
  0
VERTEX
  8
LAYER_1
 10
172.1583
 20
135.4667
  0
VERTEX
  8
LAYER_1
 10
171.4524
 20
135.4667
  0
VERTEX
  8
LAYER_1
 10
171.3642
 20
135.5545
  0
VERTEX
  8
LAYER_1
 10
171.4524
 20
135.6423
  0
VERTEX
  8
LAYER_1
 10
172.1583
 20
135.6423
  0
VERTEX
  8
LAYER_1
 10
172.2465
 20
135.5545
  0
VERTEX
  8
LAYER_1
 10
172.1583
 20
135.4667
  0
SEQEND
  0
POLYLINE
  8
LAYER_1
 40
0.05
 41
0.05
 66
1
 10
0
 20
0
 30
0
  0
VERTEX
  8
LAYER_1
 10
173.5694
 20
135.4667
  0
VERTEX
  8
LAYER_1
 10
172.8635
 20
135.4667
  0
VERTEX
  8
LAYER_1
 10
172.7757
 20
135.5545
  0
VERTEX
  8
LAYER_1
 10
172.8635
 20
135.6423
  0
VERTEX
  8
LAYER_1
 10
173.5694
 20
135.6423
  0
VERTEX
  8
LAYER_1
 10
173.6576
 20
135.5545
  0
VERTEX
  8
LAYER_1
 10
173.5694
 20
135.4667
  0
SEQEND
  0
POLYLINE
  8
LAYER_1
 40
0.05
 41
0.05
 66
1
 10
0
 20
0
 30
0
  0
VERTEX
  8
LAYER_1
 10
174.9809
 20
135.4667
  0
VERTEX
  8
LAYER_1
 10
174.275
 20
135.4667
  0
VERTEX
  8
LAYER_1
 10
174.1868
 20
135.5545
  0
VERTEX
  8
LAYER_1
 10
174.275
 20
135.6423
  0
VERTEX
  8
LAYER_1
 10
174.9809
 20
135.6423
  0
VERTEX
  8
LAYER_1
 10
175.0687
 20
135.5545
  0
VERTEX
  8
LAYER_1
 10
174.9809
 20
135.4667
  0
SEQEND
  0
POLYLINE
  8
LAYER_1
 40
0.05
 41
0.05
 66
1
 10
0
 20
0
 30
0
  0
VERTEX
  8
LAYER_1
 10
176.392
 20
135.4667
  0
VERTEX
  8
LAYER_1
 10
175.6861
 20
135.4667
  0
VERTEX
  8
LAYER_1
 10
175.5979
 20
135.5545
  0
VERTEX
  8
LAYER_1
 10
175.6861
 20
135.6423
  0
VERTEX
  8
LAYER_1
 10
176.392
 20
135.6423
  0
VERTEX
  8
LAYER_1
 10
176.4805
 20
135.5545
  0
VERTEX
  8
LAYER_1
 10
176.392
 20
135.4667
  0
SEQEND
  0
POLYLINE
  8
LAYER_1
 40
0.05
 41
0.05
 66
1
 10
0
 20
0
 30
0
  0
VERTEX
  8
LAYER_1
 10
177.8031
 20
135.4667
  0
VERTEX
  8
LAYER_1
 10
177.0979
 20
135.4667
  0
VERTEX
  8
LAYER_1
 10
177.0093
 20
135.5545
  0
VERTEX
  8
LAYER_1
 10
177.0979
 20
135.6423
  0
VERTEX
  8
LAYER_1
 10
177.8031
 20
135.6423
  0
VERTEX
  8
LAYER_1
 10
177.8916
 20
135.5545
  0
VERTEX
  8
LAYER_1
 10
177.8031
 20
135.4667
  0
SEQEND
  0
POLYLINE
  8
LAYER_1
 40
0.05
 41
0.05
 66
1
 10
0
 20
0
 30
0
  0
VERTEX
  8
LAYER_1
 10
179.2149
 20
135.4667
  0
VERTEX
  8
LAYER_1
 10
178.509
 20
135.4667
  0
VERTEX
  8
LAYER_1
 10
178.4205
 20
135.5545
  0
VERTEX
  8
LAYER_1
 10
178.509
 20
135.6423
  0
VERTEX
  8
LAYER_1
 10
179.2149
 20
135.6423
  0
VERTEX
  8
LAYER_1
 10
179.3031
 20
135.5545
  0
VERTEX
  8
LAYER_1
 10
179.2149
 20
135.4667
  0
SEQEND
  0
POLYLINE
  8
LAYER_1
 40
0.05
 41
0.05
 66
1
 10
0
 20
0
 30
0
  0
VERTEX
  8
LAYER_1
 10
180.6257
 20
135.4667
  0
VERTEX
  8
LAYER_1
 10
179.9201
 20
135.4667
  0
VERTEX
  8
LAYER_1
 10
179.8322
 20
135.5545
  0
VERTEX
  8
LAYER_1
 10
179.9201
 20
135.6423
  0
VERTEX
  8
LAYER_1
 10
180.6257
 20
135.6423
  0
VERTEX
  8
LAYER_1
 10
180.7142
 20
135.5545
  0
VERTEX
  8
LAYER_1
 10
180.6257
 20
135.4667
  0
SEQEND
  0
ENDBLK
  0
BLOCK
  8
LAYER_1
  2
AIGNBL01010009
 70
64
 10
0
 20
0
 30
0
  3
AIGNBL01010009
  0
POLYLINE
  8
LAYER_1
 40
0.05
 41
0.05
 66
1
 10
0
 20
0
 30
0
  0
VERTEX
  8
LAYER_1
 10
152.6718
 20
161.4602
 42
0.08000249655
  0
VERTEX
  8
LAYER_1
 10
152.0076
 20
161.5732
  0
VERTEX
  8
LAYER_1
 10
151.9198
 20
161.6621
  0
VERTEX
  8
LAYER_1
 10
152.0086
 20
161.7496
 42
-0.08006455455
  0
VERTEX
  8
LAYER_1
 10
152.7297
 20
161.6274
  0
VERTEX
  8
LAYER_1
 10
152.7845
 20
161.5154
  0
VERTEX
  8
LAYER_1
 10
152.6718
 20
161.4602
  0
SEQEND
  0
POLYLINE
  8
LAYER_1
 40
0.05
 41
0.05
 66
1
 10
0
 20
0
 30
0
  0
VERTEX
  8
LAYER_1
 10
150.7391
 20
161.1667
  0
VERTEX
  8
LAYER_1
 10
150.6158
 20
161.186
  0
VERTEX
  8
LAYER_1
 10
150.6354
 20
161.3097
 42
-0.07900553135
  0
VERTEX
  8
LAYER_1
 10
151.2866
 20
161.6408
  0
VERTEX
  8
LAYER_1
 10
151.3982
 20
161.5833
  0
VERTEX
  8
LAYER_1
 10
151.3406
 20
161.4723
 42
0.07980116577
  0
VERTEX
  8
LAYER_1
 10
150.7391
 20
161.1667
  0
SEQEND
  0
POLYLINE
  8
LAYER_1
 40
0.05
 41
0.05
 66
1
 10
0
 20
0
 30
0
  0
VERTEX
  8
LAYER_1
 10
153.86
 20
160.6358
  0
VERTEX
  8
LAYER_1
 10
153.7367
 20
160.6579
 42
0.07885241433
  0
VERTEX
  8
LAYER_1
 10
153.2678
 20
161.1437
  0
VERTEX
  8
LAYER_1
 10
153.2506
 20
161.267
  0
VERTEX
  8
LAYER_1
 10
153.3746
 20
161.2849
 42
-0.07857307484
  0
VERTEX
  8
LAYER_1
 10
153.8814
 20
160.7588
  0
VERTEX
  8
LAYER_1
 10
153.86
 20
160.6358
  0
SEQEND
  0
POLYLINE
  8
LAYER_1
 40
0.05
 41
0.05
 66
1
 10
0
 20
0
 30
0
  0
VERTEX
  8
LAYER_1
 10
149.8444
 20
160.0312
  0
VERTEX
  8
LAYER_1
 10
149.7879
 20
160.1425
 42
-0.07792425014
  0
VERTEX
  8
LAYER_1
 10
150.119
 20
160.7933
  0
VERTEX
  8
LAYER_1
 10
150.2427
 20
160.8126
  0
VERTEX
  8
LAYER_1
 10
150.2623
 20
160.6889
 42
0.07896646458
  0
VERTEX
  8
LAYER_1
 10
149.9554
 20
160.0881
  0
VERTEX
  8
LAYER_1
 10
149.8444
 20
160.0312
  0
SEQEND
  0
POLYLINE
  8
LAYER_1
 40
0.05
 41
0.05
 66
1
 10
0
 20
0
 30
0
  0
VERTEX
  8
LAYER_1
 10
154.2145
 20
159.293
  0
VERTEX
  8
LAYER_1
 10
154.127
 20
159.3825
  0
VERTEX
  8
LAYER_1
 10
154.1277
 20
159.4115
 42
0.07455300825
  0
VERTEX
  8
LAYER_1
 10
154.0323
 20
160.0509
  0
VERTEX
  8
LAYER_1
 10
154.0912
 20
160.1615
  0
VERTEX
  8
LAYER_1
 10
154.2014
 20
160.1029
 42
-0.07520458238
  0
VERTEX
  8
LAYER_1
 10
154.3044
 20
159.4115
  0
VERTEX
  8
LAYER_1
 10
154.3044
 20
159.3801
  0
VERTEX
  8
LAYER_1
 10
154.2145
 20
159.293
  0
SEQEND
  0
POLYLINE
  8
LAYER_1
 40
0.05
 41
0.05
 66
1
 10
0
 20
0
 30
0
  0
VERTEX
  8
LAYER_1
 10
149.8916
 20
158.6425
  0
VERTEX
  8
LAYER_1
 10
149.7807
 20
158.7004
 42
-0.07644860435
  0
VERTEX
  8
LAYER_1
 10
149.6725
 20
159.4115
  0
VERTEX
  8
LAYER_1
 10
149.6725
 20
159.4221
  0
VERTEX
  8
LAYER_1
 10
149.7607
 20
159.51
  0
VERTEX
  8
LAYER_1
 10
149.8486
 20
159.4211
  0
VERTEX
  8
LAYER_1
 10
149.8486
 20
159.4115
 42
0.07610402307
  0
VERTEX
  8
LAYER_1
 10
149.9495
 20
158.7535
  0
VERTEX
  8
LAYER_1
 10
149.8916
 20
158.6425
  0
SEQEND
  0
POLYLINE
  8
LAYER_1
 40
0.05
 41
0.05
 66
1
 10
0
 20
0
 30
0
  0
VERTEX
  8
LAYER_1
 10
153.7215
 20
157.9948
  0
VERTEX
  8
LAYER_1
 10
153.7033
 20
158.1178
 42
0.07770525988
  0
VERTEX
  8
LAYER_1
 10
154.0147
 20
158.7169
  0
VERTEX
  8
LAYER_1
 10
154.1267
 20
158.7724
  0
VERTEX
  8
LAYER_1
 10
154.1822
 20
158.6604
 42
-0.07897008162
  0
VERTEX
  8
LAYER_1
 10
153.8442
 20
158.0134
  0
VERTEX
  8
LAYER_1
 10
153.7215
 20
157.9948
  0
SEQEND
  0
POLYLINE
  8
LAYER_1
 40
0.05
 41
0.05
 66
1
 10
0
 20
0
 30
0
  0
VERTEX
  8
LAYER_1
 10
150.6185
 20
157.5256
 42
-0.07876652362
  0
VERTEX
  8
LAYER_1
 10
150.1073
 20
158.0472
  0
VERTEX
  8
LAYER_1
 10
150.1276
 20
158.1695
  0
VERTEX
  8
LAYER_1
 10
150.2513
 20
158.1492
 42
0.07917817825
  0
VERTEX
  8
LAYER_1
 10
150.7236
 20
157.6679
  0
VERTEX
  8
LAYER_1
 10
150.7419
 20
157.5439
  0
VERTEX
  8
LAYER_1
 10
150.6185
 20
157.5256
  0
SEQEND
  0
POLYLINE
  8
LAYER_1
 40
0.05
 41
0.05
 66
1
 10
0
 20
0
 30
0
  0
VERTEX
  8
LAYER_1
 10
152.6697
 20
157.1759
  0
VERTEX
  8
LAYER_1
 10
152.5592
 20
157.2349
  0
VERTEX
  8
LAYER_1
 10
152.6174
 20
157.3451
 42
0.08091490339
  0
VERTEX
  8
LAYER_1
 10
153.2213
 20
157.6452
  0
VERTEX
  8
LAYER_1
 10
153.3443
 20
157.6241
  0
VERTEX
  8
LAYER_1
 10
153.324
 20
157.5008
 42
-0.07951302762
  0
VERTEX
  8
LAYER_1
 10
152.6697
 20
157.1759
  0
SEQEND
  0
POLYLINE
  8
LAYER_1
 40
0.05
 41
0.05
 66
1
 10
0
 20
0
 30
0
  0
VERTEX
  8
LAYER_1
 10
151.9883
 20
157.0736
 42
-0.08023003506
  0
VERTEX
  8
LAYER_1
 10
151.2669
 20
157.1894
  0
VERTEX
  8
LAYER_1
 10
151.2107
 20
157.301
  0
VERTEX
  8
LAYER_1
 10
151.3224
 20
157.3565
 42
0.07959281034
  0
VERTEX
  8
LAYER_1
 10
151.9883
 20
157.2493
  0
VERTEX
  8
LAYER_1
 10
152.0765
 20
157.1615
  0
VERTEX
  8
LAYER_1
 10
151.9883
 20
157.0736
  0
SEQEND
  0
ENDBLK
  0
BLOCK
  8
LAYER_1
  2
AIGNBL0101000A
 70
64
 10
0
 20
0
 30
0
  3
AIGNBL0101000A
  0
POLYLINE
  8
LAYER_1
 40
0.05
 41
0.05
 66
1
 10
0
 20
0
 30
0
  0
VERTEX
  8
LAYER_1
 10
152.5227
 20
162.4842
 42
0.0428455356
  0
VERTEX
  8
LAYER_1
 10
151.9876
 20
162.5306
  0
VERTEX
  8
LAYER_1
 10
151.8395
 20
162.5269
  0
VERTEX
  8
LAYER_1
 10
151.7468
 20
162.6109
  0
VERTEX
  8
LAYER_1
 10
151.8316
 20
162.7033
  0
VERTEX
  8
LAYER_1
 10
151.9876
 20
162.7067
 42
-0.04352543258
  0
VERTEX
  8
LAYER_1
 10
152.5533
 20
162.6578
  0
VERTEX
  8
LAYER_1
 10
152.625
 20
162.5554
  0
VERTEX
  8
LAYER_1
 10
152.5227
 20
162.4842
  0
SEQEND
  0
POLYLINE
  8
LAYER_1
 40
0.05
 41
0.05
 66
1
 10
0
 20
0
 30
0
  0
VERTEX
  8
LAYER_1
 10
150.5296
 20
162.1613
  0
VERTEX
  8
LAYER_1
 10
150.4101
 20
162.1972
  0
VERTEX
  8
LAYER_1
 10
150.4453
 20
162.3167
 42
-0.05668974197
  0
VERTEX
  8
LAYER_1
 10
151.1163
 20
162.5885
  0
VERTEX
  8
LAYER_1
 10
151.2252
 20
162.5269
  0
VERTEX
  8
LAYER_1
 10
151.1643
 20
162.418
 42
0.05695466477
  0
VERTEX
  8
LAYER_1
 10
150.5296
 20
162.1613
  0
SEQEND
  0
POLYLINE
  8
LAYER_1
 40
0.05
 41
0.05
 66
1
 10
0
 20
0
 30
0
  0
VERTEX
  8
LAYER_1
 10
153.7753
 20
161.9546
 42
0.05535684187
  0
VERTEX
  8
LAYER_1
 10
153.1789
 20
162.2898
  0
VERTEX
  8
LAYER_1
 10
153.1321
 20
162.4059
  0
VERTEX
  8
LAYER_1
 10
153.2475
 20
162.4528
 42
-0.0552089212
  0
VERTEX
  8
LAYER_1
 10
153.8786
 20
162.0986
  0
VERTEX
  8
LAYER_1
 10
153.8983
 20
161.9749
  0
VERTEX
  8
LAYER_1
 10
153.7753
 20
161.9546
  0
SEQEND
  0
POLYLINE
  8
LAYER_1
 40
0.05
 41
0.05
 66
1
 10
0
 20
0
 30
0
  0
VERTEX
  8
LAYER_1
 10
149.3814
 20
161.2481
  0
VERTEX
  8
LAYER_1
 10
149.3621
 20
161.3707
 42
-0.05419196754
  0
VERTEX
  8
LAYER_1
 10
149.8513
 20
161.904
  0
VERTEX
  8
LAYER_1
 10
149.9764
 20
161.8957
  0
VERTEX
  8
LAYER_1
 10
149.9671
 20
161.7707
 42
0.05549041356
  0
VERTEX
  8
LAYER_1
 10
149.5051
 20
161.2659
  0
VERTEX
  8
LAYER_1
 10
149.3814
 20
161.2481
  0
SEQEND
  0
POLYLINE
  8
LAYER_1
 40
0.05
 41
0.05
 66
1
 10
0
 20
0
 30
0
  0
VERTEX
  8
LAYER_1
 10
154.8012
 20
160.9042
  0
VERTEX
  8
LAYER_1
 10
154.6806
 20
160.939
 42
0.05491596545
  0
VERTEX
  8
LAYER_1
 10
154.2841
 20
161.4964
  0
VERTEX
  8
LAYER_1
 10
154.292
 20
161.6211
  0
VERTEX
  8
LAYER_1
 10
154.4161
 20
161.6139
 42
-0.05597549554
  0
VERTEX
  8
LAYER_1
 10
154.835
 20
161.0245
  0
VERTEX
  8
LAYER_1
 10
154.8012
 20
160.9042
  0
SEQEND
  0
POLYLINE
  8
LAYER_1
 40
0.05
 41
0.05
 66
1
 10
0
 20
0
 30
0
  0
VERTEX
  8
LAYER_1
 10
148.8547
 20
159.9496
  0
VERTEX
  8
LAYER_1
 10
148.785
 20
160.0533
 42
-0.05473679057
  0
VERTEX
  8
LAYER_1
 10
149.0007
 20
160.744
  0
VERTEX
  8
LAYER_1
 10
149.1168
 20
160.7895
  0
VERTEX
  8
LAYER_1
 10
149.1623
 20
160.6731
 42
0.05537233101
  0
VERTEX
  8
LAYER_1
 10
148.9587
 20
160.0192
  0
VERTEX
  8
LAYER_1
 10
148.8547
 20
159.9496
  0
SEQEND
  0
POLYLINE
  8
LAYER_1
 40
0.05
 41
0.05
 66
1
 10
0
 20
0
 30
0
  0
VERTEX
  8
LAYER_1
 10
155.1616
 20
159.552
  0
VERTEX
  8
LAYER_1
 10
155.0679
 20
159.6333
 42
0.05470646898
  0
VERTEX
  8
LAYER_1
 10
154.9463
 20
160.3079
  0
VERTEX
  8
LAYER_1
 10
155.0059
 20
160.4174
  0
VERTEX
  8
LAYER_1
 10
155.1154
 20
160.3571
 42
-0.05495645605
  0
VERTEX
  8
LAYER_1
 10
155.2439
 20
159.6457
  0
VERTEX
  8
LAYER_1
 10
155.1616
 20
159.552
  0
SEQEND
  0
POLYLINE
  8
LAYER_1
 40
0.05
 41
0.05
 66
1
 10
0
 20
0
 30
0
  0
VERTEX
  8
LAYER_1
 10
148.9256
 20
158.5509
  0
VERTEX
  8
LAYER_1
 10
148.8185
 20
158.6163
 42
-0.05371173684
  0
VERTEX
  8
LAYER_1
 10
148.7241
 20
159.3329
  0
VERTEX
  8
LAYER_1
 10
148.8106
 20
159.4232
  0
VERTEX
  8
LAYER_1
 10
148.9005
 20
159.3367
 42
0.05475670564
  0
VERTEX
  8
LAYER_1
 10
148.9904
 20
158.6583
  0
VERTEX
  8
LAYER_1
 10
148.9256
 20
158.5509
  0
SEQEND
  0
POLYLINE
  8
LAYER_1
 40
0.05
 41
0.05
 66
1
 10
0
 20
0
 30
0
  0
VERTEX
  8
LAYER_1
 10
154.9197
 20
158.173
  0
VERTEX
  8
LAYER_1
 10
154.8691
 20
158.287
 42
0.05447576001
  0
VERTEX
  8
LAYER_1
 10
155.0421
 20
158.9491
  0
VERTEX
  8
LAYER_1
 10
155.1423
 20
159.0235
  0
VERTEX
  8
LAYER_1
 10
155.2167
 20
158.9233
 42
-0.05518306167
  0
VERTEX
  8
LAYER_1
 10
155.0334
 20
158.2236
  0
VERTEX
  8
LAYER_1
 10
154.9197
 20
158.173
  0
SEQEND
  0
POLYLINE
  8
LAYER_1
 40
0.05
 41
0.05
 66
1
 10
0
 20
0
 30
0
  0
VERTEX
  8
LAYER_1
 10
149.5819
 20
157.3144
  0
VERTEX
  8
LAYER_1
 10
149.4579
 20
157.3279
 42
-0.05422823771
  0
VERTEX
  8
LAYER_1
 10
149.0676
 20
157.9369
  0
VERTEX
  8
LAYER_1
 10
149.1072
 20
158.0548
  0
VERTEX
  8
LAYER_1
 10
149.2257
 20
158.0155
 42
0.05469035993
  0
VERTEX
  8
LAYER_1
 10
149.595
 20
157.4388
  0
VERTEX
  8
LAYER_1
 10
149.5819
 20
157.3144
  0
SEQEND
  0
POLYLINE
  8
LAYER_1
 40
0.05
 41
0.05
 66
1
 10
0
 20
0
 30
0
  0
VERTEX
  8
LAYER_1
 10
154.2386
 20
157.0247
  0
VERTEX
  8
LAYER_1
 10
154.1143
 20
157.0275
  0
VERTEX
  8
LAYER_1
 10
154.1163
 20
157.1518
 42
0.05539515367
  0
VERTEX
  8
LAYER_1
 10
154.5549
 20
157.6776
  0
VERTEX
  8
LAYER_1
 10
154.6772
 20
157.7024
  0
VERTEX
  8
LAYER_1
 10
154.702
 20
157.58
 42
-0.05564894016
  0
VERTEX
  8
LAYER_1
 10
154.2386
 20
157.0247
  0
SEQEND
  0
POLYLINE
  8
LAYER_1
 40
0.05
 41
0.05
 66
1
 10
0
 20
0
 30
0
  0
VERTEX
  8
LAYER_1
 10
150.5848
 20
156.4342
 42
-0.05524657075
  0
VERTEX
  8
LAYER_1
 10
149.9719
 20
156.8187
  0
VERTEX
  8
LAYER_1
 10
149.9574
 20
156.9427
  0
VERTEX
  8
LAYER_1
 10
150.0814
 20
156.9572
 42
0.05596965966
  0
VERTEX
  8
LAYER_1
 10
150.6616
 20
156.5937
  0
VERTEX
  8
LAYER_1
 10
150.7026
 20
156.4755
  0
VERTEX
  8
LAYER_1
 10
150.5848
 20
156.4342
  0
SEQEND
  0
POLYLINE
  8
LAYER_1
 40
0.05
 41
0.05
 66
1
 10
0
 20
0
 30
0
  0
VERTEX
  8
LAYER_1
 10
153.0087
 20
156.2798
  0
VERTEX
  8
LAYER_1
 10
152.8964
 20
156.336
  0
VERTEX
  8
LAYER_1
 10
152.9526
 20
156.447
 42
0.05598125653
  0
VERTEX
  8
LAYER_1
 10
153.5737
 20
156.7346
  0
VERTEX
  8
LAYER_1
 10
153.695
 20
156.705
  0
VERTEX
  8
LAYER_1
 10
153.665
 20
156.5834
 42
-0.05565241351
  0
VERTEX
  8
LAYER_1
 10
153.0087
 20
156.2798
  0
SEQEND
  0
POLYLINE
  8
LAYER_1
 40
0.05
 41
0.05
 66
1
 10
0
 20
0
 30
0
  0
VERTEX
  8
LAYER_1
 10
151.9876
 20
156.1155
 42
-0.05623520979
  0
VERTEX
  8
LAYER_1
 10
151.2683
 20
156.1961
  0
VERTEX
  8
LAYER_1
 10
151.2021
 20
156.3009
  0
VERTEX
  8
LAYER_1
 10
151.3083
 20
156.3677
 42
0.05563284977
  0
VERTEX
  8
LAYER_1
 10
151.9876
 20
156.2923
  0
VERTEX
  8
LAYER_1
 10
152.2829
 20
156.3061
  0
VERTEX
  8
LAYER_1
 10
152.38
 20
156.2268
  0
VERTEX
  8
LAYER_1
 10
152.3001
 20
156.1303
  0
VERTEX
  8
LAYER_1
 10
151.9876
 20
156.1155
  0
SEQEND
  0
ENDBLK
  0
BLOCK
  8
LAYER_1
  2
AIGNBL0101000B
 70
64
 10
0
 20
0
 30
0
  3
AIGNBL0101000B
  0
POLYLINE
  8
LAYER_1
 40
0.05
 41
0.05
 66
1
 10
0
 20
0
 30
0
  0
VERTEX
  8
LAYER_1
 10
151.3083
 20
177.1745
  0
VERTEX
  8
LAYER_1
 10
151.1908
 20
177.2169
  0
VERTEX
  8
LAYER_1
 10
151.2338
 20
177.3343
 42
-0.1017968819
  0
VERTEX
  8
LAYER_1
 10
151.9504
 20
177.5025
  0
VERTEX
  8
LAYER_1
 10
152.0414
 20
177.4173
  0
VERTEX
  8
LAYER_1
 10
151.9552
 20
177.3267
 42
0.1000342613
  0
VERTEX
  8
LAYER_1
 10
151.3083
 20
177.1745
  0
SEQEND
  0
POLYLINE
  8
LAYER_1
 40
0.05
 41
0.05
 66
1
 10
0
 20
0
 30
0
  0
VERTEX
  8
LAYER_1
 10
153.2916
 20
176.8489
  0
VERTEX
  8
LAYER_1
 10
153.1672
 20
176.8489
 42
0.102775778
  0
VERTEX
  8
LAYER_1
 10
152.6112
 20
177.2134
  0
VERTEX
  8
LAYER_1
 10
152.5609
 20
177.3278
  0
VERTEX
  8
LAYER_1
 10
152.6756
 20
177.3777
 42
-0.1041719582
  0
VERTEX
  8
LAYER_1
 10
153.2916
 20
176.9736
  0
VERTEX
  8
LAYER_1
 10
153.2916
 20
176.8489
  0
SEQEND
  0
POLYLINE
  8
LAYER_1
 40
0.05
 41
0.05
 66
1
 10
0
 20
0
 30
0
  0
VERTEX
  8
LAYER_1
 10
150.3326
 20
176.1437
  0
VERTEX
  8
LAYER_1
 10
150.2771
 20
176.2557
 42
-0.09806366307
  0
VERTEX
  8
LAYER_1
 10
150.6433
 20
176.894
  0
VERTEX
  8
LAYER_1
 10
150.7674
 20
176.902
  0
VERTEX
  8
LAYER_1
 10
150.776
 20
176.7776
 42
0.09936321023
  0
VERTEX
  8
LAYER_1
 10
150.4446
 20
176.1988
  0
VERTEX
  8
LAYER_1
 10
150.3326
 20
176.1437
  0
SEQEND
  0
POLYLINE
  8
LAYER_1
 40
0.05
 41
0.05
 66
1
 10
0
 20
0
 30
0
  0
VERTEX
  8
LAYER_1
 10
153.7615
 20
175.5525
  0
VERTEX
  8
LAYER_1
 10
153.6661
 20
175.6335
  0
VERTEX
  8
LAYER_1
 10
153.6433
 20
175.9105
  0
VERTEX
  8
LAYER_1
 10
153.5872
 20
176.172
  0
VERTEX
  8
LAYER_1
 10
153.5389
 20
176.2939
  0
VERTEX
  8
LAYER_1
 10
153.5848
 20
176.4097
  0
VERTEX
  8
LAYER_1
 10
153.7009
 20
176.3638
 42
-0.06612536397
  0
VERTEX
  8
LAYER_1
 10
153.8054
 20
176.0191
 42
-0.03014795953
  0
VERTEX
  8
LAYER_1
 10
153.8421
 20
175.6479
  0
VERTEX
  8
LAYER_1
 10
153.7615
 20
175.5525
  0
SEQEND
  0
POLYLINE
  8
LAYER_1
 40
0.05
 41
0.05
 66
1
 10
0
 20
0
 30
0
  0
VERTEX
  8
LAYER_1
 10
150.4797
 20
174.7743
  0
VERTEX
  8
LAYER_1
 10
150.3622
 20
174.817
 42
-0.06806474988
  0
VERTEX
  8
LAYER_1
 10
150.1951
 20
175.3531
  0
VERTEX
  8
LAYER_1
 10
150.1941
 20
175.361
  0
VERTEX
  8
LAYER_1
 10
150.181
 20
175.5256
  0
VERTEX
  8
LAYER_1
 10
150.2613
 20
175.6214
  0
VERTEX
  8
LAYER_1
 10
150.3567
 20
175.5408
  0
VERTEX
  8
LAYER_1
 10
150.3708
 20
175.3779
 42
0.06956403375
  0
VERTEX
  8
LAYER_1
 10
150.5217
 20
174.8918
  0
VERTEX
  8
LAYER_1
 10
150.4797
 20
174.7743
  0
SEQEND
  0
POLYLINE
  8
LAYER_1
 40
0.05
 41
0.05
 66
1
 10
0
 20
0
 30
0
  0
VERTEX
  8
LAYER_1
 10
153.3178
 20
174.4666
  0
VERTEX
  8
LAYER_1
 10
153.3012
 20
174.5903
  0
VERTEX
  8
LAYER_1
 10
153.3023
 20
174.5903
 42
0.08066610512
  0
VERTEX
  8
LAYER_1
 10
153.5872
 20
175.1215
  0
VERTEX
  8
LAYER_1
 10
153.5996
 20
175.1804
  0
VERTEX
  8
LAYER_1
 10
153.7046
 20
175.2483
  0
VERTEX
  8
LAYER_1
 10
153.7732
 20
175.1436
  0
VERTEX
  8
LAYER_1
 10
153.7588
 20
175.0778
  0
VERTEX
  8
LAYER_1
 10
153.756
 20
175.0668
 42
-0.07896865278
  0
VERTEX
  8
LAYER_1
 10
153.4418
 20
174.4818
  0
VERTEX
  8
LAYER_1
 10
153.3178
 20
174.4666
  0
SEQEND
  0
POLYLINE
  8
LAYER_1
 40
0.05
 41
0.05
 66
1
 10
0
 20
0
 30
0
  0
VERTEX
  8
LAYER_1
 10
151.4471
 20
173.8675
 42
-0.1028610096
  0
VERTEX
  8
LAYER_1
 10
150.8046
 20
174.2282
  0
VERTEX
  8
LAYER_1
 10
150.796
 20
174.3529
  0
VERTEX
  8
LAYER_1
 10
150.921
 20
174.3605
 42
0.1019306544
  0
VERTEX
  8
LAYER_1
 10
151.5001
 20
174.0356
  0
VERTEX
  8
LAYER_1
 10
151.5584
 20
173.9247
  0
VERTEX
  8
LAYER_1
 10
151.4471
 20
173.8675
  0
SEQEND
  0
POLYLINE
  8
LAYER_1
 40
0.05
 41
0.05
 66
1
 10
0
 20
0
 30
0
  0
VERTEX
  8
LAYER_1
 10
152.1785
 20
173.788
  0
VERTEX
  8
LAYER_1
 10
152.0824
 20
173.8679
  0
VERTEX
  8
LAYER_1
 10
152.1623
 20
173.9633
 42
0.1017501091
  0
VERTEX
  8
LAYER_1
 10
152.7986
 20
174.1569
  0
VERTEX
  8
LAYER_1
 10
152.9175
 20
174.1221
  0
VERTEX
  8
LAYER_1
 10
152.8827
 20
174.0026
 42
-0.1030815715
  0
VERTEX
  8
LAYER_1
 10
152.1785
 20
173.788
  0
SEQEND
  0
ENDBLK
  0
BLOCK
  8
LAYER_1
  2
AIGNBL0101000C
 70
64
 10
0
 20
0
 30
0
  3
AIGNBL0101000C
  0
POLYLINE
  8
LAYER_1
 40
0.05
 41
0.05
 66
1
 10
0
 20
0
 30
0
  0
VERTEX
  8
LAYER_1
 10
145.1646
 20
181.4676
  0
VERTEX
  8
LAYER_1
 10
144.9927
 20
181.4676
 42
0.1319915517
  0
VERTEX
  8
LAYER_1
 10
145.0168
 20
181.5572
  0
VERTEX
  8
LAYER_1
 10
145.0168
 20
181.5579
  0
VERTEX
  8
LAYER_1
 10
145.25
 20
181.5579
  0
VERTEX
  8
LAYER_1
 10
145.2521
 20
181.5555
  0
VERTEX
  8
LAYER_1
 10
145.1646
 20
181.4676
  0
SEQEND
  0
POLYLINE
  8
LAYER_1
 40
0.05
 41
0.05
 66
1
 10
0
 20
0
 30
0
  0
VERTEX
  8
LAYER_1
 10
146.5754
 20
181.4676
  0
VERTEX
  8
LAYER_1
 10
146.3535
 20
181.4676
 42
0.1356716967
  0
VERTEX
  8
LAYER_1
 10
146.3783
 20
181.5579
  0
VERTEX
  8
LAYER_1
 10
146.6619
 20
181.5579
  0
VERTEX
  8
LAYER_1
 10
146.6639
 20
181.5555
  0
VERTEX
  8
LAYER_1
 10
146.5754
 20
181.4676
  0
SEQEND
  0
POLYLINE
  8
LAYER_1
 40
0.05
 41
0.05
 66
1
 10
0
 20
0
 30
0
  0
VERTEX
  8
LAYER_1
 10
147.9865
 20
181.4676
  0
VERTEX
  8
LAYER_1
 10
147.715
 20
181.4676
 42
0.1382350096
  0
VERTEX
  8
LAYER_1
 10
147.7405
 20
181.5579
  0
VERTEX
  8
LAYER_1
 10
148.0685
 20
181.5579
  0
VERTEX
  8
LAYER_1
 10
148.0685
 20
181.5493
  0
VERTEX
  8
LAYER_1
 10
147.9865
 20
181.4676
  0
SEQEND
  0
POLYLINE
  8
LAYER_1
 40
0.05
 41
0.05
 66
1
 10
0
 20
0
 30
0
  0
VERTEX
  8
LAYER_1
 10
149.3983
 20
181.4676
  0
VERTEX
  8
LAYER_1
 10
149.0772
 20
181.4676
 42
0.1342191619
  0
VERTEX
  8
LAYER_1
 10
149.102
 20
181.5579
  0
VERTEX
  8
LAYER_1
 10
149.4307
 20
181.5579
  0
VERTEX
  8
LAYER_1
 10
149.4375
 20
181.5069
  0
VERTEX
  8
LAYER_1
 10
149.3983
 20
181.4676
  0
SEQEND
  0
POLYLINE
  8
LAYER_1
 40
0.05
 41
0.05
 66
1
 10
0
 20
0
 30
0
  0
VERTEX
  8
LAYER_1
 10
150.8094
 20
181.4676
  0
VERTEX
  8
LAYER_1
 10
150.4387
 20
181.4676
 42
0.1356716967
  0
VERTEX
  8
LAYER_1
 10
150.4635
 20
181.5579
  0
VERTEX
  8
LAYER_1
 10
150.7915
 20
181.5579
 42
0.1190577264
  0
VERTEX
  8
LAYER_1
 10
150.8135
 20
181.4721
  0
VERTEX
  8
LAYER_1
 10
150.8094
 20
181.4676
  0
SEQEND
  0
POLYLINE
  8
LAYER_1
 40
0.05
 41
0.05
 66
1
 10
0
 20
0
 30
0
  0
VERTEX
  8
LAYER_1
 10
152.1785
 20
181.4676
  0
VERTEX
  8
LAYER_1
 10
151.8002
 20
181.4676
 42
0.1342191619
  0
VERTEX
  8
LAYER_1
 10
151.825
 20
181.5579
  0
VERTEX
  8
LAYER_1
 10
152.1537
 20
181.5579
 42
0.1385362405
  0
VERTEX
  8
LAYER_1
 10
152.1785
 20
181.4676
  0
SEQEND
  0
POLYLINE
  8
LAYER_1
 40
0.05
 41
0.05
 66
1
 10
0
 20
0
 30
0
  0
VERTEX
  8
LAYER_1
 10
153.54
 20
181.4676
  0
VERTEX
  8
LAYER_1
 10
153.1617
 20
181.4676
 42
0.1371196104
  0
VERTEX
  8
LAYER_1
 10
153.1869
 20
181.5579
  0
VERTEX
  8
LAYER_1
 10
153.5152
 20
181.5579
 42
0.1423498814
  0
VERTEX
  8
LAYER_1
 10
153.54
 20
181.4676
  0
SEQEND
  0
POLYLINE
  8
LAYER_1
 40
0.05
 41
0.05
 66
1
 10
0
 20
0
 30
0
  0
VERTEX
  8
LAYER_1
 10
154.9015
 20
181.4676
  0
VERTEX
  8
LAYER_1
 10
154.5235
 20
181.4676
 42
0.1338047
  0
VERTEX
  8
LAYER_1
 10
154.5483
 20
181.5579
  0
VERTEX
  8
LAYER_1
 10
154.8767
 20
181.5579
 42
0.1385362405
  0
VERTEX
  8
LAYER_1
 10
154.9015
 20
181.4676
  0
SEQEND
  0
POLYLINE
  8
LAYER_1
 40
0.05
 41
0.05
 66
1
 10
0
 20
0
 30
0
  0
VERTEX
  8
LAYER_1
 10
156.263
 20
181.4676
  0
VERTEX
  8
LAYER_1
 10
155.8854
 20
181.4676
 42
0.1335891449
  0
VERTEX
  8
LAYER_1
 10
155.9099
 20
181.5579
  0
VERTEX
  8
LAYER_1
 10
156.2382
 20
181.5579
 42
0.1385362405
  0
VERTEX
  8
LAYER_1
 10
156.263
 20
181.4676
  0
SEQEND
  0
POLYLINE
  8
LAYER_1
 40
0.05
 41
0.05
 66
1
 10
0
 20
0
 30
0
  0
VERTEX
  8
LAYER_1
 10
157.6248
 20
181.4676
  0
VERTEX
  8
LAYER_1
 10
157.2469
 20
181.4676
 42
0.134219162
  0
VERTEX
  8
LAYER_1
 10
157.2717
 20
181.5579
  0
VERTEX
  8
LAYER_1
 10
157.5997
 20
181.5579
 42
0.1322143692
  0
VERTEX
  8
LAYER_1
 10
157.6248
 20
181.4676
  0
SEQEND
  0
POLYLINE
  8
LAYER_1
 40
0.05
 41
0.05
 66
1
 10
0
 20
0
 30
0
  0
VERTEX
  8
LAYER_1
 10
158.9839
 20
181.4676
  0
VERTEX
  8
LAYER_1
 10
158.6084
 20
181.4676
 42
0.1356716967
  0
VERTEX
  8
LAYER_1
 10
158.6332
 20
181.5579
  0
VERTEX
  8
LAYER_1
 10
158.9591
 20
181.5579
 42
0.1423498814
  0
VERTEX
  8
LAYER_1
 10
158.9839
 20
181.4676
  0
SEQEND
  0
ENDBLK
  0
BLOCK
  8
LAYER_1
  2
AIGNBL0101000D
 70
64
 10
0
 20
0
 30
0
  3
AIGNBL0101000D
  0
POLYLINE
  8
LAYER_1
 40
0.05
 41
0.05
 66
1
 10
0
 20
0
 30
0
  0
VERTEX
  8
LAYER_1
 10
157.866
 20
181.4676
  0
VERTEX
  8
LAYER_1
 10
157.6248
 20
181.4676
 42
-0.1354619943
  0
VERTEX
  8
LAYER_1
 10
157.5997
 20
181.5579
 42
-0.1258386479
  0
VERTEX
  8
LAYER_1
 10
157.6224
 20
181.6437
  0
VERTEX
  8
LAYER_1
 10
157.866
 20
181.6437
  0
VERTEX
  8
LAYER_1
 10
157.9542
 20
181.5555
  0
VERTEX
  8
LAYER_1
 10
157.866
 20
181.4676
  0
SEQEND
  0
POLYLINE
  8
LAYER_1
 40
0.05
 41
0.05
 66
1
 10
0
 20
0
 30
0
  0
VERTEX
  8
LAYER_1
 10
158.6084
 20
181.4676
  0
VERTEX
  8
LAYER_1
 10
158.5715
 20
181.4676
  0
VERTEX
  8
LAYER_1
 10
158.4833
 20
181.5555
  0
VERTEX
  8
LAYER_1
 10
158.5715
 20
181.6437
  0
VERTEX
  8
LAYER_1
 10
158.6105
 20
181.6437
 42
-0.1293305288
  0
VERTEX
  8
LAYER_1
 10
158.6332
 20
181.5579
 42
-0.1423498812
  0
VERTEX
  8
LAYER_1
 10
158.6084
 20
181.4676
  0
SEQEND
  0
ENDBLK
  0
BLOCK
  8
LAYER_1
  2
AIGNBL0101000E
 70
64
 10
0
 20
0
 30
0
  3
AIGNBL0101000E
  0
POLYLINE
  8
LAYER_1
 40
0.05
 41
0.05
 66
1
 10
0
 20
0
 30
0
  0
VERTEX
  8
LAYER_1
 10
156.4549
 20
181.4676
  0
VERTEX
  8
LAYER_1
 10
156.263
 20
181.4676
 42
-0.1349516212
  0
VERTEX
  8
LAYER_1
 10
156.2382
 20
181.5579
 42
-0.1258386479
  0
VERTEX
  8
LAYER_1
 10
156.2609
 20
181.6437
  0
VERTEX
  8
LAYER_1
 10
156.4549
 20
181.6437
  0
VERTEX
  8
LAYER_1
 10
156.5427
 20
181.5555
  0
VERTEX
  8
LAYER_1
 10
156.4549
 20
181.4676
  0
SEQEND
  0
POLYLINE
  8
LAYER_1
 40
0.05
 41
0.05
 66
1
 10
0
 20
0
 30
0
  0
VERTEX
  8
LAYER_1
 10
157.2469
 20
181.4676
  0
VERTEX
  8
LAYER_1
 10
157.1601
 20
181.4676
  0
VERTEX
  8
LAYER_1
 10
157.0715
 20
181.5555
  0
VERTEX
  8
LAYER_1
 10
157.1601
 20
181.6437
  0
VERTEX
  8
LAYER_1
 10
157.249
 20
181.6437
 42
-0.1293305288
  0
VERTEX
  8
LAYER_1
 10
157.2717
 20
181.5579
 42
-0.1334115359
  0
VERTEX
  8
LAYER_1
 10
157.2469
 20
181.4676
  0
SEQEND
  0
ENDBLK
  0
BLOCK
  8
LAYER_1
  2
AIGNBL0101000F
 70
64
 10
0
 20
0
 30
0
  3
AIGNBL0101000F
  0
POLYLINE
  8
LAYER_1
 40
0.05
 41
0.05
 66
1
 10
0
 20
0
 30
0
  0
VERTEX
  8
LAYER_1
 10
155.0431
 20
181.4676
  0
VERTEX
  8
LAYER_1
 10
154.9015
 20
181.4676
 42
-0.1349516212
  0
VERTEX
  8
LAYER_1
 10
154.8767
 20
181.5579
 42
-0.135753539
  0
VERTEX
  8
LAYER_1
 10
154.8994
 20
181.6437
  0
VERTEX
  8
LAYER_1
 10
155.0431
 20
181.6437
  0
VERTEX
  8
LAYER_1
 10
155.1316
 20
181.5555
  0
VERTEX
  8
LAYER_1
 10
155.0431
 20
181.4676
  0
SEQEND
  0
POLYLINE
  8
LAYER_1
 40
0.05
 41
0.05
 66
1
 10
0
 20
0
 30
0
  0
VERTEX
  8
LAYER_1
 10
155.8854
 20
181.4676
  0
VERTEX
  8
LAYER_1
 10
155.749
 20
181.4676
  0
VERTEX
  8
LAYER_1
 10
155.6604
 20
181.5555
  0
VERTEX
  8
LAYER_1
 10
155.749
 20
181.6437
  0
VERTEX
  8
LAYER_1
 10
155.8875
 20
181.6437
 42
-0.128082471
  0
VERTEX
  8
LAYER_1
 10
155.9099
 20
181.5579
 42
-0.1385347681
  0
VERTEX
  8
LAYER_1
 10
155.8854
 20
181.4676
  0
SEQEND
  0
ENDBLK
  0
BLOCK
  8
LAYER_1
  2
AIGNBL01010010
 70
64
 10
0
 20
0
 30
0
  3
AIGNBL01010010
  0
POLYLINE
  8
LAYER_1
 40
0.05
 41
0.05
 66
1
 10
0
 20
0
 30
0
  0
VERTEX
  8
LAYER_1
 10
153.632
 20
181.4676
  0
VERTEX
  8
LAYER_1
 10
153.54
 20
181.4676
 42
-0.1356716969
  0
VERTEX
  8
LAYER_1
 10
153.5152
 20
181.5579
 42
-0.135753539
  0
VERTEX
  8
LAYER_1
 10
153.5379
 20
181.6437
  0
VERTEX
  8
LAYER_1
 10
153.632
 20
181.6437
  0
VERTEX
  8
LAYER_1
 10
153.7205
 20
181.5555
  0
VERTEX
  8
LAYER_1
 10
153.632
 20
181.4676
  0
SEQEND
  0
POLYLINE
  8
LAYER_1
 40
0.05
 41
0.05
 66
1
 10
0
 20
0
 30
0
  0
VERTEX
  8
LAYER_1
 10
154.5235
 20
181.4676
  0
VERTEX
  8
LAYER_1
 10
154.3379
 20
181.4676
  0
VERTEX
  8
LAYER_1
 10
154.2493
 20
181.5555
  0
VERTEX
  8
LAYER_1
 10
154.3379
 20
181.6437
  0
VERTEX
  8
LAYER_1
 10
154.526
 20
181.6437
 42
-0.1268758343
  0
VERTEX
  8
LAYER_1
 10
154.5483
 20
181.5579
 42
-0.1295381438
  0
VERTEX
  8
LAYER_1
 10
154.5235
 20
181.4676
  0
SEQEND
  0
ENDBLK
  0
BLOCK
  8
LAYER_1
  2
AIGNBL01010011
 70
64
 10
0
 20
0
 30
0
  3
AIGNBL01010011
  0
POLYLINE
  8
LAYER_1
 40
0.05
 41
0.05
 66
1
 10
0
 20
0
 30
0
  0
VERTEX
  8
LAYER_1
 10
152.2205
 20
181.4676
  0
VERTEX
  8
LAYER_1
 10
152.1785
 20
181.4676
 42
-0.1349516212
  0
VERTEX
  8
LAYER_1
 10
152.1537
 20
181.5579
 42
-0.132978323
  0
VERTEX
  8
LAYER_1
 10
152.1761
 20
181.6437
  0
VERTEX
  8
LAYER_1
 10
152.2205
 20
181.6437
  0
VERTEX
  8
LAYER_1
 10
152.3087
 20
181.5555
  0
VERTEX
  8
LAYER_1
 10
152.2205
 20
181.4676
  0
SEQEND
  0
POLYLINE
  8
LAYER_1
 40
0.05
 41
0.05
 66
1
 10
0
 20
0
 30
0
  0
VERTEX
  8
LAYER_1
 10
153.1617
 20
181.4676
  0
VERTEX
  8
LAYER_1
 10
152.9261
 20
181.4676
  0
VERTEX
  8
LAYER_1
 10
152.8379
 20
181.5555
  0
VERTEX
  8
LAYER_1
 10
152.9261
 20
181.6437
  0
VERTEX
  8
LAYER_1
 10
153.1645
 20
181.6437
 42
-0.1274416707
  0
VERTEX
  8
LAYER_1
 10
153.1869
 20
181.5579
 42
-0.1406701468
  0
VERTEX
  8
LAYER_1
 10
153.1617
 20
181.4676
  0
SEQEND
  0
ENDBLK
  0
BLOCK
  8
LAYER_1
  2
AIGNBL01010012
 70
64
 10
0
 20
0
 30
0
  3
AIGNBL01010012
  0
POLYLINE
  8
LAYER_1
 40
0.05
 41
0.05
 66
1
 10
0
 20
0
 30
0
  0
VERTEX
  8
LAYER_1
 10
150.8135
 20
181.4721
 42
-0.1253062991
  0
VERTEX
  8
LAYER_1
 10
150.7915
 20
181.5579
 42
-0.1130800508
  0
VERTEX
  8
LAYER_1
 10
150.8125
 20
181.6409
  0
VERTEX
  8
LAYER_1
 10
150.8976
 20
181.5555
  0
VERTEX
  8
LAYER_1
 10
150.8135
 20
181.4721
  0
SEQEND
  0
POLYLINE
  8
LAYER_1
 40
0.05
 41
0.05
 66
1
 10
0
 20
0
 30
0
  0
VERTEX
  8
LAYER_1
 10
151.8002
 20
181.4676
  0
VERTEX
  8
LAYER_1
 10
151.5153
 20
181.4676
  0
VERTEX
  8
LAYER_1
 10
151.4268
 20
181.5555
  0
VERTEX
  8
LAYER_1
 10
151.5153
 20
181.6437
  0
VERTEX
  8
LAYER_1
 10
151.8023
 20
181.6437
 42
-0.1293305288
  0
VERTEX
  8
LAYER_1
 10
151.825
 20
181.5579
 42
-0.1334115359
  0
VERTEX
  8
LAYER_1
 10
151.8002
 20
181.4676
  0
SEQEND
  0
ENDBLK
  0
BLOCK
  8
LAYER_1
  2
AIGNBL01010013
 70
64
 10
0
 20
0
 30
0
  3
AIGNBL01010013
  0
POLYLINE
  8
LAYER_1
 40
0.05
 41
0.05
 66
1
 10
0
 20
0
 30
0
  0
VERTEX
  8
LAYER_1
 10
149.4375
 20
181.5069
  0
VERTEX
  8
LAYER_1
 10
149.4307
 20
181.5579
  0
VERTEX
  8
LAYER_1
 10
149.4365
 20
181.6051
  0
VERTEX
  8
LAYER_1
 10
149.4865
 20
181.5555
  0
VERTEX
  8
LAYER_1
 10
149.4375
 20
181.5069
  0
SEQEND
  0
POLYLINE
  8
LAYER_1
 40
0.05
 41
0.05
 66
1
 10
0
 20
0
 30
0
  0
VERTEX
  8
LAYER_1
 10
150.4387
 20
181.4676
  0
VERTEX
  8
LAYER_1
 10
150.1035
 20
181.4676
  0
VERTEX
  8
LAYER_1
 10
150.0156
 20
181.5555
  0
VERTEX
  8
LAYER_1
 10
150.1035
 20
181.6437
  0
VERTEX
  8
LAYER_1
 10
150.4408
 20
181.6437
 42
-0.1293305288
  0
VERTEX
  8
LAYER_1
 10
150.4635
 20
181.5579
 42
-0.1423498812
  0
VERTEX
  8
LAYER_1
 10
150.4387
 20
181.4676
  0
SEQEND
  0
ENDBLK
  0
BLOCK
  8
LAYER_1
  2
AIGNBL01010014
 70
64
 10
0
 20
0
 30
0
  3
AIGNBL01010014
  0
POLYLINE
  8
LAYER_1
 40
0.05
 41
0.05
 66
1
 10
0
 20
0
 30
0
  0
VERTEX
  8
LAYER_1
 10
148.0685
 20
181.5493
  0
VERTEX
  8
LAYER_1
 10
148.0685
 20
181.5579
  0
VERTEX
  8
LAYER_1
 10
148.0685
 20
181.5621
  0
VERTEX
  8
LAYER_1
 10
148.075
 20
181.5555
  0
VERTEX
  8
LAYER_1
 10
148.0685
 20
181.5493
  0
SEQEND
  0
POLYLINE
  8
LAYER_1
 40
0.05
 41
0.05
 66
1
 10
0
 20
0
 30
0
  0
VERTEX
  8
LAYER_1
 10
149.0772
 20
181.4676
  0
VERTEX
  8
LAYER_1
 10
148.6924
 20
181.4676
  0
VERTEX
  8
LAYER_1
 10
148.6042
 20
181.5555
  0
VERTEX
  8
LAYER_1
 10
148.6924
 20
181.6437
  0
VERTEX
  8
LAYER_1
 10
149.0793
 20
181.6437
 42
-0.1291001244
  0
VERTEX
  8
LAYER_1
 10
149.102
 20
181.5579
 42
-0.1334115359
  0
VERTEX
  8
LAYER_1
 10
149.0772
 20
181.4676
  0
SEQEND
  0
ENDBLK
  0
BLOCK
  8
LAYER_1
  2
AIGNBL01010015
 70
64
 10
0
 20
0
 30
0
  3
AIGNBL01010015
  0
TEXT
  8
LAYER_1
 10
135.7767
 20
186.4224
 11
135.7767
 21
186.4224
 40
2.5175
 41
0.5
  1
カウンター開口寸法：150×300
  0
ENDBLK
  0
BLOCK
  8
LAYER_2
  2
AIGNBL02010002
 70
64
 10
0
 20
0
 30
0
  3
AIGNBL02010002
  0
POLYLINE
  8
LAYER_2
 40
0.7056
 41
0.7056
 66
1
 10
0
 20
0
 30
0
 70
1
  0
VERTEX
  8
LAYER_2
 10
251.6749
 20
230.337
  0
VERTEX
  8
LAYER_2
 10
251.6749
 20
33.3285
  0
VERTEX
  8
LAYER_2
 10
-30.3177
 20
33.3285
  0
VERTEX
  8
LAYER_2
 10
-30.3177
 20
230.337
  0
SEQEND
  0
ENDBLK
  0
BLOCK
  8
LAYER_2
  2
AIGNBL02010003
 70
64
 10
0
 20
0
 30
0
  3
AIGNBL02010003
  0
INSERT
  8
LAYER_2
  2
AIGNBL02020004
 10
0
 20
0
 30
0
  0
POLYLINE
  8
LAYER_2
 40
0.05
 41
0.05
 66
1
 10
0
 20
0
 30
0
  0
VERTEX
  8
LAYER_2
 10
-6.457
 20
223.2684
  0
VERTEX
  8
LAYER_2
 10
-8.0924
 20
223.2684
  0
VERTEX
  8
LAYER_2
 10
-8.0924
 20
216.1939
 42
0.1050424825
  0
VERTEX
  8
LAYER_2
 10
-7.9127
 20
215.3316
 42
0.1079536646
  0
VERTEX
  8
LAYER_2
 10
-7.4796
 20
214.75
 42
0.105678841
  0
VERTEX
  8
LAYER_2
 10
-6.8587
 20
214.4154
 42
0.04706827067
  0
VERTEX
  8
LAYER_2
 10
-6.4597
 20
214.3359
  0
VERTEX
  8
LAYER_2
 10
-6.457
 20
223.2684
  0
SEQEND
  0
INSERT
  8
LAYER_2
  2
AIGNBL02020005
 10
0
 20
0
 30
0
  0
ENDBLK
  0
BLOCK
  8
LAYER_2
  2
AIGNBL02010006
 70
64
 10
0
 20
0
 30
0
  3
AIGNBL02010006
  0
INSERT
  8
LAYER_2
  2
AIGNBL02020007
 10
0
 20
0
 30
0
  0
INSERT
  8
LAYER_2
  2
AIGNBL02020010
 10
0
 20
0
 30
0
  0
ENDBLK
  0
ENDSEC
  0
SECTION
  2
ENTITIES
  0
POLYLINE
  8
LAYER_1
 40
0.1129
 41
0.1129
 66
1
 10
0
 20
0
 30
0
  0
VERTEX
  8
LAYER_1
 10
44.1392
 20
177.0827
  0
VERTEX
  8
LAYER_1
 10
44.1392
 20
180.0529
  0
SEQEND
  0
POLYLINE
  8
LAYER_1
 40
0.05
 41
0.05
 66
1
 10
0
 20
0
 30
0
  0
VERTEX
  8
LAYER_1
 10
44.6302
 20
177.4317
  0
VERTEX
  8
LAYER_1
 10
44.1186
 20
175.5196
  0
VERTEX
  8
LAYER_1
 10
43.6053
 20
177.4317
  0
SEQEND
  0
POLYLINE
  8
LAYER_1
 40
0.05
 41
0.05
 66
1
 10
0
 20
0
 30
0
  0
VERTEX
  8
LAYER_1
 10
44.6302
 20
179.7029
  0
VERTEX
  8
LAYER_1
 10
44.1186
 20
181.6153
  0
VERTEX
  8
LAYER_1
 10
43.6053
 20
179.7029
  0
SEQEND
  0
POLYLINE
  8
LAYER_1
 40
0.1129
 41
0.1129
 66
1
 10
0
 20
0
 30
0
  0
VERTEX
  8
LAYER_1
 10
46.8295
 20
175.5196
  0
VERTEX
  8
LAYER_1
 10
41.5379
 20
175.5196
  0
SEQEND
  0
TEXT
  8
LAYER_1
 10
38.2719
 20
177.3389
 11
38.2719
 21
177.3389
 40
4.4427
 41
0.5
  1
60
  0
POLYLINE
  8
LAYER_1
 40
0.1129
 41
0.1129
 66
1
 10
0
 20
0
 30
0
  0
VERTEX
  8
LAYER_1
 10
166.1711
 20
181.3817
  0
VERTEX
  8
LAYER_1
 10
166.1711
 20
153.0306
  0
SEQEND
  0
POLYLINE
  8
LAYER_1
 40
0.05
 41
0.05
 66
1
 10
0
 20
0
 30
0
  0
VERTEX
  8
LAYER_1
 10
165.6805
 20
153.3984
  0
VERTEX
  8
LAYER_1
 10
166.1921
 20
151.3816
  0
VERTEX
  8
LAYER_1
 10
166.7047
 20
153.3984
  0
SEQEND
  0
POLYLINE
  8
LAYER_1
 40
0.1129
 41
0.1129
 66
1
 10
0
 20
0
 30
0
  0
VERTEX
  8
LAYER_1
 10
166.1711
 20
151.382
  0
VERTEX
  8
LAYER_1
 10
160.8798
 20
151.382
  0
SEQEND
  0
TEXT
  8
LAYER_1
 10
170.4559
 20
161.7638
 11
170.4559
 21
161.7638
 40
4.4427
 41
0.5
 50
89.99999999
 62
1
  1
300
  0
TEXT
  8
LAYER_1
 10
55.2235
 20
154.1977
 11
55.2235
 21
154.1977
 40
3.329
 41
0.5
  1
46
  0
INSERT
  8
LAYER_1
  2
AIGNBL01010002
 10
0
 20
0
 30
0
  0
POLYLINE
  8
LAYER_1
 40
0.1764
 41
0.1764
 66
1
 10
0
 20
0
 30
0
 70
1
  0
VERTEX
  8
LAYER_1
 10
49.1419
 20
157.0392
 42
-0.3952760765
  0
VERTEX
  8
LAYER_1
 10
46.9132
 20
159.2899
 42
-0.3911724289
  0
VERTEX
  8
LAYER_1
 10
49.1419
 20
161.5392
 42
-0.3952476752
  0
VERTEX
  8
LAYER_1
 10
51.3691
 20
159.2899
 42
-0.390967671
  0
SEQEND
  0
POLYLINE
  8
LAYER_1
 40
0.1764
 41
0.1764
 66
1
 10
0
 20
0
 30
0
 70
1
  0
VERTEX
  8
LAYER_1
 10
49.1408
 20
156.0818
 42
-0.3953887405
  0
VERTEX
  8
LAYER_1
 10
45.9651
 20
159.2899
 42
-0.3527337001
  0
VERTEX
  8
LAYER_1
 10
48.657
 20
162.4592
 42
-0.03828249063
  0
VERTEX
  8
LAYER_1
 10
49.1408
 20
162.4962
 42
-0.3951550493
  0
VERTEX
  8
LAYER_1
 10
52.3176
 20
159.2899
 42
-0.3527096091
  0
VERTEX
  8
LAYER_1
 10
49.6246
 20
156.1188
 42
-0.03828054243
  0
SEQEND
  0
POLYLINE
  8
LAYER_1
 40
0.1764
 41
0.1764
 66
1
 10
0
 20
0
 30
0
  0
VERTEX
  8
LAYER_1
 10
77.6693
 20
168.4204
  0
VERTEX
  8
LAYER_1
 10
77.6459
 20
168.574
  0
VERTEX
  8
LAYER_1
 10
77.5646
 20
168.7156
  0
VERTEX
  8
LAYER_1
 10
77.4595
 20
168.8342
  0
VERTEX
  8
LAYER_1
 10
77.3186
 20
168.9048
  0
VERTEX
  8
LAYER_1
 10
77.1684
 20
168.9282
  0
SEQEND
  0
POLYLINE
  8
LAYER_1
 40
0.1764
 41
0.1764
 66
1
 10
0
 20
0
 30
0
  0
VERTEX
  8
LAYER_1
 10
77.6693
 20
168.4204
  0
VERTEX
  8
LAYER_1
 10
77.6693
 20
137.4672
  0
SEQEND
  0
POLYLINE
  8
LAYER_1
 40
0.1764
 41
0.1764
 66
1
 10
0
 20
0
 30
0
  0
VERTEX
  8
LAYER_1
 10
77.1684
 20
136.9587
  0
VERTEX
  8
LAYER_1
 10
77.3186
 20
136.9822
  0
VERTEX
  8
LAYER_1
 10
77.4595
 20
137.0528
  0
VERTEX
  8
LAYER_1
 10
77.5646
 20
137.171
  0
VERTEX
  8
LAYER_1
 10
77.6459
 20
137.3012
  0
VERTEX
  8
LAYER_1
 10
77.6693
 20
137.4665
  0
SEQEND
  0
POLYLINE
  8
LAYER_1
 40
0.1764
 41
0.1764
 66
1
 10
0
 20
0
 30
0
  0
VERTEX
  8
LAYER_1
 10
77.1684
 20
136.9587
  0
VERTEX
  8
LAYER_1
 10
21.1625
 20
136.9587
  0
SEQEND
  0
POLYLINE
  8
LAYER_1
 40
0.1764
 41
0.1764
 66
1
 10
0
 20
0
 30
0
  0
VERTEX
  8
LAYER_1
 10
20.6616
 20
137.4672
  0
VERTEX
  8
LAYER_1
 10
20.6851
 20
137.3012
  0
VERTEX
  8
LAYER_1
 10
20.7553
 20
137.171
  0
VERTEX
  8
LAYER_1
 10
20.8718
 20
137.0528
  0
VERTEX
  8
LAYER_1
 10
21.0116
 20
136.9829
  0
VERTEX
  8
LAYER_1
 10
21.1625
 20
136.9587
  0
SEQEND
  0
POLYLINE
  8
LAYER_1
 40
0.1764
 41
0.1764
 66
1
 10
0
 20
0
 30
0
  0
VERTEX
  8
LAYER_1
 10
20.6616
 20
137.4672
  0
VERTEX
  8
LAYER_1
 10
20.6616
 20
168.4204
  0
SEQEND
  0
POLYLINE
  8
LAYER_1
 40
0.1764
 41
0.1764
 66
1
 10
0
 20
0
 30
0
  0
VERTEX
  8
LAYER_1
 10
21.1625
 20
168.9289
  0
VERTEX
  8
LAYER_1
 10
21.0116
 20
168.9051
  0
VERTEX
  8
LAYER_1
 10
20.8718
 20
168.8342
  0
VERTEX
  8
LAYER_1
 10
20.7553
 20
168.7156
  0
VERTEX
  8
LAYER_1
 10
20.6851
 20
168.574
  0
VERTEX
  8
LAYER_1
 10
20.6616
 20
168.4204
  0
SEQEND
  0
POLYLINE
  8
LAYER_1
 40
0.1764
 41
0.1764
 66
1
 10
0
 20
0
 30
0
  0
VERTEX
  8
LAYER_1
 10
21.1625
 20
168.9289
  0
VERTEX
  8
LAYER_1
 10
77.1684
 20
168.9289
  0
SEQEND
  0
POLYLINE
  8
LAYER_1
 40
0.1764
 41
0.1764
 66
1
 10
0
 20
0
 30
0
  0
VERTEX
  8
LAYER_1
 10
73.1611
 20
168.9289
  0
VERTEX
  8
LAYER_1
 10
73.1611
 20
142.1443
  0
SEQEND
  0
POLYLINE
  8
LAYER_1
 40
0.1764
 41
0.1764
 66
1
 10
0
 20
0
 30
0
  0
VERTEX
  8
LAYER_1
 10
72.6598
 20
141.6368
  0
VERTEX
  8
LAYER_1
 10
72.8238
 20
141.6599
  0
VERTEX
  8
LAYER_1
 10
72.9626
 20
141.7306
  0
VERTEX
  8
LAYER_1
 10
73.067
 20
141.849
  0
VERTEX
  8
LAYER_1
 10
73.1373
 20
141.992
  0
VERTEX
  8
LAYER_1
 10
73.1611
 20
142.1443
  0
SEQEND
  0
POLYLINE
  8
LAYER_1
 40
0.1764
 41
0.1764
 66
1
 10
0
 20
0
 30
0
  0
VERTEX
  8
LAYER_1
 10
72.6598
 20
141.6368
  0
VERTEX
  8
LAYER_1
 10
25.6722
 20
141.6368
  0
SEQEND
  0
POLYLINE
  8
LAYER_1
 40
0.1764
 41
0.1764
 66
1
 10
0
 20
0
 30
0
  0
VERTEX
  8
LAYER_1
 10
25.1702
 20
142.1443
  0
VERTEX
  8
LAYER_1
 10
25.1926
 20
141.9913
  0
VERTEX
  8
LAYER_1
 10
25.2639
 20
141.8487
  0
VERTEX
  8
LAYER_1
 10
25.3673
 20
141.7302
  0
VERTEX
  8
LAYER_1
 10
25.5075
 20
141.6599
  0
VERTEX
  8
LAYER_1
 10
25.6711
 20
141.6368
  0
SEQEND
  0
POLYLINE
  8
LAYER_1
 40
0.1764
 41
0.1764
 66
1
 10
0
 20
0
 30
0
  0
VERTEX
  8
LAYER_1
 10
25.1702
 20
142.1443
  0
VERTEX
  8
LAYER_1
 10
25.1702
 20
168.9289
  0
SEQEND
  0
POLYLINE
  8
LAYER_1
 40
0.1764
 41
0.1764
 66
1
 10
0
 20
0
 30
0
  0
VERTEX
  8
LAYER_1
 10
79.1597
 20
181.1069
  0
VERTEX
  8
LAYER_1
 10
79.1373
 20
181.2727
  0
VERTEX
  8
LAYER_1
 10
79.0667
 20
181.4015
  0
VERTEX
  8
LAYER_1
 10
78.9616
 20
181.52
  0
VERTEX
  8
LAYER_1
 10
78.8224
 20
181.5906
  0
VERTEX
  8
LAYER_1
 10
78.6712
 20
181.6151
  0
SEQEND
  0
POLYLINE
  8
LAYER_1
 40
0.1764
 41
0.1764
 66
1
 10
0
 20
0
 30
0
  0
VERTEX
  8
LAYER_1
 10
79.1597
 20
181.1069
  0
VERTEX
  8
LAYER_1
 10
79.1597
 20
135.9414
  0
SEQEND
  0
POLYLINE
  8
LAYER_1
 40
0.1764
 41
0.1764
 66
1
 10
0
 20
0
 30
0
  0
VERTEX
  8
LAYER_1
 10
78.6712
 20
135.4333
  0
VERTEX
  8
LAYER_1
 10
78.8224
 20
135.4563
  0
VERTEX
  8
LAYER_1
 10
78.9616
 20
135.527
  0
VERTEX
  8
LAYER_1
 10
79.0667
 20
135.6465
  0
VERTEX
  8
LAYER_1
 10
79.1373
 20
135.7878
  0
VERTEX
  8
LAYER_1
 10
79.1593
 20
135.9414
  0
SEQEND
  0
POLYLINE
  8
LAYER_1
 40
0.1764
 41
0.1764
 66
1
 10
0
 20
0
 30
0
  0
VERTEX
  8
LAYER_1
 10
78.6712
 20
135.4333
  0
VERTEX
  8
LAYER_1
 10
19.6605
 20
135.4333
  0
SEQEND
  0
POLYLINE
  8
LAYER_1
 40
0.1764
 41
0.1764
 66
1
 10
0
 20
0
 30
0
  0
VERTEX
  8
LAYER_1
 10
19.1599
 20
135.9414
  0
VERTEX
  8
LAYER_1
 10
19.1954
 20
135.7878
  0
VERTEX
  8
LAYER_1
 10
19.265
 20
135.6465
  0
VERTEX
  8
LAYER_1
 10
19.3694
 20
135.527
  0
VERTEX
  8
LAYER_1
 10
19.5096
 20
135.457
  0
VERTEX
  8
LAYER_1
 10
19.6608
 20
135.4333
  0
SEQEND
  0
POLYLINE
  8
LAYER_1
 40
0.1764
 41
0.1764
 66
1
 10
0
 20
0
 30
0
  0
VERTEX
  8
LAYER_1
 10
19.1599
 20
135.9414
  0
VERTEX
  8
LAYER_1
 10
19.1599
 20
181.1069
  0
SEQEND
  0
POLYLINE
  8
LAYER_1
 40
0.1764
 41
0.1764
 66
1
 10
0
 20
0
 30
0
  0
VERTEX
  8
LAYER_1
 10
19.6608
 20
181.6151
  0
VERTEX
  8
LAYER_1
 10
19.5085
 20
181.5913
  0
VERTEX
  8
LAYER_1
 10
19.3694
 20
181.5207
  0
VERTEX
  8
LAYER_1
 10
19.265
 20
181.4022
  0
VERTEX
  8
LAYER_1
 10
19.195
 20
181.272
  0
VERTEX
  8
LAYER_1
 10
19.1592
 20
181.1069
  0
SEQEND
  0
POLYLINE
  8
LAYER_1
 40
0.1764
 41
0.1764
 66
1
 10
0
 20
0
 30
0
  0
VERTEX
  8
LAYER_1
 10
19.6608
 20
181.6151
  0
VERTEX
  8
LAYER_1
 10
78.6712
 20
181.6151
  0
SEQEND
  0
POLYLINE
  8
LAYER_1
 40
0.1764
 41
0.1764
 66
1
 10
0
 20
0
 30
0
 70
1
  0
VERTEX
  8
LAYER_1
 10
50.9078
 20
175.5181
  0
VERTEX
  8
LAYER_1
 10
50.8841
 20
175.8013
  0
VERTEX
  8
LAYER_1
 10
50.8262
 20
176.0731
 42
0.1082364812
  0
VERTEX
  8
LAYER_1
 10
50.3886
 20
176.7834
 42
0.5561209022
  0
VERTEX
  8
LAYER_1
 10
47.4359
 20
175.8013
  0
VERTEX
  8
LAYER_1
 10
47.4135
 20
175.5181
  0
VERTEX
  8
LAYER_1
 10
47.4359
 20
175.2456
 42
0.1099363304
  0
VERTEX
  8
LAYER_1
 10
47.7431
 20
174.4766
 42
0.3092655641
  0
VERTEX
  8
LAYER_1
 10
49.6244
 20
173.8079
 42
0.2162931085
  0
VERTEX
  8
LAYER_1
 10
50.7258
 20
174.7355
 42
0.02985356718
  0
VERTEX
  8
LAYER_1
 10
50.8262
 20
174.9741
  0
VERTEX
  8
LAYER_1
 10
50.8841
 20
175.2456
  0
SEQEND
  0
POLYLINE
  8
LAYER_1
 40
0.1764
 41
0.1764
 66
1
 10
0
 20
0
 30
0
 70
1
  0
VERTEX
  8
LAYER_1
 10
47.6581
 20
167.5219
  0
VERTEX
  8
LAYER_1
 10
47.6812
 20
167.4034
  0
VERTEX
  8
LAYER_1
 10
47.7624
 20
167.2852
 42
0.08040947601
  0
VERTEX
  8
LAYER_1
 10
47.9962
 20
167.1178
 42
0.05286067529
  0
VERTEX
  8
LAYER_1
 10
48.3384
 20
166.9901
 42
0.07991437544
  0
VERTEX
  8
LAYER_1
 10
49.3466
 20
166.8975
 42
0.08160369059
  0
VERTEX
  8
LAYER_1
 10
50.2352
 20
167.0842
 42
0.119870604
  0
VERTEX
  8
LAYER_1
 10
50.5933
 20
167.3438
  0
VERTEX
  8
LAYER_1
 10
50.6508
 20
167.463
  0
VERTEX
  8
LAYER_1
 10
50.6508
 20
167.5812
  0
VERTEX
  8
LAYER_1
 10
50.5933
 20
167.6997
 42
0.1556163639
  0
VERTEX
  8
LAYER_1
 10
50.0643
 20
168.0142
 42
0.01568595411
  0
VERTEX
  8
LAYER_1
 10
49.6493
 20
168.1134
  0
VERTEX
  8
LAYER_1
 10
49.3703
 20
168.1365
  0
VERTEX
  8
LAYER_1
 10
49.0905
 20
168.1475
 42
0.060646687
  0
VERTEX
  8
LAYER_1
 10
48.3423
 20
168.0464
 42
0.07257600357
  0
VERTEX
  8
LAYER_1
 10
47.9027
 20
167.8523
  0
VERTEX
  8
LAYER_1
 10
47.7624
 20
167.7465
  0
VERTEX
  8
LAYER_1
 10
47.6812
 20
167.6407
  0
SEQEND
  0
POLYLINE
  8
LAYER_1
 40
0.1764
 41
0.1764
 66
1
 10
0
 20
0
 30
0
  0
VERTEX
  8
LAYER_1
 10
25.3683
 20
141.7306
  0
VERTEX
  8
LAYER_1
 10
20.8718
 20
137.0528
  0
SEQEND
  0
POLYLINE
  8
LAYER_1
 40
0.1764
 41
0.1764
 66
1
 10
0
 20
0
 30
0
  0
VERTEX
  8
LAYER_1
 10
72.9626
 20
141.7306
  0
VERTEX
  8
LAYER_1
 10
77.5646
 20
137.1713
  0
SEQEND
  0
POLYLINE
  8
LAYER_1
 40
0.1764
 41
0.1764
 66
1
 10
0
 20
0
 30
0
  0
VERTEX
  8
LAYER_1
 10
78.2502
 20
98.5335
  0
VERTEX
  8
LAYER_1
 10
78.2739
 20
98.5335
  0
SEQEND
  0
POLYLINE
  8
LAYER_1
 40
0.1764
 41
0.1764
 66
1
 10
0
 20
0
 30
0
  0
VERTEX
  8
LAYER_1
 10
49.1601
 20
98.5335
  0
VERTEX
  8
LAYER_1
 10
78.2739
 20
98.5335
  0
SEQEND
  0
POLYLINE
  8
LAYER_1
 40
0.1764
 41
0.1764
 66
1
 10
0
 20
0
 30
0
  0
VERTEX
  8
LAYER_1
 10
51.4091
 20
83.3055
  0
VERTEX
  8
LAYER_1
 10
49.1601
 20
83.3055
  0
SEQEND
  0
POLYLINE
  8
LAYER_1
 40
0.1764
 41
0.1764
 66
1
 10
0
 20
0
 30
0
  0
VERTEX
  8
LAYER_1
 10
52.4103
 20
84.8541
  0
VERTEX
  8
LAYER_1
 10
52.4103
 20
83.3052
  0
SEQEND
  0
POLYLINE
  8
LAYER_1
 40
0.1764
 41
0.1764
 66
1
 10
0
 20
0
 30
0
  0
VERTEX
  8
LAYER_1
 10
78.2746
 20
98.5335
  0
VERTEX
  8
LAYER_1
 10
78.6588
 20
98.5335
  0
VERTEX
  8
LAYER_1
 10
78.8224
 20
98.5101
  0
VERTEX
  8
LAYER_1
 10
78.9616
 20
98.4384
  0
VERTEX
  8
LAYER_1
 10
79.0667
 20
98.321
  0
VERTEX
  8
LAYER_1
 10
79.1359
 20
98.1794
  0
VERTEX
  8
LAYER_1
 10
79.1597
 20
98.0247
  0
VERTEX
  8
LAYER_1
 10
79.1597
 20
85.3392
  0
SEQEND
  0
POLYLINE
  8
LAYER_1
 40
0.1764
 41
0.1764
 66
1
 10
0
 20
0
 30
0
  0
VERTEX
  8
LAYER_1
 10
52.6783
 20
85.2554
  0
VERTEX
  8
LAYER_1
 10
52.504
 20
85.0787
  0
VERTEX
  8
LAYER_1
 10
52.4337
 20
84.9719
  0
VERTEX
  8
LAYER_1
 10
52.4103
 20
84.8548
  0
SEQEND
  0
POLYLINE
  8
LAYER_1
 40
0.1764
 41
0.1764
 66
1
 10
0
 20
0
 30
0
  0
VERTEX
  8
LAYER_1
 10
51.4091
 20
83.3055
  0
VERTEX
  8
LAYER_1
 10
52.4113
 20
83.3055
  0
SEQEND
  0
POLYLINE
  8
LAYER_1
 40
0.1764
 41
0.1764
 66
1
 10
0
 20
0
 30
0
  0
VERTEX
  8
LAYER_1
 10
19.1606
 20
98.0247
  0
VERTEX
  8
LAYER_1
 10
19.1606
 20
85.3385
  0
SEQEND
  0
POLYLINE
  8
LAYER_1
 40
0.1764
 41
0.1764
 66
1
 10
0
 20
0
 30
0
  0
VERTEX
  8
LAYER_1
 10
49.1601
 20
98.5335
  0
VERTEX
  8
LAYER_1
 10
20.0563
 20
98.5335
  0
SEQEND
  0
POLYLINE
  8
LAYER_1
 40
0.1764
 41
0.1764
 66
1
 10
0
 20
0
 30
0
  0
VERTEX
  8
LAYER_1
 10
46.9122
 20
83.3055
  0
VERTEX
  8
LAYER_1
 10
49.1601
 20
83.3055
  0
SEQEND
  0
POLYLINE
  8
LAYER_1
 40
0.1764
 41
0.1764
 66
1
 10
0
 20
0
 30
0
  0
VERTEX
  8
LAYER_1
 10
45.91
 20
84.8541
  0
VERTEX
  8
LAYER_1
 10
45.91
 20
83.3052
  0
SEQEND
  0
POLYLINE
  8
LAYER_1
 40
0.1764
 41
0.1764
 66
1
 10
0
 20
0
 30
0
  0
VERTEX
  8
LAYER_1
 10
19.1713
 20
85.3392
  0
VERTEX
  8
LAYER_1
 10
79.1597
 20
85.3392
  0
SEQEND
  0
POLYLINE
  8
LAYER_1
 40
0.1764
 41
0.1764
 66
1
 10
0
 20
0
 30
0
  0
VERTEX
  8
LAYER_1
 10
45.6424
 20
85.2554
  0
VERTEX
  8
LAYER_1
 10
45.5373
 20
85.3157
  0
VERTEX
  8
LAYER_1
 10
45.4322
 20
85.3392
  0
SEQEND
  0
POLYLINE
  8
LAYER_1
 40
0.1764
 41
0.1764
 66
1
 10
0
 20
0
 30
0
  0
VERTEX
  8
LAYER_1
 10
20.3478
 20
98.5335
  0
VERTEX
  8
LAYER_1
 10
19.6608
 20
98.5335
  0
VERTEX
  8
LAYER_1
 10
19.5096
 20
98.5101
  0
VERTEX
  8
LAYER_1
 10
19.3694
 20
98.4384
  0
VERTEX
  8
LAYER_1
 10
19.2639
 20
98.321
  0
VERTEX
  8
LAYER_1
 10
19.194
 20
98.1794
  0
VERTEX
  8
LAYER_1
 10
19.1599
 20
98.0247
  0
SEQEND
  0
POLYLINE
  8
LAYER_1
 40
0.1764
 41
0.1764
 66
1
 10
0
 20
0
 30
0
  0
VERTEX
  8
LAYER_1
 10
45.6424
 20
85.2554
  0
VERTEX
  8
LAYER_1
 10
45.817
 20
85.0787
  0
SEQEND
  0
POLYLINE
  8
LAYER_1
 40
0.1764
 41
0.1764
 66
1
 10
0
 20
0
 30
0
  0
VERTEX
  8
LAYER_1
 10
45.91
 20
84.8541
  0
VERTEX
  8
LAYER_1
 10
45.8869
 20
84.9719
  0
VERTEX
  8
LAYER_1
 10
45.817
 20
85.0784
  0
SEQEND
  0
POLYLINE
  8
LAYER_1
 40
0.1764
 41
0.1764
 66
1
 10
0
 20
0
 30
0
  0
VERTEX
  8
LAYER_1
 10
46.9122
 20
83.3055
  0
VERTEX
  8
LAYER_1
 10
45.91
 20
83.3055
  0
SEQEND
  0
POLYLINE
  8
LAYER_1
 40
0.1764
 41
0.1764
 66
1
 10
0
 20
0
 30
0
  0
VERTEX
  8
LAYER_1
 10
156.2582
 20
85.3392
  0
VERTEX
  8
LAYER_1
 10
163.7247
 20
85.3392
  0
SEQEND
  0
POLYLINE
  8
LAYER_1
 40
0.1764
 41
0.1764
 66
1
 10
0
 20
0
 30
0
  0
VERTEX
  8
LAYER_1
 10
162.245
 20
83.3055
  0
VERTEX
  8
LAYER_1
 10
159.9847
 20
83.3055
  0
SEQEND
  0
POLYLINE
  8
LAYER_1
 40
0.1764
 41
0.1764
 66
1
 10
0
 20
0
 30
0
  0
VERTEX
  8
LAYER_1
 10
162.245
 20
83.3055
  0
VERTEX
  8
LAYER_1
 10
163.2358
 20
83.3055
  0
VERTEX
  8
LAYER_1
 10
163.2358
 20
84.8548
  0
VERTEX
  8
LAYER_1
 10
163.2586
 20
84.9726
  0
VERTEX
  8
LAYER_1
 10
163.3282
 20
85.0787
  0
VERTEX
  8
LAYER_1
 10
163.5149
 20
85.2551
  0
VERTEX
  8
LAYER_1
 10
163.6083
 20
85.3154
  0
VERTEX
  8
LAYER_1
 10
163.7247
 20
85.3392
  0
VERTEX
  8
LAYER_1
 10
181.9896
 20
85.3392
  0
SEQEND
  0
POLYLINE
  8
LAYER_1
 40
0.1764
 41
0.1764
 66
1
 10
0
 20
0
 30
0
  0
VERTEX
  8
LAYER_1
 10
157.7365
 20
83.3055
  0
VERTEX
  8
LAYER_1
 10
159.9847
 20
83.3055
  0
SEQEND
  0
POLYLINE
  8
LAYER_1
 40
0.1764
 41
0.1764
 66
1
 10
0
 20
0
 30
0
  0
VERTEX
  8
LAYER_1
 10
157.7365
 20
83.3055
  0
VERTEX
  8
LAYER_1
 10
156.7473
 20
83.3055
  0
VERTEX
  8
LAYER_1
 10
156.7473
 20
84.8548
  0
VERTEX
  8
LAYER_1
 10
156.7236
 20
84.9726
  0
VERTEX
  8
LAYER_1
 10
156.654
 20
85.0787
  0
VERTEX
  8
LAYER_1
 10
156.4673
 20
85.2551
  0
VERTEX
  8
LAYER_1
 10
156.3746
 20
85.3154
  0
VERTEX
  8
LAYER_1
 10
156.2582
 20
85.3392
  0
VERTEX
  8
LAYER_1
 10
136.4895
 20
85.3392
  0
VERTEX
  8
LAYER_1
 10
136.4895
 20
98.2024
  0
VERTEX
  8
LAYER_1
 10
136.5012
 20
98.2145
  0
VERTEX
  8
LAYER_1
 10
136.5012
 20
98.2376
  0
VERTEX
  8
LAYER_1
 10
136.5133
 20
98.25
  0
VERTEX
  8
LAYER_1
 10
136.5133
 20
98.2851
  0
VERTEX
  8
LAYER_1
 10
136.5243
 20
98.2975
  0
VERTEX
  8
LAYER_1
 10
136.5243
 20
98.3085
  0
VERTEX
  8
LAYER_1
 10
136.5357
 20
98.321
  0
VERTEX
  8
LAYER_1
 10
136.5481
 20
98.333
  0
VERTEX
  8
LAYER_1
 10
136.5481
 20
98.3447
  0
VERTEX
  8
LAYER_1
 10
136.5591
 20
98.3554
  0
VERTEX
  8
LAYER_1
 10
136.5591
 20
98.3675
  0
VERTEX
  8
LAYER_1
 10
136.5712
 20
98.3792
  0
VERTEX
  8
LAYER_1
 10
136.5825
 20
98.3916
  0
VERTEX
  8
LAYER_1
 10
136.5946
 20
98.4037
  0
VERTEX
  8
LAYER_1
 10
136.6407
 20
98.4508
  0
VERTEX
  8
LAYER_1
 10
136.6528
 20
98.4629
  0
VERTEX
  8
LAYER_1
 10
136.6652
 20
98.4629
  0
VERTEX
  8
LAYER_1
 10
136.6876
 20
98.4863
  0
VERTEX
  8
LAYER_1
 10
136.699
 20
98.4863
  0
VERTEX
  8
LAYER_1
 10
136.7114
 20
98.4977
  0
VERTEX
  8
LAYER_1
 10
136.7227
 20
98.4977
  0
VERTEX
  8
LAYER_1
 10
136.7345
 20
98.5101
  0
VERTEX
  8
LAYER_1
 10
136.7686
 20
98.5101
  0
VERTEX
  8
LAYER_1
 10
136.7803
 20
98.5225
  0
VERTEX
  8
LAYER_1
 10
136.804
 20
98.5225
  0
VERTEX
  8
LAYER_1
 10
136.8154
 20
98.5339
  0
VERTEX
  8
LAYER_1
 10
181.489
 20
98.5339
  0
SEQEND
  0
POLYLINE
  8
LAYER_1
 40
0.1129
 41
0.1129
 66
1
 10
0
 20
0
 30
0
  0
VERTEX
  8
LAYER_1
 10
51.4091
 20
85.2785
  0
VERTEX
  8
LAYER_1
 10
51.4091
 20
84.9264
  0
SEQEND
  0
POLYLINE
  8
LAYER_1
  6
AIGENLINE002
 40
0.1129
 41
0.1129
 66
1
 10
0
 20
0
 30
0
 70
128
  0
VERTEX
  8
LAYER_1
 10
51.4091
 20
84.5034
  0
VERTEX
  8
LAYER_1
 10
51.4091
 20
83.8688
  0
SEQEND
  0
POLYLINE
  8
LAYER_1
 40
0.1129
 41
0.1129
 66
1
 10
0
 20
0
 30
0
  0
VERTEX
  8
LAYER_1
 10
51.4091
 20
83.6576
  0
VERTEX
  8
LAYER_1
 10
51.4091
 20
83.3052
  0
SEQEND
  0
POLYLINE
  8
LAYER_1
 40
0.1129
 41
0.1129
 66
1
 10
0
 20
0
 30
0
  0
VERTEX
  8
LAYER_1
 10
52.2828
 20
86.2721
  0
VERTEX
  8
LAYER_1
 10
52.0309
 20
86.0247
  0
SEQEND
  0
POLYLINE
  8
LAYER_1
 40
0.1129
 41
0.1129
 66
1
 10
0
 20
0
 30
0
  0
VERTEX
  8
LAYER_1
 10
51.7532
 20
85.7512
  0
VERTEX
  8
LAYER_1
 10
51.5018
 20
85.5038
  0
SEQEND
  0
POLYLINE
  8
LAYER_1
  6
AIGENLINE001
 40
0.1129
 41
0.1129
 66
1
 10
0
 20
0
 30
0
 70
128
  0
VERTEX
  8
LAYER_1
 10
51.4091
 20
85.4091
  0
VERTEX
  8
LAYER_1
 10
49.1601
 20
85.4091
  0
SEQEND
  0
POLYLINE
  8
LAYER_1
 40
0.1129
 41
0.1129
 66
1
 10
0
 20
0
 30
0
  0
VERTEX
  8
LAYER_1
 10
46.9122
 20
83.3052
  0
VERTEX
  8
LAYER_1
 10
46.9122
 20
83.6576
  0
SEQEND
  0
POLYLINE
  8
LAYER_1
  6
AIGENLINE003
 40
0.1129
 41
0.1129
 66
1
 10
0
 20
0
 30
0
 70
128
  0
VERTEX
  8
LAYER_1
 10
46.9122
 20
84.1633
  0
VERTEX
  8
LAYER_1
 10
46.9122
 20
84.9219
  0
SEQEND
  0
POLYLINE
  8
LAYER_1
 40
0.1129
 41
0.1129
 66
1
 10
0
 20
0
 30
0
  0
VERTEX
  8
LAYER_1
 10
46.9122
 20
85.1748
  0
VERTEX
  8
LAYER_1
 10
46.9122
 20
85.2785
  0
VERTEX
  8
LAYER_1
 10
46.8884
 20
85.3977
  0
VERTEX
  8
LAYER_1
 10
46.8185
 20
85.5038
  0
SEQEND
  0
POLYLINE
  8
LAYER_1
 40
0.1129
 41
0.1129
 66
1
 10
0
 20
0
 30
0
  0
VERTEX
  8
LAYER_1
 10
46.0385
 20
86.2721
  0
VERTEX
  8
LAYER_1
 10
46.2904
 20
86.0247
  0
SEQEND
  0
POLYLINE
  8
LAYER_1
 40
0.1129
 41
0.1129
 66
1
 10
0
 20
0
 30
0
  0
VERTEX
  8
LAYER_1
 10
46.5674
 20
85.7512
  0
VERTEX
  8
LAYER_1
 10
46.8185
 20
85.5038
  0
SEQEND
  0
INSERT
  8
LAYER_1
  2
AIGNBL01010003
 10
0
 20
0
 30
0
  0
POLYLINE
  8
LAYER_1
 40
0.1129
 41
0.1129
 66
1
 10
0
 20
0
 30
0
  0
VERTEX
  8
LAYER_1
 10
35.2378
 20
93.4169
  0
VERTEX
  8
LAYER_1
 10
35.2378
 20
89.9452
  0
SEQEND
  0
POLYLINE
  8
LAYER_1
 40
0.1129
 41
0.1129
 66
1
 10
0
 20
0
 30
0
  0
VERTEX
  8
LAYER_1
 10
33.5018
 20
91.6805
  0
VERTEX
  8
LAYER_1
 10
36.9738
 20
91.6805
  0
SEQEND
  0
CIRCLE
  8
LAYER_1
  6
AIGENLINE001
 10
63.2482
 20
91.6816
 40
1.1841
  0
POLYLINE
  8
LAYER_1
 40
0.1129
 41
0.1129
 66
1
 10
0
 20
0
 30
0
  0
VERTEX
  8
LAYER_1
 10
63.2489
 20
93.4169
  0
VERTEX
  8
LAYER_1
 10
63.2489
 20
89.9452
  0
SEQEND
  0
POLYLINE
  8
LAYER_1
 40
0.1129
 41
0.1129
 66
1
 10
0
 20
0
 30
0
  0
VERTEX
  8
LAYER_1
 10
61.5122
 20
91.6805
  0
VERTEX
  8
LAYER_1
 10
64.9841
 20
91.6805
  0
SEQEND
  0
POLYLINE
  8
LAYER_1
 40
0.1129
 41
0.1129
 66
1
 10
0
 20
0
 30
0
  0
VERTEX
  8
LAYER_1
 10
78.2633
 20
98.5328
  0
VERTEX
  8
LAYER_1
 10
78.2281
 20
98.5328
 42
0.07550573165
  0
VERTEX
  8
LAYER_1
 10
77.9205
 20
98.4553
  0
SEQEND
  0
POLYLINE
  8
LAYER_1
 40
0.1129
 41
0.1129
 66
1
 10
0
 20
0
 30
0
  0
VERTEX
  8
LAYER_1
 10
77.5973
 20
98.2321
 42
0.07120568176
  0
VERTEX
  8
LAYER_1
 10
77.413
 20
97.9775
  0
VERTEX
  8
LAYER_1
 10
77.4006
 20
97.9417
  0
VERTEX
  8
LAYER_1
 10
77.4357
 20
98.0123
  0
VERTEX
  8
LAYER_1
 10
77.3269
 20
97.6771
  0
SEQEND
  0
POLYLINE
  8
LAYER_1
  6
AIGENLINE004
 40
0.1129
 41
0.1129
 66
1
 10
0
 20
0
 30
0
 70
128
  0
VERTEX
  8
LAYER_1
 10
77.1178
 20
97.0311
  0
VERTEX
  8
LAYER_1
 10
73.8742
 20
87.0134
  0
SEQEND
  0
POLYLINE
  8
LAYER_1
 40
0.1129
 41
0.1129
 66
1
 10
0
 20
0
 30
0
  0
VERTEX
  8
LAYER_1
 10
73.7702
 20
86.6903
  0
VERTEX
  8
LAYER_1
 10
73.6613
 20
86.3548
  0
VERTEX
  8
LAYER_1
 10
73.3085
 20
86.3548
  0
SEQEND
  0
POLYLINE
  8
LAYER_1
  6
AIGENLINE005
 40
0.1129
 41
0.1129
 66
1
 10
0
 20
0
 30
0
 70
128
  0
VERTEX
  8
LAYER_1
 10
72.594
 20
86.3548
  0
VERTEX
  8
LAYER_1
 10
52.9721
 20
86.3548
  0
SEQEND
  0
POLYLINE
  8
LAYER_1
 40
0.1129
 41
0.1129
 66
1
 10
0
 20
0
 30
0
  0
VERTEX
  8
LAYER_1
 10
52.6159
 20
86.3548
  0
VERTEX
  8
LAYER_1
 10
52.4919
 20
86.3548
  0
VERTEX
  8
LAYER_1
 10
52.3754
 20
86.3314
  0
VERTEX
  8
LAYER_1
 10
52.2828
 20
86.2721
  0
SEQEND
  0
POLYLINE
  8
LAYER_1
 40
0.1129
 41
0.1129
 66
1
 10
0
 20
0
 30
0
  0
VERTEX
  8
LAYER_1
 10
52.4802
 20
86.3548
  0
VERTEX
  8
LAYER_1
 10
52.1277
 20
86.3548
  0
SEQEND
  0
POLYLINE
  8
LAYER_1
  6
AIGENLINE006
 40
0.1129
 41
0.1129
 66
1
 10
0
 20
0
 30
0
 70
128
  0
VERTEX
  8
LAYER_1
 10
51.2561
 20
86.3548
  0
VERTEX
  8
LAYER_1
 10
49.9487
 20
86.3548
  0
SEQEND
  0
POLYLINE
  8
LAYER_1
 40
0.1129
 41
0.1129
 66
1
 10
0
 20
0
 30
0
  0
VERTEX
  8
LAYER_1
 10
49.5136
 20
86.3548
  0
VERTEX
  8
LAYER_1
 10
49.1612
 20
86.3548
  0
SEQEND
  0
POLYLINE
  8
LAYER_1
 40
0.1129
 41
0.1129
 66
1
 10
0
 20
0
 30
0
  0
VERTEX
  8
LAYER_1
 10
45.8294
 20
86.3548
  0
VERTEX
  8
LAYER_1
 10
45.4763
 20
86.3548
  0
SEQEND
  0
POLYLINE
  8
LAYER_1
  6
AIGENLINE007
 40
0.1129
 41
0.1129
 66
1
 10
0
 20
0
 30
0
 70
128
  0
VERTEX
  8
LAYER_1
 10
44.7711
 20
86.3548
  0
VERTEX
  8
LAYER_1
 10
25.3748
 20
86.3548
  0
SEQEND
  0
POLYLINE
  8
LAYER_1
 40
0.1129
 41
0.1129
 66
1
 10
0
 20
0
 30
0
  0
VERTEX
  8
LAYER_1
 10
25.0224
 20
86.3548
  0
VERTEX
  8
LAYER_1
 10
24.6696
 20
86.3548
  0
VERTEX
  8
LAYER_1
 10
24.5601
 20
86.6903
  0
SEQEND
  0
POLYLINE
  8
LAYER_1
  6
AIGENLINE008
 40
0.1129
 41
0.1129
 66
1
 10
0
 20
0
 30
0
 70
128
  0
VERTEX
  8
LAYER_1
 10
24.3348
 20
87.3814
  0
VERTEX
  8
LAYER_1
 10
20.848
 20
98.0963
  0
SEQEND
  0
POLYLINE
  8
LAYER_1
 40
0.1129
 41
0.1129
 66
1
 10
0
 20
0
 30
0
  0
VERTEX
  8
LAYER_1
 10
20.6675
 20
98.4037
  0
VERTEX
  8
LAYER_1
 10
20.6151
 20
98.4498
  0
VERTEX
  8
LAYER_1
 10
20.4873
 20
98.5097
  0
VERTEX
  8
LAYER_1
 10
20.3478
 20
98.5328
  0
SEQEND
  0
POLYLINE
  8
LAYER_1
 40
0.1129
 41
0.1129
 66
1
 10
0
 20
0
 30
0
  0
VERTEX
  8
LAYER_1
 10
45.8408
 20
86.3548
  0
VERTEX
  8
LAYER_1
 10
46.1929
 20
86.3548
  0
SEQEND
  0
POLYLINE
  8
LAYER_1
  6
AIGENLINE006
 40
0.1129
 41
0.1129
 66
1
 10
0
 20
0
 30
0
 70
128
  0
VERTEX
  8
LAYER_1
 10
47.0648
 20
86.3548
  0
VERTEX
  8
LAYER_1
 10
48.3719
 20
86.3548
  0
SEQEND
  0
POLYLINE
  8
LAYER_1
 40
0.1129
 41
0.1129
 66
1
 10
0
 20
0
 30
0
  0
VERTEX
  8
LAYER_1
 10
48.8077
 20
86.3548
  0
VERTEX
  8
LAYER_1
 10
49.1601
 20
86.3548
  0
SEQEND
  0
INSERT
  8
LAYER_1
  2
AIGNBL01010004
 10
0
 20
0
 30
0
  0
POLYLINE
  8
LAYER_1
 40
0.1129
 41
0.1129
 66
1
 10
0
 20
0
 30
0
  0
VERTEX
  8
LAYER_1
 10
14.9893
 20
181.5241
  0
VERTEX
  8
LAYER_1
 10
14.9893
 20
135.5242
  0
SEQEND
  0
POLYLINE
  8
LAYER_1
 40
0.1129
 41
0.1129
 66
1
 10
0
 20
0
 30
0
  0
VERTEX
  8
LAYER_1
 10
17.6968
 20
135.4329
  0
VERTEX
  8
LAYER_1
 10
12.4048
 20
135.4329
  0
SEQEND
  0
POLYLINE
  8
LAYER_1
 40
0.1129
 41
0.1129
 66
1
 10
0
 20
0
 30
0
  0
VERTEX
  8
LAYER_1
 10
12.4048
 20
181.6144
  0
VERTEX
  8
LAYER_1
 10
17.6968
 20
181.6144
  0
SEQEND
  0
TEXT
  8
LAYER_1
 10
13.2082
 20
156.1272
 11
13.2082
 21
156.1272
 40
4.4427
 41
0.5
 50
89.99999999
  1
460
  0
POLYLINE
  8
LAYER_1
 40
0.1129
 41
0.1129
 66
1
 10
0
 20
0
 30
0
  0
VERTEX
  8
LAYER_1
 10
188.1591
 20
181.5241
  0
VERTEX
  8
LAYER_1
 10
188.1591
 20
135.5242
  0
SEQEND
  0
POLYLINE
  8
LAYER_1
 40
0.1129
 41
0.1129
 66
1
 10
0
 20
0
 30
0
  0
VERTEX
  8
LAYER_1
 10
190.8666
 20
135.4329
  0
VERTEX
  8
LAYER_1
 10
185.5745
 20
135.4329
  0
SEQEND
  0
POLYLINE
  8
LAYER_1
 40
0.1129
 41
0.1129
 66
1
 10
0
 20
0
 30
0
  0
VERTEX
  8
LAYER_1
 10
185.5745
 20
181.6144
  0
VERTEX
  8
LAYER_1
 10
190.8666
 20
181.6144
  0
SEQEND
  0
TEXT
  8
LAYER_1
 10
192.7279
 20
156.1272
 11
192.7279
 21
156.1272
 40
4.4427
 41
0.5
 50
89.99999999
  1
460
  0
POLYLINE
  8
LAYER_1
 40
0.1129
 41
0.1129
 66
1
 10
0
 20
0
 30
0
  0
VERTEX
  8
LAYER_1
 10
180.4279
 20
78.4669
  0
VERTEX
  8
LAYER_1
 10
161.5484
 20
78.4669
  0
SEQEND
  0
POLYLINE
  8
LAYER_1
 40
0.05
 41
0.05
 66
1
 10
0
 20
0
 30
0
  0
VERTEX
  8
LAYER_1
 10
180.0779
 20
78.9582
  0
VERTEX
  8
LAYER_1
 10
181.9899
 20
78.4459
  0
VERTEX
  8
LAYER_1
 10
180.0779
 20
77.9329
  0
SEQEND
  0
POLYLINE
  8
LAYER_1
 40
0.05
 41
0.05
 66
1
 10
0
 20
0
 30
0
  0
VERTEX
  8
LAYER_1
 10
161.8974
 20
78.9582
  0
VERTEX
  8
LAYER_1
 10
159.9854
 20
78.4459
  0
VERTEX
  8
LAYER_1
 10
161.8974
 20
77.9329
  0
SEQEND
  0
POLYLINE
  8
LAYER_1
 40
0.1129
 41
0.1129
 66
1
 10
0
 20
0
 30
0
  0
VERTEX
  8
LAYER_1
 10
159.9854
 20
75.8896
  0
VERTEX
  8
LAYER_1
 10
159.9854
 20
81.1816
  0
SEQEND
  0
POLYLINE
  8
LAYER_1
 40
0.1129
 41
0.1129
 66
1
 10
0
 20
0
 30
0
  0
VERTEX
  8
LAYER_1
 10
181.9899
 20
81.1816
  0
VERTEX
  8
LAYER_1
 10
181.9899
 20
75.8896
  0
SEQEND
  0
TEXT
  8
LAYER_1
 10
167.4675
 20
73.97
 11
167.4675
 21
73.97
 40
4.4427
 41
0.5
  1
220
  0
POLYLINE
  8
LAYER_1
 40
0.1129
 41
0.1129
 66
1
 10
0
 20
0
 30
0
  0
VERTEX
  8
LAYER_1
 10
86.979
 20
180.0527
  0
VERTEX
  8
LAYER_1
 10
86.979
 20
170.4919
  0
SEQEND
  0
POLYLINE
  8
LAYER_1
 40
0.05
 41
0.05
 66
1
 10
0
 20
0
 30
0
  0
VERTEX
  8
LAYER_1
 10
86.4877
 20
179.7034
  0
VERTEX
  8
LAYER_1
 10
86.9993
 20
181.6158
  0
VERTEX
  8
LAYER_1
 10
87.512
 20
179.7034
  0
SEQEND
  0
POLYLINE
  8
LAYER_1
 40
0.05
 41
0.05
 66
1
 10
0
 20
0
 30
0
  0
VERTEX
  8
LAYER_1
 10
86.4877
 20
170.8409
  0
VERTEX
  8
LAYER_1
 10
86.9993
 20
168.9289
  0
VERTEX
  8
LAYER_1
 10
87.512
 20
170.8409
  0
SEQEND
  0
POLYLINE
  8
LAYER_1
 40
0.1129
 41
0.1129
 66
1
 10
0
 20
0
 30
0
  0
VERTEX
  8
LAYER_1
 10
86.979
 20
168.9289
  0
VERTEX
  8
LAYER_1
 10
81.6874
 20
168.9289
  0
SEQEND
  0
POLYLINE
  8
LAYER_1
 40
0.1129
 41
0.1129
 66
1
 10
0
 20
0
 30
0
  0
VERTEX
  8
LAYER_1
 10
81.6874
 20
181.6151
  0
VERTEX
  8
LAYER_1
 10
86.979
 20
181.6151
  0
SEQEND
  0
TEXT
  8
LAYER_1
 10
92.5349
 20
171.2505
 11
92.5349
 21
171.2505
 40
4.4427
 41
0.5
 50
89.99999999
  1
125
  0
POLYLINE
  8
LAYER_1
 40
0.1129
 41
0.1129
 66
1
 10
0
 20
0
 30
0
  0
VERTEX
  8
LAYER_1
 10
170.71
 20
108.331
  0
VERTEX
  8
LAYER_1
 10
180.4269
 20
108.331
  0
SEQEND
  0
POLYLINE
  8
LAYER_1
 40
0.05
 41
0.05
 66
1
 10
0
 20
0
 30
0
  0
VERTEX
  8
LAYER_1
 10
171.0597
 20
107.8408
  0
VERTEX
  8
LAYER_1
 10
169.147
 20
108.3527
  0
VERTEX
  8
LAYER_1
 10
171.0597
 20
108.865
  0
SEQEND
  0
POLYLINE
  8
LAYER_1
 40
0.05
 41
0.05
 66
1
 10
0
 20
0
 30
0
  0
VERTEX
  8
LAYER_1
 10
180.0779
 20
107.8408
  0
VERTEX
  8
LAYER_1
 10
181.9899
 20
108.3527
  0
VERTEX
  8
LAYER_1
 10
180.0779
 20
108.865
  0
SEQEND
  0
POLYLINE
  8
LAYER_1
 40
0.1129
 41
0.1129
 66
1
 10
0
 20
0
 30
0
  0
VERTEX
  8
LAYER_1
 10
181.9899
 20
108.331
  0
VERTEX
  8
LAYER_1
 10
181.9899
 20
103.0397
  0
SEQEND
  0
POLYLINE
  8
LAYER_1
 40
0.1129
 41
0.1129
 66
1
 10
0
 20
0
 30
0
  0
VERTEX
  8
LAYER_1
 10
169.1476
 20
103.0397
  0
VERTEX
  8
LAYER_1
 10
169.1476
 20
108.331
  0
SEQEND
  0
TEXT
  8
LAYER_1
 10
172.1187
 20
109.5558
 11
172.1187
 21
109.5558
 40
4.4427
 41
0.5
  1
125
  0
POLYLINE
  8
LAYER_1
 40
0.1129
 41
0.1129
 66
1
 10
0
 20
0
 30
0
  0
VERTEX
  8
LAYER_1
 10
139.6838
 20
108.331
  0
VERTEX
  8
LAYER_1
 10
167.5846
 20
108.331
  0
SEQEND
  0
POLYLINE
  8
LAYER_1
 40
0.05
 41
0.05
 66
1
 10
0
 20
0
 30
0
  0
VERTEX
  8
LAYER_1
 10
140.0331
 20
107.8408
  0
VERTEX
  8
LAYER_1
 10
138.1208
 20
108.3527
  0
VERTEX
  8
LAYER_1
 10
140.0331
 20
108.865
  0
SEQEND
  0
POLYLINE
  8
LAYER_1
 40
0.05
 41
0.05
 66
1
 10
0
 20
0
 30
0
  0
VERTEX
  8
LAYER_1
 10
167.2353
 20
107.8408
  0
VERTEX
  8
LAYER_1
 10
169.147
 20
108.3527
  0
VERTEX
  8
LAYER_1
 10
167.2353
 20
108.865
  0
SEQEND
  0
POLYLINE
  8
LAYER_1
 40
0.1129
 41
0.1129
 66
1
 10
0
 20
0
 30
0
  0
VERTEX
  8
LAYER_1
 10
169.1476
 20
108.331
  0
VERTEX
  8
LAYER_1
 10
169.1476
 20
103.0397
  0
SEQEND
  0
POLYLINE
  8
LAYER_1
 40
0.1129
 41
0.1129
 66
1
 10
0
 20
0
 30
0
  0
VERTEX
  8
LAYER_1
 10
138.1208
 20
103.0397
  0
VERTEX
  8
LAYER_1
 10
138.1208
 20
108.331
  0
SEQEND
  0
TEXT
  8
LAYER_1
 10
151.4574
 20
109.5558
 11
151.4574
 21
109.5558
 40
4.4427
 41
0.5
  1
320
  0
POLYLINE
  8
LAYER_1
 40
0.1129
 41
0.1129
 66
1
 10
0
 20
0
 30
0
  0
VERTEX
  8
LAYER_1
 10
36.8002
 20
102.6039
  0
VERTEX
  8
LAYER_1
 10
61.6865
 20
102.6039
  0
SEQEND
  0
POLYLINE
  8
LAYER_1
 40
0.05
 41
0.05
 66
1
 10
0
 20
0
 30
0
  0
VERTEX
  8
LAYER_1
 10
37.1505
 20
102.113
  0
VERTEX
  8
LAYER_1
 10
35.2378
 20
102.6249
  0
VERTEX
  8
LAYER_1
 10
37.1505
 20
103.1372
  0
SEQEND
  0
POLYLINE
  8
LAYER_1
 40
0.05
 41
0.05
 66
1
 10
0
 20
0
 30
0
  0
VERTEX
  8
LAYER_1
 10
61.3372
 20
102.113
  0
VERTEX
  8
LAYER_1
 10
63.2495
 20
102.6249
  0
VERTEX
  8
LAYER_1
 10
61.3372
 20
103.1372
  0
SEQEND
  0
POLYLINE
  8
LAYER_1
 40
0.1129
 41
0.1129
 66
1
 10
0
 20
0
 30
0
  0
VERTEX
  8
LAYER_1
 10
63.2489
 20
105.1567
  0
VERTEX
  8
LAYER_1
 10
63.2489
 20
99.8654
  0
SEQEND
  0
POLYLINE
  8
LAYER_1
 40
0.1129
 41
0.1129
 66
1
 10
0
 20
0
 30
0
  0
VERTEX
  8
LAYER_1
 10
35.2378
 20
99.8647
  0
VERTEX
  8
LAYER_1
 10
35.2378
 20
105.156
  0
SEQEND
  0
TEXT
  8
LAYER_1
 10
45.8559
 20
103.8276
 11
45.8559
 21
103.8276
 40
4.4427
 41
0.5
  1
280
  0
POLYLINE
  8
LAYER_1
 40
0.1129
 41
0.1129
 66
1
 10
0
 20
0
 30
0
  0
VERTEX
  8
LAYER_1
 10
19.1595
 20
185.866
  0
VERTEX
  8
LAYER_1
 10
79.1593
 20
185.866
  0
SEQEND
  0
POLYLINE
  8
LAYER_1
 40
0.1129
 41
0.1129
 66
1
 10
0
 20
0
 30
0
  0
VERTEX
  8
LAYER_1
 10
79.1597
 20
188.4734
  0
VERTEX
  8
LAYER_1
 10
79.1597
 20
183.1821
  0
SEQEND
  0
POLYLINE
  8
LAYER_1
 40
0.1129
 41
0.1129
 66
1
 10
0
 20
0
 30
0
  0
VERTEX
  8
LAYER_1
 10
19.1606
 20
183.1821
  0
VERTEX
  8
LAYER_1
 10
19.1606
 20
188.4734
  0
SEQEND
  0
TEXT
  8
LAYER_1
 10
45.643
 20
187.2144
 11
45.643
 21
187.2144
 40
4.4427
 41
0.5
  1
600
  0
POLYLINE
  8
LAYER_1
 40
0.1129
 41
0.1129
 66
1
 10
0
 20
0
 30
0
  0
VERTEX
  8
LAYER_1
 10
122.0763
 20
128.449
  0
VERTEX
  8
LAYER_1
 10
182.0761
 20
128.449
  0
SEQEND
  0
POLYLINE
  8
LAYER_1
 40
0.1129
 41
0.1129
 66
1
 10
0
 20
0
 30
0
  0
VERTEX
  8
LAYER_1
 10
182.0764
 20
131.0566
  0
VERTEX
  8
LAYER_1
 10
182.0764
 20
125.7653
  0
SEQEND
  0
POLYLINE
  8
LAYER_1
 40
0.1129
 41
0.1129
 66
1
 10
0
 20
0
 30
0
  0
VERTEX
  8
LAYER_1
 10
122.0773
 20
125.7653
  0
VERTEX
  8
LAYER_1
 10
122.0773
 20
131.0566
  0
SEQEND
  0
TEXT
  8
LAYER_1
 10
148.5598
 20
123.8004
 11
148.5598
 21
123.8004
 40
4.4427
 41
0.5
  1
600
  0
POLYLINE
  8
LAYER_1
 40
0.1129
 41
0.1129
 66
1
 10
0
 20
0
 30
0
  0
VERTEX
  8
LAYER_1
 10
20.6595
 20
130.1006
  0
VERTEX
  8
LAYER_1
 10
77.6593
 20
130.1006
  0
SEQEND
  0
POLYLINE
  8
LAYER_1
 40
0.1129
 41
0.1129
 66
1
 10
0
 20
0
 30
0
  0
VERTEX
  8
LAYER_1
 10
77.6597
 20
132.7078
  0
VERTEX
  8
LAYER_1
 10
77.6597
 20
127.4165
  0
SEQEND
  0
POLYLINE
  8
LAYER_1
 40
0.1129
 41
0.1129
 66
1
 10
0
 20
0
 30
0
  0
VERTEX
  8
LAYER_1
 10
20.6606
 20
127.4165
  0
VERTEX
  8
LAYER_1
 10
20.6606
 20
132.7078
  0
SEQEND
  0
TEXT
  8
LAYER_1
 10
45.643
 20
124.987
 11
45.643
 21
124.987
 40
4.4427
 41
0.5
  1
570
  0
POLYLINE
  8
LAYER_1
 40
0.1129
 41
0.1129
 66
1
 10
0
 20
0
 30
0
  0
VERTEX
  8
LAYER_1
 10
86.9783
 20
167.3665
  0
VERTEX
  8
LAYER_1
 10
86.9783
 20
138.5218
  0
SEQEND
  0
POLYLINE
  8
LAYER_1
 40
0.05
 41
0.05
 66
1
 10
0
 20
0
 30
0
  0
VERTEX
  8
LAYER_1
 10
86.4877
 20
167.0172
  0
VERTEX
  8
LAYER_1
 10
86.9993
 20
168.9289
  0
VERTEX
  8
LAYER_1
 10
87.512
 20
167.0172
  0
SEQEND
  0
POLYLINE
  8
LAYER_1
 40
0.05
 41
0.05
 66
1
 10
0
 20
0
 30
0
  0
VERTEX
  8
LAYER_1
 10
86.4877
 20
138.8708
  0
VERTEX
  8
LAYER_1
 10
86.9993
 20
136.958
  0
VERTEX
  8
LAYER_1
 10
87.512
 20
138.8708
  0
SEQEND
  0
POLYLINE
  8
LAYER_1
 40
0.1129
 41
0.1129
 66
1
 10
0
 20
0
 30
0
  0
VERTEX
  8
LAYER_1
 10
86.9783
 20
136.958
  0
VERTEX
  8
LAYER_1
 10
81.687
 20
136.958
  0
SEQEND
  0
POLYLINE
  8
LAYER_1
 40
0.1129
 41
0.1129
 66
1
 10
0
 20
0
 30
0
  0
VERTEX
  8
LAYER_1
 10
81.687
 20
168.9282
  0
VERTEX
  8
LAYER_1
 10
86.9783
 20
168.9282
  0
SEQEND
  0
TEXT
  8
LAYER_1
 10
92.5346
 20
149.7738
 11
92.5346
 21
149.7738
 40
4.4427
 41
0.5
 50
89.99999999
  1
320
  0
POLYLINE
  8
LAYER_1
 40
0.1129
 41
0.1129
 66
1
 10
0
 20
0
 30
0
  0
VERTEX
  8
LAYER_1
 10
188.6235
 20
96.9705
  0
VERTEX
  8
LAYER_1
 10
188.6235
 20
86.9539
  0
SEQEND
  0
POLYLINE
  8
LAYER_1
 40
0.05
 41
0.05
 66
1
 10
0
 20
0
 30
0
  0
VERTEX
  8
LAYER_1
 10
188.1325
 20
96.6208
  0
VERTEX
  8
LAYER_1
 10
188.6438
 20
98.5328
  0
VERTEX
  8
LAYER_1
 10
189.1574
 20
96.6208
  0
SEQEND
  0
POLYLINE
  8
LAYER_1
 40
0.05
 41
0.05
 66
1
 10
0
 20
0
 30
0
  0
VERTEX
  8
LAYER_1
 10
188.1325
 20
87.3039
  0
VERTEX
  8
LAYER_1
 10
188.6438
 20
85.3912
  0
VERTEX
  8
LAYER_1
 10
189.1574
 20
87.3039
  0
SEQEND
  0
POLYLINE
  8
LAYER_1
 40
0.1129
 41
0.1129
 66
1
 10
0
 20
0
 30
0
  0
VERTEX
  8
LAYER_1
 10
190.9754
 20
85.3912
  0
VERTEX
  8
LAYER_1
 10
185.6841
 20
85.3912
  0
SEQEND
  0
POLYLINE
  8
LAYER_1
 40
0.1129
 41
0.1129
 66
1
 10
0
 20
0
 30
0
  0
VERTEX
  8
LAYER_1
 10
185.6841
 20
98.5328
  0
VERTEX
  8
LAYER_1
 10
190.9747
 20
98.5328
  0
SEQEND
  0
TEXT
  8
LAYER_1
 10
193.4152
 20
88.159
 11
193.4152
 21
88.159
 40
4.4427
 41
0.5
 50
89.99999999
  1
130
  0
POLYLINE
  8
LAYER_1
 40
0.1129
 41
0.1129
 66
1
 10
0
 20
0
 30
0
  0
VERTEX
  8
LAYER_1
 10
84.7394
 20
96.9705
  0
VERTEX
  8
LAYER_1
 10
84.7394
 20
93.2439
  0
SEQEND
  0
POLYLINE
  8
LAYER_1
 40
0.05
 41
0.05
 66
1
 10
0
 20
0
 30
0
  0
VERTEX
  8
LAYER_1
 10
84.2488
 20
96.6208
  0
VERTEX
  8
LAYER_1
 10
84.76
 20
98.5328
  0
VERTEX
  8
LAYER_1
 10
85.273
 20
96.6208
  0
SEQEND
  0
POLYLINE
  8
LAYER_1
 40
0.05
 41
0.05
 66
1
 10
0
 20
0
 30
0
  0
VERTEX
  8
LAYER_1
 10
84.2488
 20
93.5936
  0
VERTEX
  8
LAYER_1
 10
84.76
 20
91.6816
  0
VERTEX
  8
LAYER_1
 10
85.273
 20
93.5936
  0
SEQEND
  0
POLYLINE
  8
LAYER_1
 40
0.1129
 41
0.1129
 66
1
 10
0
 20
0
 30
0
  0
VERTEX
  8
LAYER_1
 10
87.3266
 20
91.6816
  0
VERTEX
  8
LAYER_1
 10
82.0353
 20
91.6816
  0
SEQEND
  0
POLYLINE
  8
LAYER_1
 40
0.1129
 41
0.1129
 66
1
 10
0
 20
0
 30
0
  0
VERTEX
  8
LAYER_1
 10
82.0353
 20
98.5328
  0
VERTEX
  8
LAYER_1
 10
87.3266
 20
98.5328
  0
SEQEND
  0
TEXT
  8
LAYER_1
 10
89.3765
 20
92.1153
 11
89.3765
 21
92.1153
 40
4.4427
 41
0.5
 50
89.99999999
  1
45
  0
POLYLINE
  8
LAYER_1
 40
0.1129
 41
0.1129
 66
1
 10
0
 20
0
 30
0
  0
VERTEX
  8
LAYER_1
 10
86.9783
 20
136.958
  0
VERTEX
  8
LAYER_1
 10
86.9783
 20
135.4329
  0
SEQEND
  0
POLYLINE
  8
LAYER_1
 40
0.05
 41
0.05
 66
1
 10
0
 20
0
 30
0
  0
VERTEX
  8
LAYER_1
 10
86.4877
 20
136.6084
  0
VERTEX
  8
LAYER_1
 10
86.9993
 20
138.5211
  0
VERTEX
  8
LAYER_1
 10
87.512
 20
136.6084
  0
SEQEND
  0
POLYLINE
  8
LAYER_1
 40
0.05
 41
0.05
 66
1
 10
0
 20
0
 30
0
  0
VERTEX
  8
LAYER_1
 10
86.4877
 20
135.7826
  0
VERTEX
  8
LAYER_1
 10
86.9993
 20
133.8698
  0
VERTEX
  8
LAYER_1
 10
87.512
 20
135.7826
  0
SEQEND
  0
POLYLINE
  8
LAYER_1
 40
0.1129
 41
0.1129
 66
1
 10
0
 20
0
 30
0
  0
VERTEX
  8
LAYER_1
 10
86.9783
 20
135.4329
  0
VERTEX
  8
LAYER_1
 10
81.687
 20
135.4329
  0
SEQEND
  0
POLYLINE
  8
LAYER_1
 40
0.1129
 41
0.1129
 66
1
 10
0
 20
0
 30
0
  0
VERTEX
  8
LAYER_1
 10
81.687
 20
136.958
  0
VERTEX
  8
LAYER_1
 10
86.9783
 20
136.958
  0
SEQEND
  0
TEXT
  8
LAYER_1
 10
92.1821
 20
133.4292
 11
92.1821
 21
133.4292
 40
4.4427
 41
0.5
 50
89.99999999
  1
15
  0
POLYLINE
  8
LAYER_1
 40
0.1129
 41
0.1129
 66
1
 10
0
 20
0
 30
0
  0
VERTEX
  8
LAYER_1
 10
136.608
 20
108.331
  0
VERTEX
  8
LAYER_1
 10
138.1328
 20
108.331
  0
SEQEND
  0
POLYLINE
  8
LAYER_1
 40
0.05
 41
0.05
 66
1
 10
0
 20
0
 30
0
  0
VERTEX
  8
LAYER_1
 10
136.958
 20
107.8408
  0
VERTEX
  8
LAYER_1
 10
135.045
 20
108.3527
  0
VERTEX
  8
LAYER_1
 10
136.958
 20
108.865
  0
SEQEND
  0
POLYLINE
  8
LAYER_1
 40
0.05
 41
0.05
 66
1
 10
0
 20
0
 30
0
  0
VERTEX
  8
LAYER_1
 10
137.7831
 20
107.8408
  0
VERTEX
  8
LAYER_1
 10
139.6959
 20
108.3527
  0
VERTEX
  8
LAYER_1
 10
137.7831
 20
108.865
  0
SEQEND
  0
POLYLINE
  8
LAYER_1
 40
0.1129
 41
0.1129
 66
1
 10
0
 20
0
 30
0
  0
VERTEX
  8
LAYER_1
 10
138.1332
 20
108.331
  0
VERTEX
  8
LAYER_1
 10
138.1332
 20
103.0397
  0
SEQEND
  0
POLYLINE
  8
LAYER_1
 40
0.1129
 41
0.1129
 66
1
 10
0
 20
0
 30
0
  0
VERTEX
  8
LAYER_1
 10
136.608
 20
103.0397
  0
VERTEX
  8
LAYER_1
 10
136.608
 20
108.331
  0
SEQEND
  0
TEXT
  8
LAYER_1
 10
135.4181
 20
109.9092
 11
135.4181
 21
109.9092
 40
4.4427
 41
0.5
  1
15
  0
POLYLINE
  8
LAYER_1
 40
0.1764
 41
0.1764
 66
1
 10
0
 20
0
 30
0
  0
VERTEX
  8
LAYER_1
 10
181.9899
 20
97.1138
  0
VERTEX
  8
LAYER_1
 10
181.9899
 20
85.3378
  0
SEQEND
  0
POLYLINE
  8
LAYER_1
 40
0.1764
 41
0.1764
 66
1
 10
0
 20
0
 30
0
  0
VERTEX
  8
LAYER_1
 10
181.9899
 20
85.3385
  0
VERTEX
  8
LAYER_1
 10
181.9899
 20
98.0243
  0
VERTEX
  8
LAYER_1
 10
181.9668
 20
98.1783
  0
VERTEX
  8
LAYER_1
 10
181.8973
 20
98.3206
  0
VERTEX
  8
LAYER_1
 10
181.7808
 20
98.4384
  0
VERTEX
  8
LAYER_1
 10
181.6413
 20
98.5097
  0
VERTEX
  8
LAYER_1
 10
181.4894
 20
98.5328
  0
SEQEND
  0
INSERT
  8
LAYER_1
  2
AIGNBL01010005
 10
0
 20
0
 30
0
  0
INSERT
  8
LAYER_1
  2
AIGNBL01010006
 10
0
 20
0
 30
0
  0
INSERT
  8
LAYER_1
  2
AIGNBL01010007
 10
0
 20
0
 30
0
  0
INSERT
  8
LAYER_1
  2
AIGNBL01010008
 10
0
 20
0
 30
0
  0
INSERT
  8
LAYER_1
  2
AIGNBL01010009
 10
0
 20
0
 30
0
  0
INSERT
  8
LAYER_1
  2
AIGNBL0101000A
 10
0
 20
0
 30
0
  0
INSERT
  8
LAYER_1
  2
AIGNBL0101000B
 10
0
 20
0
 30
0
  0
INSERT
  8
LAYER_1
  2
AIGNBL0101000C
 10
0
 20
0
 30
0
  0
POLYLINE
  8
LAYER_1
 40
0.05
 41
0.05
 66
1
 10
0
 20
0
 30
0
  0
VERTEX
  8
LAYER_1
 10
144.9927
 20
181.4676
  0
VERTEX
  8
LAYER_1
 10
144.4587
 20
181.4676
  0
VERTEX
  8
LAYER_1
 10
144.3702
 20
181.5555
  0
VERTEX
  8
LAYER_1
 10
144.4587
 20
181.6437
  0
VERTEX
  8
LAYER_1
 10
144.9941
 20
181.6437
 42
-0.1298892513
  0
VERTEX
  8
LAYER_1
 10
145.0168
 20
181.5579
  0
VERTEX
  8
LAYER_1
 10
145.0168
 20
181.5572
 42
-0.1354246038
  0
VERTEX
  8
LAYER_1
 10
144.9927
 20
181.4676
  0
SEQEND
  0
INSERT
  8
LAYER_1
  2
AIGNBL0101000D
 10
0
 20
0
 30
0
  0
INSERT
  8
LAYER_1
  2
AIGNBL0101000E
 10
0
 20
0
 30
0
  0
INSERT
  8
LAYER_1
  2
AIGNBL0101000F
 10
0
 20
0
 30
0
  0
INSERT
  8
LAYER_1
  2
AIGNBL01010010
 10
0
 20
0
 30
0
  0
INSERT
  8
LAYER_1
  2
AIGNBL01010011
 10
0
 20
0
 30
0
  0
INSERT
  8
LAYER_1
  2
AIGNBL01010012
 10
0
 20
0
 30
0
  0
INSERT
  8
LAYER_1
  2
AIGNBL01010013
 10
0
 20
0
 30
0
  0
INSERT
  8
LAYER_1
  2
AIGNBL01010014
 10
0
 20
0
 30
0
  0
POLYLINE
  8
LAYER_1
 40
0.05
 41
0.05
 66
1
 10
0
 20
0
 30
0
  0
VERTEX
  8
LAYER_1
 10
147.715
 20
181.4676
  0
VERTEX
  8
LAYER_1
 10
147.2813
 20
181.4676
  0
VERTEX
  8
LAYER_1
 10
147.1931
 20
181.5555
  0
VERTEX
  8
LAYER_1
 10
147.2813
 20
181.6437
  0
VERTEX
  8
LAYER_1
 10
147.7178
 20
181.6437
 42
-0.1291001244
  0
VERTEX
  8
LAYER_1
 10
147.7405
 20
181.5579
 42
-0.1394529772
  0
VERTEX
  8
LAYER_1
 10
147.715
 20
181.4676
  0
SEQEND
  0
POLYLINE
  8
LAYER_1
 40
0.05
 41
0.05
 66
1
 10
0
 20
0
 30
0
  0
VERTEX
  8
LAYER_1
 10
146.3535
 20
181.4676
  0
VERTEX
  8
LAYER_1
 10
145.8698
 20
181.4676
  0
VERTEX
  8
LAYER_1
 10
145.7813
 20
181.5555
  0
VERTEX
  8
LAYER_1
 10
145.8698
 20
181.6437
  0
VERTEX
  8
LAYER_1
 10
146.3556
 20
181.6437
 42
-0.1298892513
  0
VERTEX
  8
LAYER_1
 10
146.3783
 20
181.5579
 42
-0.1423498812
  0
VERTEX
  8
LAYER_1
 10
146.3535
 20
181.4676
  0
SEQEND
  0
POLYLINE
  8
LAYER_1
 40
0.05
 41
0.05
 66
1
 10
0
 20
0
 30
0
  0
VERTEX
  8
LAYER_1
 10
159.2768
 20
181.4676
  0
VERTEX
  8
LAYER_1
 10
158.9839
 20
181.4676
 42
-0.1356716969
  0
VERTEX
  8
LAYER_1
 10
158.9591
 20
181.5579
 42
-0.132978323
  0
VERTEX
  8
LAYER_1
 10
158.9815
 20
181.6437
  0
VERTEX
  8
LAYER_1
 10
159.2768
 20
181.6437
  0
VERTEX
  8
LAYER_1
 10
159.3653
 20
181.5555
  0
VERTEX
  8
LAYER_1
 10
159.2768
 20
181.4676
  0
SEQEND
  0
POLYLINE
  8
LAYER_1
 40
0.1129
 41
0.1129
 66
1
 10
0
 20
0
 30
0
  0
VERTEX
  8
LAYER_1
 10
157.9276
 20
145.0607
  0
VERTEX
  8
LAYER_1
 10
146.0527
 20
145.0607
  0
SEQEND
  0
POLYLINE
  8
LAYER_1
 40
0.05
 41
0.05
 66
1
 10
0
 20
0
 30
0
  0
VERTEX
  8
LAYER_1
 10
157.5787
 20
145.5517
  0
VERTEX
  8
LAYER_1
 10
159.4907
 20
145.0397
  0
VERTEX
  8
LAYER_1
 10
157.5787
 20
144.5271
  0
SEQEND
  0
POLYLINE
  8
LAYER_1
 40
0.05
 41
0.05
 66
1
 10
0
 20
0
 30
0
  0
VERTEX
  8
LAYER_1
 10
146.4024
 20
145.5517
  0
VERTEX
  8
LAYER_1
 10
144.4897
 20
145.0397
  0
VERTEX
  8
LAYER_1
 10
146.4024
 20
144.5271
  0
SEQEND
  0
POLYLINE
  8
LAYER_1
 40
0.1129
 41
0.1129
 66
1
 10
0
 20
0
 30
0
  0
VERTEX
  8
LAYER_1
 10
144.49
 20
145.0607
  0
VERTEX
  8
LAYER_1
 10
144.49
 20
150.3524
  0
SEQEND
  0
POLYLINE
  8
LAYER_1
 40
0.1129
 41
0.1129
 66
1
 10
0
 20
0
 30
0
  0
VERTEX
  8
LAYER_1
 10
159.4907
 20
150.3524
  0
VERTEX
  8
LAYER_1
 10
159.4907
 20
145.0607
  0
SEQEND
  0
TEXT
  8
LAYER_1
 10
148.2152
 20
140.2795
 11
148.2152
 21
140.2795
 40
4.4427
 41
0.5
 62
1
  1
150
  0
POLYLINE
  8
LAYER_1
 40
0.1129
 41
0.1129
 66
1
 10
0
 20
0
 30
0
  0
VERTEX
  8
LAYER_1
 10
161.5588
 20
96.8451
  0
VERTEX
  8
LAYER_1
 10
161.5588
 20
87.699
  0
SEQEND
  0
POLYLINE
  8
LAYER_1
 40
0.05
 41
0.05
 66
1
 10
0
 20
0
 30
0
  0
VERTEX
  8
LAYER_1
 10
161.0679
 20
96.5261
  0
VERTEX
  8
LAYER_1
 10
161.5798
 20
98.272
  0
VERTEX
  8
LAYER_1
 10
162.0924
 20
96.5261
  0
SEQEND
  0
POLYLINE
  8
LAYER_1
 40
0.05
 41
0.05
 66
1
 10
0
 20
0
 30
0
  0
VERTEX
  8
LAYER_1
 10
161.0679
 20
88.0181
  0
VERTEX
  8
LAYER_1
 10
161.5798
 20
86.2721
  0
VERTEX
  8
LAYER_1
 10
162.0924
 20
88.0181
  0
SEQEND
  0
TEXT
  8
LAYER_1
 10
165.9225
 20
88.891
 11
165.9225
 21
88.891
 40
4.4427
 41
0.5
 50
89.99999999
  1
120
  0
POLYLINE
  8
LAYER_1
 40
0.1058
 41
0.1058
 66
1
 10
0
 20
0
 30
0
  0
VERTEX
  8
LAYER_1
 10
54.1621
 20
171.9133
  0
VERTEX
  8
LAYER_1
 10
53.1627
 20
171.9133
  0
SEQEND
  0
POLYLINE
  8
LAYER_1
 40
0.1058
 41
0.1058
 66
1
 10
0
 20
0
 30
0
  0
VERTEX
  8
LAYER_1
 10
53.162
 20
171.9133
  0
VERTEX
  8
LAYER_1
 10
51.5731
 20
173.3709
  0
SEQEND
  0
TEXT
  8
LAYER_1
 10
54.4738
 20
171.4449
 11
54.4738
 21
171.4449
 40
3.329
 41
0.5
  1
35
  0
POLYLINE
  8
LAYER_1
 40
0.05
 41
0.05
 66
1
 10
0
 20
0
 30
0
 70
1
  0
VERTEX
  8
LAYER_1
 10
51.6857
 20
173.4939
  0
VERTEX
  8
LAYER_1
 10
51.4604
 20
173.2479
  0
VERTEX
  8
LAYER_1
 10
50.8365
 20
174.0468
  0
SEQEND
  0
INSERT
  8
LAYER_1
  2
AIGNBL01010015
 10
0
 20
0
 30
0
  0
POLYLINE
  8
LAYER_1
  6
AIGENLINE009
 40
0.0882
 41
0.0882
 62
1
 66
1
 10
0
 20
0
 30
0
 70
129
  0
VERTEX
  8
LAYER_1
 10
144.3702
 20
151.5546
  0
VERTEX
  8
LAYER_1
 10
159.3701
 20
151.5546
  0
VERTEX
  8
LAYER_1
 10
159.3701
 20
181.5548
  0
VERTEX
  8
LAYER_1
 10
144.3702
 20
181.5548
  0
SEQEND
  0
TEXT
  8
LAYER_2
 10
-26.2556
 20
43.1712
 11
-26.2556
 21
43.1712
 40
3.2995
 41
0.5
  1
仕様
  0
POLYLINE
  8
LAYER_2
 40
0.3528
 41
0.3528
 66
1
 10
0
 20
0
 30
0
  0
VERTEX
  8
LAYER_2
 10
250.6748
 20
51.9507
  0
VERTEX
  8
LAYER_2
 10
-29.3178
 20
51.9507
  0
SEQEND
  0
INSERT
  8
LAYER_2
  2
AIGNBL02010002
 10
0
 20
0
 30
0
  0
POLYLINE
  8
LAYER_2
 40
0.3528
 41
0.3528
 66
1
 10
0
 20
0
 30
0
  0
VERTEX
  8
LAYER_2
 10
-29.3178
 20
229.3369
  0
VERTEX
  8
LAYER_2
 10
-29.3178
 20
34.3283
  0
VERTEX
  8
LAYER_2
 10
250.6748
 20
34.3283
  0
VERTEX
  8
LAYER_2
 10
250.6748
 20
229.3369
  0
VERTEX
  8
LAYER_2
 10
-29.3178
 20
229.3369
  0
SEQEND
  0
POLYLINE
  8
LAYER_2
 40
0.3528
 41
0.3528
 66
1
 10
0
 20
0
 30
0
  0
VERTEX
  8
LAYER_2
 10
250.6748
 20
60.4597
  0
VERTEX
  8
LAYER_2
 10
-29.3178
 20
60.4597
  0
SEQEND
  0
POLYLINE
  8
LAYER_2
 40
0.3528
 41
0.3528
 66
1
 10
0
 20
0
 30
0
  0
VERTEX
  8
LAYER_2
 10
250.6748
 20
43.4416
  0
VERTEX
  8
LAYER_2
 10
143.5341
 20
43.4416
  0
SEQEND
  0
TEXT
  8
LAYER_2
 10
188.1725
 20
45.7175
 11
188.1725
 21
45.7175
 40
3.7615
 41
0.5
  1
-
  0
TEXT
  8
LAYER_2
 10
182.8808
 20
49.4743
 11
182.8808
 21
49.4743
 40
2.1997
 41
0.5
  1
縮尺
  0
POLYLINE
  8
LAYER_2
 40
0.3528
 41
0.3528
 66
1
 10
0
 20
0
 30
0
  0
VERTEX
  8
LAYER_2
 10
181.3526
 20
43.4416
  0
VERTEX
  8
LAYER_2
 10
181.3526
 20
51.9507
  0
SEQEND
  0
TEXT
  8
LAYER_2
 10
144.2327
 20
57.9834
 11
144.2327
 21
57.9834
 40
2.1997
 41
0.5
  1
品番
  0
TEXT
  8
LAYER_2
 10
-28.1609
 20
57.9834
 11
-28.1609
 21
57.9834
 40
2.1997
 41
0.5
  1
品名
  0
TEXT
  8
LAYER_2
 10
144.2327
 20
49.4743
 11
144.2327
 21
49.4743
 40
2.1997
 41
0.5
  1
重量
  0
TEXT
  8
LAYER_2
 10
150.2547
 20
54.1514
 11
150.2547
 21
54.1514
 40
5.9385
 41
0.5
  1
CIE-SMLAA60/
  0
TEXT
  8
LAYER_2
 10
149.5454
 20
45.7175
 11
149.5454
 21
45.7175
 40
3.7615
 41
0.5
  1
17.35kg
  0
POLYLINE
  8
LAYER_2
 40
0.3528
 41
0.3528
 66
1
 10
0
 20
0
 30
0
  0
VERTEX
  8
LAYER_2
 10
143.5341
 20
34.9539
  0
VERTEX
  8
LAYER_2
 10
143.5341
 20
60.4597
  0
SEQEND
  0
TEXT
  8
LAYER_2
 10
-15.2914
 20
54.891
 11
-15.2914
 21
54.891
 40
4.1465
 41
0.5
  1
スマイル 壁付け／カウンター置き型洗面器600ｍｍ
  0
INSERT
  8
LAYER_2
  2
AIGNBL02010003
 10
0
 20
0
 30
0
  0
TEXT
  8
LAYER_2
 10
-15.6835
 20
45.3736
 11
-15.6835
 21
45.3736
 40
3.1177
 41
0.5
  1
●設置方法：壁付け・カウンター置き●水栓取付穴：１穴●オーバーフロー付き
  0
TEXT
  8
LAYER_2
 10
-15.6835
 20
40.6235
 11
-15.6835
 21
40.6235
 40
3.1177
 41
0.5
  1
●排水金具別途●取り付けボルト同梱
  0
TEXT
  8
LAYER_2
 10
237.263
 20
63.2582
 11
237.263
 21
63.2582
 40
2.9618
 41
0.5
  1
単位：mm
  0
TEXT
  8
LAYER_2
 10
6.5217
 20
219.7385
 11
6.5217
 21
219.7385
 40
2.5981
 41
0.5
  1
※陶器製品は寸法公差が発生します。カウンター切り込みの際は必ず現物を合わせてご確認ください。
  0
TEXT
  8
LAYER_2
 10
6.5217
 20
214.9886
 11
6.5217
 21
214.9886
 40
2.9618
 41
0.5
  1
※壁面には50mm以上の補強材を入れてください。
  0
TEXT
  8
LAYER_2
 10
6.5217
 20
210.2385
 11
6.5217
 21
210.2385
 40
2.5981
 41
0.5
  1
※製品と接する部分には必ずコーキング処理を行ってください。
  0
TEXT
  8
LAYER_2
 10
176.0254
 20
39.5359
 11
176.0254
 21
39.5359
 40
3.3853
 41
0.5
  1
●TEL 0120-65-1232●FAX 06-6532-1580
  0
TEXT
  8
LAYER_2
 10
176.0254
 20
36.0212
 11
176.0254
 21
36.0212
 40
3.3853
 41
0.5
  1
hits@hiratatile.co.jp
  0
TEXT
  8
LAYER_2
 10
240.3591
 20
225.8432
 11
240.3591
 21
225.8432
 40
2.0732
 41
0.5
  1
160906RT
  0
INSERT
  8
LAYER_2
  2
AIGNBL02010006
 10
0
 20
0
 30
0
  0
TEXT
  8
LAYER_2
 10
42.5345
 20
91.4253
 11
42.5345
 21
91.4253
 40
2.3382
 41
0.5
  1
壁取付ボルト穴
  0
ENDSEC
  0
EOF
