  0
SECTION
  2
HEADER
  9
$ACADVER
  1
AC1009
  9
$LUNITS
 70
2
  9
$LUPREC
 70
4
  9
$LTSCALE
 40
1.0
  9
$EXTMIN
 10
-30.3177
 20
33.3285
 30
0
  9
$EXTMAX
 10
251.6749
 20
230.337
 30
0
  0
ENDSEC
  0
SECTION
  2
TABLES
  0
TABLE
  2
LTYPE
 70
256
  0
LTYPE
  2
AIGENLINE001
 70
64
  3
generate AI->DXF Converter
 72
65
 73
2
 40
0.9024
 49
0.4512
 49
-0.4512
  0
LTYPE
  2
AIGENLINE002
 70
64
  3
generate AI->DXF Converter
 72
65
 73
0
 40
0
  0
ENDTAB
  0
TABLE
  2
LAYER
 70
2
  0
LAYER
  2
LAYER_1
 70
64
 62
7
  6
CONTINUOUS
  0
LAYER
  2
LAYER_2
 70
64
 62
7
  6
CONTINUOUS
  0
ENDTAB
  0
TABLE
  2
STYLE
 70
6
  0
STYLE
  2
STANDARD
 70
0
 40
0
 50
0
 71
0
 41
0
 42
0
  3
TXT
  4
BIGFONT
  0
ENDTAB
  0
ENDSEC
  0
SECTION
  2
BLOCKS
  0
BLOCK
  8
LAYER_2
  2
AIGNBL02040009
 70
64
 10
0
 20
0
 30
0
  3
AIGNBL02040009
  0
POLYLINE
  8
LAYER_2
 40
0.05
 41
0.05
 66
1
 10
0
 20
0
 30
0
 70
1
  0
VERTEX
  8
LAYER_2
 10
146.7545
 20
39.1418
  0
VERTEX
  8
LAYER_2
 10
146.2656
 20
37.9567
  0
VERTEX
  8
LAYER_2
 10
145.6376
 20
37.9567
  0
VERTEX
  8
LAYER_2
 10
147.2372
 20
41.7225
  0
VERTEX
  8
LAYER_2
 10
147.9703
 20
41.7225
  0
VERTEX
  8
LAYER_2
 10
149.5768
 20
37.9567
  0
VERTEX
  8
LAYER_2
 10
148.9267
 20
37.9567
  0
VERTEX
  8
LAYER_2
 10
148.424
 20
39.1418
  0
SEQEND
  0
POLYLINE
  8
LAYER_2
 40
0.05
 41
0.05
 66
1
 10
0
 20
0
 30
0
 70
1
  0
VERTEX
  8
LAYER_2
 10
148.2983
 20
39.5207
  0
VERTEX
  8
LAYER_2
 10
147.8373
 20
40.6056
 42
-0.02317247198
  0
VERTEX
  8
LAYER_2
 10
147.5927
 20
41.2926
  0
VERTEX
  8
LAYER_2
 10
147.5789
 20
41.2926
 42
-0.02064481114
  0
VERTEX
  8
LAYER_2
 10
147.3412
 20
40.6101
  0
VERTEX
  8
LAYER_2
 10
146.8806
 20
39.5207
  0
SEQEND
  0
ENDBLK
  0
BLOCK
  8
LAYER_2
  2
AIGNBL0204000A
 70
64
 10
0
 20
0
 30
0
  3
AIGNBL0204000A
  0
POLYLINE
  8
LAYER_2
 40
0.05
 41
0.05
 66
1
 10
0
 20
0
 30
0
 70
1
  0
VERTEX
  8
LAYER_2
 10
153.942
 20
37.4034
 42
-0.01520763512
  0
VERTEX
  8
LAYER_2
 10
152.1399
 20
37.8395
 42
0.09160443264
  0
VERTEX
  8
LAYER_2
 10
151.8533
 20
37.895
 42
-0.09256808484
  0
VERTEX
  8
LAYER_2
 10
150.8994
 20
38.0977
 42
-0.09799469934
  0
VERTEX
  8
LAYER_2
 10
150.2621
 20
38.5324
 42
-0.1630918382
  0
VERTEX
  8
LAYER_2
 10
149.7964
 20
39.5259
 42
-0.0316951694
  0
VERTEX
  8
LAYER_2
 10
149.7793
 20
39.7998
 42
-0.1055313794
  0
VERTEX
  8
LAYER_2
 10
149.9533
 20
40.6417
 42
-0.1619874109
  0
VERTEX
  8
LAYER_2
 10
150.7418
 20
41.4867
 42
-0.09224146328
  0
VERTEX
  8
LAYER_2
 10
151.5409
 20
41.7524
 42
-0.03717154931
  0
VERTEX
  8
LAYER_2
 10
151.9725
 20
41.7838
 42
-0.09530639066
  0
VERTEX
  8
LAYER_2
 10
152.9361
 20
41.6062
 42
-0.1001950085
  0
VERTEX
  8
LAYER_2
 10
153.5732
 20
41.1834
 42
-0.1611155306
  0
VERTEX
  8
LAYER_2
 10
154.0599
 20
40.1825
 42
-0.03590167283
  0
VERTEX
  8
LAYER_2
 10
154.0815
 20
39.8784
 42
-0.1066761192
  0
VERTEX
  8
LAYER_2
 10
153.9051
 20
39.0236
 42
-0.2183970027
  0
VERTEX
  8
LAYER_2
 10
152.7953
 20
38.0897
 42
-0.006706711403
  0
VERTEX
  8
LAYER_2
 10
152.7407
 20
38.0738
  0
VERTEX
  8
LAYER_2
 10
152.7407
 20
38.0514
 42
0.01533555045
  0
VERTEX
  8
LAYER_2
 10
154.117
 20
37.8113
  0
SEQEND
  0
POLYLINE
  8
LAYER_2
 40
0.05
 41
0.05
 66
1
 10
0
 20
0
 30
0
 70
1
  0
VERTEX
  8
LAYER_2
 10
153.4394
 20
39.857
 42
0.1175610784
  0
VERTEX
  8
LAYER_2
 10
153.257
 20
40.6254
 42
0.1170135141
  0
VERTEX
  8
LAYER_2
 10
152.8315
 20
41.1234
 42
0.1200044572
  0
VERTEX
  8
LAYER_2
 10
152.2186
 20
41.3675
 42
0.03774262044
  0
VERTEX
  8
LAYER_2
 10
151.9511
 20
41.3873
 42
0.1153139376
  0
VERTEX
  8
LAYER_2
 10
151.2089
 20
41.2226
 42
0.1853550912
  0
VERTEX
  8
LAYER_2
 10
150.5507
 20
40.4882
 42
0.09859892291
  0
VERTEX
  8
LAYER_2
 10
150.4287
 20
39.8122
 42
0.1178359247
  0
VERTEX
  8
LAYER_2
 10
150.5964
 20
39.0734
 42
0.2866694251
  0
VERTEX
  8
LAYER_2
 10
151.9232
 20
38.2912
 42
0.1188197759
  0
VERTEX
  8
LAYER_2
 10
152.6722
 20
38.4633
 42
0.1796740134
  0
VERTEX
  8
LAYER_2
 10
153.3126
 20
39.18
 42
0.09850052237
  0
SEQEND
  0
ENDBLK
  0
BLOCK
  8
LAYER_2
  2
AIGNBL0204000B
 70
64
 10
0
 20
0
 30
0
  3
AIGNBL0204000B
  0
POLYLINE
  8
LAYER_2
 40
0.05
 41
0.05
 66
1
 10
0
 20
0
 30
0
 70
1
  0
VERTEX
  8
LAYER_2
 10
155.4089
 20
41.7225
  0
VERTEX
  8
LAYER_2
 10
155.4089
 20
39.4932
 42
0.1220213404
  0
VERTEX
  8
LAYER_2
 10
155.569
 20
38.7775
 42
0.2218709818
  0
VERTEX
  8
LAYER_2
 10
156.2104
 20
38.3206
 42
0.05223876895
  0
VERTEX
  8
LAYER_2
 10
156.5055
 20
38.2912
 42
0.1302821267
  0
VERTEX
  8
LAYER_2
 10
157.1748
 20
38.452
 42
0.1509367336
  0
VERTEX
  8
LAYER_2
 10
157.526
 20
38.8454
 42
0.1174732039
  0
VERTEX
  8
LAYER_2
 10
157.651
 20
39.4932
  0
VERTEX
  8
LAYER_2
 10
157.651
 20
41.7225
  0
VERTEX
  8
LAYER_2
 10
158.2656
 20
41.7225
  0
VERTEX
  8
LAYER_2
 10
158.2656
 20
39.5266
 42
-0.1106199636
  0
VERTEX
  8
LAYER_2
 10
158.0961
 20
38.708
 42
-0.1822316276
  0
VERTEX
  8
LAYER_2
 10
157.4057
 20
38.0637
 42
-0.09768689614
  0
VERTEX
  8
LAYER_2
 10
156.6028
 20
37.8972
 42
-0.01000776787
  0
VERTEX
  8
LAYER_2
 10
156.4845
 20
37.895
 42
-0.09899539667
  0
VERTEX
  8
LAYER_2
 10
155.612
 20
38.0554
 42
-0.120955925
  0
VERTEX
  8
LAYER_2
 10
155.1093
 20
38.4366
 42
-0.1193006487
  0
VERTEX
  8
LAYER_2
 10
154.8407
 20
39.0316
 42
-0.05319923583
  0
VERTEX
  8
LAYER_2
 10
154.7943
 20
39.5045
  0
VERTEX
  8
LAYER_2
 10
154.7943
 20
41.7225
  0
SEQEND
  0
ENDBLK
  0
BLOCK
  8
LAYER_2
  2
AIGNBL0204000C
 70
64
 10
0
 20
0
 30
0
  3
AIGNBL0204000C
  0
POLYLINE
  8
LAYER_2
 40
0.05
 41
0.05
 66
1
 10
0
 20
0
 30
0
 70
1
  0
VERTEX
  8
LAYER_2
 10
160.0119
 20
39.1418
  0
VERTEX
  8
LAYER_2
 10
159.5227
 20
37.9567
  0
VERTEX
  8
LAYER_2
 10
158.8947
 20
37.9567
  0
VERTEX
  8
LAYER_2
 10
160.4939
 20
41.7225
  0
VERTEX
  8
LAYER_2
 10
161.227
 20
41.7225
  0
VERTEX
  8
LAYER_2
 10
162.8335
 20
37.9567
  0
VERTEX
  8
LAYER_2
 10
162.1841
 20
37.9567
  0
VERTEX
  8
LAYER_2
 10
161.6814
 20
39.1418
  0
SEQEND
  0
POLYLINE
  8
LAYER_2
 40
0.05
 41
0.05
 66
1
 10
0
 20
0
 30
0
 70
1
  0
VERTEX
  8
LAYER_2
 10
161.5553
 20
39.5207
  0
VERTEX
  8
LAYER_2
 10
161.094
 20
40.6056
 42
-0.02227599701
  0
VERTEX
  8
LAYER_2
 10
160.8494
 20
41.2926
  0
VERTEX
  8
LAYER_2
 10
160.8357
 20
41.2926
 42
-0.0208222547
  0
VERTEX
  8
LAYER_2
 10
160.5983
 20
40.6101
  0
VERTEX
  8
LAYER_2
 10
160.1373
 20
39.5207
  0
SEQEND
  0
ENDBLK
  0
BLOCK
  8
LAYER_2
  2
AIGNBL0204000D
 70
64
 10
0
 20
0
 30
0
  3
AIGNBL0204000D
  0
POLYLINE
  8
LAYER_2
 40
0.05
 41
0.05
 66
1
 10
0
 20
0
 30
0
 70
1
  0
VERTEX
  8
LAYER_2
 10
163.8742
 20
41.6777
 42
-0.03334485223
  0
VERTEX
  8
LAYER_2
 10
165.0411
 20
41.7508
 42
-0.08844478427
  0
VERTEX
  8
LAYER_2
 10
166.0871
 20
41.5858
 42
-0.06037505309
  0
VERTEX
  8
LAYER_2
 10
166.3609
 20
41.4379
 42
-0.2472514979
  0
VERTEX
  8
LAYER_2
 10
166.7726
 20
40.6497
 42
-0.1483298328
  0
VERTEX
  8
LAYER_2
 10
166.6029
 20
40.0554
 42
-0.07223194904
  0
VERTEX
  8
LAYER_2
 10
166.4095
 20
39.8456
 42
-0.1209372404
  0
VERTEX
  8
LAYER_2
 10
165.7228
 20
39.517
 42
-0.06224269186
  0
VERTEX
  8
LAYER_2
 10
164.9708
 20
39.4319
 42
-0.05738783264
  0
VERTEX
  8
LAYER_2
 10
164.4823
 20
39.4653
  0
VERTEX
  8
LAYER_2
 10
164.4823
 20
37.9567
  0
VERTEX
  8
LAYER_2
 10
163.8742
 20
37.9567
  0
SEQEND
  0
POLYLINE
  8
LAYER_2
 40
0.05
 41
0.05
 66
1
 10
0
 20
0
 30
0
 70
1
  0
VERTEX
  8
LAYER_2
 10
164.4823
 20
39.8622
 42
0.05012782438
  0
VERTEX
  8
LAYER_2
 10
164.9846
 20
39.8229
 42
0.1135299982
  0
VERTEX
  8
LAYER_2
 10
165.7697
 20
39.9822
 42
0.1653556145
  0
VERTEX
  8
LAYER_2
 10
166.1074
 20
40.3302
 42
0.1044590446
  0
VERTEX
  8
LAYER_2
 10
166.1656
 20
40.6273
 42
0.2826437488
  0
VERTEX
  8
LAYER_2
 10
165.8147
 20
41.2103
 42
0.0629694601
  0
VERTEX
  8
LAYER_2
 10
165.549
 20
41.3107
 42
0.06259589917
  0
VERTEX
  8
LAYER_2
 10
165.0552
 20
41.3649
 42
0.05192366909
  0
VERTEX
  8
LAYER_2
 10
164.4823
 20
41.3257
  0
SEQEND
  0
ENDBLK
  0
BLOCK
  8
LAYER_2
  2
AIGNBL0204000E
 70
64
 10
0
 20
0
 30
0
  3
AIGNBL0204000E
  0
POLYLINE
  8
LAYER_2
 40
0.05
 41
0.05
 66
1
 10
0
 20
0
 30
0
 70
1
  0
VERTEX
  8
LAYER_2
 10
168.3246
 20
41.4207
 42
-0.3048675751
  0
VERTEX
  8
LAYER_2
 10
168.1582
 20
41.1661
 42
-0.1151020929
  0
VERTEX
  8
LAYER_2
 10
167.9329
 20
41.1189
 42
-0.2442513348
  0
VERTEX
  8
LAYER_2
 10
167.6028
 20
41.2794
 42
-0.1394546152
  0
VERTEX
  8
LAYER_2
 10
167.5626
 20
41.4207
 42
-0.287439772
  0
VERTEX
  8
LAYER_2
 10
167.7346
 20
41.6803
 42
-0.1179404017
  0
VERTEX
  8
LAYER_2
 10
167.9467
 20
41.7277
 42
-0.2416274379
  0
VERTEX
  8
LAYER_2
 10
168.2814
 20
41.5719
 42
-0.1426378456
  0
SEQEND
  0
POLYLINE
  8
LAYER_2
 40
0.05
 41
0.05
 66
1
 10
0
 20
0
 30
0
 70
1
  0
VERTEX
  8
LAYER_2
 10
167.639
 20
37.9567
  0
VERTEX
  8
LAYER_2
 10
167.639
 20
40.6607
  0
VERTEX
  8
LAYER_2
 10
168.2537
 20
40.6607
  0
VERTEX
  8
LAYER_2
 10
168.2537
 20
37.9567
  0
SEQEND
  0
ENDBLK
  0
BLOCK
  8
LAYER_2
  2
AIGNBL0204000F
 70
64
 10
0
 20
0
 30
0
  3
AIGNBL0204000F
  0
POLYLINE
  8
LAYER_2
 40
0.05
 41
0.05
 66
1
 10
0
 20
0
 30
0
 70
1
  0
VERTEX
  8
LAYER_2
 10
170.1254
 20
39.1418
  0
VERTEX
  8
LAYER_2
 10
169.6372
 20
37.9567
  0
VERTEX
  8
LAYER_2
 10
169.0081
 20
37.9567
  0
VERTEX
  8
LAYER_2
 10
170.6077
 20
41.7225
  0
VERTEX
  8
LAYER_2
 10
171.3415
 20
41.7225
  0
VERTEX
  8
LAYER_2
 10
172.9479
 20
37.9567
  0
VERTEX
  8
LAYER_2
 10
172.2982
 20
37.9567
  0
VERTEX
  8
LAYER_2
 10
171.7955
 20
39.1418
  0
SEQEND
  0
POLYLINE
  8
LAYER_2
 40
0.05
 41
0.05
 66
1
 10
0
 20
0
 30
0
 70
1
  0
VERTEX
  8
LAYER_2
 10
171.6695
 20
39.5207
  0
VERTEX
  8
LAYER_2
 10
171.2085
 20
40.6056
 42
-0.02430767271
  0
VERTEX
  8
LAYER_2
 10
170.9646
 20
41.2926
  0
VERTEX
  8
LAYER_2
 10
170.9498
 20
41.2926
 42
-0.02034719794
  0
VERTEX
  8
LAYER_2
 10
170.7128
 20
40.6101
  0
VERTEX
  8
LAYER_2
 10
170.2518
 20
39.5207
  0
SEQEND
  0
ENDBLK
  0
BLOCK
  8
LAYER_2
  2
AIGNBL02030008
 70
64
 10
0
 20
0
 30
0
  3
AIGNBL02030008
  0
INSERT
  8
LAYER_2
  2
AIGNBL02040009
 10
0
 20
0
 30
0
  0
INSERT
  8
LAYER_2
  2
AIGNBL0204000A
 10
0
 20
0
 30
0
  0
INSERT
  8
LAYER_2
  2
AIGNBL0204000B
 10
0
 20
0
 30
0
  0
INSERT
  8
LAYER_2
  2
AIGNBL0204000C
 10
0
 20
0
 30
0
  0
INSERT
  8
LAYER_2
  2
AIGNBL0204000D
 10
0
 20
0
 30
0
  0
INSERT
  8
LAYER_2
  2
AIGNBL0204000E
 10
0
 20
0
 30
0
  0
INSERT
  8
LAYER_2
  2
AIGNBL0204000F
 10
0
 20
0
 30
0
  0
ENDBLK
  0
BLOCK
  8
LAYER_2
  2
AIGNBL02030011
 70
64
 10
0
 20
0
 30
0
  3
AIGNBL02030011
  0
POLYLINE
  8
LAYER_2
 40
0.05
 41
0.05
 66
1
 10
0
 20
0
 30
0
 70
1
  0
VERTEX
  8
LAYER_2
 10
145.7475
 20
36.0574
  0
VERTEX
  8
LAYER_2
 10
146.3008
 20
36.0574
  0
VERTEX
  8
LAYER_2
 10
146.3008
 20
35.9637
  0
VERTEX
  8
LAYER_2
 10
145.6424
 20
35.9637
  0
VERTEX
  8
LAYER_2
 10
145.6424
 20
36.9969
  0
VERTEX
  8
LAYER_2
 10
146.2832
 20
36.9969
  0
VERTEX
  8
LAYER_2
 10
146.2832
 20
36.9035
  0
VERTEX
  8
LAYER_2
 10
145.7475
 20
36.9035
  0
VERTEX
  8
LAYER_2
 10
145.7475
 20
36.549
  0
VERTEX
  8
LAYER_2
 10
146.2481
 20
36.549
  0
VERTEX
  8
LAYER_2
 10
146.2481
 20
36.4557
  0
VERTEX
  8
LAYER_2
 10
145.7475
 20
36.4557
  0
SEQEND
  0
ENDBLK
  0
BLOCK
  8
LAYER_2
  2
AIGNBL02030012
 70
64
 10
0
 20
0
 30
0
  3
AIGNBL02030012
  0
POLYLINE
  8
LAYER_2
 40
0.05
 41
0.05
 66
1
 10
0
 20
0
 30
0
 70
1
  0
VERTEX
  8
LAYER_2
 10
147.4404
 20
36.117
  0
VERTEX
  8
LAYER_2
 10
147.4432
 20
36.117
  0
VERTEX
  8
LAYER_2
 10
147.4432
 20
36.9969
  0
VERTEX
  8
LAYER_2
 10
147.5483
 20
36.9969
  0
VERTEX
  8
LAYER_2
 10
147.5483
 20
35.9637
  0
VERTEX
  8
LAYER_2
 10
147.4174
 20
35.9637
  0
VERTEX
  8
LAYER_2
 10
146.8162
 20
36.8525
  0
VERTEX
  8
LAYER_2
 10
146.8127
 20
36.8525
  0
VERTEX
  8
LAYER_2
 10
146.8127
 20
35.9637
  0
VERTEX
  8
LAYER_2
 10
146.708
 20
35.9637
  0
VERTEX
  8
LAYER_2
 10
146.708
 20
36.9969
  0
VERTEX
  8
LAYER_2
 10
146.8393
 20
36.9969
  0
SEQEND
  0
ENDBLK
  0
BLOCK
  8
LAYER_2
  2
AIGNBL02030013
 70
64
 10
0
 20
0
 30
0
  3
AIGNBL02030013
  0
POLYLINE
  8
LAYER_2
 40
0.05
 41
0.05
 66
1
 10
0
 20
0
 30
0
 70
1
  0
VERTEX
  8
LAYER_2
 10
148.0213
 20
36.1756
 42
0.1557655154
  0
VERTEX
  8
LAYER_2
 10
148.0757
 20
36.0725
 42
0.1918235184
  0
VERTEX
  8
LAYER_2
 10
148.1891
 20
36.0309
  0
VERTEX
  8
LAYER_2
 10
148.2783
 20
36.0505
  0
VERTEX
  8
LAYER_2
 10
148.3344
 20
36.1039
  0
VERTEX
  8
LAYER_2
 10
148.3634
 20
36.1804
  0
VERTEX
  8
LAYER_2
 10
148.3717
 20
36.27
  0
VERTEX
  8
LAYER_2
 10
148.3717
 20
36.9969
  0
VERTEX
  8
LAYER_2
 10
148.4767
 20
36.9969
  0
VERTEX
  8
LAYER_2
 10
148.4767
 20
36.2614
  0
VERTEX
  8
LAYER_2
 10
148.4654
 20
36.1535
 42
-0.0973308998
  0
VERTEX
  8
LAYER_2
 10
148.424
 20
36.0485
 42
-0.1149355521
  0
VERTEX
  8
LAYER_2
 10
148.3393
 20
35.9689
 42
-0.1249341208
  0
VERTEX
  8
LAYER_2
 10
148.2004
 20
35.9375
 42
-0.1793665557
  0
VERTEX
  8
LAYER_2
 10
148.0158
 20
35.9974
 42
-0.1772363953
  0
VERTEX
  8
LAYER_2
 10
147.9234
 20
36.149
  0
SEQEND
  0
ENDBLK
  0
BLOCK
  8
LAYER_2
  2
AIGNBL02030014
 70
64
 10
0
 20
0
 30
0
  3
AIGNBL02030014
  0
POLYLINE
  8
LAYER_2
 40
0.05
 41
0.05
 66
1
 10
0
 20
0
 30
0
 70
1
  0
VERTEX
  8
LAYER_2
 10
149.965
 20
36.4805
 42
-0.1019307791
  0
VERTEX
  8
LAYER_2
 10
149.924
 20
36.2631
 42
-0.1000112985
  0
VERTEX
  8
LAYER_2
 10
149.8113
 20
36.0915
 42
-0.09646612644
  0
VERTEX
  8
LAYER_2
 10
149.6405
 20
35.9785
 42
-0.09758594962
  0
VERTEX
  8
LAYER_2
 10
149.4265
 20
35.9375
 42
-0.1000844711
  0
VERTEX
  8
LAYER_2
 10
149.2129
 20
35.9785
 42
-0.09954994557
  0
VERTEX
  8
LAYER_2
 10
149.042
 20
36.0915
 42
-0.09699237735
  0
VERTEX
  8
LAYER_2
 10
148.9287
 20
36.2631
 42
-0.09653980076
  0
VERTEX
  8
LAYER_2
 10
148.8881
 20
36.4805
 42
-0.1004051845
  0
VERTEX
  8
LAYER_2
 10
148.9287
 20
36.6978
 42
-0.0998654539
  0
VERTEX
  8
LAYER_2
 10
149.042
 20
36.8694
 42
-0.09851519288
  0
VERTEX
  8
LAYER_2
 10
149.2129
 20
36.9824
 42
-0.09768823248
  0
VERTEX
  8
LAYER_2
 10
149.4265
 20
37.0234
 42
-0.1000514256
  0
VERTEX
  8
LAYER_2
 10
149.6405
 20
36.9824
 42
-0.09863053528
  0
VERTEX
  8
LAYER_2
 10
149.8113
 20
36.8694
 42
-0.09807107579
  0
VERTEX
  8
LAYER_2
 10
149.924
 20
36.6978
 42
-0.0978256893
  0
SEQEND
  0
POLYLINE
  8
LAYER_2
 40
0.05
 41
0.05
 66
1
 10
0
 20
0
 30
0
 70
1
  0
VERTEX
  8
LAYER_2
 10
149.8541
 20
36.4798
 42
0.08634913196
  0
VERTEX
  8
LAYER_2
 10
149.8251
 20
36.6517
 42
0.09649608129
  0
VERTEX
  8
LAYER_2
 10
149.7404
 20
36.795
 42
0.1032857511
  0
VERTEX
  8
LAYER_2
 10
149.6053
 20
36.8932
 42
0.1061320656
  0
VERTEX
  8
LAYER_2
 10
149.4265
 20
36.93
 42
0.1115874499
  0
VERTEX
  8
LAYER_2
 10
149.2478
 20
36.8932
 42
0.1058584166
  0
VERTEX
  8
LAYER_2
 10
149.113
 20
36.795
 42
0.09787799956
  0
VERTEX
  8
LAYER_2
 10
149.0283
 20
36.6517
 42
0.08491464556
  0
VERTEX
  8
LAYER_2
 10
148.999
 20
36.4798
 42
0.08693146424
  0
VERTEX
  8
LAYER_2
 10
149.0283
 20
36.3079
 42
0.1009797617
  0
VERTEX
  8
LAYER_2
 10
149.113
 20
36.1649
 42
0.09998489394
  0
VERTEX
  8
LAYER_2
 10
149.2478
 20
36.0674
 42
0.1061678446
  0
VERTEX
  8
LAYER_2
 10
149.4265
 20
36.0309
 42
0.1126980581
  0
VERTEX
  8
LAYER_2
 10
149.6053
 20
36.0674
 42
0.1036982708
  0
VERTEX
  8
LAYER_2
 10
149.7404
 20
36.1649
 42
0.09370250368
  0
VERTEX
  8
LAYER_2
 10
149.8251
 20
36.3079
 42
0.08466662837
  0
SEQEND
  0
ENDBLK
  0
BLOCK
  8
LAYER_2
  2
AIGNBL02030015
 70
64
 10
0
 20
0
 30
0
  3
AIGNBL02030015
  0
POLYLINE
  8
LAYER_2
 40
0.05
 41
0.05
 66
1
 10
0
 20
0
 30
0
 70
1
  0
VERTEX
  8
LAYER_2
 10
150.7398
 20
35.9637
  0
VERTEX
  8
LAYER_2
 10
150.6351
 20
35.9637
  0
VERTEX
  8
LAYER_2
 10
150.6351
 20
36.4091
  0
VERTEX
  8
LAYER_2
 10
150.2482
 20
36.9969
  0
VERTEX
  8
LAYER_2
 10
150.3795
 20
36.9969
  0
VERTEX
  8
LAYER_2
 10
150.6905
 20
36.4967
  0
VERTEX
  8
LAYER_2
 10
151.0041
 20
36.9969
  0
VERTEX
  8
LAYER_2
 10
151.1263
 20
36.9969
  0
VERTEX
  8
LAYER_2
 10
150.7398
 20
36.4091
  0
SEQEND
  0
ENDBLK
  0
BLOCK
  8
LAYER_2
  2
AIGNBL02030016
 70
64
 10
0
 20
0
 30
0
  3
AIGNBL02030016
  0
POLYLINE
  8
LAYER_2
 40
0.05
 41
0.05
 66
1
 10
0
 20
0
 30
0
 70
1
  0
VERTEX
  8
LAYER_2
 10
152.0314
 20
36.9969
  0
VERTEX
  8
LAYER_2
 10
152.339
 20
36.9969
  0
VERTEX
  8
LAYER_2
 10
152.4575
 20
36.9845
  0
VERTEX
  8
LAYER_2
 10
152.5643
 20
36.9421
 42
-0.1168262011
  0
VERTEX
  8
LAYER_2
 10
152.6422
 20
36.8611
 42
-0.1230288266
  0
VERTEX
  8
LAYER_2
 10
152.6718
 20
36.733
 42
-0.1795449175
  0
VERTEX
  8
LAYER_2
 10
152.6219
 20
36.5907
 42
-0.170141964
  0
VERTEX
  8
LAYER_2
 10
152.4885
 20
36.5111
  0
VERTEX
  8
LAYER_2
 10
152.4885
 20
36.5084
 42
-0.1719890535
  0
VERTEX
  8
LAYER_2
 10
152.6553
 20
36.4302
 42
-0.2018462152
  0
VERTEX
  8
LAYER_2
 10
152.7214
 20
36.2496
 42
-0.1247085485
  0
VERTEX
  8
LAYER_2
 10
152.6942
 20
36.1325
 42
-0.1153486961
  0
VERTEX
  8
LAYER_2
 10
152.6181
 20
36.0419
 42
-0.08656795839
  0
VERTEX
  8
LAYER_2
 10
152.4972
 20
35.9844
 42
-0.06557363107
  0
VERTEX
  8
LAYER_2
 10
152.3373
 20
35.9637
  0
VERTEX
  8
LAYER_2
 10
152.0314
 20
35.9637
  0
SEQEND
  0
POLYLINE
  8
LAYER_2
 40
0.05
 41
0.05
 66
1
 10
0
 20
0
 30
0
 70
1
  0
VERTEX
  8
LAYER_2
 10
152.1364
 20
36.5445
  0
VERTEX
  8
LAYER_2
 10
152.348
 20
36.5445
  0
VERTEX
  8
LAYER_2
 10
152.4248
 20
36.5535
  0
VERTEX
  8
LAYER_2
 10
152.4951
 20
36.5831
  0
VERTEX
  8
LAYER_2
 10
152.5471
 20
36.6396
 42
0.1162126025
  0
VERTEX
  8
LAYER_2
 10
152.5668
 20
36.7258
  0
VERTEX
  8
LAYER_2
 10
152.5471
 20
36.8095
  0
VERTEX
  8
LAYER_2
 10
152.494
 20
36.8656
  0
VERTEX
  8
LAYER_2
 10
152.4152
 20
36.897
  0
VERTEX
  8
LAYER_2
 10
152.3187
 20
36.9066
  0
VERTEX
  8
LAYER_2
 10
152.1364
 20
36.9066
  0
SEQEND
  0
POLYLINE
  8
LAYER_2
 40
0.05
 41
0.05
 66
1
 10
0
 20
0
 30
0
 70
1
  0
VERTEX
  8
LAYER_2
 10
152.1364
 20
36.0543
  0
VERTEX
  8
LAYER_2
 10
152.3321
 20
36.0543
  0
VERTEX
  8
LAYER_2
 10
152.4406
 20
36.0653
  0
VERTEX
  8
LAYER_2
 10
152.5313
 20
36.1001
 42
0.1172546835
  0
VERTEX
  8
LAYER_2
 10
152.5929
 20
36.1632
 42
0.1286243504
  0
VERTEX
  8
LAYER_2
 10
152.6164
 20
36.2559
 42
0.2498669706
  0
VERTEX
  8
LAYER_2
 10
152.5471
 20
36.4081
 42
0.1538083763
  0
VERTEX
  8
LAYER_2
 10
152.3511
 20
36.4584
  0
VERTEX
  8
LAYER_2
 10
152.1364
 20
36.4584
  0
SEQEND
  0
ENDBLK
  0
BLOCK
  8
LAYER_2
  2
AIGNBL02030017
 70
64
 10
0
 20
0
 30
0
  3
AIGNBL02030017
  0
POLYLINE
  8
LAYER_2
 40
0.05
 41
0.05
 66
1
 10
0
 20
0
 30
0
 70
1
  0
VERTEX
  8
LAYER_2
 10
153.1534
 20
35.9637
  0
VERTEX
  8
LAYER_2
 10
153.038
 20
35.9637
  0
VERTEX
  8
LAYER_2
 10
153.4849
 20
36.9969
  0
VERTEX
  8
LAYER_2
 10
153.5872
 20
36.9969
  0
VERTEX
  8
LAYER_2
 10
154.0306
 20
35.9637
  0
VERTEX
  8
LAYER_2
 10
153.9138
 20
35.9637
  0
VERTEX
  8
LAYER_2
 10
153.7997
 20
36.2352
  0
VERTEX
  8
LAYER_2
 10
153.2657
 20
36.2352
  0
SEQEND
  0
POLYLINE
  8
LAYER_2
 40
0.05
 41
0.05
 66
1
 10
0
 20
0
 30
0
 70
1
  0
VERTEX
  8
LAYER_2
 10
153.305
 20
36.3316
  0
VERTEX
  8
LAYER_2
 10
153.7604
 20
36.3316
  0
VERTEX
  8
LAYER_2
 10
153.5327
 20
36.8804
  0
SEQEND
  0
ENDBLK
  0
BLOCK
  8
LAYER_2
  2
AIGNBL02030018
 70
64
 10
0
 20
0
 30
0
  3
AIGNBL02030018
  0
POLYLINE
  8
LAYER_2
 40
0.05
 41
0.05
 66
1
 10
0
 20
0
 30
0
 70
1
  0
VERTEX
  8
LAYER_2
 10
154.7151
 20
35.9637
  0
VERTEX
  8
LAYER_2
 10
154.61
 20
35.9637
  0
VERTEX
  8
LAYER_2
 10
154.61
 20
36.9035
  0
VERTEX
  8
LAYER_2
 10
154.2638
 20
36.9035
  0
VERTEX
  8
LAYER_2
 10
154.2638
 20
36.9969
  0
VERTEX
  8
LAYER_2
 10
155.0606
 20
36.9969
  0
VERTEX
  8
LAYER_2
 10
155.0606
 20
36.9035
  0
VERTEX
  8
LAYER_2
 10
154.7151
 20
36.9035
  0
SEQEND
  0
ENDBLK
  0
BLOCK
  8
LAYER_2
  2
AIGNBL02030019
 70
64
 10
0
 20
0
 30
0
  3
AIGNBL02030019
  0
POLYLINE
  8
LAYER_2
 40
0.05
 41
0.05
 66
1
 10
0
 20
0
 30
0
 70
1
  0
VERTEX
  8
LAYER_2
 10
155.4169
 20
36.9969
  0
VERTEX
  8
LAYER_2
 10
155.5216
 20
36.9969
  0
VERTEX
  8
LAYER_2
 10
155.5216
 20
36.549
  0
VERTEX
  8
LAYER_2
 10
156.0852
 20
36.549
  0
VERTEX
  8
LAYER_2
 10
156.0852
 20
36.9969
  0
VERTEX
  8
LAYER_2
 10
156.1903
 20
36.9969
  0
VERTEX
  8
LAYER_2
 10
156.1903
 20
35.9637
  0
VERTEX
  8
LAYER_2
 10
156.0852
 20
35.9637
  0
VERTEX
  8
LAYER_2
 10
156.0852
 20
36.4529
  0
VERTEX
  8
LAYER_2
 10
155.5216
 20
36.4529
  0
VERTEX
  8
LAYER_2
 10
155.5216
 20
35.9637
  0
VERTEX
  8
LAYER_2
 10
155.4169
 20
35.9637
  0
SEQEND
  0
ENDBLK
  0
BLOCK
  8
LAYER_2
  2
AIGNBL0203001A
 70
64
 10
0
 20
0
 30
0
  3
AIGNBL0203001A
  0
POLYLINE
  8
LAYER_2
 40
0.05
 41
0.05
 66
1
 10
0
 20
0
 30
0
 70
1
  0
VERTEX
  8
LAYER_2
 10
156.7708
 20
35.9637
  0
VERTEX
  8
LAYER_2
 10
156.6657
 20
35.9637
  0
VERTEX
  8
LAYER_2
 10
156.6657
 20
36.9969
  0
VERTEX
  8
LAYER_2
 10
156.9696
 20
36.9969
  0
VERTEX
  8
LAYER_2
 10
157.1101
 20
36.9824
 42
-0.1032885834
  0
VERTEX
  8
LAYER_2
 10
157.2228
 20
36.9349
 42
-0.1280591957
  0
VERTEX
  8
LAYER_2
 10
157.2962
 20
36.8494
 42
-0.1078860225
  0
VERTEX
  8
LAYER_2
 10
157.3223
 20
36.7213
  0
VERTEX
  8
LAYER_2
 10
157.3024
 20
36.6176
  0
VERTEX
  8
LAYER_2
 10
157.2469
 20
36.5366
  0
VERTEX
  8
LAYER_2
 10
157.1635
 20
36.4818
  0
VERTEX
  8
LAYER_2
 10
157.0585
 20
36.4557
  0
VERTEX
  8
LAYER_2
 10
157.3606
 20
35.9637
  0
VERTEX
  8
LAYER_2
 10
157.2321
 20
35.9637
  0
VERTEX
  8
LAYER_2
 10
156.9461
 20
36.4467
  0
VERTEX
  8
LAYER_2
 10
156.7708
 20
36.4467
  0
SEQEND
  0
POLYLINE
  8
LAYER_2
 40
0.05
 41
0.05
 66
1
 10
0
 20
0
 30
0
 70
1
  0
VERTEX
  8
LAYER_2
 10
156.7708
 20
36.5373
  0
VERTEX
  8
LAYER_2
 10
156.9534
 20
36.5373
 42
0.153451873
  0
VERTEX
  8
LAYER_2
 10
157.1491
 20
36.5831
 42
0.2580279849
  0
VERTEX
  8
LAYER_2
 10
157.2176
 20
36.7213
  0
VERTEX
  8
LAYER_2
 10
157.1983
 20
36.8071
  0
VERTEX
  8
LAYER_2
 10
157.146
 20
36.8643
  0
VERTEX
  8
LAYER_2
 10
157.0643
 20
36.8963
  0
VERTEX
  8
LAYER_2
 10
156.9578
 20
36.9066
  0
VERTEX
  8
LAYER_2
 10
156.7708
 20
36.9066
  0
SEQEND
  0
ENDBLK
  0
BLOCK
  8
LAYER_2
  2
AIGNBL0203001B
 70
64
 10
0
 20
0
 30
0
  3
AIGNBL0203001B
  0
POLYLINE
  8
LAYER_2
 40
0.05
 41
0.05
 66
1
 10
0
 20
0
 30
0
 70
1
  0
VERTEX
  8
LAYER_2
 10
158.7627
 20
36.4805
 42
-0.09904480664
  0
VERTEX
  8
LAYER_2
 10
158.7221
 20
36.2631
 42
-0.09984043552
  0
VERTEX
  8
LAYER_2
 10
158.6087
 20
36.0915
 42
-0.09841590082
  0
VERTEX
  8
LAYER_2
 10
158.4382
 20
35.9785
 42
-0.09758412454
  0
VERTEX
  8
LAYER_2
 10
158.2243
 20
35.9375
 42
-0.09999517154
  0
VERTEX
  8
LAYER_2
 10
158.0103
 20
35.9785
 42
-0.09953435427
  0
VERTEX
  8
LAYER_2
 10
157.8398
 20
36.0915
 42
-0.09853706159
  0
VERTEX
  8
LAYER_2
 10
157.7268
 20
36.2631
 42
-0.09653980076
  0
VERTEX
  8
LAYER_2
 10
157.6862
 20
36.4805
 42
-0.1004051845
  0
VERTEX
  8
LAYER_2
 10
157.7268
 20
36.6978
 42
-0.1008040346
  0
VERTEX
  8
LAYER_2
 10
157.8398
 20
36.8694
 42
-0.09763764092
  0
VERTEX
  8
LAYER_2
 10
158.0103
 20
36.9824
 42
-0.09752919603
  0
VERTEX
  8
LAYER_2
 10
158.2243
 20
37.0234
 42
-0.1000174927
  0
VERTEX
  8
LAYER_2
 10
158.4382
 20
36.9824
 42
-0.1009762109
  0
VERTEX
  8
LAYER_2
 10
158.6087
 20
36.8694
 42
-0.09735230618
  0
VERTEX
  8
LAYER_2
 10
158.7221
 20
36.6978
 42
-0.09580191209
  0
SEQEND
  0
POLYLINE
  8
LAYER_2
 40
0.05
 41
0.05
 66
1
 10
0
 20
0
 30
0
 70
1
  0
VERTEX
  8
LAYER_2
 10
158.6518
 20
36.4798
 42
0.08852014676
  0
VERTEX
  8
LAYER_2
 10
158.6225
 20
36.6517
 42
0.09973444611
  0
VERTEX
  8
LAYER_2
 10
158.5378
 20
36.795
 42
0.1024799068
  0
VERTEX
  8
LAYER_2
 10
158.4031
 20
36.8932
 42
0.1060321998
  0
VERTEX
  8
LAYER_2
 10
158.2243
 20
36.93
 42
0.1116325688
  0
VERTEX
  8
LAYER_2
 10
158.0455
 20
36.8932
 42
0.1060506217
  0
VERTEX
  8
LAYER_2
 10
157.9104
 20
36.795
 42
0.09526104957
  0
VERTEX
  8
LAYER_2
 10
157.8257
 20
36.6517
 42
0.08422602157
  0
VERTEX
  8
LAYER_2
 10
157.7968
 20
36.4798
 42
0.0876992245
  0
VERTEX
  8
LAYER_2
 10
157.8257
 20
36.3079
 42
0.09826867926
  0
VERTEX
  8
LAYER_2
 10
157.9104
 20
36.1649
 42
0.09965756504
  0
VERTEX
  8
LAYER_2
 10
158.0455
 20
36.0674
 42
0.1061654103
  0
VERTEX
  8
LAYER_2
 10
158.2243
 20
36.0309
 42
0.1124388132
  0
VERTEX
  8
LAYER_2
 10
158.4031
 20
36.0674
 42
0.1029122982
  0
VERTEX
  8
LAYER_2
 10
158.5378
 20
36.1649
 42
0.09882210045
  0
VERTEX
  8
LAYER_2
 10
158.6225
 20
36.3079
 42
0.08589740831
  0
SEQEND
  0
ENDBLK
  0
BLOCK
  8
LAYER_2
  2
AIGNBL0203001C
 70
64
 10
0
 20
0
 30
0
  3
AIGNBL0203001C
  0
POLYLINE
  8
LAYER_2
 40
0.05
 41
0.05
 66
1
 10
0
 20
0
 30
0
 70
1
  0
VERTEX
  8
LAYER_2
 10
160.2045
 20
36.4805
 42
-0.1019307791
  0
VERTEX
  8
LAYER_2
 10
160.1635
 20
36.2631
 42
-0.09929652324
  0
VERTEX
  8
LAYER_2
 10
160.0509
 20
36.0915
 42
-0.09710469009
  0
VERTEX
  8
LAYER_2
 10
159.88
 20
35.9785
 42
-0.09758412454
  0
VERTEX
  8
LAYER_2
 10
159.6661
 20
35.9375
 42
-0.1005051182
  0
VERTEX
  8
LAYER_2
 10
159.4524
 20
35.9785
 42
-0.1009789173
  0
VERTEX
  8
LAYER_2
 10
159.2816
 20
36.0915
 42
-0.09724598852
  0
VERTEX
  8
LAYER_2
 10
159.1682
 20
36.2631
 42
-0.09653980076
  0
VERTEX
  8
LAYER_2
 10
159.1276
 20
36.4805
 42
-0.1004051845
  0
VERTEX
  8
LAYER_2
 10
159.1682
 20
36.6978
 42
-0.1001669327
  0
VERTEX
  8
LAYER_2
 10
159.2816
 20
36.8694
 42
-0.09846843416
  0
VERTEX
  8
LAYER_2
 10
159.4524
 20
36.9824
 42
-0.09783444074
  0
VERTEX
  8
LAYER_2
 10
159.6661
 20
37.0234
 42
-0.1000174927
  0
VERTEX
  8
LAYER_2
 10
159.88
 20
36.9824
 42
-0.098457988
  0
VERTEX
  8
LAYER_2
 10
160.0509
 20
36.8694
 42
-0.09762598086
  0
VERTEX
  8
LAYER_2
 10
160.1635
 20
36.6978
 42
-0.0978256893
  0
SEQEND
  0
POLYLINE
  8
LAYER_2
 40
0.05
 41
0.05
 66
1
 10
0
 20
0
 30
0
 70
1
  0
VERTEX
  8
LAYER_2
 10
160.0936
 20
36.4798
 42
0.08653869446
  0
VERTEX
  8
LAYER_2
 10
160.0647
 20
36.6517
 42
0.09689814906
  0
VERTEX
  8
LAYER_2
 10
159.9799
 20
36.795
 42
0.1032857511
  0
VERTEX
  8
LAYER_2
 10
159.8448
 20
36.8932
 42
0.1061350344
  0
VERTEX
  8
LAYER_2
 10
159.6661
 20
36.93
 42
0.1114208933
  0
VERTEX
  8
LAYER_2
 10
159.4872
 20
36.8932
 42
0.1056595975
  0
VERTEX
  8
LAYER_2
 10
159.3525
 20
36.795
 42
0.09787799956
  0
VERTEX
  8
LAYER_2
 10
159.2678
 20
36.6517
 42
0.08491464556
  0
VERTEX
  8
LAYER_2
 10
159.2385
 20
36.4798
 42
0.08693146424
  0
VERTEX
  8
LAYER_2
 10
159.2678
 20
36.3079
 42
0.1009797617
  0
VERTEX
  8
LAYER_2
 10
159.3525
 20
36.1649
 42
0.09978391674
  0
VERTEX
  8
LAYER_2
 10
159.4872
 20
36.0674
 42
0.1060616244
  0
VERTEX
  8
LAYER_2
 10
159.6661
 20
36.0309
 42
0.1126531325
  0
VERTEX
  8
LAYER_2
 10
159.8448
 20
36.0674
 42
0.1036982708
  0
VERTEX
  8
LAYER_2
 10
159.9799
 20
36.1649
 42
0.09401062747
  0
VERTEX
  8
LAYER_2
 10
160.0647
 20
36.3079
 42
0.0844927763
  0
SEQEND
  0
ENDBLK
  0
BLOCK
  8
LAYER_2
  2
AIGNBL0203001D
 70
64
 10
0
 20
0
 30
0
  3
AIGNBL0203001D
  0
POLYLINE
  8
LAYER_2
 40
0.05
 41
0.05
 66
1
 10
0
 20
0
 30
0
 70
1
  0
VERTEX
  8
LAYER_2
 10
161.1354
 20
36.1418
  0
VERTEX
  8
LAYER_2
 10
161.1371
 20
36.1418
  0
VERTEX
  8
LAYER_2
 10
161.4826
 20
36.9969
  0
VERTEX
  8
LAYER_2
 10
161.6435
 20
36.9969
  0
VERTEX
  8
LAYER_2
 10
161.6435
 20
35.9637
  0
VERTEX
  8
LAYER_2
 10
161.5381
 20
35.9637
  0
VERTEX
  8
LAYER_2
 10
161.5381
 20
36.8611
  0
VERTEX
  8
LAYER_2
 10
161.5354
 20
36.8611
  0
VERTEX
  8
LAYER_2
 10
161.1619
 20
35.9637
  0
VERTEX
  8
LAYER_2
 10
161.1064
 20
35.9637
  0
VERTEX
  8
LAYER_2
 10
160.7326
 20
36.8611
  0
VERTEX
  8
LAYER_2
 10
160.7299
 20
36.8611
  0
VERTEX
  8
LAYER_2
 10
160.7299
 20
35.9637
  0
VERTEX
  8
LAYER_2
 10
160.6248
 20
35.9637
  0
VERTEX
  8
LAYER_2
 10
160.6248
 20
36.9969
  0
VERTEX
  8
LAYER_2
 10
160.7853
 20
36.9969
  0
SEQEND
  0
ENDBLK
  0
BLOCK
  8
LAYER_2
  2
AIGNBL0203001E
 70
64
 10
0
 20
0
 30
0
  3
AIGNBL0203001E
  0
POLYLINE
  8
LAYER_2
 40
0.05
 41
0.05
 66
1
 10
0
 20
0
 30
0
 70
1
  0
VERTEX
  8
LAYER_2
 10
162.79
 20
36.0574
  0
VERTEX
  8
LAYER_2
 10
163.3433
 20
36.0574
  0
VERTEX
  8
LAYER_2
 10
163.3433
 20
35.9637
  0
VERTEX
  8
LAYER_2
 10
162.685
 20
35.9637
  0
VERTEX
  8
LAYER_2
 10
162.685
 20
36.9969
  0
VERTEX
  8
LAYER_2
 10
163.3258
 20
36.9969
  0
VERTEX
  8
LAYER_2
 10
163.3258
 20
36.9035
  0
VERTEX
  8
LAYER_2
 10
162.79
 20
36.9035
  0
VERTEX
  8
LAYER_2
 10
162.79
 20
36.549
  0
VERTEX
  8
LAYER_2
 10
163.2906
 20
36.549
  0
VERTEX
  8
LAYER_2
 10
163.2906
 20
36.4557
  0
VERTEX
  8
LAYER_2
 10
162.79
 20
36.4557
  0
SEQEND
  0
ENDBLK
  0
BLOCK
  8
LAYER_2
  2
AIGNBL0203001F
 70
64
 10
0
 20
0
 30
0
  3
AIGNBL0203001F
  0
POLYLINE
  8
LAYER_2
 40
0.05
 41
0.05
 66
1
 10
0
 20
0
 30
0
 70
1
  0
VERTEX
  8
LAYER_2
 10
164.0885
 20
36.5797
  0
VERTEX
  8
LAYER_2
 10
164.3707
 20
36.9969
  0
VERTEX
  8
LAYER_2
 10
164.4957
 20
36.9969
  0
VERTEX
  8
LAYER_2
 10
164.1533
 20
36.5053
  0
VERTEX
  8
LAYER_2
 10
164.5326
 20
35.9637
  0
VERTEX
  8
LAYER_2
 10
164.4013
 20
35.9637
  0
VERTEX
  8
LAYER_2
 10
164.0858
 20
36.4295
  0
VERTEX
  8
LAYER_2
 10
163.7722
 20
35.9637
  0
VERTEX
  8
LAYER_2
 10
163.6407
 20
35.9637
  0
VERTEX
  8
LAYER_2
 10
164.0203
 20
36.5066
  0
VERTEX
  8
LAYER_2
 10
163.6744
 20
36.9969
  0
VERTEX
  8
LAYER_2
 10
163.806
 20
36.9969
  0
SEQEND
  0
ENDBLK
  0
BLOCK
  8
LAYER_2
  2
AIGNBL02030020
 70
64
 10
0
 20
0
 30
0
  3
AIGNBL02030020
  0
POLYLINE
  8
LAYER_2
 40
0.05
 41
0.05
 66
1
 10
0
 20
0
 30
0
 70
1
  0
VERTEX
  8
LAYER_2
 10
164.8988
 20
36.9969
  0
VERTEX
  8
LAYER_2
 10
165.1909
 20
36.9969
  0
VERTEX
  8
LAYER_2
 10
165.3339
 20
36.9804
 42
-0.104160294
  0
VERTEX
  8
LAYER_2
 10
165.4438
 20
36.929
 42
-0.1209616443
  0
VERTEX
  8
LAYER_2
 10
165.5148
 20
36.8429
 42
-0.1032545831
  0
VERTEX
  8
LAYER_2
 10
165.5392
 20
36.7213
 42
-0.1239274235
  0
VERTEX
  8
LAYER_2
 10
165.5141
 20
36.5993
 42
-0.1163667494
  0
VERTEX
  8
LAYER_2
 10
165.4424
 20
36.5132
 42
-0.08715194998
  0
VERTEX
  8
LAYER_2
 10
165.3315
 20
36.4615
 42
-0.06075348808
  0
VERTEX
  8
LAYER_2
 10
165.1878
 20
36.444
  0
VERTEX
  8
LAYER_2
 10
165.0039
 20
36.444
  0
VERTEX
  8
LAYER_2
 10
165.0039
 20
35.9637
  0
VERTEX
  8
LAYER_2
 10
164.8988
 20
35.9637
  0
SEQEND
  0
POLYLINE
  8
LAYER_2
 40
0.05
 41
0.05
 66
1
 10
0
 20
0
 30
0
 70
1
  0
VERTEX
  8
LAYER_2
 10
165.0039
 20
36.5328
  0
VERTEX
  8
LAYER_2
 10
165.1816
 20
36.5328
 42
0.1694225951
  0
VERTEX
  8
LAYER_2
 10
165.3701
 20
36.581
 42
0.2442570363
  0
VERTEX
  8
LAYER_2
 10
165.4345
 20
36.7213
 42
0.2590967024
  0
VERTEX
  8
LAYER_2
 10
165.368
 20
36.8622
 42
0.143072224
  0
VERTEX
  8
LAYER_2
 10
165.1816
 20
36.9066
  0
VERTEX
  8
LAYER_2
 10
165.0039
 20
36.9066
  0
SEQEND
  0
ENDBLK
  0
BLOCK
  8
LAYER_2
  2
AIGNBL02030021
 70
64
 10
0
 20
0
 30
0
  3
AIGNBL02030021
  0
POLYLINE
  8
LAYER_2
 40
0.05
 41
0.05
 66
1
 10
0
 20
0
 30
0
 70
1
  0
VERTEX
  8
LAYER_2
 10
166.0515
 20
36.0574
  0
VERTEX
  8
LAYER_2
 10
166.6048
 20
36.0574
  0
VERTEX
  8
LAYER_2
 10
166.6048
 20
35.9637
  0
VERTEX
  8
LAYER_2
 10
165.9465
 20
35.9637
  0
VERTEX
  8
LAYER_2
 10
165.9465
 20
36.9969
  0
VERTEX
  8
LAYER_2
 10
166.5872
 20
36.9969
  0
VERTEX
  8
LAYER_2
 10
166.5872
 20
36.9035
  0
VERTEX
  8
LAYER_2
 10
166.0515
 20
36.9035
  0
VERTEX
  8
LAYER_2
 10
166.0515
 20
36.549
  0
VERTEX
  8
LAYER_2
 10
166.5521
 20
36.549
  0
VERTEX
  8
LAYER_2
 10
166.5521
 20
36.4557
  0
VERTEX
  8
LAYER_2
 10
166.0515
 20
36.4557
  0
SEQEND
  0
ENDBLK
  0
BLOCK
  8
LAYER_2
  2
AIGNBL02030022
 70
64
 10
0
 20
0
 30
0
  3
AIGNBL02030022
  0
POLYLINE
  8
LAYER_2
 40
0.05
 41
0.05
 66
1
 10
0
 20
0
 30
0
 70
1
  0
VERTEX
  8
LAYER_2
 10
167.1168
 20
35.9637
  0
VERTEX
  8
LAYER_2
 10
167.0117
 20
35.9637
  0
VERTEX
  8
LAYER_2
 10
167.0117
 20
36.9969
  0
VERTEX
  8
LAYER_2
 10
167.3155
 20
36.9969
  0
VERTEX
  8
LAYER_2
 10
167.4561
 20
36.9824
 42
-0.1039428931
  0
VERTEX
  8
LAYER_2
 10
167.5687
 20
36.9349
 42
-0.1259973384
  0
VERTEX
  8
LAYER_2
 10
167.6425
 20
36.8494
 42
-0.1064650891
  0
VERTEX
  8
LAYER_2
 10
167.6683
 20
36.7213
  0
VERTEX
  8
LAYER_2
 10
167.6483
 20
36.6176
  0
VERTEX
  8
LAYER_2
 10
167.5929
 20
36.5366
  0
VERTEX
  8
LAYER_2
 10
167.5095
 20
36.4818
  0
VERTEX
  8
LAYER_2
 10
167.4044
 20
36.4557
  0
VERTEX
  8
LAYER_2
 10
167.7066
 20
35.9637
  0
VERTEX
  8
LAYER_2
 10
167.578
 20
35.9637
  0
VERTEX
  8
LAYER_2
 10
167.2921
 20
36.4467
  0
VERTEX
  8
LAYER_2
 10
167.1168
 20
36.4467
  0
SEQEND
  0
POLYLINE
  8
LAYER_2
 40
0.05
 41
0.05
 66
1
 10
0
 20
0
 30
0
 70
1
  0
VERTEX
  8
LAYER_2
 10
167.1168
 20
36.5373
  0
VERTEX
  8
LAYER_2
 10
167.2994
 20
36.5373
 42
0.1542400453
  0
VERTEX
  8
LAYER_2
 10
167.495
 20
36.5831
 42
0.2583775622
  0
VERTEX
  8
LAYER_2
 10
167.5636
 20
36.7213
  0
VERTEX
  8
LAYER_2
 10
167.5446
 20
36.8071
  0
VERTEX
  8
LAYER_2
 10
167.4919
 20
36.8643
  0
VERTEX
  8
LAYER_2
 10
167.4103
 20
36.8963
  0
VERTEX
  8
LAYER_2
 10
167.3038
 20
36.9066
  0
VERTEX
  8
LAYER_2
 10
167.1168
 20
36.9066
  0
SEQEND
  0
ENDBLK
  0
BLOCK
  8
LAYER_2
  2
AIGNBL02030023
 70
64
 10
0
 20
0
 30
0
  3
AIGNBL02030023
  0
POLYLINE
  8
LAYER_2
 40
0.05
 41
0.05
 66
1
 10
0
 20
0
 30
0
 70
1
  0
VERTEX
  8
LAYER_2
 10
168.1923
 20
35.9637
  0
VERTEX
  8
LAYER_2
 10
168.0876
 20
35.9637
  0
VERTEX
  8
LAYER_2
 10
168.0876
 20
36.9969
  0
VERTEX
  8
LAYER_2
 10
168.1923
 20
36.9969
  0
SEQEND
  0
ENDBLK
  0
BLOCK
  8
LAYER_2
  2
AIGNBL02030024
 70
64
 10
0
 20
0
 30
0
  3
AIGNBL02030024
  0
POLYLINE
  8
LAYER_2
 40
0.05
 41
0.05
 66
1
 10
0
 20
0
 30
0
 70
1
  0
VERTEX
  8
LAYER_2
 10
168.7732
 20
36.0574
  0
VERTEX
  8
LAYER_2
 10
169.3261
 20
36.0574
  0
VERTEX
  8
LAYER_2
 10
169.3261
 20
35.9637
  0
VERTEX
  8
LAYER_2
 10
168.6681
 20
35.9637
  0
VERTEX
  8
LAYER_2
 10
168.6681
 20
36.9969
  0
VERTEX
  8
LAYER_2
 10
169.3089
 20
36.9969
  0
VERTEX
  8
LAYER_2
 10
169.3089
 20
36.9035
  0
VERTEX
  8
LAYER_2
 10
168.7732
 20
36.9035
  0
VERTEX
  8
LAYER_2
 10
168.7732
 20
36.549
  0
VERTEX
  8
LAYER_2
 10
169.2737
 20
36.549
  0
VERTEX
  8
LAYER_2
 10
169.2737
 20
36.4557
  0
VERTEX
  8
LAYER_2
 10
168.7732
 20
36.4557
  0
SEQEND
  0
ENDBLK
  0
BLOCK
  8
LAYER_2
  2
AIGNBL02030025
 70
64
 10
0
 20
0
 30
0
  3
AIGNBL02030025
  0
POLYLINE
  8
LAYER_2
 40
0.05
 41
0.05
 66
1
 10
0
 20
0
 30
0
 70
1
  0
VERTEX
  8
LAYER_2
 10
170.4661
 20
36.117
  0
VERTEX
  8
LAYER_2
 10
170.4689
 20
36.117
  0
VERTEX
  8
LAYER_2
 10
170.4689
 20
36.9969
  0
VERTEX
  8
LAYER_2
 10
170.5739
 20
36.9969
  0
VERTEX
  8
LAYER_2
 10
170.5739
 20
35.9637
  0
VERTEX
  8
LAYER_2
 10
170.4426
 20
35.9637
  0
VERTEX
  8
LAYER_2
 10
169.8415
 20
36.8525
  0
VERTEX
  8
LAYER_2
 10
169.8384
 20
36.8525
  0
VERTEX
  8
LAYER_2
 10
169.8384
 20
35.9637
  0
VERTEX
  8
LAYER_2
 10
169.7333
 20
35.9637
  0
VERTEX
  8
LAYER_2
 10
169.7333
 20
36.9969
  0
VERTEX
  8
LAYER_2
 10
169.8649
 20
36.9969
  0
SEQEND
  0
ENDBLK
  0
BLOCK
  8
LAYER_2
  2
AIGNBL02030026
 70
64
 10
0
 20
0
 30
0
  3
AIGNBL02030026
  0
POLYLINE
  8
LAYER_2
 40
0.05
 41
0.05
 66
1
 10
0
 20
0
 30
0
 70
1
  0
VERTEX
  8
LAYER_2
 10
171.9196
 20
36.1315
  0
VERTEX
  8
LAYER_2
 10
171.8558
 20
36.0571
  0
VERTEX
  8
LAYER_2
 10
171.7697
 20
35.9954
  0
VERTEX
  8
LAYER_2
 10
171.6615
 20
35.953
  0
VERTEX
  8
LAYER_2
 10
171.5327
 20
35.9375
 42
-0.0997799169
  0
VERTEX
  8
LAYER_2
 10
171.3167
 20
35.9785
 42
-0.102530266
  0
VERTEX
  8
LAYER_2
 10
171.1461
 20
36.0915
 42
-0.09968794278
  0
VERTEX
  8
LAYER_2
 10
171.0345
 20
36.2631
 42
-0.09630702324
  0
VERTEX
  8
LAYER_2
 10
170.9942
 20
36.4805
 42
-0.1018981748
  0
VERTEX
  8
LAYER_2
 10
171.0352
 20
36.6978
 42
-0.09989904409
  0
VERTEX
  8
LAYER_2
 10
171.1479
 20
36.8694
 42
-0.09694965588
  0
VERTEX
  8
LAYER_2
 10
171.3187
 20
36.9824
 42
-0.09744116728
  0
VERTEX
  8
LAYER_2
 10
171.5327
 20
37.0234
  0
VERTEX
  8
LAYER_2
 10
171.6443
 20
37.0114
  0
VERTEX
  8
LAYER_2
 10
171.7473
 20
36.9779
  0
VERTEX
  8
LAYER_2
 10
171.8348
 20
36.9263
  0
VERTEX
  8
LAYER_2
 10
171.9006
 20
36.8584
  0
VERTEX
  8
LAYER_2
 10
171.8131
 20
36.794
  0
VERTEX
  8
LAYER_2
 10
171.7697
 20
36.8439
  0
VERTEX
  8
LAYER_2
 10
171.7063
 20
36.8877
  0
VERTEX
  8
LAYER_2
 10
171.6267
 20
36.9183
  0
VERTEX
  8
LAYER_2
 10
171.5341
 20
36.93
 42
0.1106055686
  0
VERTEX
  8
LAYER_2
 10
171.3539
 20
36.8935
 42
0.1037389517
  0
VERTEX
  8
LAYER_2
 10
171.2188
 20
36.7954
 42
0.09534605581
  0
VERTEX
  8
LAYER_2
 10
171.1341
 20
36.652
 42
0.08447361069
  0
VERTEX
  8
LAYER_2
 10
171.1052
 20
36.4805
 42
0.09038739564
  0
VERTEX
  8
LAYER_2
 10
171.1351
 20
36.3089
 42
0.09795352863
  0
VERTEX
  8
LAYER_2
 10
171.2205
 20
36.1656
 42
0.1034747097
  0
VERTEX
  8
LAYER_2
 10
171.3556
 20
36.0674
 42
0.1064777274
  0
VERTEX
  8
LAYER_2
 10
171.5341
 20
36.0309
 42
0.1092499226
  0
VERTEX
  8
LAYER_2
 10
171.7032
 20
36.0674
 42
0.1370031249
  0
VERTEX
  8
LAYER_2
 10
171.8376
 20
36.1842
  0
SEQEND
  0
ENDBLK
  0
BLOCK
  8
LAYER_2
  2
AIGNBL02030027
 70
64
 10
0
 20
0
 30
0
  3
AIGNBL02030027
  0
POLYLINE
  8
LAYER_2
 40
0.05
 41
0.05
 66
1
 10
0
 20
0
 30
0
 70
1
  0
VERTEX
  8
LAYER_2
 10
172.4067
 20
36.0574
  0
VERTEX
  8
LAYER_2
 10
172.96
 20
36.0574
  0
VERTEX
  8
LAYER_2
 10
172.96
 20
35.9637
  0
VERTEX
  8
LAYER_2
 10
172.3016
 20
35.9637
  0
VERTEX
  8
LAYER_2
 10
172.3016
 20
36.9969
  0
VERTEX
  8
LAYER_2
 10
172.9424
 20
36.9969
  0
VERTEX
  8
LAYER_2
 10
172.9424
 20
36.9035
  0
VERTEX
  8
LAYER_2
 10
172.4067
 20
36.9035
  0
VERTEX
  8
LAYER_2
 10
172.4067
 20
36.549
  0
VERTEX
  8
LAYER_2
 10
172.9073
 20
36.549
  0
VERTEX
  8
LAYER_2
 10
172.9073
 20
36.4557
  0
VERTEX
  8
LAYER_2
 10
172.4067
 20
36.4557
  0
SEQEND
  0
ENDBLK
  0
BLOCK
  8
LAYER_2
  2
AIGNBL02020004
 70
64
 10
0
 20
0
 30
0
  3
AIGNBL02020004
  0
POLYLINE
  8
LAYER_2
 40
0.05
 41
0.05
 66
1
 10
0
 20
0
 30
0
  0
VERTEX
  8
LAYER_2
 10
-1.196
 20
217.6012
 42
-0.04245719054
  0
VERTEX
  8
LAYER_2
 10
-1.2437
 20
216.7495
 42
-0.1145799327
  0
VERTEX
  8
LAYER_2
 10
-1.4854
 20
216.1042
 42
-0.03657724702
  0
VERTEX
  8
LAYER_2
 10
-1.5732
 20
216.0054
 42
-0.1577844027
  0
VERTEX
  8
LAYER_2
 10
-2.1025
 20
215.7362
 42
-0.04286355862
  0
VERTEX
  8
LAYER_2
 10
-2.3408
 20
215.7164
 42
-0.1461347274
  0
VERTEX
  8
LAYER_2
 10
-2.9525
 20
215.8874
 42
-0.04825720136
  0
VERTEX
  8
LAYER_2
 10
-3.0956
 20
216.0054
 42
-0.1514389093
  0
VERTEX
  8
LAYER_2
 10
-3.3903
 20
216.5711
 42
-0.04033585951
  0
VERTEX
  8
LAYER_2
 10
-3.4563
 20
217.0249
 42
-0.01781626242
  0
VERTEX
  8
LAYER_2
 10
-3.4732
 20
217.6012
 42
-0.04130139583
  0
VERTEX
  8
LAYER_2
 10
-3.4273
 20
218.4296
 42
-0.115134122
  0
VERTEX
  8
LAYER_2
 10
-3.1834
 20
219.0859
 42
-0.03655204802
  0
VERTEX
  8
LAYER_2
 10
-3.0956
 20
219.1845
 42
-0.2077091659
  0
VERTEX
  8
LAYER_2
 10
-2.3408
 20
219.4732
 42
-0.1450941273
  0
VERTEX
  8
LAYER_2
 10
-1.7165
 20
219.3022
 42
-0.04840000405
  0
VERTEX
  8
LAYER_2
 10
-1.5732
 20
219.1845
 42
-0.1513847701
  0
VERTEX
  8
LAYER_2
 10
-1.2787
 20
218.6201
 42
-0.04039612069
  0
VERTEX
  8
LAYER_2
 10
-1.2128
 20
218.1697
 42
-0.01794233576
  0
VERTEX
  8
LAYER_2
 10
-1.196
 20
217.6012
  0
SEQEND
  0
POLYLINE
  8
LAYER_2
 40
0.05
 41
0.05
 66
1
 10
0
 20
0
 30
0
  0
VERTEX
  8
LAYER_2
 10
0.4394
 20
217.6012
 42
0.03175065208
  0
VERTEX
  8
LAYER_2
 10
0.3919
 20
218.5427
 42
0.07858555415
  0
VERTEX
  8
LAYER_2
 10
0.123
 20
219.5272
 42
0.07786217308
  0
VERTEX
  8
LAYER_2
 10
-0.303
 20
220.1395
 42
0.1422741765
  0
VERTEX
  8
LAYER_2
 10
-1.5044
 20
220.8409
 42
0.06575783118
  0
VERTEX
  8
LAYER_2
 10
-2.3408
 20
220.9436
 42
0.08626163736
  0
VERTEX
  8
LAYER_2
 10
-3.3996
 20
220.7669
 42
0.1130730203
  0
VERTEX
  8
LAYER_2
 10
-4.3662
 20
220.1395
 42
0.09873852385
  0
VERTEX
  8
LAYER_2
 10
-4.8748
 20
219.3361
 42
0.04046067269
  0
VERTEX
  8
LAYER_2
 10
-5.006
 20
218.8809
 42
0.03220856709
  0
VERTEX
  8
LAYER_2
 10
-5.0854
 20
218.2915
 42
0.01857685015
  0
VERTEX
  8
LAYER_2
 10
-5.1082
 20
217.6012
 42
0.03149278186
  0
VERTEX
  8
LAYER_2
 10
-5.0608
 20
216.6571
 42
0.0779698511
  0
VERTEX
  8
LAYER_2
 10
-4.7923
 20
215.6655
 42
0.07853580552
  0
VERTEX
  8
LAYER_2
 10
-4.3662
 20
215.0504
 42
0.1826502598
  0
VERTEX
  8
LAYER_2
 10
-2.668
 20
214.2613
 42
0.02311737764
  0
VERTEX
  8
LAYER_2
 10
-2.3408
 20
214.2463
 42
0.08564977323
  0
VERTEX
  8
LAYER_2
 10
-1.2772
 20
214.423
 42
0.1129150187
  0
VERTEX
  8
LAYER_2
 10
-0.303
 20
215.0504
 42
0.1497181056
  0
VERTEX
  8
LAYER_2
 10
0.3325
 20
216.2722
 42
0.03273812963
  0
VERTEX
  8
LAYER_2
 10
0.4143
 20
216.8609
 42
0.01955851524
  0
VERTEX
  8
LAYER_2
 10
0.4394
 20
217.6012
  0
SEQEND
  0
POLYLINE
  8
LAYER_2
 40
0.05
 41
0.05
 66
1
 10
0
 20
0
 30
0
  0
VERTEX
  8
LAYER_2
 10
-11.3166
 20
218.2044
  0
VERTEX
  8
LAYER_2
 10
-13.8074
 20
218.2044
 42
-0.1126267973
  0
VERTEX
  8
LAYER_2
 10
-13.6562
 20
218.9079
 42
-0.1394863081
  0
VERTEX
  8
LAYER_2
 10
-13.2507
 20
219.3934
 42
-0.1317584651
  0
VERTEX
  8
LAYER_2
 10
-12.676
 20
219.5824
 42
-0.01996454454
  0
VERTEX
  8
LAYER_2
 10
-12.562
 20
219.5866
 42
-0.137467943
  0
VERTEX
  8
LAYER_2
 10
-11.8991
 20
219.4101
 42
-0.150691583
  0
VERTEX
  8
LAYER_2
 10
-11.4672
 20
218.9079
 42
-0.1174358853
  0
VERTEX
  8
LAYER_2
 10
-11.3166
 20
218.2044
  0
SEQEND
  0
POLYLINE
  8
LAYER_2
 40
0.05
 41
0.05
 66
1
 10
0
 20
0
 30
0
 70
1
  0
VERTEX
  8
LAYER_2
 10
-9.7064
 20
217.0861
  0
VERTEX
  8
LAYER_2
 10
-9.7064
 20
217.7772
 42
0.07163312002
  0
VERTEX
  8
LAYER_2
 10
-9.8733
 20
218.9838
 42
0.08028385511
  0
VERTEX
  8
LAYER_2
 10
-10.299
 20
219.8659
 42
0.0865588964
  0
VERTEX
  8
LAYER_2
 10
-10.9136
 20
220.4722
 42
0.08455684744
  0
VERTEX
  8
LAYER_2
 10
-11.6929
 20
220.8316
 42
0.06903226706
  0
VERTEX
  8
LAYER_2
 10
-12.562
 20
220.9436
 42
0.08515866825
  0
VERTEX
  8
LAYER_2
 10
-13.5923
 20
220.7733
 42
0.2152076095
  0
VERTEX
  8
LAYER_2
 10
-15.1128
 20
219.2869
 42
0.07250212731
  0
VERTEX
  8
LAYER_2
 10
-15.3825
 20
218.223
 42
0.02934637219
  0
VERTEX
  8
LAYER_2
 10
-15.4177
 20
217.6012
 42
0.06683021014
  0
VERTEX
  8
LAYER_2
 10
-15.2459
 20
216.2162
 42
0.08312981404
  0
VERTEX
  8
LAYER_2
 10
-14.8229
 20
215.3116
 42
0.184288283
  0
VERTEX
  8
LAYER_2
 10
-13.3775
 20
214.3603
 42
0.06413161868
  0
VERTEX
  8
LAYER_2
 10
-12.386
 20
214.2463
 42
0.07683816196
  0
VERTEX
  8
LAYER_2
 10
-11.1942
 20
214.4123
 42
0.08470040866
  0
VERTEX
  8
LAYER_2
 10
-10.383
 20
214.8416
 42
0.03763897922
  0
VERTEX
  8
LAYER_2
 10
-9.8948
 20
215.2768
  0
VERTEX
  8
LAYER_2
 10
-10.8887
 20
216.2442
 42
-0.1072414833
  0
VERTEX
  8
LAYER_2
 10
-11.6397
 20
215.7366
 42
-0.09138316631
  0
VERTEX
  8
LAYER_2
 10
-12.3732
 20
215.6285
 42
-0.1206713536
  0
VERTEX
  8
LAYER_2
 10
-13.1336
 20
215.8026
 42
-0.1907051017
  0
VERTEX
  8
LAYER_2
 10
-13.7142
 20
216.4979
 42
-0.08636520349
  0
VERTEX
  8
LAYER_2
 10
-13.8074
 20
217.0861
  0
SEQEND
  0
POLYLINE
  8
LAYER_2
 40
0.05
 41
0.05
 66
1
 10
0
 20
0
 30
0
 70
1
  0
VERTEX
  8
LAYER_2
 10
-16.9018
 20
223.2773
  0
VERTEX
  8
LAYER_2
 10
-18.5517
 20
223.2773
  0
VERTEX
  8
LAYER_2
 10
-18.5517
 20
221.9454
  0
VERTEX
  8
LAYER_2
 10
-16.9018
 20
221.9454
  0
SEQEND
  0
POLYLINE
  8
LAYER_2
 40
0.05
 41
0.05
 66
1
 10
0
 20
0
 30
0
 70
1
  0
VERTEX
  8
LAYER_2
 10
-16.9146
 20
220.79
  0
VERTEX
  8
LAYER_2
 10
-18.5499
 20
220.79
  0
VERTEX
  8
LAYER_2
 10
-18.5499
 20
214.3218
  0
VERTEX
  8
LAYER_2
 10
-16.9146
 20
214.3218
  0
SEQEND
  0
POLYLINE
  8
LAYER_2
 40
0.05
 41
0.05
 66
1
 10
0
 20
0
 30
0
  0
VERTEX
  8
LAYER_2
 10
-19.8205
 20
215.1386
  0
VERTEX
  8
LAYER_2
 10
-20.9274
 20
216.2317
 42
-0.1240518821
  0
VERTEX
  8
LAYER_2
 10
-21.5761
 20
215.7751
 42
-0.08031715103
  0
VERTEX
  8
LAYER_2
 10
-21.984
 20
215.7164
 42
-0.1386946894
  0
VERTEX
  8
LAYER_2
 10
-22.625
 20
215.8856
 42
-0.08219094685
  0
VERTEX
  8
LAYER_2
 10
-22.9149
 20
216.1436
 42
-0.1253393202
  0
VERTEX
  8
LAYER_2
 10
-23.215
 20
216.8347
 42
-0.05211869655
  0
VERTEX
  8
LAYER_2
 10
-23.2797
 20
217.6012
 42
-0.0435450793
  0
VERTEX
  8
LAYER_2
 10
-23.2306
 20
218.2793
 42
-0.1072750387
  0
VERTEX
  8
LAYER_2
 10
-22.9604
 20
218.9857
 42
-0.01439054395
  0
VERTEX
  8
LAYER_2
 10
-22.9149
 20
219.0461
 42
-0.143087315
  0
VERTEX
  8
LAYER_2
 10
-22.387
 20
219.4143
 42
-0.07946465155
  0
VERTEX
  8
LAYER_2
 10
-21.984
 20
219.4732
 42
-0.1421084185
  0
VERTEX
  8
LAYER_2
 10
-21.3214
 20
219.2962
 42
-0.06975828358
  0
VERTEX
  8
LAYER_2
 10
-20.9274
 20
218.9585
  0
VERTEX
  8
LAYER_2
 10
-19.8205
 20
220.0637
 42
0.08882909472
  0
VERTEX
  8
LAYER_2
 10
-20.632
 20
220.6645
 42
0.08605806955
  0
VERTEX
  8
LAYER_2
 10
-21.5364
 20
220.9189
 42
0.02865290108
  0
VERTEX
  8
LAYER_2
 10
-21.984
 20
220.9436
 42
0.0806713287
  0
VERTEX
  8
LAYER_2
 10
-23.0569
 20
220.7735
 42
0.08357777431
  0
VERTEX
  8
LAYER_2
 10
-23.8317
 20
220.3573
 42
0.09024198391
  0
VERTEX
  8
LAYER_2
 10
-24.4186
 20
219.692
 42
0.07835989587
  0
VERTEX
  8
LAYER_2
 10
-24.7811
 20
218.801
 42
0.06322906838
  0
VERTEX
  8
LAYER_2
 10
-24.9151
 20
217.6012
 42
0.06782437491
  0
VERTEX
  8
LAYER_2
 10
-24.7438
 20
216.2613
 42
0.08255528881
  0
VERTEX
  8
LAYER_2
 10
-24.3104
 20
215.3428
 42
0.176800775
  0
VERTEX
  8
LAYER_2
 10
-22.8675
 20
214.3603
 42
0.06692285682
  0
VERTEX
  8
LAYER_2
 10
-21.984
 20
214.2463
 42
0.08462179993
  0
VERTEX
  8
LAYER_2
 10
-20.8976
 20
214.4204
 42
0.08609104881
  0
VERTEX
  8
LAYER_2
 10
-20.1139
 20
214.8669
 42
0.03054496576
  0
VERTEX
  8
LAYER_2
 10
-19.8205
 20
215.1386
  0
SEQEND
  0
ENDBLK
  0
BLOCK
  8
LAYER_2
  2
AIGNBL02020005
 70
64
 10
0
 20
0
 30
0
  3
AIGNBL02020005
  0
POLYLINE
  8
LAYER_2
 40
0.05
 41
0.05
 66
1
 10
0
 20
0
 30
0
 70
1
  0
VERTEX
  8
LAYER_2
 10
0.3288
 20
212.6805
  0
VERTEX
  8
LAYER_2
 10
0.0009
 20
212.6805
  0
VERTEX
  8
LAYER_2
 10
-0.2479
 20
211.9109
  0
VERTEX
  8
LAYER_2
 10
-0.5066
 20
212.6805
  0
VERTEX
  8
LAYER_2
 10
-0.8342
 20
212.6805
  0
VERTEX
  8
LAYER_2
 10
-0.4084
 20
211.5234
  0
VERTEX
  8
LAYER_2
 10
-0.4611
 20
211.3704
 42
-0.3961336399
  0
VERTEX
  8
LAYER_2
 10
-0.6165
 20
211.2581
  0
VERTEX
  8
LAYER_2
 10
-0.6882
 20
211.2581
  0
VERTEX
  8
LAYER_2
 10
-0.6882
 20
210.9783
  0
VERTEX
  8
LAYER_2
 10
-0.5662
 20
210.9783
 42
0.2034440672
  0
VERTEX
  8
LAYER_2
 10
-0.2985
 20
211.0741
 42
0.1004639661
  0
VERTEX
  8
LAYER_2
 10
-0.2048
 20
211.2343
  0
SEQEND
  0
POLYLINE
  8
LAYER_2
 40
0.05
 41
0.05
 66
1
 10
0
 20
0
 30
0
 70
1
  0
VERTEX
  8
LAYER_2
 10
-0.8704
 20
211.4352
  0
VERTEX
  8
LAYER_2
 10
-0.8704
 20
211.6977
  0
VERTEX
  8
LAYER_2
 10
-0.9899
 20
211.6977
 42
-0.4751531158
  0
VERTEX
  8
LAYER_2
 10
-1.0998
 20
211.8103
  0
VERTEX
  8
LAYER_2
 10
-1.0998
 20
213.137
  0
VERTEX
  8
LAYER_2
 10
-1.4109
 20
213.137
  0
VERTEX
  8
LAYER_2
 10
-1.4109
 20
211.7914
 42
0.2572712742
  0
VERTEX
  8
LAYER_2
 10
-1.2491
 20
211.4844
 42
0.1351549622
  0
VERTEX
  8
LAYER_2
 10
-1.0475
 20
211.4352
  0
SEQEND
  0
POLYLINE
  8
LAYER_2
 40
0.05
 41
0.05
 66
1
 10
0
 20
0
 30
0
 70
1
  0
VERTEX
  8
LAYER_2
 10
-1.9739
 20
211.894
 42
-0.2469446344
  0
VERTEX
  8
LAYER_2
 10
-2.0214
 20
211.7363
 42
-0.2123665607
  0
VERTEX
  8
LAYER_2
 10
-2.2057
 20
211.6763
 42
-0.2053009356
  0
VERTEX
  8
LAYER_2
 10
-2.3584
 20
211.723
 42
-0.206083917
  0
VERTEX
  8
LAYER_2
 10
-2.3949
 20
211.8175
 42
-0.4725867343
  0
VERTEX
  8
LAYER_2
 10
-2.2105
 20
211.9609
  0
VERTEX
  8
LAYER_2
 10
-1.9739
 20
211.9609
  0
SEQEND
  0
POLYLINE
  8
LAYER_2
 40
0.05
 41
0.05
 66
1
 10
0
 20
0
 30
0
 70
1
  0
VERTEX
  8
LAYER_2
 10
-1.6624
 20
211.4352
  0
VERTEX
  8
LAYER_2
 10
-1.6624
 20
212.2551
 42
0.2451162416
  0
VERTEX
  8
LAYER_2
 10
-1.8225
 20
212.6039
 42
0.1630344424
  0
VERTEX
  8
LAYER_2
 10
-2.194
 20
212.6947
 42
0.223003002
  0
VERTEX
  8
LAYER_2
 10
-2.6298
 20
212.5302
 42
0.006267388191
  0
VERTEX
  8
LAYER_2
 10
-2.6412
 20
212.5179
  0
VERTEX
  8
LAYER_2
 10
-2.4452
 20
212.3243
 42
-0.2474228759
  0
VERTEX
  8
LAYER_2
 10
-2.2057
 20
212.4322
 42
-0.1875116517
  0
VERTEX
  8
LAYER_2
 10
-2.0297
 20
212.3865
 42
-0.2385471677
  0
VERTEX
  8
LAYER_2
 10
-1.9739
 20
212.2358
  0
VERTEX
  8
LAYER_2
 10
-1.9739
 20
212.1738
  0
VERTEX
  8
LAYER_2
 10
-2.2633
 20
212.1738
 42
0.2343493414
  0
VERTEX
  8
LAYER_2
 10
-2.6354
 20
212.0142
 42
0.1534284984
  0
VERTEX
  8
LAYER_2
 10
-2.6942
 20
211.8127
 42
0.1895201048
  0
VERTEX
  8
LAYER_2
 10
-2.5912
 20
211.533
 42
0.2074502918
  0
VERTEX
  8
LAYER_2
 10
-2.2729
 20
211.4228
 42
0.2214267061
  0
VERTEX
  8
LAYER_2
 10
-1.9663
 20
211.5426
  0
VERTEX
  8
LAYER_2
 10
-1.9663
 20
211.4352
  0
SEQEND
  0
POLYLINE
  8
LAYER_2
 40
0.05
 41
0.05
 66
1
 10
0
 20
0
 30
0
 70
1
  0
VERTEX
  8
LAYER_2
 10
-2.8758
 20
211.4352
  0
VERTEX
  8
LAYER_2
 10
-2.8758
 20
211.6977
  0
VERTEX
  8
LAYER_2
 10
-2.9884
 20
211.6977
 42
-0.4616084329
  0
VERTEX
  8
LAYER_2
 10
-3.0963
 20
211.8103
  0
VERTEX
  8
LAYER_2
 10
-3.0963
 20
212.4081
  0
VERTEX
  8
LAYER_2
 10
-2.8758
 20
212.4081
  0
VERTEX
  8
LAYER_2
 10
-2.8758
 20
212.6444
  0
VERTEX
  8
LAYER_2
 10
-3.0963
 20
212.6444
  0
VERTEX
  8
LAYER_2
 10
-3.0963
 20
213.0126
  0
VERTEX
  8
LAYER_2
 10
-3.407
 20
213.0126
  0
VERTEX
  8
LAYER_2
 10
-3.407
 20
212.6444
  0
VERTEX
  8
LAYER_2
 10
-3.539
 20
212.6444
  0
VERTEX
  8
LAYER_2
 10
-3.539
 20
212.4081
  0
VERTEX
  8
LAYER_2
 10
-3.407
 20
212.4081
  0
VERTEX
  8
LAYER_2
 10
-3.407
 20
211.7914
 42
0.2563568817
  0
VERTEX
  8
LAYER_2
 10
-3.2458
 20
211.4844
 42
0.1357760723
  0
VERTEX
  8
LAYER_2
 10
-3.0456
 20
211.4352
  0
SEQEND
  0
POLYLINE
  8
LAYER_2
 40
0.05
 41
0.05
 66
1
 10
0
 20
0
 30
0
 70
1
  0
VERTEX
  8
LAYER_2
 10
-3.8091
 20
213.137
  0
VERTEX
  8
LAYER_2
 10
-4.1419
 20
213.137
  0
VERTEX
  8
LAYER_2
 10
-4.1419
 20
211.4352
  0
VERTEX
  8
LAYER_2
 10
-3.8091
 20
211.4352
  0
SEQEND
  0
POLYLINE
  8
LAYER_2
 40
0.05
 41
0.05
 66
1
 10
0
 20
0
 30
0
 70
1
  0
VERTEX
  8
LAYER_2
 10
-5.0562
 20
211.4352
  0
VERTEX
  8
LAYER_2
 10
-5.0562
 20
212.231
 42
0.2072987281
  0
VERTEX
  8
LAYER_2
 10
-5.183
 20
212.5844
 42
0.2031043538
  0
VERTEX
  8
LAYER_2
 10
-5.4775
 20
212.6947
 42
0.201378382
  0
VERTEX
  8
LAYER_2
 10
-5.7886
 20
212.5658
  0
VERTEX
  8
LAYER_2
 10
-5.7886
 20
212.6805
  0
VERTEX
  8
LAYER_2
 10
-6.0925
 20
212.6805
  0
VERTEX
  8
LAYER_2
 10
-6.0925
 20
211.4352
  0
VERTEX
  8
LAYER_2
 10
-5.7814
 20
211.4352
  0
VERTEX
  8
LAYER_2
 10
-5.7814
 20
212.1882
 42
-0.4179312156
  0
VERTEX
  8
LAYER_2
 10
-5.573
 20
212.4149
 42
-0.4343639015
  0
VERTEX
  8
LAYER_2
 10
-5.3673
 20
212.1882
  0
VERTEX
  8
LAYER_2
 10
-5.3673
 20
211.4352
  0
SEQEND
  0
POLYLINE
  8
LAYER_2
 40
0.05
 41
0.05
 66
1
 10
0
 20
0
 30
0
 70
1
  0
VERTEX
  8
LAYER_2
 10
-6.437
 20
213.1467
  0
VERTEX
  8
LAYER_2
 10
-6.7553
 20
213.1467
  0
VERTEX
  8
LAYER_2
 10
-6.7553
 20
212.8931
  0
VERTEX
  8
LAYER_2
 10
-6.437
 20
212.8931
  0
SEQEND
  0
POLYLINE
  8
LAYER_2
 40
0.05
 41
0.05
 66
1
 10
0
 20
0
 30
0
 70
1
  0
VERTEX
  8
LAYER_2
 10
-6.4394
 20
212.6444
  0
VERTEX
  8
LAYER_2
 10
-6.7508
 20
212.6444
  0
VERTEX
  8
LAYER_2
 10
-6.7508
 20
211.4352
  0
VERTEX
  8
LAYER_2
 10
-6.4394
 20
211.4352
  0
SEQEND
  0
POLYLINE
  8
LAYER_2
 40
0.05
 41
0.05
 66
1
 10
0
 20
0
 30
0
  0
VERTEX
  8
LAYER_2
 10
-7.8994
 20
212.1738
  0
VERTEX
  8
LAYER_2
 10
-8.3735
 20
212.1738
 42
-0.1150247832
  0
VERTEX
  8
LAYER_2
 10
-8.3445
 20
212.3074
 42
-0.3021002553
  0
VERTEX
  8
LAYER_2
 10
-8.1365
 20
212.4363
 42
-0.2972451875
  0
VERTEX
  8
LAYER_2
 10
-7.9284
 20
212.3074
 42
-0.09898717384
  0
VERTEX
  8
LAYER_2
 10
-7.8994
 20
212.1738
  0
SEQEND
  0
POLYLINE
  8
LAYER_2
 40
0.05
 41
0.05
 66
1
 10
0
 20
0
 30
0
 70
1
  0
VERTEX
  8
LAYER_2
 10
-7.5932
 20
211.9609
  0
VERTEX
  8
LAYER_2
 10
-7.5932
 20
212.0925
 42
0.1892091988
  0
VERTEX
  8
LAYER_2
 10
-7.7571
 20
212.5503
 42
0.2074689034
  0
VERTEX
  8
LAYER_2
 10
-8.1365
 20
212.6947
 42
0.212635805
  0
VERTEX
  8
LAYER_2
 10
-8.5293
 20
212.5292
 42
0.1815550622
  0
VERTEX
  8
LAYER_2
 10
-8.6787
 20
212.1059
 42
0.01190200981
  0
VERTEX
  8
LAYER_2
 10
-8.6797
 20
212.0591
 42
0.1802893809
  0
VERTEX
  8
LAYER_2
 10
-8.5263
 20
211.5744
 42
0.2020162133
  0
VERTEX
  8
LAYER_2
 10
-8.158
 20
211.4223
 42
0.01695408336
  0
VERTEX
  8
LAYER_2
 10
-8.103
 20
211.4207
 42
0.2069028033
  0
VERTEX
  8
LAYER_2
 10
-7.6557
 20
211.5904
 42
0.01111068861
  0
VERTEX
  8
LAYER_2
 10
-7.629
 20
211.6167
  0
VERTEX
  8
LAYER_2
 10
-7.8181
 20
211.801
 42
-0.224324849
  0
VERTEX
  8
LAYER_2
 10
-8.1003
 20
211.6839
 42
-0.4264622019
  0
VERTEX
  8
LAYER_2
 10
-8.3735
 20
211.9609
  0
SEQEND
  0
POLYLINE
  8
LAYER_2
 40
0.05
 41
0.05
 66
1
 10
0
 20
0
 30
0
  0
VERTEX
  8
LAYER_2
 10
-9.2778
 20
212.0591
 42
-0.1438386142
  0
VERTEX
  8
LAYER_2
 10
-9.3235
 20
211.7869
 42
-0.2886460427
  0
VERTEX
  8
LAYER_2
 10
-9.4911
 20
211.7004
 42
-0.3841580528
  0
VERTEX
  8
LAYER_2
 10
-9.6851
 20
211.8609
 42
-0.05455021257
  0
VERTEX
  8
LAYER_2
 10
-9.7016
 20
212.0591
 42
-0.1483049254
  0
VERTEX
  8
LAYER_2
 10
-9.6559
 20
212.3323
 42
-0.2855556046
  0
VERTEX
  8
LAYER_2
 10
-9.4911
 20
212.4149
 42
-0.3794480357
  0
VERTEX
  8
LAYER_2
 10
-9.2951
 20
212.2564
 42
-0.05697683845
  0
VERTEX
  8
LAYER_2
 10
-9.2778
 20
212.0591
  0
SEQEND
  0
POLYLINE
  8
LAYER_2
 40
0.05
 41
0.05
 66
1
 10
0
 20
0
 30
0
 70
1
  0
VERTEX
  8
LAYER_2
 10
-8.9667
 20
211.4352
  0
VERTEX
  8
LAYER_2
 10
-8.9667
 20
213.137
  0
VERTEX
  8
LAYER_2
 10
-9.2778
 20
213.137
  0
VERTEX
  8
LAYER_2
 10
-9.2778
 20
212.5707
 42
0.2297998422
  0
VERTEX
  8
LAYER_2
 10
-9.582
 20
212.6947
 42
0.1954770263
  0
VERTEX
  8
LAYER_2
 10
-9.8835
 20
212.5824
 42
0.1230294745
  0
VERTEX
  8
LAYER_2
 10
-9.9795
 20
212.4101
 42
0.0747779445
  0
VERTEX
  8
LAYER_2
 10
-10.013
 20
212.0591
 42
0.0994726102
  0
VERTEX
  8
LAYER_2
 10
-9.9681
 20
211.6704
 42
0.1089535567
  0
VERTEX
  8
LAYER_2
 10
-9.8835
 20
211.533
 42
0.2047870903
  0
VERTEX
  8
LAYER_2
 10
-9.5796
 20
211.4207
 42
0.2301632332
  0
VERTEX
  8
LAYER_2
 10
-9.2709
 20
211.5523
  0
VERTEX
  8
LAYER_2
 10
-9.2709
 20
211.4352
  0
SEQEND
  0
POLYLINE
  8
LAYER_2
 40
0.05
 41
0.05
 66
1
 10
0
 20
0
 30
0
 70
1
  0
VERTEX
  8
LAYER_2
 10
-10.6062
 20
211.894
 42
-0.2466163696
  0
VERTEX
  8
LAYER_2
 10
-10.6541
 20
211.7363
 42
-0.212724989
  0
VERTEX
  8
LAYER_2
 10
-10.8384
 20
211.6763
 42
-0.2058776096
  0
VERTEX
  8
LAYER_2
 10
-10.9909
 20
211.723
 42
-0.205582218
  0
VERTEX
  8
LAYER_2
 10
-11.0272
 20
211.8175
 42
-0.4728058788
  0
VERTEX
  8
LAYER_2
 10
-10.8433
 20
211.9609
  0
VERTEX
  8
LAYER_2
 10
-10.6062
 20
211.9609
  0
SEQEND
  0
POLYLINE
  8
LAYER_2
 40
0.05
 41
0.05
 66
1
 10
0
 20
0
 30
0
 70
1
  0
VERTEX
  8
LAYER_2
 10
-10.2951
 20
211.4352
  0
VERTEX
  8
LAYER_2
 10
-10.2951
 20
212.2551
 42
0.2450199827
  0
VERTEX
  8
LAYER_2
 10
-10.455
 20
212.6039
 42
0.1631220144
  0
VERTEX
  8
LAYER_2
 10
-10.8267
 20
212.6947
 42
0.223003002
  0
VERTEX
  8
LAYER_2
 10
-11.2625
 20
212.5302
 42
0.006267388191
  0
VERTEX
  8
LAYER_2
 10
-11.2739
 20
212.5179
  0
VERTEX
  8
LAYER_2
 10
-11.0779
 20
212.3243
 42
-0.2470834876
  0
VERTEX
  8
LAYER_2
 10
-10.8384
 20
212.4322
 42
-0.1872740545
  0
VERTEX
  8
LAYER_2
 10
-10.6621
 20
212.3865
 42
-0.238797369
  0
VERTEX
  8
LAYER_2
 10
-10.6062
 20
212.2358
  0
VERTEX
  8
LAYER_2
 10
-10.6062
 20
212.1738
  0
VERTEX
  8
LAYER_2
 10
-10.896
 20
212.1738
 42
0.2346153399
  0
VERTEX
  8
LAYER_2
 10
-11.268
 20
212.0142
 42
0.1531846975
  0
VERTEX
  8
LAYER_2
 10
-11.3266
 20
211.8127
 42
0.1894880782
  0
VERTEX
  8
LAYER_2
 10
-11.2239
 20
211.533
 42
0.2078362131
  0
VERTEX
  8
LAYER_2
 10
-10.9053
 20
211.4228
 42
0.2218282602
  0
VERTEX
  8
LAYER_2
 10
-10.599
 20
211.5426
  0
VERTEX
  8
LAYER_2
 10
-10.599
 20
211.4352
  0
SEQEND
  0
POLYLINE
  8
LAYER_2
 40
0.05
 41
0.05
 66
1
 10
0
 20
0
 30
0
 70
1
  0
VERTEX
  8
LAYER_2
 10
-11.5733
 20
211.4352
  0
VERTEX
  8
LAYER_2
 10
-11.5733
 20
212.231
 42
0.205542241
  0
VERTEX
  8
LAYER_2
 10
-11.7097
 20
212.5844
 42
0.1987814349
  0
VERTEX
  8
LAYER_2
 10
-12.016
 20
212.6947
 42
0.2182066523
  0
VERTEX
  8
LAYER_2
 10
-12.3894
 20
212.5369
 42
0.2492914965
  0
VERTEX
  8
LAYER_2
 10
-12.7198
 20
212.6947
 42
0.1963594215
  0
VERTEX
  8
LAYER_2
 10
-13.0309
 20
212.5658
  0
VERTEX
  8
LAYER_2
 10
-13.0309
 20
212.6805
  0
VERTEX
  8
LAYER_2
 10
-13.3348
 20
212.6805
  0
VERTEX
  8
LAYER_2
 10
-13.3348
 20
211.4352
  0
VERTEX
  8
LAYER_2
 10
-13.0233
 20
211.4352
  0
VERTEX
  8
LAYER_2
 10
-13.0233
 20
212.1882
 42
-0.4178253314
  0
VERTEX
  8
LAYER_2
 10
-12.8153
 20
212.4149
 42
-0.4343639015
  0
VERTEX
  8
LAYER_2
 10
-12.6096
 20
212.1882
  0
VERTEX
  8
LAYER_2
 10
-12.6096
 20
211.4352
  0
VERTEX
  8
LAYER_2
 10
-12.2985
 20
211.4352
  0
VERTEX
  8
LAYER_2
 10
-12.2985
 20
212.1951
 42
-0.4176164983
  0
VERTEX
  8
LAYER_2
 10
-12.0904
 20
212.4149
 42
-0.434797635
  0
VERTEX
  8
LAYER_2
 10
-11.8844
 20
212.1882
  0
VERTEX
  8
LAYER_2
 10
-11.8844
 20
211.4352
  0
SEQEND
  0
POLYLINE
  8
LAYER_2
 40
0.05
 41
0.05
 66
1
 10
0
 20
0
 30
0
  0
VERTEX
  8
LAYER_2
 10
-13.8973
 20
212.0229
 42
-0.1159462989
  0
VERTEX
  8
LAYER_2
 10
-13.9445
 20
211.7201
 42
-0.3129536504
  0
VERTEX
  8
LAYER_2
 10
-14.1915
 20
211.5736
 42
-0.314965659
  0
VERTEX
  8
LAYER_2
 10
-14.446
 20
211.7323
 42
-0.1053090454
  0
VERTEX
  8
LAYER_2
 10
-14.4882
 20
212.0229
 42
-0.113954245
  0
VERTEX
  8
LAYER_2
 10
-14.4424
 20
212.3219
 42
-0.3163619605
  0
VERTEX
  8
LAYER_2
 10
-14.1915
 20
212.4725
 42
-0.3164516036
  0
VERTEX
  8
LAYER_2
 10
-13.9392
 20
212.3138
 42
-0.103439187
  0
VERTEX
  8
LAYER_2
 10
-13.8973
 20
212.0229
  0
SEQEND
  0
POLYLINE
  8
LAYER_2
 40
0.05
 41
0.05
 66
1
 10
0
 20
0
 30
0
 70
1
  0
VERTEX
  8
LAYER_2
 10
-13.7247
 20
211.4352
  0
VERTEX
  8
LAYER_2
 10
-13.7247
 20
213.137
  0
VERTEX
  8
LAYER_2
 10
-13.8973
 20
213.137
  0
VERTEX
  8
LAYER_2
 10
-13.8973
 20
212.4749
 42
0.2525818121
  0
VERTEX
  8
LAYER_2
 10
-14.2298
 20
212.6258
 42
0.1886393528
  0
VERTEX
  8
LAYER_2
 10
-14.5171
 20
212.5224
 42
0.1172978386
  0
VERTEX
  8
LAYER_2
 10
-14.6205
 20
212.3434
 42
0.07876818405
  0
VERTEX
  8
LAYER_2
 10
-14.6608
 20
212.0229
 42
0.09207329595
  0
VERTEX
  8
LAYER_2
 10
-14.6127
 20
211.6805
 42
0.1077667615
  0
VERTEX
  8
LAYER_2
 10
-14.5171
 20
211.5234
 42
0.198210181
  0
VERTEX
  8
LAYER_2
 10
-14.2298
 20
211.4207
 42
0.2515984765
  0
VERTEX
  8
LAYER_2
 10
-13.8949
 20
211.5761
  0
VERTEX
  8
LAYER_2
 10
-13.8949
 20
211.4352
  0
SEQEND
  0
POLYLINE
  8
LAYER_2
 40
0.05
 41
0.05
 66
1
 10
0
 20
0
 30
0
 70
1
  0
VERTEX
  8
LAYER_2
 10
-15.0173
 20
211.4352
  0
VERTEX
  8
LAYER_2
 10
-15.0173
 20
212.1882
 42
0.2025955741
  0
VERTEX
  8
LAYER_2
 10
-15.1393
 20
212.5156
 42
0.2044555257
  0
VERTEX
  8
LAYER_2
 10
-15.4411
 20
212.6258
 42
0.2165707378
  0
VERTEX
  8
LAYER_2
 10
-15.7711
 20
212.4818
  0
VERTEX
  8
LAYER_2
 10
-15.7711
 20
212.6113
  0
VERTEX
  8
LAYER_2
 10
-15.9434
 20
212.6113
  0
VERTEX
  8
LAYER_2
 10
-15.9434
 20
211.4352
  0
VERTEX
  8
LAYER_2
 10
-15.7711
 20
211.4352
  0
VERTEX
  8
LAYER_2
 10
-15.7711
 20
212.1593
 42
-0.2837547598
  0
VERTEX
  8
LAYER_2
 10
-15.6189
 20
212.4442
 42
-0.1086336204
  0
VERTEX
  8
LAYER_2
 10
-15.479
 20
212.4725
 42
-0.442304779
  0
VERTEX
  8
LAYER_2
 10
-15.1896
 20
212.1593
  0
VERTEX
  8
LAYER_2
 10
-15.1896
 20
211.4352
  0
SEQEND
  0
POLYLINE
  8
LAYER_2
 40
0.05
 41
0.05
 66
1
 10
0
 20
0
 30
0
 70
1
  0
VERTEX
  8
LAYER_2
 10
-16.5346
 20
211.8506
 42
-0.2101171453
  0
VERTEX
  8
LAYER_2
 10
-16.5945
 20
211.6477
 42
-0.2061049303
  0
VERTEX
  8
LAYER_2
 10
-16.8553
 20
211.5688
 42
-0.162375608
  0
VERTEX
  8
LAYER_2
 10
-17.0584
 20
211.6151
 42
-0.2625865829
  0
VERTEX
  8
LAYER_2
 10
-17.1281
 20
211.77
 42
-0.3766203625
  0
VERTEX
  8
LAYER_2
 10
-16.9692
 20
211.9668
 42
-0.05119198821
  0
VERTEX
  8
LAYER_2
 10
-16.8625
 20
211.9774
  0
VERTEX
  8
LAYER_2
 10
-16.5346
 20
211.9774
  0
SEQEND
  0
POLYLINE
  8
LAYER_2
 40
0.05
 41
0.05
 66
1
 10
0
 20
0
 30
0
 70
1
  0
VERTEX
  8
LAYER_2
 10
-16.362
 20
211.4352
  0
VERTEX
  8
LAYER_2
 10
-16.362
 20
212.233
 42
0.2623610217
  0
VERTEX
  8
LAYER_2
 10
-16.5224
 20
212.5561
 42
0.1450933816
  0
VERTEX
  8
LAYER_2
 10
-16.8336
 20
212.6258
 42
0.2362276322
  0
VERTEX
  8
LAYER_2
 10
-17.2355
 20
212.4672
 42
0.01170794038
  0
VERTEX
  8
LAYER_2
 10
-17.2501
 20
212.4487
  0
VERTEX
  8
LAYER_2
 10
-17.133
 20
212.3409
 42
-0.2755800686
  0
VERTEX
  8
LAYER_2
 10
-16.8364
 20
212.4776
 42
-0.1517468402
  0
VERTEX
  8
LAYER_2
 10
-16.6283
 20
212.4308
 42
-0.2800643637
  0
VERTEX
  8
LAYER_2
 10
-16.5346
 20
212.2193
  0
VERTEX
  8
LAYER_2
 10
-16.5346
 20
212.1066
  0
VERTEX
  8
LAYER_2
 10
-16.8863
 20
212.1066
 42
0.2378691362
  0
VERTEX
  8
LAYER_2
 10
-17.2451
 20
211.9523
 42
0.1477379502
  0
VERTEX
  8
LAYER_2
 10
-17.2956
 20
211.7673
 42
0.1983884986
  0
VERTEX
  8
LAYER_2
 10
-17.2071
 20
211.5282
 42
0.2222408302
  0
VERTEX
  8
LAYER_2
 10
-16.8742
 20
211.4207
 42
0.21971579
  0
VERTEX
  8
LAYER_2
 10
-16.5346
 20
211.5471
  0
VERTEX
  8
LAYER_2
 10
-16.5346
 20
211.4352
  0
SEQEND
  0
POLYLINE
  8
LAYER_2
 40
0.05
 41
0.05
 66
1
 10
0
 20
0
 30
0
 70
1
  0
VERTEX
  8
LAYER_2
 10
-17.6211
 20
211.4352
  0
VERTEX
  8
LAYER_2
 10
-17.6211
 20
212.1903
 42
0.2366048602
  0
VERTEX
  8
LAYER_2
 10
-17.7848
 20
212.5524
 42
0.1585996094
  0
VERTEX
  8
LAYER_2
 10
-18.0449
 20
212.6258
 42
0.2174282511
  0
VERTEX
  8
LAYER_2
 10
-18.3749
 20
212.4818
  0
VERTEX
  8
LAYER_2
 10
-18.3749
 20
213.137
  0
VERTEX
  8
LAYER_2
 10
-18.5475
 20
213.137
  0
VERTEX
  8
LAYER_2
 10
-18.5475
 20
211.4352
  0
VERTEX
  8
LAYER_2
 10
-18.3749
 20
211.4352
  0
VERTEX
  8
LAYER_2
 10
-18.3749
 20
212.1617
 42
-0.2889308341
  0
VERTEX
  8
LAYER_2
 10
-18.2221
 20
212.4453
 42
-0.1047577161
  0
VERTEX
  8
LAYER_2
 10
-18.0807
 20
212.4725
 42
-0.4463558923
  0
VERTEX
  8
LAYER_2
 10
-17.7934
 20
212.1617
  0
VERTEX
  8
LAYER_2
 10
-17.7934
 20
211.4352
  0
SEQEND
  0
ENDBLK
  0
BLOCK
  8
LAYER_2
  2
AIGNBL02020007
 70
64
 10
0
 20
0
 30
0
  3
AIGNBL02020007
  0
INSERT
  8
LAYER_2
  2
AIGNBL02030008
 10
0
 20
0
 30
0
  0
ENDBLK
  0
BLOCK
  8
LAYER_2
  2
AIGNBL02020010
 70
64
 10
0
 20
0
 30
0
  3
AIGNBL02020010
  0
INSERT
  8
LAYER_2
  2
AIGNBL02030011
 10
0
 20
0
 30
0
  0
INSERT
  8
LAYER_2
  2
AIGNBL02030012
 10
0
 20
0
 30
0
  0
INSERT
  8
LAYER_2
  2
AIGNBL02030013
 10
0
 20
0
 30
0
  0
INSERT
  8
LAYER_2
  2
AIGNBL02030014
 10
0
 20
0
 30
0
  0
INSERT
  8
LAYER_2
  2
AIGNBL02030015
 10
0
 20
0
 30
0
  0
INSERT
  8
LAYER_2
  2
AIGNBL02030016
 10
0
 20
0
 30
0
  0
INSERT
  8
LAYER_2
  2
AIGNBL02030017
 10
0
 20
0
 30
0
  0
INSERT
  8
LAYER_2
  2
AIGNBL02030018
 10
0
 20
0
 30
0
  0
INSERT
  8
LAYER_2
  2
AIGNBL02030019
 10
0
 20
0
 30
0
  0
INSERT
  8
LAYER_2
  2
AIGNBL0203001A
 10
0
 20
0
 30
0
  0
INSERT
  8
LAYER_2
  2
AIGNBL0203001B
 10
0
 20
0
 30
0
  0
INSERT
  8
LAYER_2
  2
AIGNBL0203001C
 10
0
 20
0
 30
0
  0
INSERT
  8
LAYER_2
  2
AIGNBL0203001D
 10
0
 20
0
 30
0
  0
INSERT
  8
LAYER_2
  2
AIGNBL0203001E
 10
0
 20
0
 30
0
  0
INSERT
  8
LAYER_2
  2
AIGNBL0203001F
 10
0
 20
0
 30
0
  0
INSERT
  8
LAYER_2
  2
AIGNBL02030020
 10
0
 20
0
 30
0
  0
INSERT
  8
LAYER_2
  2
AIGNBL02030021
 10
0
 20
0
 30
0
  0
INSERT
  8
LAYER_2
  2
AIGNBL02030022
 10
0
 20
0
 30
0
  0
INSERT
  8
LAYER_2
  2
AIGNBL02030023
 10
0
 20
0
 30
0
  0
INSERT
  8
LAYER_2
  2
AIGNBL02030024
 10
0
 20
0
 30
0
  0
INSERT
  8
LAYER_2
  2
AIGNBL02030025
 10
0
 20
0
 30
0
  0
INSERT
  8
LAYER_2
  2
AIGNBL02030026
 10
0
 20
0
 30
0
  0
INSERT
  8
LAYER_2
  2
AIGNBL02030027
 10
0
 20
0
 30
0
  0
ENDBLK
  0
BLOCK
  8
LAYER_1
  2
AIGNBL01010002
 70
64
 10
0
 20
0
 30
0
  3
AIGNBL01010002
  0
TEXT
  8
LAYER_1
 10
155.8213
 20
186.0903
 11
155.8213
 21
186.0903
 40
2.5175
 41
0.5
  1
カウンター開口寸法：150×300
  0
ENDBLK
  0
BLOCK
  8
LAYER_1
  2
AIGNBL01010003
 70
64
 10
0
 20
0
 30
0
  3
AIGNBL01010003
  0
CIRCLE
  8
LAYER_1
  6
AIGENLINE001
 10
42.5872
 20
94.8428
 40
1.1841
  0
POLYLINE
  8
LAYER_1
  6
AIGENLINE001
 40
0.1129
 41
0.1129
 66
1
 10
0
 20
0
 30
0
 70
128
  0
VERTEX
  8
LAYER_1
 10
58.8515
 20
88.6651
  0
VERTEX
  8
LAYER_1
 10
58.782
 20
88.5589
  0
VERTEX
  8
LAYER_1
 10
58.7582
 20
88.4404
  0
SEQEND
  0
POLYLINE
  8
LAYER_1
  6
AIGENLINE001
 40
0.1129
 41
0.1129
 66
1
 10
0
 20
0
 30
0
 70
128
  0
VERTEX
  8
LAYER_1
 10
54.2623
 20
88.5706
  0
VERTEX
  8
LAYER_1
 10
56.5102
 20
88.5706
  0
SEQEND
  0
POLYLINE
  8
LAYER_1
  6
AIGENLINE001
 40
0.1129
 41
0.1129
 66
1
 10
0
 20
0
 30
0
 70
128
  0
VERTEX
  8
LAYER_1
 10
53.3883
 20
89.4333
  0
VERTEX
  8
LAYER_1
 10
54.1686
 20
88.6651
  0
SEQEND
  0
POLYLINE
  8
LAYER_1
  6
AIGENLINE001
 40
0.1129
 41
0.1129
 66
1
 10
0
 20
0
 30
0
 70
128
  0
VERTEX
  8
LAYER_1
 10
54.2623
 20
86.4657
  0
VERTEX
  8
LAYER_1
 10
54.2623
 20
88.4404
  0
VERTEX
  8
LAYER_1
 10
54.2386
 20
88.5589
  0
VERTEX
  8
LAYER_1
 10
54.1679
 20
88.6651
  0
SEQEND
  0
POLYLINE
  8
LAYER_1
  6
AIGENLINE001
 40
0.1129
 41
0.1129
 66
1
 10
0
 20
0
 30
0
 70
128
  0
VERTEX
  8
LAYER_1
 10
58.7582
 20
88.5706
  0
VERTEX
  8
LAYER_1
 10
56.5102
 20
88.5706
  0
SEQEND
  0
POLYLINE
  8
LAYER_1
  6
AIGENLINE001
 40
0.1129
 41
0.1129
 66
1
 10
0
 20
0
 30
0
 70
128
  0
VERTEX
  8
LAYER_1
 10
59.6322
 20
89.4333
  0
VERTEX
  8
LAYER_1
 10
58.8508
 20
88.6651
  0
SEQEND
  0
POLYLINE
  8
LAYER_1
  6
AIGENLINE001
 40
0.1129
 41
0.1129
 66
1
 10
0
 20
0
 30
0
 70
128
  0
VERTEX
  8
LAYER_1
 10
58.7582
 20
88.4404
  0
VERTEX
  8
LAYER_1
 10
58.7582
 20
86.4657
  0
SEQEND
  0
ENDBLK
  0
BLOCK
  8
LAYER_1
  2
AIGNBL01010004
 70
64
 10
0
 20
0
 30
0
  3
AIGNBL01010004
  0
POLYLINE
  8
LAYER_1
  6
AIGENLINE001
 40
0.1129
 41
0.1129
 66
1
 10
0
 20
0
 30
0
 70
128
  0
VERTEX
  8
LAYER_1
 10
53.1781
 20
89.5153
  0
VERTEX
  8
LAYER_1
 10
21.9997
 20
89.5153
  0
VERTEX
  8
LAYER_1
 10
18.1322
 20
101.3981
  0
VERTEX
  8
LAYER_1
 10
18.0513
 20
101.5159
  0
VERTEX
  8
LAYER_1
 10
17.9465
 20
101.611
  0
VERTEX
  8
LAYER_1
 10
17.8177
 20
101.671
  0
VERTEX
  8
LAYER_1
 10
17.6782
 20
101.6937
  0
SEQEND
  0
POLYLINE
  8
LAYER_1
  6
AIGENLINE001
 40
0.1129
 41
0.1129
 66
1
 10
0
 20
0
 30
0
 70
128
  0
VERTEX
  8
LAYER_1
 10
59.8296
 20
89.5153
  0
VERTEX
  8
LAYER_1
 10
56.5102
 20
89.5153
  0
SEQEND
  0
POLYLINE
  8
LAYER_1
  6
AIGENLINE001
 40
0.1129
 41
0.1129
 66
1
 10
0
 20
0
 30
0
 70
128
  0
VERTEX
  8
LAYER_1
 10
95.5945
 20
101.6944
  0
VERTEX
  8
LAYER_1
 10
95.5594
 20
101.6944
 42
0.2520338679
  0
VERTEX
  8
LAYER_1
 10
94.7443
 20
101.1391
  0
VERTEX
  8
LAYER_1
 10
94.7322
 20
101.1025
  0
VERTEX
  8
LAYER_1
 10
94.767
 20
101.1742
  0
VERTEX
  8
LAYER_1
 10
90.9929
 20
89.5153
  0
VERTEX
  8
LAYER_1
 10
96.4658
 20
89.5153
  0
VERTEX
  8
LAYER_1
 10
96.0816
 20
89.5153
  0
VERTEX
  8
LAYER_1
 10
59.8417
 20
89.5153
  0
VERTEX
  8
LAYER_1
 10
59.7249
 20
89.4926
  0
VERTEX
  8
LAYER_1
 10
59.6329
 20
89.4333
  0
SEQEND
  0
ENDBLK
  0
BLOCK
  8
LAYER_1
  2
AIGNBL01010005
 70
64
 10
0
 20
0
 30
0
  3
AIGNBL01010005
  0
POLYLINE
  8
LAYER_1
  6
AIGENLINE001
 40
0.1129
 41
0.1129
 66
1
 10
0
 20
0
 30
0
 70
128
  0
VERTEX
  8
LAYER_1
 10
170.0465
 20
91.9833
  0
VERTEX
  8
LAYER_1
 10
169.8942
 20
91.9599
  0
VERTEX
  8
LAYER_1
 10
169.754
 20
91.8883
  0
VERTEX
  8
LAYER_1
 10
169.6382
 20
91.7704
  0
VERTEX
  8
LAYER_1
 10
169.5679
 20
91.6285
  0
VERTEX
  8
LAYER_1
 10
169.5445
 20
91.4749
  0
VERTEX
  8
LAYER_1
 10
169.5445
 20
80.6325
  0
VERTEX
  8
LAYER_1
 10
169.4866
 20
80.4437
 42
-0.1533764518
  0
VERTEX
  8
LAYER_1
 10
169.1009
 20
79.9718
 42
-0.08158463778
  0
VERTEX
  8
LAYER_1
 10
168.7525
 20
79.8284
  0
VERTEX
  8
LAYER_1
 10
168.5548
 20
79.8043
  0
VERTEX
  8
LAYER_1
 10
163.9263
 20
79.8043
  0
VERTEX
  8
LAYER_1
 10
163.5687
 20
79.8043
  0
VERTEX
  8
LAYER_1
 10
160.0384
 20
79.8043
  0
VERTEX
  8
LAYER_1
 10
156.4166
 20
79.8043
  0
VERTEX
  8
LAYER_1
 10
156.3047
 20
79.8043
  0
VERTEX
  8
LAYER_1
 10
144.0618
 20
79.8043
  0
VERTEX
  8
LAYER_1
 10
143.6839
 20
79.8043
  0
VERTEX
  8
LAYER_1
 10
143.4982
 20
79.8284
  0
VERTEX
  8
LAYER_1
 10
143.3118
 20
79.8759
  0
VERTEX
  8
LAYER_1
 10
143.1485
 20
79.971
  0
VERTEX
  8
LAYER_1
 10
142.997
 20
80.0888
  0
VERTEX
  8
LAYER_1
 10
142.8684
 20
80.2308
  0
VERTEX
  8
LAYER_1
 10
142.7751
 20
80.3954
  0
VERTEX
  8
LAYER_1
 10
138.1738
 20
91.6871
  0
VERTEX
  8
LAYER_1
 10
138.1042
 20
91.8049
  0
VERTEX
  8
LAYER_1
 10
137.9874
 20
91.9
  0
VERTEX
  8
LAYER_1
 10
137.8596
 20
91.9599
  0
VERTEX
  8
LAYER_1
 10
137.7191
 20
91.9833
  0
SEQEND
  0
POLYLINE
  8
LAYER_1
  6
AIGENLINE001
 40
0.1129
 41
0.1129
 66
1
 10
0
 20
0
 30
0
 70
128
  0
VERTEX
  8
LAYER_1
 10
157.8381
 20
78.8596
  0
VERTEX
  8
LAYER_1
 10
159.304
 20
78.8596
  0
VERTEX
  8
LAYER_1
 10
162.3467
 20
78.8596
  0
SEQEND
  0
POLYLINE
  8
LAYER_1
  6
AIGENLINE001
 40
0.1129
 41
0.1129
 66
1
 10
0
 20
0
 30
0
 70
128
  0
VERTEX
  8
LAYER_1
 10
156.9293
 20
79.7223
  0
VERTEX
  8
LAYER_1
 10
157.6979
 20
78.954
  0
VERTEX
  8
LAYER_1
 10
157.7685
 20
78.8479
  0
VERTEX
  8
LAYER_1
 10
157.7905
 20
78.7294
  0
VERTEX
  8
LAYER_1
 10
157.7905
 20
76.7547
  0
SEQEND
  0
POLYLINE
  8
LAYER_1
  6
AIGENLINE001
 40
0.1129
 41
0.1129
 66
1
 10
0
 20
0
 30
0
 70
128
  0
VERTEX
  8
LAYER_1
 10
163.1614
 20
79.7223
  0
VERTEX
  8
LAYER_1
 10
162.3925
 20
78.954
  0
VERTEX
  8
LAYER_1
 10
162.3226
 20
78.8479
  0
VERTEX
  8
LAYER_1
 10
162.2998
 20
78.7294
  0
VERTEX
  8
LAYER_1
 10
162.2998
 20
76.7547
  0
SEQEND
  0
ENDBLK
  0
BLOCK
  8
LAYER_1
  2
AIGNBL01010006
 70
64
 10
0
 20
0
 30
0
  3
AIGNBL01010006
  0
POLYLINE
  8
LAYER_1
 40
0.05
 41
0.05
 66
1
 10
0
 20
0
 30
0
  0
VERTEX
  8
LAYER_1
 10
172.3519
 20
157.7383
 42
-0.08061428231
  0
VERTEX
  8
LAYER_1
 10
171.6312
 20
157.8538
  0
VERTEX
  8
LAYER_1
 10
171.5751
 20
157.965
  0
VERTEX
  8
LAYER_1
 10
171.686
 20
158.0212
 42
0.07989452013
  0
VERTEX
  8
LAYER_1
 10
172.3519
 20
157.9141
  0
VERTEX
  8
LAYER_1
 10
172.4408
 20
157.8262
  0
VERTEX
  8
LAYER_1
 10
172.3519
 20
157.7383
  0
SEQEND
  0
POLYLINE
  8
LAYER_1
 40
0.05
 41
0.05
 66
1
 10
0
 20
0
 30
0
  0
VERTEX
  8
LAYER_1
 10
173.689
 20
158.1655
 42
-0.07958758472
  0
VERTEX
  8
LAYER_1
 10
173.0337
 20
157.8407
  0
VERTEX
  8
LAYER_1
 10
172.9238
 20
157.8989
  0
VERTEX
  8
LAYER_1
 10
172.982
 20
158.0095
 42
0.08021274587
  0
VERTEX
  8
LAYER_1
 10
173.5853
 20
158.3096
  0
VERTEX
  8
LAYER_1
 10
173.7086
 20
158.2889
  0
VERTEX
  8
LAYER_1
 10
173.689
 20
158.1655
  0
SEQEND
  0
POLYLINE
  8
LAYER_1
 40
0.05
 41
0.05
 66
1
 10
0
 20
0
 30
0
  0
VERTEX
  8
LAYER_1
 10
174.5464
 20
159.3252
 42
-0.07791144176
  0
VERTEX
  8
LAYER_1
 10
174.2088
 20
158.6778
  0
VERTEX
  8
LAYER_1
 10
174.0855
 20
158.6592
  0
VERTEX
  8
LAYER_1
 10
174.0669
 20
158.7826
 42
0.07836162012
  0
VERTEX
  8
LAYER_1
 10
174.379
 20
159.3813
  0
VERTEX
  8
LAYER_1
 10
174.4906
 20
159.4364
  0
VERTEX
  8
LAYER_1
 10
174.5464
 20
159.3252
  0
SEQEND
  0
POLYLINE
  8
LAYER_1
 40
0.05
 41
0.05
 66
1
 10
0
 20
0
 30
0
  0
VERTEX
  8
LAYER_1
 10
174.5661
 20
160.7676
 42
-0.07426519874
  0
VERTEX
  8
LAYER_1
 10
174.6687
 20
160.0765
  0
VERTEX
  8
LAYER_1
 10
174.6684
 20
160.0448
  0
VERTEX
  8
LAYER_1
 10
174.5788
 20
159.958
  0
VERTEX
  8
LAYER_1
 10
174.492
 20
160.0469
  0
VERTEX
  8
LAYER_1
 10
174.4927
 20
160.0765
 42
0.07426703652
  0
VERTEX
  8
LAYER_1
 10
174.3969
 20
160.7156
  0
VERTEX
  8
LAYER_1
 10
174.4555
 20
160.8262
  0
VERTEX
  8
LAYER_1
 10
174.5661
 20
160.7676
  0
SEQEND
  0
POLYLINE
  8
LAYER_1
 40
0.05
 41
0.05
 66
1
 10
0
 20
0
 30
0
  0
VERTEX
  8
LAYER_1
 10
173.7389
 20
161.9489
 42
-0.07962189035
  0
VERTEX
  8
LAYER_1
 10
174.2453
 20
161.4232
  0
VERTEX
  8
LAYER_1
 10
174.224
 20
161.3009
  0
VERTEX
  8
LAYER_1
 10
174.1003
 20
161.3223
 42
0.07997451108
  0
VERTEX
  8
LAYER_1
 10
173.6321
 20
161.8084
  0
VERTEX
  8
LAYER_1
 10
173.6149
 20
161.9317
  0
VERTEX
  8
LAYER_1
 10
173.7389
 20
161.9489
  0
SEQEND
  0
POLYLINE
  8
LAYER_1
 40
0.05
 41
0.05
 66
1
 10
0
 20
0
 30
0
  0
VERTEX
  8
LAYER_1
 10
172.3729
 20
162.414
 42
-0.07985361778
  0
VERTEX
  8
LAYER_1
 10
173.094
 20
162.2917
  0
VERTEX
  8
LAYER_1
 10
173.1488
 20
162.1798
  0
VERTEX
  8
LAYER_1
 10
173.0368
 20
162.125
 42
0.07942238594
  0
VERTEX
  8
LAYER_1
 10
172.3719
 20
162.2376
  0
VERTEX
  8
LAYER_1
 10
172.2841
 20
162.3265
  0
VERTEX
  8
LAYER_1
 10
172.3729
 20
162.414
  0
SEQEND
  0
POLYLINE
  8
LAYER_1
 40
0.05
 41
0.05
 66
1
 10
0
 20
0
 30
0
  0
VERTEX
  8
LAYER_1
 10
171.0004
 20
161.9744
 42
-0.07899202124
  0
VERTEX
  8
LAYER_1
 10
171.6512
 20
162.3055
  0
VERTEX
  8
LAYER_1
 10
171.7621
 20
162.248
  0
VERTEX
  8
LAYER_1
 10
171.7046
 20
162.1371
 42
0.07927908018
  0
VERTEX
  8
LAYER_1
 10
171.1038
 20
161.8315
  0
VERTEX
  8
LAYER_1
 10
170.9804
 20
161.8508
  0
VERTEX
  8
LAYER_1
 10
171.0004
 20
161.9744
  0
SEQEND
  0
POLYLINE
  8
LAYER_1
 40
0.05
 41
0.05
 66
1
 10
0
 20
0
 30
0
  0
VERTEX
  8
LAYER_1
 10
170.1522
 20
160.8069
 42
-0.07881190759
  0
VERTEX
  8
LAYER_1
 10
170.4836
 20
161.4573
  0
VERTEX
  8
LAYER_1
 10
170.6073
 20
161.4773
  0
VERTEX
  8
LAYER_1
 10
170.6263
 20
161.3536
 42
0.0781952005
  0
VERTEX
  8
LAYER_1
 10
170.3197
 20
160.7525
  0
VERTEX
  8
LAYER_1
 10
170.2084
 20
160.696
  0
VERTEX
  8
LAYER_1
 10
170.1522
 20
160.8069
  0
SEQEND
  0
POLYLINE
  8
LAYER_1
 40
0.05
 41
0.05
 66
1
 10
0
 20
0
 30
0
  0
VERTEX
  8
LAYER_1
 10
170.1454
 20
159.3648
 42
-0.07646823938
  0
VERTEX
  8
LAYER_1
 10
170.0368
 20
160.0765
  0
VERTEX
  8
LAYER_1
 10
170.0368
 20
160.0865
  0
VERTEX
  8
LAYER_1
 10
170.1254
 20
160.1747
  0
VERTEX
  8
LAYER_1
 10
170.2132
 20
160.0858
  0
VERTEX
  8
LAYER_1
 10
170.2132
 20
160.0765
 42
0.07690709995
  0
VERTEX
  8
LAYER_1
 10
170.3138
 20
159.4182
  0
VERTEX
  8
LAYER_1
 10
170.2563
 20
159.3069
  0
VERTEX
  8
LAYER_1
 10
170.1454
 20
159.3648
  0
SEQEND
  0
POLYLINE
  8
LAYER_1
 40
0.05
 41
0.05
 66
1
 10
0
 20
0
 30
0
  0
VERTEX
  8
LAYER_1
 10
170.9828
 20
158.19
 42
-0.07877842885
  0
VERTEX
  8
LAYER_1
 10
170.4716
 20
158.7116
  0
VERTEX
  8
LAYER_1
 10
170.4923
 20
158.8346
  0
VERTEX
  8
LAYER_1
 10
170.6149
 20
158.8136
 42
0.07759826293
  0
VERTEX
  8
LAYER_1
 10
171.0876
 20
158.3319
  0
VERTEX
  8
LAYER_1
 10
171.1058
 20
158.2086
  0
VERTEX
  8
LAYER_1
 10
170.9828
 20
158.19
  0
SEQEND
  0
ENDBLK
  0
BLOCK
  8
LAYER_1
  2
AIGNBL01010007
 70
64
 10
0
 20
0
 30
0
  3
AIGNBL01010007
  0
POLYLINE
  8
LAYER_1
 40
0.05
 41
0.05
 66
1
 10
0
 20
0
 30
0
  0
VERTEX
  8
LAYER_1
 10
172.6648
 20
156.7951
  0
VERTEX
  8
LAYER_1
 10
172.3516
 20
156.7799
 42
-0.05597416305
  0
VERTEX
  8
LAYER_1
 10
171.6329
 20
156.8602
  0
VERTEX
  8
LAYER_1
 10
171.5664
 20
156.9656
  0
VERTEX
  8
LAYER_1
 10
171.6722
 20
157.0321
 42
0.05545976148
  0
VERTEX
  8
LAYER_1
 10
172.3516
 20
156.9567
  0
VERTEX
  8
LAYER_1
 10
172.6479
 20
156.9704
  0
VERTEX
  8
LAYER_1
 10
172.7436
 20
156.8915
  0
VERTEX
  8
LAYER_1
 10
172.6648
 20
156.7951
  0
SEQEND
  0
POLYLINE
  8
LAYER_1
 40
0.05
 41
0.05
 66
1
 10
0
 20
0
 30
0
  0
VERTEX
  8
LAYER_1
 10
174.03
 20
157.2474
 42
-0.05505458361
  0
VERTEX
  8
LAYER_1
 10
173.3727
 20
156.9442
  0
VERTEX
  8
LAYER_1
 10
173.2611
 20
157.0001
  0
VERTEX
  8
LAYER_1
 10
173.3169
 20
157.1117
 42
0.05593132928
  0
VERTEX
  8
LAYER_1
 10
173.9384
 20
157.399
  0
VERTEX
  8
LAYER_1
 10
174.0597
 20
157.3694
  0
VERTEX
  8
LAYER_1
 10
174.03
 20
157.2474
  0
SEQEND
  0
POLYLINE
  8
LAYER_1
 40
0.05
 41
0.05
 66
1
 10
0
 20
0
 30
0
  0
VERTEX
  8
LAYER_1
 10
175.0667
 20
158.2448
 42
-0.05574915417
  0
VERTEX
  8
LAYER_1
 10
174.6033
 20
157.6894
  0
VERTEX
  8
LAYER_1
 10
174.4782
 20
157.6915
  0
VERTEX
  8
LAYER_1
 10
174.481
 20
157.8159
 42
0.05471730829
  0
VERTEX
  8
LAYER_1
 10
174.9196
 20
158.3419
  0
VERTEX
  8
LAYER_1
 10
175.0418
 20
158.3671
  0
VERTEX
  8
LAYER_1
 10
175.0667
 20
158.2448
  0
SEQEND
  0
POLYLINE
  8
LAYER_1
 40
0.05
 41
0.05
 66
1
 10
0
 20
0
 30
0
  0
VERTEX
  8
LAYER_1
 10
175.581
 20
159.5873
 42
-0.05568456789
  0
VERTEX
  8
LAYER_1
 10
175.3977
 20
158.888
  0
VERTEX
  8
LAYER_1
 10
175.2837
 20
158.8366
  0
VERTEX
  8
LAYER_1
 10
175.233
 20
158.951
 42
0.05541989407
  0
VERTEX
  8
LAYER_1
 10
175.406
 20
159.6135
  0
VERTEX
  8
LAYER_1
 10
175.5066
 20
159.6879
  0
VERTEX
  8
LAYER_1
 10
175.581
 20
159.588
  0
VERTEX
  8
LAYER_1
 10
175.581
 20
159.5873
  0
SEQEND
  0
POLYLINE
  8
LAYER_1
 40
0.05
 41
0.05
 66
1
 10
0
 20
0
 30
0
  0
VERTEX
  8
LAYER_1
 10
175.4804
 20
161.0218
 42
-0.05405235915
  0
VERTEX
  8
LAYER_1
 10
175.6086
 20
160.3101
  0
VERTEX
  8
LAYER_1
 10
175.5273
 20
160.2161
  0
VERTEX
  8
LAYER_1
 10
175.4322
 20
160.2981
 42
0.05589318539
  0
VERTEX
  8
LAYER_1
 10
175.3106
 20
160.9719
  0
VERTEX
  8
LAYER_1
 10
175.3709
 20
161.0815
  0
VERTEX
  8
LAYER_1
 10
175.4804
 20
161.0218
  0
SEQEND
  0
POLYLINE
  8
LAYER_1
 40
0.05
 41
0.05
 66
1
 10
0
 20
0
 30
0
  0
VERTEX
  8
LAYER_1
 10
174.7804
 20
162.2783
 42
-0.05545326182
  0
VERTEX
  8
LAYER_1
 10
175.1996
 20
161.6885
  0
VERTEX
  8
LAYER_1
 10
175.1655
 20
161.5689
  0
VERTEX
  8
LAYER_1
 10
175.0456
 20
161.6031
 42
0.05487034859
  0
VERTEX
  8
LAYER_1
 10
174.6484
 20
162.1611
  0
VERTEX
  8
LAYER_1
 10
174.656
 20
162.2855
  0
VERTEX
  8
LAYER_1
 10
174.7804
 20
162.2783
  0
SEQEND
  0
POLYLINE
  8
LAYER_1
 40
0.05
 41
0.05
 66
1
 10
0
 20
0
 30
0
  0
VERTEX
  8
LAYER_1
 10
173.6118
 20
163.1172
 42
-0.05491141639
  0
VERTEX
  8
LAYER_1
 10
174.2433
 20
162.763
  0
VERTEX
  8
LAYER_1
 10
174.2636
 20
162.6397
  0
VERTEX
  8
LAYER_1
 10
174.1399
 20
162.6194
 42
0.05535081298
  0
VERTEX
  8
LAYER_1
 10
173.5429
 20
162.9546
  0
VERTEX
  8
LAYER_1
 10
173.496
 20
163.07
  0
VERTEX
  8
LAYER_1
 10
173.6118
 20
163.1172
  0
SEQEND
  0
POLYLINE
  8
LAYER_1
 40
0.05
 41
0.05
 66
1
 10
0
 20
0
 30
0
  0
VERTEX
  8
LAYER_1
 10
172.1959
 20
163.3673
  0
VERTEX
  8
LAYER_1
 10
172.3516
 20
163.3714
 42
-0.0430993978
  0
VERTEX
  8
LAYER_1
 10
172.9179
 20
163.3221
  0
VERTEX
  8
LAYER_1
 10
172.9889
 20
163.2202
  0
VERTEX
  8
LAYER_1
 10
172.8869
 20
163.1478
 42
0.04401306093
  0
VERTEX
  8
LAYER_1
 10
172.3516
 20
163.1947
  0
VERTEX
  8
LAYER_1
 10
172.2038
 20
163.1916
  0
VERTEX
  8
LAYER_1
 10
172.1118
 20
163.2753
  0
VERTEX
  8
LAYER_1
 10
172.1959
 20
163.3673
  0
SEQEND
  0
POLYLINE
  8
LAYER_1
 40
0.05
 41
0.05
 66
1
 10
0
 20
0
 30
0
  0
VERTEX
  8
LAYER_1
 10
170.8096
 20
162.9814
 42
-0.05602383893
  0
VERTEX
  8
LAYER_1
 10
171.4814
 20
163.2526
  0
VERTEX
  8
LAYER_1
 10
171.5895
 20
163.1916
  0
VERTEX
  8
LAYER_1
 10
171.5282
 20
163.0827
 42
0.05609690578
  0
VERTEX
  8
LAYER_1
 10
170.8939
 20
162.8261
  0
VERTEX
  8
LAYER_1
 10
170.7744
 20
162.8616
  0
VERTEX
  8
LAYER_1
 10
170.8096
 20
162.9814
  0
SEQEND
  0
POLYLINE
  8
LAYER_1
 40
0.05
 41
0.05
 66
1
 10
0
 20
0
 30
0
  0
VERTEX
  8
LAYER_1
 10
169.7264
 20
162.0354
 42
-0.05448433697
  0
VERTEX
  8
LAYER_1
 10
170.2163
 20
162.568
  0
VERTEX
  8
LAYER_1
 10
170.3407
 20
162.5597
  0
VERTEX
  8
LAYER_1
 10
170.3328
 20
162.4354
 42
0.05490423385
  0
VERTEX
  8
LAYER_1
 10
169.8687
 20
161.9307
  0
VERTEX
  8
LAYER_1
 10
169.746
 20
161.9121
  0
VERTEX
  8
LAYER_1
 10
169.7264
 20
162.0354
  0
SEQEND
  0
POLYLINE
  8
LAYER_1
 40
0.05
 41
0.05
 66
1
 10
0
 20
0
 30
0
  0
VERTEX
  8
LAYER_1
 10
169.1494
 20
160.7176
 42
-0.05474283242
  0
VERTEX
  8
LAYER_1
 10
169.365
 20
161.4087
  0
VERTEX
  8
LAYER_1
 10
169.4818
 20
161.4535
  0
VERTEX
  8
LAYER_1
 10
169.5276
 20
161.3378
 42
0.05496338346
  0
VERTEX
  8
LAYER_1
 10
169.323
 20
160.6839
  0
VERTEX
  8
LAYER_1
 10
169.219
 20
160.6143
  0
VERTEX
  8
LAYER_1
 10
169.1494
 20
160.7176
  0
SEQEND
  0
POLYLINE
  8
LAYER_1
 40
0.05
 41
0.05
 66
1
 10
0
 20
0
 30
0
  0
VERTEX
  8
LAYER_1
 10
169.1835
 20
159.2804
 42
-0.05339694243
  0
VERTEX
  8
LAYER_1
 10
169.088
 20
159.997
  0
VERTEX
  8
LAYER_1
 10
169.1742
 20
160.0876
  0
VERTEX
  8
LAYER_1
 10
169.2648
 20
160.0014
 42
0.05429227467
  0
VERTEX
  8
LAYER_1
 10
169.3547
 20
159.3227
  0
VERTEX
  8
LAYER_1
 10
169.2903
 20
159.2156
  0
VERTEX
  8
LAYER_1
 10
169.1835
 20
159.2804
  0
SEQEND
  0
POLYLINE
  8
LAYER_1
 40
0.05
 41
0.05
 66
1
 10
0
 20
0
 30
0
  0
VERTEX
  8
LAYER_1
 10
169.8225
 20
157.9923
 42
-0.05513289473
  0
VERTEX
  8
LAYER_1
 10
169.4319
 20
158.6013
  0
VERTEX
  8
LAYER_1
 10
169.4718
 20
158.7192
  0
VERTEX
  8
LAYER_1
 10
169.5903
 20
158.6792
 42
0.05459543662
  0
VERTEX
  8
LAYER_1
 10
169.9593
 20
158.1035
  0
VERTEX
  8
LAYER_1
 10
169.9469
 20
157.9791
  0
VERTEX
  8
LAYER_1
 10
169.8225
 20
157.9923
  0
SEQEND
  0
POLYLINE
  8
LAYER_1
 40
0.05
 41
0.05
 66
1
 10
0
 20
0
 30
0
  0
VERTEX
  8
LAYER_1
 10
170.9494
 20
157.0989
 42
-0.055598296
  0
VERTEX
  8
LAYER_1
 10
170.3366
 20
157.4831
  0
VERTEX
  8
LAYER_1
 10
170.3221
 20
157.6067
  0
VERTEX
  8
LAYER_1
 10
170.4457
 20
157.6216
 42
0.05509277507
  0
VERTEX
  8
LAYER_1
 10
171.0262
 20
157.2578
  0
VERTEX
  8
LAYER_1
 10
171.0676
 20
157.1403
  0
VERTEX
  8
LAYER_1
 10
170.9494
 20
157.0989
  0
SEQEND
  0
ENDBLK
  0
BLOCK
  8
LAYER_1
  2
AIGNBL01010008
 70
64
 10
0
 20
0
 30
0
  3
AIGNBL01010008
  0
POLYLINE
  8
LAYER_1
 40
0.05
 41
0.05
 66
1
 10
0
 20
0
 30
0
  0
VERTEX
  8
LAYER_1
 10
174.03
 20
176.2979
  0
VERTEX
  8
LAYER_1
 10
174.0073
 20
176.5749
  0
VERTEX
  8
LAYER_1
 10
173.9508
 20
176.8412
  0
VERTEX
  8
LAYER_1
 10
174.0369
 20
176.8601
  0
VERTEX
  8
LAYER_1
 10
173.9532
 20
176.8308
  0
VERTEX
  8
LAYER_1
 10
173.9032
 20
176.958
  0
VERTEX
  8
LAYER_1
 10
173.9491
 20
177.074
  0
VERTEX
  8
LAYER_1
 10
174.0648
 20
177.0286
 42
-0.06742809833
  0
VERTEX
  8
LAYER_1
 10
174.1703
 20
176.6837
 42
-0.0308865351
  0
VERTEX
  8
LAYER_1
 10
174.2064
 20
176.312
  0
VERTEX
  8
LAYER_1
 10
174.1258
 20
176.2173
  0
VERTEX
  8
LAYER_1
 10
174.03
 20
176.2979
  0
SEQEND
  0
POLYLINE
  8
LAYER_1
 40
0.05
 41
0.05
 66
1
 10
0
 20
0
 30
0
  0
VERTEX
  8
LAYER_1
 10
173.6666
 20
175.2551
 42
0.08096146955
  0
VERTEX
  8
LAYER_1
 10
173.9532
 20
175.7904
  0
VERTEX
  8
LAYER_1
 10
174.0369
 20
175.7608
  0
VERTEX
  8
LAYER_1
 10
173.9508
 20
175.7797
  0
VERTEX
  8
LAYER_1
 10
173.9646
 20
175.8448
  0
VERTEX
  8
LAYER_1
 10
174.0693
 20
175.9131
  0
VERTEX
  8
LAYER_1
 10
174.1372
 20
175.8076
  0
VERTEX
  8
LAYER_1
 10
174.123
 20
175.7425
  0
VERTEX
  8
LAYER_1
 10
174.12
 20
175.7318
 42
-0.07959349324
  0
VERTEX
  8
LAYER_1
 10
173.8061
 20
175.1469
  0
VERTEX
  8
LAYER_1
 10
173.6817
 20
175.1307
  0
VERTEX
  8
LAYER_1
 10
173.6666
 20
175.2551
  0
SEQEND
  0
POLYLINE
  8
LAYER_1
 40
0.05
 41
0.05
 66
1
 10
0
 20
0
 30
0
  0
VERTEX
  8
LAYER_1
 10
172.5266
 20
174.6284
 42
0.1026555784
  0
VERTEX
  8
LAYER_1
 10
173.1626
 20
174.8216
  0
VERTEX
  8
LAYER_1
 10
173.2821
 20
174.7872
  0
VERTEX
  8
LAYER_1
 10
173.247
 20
174.667
 42
-0.1028780308
  0
VERTEX
  8
LAYER_1
 10
172.5428
 20
174.4527
  0
VERTEX
  8
LAYER_1
 10
172.447
 20
174.5323
  0
VERTEX
  8
LAYER_1
 10
172.5266
 20
174.6284
  0
SEQEND
  0
POLYLINE
  8
LAYER_1
 40
0.05
 41
0.05
 66
1
 10
0
 20
0
 30
0
  0
VERTEX
  8
LAYER_1
 10
171.2846
 20
175.0256
 42
0.1023765614
  0
VERTEX
  8
LAYER_1
 10
171.8644
 20
174.7
  0
VERTEX
  8
LAYER_1
 10
171.922
 20
174.5891
  0
VERTEX
  8
LAYER_1
 10
171.811
 20
174.5316
 42
-0.1021820093
  0
VERTEX
  8
LAYER_1
 10
171.1689
 20
174.8933
  0
VERTEX
  8
LAYER_1
 10
171.161
 20
175.017
  0
VERTEX
  8
LAYER_1
 10
171.2846
 20
175.0256
  0
SEQEND
  0
POLYLINE
  8
LAYER_1
 40
0.05
 41
0.05
 66
1
 10
0
 20
0
 30
0
  0
VERTEX
  8
LAYER_1
 10
170.7207
 20
176.2055
  0
VERTEX
  8
LAYER_1
 10
170.7345
 20
176.0395
  0
VERTEX
  8
LAYER_1
 10
170.6469
 20
176.0326
  0
VERTEX
  8
LAYER_1
 10
170.7341
 20
176.0474
 42
0.06979791347
  0
VERTEX
  8
LAYER_1
 10
170.886
 20
175.5568
  0
VERTEX
  8
LAYER_1
 10
170.844
 20
175.4393
  0
VERTEX
  8
LAYER_1
 10
170.7265
 20
175.4814
 42
-0.06982161482
  0
VERTEX
  8
LAYER_1
 10
170.5601
 20
176.0174
  0
VERTEX
  8
LAYER_1
 10
170.5584
 20
176.025
  0
VERTEX
  8
LAYER_1
 10
170.5456
 20
176.1907
  0
VERTEX
  8
LAYER_1
 10
170.6259
 20
176.2862
  0
VERTEX
  8
LAYER_1
 10
170.7207
 20
176.2055
  0
SEQEND
  0
POLYLINE
  8
LAYER_1
 40
0.05
 41
0.05
 66
1
 10
0
 20
0
 30
0
  0
VERTEX
  8
LAYER_1
 10
171.1399
 20
177.442
 42
0.09823650995
  0
VERTEX
  8
LAYER_1
 10
170.8085
 20
176.8632
  0
VERTEX
  8
LAYER_1
 10
170.6962
 20
176.8081
  0
VERTEX
  8
LAYER_1
 10
170.6414
 20
176.9207
 42
-0.09796813228
  0
VERTEX
  8
LAYER_1
 10
171.0073
 20
177.5584
  0
VERTEX
  8
LAYER_1
 10
171.1317
 20
177.5667
  0
VERTEX
  8
LAYER_1
 10
171.1399
 20
177.442
  0
SEQEND
  0
POLYLINE
  8
LAYER_1
 40
0.05
 41
0.05
 66
1
 10
0
 20
0
 30
0
  0
VERTEX
  8
LAYER_1
 10
172.3199
 20
177.9908
 42
0.1000698088
  0
VERTEX
  8
LAYER_1
 10
171.6722
 20
177.8389
  0
VERTEX
  8
LAYER_1
 10
171.5547
 20
177.8819
  0
VERTEX
  8
LAYER_1
 10
171.5981
 20
177.9994
 42
-0.09982200079
  0
VERTEX
  8
LAYER_1
 10
172.315
 20
178.1675
  0
VERTEX
  8
LAYER_1
 10
172.4053
 20
178.0821
  0
VERTEX
  8
LAYER_1
 10
172.3199
 20
177.9908
  0
SEQEND
  0
POLYLINE
  8
LAYER_1
 40
0.05
 41
0.05
 66
1
 10
0
 20
0
 30
0
  0
VERTEX
  8
LAYER_1
 10
173.5308
 20
177.514
 42
0.1029094751
  0
VERTEX
  8
LAYER_1
 10
172.9758
 20
177.8778
  0
VERTEX
  8
LAYER_1
 10
172.9259
 20
177.9925
  0
VERTEX
  8
LAYER_1
 10
173.0396
 20
178.0421
 42
-0.1046293824
  0
VERTEX
  8
LAYER_1
 10
173.6559
 20
177.6377
  0
VERTEX
  8
LAYER_1
 10
173.6559
 20
177.5129
  0
VERTEX
  8
LAYER_1
 10
173.5308
 20
177.514
  0
SEQEND
  0
ENDBLK
  0
BLOCK
  8
LAYER_1
  2
AIGNBL01010009
 70
64
 10
0
 20
0
 30
0
  3
AIGNBL01010009
  0
POLYLINE
  8
LAYER_1
 40
0.05
 41
0.05
 66
1
 10
0
 20
0
 30
0
  0
VERTEX
  8
LAYER_1
 10
212.4408
 20
136.3148
 42
-0.2646659896
  0
VERTEX
  8
LAYER_1
 10
212.3478
 20
136.1708
 42
-0.1267381149
  0
VERTEX
  8
LAYER_1
 10
212.1865
 20
136.1309
  0
VERTEX
  8
LAYER_1
 10
211.6887
 20
136.1309
  0
VERTEX
  8
LAYER_1
 10
211.6002
 20
136.2191
  0
VERTEX
  8
LAYER_1
 10
211.6887
 20
136.3073
  0
VERTEX
  8
LAYER_1
 10
212.1865
 20
136.3073
  0
VERTEX
  8
LAYER_1
 10
212.2592
 20
136.3238
  0
VERTEX
  8
LAYER_1
 10
212.2685
 20
136.3307
  0
VERTEX
  8
LAYER_1
 10
212.2889
 20
136.3148
  0
VERTEX
  8
LAYER_1
 10
212.2647
 20
136.3148
  0
VERTEX
  8
LAYER_1
 10
212.2685
 20
136.3307
  0
VERTEX
  8
LAYER_1
 10
212.2889
 20
136.3148
  0
VERTEX
  8
LAYER_1
 10
212.2647
 20
136.3148
  0
VERTEX
  8
LAYER_1
 10
212.3519
 20
136.403
  0
VERTEX
  8
LAYER_1
 10
212.4408
 20
136.3148
  0
SEQEND
  0
POLYLINE
  8
LAYER_1
 40
0.05
 41
0.05
 66
1
 10
0
 20
0
 30
0
  0
VERTEX
  8
LAYER_1
 10
212.4408
 20
137.7225
  0
VERTEX
  8
LAYER_1
 10
212.4408
 20
137.0142
  0
VERTEX
  8
LAYER_1
 10
212.3519
 20
136.9267
  0
VERTEX
  8
LAYER_1
 10
212.2647
 20
137.0142
  0
VERTEX
  8
LAYER_1
 10
212.2647
 20
137.7225
  0
VERTEX
  8
LAYER_1
 10
212.3519
 20
137.81
  0
VERTEX
  8
LAYER_1
 10
212.4408
 20
137.7225
  0
SEQEND
  0
POLYLINE
  8
LAYER_1
 40
0.05
 41
0.05
 66
1
 10
0
 20
0
 30
0
  0
VERTEX
  8
LAYER_1
 10
212.4408
 20
139.1364
  0
VERTEX
  8
LAYER_1
 10
212.4408
 20
138.4294
  0
VERTEX
  8
LAYER_1
 10
212.3519
 20
138.3406
  0
VERTEX
  8
LAYER_1
 10
212.2647
 20
138.4294
  0
VERTEX
  8
LAYER_1
 10
212.2647
 20
139.1364
  0
VERTEX
  8
LAYER_1
 10
212.3519
 20
139.2253
  0
VERTEX
  8
LAYER_1
 10
212.4408
 20
139.1364
  0
SEQEND
  0
POLYLINE
  8
LAYER_1
 40
0.05
 41
0.05
 66
1
 10
0
 20
0
 30
0
  0
VERTEX
  8
LAYER_1
 10
212.4408
 20
140.5508
  0
VERTEX
  8
LAYER_1
 10
212.4408
 20
139.8442
  0
VERTEX
  8
LAYER_1
 10
212.3519
 20
139.7556
  0
VERTEX
  8
LAYER_1
 10
212.2647
 20
139.8442
  0
VERTEX
  8
LAYER_1
 10
212.2647
 20
140.5508
  0
VERTEX
  8
LAYER_1
 10
212.3519
 20
140.64
  0
VERTEX
  8
LAYER_1
 10
212.4408
 20
140.5508
  0
SEQEND
  0
POLYLINE
  8
LAYER_1
 40
0.05
 41
0.05
 66
1
 10
0
 20
0
 30
0
  0
VERTEX
  8
LAYER_1
 10
212.4408
 20
141.9663
  0
VERTEX
  8
LAYER_1
 10
212.4408
 20
141.2587
  0
VERTEX
  8
LAYER_1
 10
212.3519
 20
141.1698
  0
VERTEX
  8
LAYER_1
 10
212.2647
 20
141.2587
  0
VERTEX
  8
LAYER_1
 10
212.2647
 20
141.9663
  0
VERTEX
  8
LAYER_1
 10
212.3519
 20
142.0542
  0
VERTEX
  8
LAYER_1
 10
212.4408
 20
141.9663
  0
SEQEND
  0
POLYLINE
  8
LAYER_1
 40
0.05
 41
0.05
 66
1
 10
0
 20
0
 30
0
  0
VERTEX
  8
LAYER_1
 10
212.4408
 20
143.3806
  0
VERTEX
  8
LAYER_1
 10
212.4408
 20
142.6726
  0
VERTEX
  8
LAYER_1
 10
212.3519
 20
142.5854
  0
VERTEX
  8
LAYER_1
 10
212.2647
 20
142.6726
  0
VERTEX
  8
LAYER_1
 10
212.2647
 20
143.3806
  0
VERTEX
  8
LAYER_1
 10
212.3519
 20
143.4684
  0
VERTEX
  8
LAYER_1
 10
212.4408
 20
143.3806
  0
SEQEND
  0
POLYLINE
  8
LAYER_1
 40
0.05
 41
0.05
 66
1
 10
0
 20
0
 30
0
  0
VERTEX
  8
LAYER_1
 10
212.4408
 20
144.7954
  0
VERTEX
  8
LAYER_1
 10
212.4408
 20
144.0875
  0
VERTEX
  8
LAYER_1
 10
212.3519
 20
143.9997
  0
VERTEX
  8
LAYER_1
 10
212.2647
 20
144.0875
  0
VERTEX
  8
LAYER_1
 10
212.2647
 20
144.7954
  0
VERTEX
  8
LAYER_1
 10
212.3519
 20
144.8833
  0
VERTEX
  8
LAYER_1
 10
212.4408
 20
144.7954
  0
SEQEND
  0
POLYLINE
  8
LAYER_1
 40
0.05
 41
0.05
 66
1
 10
0
 20
0
 30
0
  0
VERTEX
  8
LAYER_1
 10
212.4408
 20
146.2093
  0
VERTEX
  8
LAYER_1
 10
212.4408
 20
145.5024
  0
VERTEX
  8
LAYER_1
 10
212.3519
 20
145.4142
  0
VERTEX
  8
LAYER_1
 10
212.2647
 20
145.5024
  0
VERTEX
  8
LAYER_1
 10
212.2647
 20
146.2093
  0
VERTEX
  8
LAYER_1
 10
212.3519
 20
146.2982
  0
VERTEX
  8
LAYER_1
 10
212.4408
 20
146.2093
  0
SEQEND
  0
POLYLINE
  8
LAYER_1
 40
0.05
 41
0.05
 66
1
 10
0
 20
0
 30
0
  0
VERTEX
  8
LAYER_1
 10
212.4408
 20
147.6242
  0
VERTEX
  8
LAYER_1
 10
212.4408
 20
146.9173
  0
VERTEX
  8
LAYER_1
 10
212.3519
 20
146.8284
  0
VERTEX
  8
LAYER_1
 10
212.2647
 20
146.9173
  0
VERTEX
  8
LAYER_1
 10
212.2647
 20
147.6242
  0
VERTEX
  8
LAYER_1
 10
212.3519
 20
147.7131
  0
VERTEX
  8
LAYER_1
 10
212.4408
 20
147.6242
  0
SEQEND
  0
POLYLINE
  8
LAYER_1
 40
0.05
 41
0.05
 66
1
 10
0
 20
0
 30
0
  0
VERTEX
  8
LAYER_1
 10
212.4408
 20
149.0384
  0
VERTEX
  8
LAYER_1
 10
212.4408
 20
148.3322
  0
VERTEX
  8
LAYER_1
 10
212.3519
 20
148.2433
  0
VERTEX
  8
LAYER_1
 10
212.2647
 20
148.3322
  0
VERTEX
  8
LAYER_1
 10
212.2647
 20
149.0384
  0
VERTEX
  8
LAYER_1
 10
212.3519
 20
149.127
  0
VERTEX
  8
LAYER_1
 10
212.4408
 20
149.0384
  0
SEQEND
  0
POLYLINE
  8
LAYER_1
 40
0.05
 41
0.05
 66
1
 10
0
 20
0
 30
0
  0
VERTEX
  8
LAYER_1
 10
212.4408
 20
150.454
  0
VERTEX
  8
LAYER_1
 10
212.4408
 20
149.7461
  0
VERTEX
  8
LAYER_1
 10
212.3519
 20
149.6582
  0
VERTEX
  8
LAYER_1
 10
212.2647
 20
149.7461
  0
VERTEX
  8
LAYER_1
 10
212.2647
 20
150.454
  0
VERTEX
  8
LAYER_1
 10
212.3519
 20
150.5419
  0
VERTEX
  8
LAYER_1
 10
212.4408
 20
150.454
  0
SEQEND
  0
POLYLINE
  8
LAYER_1
 40
0.05
 41
0.05
 66
1
 10
0
 20
0
 30
0
  0
VERTEX
  8
LAYER_1
 10
212.4408
 20
151.8683
  0
VERTEX
  8
LAYER_1
 10
212.4408
 20
151.161
  0
VERTEX
  8
LAYER_1
 10
212.3519
 20
151.0731
  0
VERTEX
  8
LAYER_1
 10
212.2647
 20
151.161
  0
VERTEX
  8
LAYER_1
 10
212.2647
 20
151.8683
  0
VERTEX
  8
LAYER_1
 10
212.3519
 20
151.9561
  0
VERTEX
  8
LAYER_1
 10
212.4408
 20
151.8683
  0
SEQEND
  0
POLYLINE
  8
LAYER_1
 40
0.05
 41
0.05
 66
1
 10
0
 20
0
 30
0
  0
VERTEX
  8
LAYER_1
 10
212.4408
 20
153.2825
  0
VERTEX
  8
LAYER_1
 10
212.4408
 20
152.5752
  0
VERTEX
  8
LAYER_1
 10
212.3519
 20
152.4866
  0
VERTEX
  8
LAYER_1
 10
212.2647
 20
152.5752
  0
VERTEX
  8
LAYER_1
 10
212.2647
 20
153.2825
  0
VERTEX
  8
LAYER_1
 10
212.3519
 20
153.371
  0
VERTEX
  8
LAYER_1
 10
212.4408
 20
153.2825
  0
SEQEND
  0
POLYLINE
  8
LAYER_1
 40
0.05
 41
0.05
 66
1
 10
0
 20
0
 30
0
  0
VERTEX
  8
LAYER_1
 10
212.4408
 20
154.697
  0
VERTEX
  8
LAYER_1
 10
212.4408
 20
153.9904
  0
VERTEX
  8
LAYER_1
 10
212.3519
 20
153.9015
  0
VERTEX
  8
LAYER_1
 10
212.2647
 20
153.9904
  0
VERTEX
  8
LAYER_1
 10
212.2647
 20
154.697
  0
VERTEX
  8
LAYER_1
 10
212.3519
 20
154.7859
  0
VERTEX
  8
LAYER_1
 10
212.4408
 20
154.697
  0
SEQEND
  0
POLYLINE
  8
LAYER_1
 40
0.05
 41
0.05
 66
1
 10
0
 20
0
 30
0
  0
VERTEX
  8
LAYER_1
 10
212.4408
 20
156.1119
  0
VERTEX
  8
LAYER_1
 10
212.4408
 20
155.405
  0
VERTEX
  8
LAYER_1
 10
212.3519
 20
155.3161
  0
VERTEX
  8
LAYER_1
 10
212.2647
 20
155.405
  0
VERTEX
  8
LAYER_1
 10
212.2647
 20
156.1119
  0
VERTEX
  8
LAYER_1
 10
212.3519
 20
156.2001
  0
VERTEX
  8
LAYER_1
 10
212.4408
 20
156.1119
  0
SEQEND
  0
POLYLINE
  8
LAYER_1
 40
0.05
 41
0.05
 66
1
 10
0
 20
0
 30
0
  0
VERTEX
  8
LAYER_1
 10
212.4408
 20
157.5272
  0
VERTEX
  8
LAYER_1
 10
212.4408
 20
156.8192
  0
VERTEX
  8
LAYER_1
 10
212.3519
 20
156.7313
  0
VERTEX
  8
LAYER_1
 10
212.2647
 20
156.8192
  0
VERTEX
  8
LAYER_1
 10
212.2647
 20
157.5272
  0
VERTEX
  8
LAYER_1
 10
212.3519
 20
157.6143
  0
VERTEX
  8
LAYER_1
 10
212.4408
 20
157.5272
  0
SEQEND
  0
POLYLINE
  8
LAYER_1
 40
0.05
 41
0.05
 66
1
 10
0
 20
0
 30
0
  0
VERTEX
  8
LAYER_1
 10
212.4408
 20
158.9414
  0
VERTEX
  8
LAYER_1
 10
212.4408
 20
158.2334
  0
VERTEX
  8
LAYER_1
 10
212.3519
 20
158.1463
  0
VERTEX
  8
LAYER_1
 10
212.2647
 20
158.2334
  0
VERTEX
  8
LAYER_1
 10
212.2647
 20
158.9414
  0
VERTEX
  8
LAYER_1
 10
212.3519
 20
159.0292
  0
VERTEX
  8
LAYER_1
 10
212.4408
 20
158.9414
  0
SEQEND
  0
POLYLINE
  8
LAYER_1
 40
0.05
 41
0.05
 66
1
 10
0
 20
0
 30
0
  0
VERTEX
  8
LAYER_1
 10
212.4408
 20
160.3556
  0
VERTEX
  8
LAYER_1
 10
212.4408
 20
159.6483
  0
VERTEX
  8
LAYER_1
 10
212.3519
 20
159.5601
  0
VERTEX
  8
LAYER_1
 10
212.2647
 20
159.6483
  0
VERTEX
  8
LAYER_1
 10
212.2647
 20
160.3556
  0
VERTEX
  8
LAYER_1
 10
212.3519
 20
160.4438
  0
VERTEX
  8
LAYER_1
 10
212.4408
 20
160.3556
  0
SEQEND
  0
POLYLINE
  8
LAYER_1
 40
0.05
 41
0.05
 66
1
 10
0
 20
0
 30
0
  0
VERTEX
  8
LAYER_1
 10
212.4408
 20
161.7701
  0
VERTEX
  8
LAYER_1
 10
212.4408
 20
161.0635
  0
VERTEX
  8
LAYER_1
 10
212.3519
 20
160.9747
  0
VERTEX
  8
LAYER_1
 10
212.2647
 20
161.0635
  0
VERTEX
  8
LAYER_1
 10
212.2647
 20
161.7701
  0
VERTEX
  8
LAYER_1
 10
212.3519
 20
161.859
  0
VERTEX
  8
LAYER_1
 10
212.4408
 20
161.7701
  0
SEQEND
  0
POLYLINE
  8
LAYER_1
 40
0.05
 41
0.05
 66
1
 10
0
 20
0
 30
0
  0
VERTEX
  8
LAYER_1
 10
212.4408
 20
163.1847
  0
VERTEX
  8
LAYER_1
 10
212.4408
 20
162.4781
  0
VERTEX
  8
LAYER_1
 10
212.3519
 20
162.3892
  0
VERTEX
  8
LAYER_1
 10
212.2647
 20
162.4781
  0
VERTEX
  8
LAYER_1
 10
212.2647
 20
163.1847
  0
VERTEX
  8
LAYER_1
 10
212.3519
 20
163.2732
  0
VERTEX
  8
LAYER_1
 10
212.4408
 20
163.1847
  0
SEQEND
  0
POLYLINE
  8
LAYER_1
 40
0.05
 41
0.05
 66
1
 10
0
 20
0
 30
0
  0
VERTEX
  8
LAYER_1
 10
212.4408
 20
164.6003
  0
VERTEX
  8
LAYER_1
 10
212.4408
 20
163.8923
  0
VERTEX
  8
LAYER_1
 10
212.3519
 20
163.8038
  0
VERTEX
  8
LAYER_1
 10
212.2647
 20
163.8923
  0
VERTEX
  8
LAYER_1
 10
212.2647
 20
164.6003
  0
VERTEX
  8
LAYER_1
 10
212.3519
 20
164.6878
  0
VERTEX
  8
LAYER_1
 10
212.4408
 20
164.6003
  0
SEQEND
  0
POLYLINE
  8
LAYER_1
 40
0.05
 41
0.05
 66
1
 10
0
 20
0
 30
0
  0
VERTEX
  8
LAYER_1
 10
212.4408
 20
166.0149
  0
VERTEX
  8
LAYER_1
 10
212.4408
 20
165.3069
  0
VERTEX
  8
LAYER_1
 10
212.3519
 20
165.219
  0
VERTEX
  8
LAYER_1
 10
212.2647
 20
165.3069
  0
VERTEX
  8
LAYER_1
 10
212.2647
 20
166.0149
  0
VERTEX
  8
LAYER_1
 10
212.3519
 20
166.1023
  0
VERTEX
  8
LAYER_1
 10
212.4408
 20
166.0149
  0
SEQEND
  0
POLYLINE
  8
LAYER_1
 40
0.05
 41
0.05
 66
1
 10
0
 20
0
 30
0
  0
VERTEX
  8
LAYER_1
 10
212.4408
 20
167.4287
  0
VERTEX
  8
LAYER_1
 10
212.4408
 20
166.7214
  0
VERTEX
  8
LAYER_1
 10
212.3519
 20
166.6329
  0
VERTEX
  8
LAYER_1
 10
212.2647
 20
166.7214
  0
VERTEX
  8
LAYER_1
 10
212.2647
 20
167.4287
  0
VERTEX
  8
LAYER_1
 10
212.3519
 20
167.5169
  0
VERTEX
  8
LAYER_1
 10
212.4408
 20
167.4287
  0
SEQEND
  0
POLYLINE
  8
LAYER_1
 40
0.05
 41
0.05
 66
1
 10
0
 20
0
 30
0
  0
VERTEX
  8
LAYER_1
 10
212.4408
 20
168.8433
  0
VERTEX
  8
LAYER_1
 10
212.4408
 20
168.1363
  0
VERTEX
  8
LAYER_1
 10
212.3519
 20
168.0475
  0
VERTEX
  8
LAYER_1
 10
212.2647
 20
168.1363
  0
VERTEX
  8
LAYER_1
 10
212.2647
 20
168.8433
  0
VERTEX
  8
LAYER_1
 10
212.3519
 20
168.9322
  0
VERTEX
  8
LAYER_1
 10
212.4408
 20
168.8433
  0
SEQEND
  0
POLYLINE
  8
LAYER_1
 40
0.05
 41
0.05
 66
1
 10
0
 20
0
 30
0
  0
VERTEX
  8
LAYER_1
 10
212.4408
 20
170.2578
  0
VERTEX
  8
LAYER_1
 10
212.4408
 20
169.5512
  0
VERTEX
  8
LAYER_1
 10
212.3519
 20
169.4623
  0
VERTEX
  8
LAYER_1
 10
212.2647
 20
169.5512
  0
VERTEX
  8
LAYER_1
 10
212.2647
 20
170.2578
  0
VERTEX
  8
LAYER_1
 10
212.3519
 20
170.346
  0
VERTEX
  8
LAYER_1
 10
212.4408
 20
170.2578
  0
SEQEND
  0
POLYLINE
  8
LAYER_1
 40
0.05
 41
0.05
 66
1
 10
0
 20
0
 30
0
  0
VERTEX
  8
LAYER_1
 10
212.4408
 20
171.6731
  0
VERTEX
  8
LAYER_1
 10
212.4408
 20
170.9651
  0
VERTEX
  8
LAYER_1
 10
212.3519
 20
170.8769
  0
VERTEX
  8
LAYER_1
 10
212.2647
 20
170.9651
  0
VERTEX
  8
LAYER_1
 10
212.2647
 20
171.6731
  0
VERTEX
  8
LAYER_1
 10
212.3519
 20
171.7609
  0
VERTEX
  8
LAYER_1
 10
212.4408
 20
171.6731
  0
SEQEND
  0
POLYLINE
  8
LAYER_1
 40
0.05
 41
0.05
 66
1
 10
0
 20
0
 30
0
  0
VERTEX
  8
LAYER_1
 10
212.4408
 20
173.0876
  0
VERTEX
  8
LAYER_1
 10
212.4408
 20
172.3797
  0
VERTEX
  8
LAYER_1
 10
212.3519
 20
172.2921
  0
VERTEX
  8
LAYER_1
 10
212.2647
 20
172.3797
  0
VERTEX
  8
LAYER_1
 10
212.2647
 20
173.0876
  0
VERTEX
  8
LAYER_1
 10
212.3519
 20
173.1755
  0
VERTEX
  8
LAYER_1
 10
212.4408
 20
173.0876
  0
SEQEND
  0
POLYLINE
  8
LAYER_1
 40
0.05
 41
0.05
 66
1
 10
0
 20
0
 30
0
  0
VERTEX
  8
LAYER_1
 10
212.4408
 20
174.5018
  0
VERTEX
  8
LAYER_1
 10
212.4408
 20
173.7942
  0
VERTEX
  8
LAYER_1
 10
212.3519
 20
173.7064
  0
VERTEX
  8
LAYER_1
 10
212.2647
 20
173.7942
  0
VERTEX
  8
LAYER_1
 10
212.2647
 20
174.5018
  0
VERTEX
  8
LAYER_1
 10
212.3519
 20
174.59
  0
VERTEX
  8
LAYER_1
 10
212.4408
 20
174.5018
  0
SEQEND
  0
POLYLINE
  8
LAYER_1
 40
0.05
 41
0.05
 66
1
 10
0
 20
0
 30
0
  0
VERTEX
  8
LAYER_1
 10
212.4408
 20
175.9164
  0
VERTEX
  8
LAYER_1
 10
212.4408
 20
175.2098
  0
VERTEX
  8
LAYER_1
 10
212.3519
 20
175.1209
  0
VERTEX
  8
LAYER_1
 10
212.2647
 20
175.2098
  0
VERTEX
  8
LAYER_1
 10
212.2647
 20
175.9164
  0
VERTEX
  8
LAYER_1
 10
212.3519
 20
176.0053
  0
VERTEX
  8
LAYER_1
 10
212.4408
 20
175.9164
  0
SEQEND
  0
POLYLINE
  8
LAYER_1
 40
0.05
 41
0.05
 66
1
 10
0
 20
0
 30
0
  0
VERTEX
  8
LAYER_1
 10
212.4408
 20
177.3309
  0
VERTEX
  8
LAYER_1
 10
212.4408
 20
176.6244
  0
VERTEX
  8
LAYER_1
 10
212.3519
 20
176.5355
  0
VERTEX
  8
LAYER_1
 10
212.2647
 20
176.6244
  0
VERTEX
  8
LAYER_1
 10
212.2647
 20
177.3309
  0
VERTEX
  8
LAYER_1
 10
212.3519
 20
177.4198
  0
VERTEX
  8
LAYER_1
 10
212.4408
 20
177.3309
  0
SEQEND
  0
POLYLINE
  8
LAYER_1
 40
0.05
 41
0.05
 66
1
 10
0
 20
0
 30
0
  0
VERTEX
  8
LAYER_1
 10
212.4408
 20
178.7462
  0
VERTEX
  8
LAYER_1
 10
212.4408
 20
178.0382
  0
VERTEX
  8
LAYER_1
 10
212.3519
 20
177.95
  0
VERTEX
  8
LAYER_1
 10
212.2647
 20
178.0382
  0
VERTEX
  8
LAYER_1
 10
212.2647
 20
178.7462
  0
VERTEX
  8
LAYER_1
 10
212.3519
 20
178.8341
  0
VERTEX
  8
LAYER_1
 10
212.4408
 20
178.7462
  0
SEQEND
  0
POLYLINE
  8
LAYER_1
 40
0.05
 41
0.05
 66
1
 10
0
 20
0
 30
0
  0
VERTEX
  8
LAYER_1
 10
212.4408
 20
180.1607
  0
VERTEX
  8
LAYER_1
 10
212.4408
 20
179.4531
  0
VERTEX
  8
LAYER_1
 10
212.3519
 20
179.3653
  0
VERTEX
  8
LAYER_1
 10
212.2647
 20
179.4531
  0
VERTEX
  8
LAYER_1
 10
212.2647
 20
180.1607
  0
VERTEX
  8
LAYER_1
 10
212.3519
 20
180.2486
  0
VERTEX
  8
LAYER_1
 10
212.4408
 20
180.1607
  0
SEQEND
  0
POLYLINE
  8
LAYER_1
 40
0.05
 41
0.05
 66
1
 10
0
 20
0
 30
0
  0
VERTEX
  8
LAYER_1
 10
212.4408
 20
181.5746
  0
VERTEX
  8
LAYER_1
 10
212.4408
 20
180.8677
  0
VERTEX
  8
LAYER_1
 10
212.3519
 20
180.7798
  0
VERTEX
  8
LAYER_1
 10
212.2647
 20
180.8677
  0
VERTEX
  8
LAYER_1
 10
212.2647
 20
181.5746
  0
VERTEX
  8
LAYER_1
 10
212.3519
 20
181.6632
  0
VERTEX
  8
LAYER_1
 10
212.4408
 20
181.5746
  0
SEQEND
  0
POLYLINE
  8
LAYER_1
 40
0.05
 41
0.05
 66
1
 10
0
 20
0
 30
0
  0
VERTEX
  8
LAYER_1
 10
211.5302
 20
182.3081
  0
VERTEX
  8
LAYER_1
 10
212.1865
 20
182.3081
  0
VERTEX
  8
LAYER_1
 10
212.2534
 20
182.3022
  0
VERTEX
  8
LAYER_1
 10
212.324
 20
182.1996
  0
VERTEX
  8
LAYER_1
 10
212.2217
 20
182.1289
  0
VERTEX
  8
LAYER_1
 10
212.1865
 20
182.1317
  0
VERTEX
  8
LAYER_1
 10
211.5302
 20
182.1317
  0
VERTEX
  8
LAYER_1
 10
211.4424
 20
182.2206
  0
VERTEX
  8
LAYER_1
 10
211.5302
 20
182.3081
  0
SEQEND
  0
POLYLINE
  8
LAYER_1
 40
0.05
 41
0.05
 66
1
 10
0
 20
0
 30
0
  0
VERTEX
  8
LAYER_1
 10
210.1153
 20
182.3081
  0
VERTEX
  8
LAYER_1
 10
210.8233
 20
182.3081
  0
VERTEX
  8
LAYER_1
 10
210.9112
 20
182.2206
  0
VERTEX
  8
LAYER_1
 10
210.8233
 20
182.1317
  0
VERTEX
  8
LAYER_1
 10
210.1153
 20
182.1317
  0
VERTEX
  8
LAYER_1
 10
210.0271
 20
182.2206
  0
VERTEX
  8
LAYER_1
 10
210.1153
 20
182.3081
  0
SEQEND
  0
POLYLINE
  8
LAYER_1
 40
0.05
 41
0.05
 66
1
 10
0
 20
0
 30
0
  0
VERTEX
  8
LAYER_1
 10
208.7015
 20
182.3081
  0
VERTEX
  8
LAYER_1
 10
209.4081
 20
182.3081
  0
VERTEX
  8
LAYER_1
 10
209.4969
 20
182.2206
  0
VERTEX
  8
LAYER_1
 10
209.4081
 20
182.1317
  0
VERTEX
  8
LAYER_1
 10
208.7015
 20
182.1317
  0
VERTEX
  8
LAYER_1
 10
208.6126
 20
182.2206
  0
VERTEX
  8
LAYER_1
 10
208.7015
 20
182.3081
  0
SEQEND
  0
POLYLINE
  8
LAYER_1
 40
0.05
 41
0.05
 66
1
 10
0
 20
0
 30
0
  0
VERTEX
  8
LAYER_1
 10
207.2866
 20
182.3081
  0
VERTEX
  8
LAYER_1
 10
207.9935
 20
182.3081
  0
VERTEX
  8
LAYER_1
 10
208.0824
 20
182.2206
  0
VERTEX
  8
LAYER_1
 10
207.9935
 20
182.1317
  0
VERTEX
  8
LAYER_1
 10
207.2866
 20
182.1317
  0
VERTEX
  8
LAYER_1
 10
207.1977
 20
182.2206
  0
VERTEX
  8
LAYER_1
 10
207.2866
 20
182.3081
  0
SEQEND
  0
POLYLINE
  8
LAYER_1
 40
0.05
 41
0.05
 66
1
 10
0
 20
0
 30
0
  0
VERTEX
  8
LAYER_1
 10
205.872
 20
182.3081
  0
VERTEX
  8
LAYER_1
 10
206.5786
 20
182.3081
  0
VERTEX
  8
LAYER_1
 10
206.6671
 20
182.2206
  0
VERTEX
  8
LAYER_1
 10
206.5786
 20
182.1317
  0
VERTEX
  8
LAYER_1
 10
205.872
 20
182.1317
  0
VERTEX
  8
LAYER_1
 10
205.7842
 20
182.2206
  0
VERTEX
  8
LAYER_1
 10
205.872
 20
182.3081
  0
SEQEND
  0
POLYLINE
  8
LAYER_1
 40
0.05
 41
0.05
 66
1
 10
0
 20
0
 30
0
  0
VERTEX
  8
LAYER_1
 10
204.4571
 20
182.3081
  0
VERTEX
  8
LAYER_1
 10
205.1651
 20
182.3081
  0
VERTEX
  8
LAYER_1
 10
205.2529
 20
182.2206
  0
VERTEX
  8
LAYER_1
 10
205.1651
 20
182.1317
  0
VERTEX
  8
LAYER_1
 10
204.4571
 20
182.1317
  0
VERTEX
  8
LAYER_1
 10
204.3693
 20
182.2206
  0
VERTEX
  8
LAYER_1
 10
204.4571
 20
182.3081
  0
SEQEND
  0
POLYLINE
  8
LAYER_1
 40
0.05
 41
0.05
 66
1
 10
0
 20
0
 30
0
  0
VERTEX
  8
LAYER_1
 10
203.0422
 20
182.3081
  0
VERTEX
  8
LAYER_1
 10
203.7502
 20
182.3081
  0
VERTEX
  8
LAYER_1
 10
203.838
 20
182.2206
  0
VERTEX
  8
LAYER_1
 10
203.7502
 20
182.1317
  0
VERTEX
  8
LAYER_1
 10
203.0422
 20
182.1317
  0
VERTEX
  8
LAYER_1
 10
202.9544
 20
182.2206
  0
VERTEX
  8
LAYER_1
 10
203.0422
 20
182.3081
  0
SEQEND
  0
POLYLINE
  8
LAYER_1
 40
0.05
 41
0.05
 66
1
 10
0
 20
0
 30
0
  0
VERTEX
  8
LAYER_1
 10
201.6283
 20
182.3081
  0
VERTEX
  8
LAYER_1
 10
202.3353
 20
182.3081
  0
VERTEX
  8
LAYER_1
 10
202.4242
 20
182.2206
  0
VERTEX
  8
LAYER_1
 10
202.3353
 20
182.1317
  0
VERTEX
  8
LAYER_1
 10
201.6283
 20
182.1317
  0
VERTEX
  8
LAYER_1
 10
201.5395
 20
182.2206
  0
VERTEX
  8
LAYER_1
 10
201.6283
 20
182.3081
  0
SEQEND
  0
POLYLINE
  8
LAYER_1
 40
0.05
 41
0.05
 66
1
 10
0
 20
0
 30
0
  0
VERTEX
  8
LAYER_1
 10
200.2134
 20
182.3081
  0
VERTEX
  8
LAYER_1
 10
200.9204
 20
182.3081
  0
VERTEX
  8
LAYER_1
 10
201.0093
 20
182.2206
  0
VERTEX
  8
LAYER_1
 10
200.9204
 20
182.1317
  0
VERTEX
  8
LAYER_1
 10
200.2134
 20
182.1317
  0
VERTEX
  8
LAYER_1
 10
200.1253
 20
182.2206
  0
VERTEX
  8
LAYER_1
 10
200.2134
 20
182.3081
  0
SEQEND
  0
POLYLINE
  8
LAYER_1
 40
0.05
 41
0.05
 66
1
 10
0
 20
0
 30
0
  0
VERTEX
  8
LAYER_1
 10
198.7985
 20
182.3081
  0
VERTEX
  8
LAYER_1
 10
199.5062
 20
182.3081
  0
VERTEX
  8
LAYER_1
 10
199.594
 20
182.2206
  0
VERTEX
  8
LAYER_1
 10
199.5062
 20
182.1317
  0
VERTEX
  8
LAYER_1
 10
198.7985
 20
182.1317
  0
VERTEX
  8
LAYER_1
 10
198.7107
 20
182.2206
  0
VERTEX
  8
LAYER_1
 10
198.7985
 20
182.3081
  0
SEQEND
  0
POLYLINE
  8
LAYER_1
 40
0.05
 41
0.05
 66
1
 10
0
 20
0
 30
0
  0
VERTEX
  8
LAYER_1
 10
197.3836
 20
182.3081
  0
VERTEX
  8
LAYER_1
 10
198.0916
 20
182.3081
  0
VERTEX
  8
LAYER_1
 10
198.1795
 20
182.2206
  0
VERTEX
  8
LAYER_1
 10
198.0916
 20
182.1317
  0
VERTEX
  8
LAYER_1
 10
197.3836
 20
182.1317
  0
VERTEX
  8
LAYER_1
 10
197.2958
 20
182.2206
  0
VERTEX
  8
LAYER_1
 10
197.3836
 20
182.3081
  0
SEQEND
  0
POLYLINE
  8
LAYER_1
 40
0.05
 41
0.05
 66
1
 10
0
 20
0
 30
0
  0
VERTEX
  8
LAYER_1
 10
195.9694
 20
182.3081
  0
VERTEX
  8
LAYER_1
 10
196.6774
 20
182.3081
  0
VERTEX
  8
LAYER_1
 10
196.7646
 20
182.2206
  0
VERTEX
  8
LAYER_1
 10
196.6774
 20
182.1317
  0
VERTEX
  8
LAYER_1
 10
195.9694
 20
182.1317
  0
VERTEX
  8
LAYER_1
 10
195.8809
 20
182.2206
  0
VERTEX
  8
LAYER_1
 10
195.9694
 20
182.3081
  0
SEQEND
  0
POLYLINE
  8
LAYER_1
 40
0.05
 41
0.05
 66
1
 10
0
 20
0
 30
0
  0
VERTEX
  8
LAYER_1
 10
194.5552
 20
182.3081
  0
VERTEX
  8
LAYER_1
 10
195.2621
 20
182.3081
  0
VERTEX
  8
LAYER_1
 10
195.351
 20
182.2206
  0
VERTEX
  8
LAYER_1
 10
195.2621
 20
182.1317
  0
VERTEX
  8
LAYER_1
 10
194.5552
 20
182.1317
  0
VERTEX
  8
LAYER_1
 10
194.4663
 20
182.2206
  0
VERTEX
  8
LAYER_1
 10
194.5552
 20
182.3081
  0
SEQEND
  0
POLYLINE
  8
LAYER_1
 40
0.05
 41
0.05
 66
1
 10
0
 20
0
 30
0
  0
VERTEX
  8
LAYER_1
 10
193.1407
 20
182.3081
  0
VERTEX
  8
LAYER_1
 10
193.8473
 20
182.3081
  0
VERTEX
  8
LAYER_1
 10
193.9361
 20
182.2206
  0
VERTEX
  8
LAYER_1
 10
193.8473
 20
182.1317
  0
VERTEX
  8
LAYER_1
 10
193.1407
 20
182.1317
  0
VERTEX
  8
LAYER_1
 10
193.0518
 20
182.2206
  0
VERTEX
  8
LAYER_1
 10
193.1407
 20
182.3081
  0
SEQEND
  0
POLYLINE
  8
LAYER_1
 40
0.05
 41
0.05
 66
1
 10
0
 20
0
 30
0
  0
VERTEX
  8
LAYER_1
 10
191.7254
 20
182.3081
  0
VERTEX
  8
LAYER_1
 10
192.4327
 20
182.3081
  0
VERTEX
  8
LAYER_1
 10
192.5216
 20
182.2206
  0
VERTEX
  8
LAYER_1
 10
192.4327
 20
182.1317
  0
VERTEX
  8
LAYER_1
 10
191.7254
 20
182.1317
  0
VERTEX
  8
LAYER_1
 10
191.6376
 20
182.2206
  0
VERTEX
  8
LAYER_1
 10
191.7254
 20
182.3081
  0
SEQEND
  0
POLYLINE
  8
LAYER_1
 40
0.05
 41
0.05
 66
1
 10
0
 20
0
 30
0
  0
VERTEX
  8
LAYER_1
 10
190.3112
 20
182.3081
  0
VERTEX
  8
LAYER_1
 10
191.0185
 20
182.3081
  0
VERTEX
  8
LAYER_1
 10
191.1063
 20
182.2206
  0
VERTEX
  8
LAYER_1
 10
191.0185
 20
182.1317
  0
VERTEX
  8
LAYER_1
 10
190.3112
 20
182.1317
  0
VERTEX
  8
LAYER_1
 10
190.2233
 20
182.2206
  0
VERTEX
  8
LAYER_1
 10
190.3112
 20
182.3081
  0
SEQEND
  0
POLYLINE
  8
LAYER_1
 40
0.05
 41
0.05
 66
1
 10
0
 20
0
 30
0
  0
VERTEX
  8
LAYER_1
 10
188.8963
 20
182.3081
  0
VERTEX
  8
LAYER_1
 10
189.6043
 20
182.3081
  0
VERTEX
  8
LAYER_1
 10
189.6921
 20
182.2206
  0
VERTEX
  8
LAYER_1
 10
189.6043
 20
182.1317
  0
VERTEX
  8
LAYER_1
 10
188.8963
 20
182.1317
  0
VERTEX
  8
LAYER_1
 10
188.8085
 20
182.2206
  0
VERTEX
  8
LAYER_1
 10
188.8963
 20
182.3081
  0
SEQEND
  0
POLYLINE
  8
LAYER_1
 40
0.05
 41
0.05
 66
1
 10
0
 20
0
 30
0
  0
VERTEX
  8
LAYER_1
 10
187.4824
 20
182.3081
  0
VERTEX
  8
LAYER_1
 10
188.1887
 20
182.3081
  0
VERTEX
  8
LAYER_1
 10
188.2776
 20
182.2206
  0
VERTEX
  8
LAYER_1
 10
188.1887
 20
182.1317
  0
VERTEX
  8
LAYER_1
 10
187.4824
 20
182.1317
  0
VERTEX
  8
LAYER_1
 10
187.3935
 20
182.2206
  0
VERTEX
  8
LAYER_1
 10
187.4824
 20
182.3081
  0
SEQEND
  0
POLYLINE
  8
LAYER_1
 40
0.05
 41
0.05
 66
1
 10
0
 20
0
 30
0
  0
VERTEX
  8
LAYER_1
 10
186.0675
 20
182.3081
  0
VERTEX
  8
LAYER_1
 10
186.7745
 20
182.3081
  0
VERTEX
  8
LAYER_1
 10
186.8634
 20
182.2206
  0
VERTEX
  8
LAYER_1
 10
186.7745
 20
182.1317
  0
VERTEX
  8
LAYER_1
 10
186.0675
 20
182.1317
  0
VERTEX
  8
LAYER_1
 10
185.9787
 20
182.2206
  0
VERTEX
  8
LAYER_1
 10
186.0675
 20
182.3081
  0
SEQEND
  0
POLYLINE
  8
LAYER_1
 40
0.05
 41
0.05
 66
1
 10
0
 20
0
 30
0
  0
VERTEX
  8
LAYER_1
 10
184.6526
 20
182.3081
  0
VERTEX
  8
LAYER_1
 10
185.3596
 20
182.3081
  0
VERTEX
  8
LAYER_1
 10
185.4485
 20
182.2206
  0
VERTEX
  8
LAYER_1
 10
185.3596
 20
182.1317
  0
VERTEX
  8
LAYER_1
 10
184.6526
 20
182.1317
  0
VERTEX
  8
LAYER_1
 10
184.5648
 20
182.2206
  0
VERTEX
  8
LAYER_1
 10
184.6526
 20
182.3081
  0
SEQEND
  0
POLYLINE
  8
LAYER_1
 40
0.05
 41
0.05
 66
1
 10
0
 20
0
 30
0
  0
VERTEX
  8
LAYER_1
 10
183.2377
 20
182.3081
  0
VERTEX
  8
LAYER_1
 10
183.9457
 20
182.3081
  0
VERTEX
  8
LAYER_1
 10
184.0335
 20
182.2206
  0
VERTEX
  8
LAYER_1
 10
183.9457
 20
182.1317
  0
VERTEX
  8
LAYER_1
 10
183.2377
 20
182.1317
  0
VERTEX
  8
LAYER_1
 10
183.1499
 20
182.2206
  0
VERTEX
  8
LAYER_1
 10
183.2377
 20
182.3081
  0
SEQEND
  0
POLYLINE
  8
LAYER_1
 40
0.05
 41
0.05
 66
1
 10
0
 20
0
 30
0
  0
VERTEX
  8
LAYER_1
 10
181.8228
 20
182.3081
  0
VERTEX
  8
LAYER_1
 10
182.5308
 20
182.3081
  0
VERTEX
  8
LAYER_1
 10
182.6187
 20
182.2206
  0
VERTEX
  8
LAYER_1
 10
182.5308
 20
182.1317
  0
VERTEX
  8
LAYER_1
 10
181.8228
 20
182.1317
  0
VERTEX
  8
LAYER_1
 10
181.7357
 20
182.2206
  0
VERTEX
  8
LAYER_1
 10
181.8228
 20
182.3081
  0
SEQEND
  0
POLYLINE
  8
LAYER_1
 40
0.05
 41
0.05
 66
1
 10
0
 20
0
 30
0
  0
VERTEX
  8
LAYER_1
 10
180.4093
 20
182.3081
  0
VERTEX
  8
LAYER_1
 10
181.1159
 20
182.3081
  0
VERTEX
  8
LAYER_1
 10
181.2048
 20
182.2206
  0
VERTEX
  8
LAYER_1
 10
181.1159
 20
182.1317
  0
VERTEX
  8
LAYER_1
 10
180.4093
 20
182.1317
  0
VERTEX
  8
LAYER_1
 10
180.3201
 20
182.2206
  0
VERTEX
  8
LAYER_1
 10
180.4093
 20
182.3081
  0
SEQEND
  0
POLYLINE
  8
LAYER_1
 40
0.05
 41
0.05
 66
1
 10
0
 20
0
 30
0
  0
VERTEX
  8
LAYER_1
 10
178.9944
 20
182.3081
  0
VERTEX
  8
LAYER_1
 10
179.7013
 20
182.3081
  0
VERTEX
  8
LAYER_1
 10
179.7902
 20
182.2206
  0
VERTEX
  8
LAYER_1
 10
179.7013
 20
182.1317
  0
VERTEX
  8
LAYER_1
 10
178.9944
 20
182.1317
  0
VERTEX
  8
LAYER_1
 10
178.9059
 20
182.2206
  0
VERTEX
  8
LAYER_1
 10
178.9944
 20
182.3081
  0
SEQEND
  0
POLYLINE
  8
LAYER_1
 40
0.05
 41
0.05
 66
1
 10
0
 20
0
 30
0
  0
VERTEX
  8
LAYER_1
 10
177.5795
 20
182.3081
  0
VERTEX
  8
LAYER_1
 10
178.2868
 20
182.3081
  0
VERTEX
  8
LAYER_1
 10
178.3753
 20
182.2206
  0
VERTEX
  8
LAYER_1
 10
178.2868
 20
182.1317
  0
VERTEX
  8
LAYER_1
 10
177.5795
 20
182.1317
  0
VERTEX
  8
LAYER_1
 10
177.4917
 20
182.2206
  0
VERTEX
  8
LAYER_1
 10
177.5795
 20
182.3081
  0
SEQEND
  0
POLYLINE
  8
LAYER_1
 40
0.05
 41
0.05
 66
1
 10
0
 20
0
 30
0
  0
VERTEX
  8
LAYER_1
 10
176.1646
 20
182.3081
  0
VERTEX
  8
LAYER_1
 10
176.8726
 20
182.3081
  0
VERTEX
  8
LAYER_1
 10
176.9604
 20
182.2206
  0
VERTEX
  8
LAYER_1
 10
176.8726
 20
182.1317
  0
VERTEX
  8
LAYER_1
 10
176.1646
 20
182.1317
  0
VERTEX
  8
LAYER_1
 10
176.0767
 20
182.2206
  0
VERTEX
  8
LAYER_1
 10
176.1646
 20
182.3081
  0
SEQEND
  0
POLYLINE
  8
LAYER_1
 40
0.05
 41
0.05
 66
1
 10
0
 20
0
 30
0
  0
VERTEX
  8
LAYER_1
 10
174.7504
 20
182.3081
  0
VERTEX
  8
LAYER_1
 10
175.4584
 20
182.3081
  0
VERTEX
  8
LAYER_1
 10
175.5455
 20
182.2206
  0
VERTEX
  8
LAYER_1
 10
175.4584
 20
182.1317
  0
VERTEX
  8
LAYER_1
 10
174.7504
 20
182.1317
  0
VERTEX
  8
LAYER_1
 10
174.6625
 20
182.2206
  0
VERTEX
  8
LAYER_1
 10
174.7504
 20
182.3081
  0
SEQEND
  0
POLYLINE
  8
LAYER_1
 40
0.05
 41
0.05
 66
1
 10
0
 20
0
 30
0
  0
VERTEX
  8
LAYER_1
 10
173.3358
 20
182.3081
  0
VERTEX
  8
LAYER_1
 10
174.0428
 20
182.3081
  0
VERTEX
  8
LAYER_1
 10
174.1317
 20
182.2206
  0
VERTEX
  8
LAYER_1
 10
174.0428
 20
182.1317
  0
VERTEX
  8
LAYER_1
 10
173.3358
 20
182.1317
  0
VERTEX
  8
LAYER_1
 10
173.247
 20
182.2206
  0
VERTEX
  8
LAYER_1
 10
173.3358
 20
182.3081
  0
SEQEND
  0
POLYLINE
  8
LAYER_1
 40
0.05
 41
0.05
 66
1
 10
0
 20
0
 30
0
  0
VERTEX
  8
LAYER_1
 10
171.9216
 20
182.3081
  0
VERTEX
  8
LAYER_1
 10
172.6279
 20
182.3081
  0
VERTEX
  8
LAYER_1
 10
172.7168
 20
182.2206
  0
VERTEX
  8
LAYER_1
 10
172.6279
 20
182.1317
  0
VERTEX
  8
LAYER_1
 10
171.9216
 20
182.1317
  0
VERTEX
  8
LAYER_1
 10
171.8328
 20
182.2206
  0
VERTEX
  8
LAYER_1
 10
171.9216
 20
182.3081
  0
SEQEND
  0
POLYLINE
  8
LAYER_1
 40
0.05
 41
0.05
 66
1
 10
0
 20
0
 30
0
  0
VERTEX
  8
LAYER_1
 10
170.506
 20
182.3081
  0
VERTEX
  8
LAYER_1
 10
171.2137
 20
182.3081
  0
VERTEX
  8
LAYER_1
 10
171.3025
 20
182.2206
  0
VERTEX
  8
LAYER_1
 10
171.2137
 20
182.1317
  0
VERTEX
  8
LAYER_1
 10
170.506
 20
182.1317
  0
VERTEX
  8
LAYER_1
 10
170.4182
 20
182.2206
  0
VERTEX
  8
LAYER_1
 10
170.506
 20
182.3081
  0
SEQEND
  0
POLYLINE
  8
LAYER_1
 40
0.05
 41
0.05
 66
1
 10
0
 20
0
 30
0
  0
VERTEX
  8
LAYER_1
 10
169.0918
 20
182.3081
  0
VERTEX
  8
LAYER_1
 10
169.7991
 20
182.3081
  0
VERTEX
  8
LAYER_1
 10
169.8869
 20
182.2206
  0
VERTEX
  8
LAYER_1
 10
169.7991
 20
182.1317
  0
VERTEX
  8
LAYER_1
 10
169.0918
 20
182.1317
  0
VERTEX
  8
LAYER_1
 10
169.004
 20
182.2206
  0
VERTEX
  8
LAYER_1
 10
169.0918
 20
182.3081
  0
SEQEND
  0
POLYLINE
  8
LAYER_1
 40
0.05
 41
0.05
 66
1
 10
0
 20
0
 30
0
  0
VERTEX
  8
LAYER_1
 10
167.6769
 20
182.3081
  0
VERTEX
  8
LAYER_1
 10
168.3849
 20
182.3081
  0
VERTEX
  8
LAYER_1
 10
168.4727
 20
182.2206
  0
VERTEX
  8
LAYER_1
 10
168.3849
 20
182.1317
  0
VERTEX
  8
LAYER_1
 10
167.6769
 20
182.1317
  0
VERTEX
  8
LAYER_1
 10
167.5891
 20
182.2206
  0
VERTEX
  8
LAYER_1
 10
167.6769
 20
182.3081
  0
SEQEND
  0
POLYLINE
  8
LAYER_1
 40
0.05
 41
0.05
 66
1
 10
0
 20
0
 30
0
  0
VERTEX
  8
LAYER_1
 10
166.2631
 20
182.3081
  0
VERTEX
  8
LAYER_1
 10
166.9696
 20
182.3081
  0
VERTEX
  8
LAYER_1
 10
167.0578
 20
182.2206
  0
VERTEX
  8
LAYER_1
 10
166.9696
 20
182.1317
  0
VERTEX
  8
LAYER_1
 10
166.2631
 20
182.1317
  0
VERTEX
  8
LAYER_1
 10
166.1742
 20
182.2206
  0
VERTEX
  8
LAYER_1
 10
166.2631
 20
182.3081
  0
SEQEND
  0
POLYLINE
  8
LAYER_1
 40
0.05
 41
0.05
 66
1
 10
0
 20
0
 30
0
  0
VERTEX
  8
LAYER_1
 10
164.8481
 20
182.3081
  0
VERTEX
  8
LAYER_1
 10
165.5551
 20
182.3081
  0
VERTEX
  8
LAYER_1
 10
165.644
 20
182.2206
  0
VERTEX
  8
LAYER_1
 10
165.5551
 20
182.1317
  0
VERTEX
  8
LAYER_1
 10
164.8481
 20
182.1317
  0
VERTEX
  8
LAYER_1
 10
164.7593
 20
182.2206
  0
VERTEX
  8
LAYER_1
 10
164.8481
 20
182.3081
  0
SEQEND
  0
POLYLINE
  8
LAYER_1
 40
0.05
 41
0.05
 66
1
 10
0
 20
0
 30
0
  0
VERTEX
  8
LAYER_1
 10
163.4329
 20
182.3081
  0
VERTEX
  8
LAYER_1
 10
164.1402
 20
182.3081
  0
VERTEX
  8
LAYER_1
 10
164.2294
 20
182.2206
  0
VERTEX
  8
LAYER_1
 10
164.1402
 20
182.1317
  0
VERTEX
  8
LAYER_1
 10
163.4329
 20
182.1317
  0
VERTEX
  8
LAYER_1
 10
163.3457
 20
182.2206
  0
VERTEX
  8
LAYER_1
 10
163.4329
 20
182.3081
  0
SEQEND
  0
POLYLINE
  8
LAYER_1
 40
0.05
 41
0.05
 66
1
 10
0
 20
0
 30
0
  0
VERTEX
  8
LAYER_1
 10
162.0187
 20
182.3081
  0
VERTEX
  8
LAYER_1
 10
162.7267
 20
182.3081
  0
VERTEX
  8
LAYER_1
 10
162.8145
 20
182.2206
  0
VERTEX
  8
LAYER_1
 10
162.7267
 20
182.1317
  0
VERTEX
  8
LAYER_1
 10
162.0187
 20
182.1317
  0
VERTEX
  8
LAYER_1
 10
161.9309
 20
182.2206
  0
VERTEX
  8
LAYER_1
 10
162.0187
 20
182.3081
  0
SEQEND
  0
POLYLINE
  8
LAYER_1
 40
0.05
 41
0.05
 66
1
 10
0
 20
0
 30
0
  0
VERTEX
  8
LAYER_1
 10
160.6038
 20
182.3081
  0
VERTEX
  8
LAYER_1
 10
161.3118
 20
182.3081
  0
VERTEX
  8
LAYER_1
 10
161.3996
 20
182.2206
  0
VERTEX
  8
LAYER_1
 10
161.3118
 20
182.1317
  0
VERTEX
  8
LAYER_1
 10
160.6038
 20
182.1317
  0
VERTEX
  8
LAYER_1
 10
160.5163
 20
182.2206
  0
VERTEX
  8
LAYER_1
 10
160.6038
 20
182.3081
  0
SEQEND
  0
POLYLINE
  8
LAYER_1
 40
0.05
 41
0.05
 66
1
 10
0
 20
0
 30
0
  0
VERTEX
  8
LAYER_1
 10
159.1899
 20
182.3081
  0
VERTEX
  8
LAYER_1
 10
159.8969
 20
182.3081
  0
VERTEX
  8
LAYER_1
 10
159.9847
 20
182.2206
  0
VERTEX
  8
LAYER_1
 10
159.8969
 20
182.1317
  0
VERTEX
  8
LAYER_1
 10
159.1899
 20
182.1317
  0
VERTEX
  8
LAYER_1
 10
159.101
 20
182.2206
  0
VERTEX
  8
LAYER_1
 10
159.1899
 20
182.3081
  0
SEQEND
  0
POLYLINE
  8
LAYER_1
 40
0.05
 41
0.05
 66
1
 10
0
 20
0
 30
0
  0
VERTEX
  8
LAYER_1
 10
157.775
 20
182.3081
  0
VERTEX
  8
LAYER_1
 10
158.482
 20
182.3081
  0
VERTEX
  8
LAYER_1
 10
158.5709
 20
182.2206
  0
VERTEX
  8
LAYER_1
 10
158.482
 20
182.1317
  0
VERTEX
  8
LAYER_1
 10
157.775
 20
182.1317
  0
VERTEX
  8
LAYER_1
 10
157.6862
 20
182.2206
  0
VERTEX
  8
LAYER_1
 10
157.775
 20
182.3081
  0
SEQEND
  0
POLYLINE
  8
LAYER_1
 40
0.05
 41
0.05
 66
1
 10
0
 20
0
 30
0
  0
VERTEX
  8
LAYER_1
 10
156.3601
 20
182.3081
  0
VERTEX
  8
LAYER_1
 10
157.0677
 20
182.3081
  0
VERTEX
  8
LAYER_1
 10
157.1559
 20
182.2206
  0
VERTEX
  8
LAYER_1
 10
157.0677
 20
182.1317
  0
VERTEX
  8
LAYER_1
 10
156.3601
 20
182.1317
  0
VERTEX
  8
LAYER_1
 10
156.2723
 20
182.2206
  0
VERTEX
  8
LAYER_1
 10
156.3601
 20
182.3081
  0
SEQEND
  0
POLYLINE
  8
LAYER_1
 40
0.05
 41
0.05
 66
1
 10
0
 20
0
 30
0
  0
VERTEX
  8
LAYER_1
 10
154.9452
 20
182.3081
  0
VERTEX
  8
LAYER_1
 10
155.6532
 20
182.3081
  0
VERTEX
  8
LAYER_1
 10
155.741
 20
182.2206
  0
VERTEX
  8
LAYER_1
 10
155.6532
 20
182.1317
  0
VERTEX
  8
LAYER_1
 10
154.9452
 20
182.1317
  0
VERTEX
  8
LAYER_1
 10
154.8574
 20
182.2206
  0
VERTEX
  8
LAYER_1
 10
154.9452
 20
182.3081
  0
SEQEND
  0
POLYLINE
  8
LAYER_1
 40
0.05
 41
0.05
 66
1
 10
0
 20
0
 30
0
  0
VERTEX
  8
LAYER_1
 10
153.531
 20
182.3081
  0
VERTEX
  8
LAYER_1
 10
154.239
 20
182.3081
  0
VERTEX
  8
LAYER_1
 10
154.3262
 20
182.2206
  0
VERTEX
  8
LAYER_1
 10
154.239
 20
182.1317
  0
VERTEX
  8
LAYER_1
 10
153.531
 20
182.1317
  0
VERTEX
  8
LAYER_1
 10
153.4432
 20
182.2206
  0
VERTEX
  8
LAYER_1
 10
153.531
 20
182.3081
  0
SEQEND
  0
POLYLINE
  8
LAYER_1
 40
0.05
 41
0.05
 66
1
 10
0
 20
0
 30
0
  0
VERTEX
  8
LAYER_1
 10
152.1168
 20
182.3081
  0
VERTEX
  8
LAYER_1
 10
152.8241
 20
182.3081
  0
VERTEX
  8
LAYER_1
 10
152.9119
 20
182.2206
  0
VERTEX
  8
LAYER_1
 10
152.8241
 20
182.1317
  0
VERTEX
  8
LAYER_1
 10
152.1168
 20
182.1317
  0
VERTEX
  8
LAYER_1
 10
152.0279
 20
182.2206
  0
VERTEX
  8
LAYER_1
 10
152.1168
 20
182.3081
  0
SEQEND
  0
POLYLINE
  8
LAYER_1
 40
0.05
 41
0.05
 66
1
 10
0
 20
0
 30
0
  0
VERTEX
  8
LAYER_1
 10
150.7023
 20
182.3081
  0
VERTEX
  8
LAYER_1
 10
151.4088
 20
182.3081
  0
VERTEX
  8
LAYER_1
 10
151.4977
 20
182.2206
  0
VERTEX
  8
LAYER_1
 10
151.4088
 20
182.1317
  0
VERTEX
  8
LAYER_1
 10
150.7023
 20
182.1317
  0
VERTEX
  8
LAYER_1
 10
150.6134
 20
182.2206
  0
VERTEX
  8
LAYER_1
 10
150.7023
 20
182.3081
  0
SEQEND
  0
POLYLINE
  8
LAYER_1
 40
0.05
 41
0.05
 66
1
 10
0
 20
0
 30
0
  0
VERTEX
  8
LAYER_1
 10
149.2874
 20
182.3081
  0
VERTEX
  8
LAYER_1
 10
149.9943
 20
182.3081
  0
VERTEX
  8
LAYER_1
 10
150.0832
 20
182.2206
  0
VERTEX
  8
LAYER_1
 10
149.9943
 20
182.1317
  0
VERTEX
  8
LAYER_1
 10
149.2874
 20
182.1317
  0
VERTEX
  8
LAYER_1
 10
149.1985
 20
182.2206
  0
VERTEX
  8
LAYER_1
 10
149.2874
 20
182.3081
  0
SEQEND
  0
POLYLINE
  8
LAYER_1
 40
0.05
 41
0.05
 66
1
 10
0
 20
0
 30
0
  0
VERTEX
  8
LAYER_1
 10
147.8728
 20
182.3081
  0
VERTEX
  8
LAYER_1
 10
148.5801
 20
182.3081
  0
VERTEX
  8
LAYER_1
 10
148.6679
 20
182.2206
  0
VERTEX
  8
LAYER_1
 10
148.5801
 20
182.1317
  0
VERTEX
  8
LAYER_1
 10
147.8728
 20
182.1317
  0
VERTEX
  8
LAYER_1
 10
147.785
 20
182.2206
  0
VERTEX
  8
LAYER_1
 10
147.8728
 20
182.3081
  0
SEQEND
  0
POLYLINE
  8
LAYER_1
 40
0.05
 41
0.05
 66
1
 10
0
 20
0
 30
0
  0
VERTEX
  8
LAYER_1
 10
146.4579
 20
182.3081
  0
VERTEX
  8
LAYER_1
 10
147.1659
 20
182.3081
  0
VERTEX
  8
LAYER_1
 10
147.2537
 20
182.2206
  0
VERTEX
  8
LAYER_1
 10
147.1659
 20
182.1317
  0
VERTEX
  8
LAYER_1
 10
146.4579
 20
182.1317
  0
VERTEX
  8
LAYER_1
 10
146.37
 20
182.2206
  0
VERTEX
  8
LAYER_1
 10
146.4579
 20
182.3081
  0
SEQEND
  0
POLYLINE
  8
LAYER_1
 40
0.05
 41
0.05
 66
1
 10
0
 20
0
 30
0
  0
VERTEX
  8
LAYER_1
 10
145.044
 20
182.3081
  0
VERTEX
  8
LAYER_1
 10
145.7509
 20
182.3081
  0
VERTEX
  8
LAYER_1
 10
145.8388
 20
182.2206
  0
VERTEX
  8
LAYER_1
 10
145.7509
 20
182.1317
  0
VERTEX
  8
LAYER_1
 10
145.044
 20
182.1317
  0
VERTEX
  8
LAYER_1
 10
144.9552
 20
182.2206
  0
VERTEX
  8
LAYER_1
 10
145.044
 20
182.3081
  0
SEQEND
  0
POLYLINE
  8
LAYER_1
 40
0.05
 41
0.05
 66
1
 10
0
 20
0
 30
0
  0
VERTEX
  8
LAYER_1
 10
143.6291
 20
182.3081
  0
VERTEX
  8
LAYER_1
 10
144.3361
 20
182.3081
  0
VERTEX
  8
LAYER_1
 10
144.425
 20
182.2206
  0
VERTEX
  8
LAYER_1
 10
144.3361
 20
182.1317
  0
VERTEX
  8
LAYER_1
 10
143.6291
 20
182.1317
  0
VERTEX
  8
LAYER_1
 10
143.5402
 20
182.2206
  0
VERTEX
  8
LAYER_1
 10
143.6291
 20
182.3081
  0
SEQEND
  0
POLYLINE
  8
LAYER_1
 40
0.05
 41
0.05
 66
1
 10
0
 20
0
 30
0
  0
VERTEX
  8
LAYER_1
 10
142.2142
 20
182.3081
  0
VERTEX
  8
LAYER_1
 10
142.9212
 20
182.3081
  0
VERTEX
  8
LAYER_1
 10
143.01
 20
182.2206
  0
VERTEX
  8
LAYER_1
 10
142.9212
 20
182.1317
  0
VERTEX
  8
LAYER_1
 10
142.2142
 20
182.1317
  0
VERTEX
  8
LAYER_1
 10
142.1261
 20
182.2206
  0
VERTEX
  8
LAYER_1
 10
142.2142
 20
182.3081
  0
SEQEND
  0
POLYLINE
  8
LAYER_1
 40
0.05
 41
0.05
 66
1
 10
0
 20
0
 30
0
  0
VERTEX
  8
LAYER_1
 10
140.7993
 20
182.3081
  0
VERTEX
  8
LAYER_1
 10
141.5073
 20
182.3081
  0
VERTEX
  8
LAYER_1
 10
141.5948
 20
182.2206
  0
VERTEX
  8
LAYER_1
 10
141.5073
 20
182.1317
  0
VERTEX
  8
LAYER_1
 10
140.7993
 20
182.1317
  0
VERTEX
  8
LAYER_1
 10
140.7115
 20
182.2206
  0
VERTEX
  8
LAYER_1
 10
140.7993
 20
182.3081
  0
SEQEND
  0
POLYLINE
  8
LAYER_1
 40
0.05
 41
0.05
 66
1
 10
0
 20
0
 30
0
  0
VERTEX
  8
LAYER_1
 10
139.3844
 20
182.3081
  0
VERTEX
  8
LAYER_1
 10
140.0924
 20
182.3081
  0
VERTEX
  8
LAYER_1
 10
140.1802
 20
182.2206
  0
VERTEX
  8
LAYER_1
 10
140.0924
 20
182.1317
  0
VERTEX
  8
LAYER_1
 10
139.3844
 20
182.1317
  0
VERTEX
  8
LAYER_1
 10
139.2973
 20
182.2206
  0
VERTEX
  8
LAYER_1
 10
139.3844
 20
182.3081
  0
SEQEND
  0
POLYLINE
  8
LAYER_1
 40
0.05
 41
0.05
 66
1
 10
0
 20
0
 30
0
  0
VERTEX
  8
LAYER_1
 10
137.9709
 20
182.3081
  0
VERTEX
  8
LAYER_1
 10
138.6782
 20
182.3081
  0
VERTEX
  8
LAYER_1
 10
138.7653
 20
182.2206
  0
VERTEX
  8
LAYER_1
 10
138.6782
 20
182.1317
  0
VERTEX
  8
LAYER_1
 10
137.9709
 20
182.1317
  0
VERTEX
  8
LAYER_1
 10
137.882
 20
182.2206
  0
VERTEX
  8
LAYER_1
 10
137.9709
 20
182.3081
  0
SEQEND
  0
POLYLINE
  8
LAYER_1
 40
0.05
 41
0.05
 66
1
 10
0
 20
0
 30
0
  0
VERTEX
  8
LAYER_1
 10
136.556
 20
182.3081
  0
VERTEX
  8
LAYER_1
 10
137.2629
 20
182.3081
  0
VERTEX
  8
LAYER_1
 10
137.3518
 20
182.2206
  0
VERTEX
  8
LAYER_1
 10
137.2629
 20
182.1317
  0
VERTEX
  8
LAYER_1
 10
136.556
 20
182.1317
  0
VERTEX
  8
LAYER_1
 10
136.4671
 20
182.2206
  0
VERTEX
  8
LAYER_1
 10
136.556
 20
182.3081
  0
SEQEND
  0
POLYLINE
  8
LAYER_1
 40
0.05
 41
0.05
 66
1
 10
0
 20
0
 30
0
  0
VERTEX
  8
LAYER_1
 10
135.1414
 20
182.3081
  0
VERTEX
  8
LAYER_1
 10
135.8481
 20
182.3081
  0
VERTEX
  8
LAYER_1
 10
135.9369
 20
182.2206
  0
VERTEX
  8
LAYER_1
 10
135.8481
 20
182.1317
  0
VERTEX
  8
LAYER_1
 10
135.1414
 20
182.1317
  0
VERTEX
  8
LAYER_1
 10
135.0526
 20
182.2206
  0
VERTEX
  8
LAYER_1
 10
135.1414
 20
182.3081
  0
SEQEND
  0
POLYLINE
  8
LAYER_1
 40
0.05
 41
0.05
 66
1
 10
0
 20
0
 30
0
  0
VERTEX
  8
LAYER_1
 10
133.7262
 20
182.3081
  0
VERTEX
  8
LAYER_1
 10
134.4342
 20
182.3081
  0
VERTEX
  8
LAYER_1
 10
134.522
 20
182.2206
  0
VERTEX
  8
LAYER_1
 10
134.4342
 20
182.1317
  0
VERTEX
  8
LAYER_1
 10
133.7262
 20
182.1317
  0
VERTEX
  8
LAYER_1
 10
133.6384
 20
182.2206
  0
VERTEX
  8
LAYER_1
 10
133.7262
 20
182.3081
  0
SEQEND
  0
POLYLINE
  8
LAYER_1
 40
0.05
 41
0.05
 66
1
 10
0
 20
0
 30
0
  0
VERTEX
  8
LAYER_1
 10
132.2638
 20
182.1331
 42
-0.2542280954
  0
VERTEX
  8
LAYER_1
 10
132.3588
 20
182.2702
 42
-0.1223966212
  0
VERTEX
  8
LAYER_1
 10
132.5184
 20
182.3081
  0
VERTEX
  8
LAYER_1
 10
133.0193
 20
182.3081
  0
VERTEX
  8
LAYER_1
 10
133.1071
 20
182.2206
  0
VERTEX
  8
LAYER_1
 10
133.0193
 20
182.1317
  0
VERTEX
  8
LAYER_1
 10
132.5184
 20
182.1317
  0
VERTEX
  8
LAYER_1
 10
132.445
 20
182.1158
  0
VERTEX
  8
LAYER_1
 10
132.4357
 20
182.1096
  0
VERTEX
  8
LAYER_1
 10
132.4171
 20
182.1237
  0
VERTEX
  8
LAYER_1
 10
132.4394
 20
182.1227
  0
VERTEX
  8
LAYER_1
 10
132.4357
 20
182.1096
  0
VERTEX
  8
LAYER_1
 10
132.4171
 20
182.1237
  0
VERTEX
  8
LAYER_1
 10
132.4394
 20
182.1227
  0
VERTEX
  8
LAYER_1
 10
132.3464
 20
182.0394
  0
VERTEX
  8
LAYER_1
 10
132.2638
 20
182.1331
  0
SEQEND
  0
POLYLINE
  8
LAYER_1
 40
0.05
 41
0.05
 66
1
 10
0
 20
0
 30
0
  0
VERTEX
  8
LAYER_1
 10
132.2634
 20
180.713
  0
VERTEX
  8
LAYER_1
 10
132.2634
 20
181.421
  0
VERTEX
  8
LAYER_1
 10
132.3516
 20
181.5092
  0
VERTEX
  8
LAYER_1
 10
132.4394
 20
181.421
  0
VERTEX
  8
LAYER_1
 10
132.4394
 20
180.713
  0
VERTEX
  8
LAYER_1
 10
132.3516
 20
180.6255
  0
VERTEX
  8
LAYER_1
 10
132.2634
 20
180.713
  0
SEQEND
  0
POLYLINE
  8
LAYER_1
 40
0.05
 41
0.05
 66
1
 10
0
 20
0
 30
0
  0
VERTEX
  8
LAYER_1
 10
132.2634
 20
179.2985
  0
VERTEX
  8
LAYER_1
 10
132.2634
 20
180.0064
  0
VERTEX
  8
LAYER_1
 10
132.3516
 20
180.0943
  0
VERTEX
  8
LAYER_1
 10
132.4394
 20
180.0064
  0
VERTEX
  8
LAYER_1
 10
132.4394
 20
179.2985
  0
VERTEX
  8
LAYER_1
 10
132.3516
 20
179.2109
  0
VERTEX
  8
LAYER_1
 10
132.2634
 20
179.2985
  0
SEQEND
  0
POLYLINE
  8
LAYER_1
 40
0.05
 41
0.05
 66
1
 10
0
 20
0
 30
0
  0
VERTEX
  8
LAYER_1
 10
132.2634
 20
177.8842
  0
VERTEX
  8
LAYER_1
 10
132.2634
 20
178.5918
  0
VERTEX
  8
LAYER_1
 10
132.3516
 20
178.6797
  0
VERTEX
  8
LAYER_1
 10
132.4394
 20
178.5918
  0
VERTEX
  8
LAYER_1
 10
132.4394
 20
177.8842
  0
VERTEX
  8
LAYER_1
 10
132.3516
 20
177.796
  0
VERTEX
  8
LAYER_1
 10
132.2634
 20
177.8842
  0
SEQEND
  0
POLYLINE
  8
LAYER_1
 40
0.05
 41
0.05
 66
1
 10
0
 20
0
 30
0
  0
VERTEX
  8
LAYER_1
 10
132.2634
 20
176.4697
  0
VERTEX
  8
LAYER_1
 10
132.2634
 20
177.1766
  0
VERTEX
  8
LAYER_1
 10
132.3516
 20
177.2651
  0
VERTEX
  8
LAYER_1
 10
132.4394
 20
177.1766
  0
VERTEX
  8
LAYER_1
 10
132.4394
 20
176.4697
  0
VERTEX
  8
LAYER_1
 10
132.3516
 20
176.3811
  0
VERTEX
  8
LAYER_1
 10
132.2634
 20
176.4697
  0
SEQEND
  0
POLYLINE
  8
LAYER_1
 40
0.05
 41
0.05
 66
1
 10
0
 20
0
 30
0
  0
VERTEX
  8
LAYER_1
 10
132.2634
 20
175.0551
  0
VERTEX
  8
LAYER_1
 10
132.2634
 20
175.762
  0
VERTEX
  8
LAYER_1
 10
132.3516
 20
175.8506
  0
VERTEX
  8
LAYER_1
 10
132.4394
 20
175.762
  0
VERTEX
  8
LAYER_1
 10
132.4394
 20
175.0551
  0
VERTEX
  8
LAYER_1
 10
132.3516
 20
174.9662
  0
VERTEX
  8
LAYER_1
 10
132.2634
 20
175.0551
  0
SEQEND
  0
POLYLINE
  8
LAYER_1
 40
0.05
 41
0.05
 66
1
 10
0
 20
0
 30
0
  0
VERTEX
  8
LAYER_1
 10
132.2634
 20
173.6406
  0
VERTEX
  8
LAYER_1
 10
132.2634
 20
174.3479
  0
VERTEX
  8
LAYER_1
 10
132.3516
 20
174.436
  0
VERTEX
  8
LAYER_1
 10
132.4394
 20
174.3479
  0
VERTEX
  8
LAYER_1
 10
132.4394
 20
173.6406
  0
VERTEX
  8
LAYER_1
 10
132.3516
 20
173.552
  0
VERTEX
  8
LAYER_1
 10
132.2634
 20
173.6406
  0
SEQEND
  0
POLYLINE
  8
LAYER_1
 40
0.05
 41
0.05
 66
1
 10
0
 20
0
 30
0
  0
VERTEX
  8
LAYER_1
 10
132.2634
 20
172.2253
  0
VERTEX
  8
LAYER_1
 10
132.2634
 20
172.9333
  0
VERTEX
  8
LAYER_1
 10
132.3516
 20
173.0208
  0
VERTEX
  8
LAYER_1
 10
132.4394
 20
172.9333
  0
VERTEX
  8
LAYER_1
 10
132.4394
 20
172.2253
  0
VERTEX
  8
LAYER_1
 10
132.3516
 20
172.1375
  0
VERTEX
  8
LAYER_1
 10
132.2634
 20
172.2253
  0
SEQEND
  0
POLYLINE
  8
LAYER_1
 40
0.05
 41
0.05
 66
1
 10
0
 20
0
 30
0
  0
VERTEX
  8
LAYER_1
 10
132.2634
 20
170.8114
  0
VERTEX
  8
LAYER_1
 10
132.2634
 20
171.5184
  0
VERTEX
  8
LAYER_1
 10
132.3516
 20
171.6062
  0
VERTEX
  8
LAYER_1
 10
132.4394
 20
171.5184
  0
VERTEX
  8
LAYER_1
 10
132.4394
 20
170.8114
  0
VERTEX
  8
LAYER_1
 10
132.3516
 20
170.7229
  0
VERTEX
  8
LAYER_1
 10
132.2634
 20
170.8114
  0
SEQEND
  0
POLYLINE
  8
LAYER_1
 40
0.05
 41
0.05
 66
1
 10
0
 20
0
 30
0
  0
VERTEX
  8
LAYER_1
 10
132.2634
 20
169.3965
  0
VERTEX
  8
LAYER_1
 10
132.2634
 20
170.1038
  0
VERTEX
  8
LAYER_1
 10
132.3516
 20
170.1924
  0
VERTEX
  8
LAYER_1
 10
132.4394
 20
170.1038
  0
VERTEX
  8
LAYER_1
 10
132.4394
 20
169.3965
  0
VERTEX
  8
LAYER_1
 10
132.3516
 20
169.3076
  0
VERTEX
  8
LAYER_1
 10
132.2634
 20
169.3965
  0
SEQEND
  0
POLYLINE
  8
LAYER_1
 40
0.05
 41
0.05
 66
1
 10
0
 20
0
 30
0
  0
VERTEX
  8
LAYER_1
 10
132.2634
 20
167.982
  0
VERTEX
  8
LAYER_1
 10
132.2634
 20
168.6886
  0
VERTEX
  8
LAYER_1
 10
132.3516
 20
168.7778
  0
VERTEX
  8
LAYER_1
 10
132.4394
 20
168.6886
  0
VERTEX
  8
LAYER_1
 10
132.4394
 20
167.982
  0
VERTEX
  8
LAYER_1
 10
132.3516
 20
167.8931
  0
VERTEX
  8
LAYER_1
 10
132.2634
 20
167.982
  0
SEQEND
  0
POLYLINE
  8
LAYER_1
 40
0.05
 41
0.05
 66
1
 10
0
 20
0
 30
0
  0
VERTEX
  8
LAYER_1
 10
132.2634
 20
166.5674
  0
VERTEX
  8
LAYER_1
 10
132.2634
 20
167.2747
  0
VERTEX
  8
LAYER_1
 10
132.3516
 20
167.3629
  0
VERTEX
  8
LAYER_1
 10
132.4394
 20
167.2747
  0
VERTEX
  8
LAYER_1
 10
132.4394
 20
166.5674
  0
VERTEX
  8
LAYER_1
 10
132.3516
 20
166.4793
  0
VERTEX
  8
LAYER_1
 10
132.2634
 20
166.5674
  0
SEQEND
  0
POLYLINE
  8
LAYER_1
 40
0.05
 41
0.05
 66
1
 10
0
 20
0
 30
0
  0
VERTEX
  8
LAYER_1
 10
132.2634
 20
165.1525
  0
VERTEX
  8
LAYER_1
 10
132.2634
 20
165.8602
  0
VERTEX
  8
LAYER_1
 10
132.3516
 20
165.948
  0
VERTEX
  8
LAYER_1
 10
132.4394
 20
165.8602
  0
VERTEX
  8
LAYER_1
 10
132.4394
 20
165.1525
  0
VERTEX
  8
LAYER_1
 10
132.3516
 20
165.0647
  0
VERTEX
  8
LAYER_1
 10
132.2634
 20
165.1525
  0
SEQEND
  0
POLYLINE
  8
LAYER_1
 40
0.05
 41
0.05
 66
1
 10
0
 20
0
 30
0
  0
VERTEX
  8
LAYER_1
 10
132.2634
 20
163.7383
  0
VERTEX
  8
LAYER_1
 10
132.2634
 20
164.4456
  0
VERTEX
  8
LAYER_1
 10
132.3516
 20
164.5334
  0
VERTEX
  8
LAYER_1
 10
132.4394
 20
164.4456
  0
VERTEX
  8
LAYER_1
 10
132.4394
 20
163.7383
  0
VERTEX
  8
LAYER_1
 10
132.3516
 20
163.6501
  0
VERTEX
  8
LAYER_1
 10
132.2634
 20
163.7383
  0
SEQEND
  0
POLYLINE
  8
LAYER_1
 40
0.05
 41
0.05
 66
1
 10
0
 20
0
 30
0
  0
VERTEX
  8
LAYER_1
 10
132.2634
 20
162.3234
  0
VERTEX
  8
LAYER_1
 10
132.2634
 20
163.0311
  0
VERTEX
  8
LAYER_1
 10
132.3516
 20
163.1193
  0
VERTEX
  8
LAYER_1
 10
132.4394
 20
163.0311
  0
VERTEX
  8
LAYER_1
 10
132.4394
 20
162.3234
  0
VERTEX
  8
LAYER_1
 10
132.3516
 20
162.2349
  0
VERTEX
  8
LAYER_1
 10
132.2634
 20
162.3234
  0
SEQEND
  0
POLYLINE
  8
LAYER_1
 40
0.05
 41
0.05
 66
1
 10
0
 20
0
 30
0
  0
VERTEX
  8
LAYER_1
 10
132.2634
 20
160.9089
  0
VERTEX
  8
LAYER_1
 10
132.2634
 20
161.6158
  0
VERTEX
  8
LAYER_1
 10
132.3516
 20
161.7047
  0
VERTEX
  8
LAYER_1
 10
132.4394
 20
161.6158
  0
VERTEX
  8
LAYER_1
 10
132.4394
 20
160.9089
  0
VERTEX
  8
LAYER_1
 10
132.3516
 20
160.8203
  0
VERTEX
  8
LAYER_1
 10
132.2634
 20
160.9089
  0
SEQEND
  0
POLYLINE
  8
LAYER_1
 40
0.05
 41
0.05
 66
1
 10
0
 20
0
 30
0
  0
VERTEX
  8
LAYER_1
 10
132.2634
 20
159.4943
  0
VERTEX
  8
LAYER_1
 10
132.2634
 20
160.2013
  0
VERTEX
  8
LAYER_1
 10
132.3516
 20
160.2901
  0
VERTEX
  8
LAYER_1
 10
132.4394
 20
160.2013
  0
VERTEX
  8
LAYER_1
 10
132.4394
 20
159.4943
  0
VERTEX
  8
LAYER_1
 10
132.3516
 20
159.4061
  0
VERTEX
  8
LAYER_1
 10
132.2634
 20
159.4943
  0
SEQEND
  0
POLYLINE
  8
LAYER_1
 40
0.05
 41
0.05
 66
1
 10
0
 20
0
 30
0
  0
VERTEX
  8
LAYER_1
 10
132.2634
 20
158.0794
  0
VERTEX
  8
LAYER_1
 10
132.2634
 20
158.787
  0
VERTEX
  8
LAYER_1
 10
132.3516
 20
158.8745
  0
VERTEX
  8
LAYER_1
 10
132.4394
 20
158.787
  0
VERTEX
  8
LAYER_1
 10
132.4394
 20
158.0794
  0
VERTEX
  8
LAYER_1
 10
132.3516
 20
157.9916
  0
VERTEX
  8
LAYER_1
 10
132.2634
 20
158.0794
  0
SEQEND
  0
POLYLINE
  8
LAYER_1
 40
0.05
 41
0.05
 66
1
 10
0
 20
0
 30
0
  0
VERTEX
  8
LAYER_1
 10
132.2634
 20
156.6645
  0
VERTEX
  8
LAYER_1
 10
132.2634
 20
157.3725
  0
VERTEX
  8
LAYER_1
 10
132.3516
 20
157.4603
  0
VERTEX
  8
LAYER_1
 10
132.4394
 20
157.3725
  0
VERTEX
  8
LAYER_1
 10
132.4394
 20
156.6645
  0
VERTEX
  8
LAYER_1
 10
132.3516
 20
156.5767
  0
VERTEX
  8
LAYER_1
 10
132.2634
 20
156.6645
  0
SEQEND
  0
POLYLINE
  8
LAYER_1
 40
0.05
 41
0.05
 66
1
 10
0
 20
0
 30
0
  0
VERTEX
  8
LAYER_1
 10
132.2634
 20
155.2507
  0
VERTEX
  8
LAYER_1
 10
132.2634
 20
155.9576
  0
VERTEX
  8
LAYER_1
 10
132.3516
 20
156.0461
  0
VERTEX
  8
LAYER_1
 10
132.4394
 20
155.9576
  0
VERTEX
  8
LAYER_1
 10
132.4394
 20
155.2507
  0
VERTEX
  8
LAYER_1
 10
132.3516
 20
155.1618
  0
VERTEX
  8
LAYER_1
 10
132.2634
 20
155.2507
  0
SEQEND
  0
POLYLINE
  8
LAYER_1
 40
0.05
 41
0.05
 66
1
 10
0
 20
0
 30
0
  0
VERTEX
  8
LAYER_1
 10
132.2634
 20
153.8357
  0
VERTEX
  8
LAYER_1
 10
132.2634
 20
154.5427
  0
VERTEX
  8
LAYER_1
 10
132.3516
 20
154.6316
  0
VERTEX
  8
LAYER_1
 10
132.4394
 20
154.5427
  0
VERTEX
  8
LAYER_1
 10
132.4394
 20
153.8357
  0
VERTEX
  8
LAYER_1
 10
132.3516
 20
153.7469
  0
VERTEX
  8
LAYER_1
 10
132.2634
 20
153.8357
  0
SEQEND
  0
POLYLINE
  8
LAYER_1
 40
0.05
 41
0.05
 66
1
 10
0
 20
0
 30
0
  0
VERTEX
  8
LAYER_1
 10
132.2634
 20
152.4212
  0
VERTEX
  8
LAYER_1
 10
132.2634
 20
153.1278
  0
VERTEX
  8
LAYER_1
 10
132.3516
 20
153.2166
  0
VERTEX
  8
LAYER_1
 10
132.4394
 20
153.1278
  0
VERTEX
  8
LAYER_1
 10
132.4394
 20
152.4212
  0
VERTEX
  8
LAYER_1
 10
132.3516
 20
152.3333
  0
VERTEX
  8
LAYER_1
 10
132.2634
 20
152.4212
  0
SEQEND
  0
POLYLINE
  8
LAYER_1
 40
0.05
 41
0.05
 66
1
 10
0
 20
0
 30
0
  0
VERTEX
  8
LAYER_1
 10
132.2634
 20
151.0063
  0
VERTEX
  8
LAYER_1
 10
132.2634
 20
151.7143
  0
VERTEX
  8
LAYER_1
 10
132.3516
 20
151.8021
  0
VERTEX
  8
LAYER_1
 10
132.4394
 20
151.7143
  0
VERTEX
  8
LAYER_1
 10
132.4394
 20
151.0063
  0
VERTEX
  8
LAYER_1
 10
132.3516
 20
150.9184
  0
VERTEX
  8
LAYER_1
 10
132.2634
 20
151.0063
  0
SEQEND
  0
POLYLINE
  8
LAYER_1
 40
0.05
 41
0.05
 66
1
 10
0
 20
0
 30
0
  0
VERTEX
  8
LAYER_1
 10
132.2634
 20
149.5914
  0
VERTEX
  8
LAYER_1
 10
132.2634
 20
150.2993
  0
VERTEX
  8
LAYER_1
 10
132.3516
 20
150.3872
  0
VERTEX
  8
LAYER_1
 10
132.4394
 20
150.2993
  0
VERTEX
  8
LAYER_1
 10
132.4394
 20
149.5914
  0
VERTEX
  8
LAYER_1
 10
132.3516
 20
149.5039
  0
VERTEX
  8
LAYER_1
 10
132.2634
 20
149.5914
  0
SEQEND
  0
POLYLINE
  8
LAYER_1
 40
0.05
 41
0.05
 66
1
 10
0
 20
0
 30
0
  0
VERTEX
  8
LAYER_1
 10
132.2634
 20
148.1775
  0
VERTEX
  8
LAYER_1
 10
132.2634
 20
148.8848
  0
VERTEX
  8
LAYER_1
 10
132.3516
 20
148.9727
  0
VERTEX
  8
LAYER_1
 10
132.4394
 20
148.8848
  0
VERTEX
  8
LAYER_1
 10
132.4394
 20
148.1775
  0
VERTEX
  8
LAYER_1
 10
132.3516
 20
148.0886
  0
VERTEX
  8
LAYER_1
 10
132.2634
 20
148.1775
  0
SEQEND
  0
POLYLINE
  8
LAYER_1
 40
0.05
 41
0.05
 66
1
 10
0
 20
0
 30
0
  0
VERTEX
  8
LAYER_1
 10
132.2634
 20
146.7626
  0
VERTEX
  8
LAYER_1
 10
132.2634
 20
147.4695
  0
VERTEX
  8
LAYER_1
 10
132.3516
 20
147.5584
  0
VERTEX
  8
LAYER_1
 10
132.4394
 20
147.4695
  0
VERTEX
  8
LAYER_1
 10
132.4394
 20
146.7626
  0
VERTEX
  8
LAYER_1
 10
132.3516
 20
146.6744
  0
VERTEX
  8
LAYER_1
 10
132.2634
 20
146.7626
  0
SEQEND
  0
POLYLINE
  8
LAYER_1
 40
0.05
 41
0.05
 66
1
 10
0
 20
0
 30
0
  0
VERTEX
  8
LAYER_1
 10
132.2634
 20
145.3484
  0
VERTEX
  8
LAYER_1
 10
132.2634
 20
146.0553
  0
VERTEX
  8
LAYER_1
 10
132.3516
 20
146.1435
  0
VERTEX
  8
LAYER_1
 10
132.4394
 20
146.0553
  0
VERTEX
  8
LAYER_1
 10
132.4394
 20
145.3484
  0
VERTEX
  8
LAYER_1
 10
132.3516
 20
145.2599
  0
VERTEX
  8
LAYER_1
 10
132.2634
 20
145.3484
  0
SEQEND
  0
POLYLINE
  8
LAYER_1
 40
0.05
 41
0.05
 66
1
 10
0
 20
0
 30
0
  0
VERTEX
  8
LAYER_1
 10
132.2634
 20
143.9328
  0
VERTEX
  8
LAYER_1
 10
132.2634
 20
144.6408
  0
VERTEX
  8
LAYER_1
 10
132.3516
 20
144.7286
  0
VERTEX
  8
LAYER_1
 10
132.4394
 20
144.6408
  0
VERTEX
  8
LAYER_1
 10
132.4394
 20
143.9328
  0
VERTEX
  8
LAYER_1
 10
132.3516
 20
143.845
  0
VERTEX
  8
LAYER_1
 10
132.2634
 20
143.9328
  0
SEQEND
  0
POLYLINE
  8
LAYER_1
 40
0.05
 41
0.05
 66
1
 10
0
 20
0
 30
0
  0
VERTEX
  8
LAYER_1
 10
132.2634
 20
142.5186
  0
VERTEX
  8
LAYER_1
 10
132.2634
 20
143.2266
  0
VERTEX
  8
LAYER_1
 10
132.3516
 20
143.3137
  0
VERTEX
  8
LAYER_1
 10
132.4394
 20
143.2266
  0
VERTEX
  8
LAYER_1
 10
132.4394
 20
142.5186
  0
VERTEX
  8
LAYER_1
 10
132.3516
 20
142.4307
  0
VERTEX
  8
LAYER_1
 10
132.2634
 20
142.5186
  0
SEQEND
  0
POLYLINE
  8
LAYER_1
 40
0.05
 41
0.05
 66
1
 10
0
 20
0
 30
0
  0
VERTEX
  8
LAYER_1
 10
132.2634
 20
141.1044
  0
VERTEX
  8
LAYER_1
 10
132.2634
 20
141.8117
  0
VERTEX
  8
LAYER_1
 10
132.3516
 20
141.9002
  0
VERTEX
  8
LAYER_1
 10
132.4394
 20
141.8117
  0
VERTEX
  8
LAYER_1
 10
132.4394
 20
141.1044
  0
VERTEX
  8
LAYER_1
 10
132.3516
 20
141.0159
  0
VERTEX
  8
LAYER_1
 10
132.2634
 20
141.1044
  0
SEQEND
  0
POLYLINE
  8
LAYER_1
 40
0.05
 41
0.05
 66
1
 10
0
 20
0
 30
0
  0
VERTEX
  8
LAYER_1
 10
132.2634
 20
139.6897
  0
VERTEX
  8
LAYER_1
 10
132.2634
 20
140.3964
  0
VERTEX
  8
LAYER_1
 10
132.3516
 20
140.4853
  0
VERTEX
  8
LAYER_1
 10
132.4394
 20
140.3964
  0
VERTEX
  8
LAYER_1
 10
132.4394
 20
139.6897
  0
VERTEX
  8
LAYER_1
 10
132.3516
 20
139.6008
  0
VERTEX
  8
LAYER_1
 10
132.2634
 20
139.6897
  0
SEQEND
  0
POLYLINE
  8
LAYER_1
 40
0.05
 41
0.05
 66
1
 10
0
 20
0
 30
0
  0
VERTEX
  8
LAYER_1
 10
132.2634
 20
138.2751
  0
VERTEX
  8
LAYER_1
 10
132.2634
 20
138.9827
  0
VERTEX
  8
LAYER_1
 10
132.3516
 20
139.0709
  0
VERTEX
  8
LAYER_1
 10
132.4394
 20
138.9827
  0
VERTEX
  8
LAYER_1
 10
132.4394
 20
138.2751
  0
VERTEX
  8
LAYER_1
 10
132.3516
 20
138.1869
  0
VERTEX
  8
LAYER_1
 10
132.2634
 20
138.2751
  0
SEQEND
  0
POLYLINE
  8
LAYER_1
 40
0.05
 41
0.05
 66
1
 10
0
 20
0
 30
0
  0
VERTEX
  8
LAYER_1
 10
132.2634
 20
136.8606
  0
VERTEX
  8
LAYER_1
 10
132.2634
 20
137.5675
  0
VERTEX
  8
LAYER_1
 10
132.3516
 20
137.6557
  0
VERTEX
  8
LAYER_1
 10
132.4394
 20
137.5675
  0
VERTEX
  8
LAYER_1
 10
132.4394
 20
136.8606
  0
VERTEX
  8
LAYER_1
 10
132.3516
 20
136.7724
  0
VERTEX
  8
LAYER_1
 10
132.2634
 20
136.8606
  0
SEQEND
  0
POLYLINE
  8
LAYER_1
 40
0.05
 41
0.05
 66
1
 10
0
 20
0
 30
0
  0
VERTEX
  8
LAYER_1
 10
133.1771
 20
136.1309
  0
VERTEX
  8
LAYER_1
 10
132.5184
 20
136.1309
  0
VERTEX
  8
LAYER_1
 10
132.4556
 20
136.1357
  0
VERTEX
  8
LAYER_1
 10
132.3836
 20
136.2377
  0
VERTEX
  8
LAYER_1
 10
132.4853
 20
136.31
  0
VERTEX
  8
LAYER_1
 10
132.5184
 20
136.3073
  0
VERTEX
  8
LAYER_1
 10
133.1771
 20
136.3073
  0
VERTEX
  8
LAYER_1
 10
133.2656
 20
136.2191
  0
VERTEX
  8
LAYER_1
 10
133.1771
 20
136.1309
  0
SEQEND
  0
POLYLINE
  8
LAYER_1
 40
0.05
 41
0.05
 66
1
 10
0
 20
0
 30
0
  0
VERTEX
  8
LAYER_1
 10
134.5927
 20
136.1309
  0
VERTEX
  8
LAYER_1
 10
133.8847
 20
136.1309
  0
VERTEX
  8
LAYER_1
 10
133.7968
 20
136.2191
  0
VERTEX
  8
LAYER_1
 10
133.8847
 20
136.3073
  0
VERTEX
  8
LAYER_1
 10
134.5927
 20
136.3073
  0
VERTEX
  8
LAYER_1
 10
134.6805
 20
136.2191
  0
VERTEX
  8
LAYER_1
 10
134.5927
 20
136.1309
  0
SEQEND
  0
POLYLINE
  8
LAYER_1
 40
0.05
 41
0.05
 66
1
 10
0
 20
0
 30
0
  0
VERTEX
  8
LAYER_1
 10
136.0062
 20
136.1309
  0
VERTEX
  8
LAYER_1
 10
135.2996
 20
136.1309
  0
VERTEX
  8
LAYER_1
 10
135.211
 20
136.2191
  0
VERTEX
  8
LAYER_1
 10
135.2996
 20
136.3073
  0
VERTEX
  8
LAYER_1
 10
136.0062
 20
136.3073
  0
VERTEX
  8
LAYER_1
 10
136.0947
 20
136.2191
  0
VERTEX
  8
LAYER_1
 10
136.0062
 20
136.1309
  0
SEQEND
  0
POLYLINE
  8
LAYER_1
 40
0.05
 41
0.05
 66
1
 10
0
 20
0
 30
0
  0
VERTEX
  8
LAYER_1
 10
137.4211
 20
136.1309
  0
VERTEX
  8
LAYER_1
 10
136.7138
 20
136.1309
  0
VERTEX
  8
LAYER_1
 10
136.6253
 20
136.2191
  0
VERTEX
  8
LAYER_1
 10
136.7138
 20
136.3073
  0
VERTEX
  8
LAYER_1
 10
137.4211
 20
136.3073
  0
VERTEX
  8
LAYER_1
 10
137.5096
 20
136.2191
  0
VERTEX
  8
LAYER_1
 10
137.4211
 20
136.1309
  0
SEQEND
  0
POLYLINE
  8
LAYER_1
 40
0.05
 41
0.05
 66
1
 10
0
 20
0
 30
0
  0
VERTEX
  8
LAYER_1
 10
138.8356
 20
136.1309
  0
VERTEX
  8
LAYER_1
 10
138.129
 20
136.1309
  0
VERTEX
  8
LAYER_1
 10
138.0401
 20
136.2191
  0
VERTEX
  8
LAYER_1
 10
138.129
 20
136.3073
  0
VERTEX
  8
LAYER_1
 10
138.8356
 20
136.3073
  0
VERTEX
  8
LAYER_1
 10
138.9238
 20
136.2191
  0
VERTEX
  8
LAYER_1
 10
138.8356
 20
136.1309
  0
SEQEND
  0
POLYLINE
  8
LAYER_1
 40
0.05
 41
0.05
 66
1
 10
0
 20
0
 30
0
  0
VERTEX
  8
LAYER_1
 10
140.2505
 20
136.1309
  0
VERTEX
  8
LAYER_1
 10
139.5429
 20
136.1309
  0
VERTEX
  8
LAYER_1
 10
139.4547
 20
136.2191
  0
VERTEX
  8
LAYER_1
 10
139.5429
 20
136.3073
  0
VERTEX
  8
LAYER_1
 10
140.2505
 20
136.3073
  0
VERTEX
  8
LAYER_1
 10
140.3387
 20
136.2191
  0
VERTEX
  8
LAYER_1
 10
140.2505
 20
136.1309
  0
SEQEND
  0
POLYLINE
  8
LAYER_1
 40
0.05
 41
0.05
 66
1
 10
0
 20
0
 30
0
  0
VERTEX
  8
LAYER_1
 10
141.6658
 20
136.1309
  0
VERTEX
  8
LAYER_1
 10
140.9578
 20
136.1309
  0
VERTEX
  8
LAYER_1
 10
140.8696
 20
136.2191
  0
VERTEX
  8
LAYER_1
 10
140.9578
 20
136.3073
  0
VERTEX
  8
LAYER_1
 10
141.6658
 20
136.3073
  0
VERTEX
  8
LAYER_1
 10
141.7529
 20
136.2191
  0
VERTEX
  8
LAYER_1
 10
141.6658
 20
136.1309
  0
SEQEND
  0
POLYLINE
  8
LAYER_1
 40
0.05
 41
0.05
 66
1
 10
0
 20
0
 30
0
  0
VERTEX
  8
LAYER_1
 10
143.0796
 20
136.1309
  0
VERTEX
  8
LAYER_1
 10
142.372
 20
136.1309
  0
VERTEX
  8
LAYER_1
 10
142.2838
 20
136.2191
  0
VERTEX
  8
LAYER_1
 10
142.372
 20
136.3073
  0
VERTEX
  8
LAYER_1
 10
143.0796
 20
136.3073
  0
VERTEX
  8
LAYER_1
 10
143.1678
 20
136.2191
  0
VERTEX
  8
LAYER_1
 10
143.0796
 20
136.1309
  0
SEQEND
  0
POLYLINE
  8
LAYER_1
 40
0.05
 41
0.05
 66
1
 10
0
 20
0
 30
0
  0
VERTEX
  8
LAYER_1
 10
144.4945
 20
136.1309
  0
VERTEX
  8
LAYER_1
 10
143.7869
 20
136.1309
  0
VERTEX
  8
LAYER_1
 10
143.6987
 20
136.2191
  0
VERTEX
  8
LAYER_1
 10
143.7869
 20
136.3073
  0
VERTEX
  8
LAYER_1
 10
144.4945
 20
136.3073
  0
VERTEX
  8
LAYER_1
 10
144.5824
 20
136.2191
  0
VERTEX
  8
LAYER_1
 10
144.4945
 20
136.1309
  0
SEQEND
  0
POLYLINE
  8
LAYER_1
 40
0.05
 41
0.05
 66
1
 10
0
 20
0
 30
0
  0
VERTEX
  8
LAYER_1
 10
145.9087
 20
136.1309
  0
VERTEX
  8
LAYER_1
 10
145.2018
 20
136.1309
  0
VERTEX
  8
LAYER_1
 10
145.1136
 20
136.2191
  0
VERTEX
  8
LAYER_1
 10
145.2018
 20
136.3073
  0
VERTEX
  8
LAYER_1
 10
145.9087
 20
136.3073
  0
VERTEX
  8
LAYER_1
 10
145.9973
 20
136.2191
  0
VERTEX
  8
LAYER_1
 10
145.9087
 20
136.1309
  0
SEQEND
  0
POLYLINE
  8
LAYER_1
 40
0.05
 41
0.05
 66
1
 10
0
 20
0
 30
0
  0
VERTEX
  8
LAYER_1
 10
147.3237
 20
136.1309
  0
VERTEX
  8
LAYER_1
 10
146.616
 20
136.1309
  0
VERTEX
  8
LAYER_1
 10
146.5278
 20
136.2191
  0
VERTEX
  8
LAYER_1
 10
146.616
 20
136.3073
  0
VERTEX
  8
LAYER_1
 10
147.3237
 20
136.3073
  0
VERTEX
  8
LAYER_1
 10
147.4119
 20
136.2191
  0
VERTEX
  8
LAYER_1
 10
147.3237
 20
136.1309
  0
SEQEND
  0
POLYLINE
  8
LAYER_1
 40
0.05
 41
0.05
 66
1
 10
0
 20
0
 30
0
  0
VERTEX
  8
LAYER_1
 10
148.7386
 20
136.1309
  0
VERTEX
  8
LAYER_1
 10
148.0306
 20
136.1309
  0
VERTEX
  8
LAYER_1
 10
147.9427
 20
136.2191
  0
VERTEX
  8
LAYER_1
 10
148.0306
 20
136.3073
  0
VERTEX
  8
LAYER_1
 10
148.7386
 20
136.3073
  0
VERTEX
  8
LAYER_1
 10
148.8264
 20
136.2191
  0
VERTEX
  8
LAYER_1
 10
148.7386
 20
136.1309
  0
SEQEND
  0
POLYLINE
  8
LAYER_1
 40
0.05
 41
0.05
 66
1
 10
0
 20
0
 30
0
  0
VERTEX
  8
LAYER_1
 10
150.1528
 20
136.1309
  0
VERTEX
  8
LAYER_1
 10
149.4455
 20
136.1309
  0
VERTEX
  8
LAYER_1
 10
149.3569
 20
136.2191
  0
VERTEX
  8
LAYER_1
 10
149.4455
 20
136.3073
  0
VERTEX
  8
LAYER_1
 10
150.1528
 20
136.3073
  0
VERTEX
  8
LAYER_1
 10
150.2413
 20
136.2191
  0
VERTEX
  8
LAYER_1
 10
150.1528
 20
136.1309
  0
SEQEND
  0
POLYLINE
  8
LAYER_1
 40
0.05
 41
0.05
 66
1
 10
0
 20
0
 30
0
  0
VERTEX
  8
LAYER_1
 10
151.567
 20
136.1309
  0
VERTEX
  8
LAYER_1
 10
150.8604
 20
136.1309
  0
VERTEX
  8
LAYER_1
 10
150.7719
 20
136.2191
  0
VERTEX
  8
LAYER_1
 10
150.8604
 20
136.3073
  0
VERTEX
  8
LAYER_1
 10
151.567
 20
136.3073
  0
VERTEX
  8
LAYER_1
 10
151.6555
 20
136.2191
  0
VERTEX
  8
LAYER_1
 10
151.567
 20
136.1309
  0
SEQEND
  0
POLYLINE
  8
LAYER_1
 40
0.05
 41
0.05
 66
1
 10
0
 20
0
 30
0
  0
VERTEX
  8
LAYER_1
 10
152.9819
 20
136.1309
  0
VERTEX
  8
LAYER_1
 10
152.2749
 20
136.1309
  0
VERTEX
  8
LAYER_1
 10
152.1861
 20
136.2191
  0
VERTEX
  8
LAYER_1
 10
152.2749
 20
136.3073
  0
VERTEX
  8
LAYER_1
 10
152.9819
 20
136.3073
  0
VERTEX
  8
LAYER_1
 10
153.0704
 20
136.2191
  0
VERTEX
  8
LAYER_1
 10
152.9819
 20
136.1309
  0
SEQEND
  0
POLYLINE
  8
LAYER_1
 40
0.05
 41
0.05
 66
1
 10
0
 20
0
 30
0
  0
VERTEX
  8
LAYER_1
 10
154.3964
 20
136.1309
  0
VERTEX
  8
LAYER_1
 10
153.6895
 20
136.1309
  0
VERTEX
  8
LAYER_1
 10
153.601
 20
136.2191
  0
VERTEX
  8
LAYER_1
 10
153.6895
 20
136.3073
  0
VERTEX
  8
LAYER_1
 10
154.3964
 20
136.3073
  0
VERTEX
  8
LAYER_1
 10
154.4846
 20
136.2191
  0
VERTEX
  8
LAYER_1
 10
154.3964
 20
136.1309
  0
SEQEND
  0
POLYLINE
  8
LAYER_1
 40
0.05
 41
0.05
 66
1
 10
0
 20
0
 30
0
  0
VERTEX
  8
LAYER_1
 10
155.8117
 20
136.1309
  0
VERTEX
  8
LAYER_1
 10
155.1037
 20
136.1309
  0
VERTEX
  8
LAYER_1
 10
155.0155
 20
136.2191
  0
VERTEX
  8
LAYER_1
 10
155.1037
 20
136.3073
  0
VERTEX
  8
LAYER_1
 10
155.8117
 20
136.3073
  0
VERTEX
  8
LAYER_1
 10
155.8995
 20
136.2191
  0
VERTEX
  8
LAYER_1
 10
155.8117
 20
136.1309
  0
SEQEND
  0
POLYLINE
  8
LAYER_1
 40
0.05
 41
0.05
 66
1
 10
0
 20
0
 30
0
  0
VERTEX
  8
LAYER_1
 10
157.2255
 20
136.1309
  0
VERTEX
  8
LAYER_1
 10
156.5186
 20
136.1309
  0
VERTEX
  8
LAYER_1
 10
156.4304
 20
136.2191
  0
VERTEX
  8
LAYER_1
 10
156.5186
 20
136.3073
  0
VERTEX
  8
LAYER_1
 10
157.2255
 20
136.3073
  0
VERTEX
  8
LAYER_1
 10
157.3137
 20
136.2191
  0
VERTEX
  8
LAYER_1
 10
157.2255
 20
136.1309
  0
SEQEND
  0
POLYLINE
  8
LAYER_1
 40
0.05
 41
0.05
 66
1
 10
0
 20
0
 30
0
  0
VERTEX
  8
LAYER_1
 10
158.6405
 20
136.1309
  0
VERTEX
  8
LAYER_1
 10
157.9328
 20
136.1309
  0
VERTEX
  8
LAYER_1
 10
157.8446
 20
136.2191
  0
VERTEX
  8
LAYER_1
 10
157.9328
 20
136.3073
  0
VERTEX
  8
LAYER_1
 10
158.6405
 20
136.3073
  0
VERTEX
  8
LAYER_1
 10
158.7287
 20
136.2191
  0
VERTEX
  8
LAYER_1
 10
158.6405
 20
136.1309
  0
SEQEND
  0
POLYLINE
  8
LAYER_1
 40
0.05
 41
0.05
 66
1
 10
0
 20
0
 30
0
  0
VERTEX
  8
LAYER_1
 10
160.0546
 20
136.1309
  0
VERTEX
  8
LAYER_1
 10
159.3484
 20
136.1309
  0
VERTEX
  8
LAYER_1
 10
159.2595
 20
136.2191
  0
VERTEX
  8
LAYER_1
 10
159.3484
 20
136.3073
  0
VERTEX
  8
LAYER_1
 10
160.0546
 20
136.3073
  0
VERTEX
  8
LAYER_1
 10
160.1432
 20
136.2191
  0
VERTEX
  8
LAYER_1
 10
160.0546
 20
136.1309
  0
SEQEND
  0
POLYLINE
  8
LAYER_1
 40
0.05
 41
0.05
 66
1
 10
0
 20
0
 30
0
  0
VERTEX
  8
LAYER_1
 10
161.4696
 20
136.1309
  0
VERTEX
  8
LAYER_1
 10
160.7623
 20
136.1309
  0
VERTEX
  8
LAYER_1
 10
160.6737
 20
136.2191
  0
VERTEX
  8
LAYER_1
 10
160.7623
 20
136.3073
  0
VERTEX
  8
LAYER_1
 10
161.4696
 20
136.3073
  0
VERTEX
  8
LAYER_1
 10
161.5581
 20
136.2191
  0
VERTEX
  8
LAYER_1
 10
161.4696
 20
136.1309
  0
SEQEND
  0
POLYLINE
  8
LAYER_1
 40
0.05
 41
0.05
 66
1
 10
0
 20
0
 30
0
  0
VERTEX
  8
LAYER_1
 10
162.8852
 20
136.1309
  0
VERTEX
  8
LAYER_1
 10
162.1768
 20
136.1309
  0
VERTEX
  8
LAYER_1
 10
162.0886
 20
136.2191
  0
VERTEX
  8
LAYER_1
 10
162.1768
 20
136.3073
  0
VERTEX
  8
LAYER_1
 10
162.8852
 20
136.3073
  0
VERTEX
  8
LAYER_1
 10
162.9723
 20
136.2191
  0
VERTEX
  8
LAYER_1
 10
162.8852
 20
136.1309
  0
SEQEND
  0
POLYLINE
  8
LAYER_1
 40
0.05
 41
0.05
 66
1
 10
0
 20
0
 30
0
  0
VERTEX
  8
LAYER_1
 10
164.2987
 20
136.1309
  0
VERTEX
  8
LAYER_1
 10
163.5914
 20
136.1309
  0
VERTEX
  8
LAYER_1
 10
163.5029
 20
136.2191
  0
VERTEX
  8
LAYER_1
 10
163.5914
 20
136.3073
  0
VERTEX
  8
LAYER_1
 10
164.2987
 20
136.3073
  0
VERTEX
  8
LAYER_1
 10
164.3872
 20
136.2191
  0
VERTEX
  8
LAYER_1
 10
164.2987
 20
136.1309
  0
SEQEND
  0
POLYLINE
  8
LAYER_1
 40
0.05
 41
0.05
 66
1
 10
0
 20
0
 30
0
  0
VERTEX
  8
LAYER_1
 10
165.7136
 20
136.1309
  0
VERTEX
  8
LAYER_1
 10
165.0063
 20
136.1309
  0
VERTEX
  8
LAYER_1
 10
164.9178
 20
136.2191
  0
VERTEX
  8
LAYER_1
 10
165.0063
 20
136.3073
  0
VERTEX
  8
LAYER_1
 10
165.7136
 20
136.3073
  0
VERTEX
  8
LAYER_1
 10
165.8014
 20
136.2191
  0
VERTEX
  8
LAYER_1
 10
165.7136
 20
136.1309
  0
SEQEND
  0
POLYLINE
  8
LAYER_1
 40
0.05
 41
0.05
 66
1
 10
0
 20
0
 30
0
  0
VERTEX
  8
LAYER_1
 10
167.1281
 20
136.1309
  0
VERTEX
  8
LAYER_1
 10
166.4212
 20
136.1309
  0
VERTEX
  8
LAYER_1
 10
166.3326
 20
136.2191
  0
VERTEX
  8
LAYER_1
 10
166.4212
 20
136.3073
  0
VERTEX
  8
LAYER_1
 10
167.1281
 20
136.3073
  0
VERTEX
  8
LAYER_1
 10
167.2163
 20
136.2191
  0
VERTEX
  8
LAYER_1
 10
167.1281
 20
136.1309
  0
SEQEND
  0
POLYLINE
  8
LAYER_1
 40
0.05
 41
0.05
 66
1
 10
0
 20
0
 30
0
  0
VERTEX
  8
LAYER_1
 10
168.5427
 20
136.1309
  0
VERTEX
  8
LAYER_1
 10
167.8354
 20
136.1309
  0
VERTEX
  8
LAYER_1
 10
167.7469
 20
136.2191
  0
VERTEX
  8
LAYER_1
 10
167.8354
 20
136.3073
  0
VERTEX
  8
LAYER_1
 10
168.5427
 20
136.3073
  0
VERTEX
  8
LAYER_1
 10
168.6312
 20
136.2191
  0
VERTEX
  8
LAYER_1
 10
168.5427
 20
136.1309
  0
SEQEND
  0
POLYLINE
  8
LAYER_1
 40
0.05
 41
0.05
 66
1
 10
0
 20
0
 30
0
  0
VERTEX
  8
LAYER_1
 10
169.9576
 20
136.1309
  0
VERTEX
  8
LAYER_1
 10
169.2496
 20
136.1309
  0
VERTEX
  8
LAYER_1
 10
169.1618
 20
136.2191
  0
VERTEX
  8
LAYER_1
 10
169.2496
 20
136.3073
  0
VERTEX
  8
LAYER_1
 10
169.9576
 20
136.3073
  0
VERTEX
  8
LAYER_1
 10
170.0454
 20
136.2191
  0
VERTEX
  8
LAYER_1
 10
169.9576
 20
136.1309
  0
SEQEND
  0
POLYLINE
  8
LAYER_1
 40
0.05
 41
0.05
 66
1
 10
0
 20
0
 30
0
  0
VERTEX
  8
LAYER_1
 10
171.3721
 20
136.1309
  0
VERTEX
  8
LAYER_1
 10
170.6645
 20
136.1309
  0
VERTEX
  8
LAYER_1
 10
170.5763
 20
136.2191
  0
VERTEX
  8
LAYER_1
 10
170.6645
 20
136.3073
  0
VERTEX
  8
LAYER_1
 10
171.3721
 20
136.3073
  0
VERTEX
  8
LAYER_1
 10
171.4603
 20
136.2191
  0
VERTEX
  8
LAYER_1
 10
171.3721
 20
136.1309
  0
SEQEND
  0
POLYLINE
  8
LAYER_1
 40
0.05
 41
0.05
 66
1
 10
0
 20
0
 30
0
  0
VERTEX
  8
LAYER_1
 10
172.7864
 20
136.1309
  0
VERTEX
  8
LAYER_1
 10
172.0794
 20
136.1309
  0
VERTEX
  8
LAYER_1
 10
171.9912
 20
136.2191
  0
VERTEX
  8
LAYER_1
 10
172.0794
 20
136.3073
  0
VERTEX
  8
LAYER_1
 10
172.7864
 20
136.3073
  0
VERTEX
  8
LAYER_1
 10
172.8745
 20
136.2191
  0
VERTEX
  8
LAYER_1
 10
172.7864
 20
136.1309
  0
SEQEND
  0
POLYLINE
  8
LAYER_1
 40
0.05
 41
0.05
 66
1
 10
0
 20
0
 30
0
  0
VERTEX
  8
LAYER_1
 10
174.2012
 20
136.1309
  0
VERTEX
  8
LAYER_1
 10
173.4943
 20
136.1309
  0
VERTEX
  8
LAYER_1
 10
173.4054
 20
136.2191
  0
VERTEX
  8
LAYER_1
 10
173.4943
 20
136.3073
  0
VERTEX
  8
LAYER_1
 10
174.2012
 20
136.3073
  0
VERTEX
  8
LAYER_1
 10
174.2894
 20
136.2191
  0
VERTEX
  8
LAYER_1
 10
174.2012
 20
136.1309
  0
SEQEND
  0
POLYLINE
  8
LAYER_1
 40
0.05
 41
0.05
 66
1
 10
0
 20
0
 30
0
  0
VERTEX
  8
LAYER_1
 10
175.6155
 20
136.1309
  0
VERTEX
  8
LAYER_1
 10
174.9085
 20
136.1309
  0
VERTEX
  8
LAYER_1
 10
174.8203
 20
136.2191
  0
VERTEX
  8
LAYER_1
 10
174.9085
 20
136.3073
  0
VERTEX
  8
LAYER_1
 10
175.6155
 20
136.3073
  0
VERTEX
  8
LAYER_1
 10
175.704
 20
136.2191
  0
VERTEX
  8
LAYER_1
 10
175.6155
 20
136.1309
  0
SEQEND
  0
POLYLINE
  8
LAYER_1
 40
0.05
 41
0.05
 66
1
 10
0
 20
0
 30
0
  0
VERTEX
  8
LAYER_1
 10
177.031
 20
136.1309
  0
VERTEX
  8
LAYER_1
 10
176.3231
 20
136.1309
  0
VERTEX
  8
LAYER_1
 10
176.2345
 20
136.2191
  0
VERTEX
  8
LAYER_1
 10
176.3231
 20
136.3073
  0
VERTEX
  8
LAYER_1
 10
177.031
 20
136.3073
  0
VERTEX
  8
LAYER_1
 10
177.1189
 20
136.2191
  0
VERTEX
  8
LAYER_1
 10
177.031
 20
136.1309
  0
SEQEND
  0
POLYLINE
  8
LAYER_1
 40
0.05
 41
0.05
 66
1
 10
0
 20
0
 30
0
  0
VERTEX
  8
LAYER_1
 10
178.4446
 20
136.1309
  0
VERTEX
  8
LAYER_1
 10
177.738
 20
136.1309
  0
VERTEX
  8
LAYER_1
 10
177.6494
 20
136.2191
  0
VERTEX
  8
LAYER_1
 10
177.738
 20
136.3073
  0
VERTEX
  8
LAYER_1
 10
178.4446
 20
136.3073
  0
VERTEX
  8
LAYER_1
 10
178.5331
 20
136.2191
  0
VERTEX
  8
LAYER_1
 10
178.4446
 20
136.1309
  0
SEQEND
  0
POLYLINE
  8
LAYER_1
 40
0.05
 41
0.05
 66
1
 10
0
 20
0
 30
0
  0
VERTEX
  8
LAYER_1
 10
179.8595
 20
136.1309
  0
VERTEX
  8
LAYER_1
 10
179.1522
 20
136.1309
  0
VERTEX
  8
LAYER_1
 10
179.0637
 20
136.2191
  0
VERTEX
  8
LAYER_1
 10
179.1522
 20
136.3073
  0
VERTEX
  8
LAYER_1
 10
179.8595
 20
136.3073
  0
VERTEX
  8
LAYER_1
 10
179.948
 20
136.2191
  0
VERTEX
  8
LAYER_1
 10
179.8595
 20
136.1309
  0
SEQEND
  0
POLYLINE
  8
LAYER_1
 40
0.05
 41
0.05
 66
1
 10
0
 20
0
 30
0
  0
VERTEX
  8
LAYER_1
 10
181.2744
 20
136.1309
  0
VERTEX
  8
LAYER_1
 10
180.5671
 20
136.1309
  0
VERTEX
  8
LAYER_1
 10
180.4786
 20
136.2191
  0
VERTEX
  8
LAYER_1
 10
180.5671
 20
136.3073
  0
VERTEX
  8
LAYER_1
 10
181.2744
 20
136.3073
  0
VERTEX
  8
LAYER_1
 10
181.3622
 20
136.2191
  0
VERTEX
  8
LAYER_1
 10
181.2744
 20
136.1309
  0
SEQEND
  0
POLYLINE
  8
LAYER_1
 40
0.05
 41
0.05
 66
1
 10
0
 20
0
 30
0
  0
VERTEX
  8
LAYER_1
 10
182.6889
 20
136.1309
  0
VERTEX
  8
LAYER_1
 10
181.9813
 20
136.1309
  0
VERTEX
  8
LAYER_1
 10
181.8931
 20
136.2191
  0
VERTEX
  8
LAYER_1
 10
181.9813
 20
136.3073
  0
VERTEX
  8
LAYER_1
 10
182.6889
 20
136.3073
  0
VERTEX
  8
LAYER_1
 10
182.7771
 20
136.2191
  0
VERTEX
  8
LAYER_1
 10
182.6889
 20
136.1309
  0
SEQEND
  0
POLYLINE
  8
LAYER_1
 40
0.05
 41
0.05
 66
1
 10
0
 20
0
 30
0
  0
VERTEX
  8
LAYER_1
 10
184.1035
 20
136.1309
  0
VERTEX
  8
LAYER_1
 10
183.3962
 20
136.1309
  0
VERTEX
  8
LAYER_1
 10
183.3077
 20
136.2191
  0
VERTEX
  8
LAYER_1
 10
183.3962
 20
136.3073
  0
VERTEX
  8
LAYER_1
 10
184.1035
 20
136.3073
  0
VERTEX
  8
LAYER_1
 10
184.1913
 20
136.2191
  0
VERTEX
  8
LAYER_1
 10
184.1035
 20
136.1309
  0
SEQEND
  0
POLYLINE
  8
LAYER_1
 40
0.05
 41
0.05
 66
1
 10
0
 20
0
 30
0
  0
VERTEX
  8
LAYER_1
 10
185.518
 20
136.1309
  0
VERTEX
  8
LAYER_1
 10
184.8104
 20
136.1309
  0
VERTEX
  8
LAYER_1
 10
184.7226
 20
136.2191
  0
VERTEX
  8
LAYER_1
 10
184.8104
 20
136.3073
  0
VERTEX
  8
LAYER_1
 10
185.518
 20
136.3073
  0
VERTEX
  8
LAYER_1
 10
185.6062
 20
136.2191
  0
VERTEX
  8
LAYER_1
 10
185.518
 20
136.1309
  0
SEQEND
  0
POLYLINE
  8
LAYER_1
 40
0.05
 41
0.05
 66
1
 10
0
 20
0
 30
0
  0
VERTEX
  8
LAYER_1
 10
186.933
 20
136.1309
  0
VERTEX
  8
LAYER_1
 10
186.2253
 20
136.1309
  0
VERTEX
  8
LAYER_1
 10
186.1371
 20
136.2191
  0
VERTEX
  8
LAYER_1
 10
186.2253
 20
136.3073
  0
VERTEX
  8
LAYER_1
 10
186.933
 20
136.3073
  0
VERTEX
  8
LAYER_1
 10
187.0211
 20
136.2191
  0
VERTEX
  8
LAYER_1
 10
186.933
 20
136.1309
  0
SEQEND
  0
POLYLINE
  8
LAYER_1
 40
0.05
 41
0.05
 66
1
 10
0
 20
0
 30
0
  0
VERTEX
  8
LAYER_1
 10
188.3472
 20
136.1309
  0
VERTEX
  8
LAYER_1
 10
187.6399
 20
136.1309
  0
VERTEX
  8
LAYER_1
 10
187.552
 20
136.2191
  0
VERTEX
  8
LAYER_1
 10
187.6399
 20
136.3073
  0
VERTEX
  8
LAYER_1
 10
188.3472
 20
136.3073
  0
VERTEX
  8
LAYER_1
 10
188.436
 20
136.2191
  0
VERTEX
  8
LAYER_1
 10
188.3472
 20
136.1309
  0
SEQEND
  0
POLYLINE
  8
LAYER_1
 40
0.05
 41
0.05
 66
1
 10
0
 20
0
 30
0
  0
VERTEX
  8
LAYER_1
 10
189.7621
 20
136.1309
  0
VERTEX
  8
LAYER_1
 10
189.0544
 20
136.1309
  0
VERTEX
  8
LAYER_1
 10
188.9662
 20
136.2191
  0
VERTEX
  8
LAYER_1
 10
189.0544
 20
136.3073
  0
VERTEX
  8
LAYER_1
 10
189.7621
 20
136.3073
  0
VERTEX
  8
LAYER_1
 10
189.8502
 20
136.2191
  0
VERTEX
  8
LAYER_1
 10
189.7621
 20
136.1309
  0
SEQEND
  0
POLYLINE
  8
LAYER_1
 40
0.05
 41
0.05
 66
1
 10
0
 20
0
 30
0
  0
VERTEX
  8
LAYER_1
 10
191.1763
 20
136.1309
  0
VERTEX
  8
LAYER_1
 10
190.4693
 20
136.1309
  0
VERTEX
  8
LAYER_1
 10
190.3811
 20
136.2191
  0
VERTEX
  8
LAYER_1
 10
190.4693
 20
136.3073
  0
VERTEX
  8
LAYER_1
 10
191.1763
 20
136.3073
  0
VERTEX
  8
LAYER_1
 10
191.2648
 20
136.2191
  0
VERTEX
  8
LAYER_1
 10
191.1763
 20
136.1309
  0
SEQEND
  0
POLYLINE
  8
LAYER_1
 40
0.05
 41
0.05
 66
1
 10
0
 20
0
 30
0
  0
VERTEX
  8
LAYER_1
 10
192.5912
 20
136.1309
  0
VERTEX
  8
LAYER_1
 10
191.8839
 20
136.1309
  0
VERTEX
  8
LAYER_1
 10
191.7954
 20
136.2191
  0
VERTEX
  8
LAYER_1
 10
191.8839
 20
136.3073
  0
VERTEX
  8
LAYER_1
 10
192.5912
 20
136.3073
  0
VERTEX
  8
LAYER_1
 10
192.6797
 20
136.2191
  0
VERTEX
  8
LAYER_1
 10
192.5912
 20
136.1309
  0
SEQEND
  0
POLYLINE
  8
LAYER_1
 40
0.05
 41
0.05
 66
1
 10
0
 20
0
 30
0
  0
VERTEX
  8
LAYER_1
 10
194.0054
 20
136.1309
  0
VERTEX
  8
LAYER_1
 10
193.2988
 20
136.1309
  0
VERTEX
  8
LAYER_1
 10
193.2102
 20
136.2191
  0
VERTEX
  8
LAYER_1
 10
193.2988
 20
136.3073
  0
VERTEX
  8
LAYER_1
 10
194.0054
 20
136.3073
  0
VERTEX
  8
LAYER_1
 10
194.0939
 20
136.2191
  0
VERTEX
  8
LAYER_1
 10
194.0054
 20
136.1309
  0
SEQEND
  0
POLYLINE
  8
LAYER_1
 40
0.05
 41
0.05
 66
1
 10
0
 20
0
 30
0
  0
VERTEX
  8
LAYER_1
 10
195.4203
 20
136.1309
  0
VERTEX
  8
LAYER_1
 10
194.713
 20
136.1309
  0
VERTEX
  8
LAYER_1
 10
194.6245
 20
136.2191
  0
VERTEX
  8
LAYER_1
 10
194.713
 20
136.3073
  0
VERTEX
  8
LAYER_1
 10
195.4203
 20
136.3073
  0
VERTEX
  8
LAYER_1
 10
195.5092
 20
136.2191
  0
VERTEX
  8
LAYER_1
 10
195.4203
 20
136.1309
  0
SEQEND
  0
POLYLINE
  8
LAYER_1
 40
0.05
 41
0.05
 66
1
 10
0
 20
0
 30
0
  0
VERTEX
  8
LAYER_1
 10
196.8348
 20
136.1309
  0
VERTEX
  8
LAYER_1
 10
196.1279
 20
136.1309
  0
VERTEX
  8
LAYER_1
 10
196.0393
 20
136.2191
  0
VERTEX
  8
LAYER_1
 10
196.1279
 20
136.3073
  0
VERTEX
  8
LAYER_1
 10
196.8348
 20
136.3073
  0
VERTEX
  8
LAYER_1
 10
196.923
 20
136.2191
  0
VERTEX
  8
LAYER_1
 10
196.8348
 20
136.1309
  0
SEQEND
  0
POLYLINE
  8
LAYER_1
 40
0.05
 41
0.05
 66
1
 10
0
 20
0
 30
0
  0
VERTEX
  8
LAYER_1
 10
198.2497
 20
136.1309
  0
VERTEX
  8
LAYER_1
 10
197.5421
 20
136.1309
  0
VERTEX
  8
LAYER_1
 10
197.4539
 20
136.2191
  0
VERTEX
  8
LAYER_1
 10
197.5421
 20
136.3073
  0
VERTEX
  8
LAYER_1
 10
198.2497
 20
136.3073
  0
VERTEX
  8
LAYER_1
 10
198.3379
 20
136.2191
  0
VERTEX
  8
LAYER_1
 10
198.2497
 20
136.1309
  0
SEQEND
  0
POLYLINE
  8
LAYER_1
 40
0.05
 41
0.05
 66
1
 10
0
 20
0
 30
0
  0
VERTEX
  8
LAYER_1
 10
199.6643
 20
136.1309
  0
VERTEX
  8
LAYER_1
 10
198.957
 20
136.1309
  0
VERTEX
  8
LAYER_1
 10
198.8692
 20
136.2191
  0
VERTEX
  8
LAYER_1
 10
198.957
 20
136.3073
  0
VERTEX
  8
LAYER_1
 10
199.6643
 20
136.3073
  0
VERTEX
  8
LAYER_1
 10
199.7522
 20
136.2191
  0
VERTEX
  8
LAYER_1
 10
199.6643
 20
136.1309
  0
SEQEND
  0
POLYLINE
  8
LAYER_1
 40
0.05
 41
0.05
 66
1
 10
0
 20
0
 30
0
  0
VERTEX
  8
LAYER_1
 10
201.0788
 20
136.1309
  0
VERTEX
  8
LAYER_1
 10
200.3712
 20
136.1309
  0
VERTEX
  8
LAYER_1
 10
200.283
 20
136.2191
  0
VERTEX
  8
LAYER_1
 10
200.3712
 20
136.3073
  0
VERTEX
  8
LAYER_1
 10
201.0788
 20
136.3073
  0
VERTEX
  8
LAYER_1
 10
201.167
 20
136.2191
  0
VERTEX
  8
LAYER_1
 10
201.0788
 20
136.1309
  0
SEQEND
  0
POLYLINE
  8
LAYER_1
 40
0.05
 41
0.05
 66
1
 10
0
 20
0
 30
0
  0
VERTEX
  8
LAYER_1
 10
202.4937
 20
136.1309
  0
VERTEX
  8
LAYER_1
 10
201.7861
 20
136.1309
  0
VERTEX
  8
LAYER_1
 10
201.6979
 20
136.2191
  0
VERTEX
  8
LAYER_1
 10
201.7861
 20
136.3073
  0
VERTEX
  8
LAYER_1
 10
202.4937
 20
136.3073
  0
VERTEX
  8
LAYER_1
 10
202.5816
 20
136.2191
  0
VERTEX
  8
LAYER_1
 10
202.4937
 20
136.1309
  0
SEQEND
  0
POLYLINE
  8
LAYER_1
 40
0.05
 41
0.05
 66
1
 10
0
 20
0
 30
0
  0
VERTEX
  8
LAYER_1
 10
203.9079
 20
136.1309
  0
VERTEX
  8
LAYER_1
 10
203.2007
 20
136.1309
  0
VERTEX
  8
LAYER_1
 10
203.1128
 20
136.2191
  0
VERTEX
  8
LAYER_1
 10
203.2007
 20
136.3073
  0
VERTEX
  8
LAYER_1
 10
203.9079
 20
136.3073
  0
VERTEX
  8
LAYER_1
 10
203.9961
 20
136.2191
  0
VERTEX
  8
LAYER_1
 10
203.9079
 20
136.1309
  0
SEQEND
  0
POLYLINE
  8
LAYER_1
 40
0.05
 41
0.05
 66
1
 10
0
 20
0
 30
0
  0
VERTEX
  8
LAYER_1
 10
205.3229
 20
136.1309
  0
VERTEX
  8
LAYER_1
 10
204.6152
 20
136.1309
  0
VERTEX
  8
LAYER_1
 10
204.527
 20
136.2191
  0
VERTEX
  8
LAYER_1
 10
204.6152
 20
136.3073
  0
VERTEX
  8
LAYER_1
 10
205.3229
 20
136.3073
  0
VERTEX
  8
LAYER_1
 10
205.4111
 20
136.2191
  0
VERTEX
  8
LAYER_1
 10
205.3229
 20
136.1309
  0
SEQEND
  0
POLYLINE
  8
LAYER_1
 40
0.05
 41
0.05
 66
1
 10
0
 20
0
 30
0
  0
VERTEX
  8
LAYER_1
 10
206.7371
 20
136.1309
  0
VERTEX
  8
LAYER_1
 10
206.0298
 20
136.1309
  0
VERTEX
  8
LAYER_1
 10
205.9423
 20
136.2191
  0
VERTEX
  8
LAYER_1
 10
206.0298
 20
136.3073
  0
VERTEX
  8
LAYER_1
 10
206.7371
 20
136.3073
  0
VERTEX
  8
LAYER_1
 10
206.8256
 20
136.2191
  0
VERTEX
  8
LAYER_1
 10
206.7371
 20
136.1309
  0
SEQEND
  0
POLYLINE
  8
LAYER_1
 40
0.05
 41
0.05
 66
1
 10
0
 20
0
 30
0
  0
VERTEX
  8
LAYER_1
 10
208.152
 20
136.1309
  0
VERTEX
  8
LAYER_1
 10
207.4447
 20
136.1309
  0
VERTEX
  8
LAYER_1
 10
207.3562
 20
136.2191
  0
VERTEX
  8
LAYER_1
 10
207.4447
 20
136.3073
  0
VERTEX
  8
LAYER_1
 10
208.152
 20
136.3073
  0
VERTEX
  8
LAYER_1
 10
208.2405
 20
136.2191
  0
VERTEX
  8
LAYER_1
 10
208.152
 20
136.1309
  0
SEQEND
  0
POLYLINE
  8
LAYER_1
 40
0.05
 41
0.05
 66
1
 10
0
 20
0
 30
0
  0
VERTEX
  8
LAYER_1
 10
209.5662
 20
136.1309
  0
VERTEX
  8
LAYER_1
 10
208.8596
 20
136.1309
  0
VERTEX
  8
LAYER_1
 10
208.7711
 20
136.2191
  0
VERTEX
  8
LAYER_1
 10
208.8596
 20
136.3073
  0
VERTEX
  8
LAYER_1
 10
209.5662
 20
136.3073
  0
VERTEX
  8
LAYER_1
 10
209.6547
 20
136.2191
  0
VERTEX
  8
LAYER_1
 10
209.5662
 20
136.1309
  0
SEQEND
  0
POLYLINE
  8
LAYER_1
 40
0.05
 41
0.05
 66
1
 10
0
 20
0
 30
0
  0
VERTEX
  8
LAYER_1
 10
210.9811
 20
136.1309
  0
VERTEX
  8
LAYER_1
 10
210.2738
 20
136.1309
  0
VERTEX
  8
LAYER_1
 10
210.1853
 20
136.2191
  0
VERTEX
  8
LAYER_1
 10
210.2738
 20
136.3073
  0
VERTEX
  8
LAYER_1
 10
210.9811
 20
136.3073
  0
VERTEX
  8
LAYER_1
 10
211.0696
 20
136.2191
  0
VERTEX
  8
LAYER_1
 10
210.9811
 20
136.1309
  0
SEQEND
  0
ENDBLK
  0
BLOCK
  8
LAYER_1
  2
AIGNBL0101000A
 70
64
 10
0
 20
0
 30
0
  3
AIGNBL0101000A
  0
POLYLINE
  8
LAYER_1
 40
0.05
 41
0.05
 66
1
 10
0
 20
0
 30
0
  0
VERTEX
  8
LAYER_1
 10
173.0368
 20
162.125
 42
0.07942238594
  0
VERTEX
  8
LAYER_1
 10
172.3719
 20
162.2376
  0
VERTEX
  8
LAYER_1
 10
172.2841
 20
162.3265
  0
VERTEX
  8
LAYER_1
 10
172.3729
 20
162.414
 42
-0.07985361778
  0
VERTEX
  8
LAYER_1
 10
173.094
 20
162.2917
  0
VERTEX
  8
LAYER_1
 10
173.1488
 20
162.1798
  0
VERTEX
  8
LAYER_1
 10
173.0368
 20
162.125
  0
SEQEND
  0
POLYLINE
  8
LAYER_1
 40
0.05
 41
0.05
 66
1
 10
0
 20
0
 30
0
  0
VERTEX
  8
LAYER_1
 10
171.1038
 20
161.8315
  0
VERTEX
  8
LAYER_1
 10
170.9804
 20
161.8508
  0
VERTEX
  8
LAYER_1
 10
171.0004
 20
161.9744
 42
-0.07899202124
  0
VERTEX
  8
LAYER_1
 10
171.6512
 20
162.3055
  0
VERTEX
  8
LAYER_1
 10
171.7621
 20
162.248
  0
VERTEX
  8
LAYER_1
 10
171.7046
 20
162.1371
 42
0.07927908018
  0
VERTEX
  8
LAYER_1
 10
171.1038
 20
161.8315
  0
SEQEND
  0
POLYLINE
  8
LAYER_1
 40
0.05
 41
0.05
 66
1
 10
0
 20
0
 30
0
  0
VERTEX
  8
LAYER_1
 10
174.224
 20
161.3009
  0
VERTEX
  8
LAYER_1
 10
174.101
 20
161.3223
 42
0.07936597772
  0
VERTEX
  8
LAYER_1
 10
173.6321
 20
161.8084
  0
VERTEX
  8
LAYER_1
 10
173.6149
 20
161.9317
  0
VERTEX
  8
LAYER_1
 10
173.7389
 20
161.9489
 42
-0.07962189035
  0
VERTEX
  8
LAYER_1
 10
174.2453
 20
161.4232
  0
VERTEX
  8
LAYER_1
 10
174.224
 20
161.3009
  0
SEQEND
  0
POLYLINE
  8
LAYER_1
 40
0.05
 41
0.05
 66
1
 10
0
 20
0
 30
0
  0
VERTEX
  8
LAYER_1
 10
170.2084
 20
160.696
  0
VERTEX
  8
LAYER_1
 10
170.1522
 20
160.8069
 42
-0.07881190759
  0
VERTEX
  8
LAYER_1
 10
170.4836
 20
161.4573
  0
VERTEX
  8
LAYER_1
 10
170.6073
 20
161.4773
  0
VERTEX
  8
LAYER_1
 10
170.6263
 20
161.3536
 42
0.0781952005
  0
VERTEX
  8
LAYER_1
 10
170.3197
 20
160.7525
  0
VERTEX
  8
LAYER_1
 10
170.2084
 20
160.696
  0
SEQEND
  0
POLYLINE
  8
LAYER_1
 40
0.05
 41
0.05
 66
1
 10
0
 20
0
 30
0
  0
VERTEX
  8
LAYER_1
 10
174.5788
 20
159.958
  0
VERTEX
  8
LAYER_1
 10
174.492
 20
160.0469
  0
VERTEX
  8
LAYER_1
 10
174.4927
 20
160.0765
 42
0.07426703652
  0
VERTEX
  8
LAYER_1
 10
174.3969
 20
160.7156
  0
VERTEX
  8
LAYER_1
 10
174.4555
 20
160.8262
  0
VERTEX
  8
LAYER_1
 10
174.5661
 20
160.7676
 42
-0.07426519874
  0
VERTEX
  8
LAYER_1
 10
174.6687
 20
160.0765
  0
VERTEX
  8
LAYER_1
 10
174.6684
 20
160.0448
  0
VERTEX
  8
LAYER_1
 10
174.5788
 20
159.958
  0
SEQEND
  0
POLYLINE
  8
LAYER_1
 40
0.05
 41
0.05
 66
1
 10
0
 20
0
 30
0
  0
VERTEX
  8
LAYER_1
 10
170.2563
 20
159.3069
  0
VERTEX
  8
LAYER_1
 10
170.1454
 20
159.3648
 42
-0.07646823938
  0
VERTEX
  8
LAYER_1
 10
170.0368
 20
160.0765
  0
VERTEX
  8
LAYER_1
 10
170.0368
 20
160.0865
  0
VERTEX
  8
LAYER_1
 10
170.1254
 20
160.1747
  0
VERTEX
  8
LAYER_1
 10
170.2132
 20
160.0858
  0
VERTEX
  8
LAYER_1
 10
170.2132
 20
160.0765
 42
0.07690709995
  0
VERTEX
  8
LAYER_1
 10
170.3138
 20
159.4182
  0
VERTEX
  8
LAYER_1
 10
170.2563
 20
159.3069
  0
SEQEND
  0
POLYLINE
  8
LAYER_1
 40
0.05
 41
0.05
 66
1
 10
0
 20
0
 30
0
  0
VERTEX
  8
LAYER_1
 10
174.0855
 20
158.6592
  0
VERTEX
  8
LAYER_1
 10
174.0669
 20
158.7826
 42
0.07836162012
  0
VERTEX
  8
LAYER_1
 10
174.379
 20
159.3813
  0
VERTEX
  8
LAYER_1
 10
174.4906
 20
159.4364
  0
VERTEX
  8
LAYER_1
 10
174.5464
 20
159.3252
 42
-0.07791144176
  0
VERTEX
  8
LAYER_1
 10
174.2088
 20
158.6778
  0
VERTEX
  8
LAYER_1
 10
174.0855
 20
158.6592
  0
SEQEND
  0
POLYLINE
  8
LAYER_1
 40
0.05
 41
0.05
 66
1
 10
0
 20
0
 30
0
  0
VERTEX
  8
LAYER_1
 10
170.9828
 20
158.19
 42
-0.07877842885
  0
VERTEX
  8
LAYER_1
 10
170.4716
 20
158.7116
  0
VERTEX
  8
LAYER_1
 10
170.4923
 20
158.8346
  0
VERTEX
  8
LAYER_1
 10
170.6149
 20
158.8136
 42
0.07759826293
  0
VERTEX
  8
LAYER_1
 10
171.0876
 20
158.3319
  0
VERTEX
  8
LAYER_1
 10
171.1058
 20
158.2086
  0
VERTEX
  8
LAYER_1
 10
170.9828
 20
158.19
  0
SEQEND
  0
POLYLINE
  8
LAYER_1
 40
0.05
 41
0.05
 66
1
 10
0
 20
0
 30
0
  0
VERTEX
  8
LAYER_1
 10
173.0337
 20
157.8407
  0
VERTEX
  8
LAYER_1
 10
172.9238
 20
157.8989
  0
VERTEX
  8
LAYER_1
 10
172.982
 20
158.0095
 42
0.08021274587
  0
VERTEX
  8
LAYER_1
 10
173.5853
 20
158.3096
  0
VERTEX
  8
LAYER_1
 10
173.7086
 20
158.2889
  0
VERTEX
  8
LAYER_1
 10
173.689
 20
158.1655
 42
-0.07958758472
  0
VERTEX
  8
LAYER_1
 10
173.0337
 20
157.8407
  0
SEQEND
  0
POLYLINE
  8
LAYER_1
 40
0.05
 41
0.05
 66
1
 10
0
 20
0
 30
0
  0
VERTEX
  8
LAYER_1
 10
172.3481
 20
157.7383
 42
-0.08020717095
  0
VERTEX
  8
LAYER_1
 10
171.6312
 20
157.8538
  0
VERTEX
  8
LAYER_1
 10
171.5751
 20
157.965
  0
VERTEX
  8
LAYER_1
 10
171.686
 20
158.0212
 42
0.07989452013
  0
VERTEX
  8
LAYER_1
 10
172.3519
 20
157.9141
  0
VERTEX
  8
LAYER_1
 10
172.4408
 20
157.8262
  0
VERTEX
  8
LAYER_1
 10
172.3519
 20
157.7383
  0
VERTEX
  8
LAYER_1
 10
172.3481
 20
157.7383
  0
SEQEND
  0
ENDBLK
  0
BLOCK
  8
LAYER_1
  2
AIGNBL0101000B
 70
64
 10
0
 20
0
 30
0
  3
AIGNBL0101000B
  0
POLYLINE
  8
LAYER_1
 40
0.05
 41
0.05
 66
1
 10
0
 20
0
 30
0
  0
VERTEX
  8
LAYER_1
 10
172.8869
 20
163.1478
 42
0.04401306093
  0
VERTEX
  8
LAYER_1
 10
172.3516
 20
163.1947
  0
VERTEX
  8
LAYER_1
 10
172.2038
 20
163.1916
  0
VERTEX
  8
LAYER_1
 10
172.1118
 20
163.2753
  0
VERTEX
  8
LAYER_1
 10
172.1959
 20
163.3673
  0
VERTEX
  8
LAYER_1
 10
172.3516
 20
163.3714
 42
-0.0430993978
  0
VERTEX
  8
LAYER_1
 10
172.9179
 20
163.3221
  0
VERTEX
  8
LAYER_1
 10
172.9889
 20
163.2202
  0
VERTEX
  8
LAYER_1
 10
172.8869
 20
163.1478
  0
SEQEND
  0
POLYLINE
  8
LAYER_1
 40
0.05
 41
0.05
 66
1
 10
0
 20
0
 30
0
  0
VERTEX
  8
LAYER_1
 10
170.8939
 20
162.8261
  0
VERTEX
  8
LAYER_1
 10
170.7744
 20
162.8616
  0
VERTEX
  8
LAYER_1
 10
170.8096
 20
162.9814
 42
-0.05602383893
  0
VERTEX
  8
LAYER_1
 10
171.4814
 20
163.2526
  0
VERTEX
  8
LAYER_1
 10
171.5895
 20
163.1916
  0
VERTEX
  8
LAYER_1
 10
171.5282
 20
163.0827
 42
0.05609690578
  0
VERTEX
  8
LAYER_1
 10
170.8939
 20
162.8261
  0
SEQEND
  0
POLYLINE
  8
LAYER_1
 40
0.05
 41
0.05
 66
1
 10
0
 20
0
 30
0
  0
VERTEX
  8
LAYER_1
 10
174.1399
 20
162.6194
 42
0.05535081298
  0
VERTEX
  8
LAYER_1
 10
173.5429
 20
162.9546
  0
VERTEX
  8
LAYER_1
 10
173.496
 20
163.07
  0
VERTEX
  8
LAYER_1
 10
173.6118
 20
163.1172
 42
-0.05491141639
  0
VERTEX
  8
LAYER_1
 10
174.2433
 20
162.763
  0
VERTEX
  8
LAYER_1
 10
174.2636
 20
162.6397
  0
VERTEX
  8
LAYER_1
 10
174.1399
 20
162.6194
  0
SEQEND
  0
POLYLINE
  8
LAYER_1
 40
0.05
 41
0.05
 66
1
 10
0
 20
0
 30
0
  0
VERTEX
  8
LAYER_1
 10
169.746
 20
161.9121
  0
VERTEX
  8
LAYER_1
 10
169.7264
 20
162.0354
 42
-0.05448433697
  0
VERTEX
  8
LAYER_1
 10
170.2163
 20
162.568
  0
VERTEX
  8
LAYER_1
 10
170.3407
 20
162.5597
  0
VERTEX
  8
LAYER_1
 10
170.3328
 20
162.4354
 42
0.05490423385
  0
VERTEX
  8
LAYER_1
 10
169.8687
 20
161.9307
  0
VERTEX
  8
LAYER_1
 10
169.746
 20
161.9121
  0
SEQEND
  0
POLYLINE
  8
LAYER_1
 40
0.05
 41
0.05
 66
1
 10
0
 20
0
 30
0
  0
VERTEX
  8
LAYER_1
 10
175.1655
 20
161.5689
  0
VERTEX
  8
LAYER_1
 10
175.0456
 20
161.6031
 42
0.05487034859
  0
VERTEX
  8
LAYER_1
 10
174.6484
 20
162.1611
  0
VERTEX
  8
LAYER_1
 10
174.656
 20
162.2855
  0
VERTEX
  8
LAYER_1
 10
174.7804
 20
162.2786
 42
-0.05523256734
  0
VERTEX
  8
LAYER_1
 10
175.1996
 20
161.6885
  0
VERTEX
  8
LAYER_1
 10
175.1655
 20
161.5689
  0
SEQEND
  0
POLYLINE
  8
LAYER_1
 40
0.05
 41
0.05
 66
1
 10
0
 20
0
 30
0
  0
VERTEX
  8
LAYER_1
 10
169.219
 20
160.6143
  0
VERTEX
  8
LAYER_1
 10
169.1494
 20
160.7176
 42
-0.05474283242
  0
VERTEX
  8
LAYER_1
 10
169.365
 20
161.4087
  0
VERTEX
  8
LAYER_1
 10
169.4818
 20
161.4535
  0
VERTEX
  8
LAYER_1
 10
169.5276
 20
161.3378
 42
0.05496338346
  0
VERTEX
  8
LAYER_1
 10
169.323
 20
160.6839
  0
VERTEX
  8
LAYER_1
 10
169.219
 20
160.6143
  0
SEQEND
  0
POLYLINE
  8
LAYER_1
 40
0.05
 41
0.05
 66
1
 10
0
 20
0
 30
0
  0
VERTEX
  8
LAYER_1
 10
175.5273
 20
160.2161
  0
VERTEX
  8
LAYER_1
 10
175.4322
 20
160.2981
 42
0.05589318539
  0
VERTEX
  8
LAYER_1
 10
175.3106
 20
160.9719
  0
VERTEX
  8
LAYER_1
 10
175.3709
 20
161.0815
  0
VERTEX
  8
LAYER_1
 10
175.4808
 20
161.0218
 42
-0.05364950654
  0
VERTEX
  8
LAYER_1
 10
175.6086
 20
160.3101
  0
VERTEX
  8
LAYER_1
 10
175.5273
 20
160.2161
  0
SEQEND
  0
POLYLINE
  8
LAYER_1
 40
0.05
 41
0.05
 66
1
 10
0
 20
0
 30
0
  0
VERTEX
  8
LAYER_1
 10
169.2903
 20
159.2156
  0
VERTEX
  8
LAYER_1
 10
169.1835
 20
159.2804
 42
-0.05339694243
  0
VERTEX
  8
LAYER_1
 10
169.088
 20
159.997
  0
VERTEX
  8
LAYER_1
 10
169.1742
 20
160.0876
  0
VERTEX
  8
LAYER_1
 10
169.2648
 20
160.0014
 42
0.05429227467
  0
VERTEX
  8
LAYER_1
 10
169.3547
 20
159.3227
  0
VERTEX
  8
LAYER_1
 10
169.2903
 20
159.2156
  0
SEQEND
  0
POLYLINE
  8
LAYER_1
 40
0.05
 41
0.05
 66
1
 10
0
 20
0
 30
0
  0
VERTEX
  8
LAYER_1
 10
175.2837
 20
158.8366
  0
VERTEX
  8
LAYER_1
 10
175.233
 20
158.951
 42
0.05541989407
  0
VERTEX
  8
LAYER_1
 10
175.406
 20
159.6135
  0
VERTEX
  8
LAYER_1
 10
175.5066
 20
159.6879
  0
VERTEX
  8
LAYER_1
 10
175.581
 20
159.5884
  0
VERTEX
  8
LAYER_1
 10
175.581
 20
159.5873
 42
-0.05568456789
  0
VERTEX
  8
LAYER_1
 10
175.3977
 20
158.888
  0
VERTEX
  8
LAYER_1
 10
175.2837
 20
158.8366
  0
SEQEND
  0
POLYLINE
  8
LAYER_1
 40
0.05
 41
0.05
 66
1
 10
0
 20
0
 30
0
  0
VERTEX
  8
LAYER_1
 10
169.9469
 20
157.9791
  0
VERTEX
  8
LAYER_1
 10
169.8225
 20
157.9923
 42
-0.05513289473
  0
VERTEX
  8
LAYER_1
 10
169.4319
 20
158.6013
  0
VERTEX
  8
LAYER_1
 10
169.4718
 20
158.7192
  0
VERTEX
  8
LAYER_1
 10
169.5903
 20
158.6795
 42
0.05475065119
  0
VERTEX
  8
LAYER_1
 10
169.9593
 20
158.1035
  0
VERTEX
  8
LAYER_1
 10
169.9469
 20
157.9791
  0
SEQEND
  0
POLYLINE
  8
LAYER_1
 40
0.05
 41
0.05
 66
1
 10
0
 20
0
 30
0
  0
VERTEX
  8
LAYER_1
 10
174.6033
 20
157.6894
  0
VERTEX
  8
LAYER_1
 10
174.4782
 20
157.6915
  0
VERTEX
  8
LAYER_1
 10
174.481
 20
157.8159
 42
0.05471730829
  0
VERTEX
  8
LAYER_1
 10
174.9196
 20
158.3419
  0
VERTEX
  8
LAYER_1
 10
175.0418
 20
158.3671
  0
VERTEX
  8
LAYER_1
 10
175.067
 20
158.2448
 42
-0.05535660956
  0
VERTEX
  8
LAYER_1
 10
174.6033
 20
157.6894
  0
SEQEND
  0
POLYLINE
  8
LAYER_1
 40
0.05
 41
0.05
 66
1
 10
0
 20
0
 30
0
  0
VERTEX
  8
LAYER_1
 10
170.9494
 20
157.0989
 42
-0.055598296
  0
VERTEX
  8
LAYER_1
 10
170.3366
 20
157.4831
  0
VERTEX
  8
LAYER_1
 10
170.3221
 20
157.6067
  0
VERTEX
  8
LAYER_1
 10
170.4464
 20
157.6216
 42
0.05552934153
  0
VERTEX
  8
LAYER_1
 10
171.0262
 20
157.2578
  0
VERTEX
  8
LAYER_1
 10
171.0676
 20
157.1403
  0
VERTEX
  8
LAYER_1
 10
170.9494
 20
157.0989
  0
SEQEND
  0
POLYLINE
  8
LAYER_1
 40
0.05
 41
0.05
 66
1
 10
0
 20
0
 30
0
  0
VERTEX
  8
LAYER_1
 10
173.3727
 20
156.9442
  0
VERTEX
  8
LAYER_1
 10
173.2611
 20
157.0001
  0
VERTEX
  8
LAYER_1
 10
173.3169
 20
157.1117
 42
0.05593132928
  0
VERTEX
  8
LAYER_1
 10
173.9384
 20
157.399
  0
VERTEX
  8
LAYER_1
 10
174.0597
 20
157.3694
  0
VERTEX
  8
LAYER_1
 10
174.03
 20
157.2474
 42
-0.05505458361
  0
VERTEX
  8
LAYER_1
 10
173.3727
 20
156.9442
  0
SEQEND
  0
POLYLINE
  8
LAYER_1
 40
0.05
 41
0.05
 66
1
 10
0
 20
0
 30
0
  0
VERTEX
  8
LAYER_1
 10
172.3516
 20
156.7799
 42
-0.05597416305
  0
VERTEX
  8
LAYER_1
 10
171.6329
 20
156.8602
  0
VERTEX
  8
LAYER_1
 10
171.5664
 20
156.9656
  0
VERTEX
  8
LAYER_1
 10
171.6722
 20
157.0321
 42
0.05545976148
  0
VERTEX
  8
LAYER_1
 10
172.3516
 20
156.9567
  0
VERTEX
  8
LAYER_1
 10
172.6479
 20
156.9704
  0
VERTEX
  8
LAYER_1
 10
172.7443
 20
156.8915
  0
VERTEX
  8
LAYER_1
 10
172.6648
 20
156.7951
  0
VERTEX
  8
LAYER_1
 10
172.3516
 20
156.7799
  0
SEQEND
  0
ENDBLK
  0
BLOCK
  8
LAYER_1
  2
AIGNBL0101000C
 70
64
 10
0
 20
0
 30
0
  3
AIGNBL0101000C
  0
POLYLINE
  8
LAYER_1
 40
0.05
 41
0.05
 66
1
 10
0
 20
0
 30
0
  0
VERTEX
  8
LAYER_1
 10
171.6722
 20
177.8389
  0
VERTEX
  8
LAYER_1
 10
171.5547
 20
177.8819
  0
VERTEX
  8
LAYER_1
 10
171.5981
 20
177.9994
 42
-0.09982200079
  0
VERTEX
  8
LAYER_1
 10
172.315
 20
178.1675
  0
VERTEX
  8
LAYER_1
 10
172.4053
 20
178.0821
  0
VERTEX
  8
LAYER_1
 10
172.3199
 20
177.9908
 42
0.1000698088
  0
VERTEX
  8
LAYER_1
 10
171.6722
 20
177.8389
  0
SEQEND
  0
POLYLINE
  8
LAYER_1
 40
0.05
 41
0.05
 66
1
 10
0
 20
0
 30
0
  0
VERTEX
  8
LAYER_1
 10
173.6559
 20
177.5129
  0
VERTEX
  8
LAYER_1
 10
173.5308
 20
177.5136
 42
0.1032548287
  0
VERTEX
  8
LAYER_1
 10
172.9758
 20
177.8778
  0
VERTEX
  8
LAYER_1
 10
172.9259
 20
177.9925
  0
VERTEX
  8
LAYER_1
 10
173.0396
 20
178.0421
 42
-0.1046293824
  0
VERTEX
  8
LAYER_1
 10
173.6559
 20
177.6377
  0
VERTEX
  8
LAYER_1
 10
173.6559
 20
177.5129
  0
SEQEND
  0
POLYLINE
  8
LAYER_1
 40
0.05
 41
0.05
 66
1
 10
0
 20
0
 30
0
  0
VERTEX
  8
LAYER_1
 10
170.6962
 20
176.8081
  0
VERTEX
  8
LAYER_1
 10
170.6414
 20
176.9207
 42
-0.09779640654
  0
VERTEX
  8
LAYER_1
 10
171.0073
 20
177.5584
  0
VERTEX
  8
LAYER_1
 10
171.1317
 20
177.5667
  0
VERTEX
  8
LAYER_1
 10
171.1399
 20
177.442
 42
0.09823650995
  0
VERTEX
  8
LAYER_1
 10
170.8085
 20
176.8632
  0
VERTEX
  8
LAYER_1
 10
170.6962
 20
176.8081
  0
SEQEND
  0
POLYLINE
  8
LAYER_1
 40
0.05
 41
0.05
 66
1
 10
0
 20
0
 30
0
  0
VERTEX
  8
LAYER_1
 10
174.1258
 20
176.2173
  0
VERTEX
  8
LAYER_1
 10
174.03
 20
176.2979
  0
VERTEX
  8
LAYER_1
 10
174.0073
 20
176.5749
  0
VERTEX
  8
LAYER_1
 10
173.9518
 20
176.8343
  0
VERTEX
  8
LAYER_1
 10
173.9032
 20
176.958
  0
VERTEX
  8
LAYER_1
 10
173.9491
 20
177.074
  0
VERTEX
  8
LAYER_1
 10
174.0648
 20
177.0286
 42
-0.06742809833
  0
VERTEX
  8
LAYER_1
 10
174.1703
 20
176.6837
 42
-0.0308865351
  0
VERTEX
  8
LAYER_1
 10
174.2064
 20
176.312
  0
VERTEX
  8
LAYER_1
 10
174.1258
 20
176.2173
  0
SEQEND
  0
POLYLINE
  8
LAYER_1
 40
0.05
 41
0.05
 66
1
 10
0
 20
0
 30
0
  0
VERTEX
  8
LAYER_1
 10
170.844
 20
175.4393
  0
VERTEX
  8
LAYER_1
 10
170.7265
 20
175.4814
 42
-0.06982161482
  0
VERTEX
  8
LAYER_1
 10
170.5601
 20
176.0174
  0
VERTEX
  8
LAYER_1
 10
170.5584
 20
176.025
  0
VERTEX
  8
LAYER_1
 10
170.5456
 20
176.1907
  0
VERTEX
  8
LAYER_1
 10
170.6259
 20
176.2862
  0
VERTEX
  8
LAYER_1
 10
170.7207
 20
176.2055
  0
VERTEX
  8
LAYER_1
 10
170.7345
 20
176.0446
 42
0.06911316672
  0
VERTEX
  8
LAYER_1
 10
170.886
 20
175.5568
  0
VERTEX
  8
LAYER_1
 10
170.844
 20
175.4393
  0
SEQEND
  0
POLYLINE
  8
LAYER_1
 40
0.05
 41
0.05
 66
1
 10
0
 20
0
 30
0
  0
VERTEX
  8
LAYER_1
 10
173.6817
 20
175.1307
  0
VERTEX
  8
LAYER_1
 10
173.6666
 20
175.2551
 42
0.07921954863
  0
VERTEX
  8
LAYER_1
 10
173.9518
 20
175.7852
  0
VERTEX
  8
LAYER_1
 10
173.9646
 20
175.8448
  0
VERTEX
  8
LAYER_1
 10
174.0693
 20
175.9131
  0
VERTEX
  8
LAYER_1
 10
174.1372
 20
175.8076
  0
VERTEX
  8
LAYER_1
 10
174.123
 20
175.7425
  0
VERTEX
  8
LAYER_1
 10
174.12
 20
175.7318
 42
-0.07959349324
  0
VERTEX
  8
LAYER_1
 10
173.8061
 20
175.1469
  0
VERTEX
  8
LAYER_1
 10
173.6817
 20
175.1307
  0
SEQEND
  0
POLYLINE
  8
LAYER_1
 40
0.05
 41
0.05
 66
1
 10
0
 20
0
 30
0
  0
VERTEX
  8
LAYER_1
 10
171.811
 20
174.5316
 42
-0.1019545457
  0
VERTEX
  8
LAYER_1
 10
171.1689
 20
174.893
  0
VERTEX
  8
LAYER_1
 10
171.161
 20
175.017
  0
VERTEX
  8
LAYER_1
 10
171.2846
 20
175.0256
 42
0.1023765614
  0
VERTEX
  8
LAYER_1
 10
171.8644
 20
174.7
  0
VERTEX
  8
LAYER_1
 10
171.922
 20
174.5891
  0
VERTEX
  8
LAYER_1
 10
171.811
 20
174.5316
  0
SEQEND
  0
POLYLINE
  8
LAYER_1
 40
0.05
 41
0.05
 66
1
 10
0
 20
0
 30
0
  0
VERTEX
  8
LAYER_1
 10
172.5428
 20
174.4527
  0
VERTEX
  8
LAYER_1
 10
172.447
 20
174.5323
  0
VERTEX
  8
LAYER_1
 10
172.5266
 20
174.6284
 42
0.1026555784
  0
VERTEX
  8
LAYER_1
 10
173.1626
 20
174.8216
  0
VERTEX
  8
LAYER_1
 10
173.2821
 20
174.7872
  0
VERTEX
  8
LAYER_1
 10
173.247
 20
174.667
 42
-0.1028780308
  0
VERTEX
  8
LAYER_1
 10
172.5428
 20
174.4527
  0
SEQEND
  0
ENDBLK
  0
BLOCK
  8
LAYER_1
  2
AIGNBL0101000D
 70
64
 10
0
 20
0
 30
0
  3
AIGNBL0101000D
  0
POLYLINE
  8
LAYER_1
 40
0.05
 41
0.05
 66
1
 10
0
 20
0
 30
0
  0
VERTEX
  8
LAYER_1
 10
165.5551
 20
182.132
  0
VERTEX
  8
LAYER_1
 10
165.3573
 20
182.132
 42
0.1314211699
  0
VERTEX
  8
LAYER_1
 10
165.3811
 20
182.2206
  0
VERTEX
  8
LAYER_1
 10
165.6436
 20
182.2206
  0
VERTEX
  8
LAYER_1
 10
165.5551
 20
182.132
  0
SEQEND
  0
POLYLINE
  8
LAYER_1
 40
0.05
 41
0.05
 66
1
 10
0
 20
0
 30
0
  0
VERTEX
  8
LAYER_1
 10
166.9696
 20
182.132
  0
VERTEX
  8
LAYER_1
 10
166.7189
 20
182.132
 42
0.1308486297
  0
VERTEX
  8
LAYER_1
 10
166.7426
 20
182.2206
  0
VERTEX
  8
LAYER_1
 10
167.0578
 20
182.2206
  0
VERTEX
  8
LAYER_1
 10
166.9696
 20
182.132
  0
SEQEND
  0
POLYLINE
  8
LAYER_1
 40
0.05
 41
0.05
 66
1
 10
0
 20
0
 30
0
  0
VERTEX
  8
LAYER_1
 10
168.3849
 20
182.132
  0
VERTEX
  8
LAYER_1
 10
168.081
 20
182.132
 42
0.1306682083
  0
VERTEX
  8
LAYER_1
 10
168.1048
 20
182.2206
  0
VERTEX
  8
LAYER_1
 10
168.4328
 20
182.2206
  0
VERTEX
  8
LAYER_1
 10
168.4366
 20
182.1844
  0
VERTEX
  8
LAYER_1
 10
168.3849
 20
182.132
  0
SEQEND
  0
POLYLINE
  8
LAYER_1
 40
0.05
 41
0.05
 66
1
 10
0
 20
0
 30
0
  0
VERTEX
  8
LAYER_1
 10
169.7991
 20
182.132
  0
VERTEX
  8
LAYER_1
 10
169.4425
 20
182.132
 42
0.1314211699
  0
VERTEX
  8
LAYER_1
 10
169.4663
 20
182.2206
  0
VERTEX
  8
LAYER_1
 10
169.7943
 20
182.2206
  0
VERTEX
  8
LAYER_1
 10
169.8115
 20
182.1448
  0
VERTEX
  8
LAYER_1
 10
169.7991
 20
182.132
  0
SEQEND
  0
POLYLINE
  8
LAYER_1
 40
0.05
 41
0.05
 66
1
 10
0
 20
0
 30
0
  0
VERTEX
  8
LAYER_1
 10
171.1796
 20
182.132
  0
VERTEX
  8
LAYER_1
 10
170.8047
 20
182.132
 42
0.128585664
  0
VERTEX
  8
LAYER_1
 10
170.8278
 20
182.2206
  0
VERTEX
  8
LAYER_1
 10
171.1558
 20
182.2206
 42
0.1243869364
  0
VERTEX
  8
LAYER_1
 10
171.1796
 20
182.132
  0
SEQEND
  0
POLYLINE
  8
LAYER_1
 40
0.05
 41
0.05
 66
1
 10
0
 20
0
 30
0
  0
VERTEX
  8
LAYER_1
 10
172.5417
 20
182.132
  0
VERTEX
  8
LAYER_1
 10
172.1655
 20
182.132
 42
0.1329646704
  0
VERTEX
  8
LAYER_1
 10
172.1893
 20
182.2206
  0
VERTEX
  8
LAYER_1
 10
172.518
 20
182.2206
 42
0.1328986041
  0
VERTEX
  8
LAYER_1
 10
172.5417
 20
182.132
  0
SEQEND
  0
POLYLINE
  8
LAYER_1
 40
0.05
 41
0.05
 66
1
 10
0
 20
0
 30
0
  0
VERTEX
  8
LAYER_1
 10
173.9032
 20
182.132
  0
VERTEX
  8
LAYER_1
 10
173.5277
 20
182.132
 42
0.1314211699
  0
VERTEX
  8
LAYER_1
 10
173.5515
 20
182.2206
  0
VERTEX
  8
LAYER_1
 10
173.8802
 20
182.2206
 42
0.1361947449
  0
VERTEX
  8
LAYER_1
 10
173.9032
 20
182.132
  0
SEQEND
  0
POLYLINE
  8
LAYER_1
 40
0.05
 41
0.05
 66
1
 10
0
 20
0
 30
0
  0
VERTEX
  8
LAYER_1
 10
175.2648
 20
182.132
  0
VERTEX
  8
LAYER_1
 10
174.8892
 20
182.132
 42
0.1314211699
  0
VERTEX
  8
LAYER_1
 10
174.913
 20
182.2206
  0
VERTEX
  8
LAYER_1
 10
175.241
 20
182.2206
 42
0.1334709085
  0
VERTEX
  8
LAYER_1
 10
175.2648
 20
182.132
  0
SEQEND
  0
POLYLINE
  8
LAYER_1
 40
0.05
 41
0.05
 66
1
 10
0
 20
0
 30
0
  0
VERTEX
  8
LAYER_1
 10
176.6263
 20
182.132
  0
VERTEX
  8
LAYER_1
 10
176.2507
 20
182.132
 42
0.1314211699
  0
VERTEX
  8
LAYER_1
 10
176.2745
 20
182.2206
  0
VERTEX
  8
LAYER_1
 10
176.6025
 20
182.2206
 42
0.1236832543
  0
VERTEX
  8
LAYER_1
 10
176.6263
 20
182.132
  0
SEQEND
  0
POLYLINE
  8
LAYER_1
 40
0.05
 41
0.05
 66
1
 10
0
 20
0
 30
0
  0
VERTEX
  8
LAYER_1
 10
177.9884
 20
182.132
  0
VERTEX
  8
LAYER_1
 10
177.6122
 20
182.132
 42
0.1314211699
  0
VERTEX
  8
LAYER_1
 10
177.636
 20
182.2206
  0
VERTEX
  8
LAYER_1
 10
177.9647
 20
182.2206
 42
0.1328986041
  0
VERTEX
  8
LAYER_1
 10
177.9884
 20
182.132
  0
SEQEND
  0
POLYLINE
  8
LAYER_1
 40
0.05
 41
0.05
 66
1
 10
0
 20
0
 30
0
  0
VERTEX
  8
LAYER_1
 10
179.3472
 20
182.132
  0
VERTEX
  8
LAYER_1
 10
178.9944
 20
182.132
  0
VERTEX
  8
LAYER_1
 10
178.9813
 20
182.1455
  0
VERTEX
  8
LAYER_1
 10
178.9975
 20
182.2206
  0
VERTEX
  8
LAYER_1
 10
179.3241
 20
182.2206
 42
0.1370912903
  0
VERTEX
  8
LAYER_1
 10
179.3472
 20
182.132
  0
SEQEND
  0
ENDBLK
  0
BLOCK
  8
LAYER_1
  2
AIGNBL0101000E
 70
64
 10
0
 20
0
 30
0
  3
AIGNBL0101000E
  0
POLYLINE
  8
LAYER_1
 40
0.05
 41
0.05
 66
1
 10
0
 20
0
 30
0
  0
VERTEX
  8
LAYER_1
 10
178.9813
 20
182.1455
  0
VERTEX
  8
LAYER_1
 10
178.9059
 20
182.2209
  0
VERTEX
  8
LAYER_1
 10
178.9813
 20
182.2953
  0
VERTEX
  8
LAYER_1
 10
178.9975
 20
182.2209
  0
VERTEX
  8
LAYER_1
 10
178.9975
 20
182.2206
  0
VERTEX
  8
LAYER_1
 10
178.9813
 20
182.1455
  0
SEQEND
  0
POLYLINE
  8
LAYER_1
 40
0.05
 41
0.05
 66
1
 10
0
 20
0
 30
0
  0
VERTEX
  8
LAYER_1
 10
178.2868
 20
182.132
  0
VERTEX
  8
LAYER_1
 10
177.9884
 20
182.132
 42
-0.1308486299
  0
VERTEX
  8
LAYER_1
 10
177.9647
 20
182.2206
  0
VERTEX
  8
LAYER_1
 10
177.9647
 20
182.2209
 42
-0.1327928494
  0
VERTEX
  8
LAYER_1
 10
177.9884
 20
182.3084
  0
VERTEX
  8
LAYER_1
 10
178.2868
 20
182.3084
  0
VERTEX
  8
LAYER_1
 10
178.3753
 20
182.2209
  0
VERTEX
  8
LAYER_1
 10
178.2868
 20
182.132
  0
SEQEND
  0
ENDBLK
  0
BLOCK
  8
LAYER_1
  2
AIGNBL0101000F
 70
64
 10
0
 20
0
 30
0
  3
AIGNBL0101000F
  0
POLYLINE
  8
LAYER_1
 40
0.05
 41
0.05
 66
1
 10
0
 20
0
 30
0
  0
VERTEX
  8
LAYER_1
 10
176.8726
 20
182.132
  0
VERTEX
  8
LAYER_1
 10
176.6263
 20
182.132
 42
-0.1204179694
  0
VERTEX
  8
LAYER_1
 10
176.6025
 20
182.2206
  0
VERTEX
  8
LAYER_1
 10
176.6025
 20
182.2209
 42
-0.1242914124
  0
VERTEX
  8
LAYER_1
 10
176.6263
 20
182.3084
  0
VERTEX
  8
LAYER_1
 10
176.8726
 20
182.3084
  0
VERTEX
  8
LAYER_1
 10
176.9604
 20
182.2209
  0
VERTEX
  8
LAYER_1
 10
176.8726
 20
182.132
  0
SEQEND
  0
POLYLINE
  8
LAYER_1
 40
0.05
 41
0.05
 66
1
 10
0
 20
0
 30
0
  0
VERTEX
  8
LAYER_1
 10
177.6122
 20
182.132
  0
VERTEX
  8
LAYER_1
 10
177.5795
 20
182.132
  0
VERTEX
  8
LAYER_1
 10
177.4917
 20
182.2209
  0
VERTEX
  8
LAYER_1
 10
177.5795
 20
182.3084
  0
VERTEX
  8
LAYER_1
 10
177.6122
 20
182.3084
 42
-0.1337608054
  0
VERTEX
  8
LAYER_1
 10
177.636
 20
182.2209
  0
VERTEX
  8
LAYER_1
 10
177.636
 20
182.2206
 42
-0.1337910394
  0
VERTEX
  8
LAYER_1
 10
177.6122
 20
182.132
  0
SEQEND
  0
ENDBLK
  0
BLOCK
  8
LAYER_1
  2
AIGNBL01010010
 70
64
 10
0
 20
0
 30
0
  3
AIGNBL01010010
  0
POLYLINE
  8
LAYER_1
 40
0.05
 41
0.05
 66
1
 10
0
 20
0
 30
0
  0
VERTEX
  8
LAYER_1
 10
175.4584
 20
182.132
  0
VERTEX
  8
LAYER_1
 10
175.2648
 20
182.132
 42
-0.1216013103
  0
VERTEX
  8
LAYER_1
 10
175.241
 20
182.2206
  0
VERTEX
  8
LAYER_1
 10
175.241
 20
182.2209
 42
-0.1337070126
  0
VERTEX
  8
LAYER_1
 10
175.2648
 20
182.3084
  0
VERTEX
  8
LAYER_1
 10
175.4584
 20
182.3084
  0
VERTEX
  8
LAYER_1
 10
175.5455
 20
182.2209
  0
VERTEX
  8
LAYER_1
 10
175.4584
 20
182.132
  0
SEQEND
  0
POLYLINE
  8
LAYER_1
 40
0.05
 41
0.05
 66
1
 10
0
 20
0
 30
0
  0
VERTEX
  8
LAYER_1
 10
176.2507
 20
182.132
  0
VERTEX
  8
LAYER_1
 10
176.1646
 20
182.132
  0
VERTEX
  8
LAYER_1
 10
176.0767
 20
182.2209
  0
VERTEX
  8
LAYER_1
 10
176.1646
 20
182.3084
  0
VERTEX
  8
LAYER_1
 10
176.2507
 20
182.3084
 42
-0.1337608054
  0
VERTEX
  8
LAYER_1
 10
176.2745
 20
182.2209
  0
VERTEX
  8
LAYER_1
 10
176.2745
 20
182.2206
 42
-0.1337910394
  0
VERTEX
  8
LAYER_1
 10
176.2507
 20
182.132
  0
SEQEND
  0
ENDBLK
  0
BLOCK
  8
LAYER_1
  2
AIGNBL01010011
 70
64
 10
0
 20
0
 30
0
  3
AIGNBL01010011
  0
POLYLINE
  8
LAYER_1
 40
0.05
 41
0.05
 66
1
 10
0
 20
0
 30
0
  0
VERTEX
  8
LAYER_1
 10
174.0428
 20
182.132
  0
VERTEX
  8
LAYER_1
 10
173.9032
 20
182.132
 42
-0.1280027769
  0
VERTEX
  8
LAYER_1
 10
173.8802
 20
182.2206
  0
VERTEX
  8
LAYER_1
 10
173.8802
 20
182.2209
 42
-0.1360248358
  0
VERTEX
  8
LAYER_1
 10
173.9032
 20
182.3084
  0
VERTEX
  8
LAYER_1
 10
174.0428
 20
182.3084
  0
VERTEX
  8
LAYER_1
 10
174.1317
 20
182.2209
  0
VERTEX
  8
LAYER_1
 10
174.0428
 20
182.132
  0
SEQEND
  0
POLYLINE
  8
LAYER_1
 40
0.05
 41
0.05
 66
1
 10
0
 20
0
 30
0
  0
VERTEX
  8
LAYER_1
 10
174.8892
 20
182.132
  0
VERTEX
  8
LAYER_1
 10
174.7504
 20
182.132
  0
VERTEX
  8
LAYER_1
 10
174.6625
 20
182.2209
  0
VERTEX
  8
LAYER_1
 10
174.7504
 20
182.3084
  0
VERTEX
  8
LAYER_1
 10
174.8892
 20
182.3084
 42
-0.133213144
  0
VERTEX
  8
LAYER_1
 10
174.913
 20
182.2209
  0
VERTEX
  8
LAYER_1
 10
174.913
 20
182.2206
 42
-0.1337910395
  0
VERTEX
  8
LAYER_1
 10
174.8892
 20
182.132
  0
SEQEND
  0
ENDBLK
  0
BLOCK
  8
LAYER_1
  2
AIGNBL01010012
 70
64
 10
0
 20
0
 30
0
  3
AIGNBL01010012
  0
POLYLINE
  8
LAYER_1
 40
0.05
 41
0.05
 66
1
 10
0
 20
0
 30
0
  0
VERTEX
  8
LAYER_1
 10
172.6279
 20
182.132
  0
VERTEX
  8
LAYER_1
 10
172.5417
 20
182.132
 42
-0.1308486299
  0
VERTEX
  8
LAYER_1
 10
172.518
 20
182.2206
  0
VERTEX
  8
LAYER_1
 10
172.518
 20
182.2209
 42
-0.1368182629
  0
VERTEX
  8
LAYER_1
 10
172.5417
 20
182.3084
  0
VERTEX
  8
LAYER_1
 10
172.6279
 20
182.3084
  0
VERTEX
  8
LAYER_1
 10
172.7168
 20
182.2209
  0
VERTEX
  8
LAYER_1
 10
172.6279
 20
182.132
  0
SEQEND
  0
POLYLINE
  8
LAYER_1
 40
0.05
 41
0.05
 66
1
 10
0
 20
0
 30
0
  0
VERTEX
  8
LAYER_1
 10
173.5277
 20
182.132
  0
VERTEX
  8
LAYER_1
 10
173.3358
 20
182.132
  0
VERTEX
  8
LAYER_1
 10
173.247
 20
182.2209
  0
VERTEX
  8
LAYER_1
 10
173.3358
 20
182.3084
  0
VERTEX
  8
LAYER_1
 10
173.5281
 20
182.3084
 42
-0.1308692824
  0
VERTEX
  8
LAYER_1
 10
173.5515
 20
182.2209
  0
VERTEX
  8
LAYER_1
 10
173.5515
 20
182.2206
 42
-0.1337910394
  0
VERTEX
  8
LAYER_1
 10
173.5277
 20
182.132
  0
SEQEND
  0
ENDBLK
  0
BLOCK
  8
LAYER_1
  2
AIGNBL01010013
 70
64
 10
0
 20
0
 30
0
  3
AIGNBL01010013
  0
POLYLINE
  8
LAYER_1
 40
0.05
 41
0.05
 66
1
 10
0
 20
0
 30
0
  0
VERTEX
  8
LAYER_1
 10
171.2137
 20
182.132
  0
VERTEX
  8
LAYER_1
 10
171.1796
 20
182.132
 42
-0.1306682083
  0
VERTEX
  8
LAYER_1
 10
171.1558
 20
182.2206
  0
VERTEX
  8
LAYER_1
 10
171.1558
 20
182.2209
 42
-0.1296908202
  0
VERTEX
  8
LAYER_1
 10
171.1796
 20
182.3084
  0
VERTEX
  8
LAYER_1
 10
171.2137
 20
182.3084
  0
VERTEX
  8
LAYER_1
 10
171.3025
 20
182.2209
  0
VERTEX
  8
LAYER_1
 10
171.2137
 20
182.132
  0
SEQEND
  0
POLYLINE
  8
LAYER_1
 40
0.05
 41
0.05
 66
1
 10
0
 20
0
 30
0
  0
VERTEX
  8
LAYER_1
 10
172.1655
 20
182.132
  0
VERTEX
  8
LAYER_1
 10
171.9216
 20
182.132
  0
VERTEX
  8
LAYER_1
 10
171.8328
 20
182.2209
  0
VERTEX
  8
LAYER_1
 10
171.9216
 20
182.3084
  0
VERTEX
  8
LAYER_1
 10
172.1662
 20
182.3084
 42
-0.130309896
  0
VERTEX
  8
LAYER_1
 10
172.1893
 20
182.2209
  0
VERTEX
  8
LAYER_1
 10
172.1893
 20
182.2206
 42
-0.1430730952
  0
VERTEX
  8
LAYER_1
 10
172.1655
 20
182.132
  0
SEQEND
  0
ENDBLK
  0
BLOCK
  8
LAYER_1
  2
AIGNBL01010014
 70
64
 10
0
 20
0
 30
0
  3
AIGNBL01010014
  0
POLYLINE
  8
LAYER_1
 40
0.05
 41
0.05
 66
1
 10
0
 20
0
 30
0
  0
VERTEX
  8
LAYER_1
 10
169.8115
 20
182.1448
  0
VERTEX
  8
LAYER_1
 10
169.7943
 20
182.2206
  0
VERTEX
  8
LAYER_1
 10
169.7943
 20
182.2209
  0
VERTEX
  8
LAYER_1
 10
169.8115
 20
182.2964
  0
VERTEX
  8
LAYER_1
 10
169.8869
 20
182.2209
  0
VERTEX
  8
LAYER_1
 10
169.8115
 20
182.1448
  0
SEQEND
  0
POLYLINE
  8
LAYER_1
 40
0.05
 41
0.05
 66
1
 10
0
 20
0
 30
0
  0
VERTEX
  8
LAYER_1
 10
170.8047
 20
182.132
  0
VERTEX
  8
LAYER_1
 10
170.506
 20
182.132
  0
VERTEX
  8
LAYER_1
 10
170.4182
 20
182.2209
  0
VERTEX
  8
LAYER_1
 10
170.506
 20
182.3084
  0
VERTEX
  8
LAYER_1
 10
170.8047
 20
182.3084
 42
-0.133213144
  0
VERTEX
  8
LAYER_1
 10
170.8285
 20
182.2209
  0
VERTEX
  8
LAYER_1
 10
170.8278
 20
182.2206
 42
-0.1370912901
  0
VERTEX
  8
LAYER_1
 10
170.8047
 20
182.132
  0
SEQEND
  0
ENDBLK
  0
BLOCK
  8
LAYER_1
  2
AIGNBL01010015
 70
64
 10
0
 20
0
 30
0
  3
AIGNBL01010015
  0
POLYLINE
  8
LAYER_1
 40
0.05
 41
0.05
 66
1
 10
0
 20
0
 30
0
  0
VERTEX
  8
LAYER_1
 10
168.4366
 20
182.1844
  0
VERTEX
  8
LAYER_1
 10
168.4328
 20
182.2206
  0
VERTEX
  8
LAYER_1
 10
168.4328
 20
182.2209
  0
VERTEX
  8
LAYER_1
 10
168.4366
 20
182.2567
  0
VERTEX
  8
LAYER_1
 10
168.4727
 20
182.2209
  0
VERTEX
  8
LAYER_1
 10
168.4366
 20
182.1844
  0
SEQEND
  0
POLYLINE
  8
LAYER_1
 40
0.05
 41
0.05
 66
1
 10
0
 20
0
 30
0
  0
VERTEX
  8
LAYER_1
 10
169.4425
 20
182.132
  0
VERTEX
  8
LAYER_1
 10
169.0918
 20
182.132
  0
VERTEX
  8
LAYER_1
 10
169.004
 20
182.2209
  0
VERTEX
  8
LAYER_1
 10
169.0918
 20
182.3084
  0
VERTEX
  8
LAYER_1
 10
169.4425
 20
182.3084
 42
-0.133213144
  0
VERTEX
  8
LAYER_1
 10
169.4663
 20
182.2209
  0
VERTEX
  8
LAYER_1
 10
169.4663
 20
182.2206
 42
-0.1337910395
  0
VERTEX
  8
LAYER_1
 10
169.4425
 20
182.132
  0
SEQEND
  0
ENDBLK
  0
BLOCK
  8
LAYER_1
  2
AIGNBL01010016
 70
64
 10
0
 20
0
 30
0
  3
AIGNBL01010016
  0
POLYLINE
  8
LAYER_1
 40
0.1058
 41
0.1058
 66
1
 10
0
 20
0
 30
0
  0
VERTEX
  8
LAYER_1
 10
62.2532
 20
155.1189
  0
VERTEX
  8
LAYER_1
 10
61.2538
 20
155.1189
  0
SEQEND
  0
POLYLINE
  8
LAYER_1
 40
0.1058
 41
0.1058
 66
1
 10
0
 20
0
 30
0
  0
VERTEX
  8
LAYER_1
 10
61.2531
 20
155.1189
  0
VERTEX
  8
LAYER_1
 10
59.6642
 20
156.5765
  0
SEQEND
  0
POLYLINE
  8
LAYER_1
 40
0.05
 41
0.05
 66
1
 10
0
 20
0
 30
0
  0
VERTEX
  8
LAYER_1
 10
59.7769
 20
156.6995
  0
VERTEX
  8
LAYER_1
 10
59.5516
 20
156.4535
  0
VERTEX
  8
LAYER_1
 10
58.9277
 20
157.2524
  0
SEQEND
  0
ENDBLK
  0
BLOCK
  8
LAYER_2
  2
AIGNBL02010002
 70
64
 10
0
 20
0
 30
0
  3
AIGNBL02010002
  0
POLYLINE
  8
LAYER_2
 40
0.7056
 41
0.7056
 66
1
 10
0
 20
0
 30
0
 70
1
  0
VERTEX
  8
LAYER_2
 10
251.6749
 20
230.337
  0
VERTEX
  8
LAYER_2
 10
251.6749
 20
33.3285
  0
VERTEX
  8
LAYER_2
 10
-30.3177
 20
33.3285
  0
VERTEX
  8
LAYER_2
 10
-30.3177
 20
230.337
  0
SEQEND
  0
ENDBLK
  0
BLOCK
  8
LAYER_2
  2
AIGNBL02010003
 70
64
 10
0
 20
0
 30
0
  3
AIGNBL02010003
  0
INSERT
  8
LAYER_2
  2
AIGNBL02020004
 10
0
 20
0
 30
0
  0
POLYLINE
  8
LAYER_2
 40
0.05
 41
0.05
 66
1
 10
0
 20
0
 30
0
  0
VERTEX
  8
LAYER_2
 10
-6.457
 20
223.2684
  0
VERTEX
  8
LAYER_2
 10
-8.0924
 20
223.2684
  0
VERTEX
  8
LAYER_2
 10
-8.0924
 20
216.1939
 42
0.1050424825
  0
VERTEX
  8
LAYER_2
 10
-7.9127
 20
215.3316
 42
0.1079536646
  0
VERTEX
  8
LAYER_2
 10
-7.4796
 20
214.75
 42
0.105678841
  0
VERTEX
  8
LAYER_2
 10
-6.8587
 20
214.4154
 42
0.04706827067
  0
VERTEX
  8
LAYER_2
 10
-6.4597
 20
214.3359
  0
VERTEX
  8
LAYER_2
 10
-6.457
 20
223.2684
  0
SEQEND
  0
INSERT
  8
LAYER_2
  2
AIGNBL02020005
 10
0
 20
0
 30
0
  0
ENDBLK
  0
BLOCK
  8
LAYER_2
  2
AIGNBL02010006
 70
64
 10
0
 20
0
 30
0
  3
AIGNBL02010006
  0
INSERT
  8
LAYER_2
  2
AIGNBL02020007
 10
0
 20
0
 30
0
  0
INSERT
  8
LAYER_2
  2
AIGNBL02020010
 10
0
 20
0
 30
0
  0
ENDBLK
  0
ENDSEC
  0
SECTION
  2
ENTITIES
  0
INSERT
  8
LAYER_1
  2
AIGNBL01010002
 10
0
 20
0
 30
0
  0
POLYLINE
  8
LAYER_1
 40
0.1764
 41
0.1764
 66
1
 10
0
 20
0
 30
0
 70
1
  0
VERTEX
  8
LAYER_1
 10
56.4913
 20
157.6446
 42
-0.3954114739
  0
VERTEX
  8
LAYER_1
 10
54.264
 20
159.895
 42
-0.3910697276
  0
VERTEX
  8
LAYER_1
 10
56.4913
 20
162.1443
 42
-0.3951868423
  0
VERTEX
  8
LAYER_1
 10
58.7192
 20
159.895
 42
-0.3910688015
  0
SEQEND
  0
POLYLINE
  8
LAYER_1
 40
0.1764
 41
0.1764
 66
1
 10
0
 20
0
 30
0
 70
1
  0
VERTEX
  8
LAYER_1
 10
56.4906
 20
156.6866
 42
-0.3953740236
  0
VERTEX
  8
LAYER_1
 10
53.3146
 20
159.895
 42
-0.3527555649
  0
VERTEX
  8
LAYER_1
 10
56.0069
 20
163.0643
 42
-0.03828715642
  0
VERTEX
  8
LAYER_1
 10
56.4906
 20
163.1013
 42
-0.395189397
  0
VERTEX
  8
LAYER_1
 10
59.667
 20
159.895
 42
-0.3526643541
  0
VERTEX
  8
LAYER_1
 10
56.9744
 20
156.7236
 42
-0.03828246866
  0
SEQEND
  0
POLYLINE
  8
LAYER_1
 40
0.1764
 41
0.1764
 66
1
 10
0
 20
0
 30
0
  0
VERTEX
  8
LAYER_1
 10
95.0002
 20
169.0258
  0
VERTEX
  8
LAYER_1
 10
94.9772
 20
169.1792
  0
VERTEX
  8
LAYER_1
 10
94.8962
 20
169.3211
  0
VERTEX
  8
LAYER_1
 10
94.7908
 20
169.4399
  0
VERTEX
  8
LAYER_1
 10
94.6506
 20
169.5099
  0
VERTEX
  8
LAYER_1
 10
94.4996
 20
169.5337
  0
SEQEND
  0
POLYLINE
  8
LAYER_1
 40
0.1764
 41
0.1764
 66
1
 10
0
 20
0
 30
0
  0
VERTEX
  8
LAYER_1
 10
94.9989
 20
169.0258
  0
VERTEX
  8
LAYER_1
 10
94.9989
 20
138.0719
  0
SEQEND
  0
POLYLINE
  8
LAYER_1
 40
0.1764
 41
0.1764
 66
1
 10
0
 20
0
 30
0
  0
VERTEX
  8
LAYER_1
 10
94.4983
 20
137.564
  0
VERTEX
  8
LAYER_1
 10
94.6492
 20
137.5875
  0
VERTEX
  8
LAYER_1
 10
94.7894
 20
137.6584
  0
VERTEX
  8
LAYER_1
 10
94.8948
 20
137.7763
  0
VERTEX
  8
LAYER_1
 10
94.9751
 20
137.9065
  0
VERTEX
  8
LAYER_1
 10
94.9989
 20
138.0719
  0
SEQEND
  0
POLYLINE
  8
LAYER_1
 40
0.1764
 41
0.1764
 66
1
 10
0
 20
0
 30
0
  0
VERTEX
  8
LAYER_1
 10
94.4983
 20
137.564
  0
VERTEX
  8
LAYER_1
 10
18.4929
 20
137.564
  0
SEQEND
  0
POLYLINE
  8
LAYER_1
 40
0.1764
 41
0.1764
 66
1
 10
0
 20
0
 30
0
  0
VERTEX
  8
LAYER_1
 10
17.9924
 20
138.0719
  0
VERTEX
  8
LAYER_1
 10
18.0161
 20
137.9058
  0
VERTEX
  8
LAYER_1
 10
18.0854
 20
137.7756
  0
VERTEX
  8
LAYER_1
 10
18.2018
 20
137.6577
  0
VERTEX
  8
LAYER_1
 10
18.342
 20
137.5875
  0
VERTEX
  8
LAYER_1
 10
18.4929
 20
137.5634
  0
SEQEND
  0
POLYLINE
  8
LAYER_1
 40
0.1764
 41
0.1764
 66
1
 10
0
 20
0
 30
0
  0
VERTEX
  8
LAYER_1
 10
17.9924
 20
138.0719
  0
VERTEX
  8
LAYER_1
 10
17.9924
 20
169.0255
  0
SEQEND
  0
POLYLINE
  8
LAYER_1
 40
0.1764
 41
0.1764
 66
1
 10
0
 20
0
 30
0
  0
VERTEX
  8
LAYER_1
 10
18.4936
 20
169.534
  0
VERTEX
  8
LAYER_1
 10
18.3424
 20
169.5102
  0
VERTEX
  8
LAYER_1
 10
18.2025
 20
169.4393
  0
VERTEX
  8
LAYER_1
 10
18.0861
 20
169.3211
  0
VERTEX
  8
LAYER_1
 10
18.0165
 20
169.1792
  0
VERTEX
  8
LAYER_1
 10
17.9927
 20
169.0255
  0
SEQEND
  0
POLYLINE
  8
LAYER_1
 40
0.1764
 41
0.1764
 66
1
 10
0
 20
0
 30
0
  0
VERTEX
  8
LAYER_1
 10
18.4936
 20
169.534
  0
VERTEX
  8
LAYER_1
 10
94.4996
 20
169.534
  0
SEQEND
  0
POLYLINE
  8
LAYER_1
 40
0.1764
 41
0.1764
 66
1
 10
0
 20
0
 30
0
  0
VERTEX
  8
LAYER_1
 10
90.491
 20
169.534
  0
VERTEX
  8
LAYER_1
 10
90.491
 20
144.1602
  0
SEQEND
  0
POLYLINE
  8
LAYER_1
 40
0.1764
 41
0.1764
 66
1
 10
0
 20
0
 30
0
  0
VERTEX
  8
LAYER_1
 10
89.9897
 20
143.6527
  0
VERTEX
  8
LAYER_1
 10
90.1537
 20
143.6758
  0
VERTEX
  8
LAYER_1
 10
90.2932
 20
143.7464
  0
VERTEX
  8
LAYER_1
 10
90.3976
 20
143.865
  0
VERTEX
  8
LAYER_1
 10
90.4672
 20
144.0072
  0
VERTEX
  8
LAYER_1
 10
90.491
 20
144.1602
  0
SEQEND
  0
POLYLINE
  8
LAYER_1
 40
0.1764
 41
0.1764
 66
1
 10
0
 20
0
 30
0
  0
VERTEX
  8
LAYER_1
 10
89.9897
 20
143.6527
  0
VERTEX
  8
LAYER_1
 10
23.0015
 20
143.6527
  0
SEQEND
  0
POLYLINE
  8
LAYER_1
 40
0.1764
 41
0.1764
 66
1
 10
0
 20
0
 30
0
  0
VERTEX
  8
LAYER_1
 10
22.5009
 20
144.1609
  0
VERTEX
  8
LAYER_1
 10
22.524
 20
144.0072
  0
VERTEX
  8
LAYER_1
 10
22.594
 20
143.865
  0
VERTEX
  8
LAYER_1
 10
22.6984
 20
143.7464
  0
VERTEX
  8
LAYER_1
 10
22.8386
 20
143.6765
  0
VERTEX
  8
LAYER_1
 10
23.0015
 20
143.6534
  0
SEQEND
  0
POLYLINE
  8
LAYER_1
 40
0.1764
 41
0.1764
 66
1
 10
0
 20
0
 30
0
  0
VERTEX
  8
LAYER_1
 10
22.5009
 20
144.1609
  0
VERTEX
  8
LAYER_1
 10
22.5009
 20
169.5347
  0
SEQEND
  0
POLYLINE
  8
LAYER_1
 40
0.1764
 41
0.1764
 66
1
 10
0
 20
0
 30
0
  0
VERTEX
  8
LAYER_1
 10
96.4913
 20
181.7121
  0
VERTEX
  8
LAYER_1
 10
96.4685
 20
181.8778
  0
VERTEX
  8
LAYER_1
 10
96.3979
 20
182.007
  0
VERTEX
  8
LAYER_1
 10
96.2932
 20
182.1255
  0
VERTEX
  8
LAYER_1
 10
96.154
 20
182.1961
  0
VERTEX
  8
LAYER_1
 10
96.002
 20
182.2202
  0
SEQEND
  0
POLYLINE
  8
LAYER_1
 40
0.1764
 41
0.1764
 66
1
 10
0
 20
0
 30
0
  0
VERTEX
  8
LAYER_1
 10
96.4899
 20
181.7121
  0
VERTEX
  8
LAYER_1
 10
96.4899
 20
136.5463
  0
SEQEND
  0
POLYLINE
  8
LAYER_1
 40
0.1764
 41
0.1764
 66
1
 10
0
 20
0
 30
0
  0
VERTEX
  8
LAYER_1
 10
96.0007
 20
136.0386
  0
VERTEX
  8
LAYER_1
 10
96.1526
 20
136.062
  0
VERTEX
  8
LAYER_1
 10
96.2918
 20
136.1322
  0
VERTEX
  8
LAYER_1
 10
96.3965
 20
136.2515
  0
VERTEX
  8
LAYER_1
 10
96.4664
 20
136.3927
  0
VERTEX
  8
LAYER_1
 10
96.4899
 20
136.5463
  0
SEQEND
  0
POLYLINE
  8
LAYER_1
 40
0.1764
 41
0.1764
 66
1
 10
0
 20
0
 30
0
  0
VERTEX
  8
LAYER_1
 10
96.0007
 20
136.0386
  0
VERTEX
  8
LAYER_1
 10
16.9905
 20
136.0386
  0
SEQEND
  0
POLYLINE
  8
LAYER_1
 40
0.1764
 41
0.1764
 66
1
 10
0
 20
0
 30
0
  0
VERTEX
  8
LAYER_1
 10
16.49
 20
136.5463
  0
VERTEX
  8
LAYER_1
 10
16.5251
 20
136.3927
  0
VERTEX
  8
LAYER_1
 10
16.5947
 20
136.2515
  0
VERTEX
  8
LAYER_1
 10
16.6994
 20
136.1322
  0
VERTEX
  8
LAYER_1
 10
16.8389
 20
136.062
  0
VERTEX
  8
LAYER_1
 10
16.9905
 20
136.0386
  0
SEQEND
  0
POLYLINE
  8
LAYER_1
 40
0.1764
 41
0.1764
 66
1
 10
0
 20
0
 30
0
  0
VERTEX
  8
LAYER_1
 10
16.49
 20
136.5463
  0
VERTEX
  8
LAYER_1
 10
16.49
 20
181.7121
  0
SEQEND
  0
POLYLINE
  8
LAYER_1
 40
0.1764
 41
0.1764
 66
1
 10
0
 20
0
 30
0
  0
VERTEX
  8
LAYER_1
 10
16.9912
 20
182.2202
  0
VERTEX
  8
LAYER_1
 10
16.8396
 20
182.1965
  0
VERTEX
  8
LAYER_1
 10
16.7001
 20
182.1258
  0
VERTEX
  8
LAYER_1
 10
16.595
 20
182.0073
  0
VERTEX
  8
LAYER_1
 10
16.5258
 20
181.8771
  0
VERTEX
  8
LAYER_1
 10
16.4903
 20
181.7121
  0
SEQEND
  0
POLYLINE
  8
LAYER_1
 40
0.1764
 41
0.1764
 66
1
 10
0
 20
0
 30
0
  0
VERTEX
  8
LAYER_1
 10
16.9912
 20
182.2202
  0
VERTEX
  8
LAYER_1
 10
96.002
 20
182.2202
  0
SEQEND
  0
POLYLINE
  8
LAYER_1
 40
0.1764
 41
0.1764
 66
1
 10
0
 20
0
 30
0
 70
1
  0
VERTEX
  8
LAYER_1
 10
58.2573
 20
176.1236
  0
VERTEX
  8
LAYER_1
 10
58.2342
 20
176.4064
  0
VERTEX
  8
LAYER_1
 10
58.1756
 20
176.6786
 42
0.1082470224
  0
VERTEX
  8
LAYER_1
 10
57.738
 20
177.3887
 42
0.5561143031
  0
VERTEX
  8
LAYER_1
 10
54.7856
 20
176.4064
  0
VERTEX
  8
LAYER_1
 10
54.7632
 20
176.1236
  0
VERTEX
  8
LAYER_1
 10
54.7856
 20
175.851
 42
0.109904696
  0
VERTEX
  8
LAYER_1
 10
55.093
 20
175.0819
 42
0.309224388
  0
VERTEX
  8
LAYER_1
 10
56.9742
 20
174.4133
 42
0.2163150218
  0
VERTEX
  8
LAYER_1
 10
58.0753
 20
175.3407
 42
0.02985780189
  0
VERTEX
  8
LAYER_1
 10
58.1756
 20
175.5792
  0
VERTEX
  8
LAYER_1
 10
58.2342
 20
175.851
  0
SEQEND
  0
POLYLINE
  8
LAYER_1
 40
0.1764
 41
0.1764
 66
1
 10
0
 20
0
 30
0
 70
1
  0
VERTEX
  8
LAYER_1
 10
55.0072
 20
168.127
  0
VERTEX
  8
LAYER_1
 10
55.0302
 20
168.0085
  0
VERTEX
  8
LAYER_1
 10
55.1119
 20
167.8904
 42
0.08050396159
  0
VERTEX
  8
LAYER_1
 10
55.3455
 20
167.723
 42
0.05289594535
  0
VERTEX
  8
LAYER_1
 10
55.6878
 20
167.5953
 42
0.07992242378
  0
VERTEX
  8
LAYER_1
 10
56.696
 20
167.5026
 42
0.08159373141
  0
VERTEX
  8
LAYER_1
 10
57.5847
 20
167.6893
 42
0.1199454339
  0
VERTEX
  8
LAYER_1
 10
57.9427
 20
167.9489
  0
VERTEX
  8
LAYER_1
 10
58.0003
 20
168.0681
  0
VERTEX
  8
LAYER_1
 10
58.0003
 20
168.186
  0
VERTEX
  8
LAYER_1
 10
57.9427
 20
168.3048
 42
0.1556190403
  0
VERTEX
  8
LAYER_1
 10
57.4136
 20
168.6193
 42
0.01562609084
  0
VERTEX
  8
LAYER_1
 10
56.9988
 20
168.7185
  0
VERTEX
  8
LAYER_1
 10
56.7197
 20
168.742
  0
VERTEX
  8
LAYER_1
 10
56.44
 20
168.753
 42
0.06033931478
  0
VERTEX
  8
LAYER_1
 10
55.6916
 20
168.6516
 42
0.072161739
  0
VERTEX
  8
LAYER_1
 10
55.2514
 20
168.4578
  0
VERTEX
  8
LAYER_1
 10
55.1119
 20
168.3517
  0
VERTEX
  8
LAYER_1
 10
55.0302
 20
168.2459
  0
SEQEND
  0
POLYLINE
  8
LAYER_1
 40
0.1764
 41
0.1764
 66
1
 10
0
 20
0
 30
0
  0
VERTEX
  8
LAYER_1
 10
22.6977
 20
143.7464
  0
VERTEX
  8
LAYER_1
 10
18.2018
 20
137.6577
  0
SEQEND
  0
POLYLINE
  8
LAYER_1
 40
0.1764
 41
0.1764
 66
1
 10
0
 20
0
 30
0
  0
VERTEX
  8
LAYER_1
 10
90.2932
 20
143.7464
  0
VERTEX
  8
LAYER_1
 10
94.8948
 20
137.7756
  0
SEQEND
  0
POLYLINE
  8
LAYER_1
 40
0.1764
 41
0.1764
 66
1
 10
0
 20
0
 30
0
  0
VERTEX
  8
LAYER_1
 10
95.5825
 20
101.6951
  0
VERTEX
  8
LAYER_1
 10
95.6055
 20
101.6951
  0
SEQEND
  0
POLYLINE
  8
LAYER_1
 40
0.1764
 41
0.1764
 66
1
 10
0
 20
0
 30
0
  0
VERTEX
  8
LAYER_1
 10
56.5099
 20
101.6951
  0
VERTEX
  8
LAYER_1
 10
95.6055
 20
101.6951
  0
SEQEND
  0
POLYLINE
  8
LAYER_1
 40
0.1764
 41
0.1764
 66
1
 10
0
 20
0
 30
0
  0
VERTEX
  8
LAYER_1
 10
58.7582
 20
86.4664
  0
VERTEX
  8
LAYER_1
 10
56.5099
 20
86.4664
  0
SEQEND
  0
POLYLINE
  8
LAYER_1
 40
0.1764
 41
0.1764
 66
1
 10
0
 20
0
 30
0
  0
VERTEX
  8
LAYER_1
 10
59.76
 20
88.0153
  0
VERTEX
  8
LAYER_1
 10
59.76
 20
86.4664
  0
SEQEND
  0
POLYLINE
  8
LAYER_1
 40
0.1764
 41
0.1764
 66
1
 10
0
 20
0
 30
0
  0
VERTEX
  8
LAYER_1
 10
95.6055
 20
101.6951
  0
VERTEX
  8
LAYER_1
 10
95.9897
 20
101.6951
  0
VERTEX
  8
LAYER_1
 10
96.1533
 20
101.6716
  0
VERTEX
  8
LAYER_1
 10
96.2925
 20
101.6
  0
VERTEX
  8
LAYER_1
 10
96.3979
 20
101.4822
  0
VERTEX
  8
LAYER_1
 10
96.4668
 20
101.3402
  0
VERTEX
  8
LAYER_1
 10
96.4913
 20
101.1866
  0
VERTEX
  8
LAYER_1
 10
96.4913
 20
88.4997
  0
SEQEND
  0
POLYLINE
  8
LAYER_1
 40
0.1764
 41
0.1764
 66
1
 10
0
 20
0
 30
0
  0
VERTEX
  8
LAYER_1
 10
60.0277
 20
88.4163
  0
VERTEX
  8
LAYER_1
 10
59.8527
 20
88.2399
  0
VERTEX
  8
LAYER_1
 10
59.7827
 20
88.1331
  0
VERTEX
  8
LAYER_1
 10
59.7597
 20
88.0153
  0
SEQEND
  0
POLYLINE
  8
LAYER_1
 40
0.1764
 41
0.1764
 66
1
 10
0
 20
0
 30
0
  0
VERTEX
  8
LAYER_1
 10
58.7582
 20
86.4664
  0
VERTEX
  8
LAYER_1
 10
59.76
 20
86.4664
  0
SEQEND
  0
POLYLINE
  8
LAYER_1
 40
0.1764
 41
0.1764
 66
1
 10
0
 20
0
 30
0
  0
VERTEX
  8
LAYER_1
 10
16.4903
 20
101.1866
  0
VERTEX
  8
LAYER_1
 10
16.4903
 20
88.4997
  0
SEQEND
  0
POLYLINE
  8
LAYER_1
 40
0.1764
 41
0.1764
 66
1
 10
0
 20
0
 30
0
  0
VERTEX
  8
LAYER_1
 10
56.5099
 20
101.6951
  0
VERTEX
  8
LAYER_1
 10
17.3874
 20
101.6951
  0
SEQEND
  0
POLYLINE
  8
LAYER_1
 40
0.1764
 41
0.1764
 66
1
 10
0
 20
0
 30
0
  0
VERTEX
  8
LAYER_1
 10
54.2623
 20
86.4664
  0
VERTEX
  8
LAYER_1
 10
56.5099
 20
86.4664
  0
SEQEND
  0
POLYLINE
  8
LAYER_1
 40
0.1764
 41
0.1764
 66
1
 10
0
 20
0
 30
0
  0
VERTEX
  8
LAYER_1
 10
53.2595
 20
88.0153
  0
VERTEX
  8
LAYER_1
 10
53.2595
 20
86.4664
  0
SEQEND
  0
POLYLINE
  8
LAYER_1
 40
0.1764
 41
0.1764
 66
1
 10
0
 20
0
 30
0
  0
VERTEX
  8
LAYER_1
 10
16.502
 20
88.4997
  0
VERTEX
  8
LAYER_1
 10
96.4913
 20
88.4997
  0
SEQEND
  0
POLYLINE
  8
LAYER_1
 40
0.1764
 41
0.1764
 66
1
 10
0
 20
0
 30
0
  0
VERTEX
  8
LAYER_1
 10
52.9914
 20
88.4163
  0
VERTEX
  8
LAYER_1
 10
52.8864
 20
88.4769
  0
VERTEX
  8
LAYER_1
 10
52.7816
 20
88.4997
  0
SEQEND
  0
POLYLINE
  8
LAYER_1
 40
0.1764
 41
0.1764
 66
1
 10
0
 20
0
 30
0
  0
VERTEX
  8
LAYER_1
 10
17.6782
 20
101.6951
  0
VERTEX
  8
LAYER_1
 10
16.9912
 20
101.6951
  0
VERTEX
  8
LAYER_1
 10
16.8396
 20
101.6716
  0
VERTEX
  8
LAYER_1
 10
16.7001
 20
101.6
  0
VERTEX
  8
LAYER_1
 10
16.5947
 20
101.4822
  0
VERTEX
  8
LAYER_1
 10
16.5251
 20
101.3402
  0
VERTEX
  8
LAYER_1
 10
16.4903
 20
101.1866
  0
SEQEND
  0
POLYLINE
  8
LAYER_1
 40
0.1764
 41
0.1764
 66
1
 10
0
 20
0
 30
0
  0
VERTEX
  8
LAYER_1
 10
52.9914
 20
88.4163
  0
VERTEX
  8
LAYER_1
 10
53.1661
 20
88.2399
  0
SEQEND
  0
POLYLINE
  8
LAYER_1
 40
0.1764
 41
0.1764
 66
1
 10
0
 20
0
 30
0
  0
VERTEX
  8
LAYER_1
 10
53.2595
 20
88.0153
  0
VERTEX
  8
LAYER_1
 10
53.2364
 20
88.1338
  0
VERTEX
  8
LAYER_1
 10
53.1661
 20
88.2399
  0
SEQEND
  0
POLYLINE
  8
LAYER_1
 40
0.1764
 41
0.1764
 66
1
 10
0
 20
0
 30
0
  0
VERTEX
  8
LAYER_1
 10
54.2623
 20
86.4664
  0
VERTEX
  8
LAYER_1
 10
53.2598
 20
86.4664
  0
SEQEND
  0
POLYLINE
  8
LAYER_1
 40
0.1764
 41
0.1764
 66
1
 10
0
 20
0
 30
0
  0
VERTEX
  8
LAYER_1
 10
156.3112
 20
78.7886
  0
VERTEX
  8
LAYER_1
 10
163.7778
 20
78.7886
  0
SEQEND
  0
POLYLINE
  8
LAYER_1
 40
0.1764
 41
0.1764
 66
1
 10
0
 20
0
 30
0
  0
VERTEX
  8
LAYER_1
 10
162.2991
 20
76.7553
  0
VERTEX
  8
LAYER_1
 10
160.0381
 20
76.7553
  0
SEQEND
  0
POLYLINE
  8
LAYER_1
 40
0.1764
 41
0.1764
 66
1
 10
0
 20
0
 30
0
  0
VERTEX
  8
LAYER_1
 10
162.2991
 20
76.7553
  0
VERTEX
  8
LAYER_1
 10
163.2889
 20
76.7553
  0
VERTEX
  8
LAYER_1
 10
163.2889
 20
78.3042
  0
VERTEX
  8
LAYER_1
 10
163.3123
 20
78.4228
  0
VERTEX
  8
LAYER_1
 10
163.3816
 20
78.5289
  0
VERTEX
  8
LAYER_1
 10
163.568
 20
78.7046
  0
VERTEX
  8
LAYER_1
 10
163.6613
 20
78.7652
  0
VERTEX
  8
LAYER_1
 10
163.7778
 20
78.7886
  0
VERTEX
  8
LAYER_1
 10
182.0426
 20
78.7886
  0
SEQEND
  0
POLYLINE
  8
LAYER_1
 40
0.1764
 41
0.1764
 66
1
 10
0
 20
0
 30
0
  0
VERTEX
  8
LAYER_1
 10
157.7895
 20
76.7553
  0
VERTEX
  8
LAYER_1
 10
160.0381
 20
76.7553
  0
SEQEND
  0
POLYLINE
  8
LAYER_1
 40
0.1764
 41
0.1764
 66
1
 10
0
 20
0
 30
0
  0
VERTEX
  8
LAYER_1
 10
157.7895
 20
76.7553
  0
VERTEX
  8
LAYER_1
 10
156.7997
 20
76.7553
  0
VERTEX
  8
LAYER_1
 10
156.7997
 20
78.3042
  0
VERTEX
  8
LAYER_1
 10
156.7767
 20
78.4228
  0
VERTEX
  8
LAYER_1
 10
156.7067
 20
78.5289
  0
VERTEX
  8
LAYER_1
 10
156.5203
 20
78.7046
  0
VERTEX
  8
LAYER_1
 10
156.4277
 20
78.7652
  0
VERTEX
  8
LAYER_1
 10
156.3112
 20
78.7886
  0
VERTEX
  8
LAYER_1
 10
136.5422
 20
78.7886
  0
VERTEX
  8
LAYER_1
 10
136.5422
 20
91.6526
  0
VERTEX
  8
LAYER_1
 10
136.5543
 20
91.6643
  0
VERTEX
  8
LAYER_1
 10
136.5543
 20
91.6878
  0
VERTEX
  8
LAYER_1
 10
136.566
 20
91.7002
  0
VERTEX
  8
LAYER_1
 10
136.566
 20
91.7346
  0
VERTEX
  8
LAYER_1
 10
136.5773
 20
91.747
  0
VERTEX
  8
LAYER_1
 10
136.5773
 20
91.7587
  0
VERTEX
  8
LAYER_1
 10
136.5887
 20
91.7712
  0
VERTEX
  8
LAYER_1
 10
136.6011
 20
91.7829
  0
VERTEX
  8
LAYER_1
 10
136.6011
 20
91.7946
  0
VERTEX
  8
LAYER_1
 10
136.6118
 20
91.8056
  0
VERTEX
  8
LAYER_1
 10
136.6118
 20
91.8173
  0
VERTEX
  8
LAYER_1
 10
136.6242
 20
91.829
  0
VERTEX
  8
LAYER_1
 10
136.6356
 20
91.8414
  0
VERTEX
  8
LAYER_1
 10
136.6473
 20
91.8531
  0
VERTEX
  8
LAYER_1
 10
136.6938
 20
91.9007
  0
VERTEX
  8
LAYER_1
 10
136.7055
 20
91.9124
  0
VERTEX
  8
LAYER_1
 10
136.7179
 20
91.9124
  0
VERTEX
  8
LAYER_1
 10
136.7406
 20
91.9365
  0
VERTEX
  8
LAYER_1
 10
136.752
 20
91.9365
  0
VERTEX
  8
LAYER_1
 10
136.7644
 20
91.9475
  0
VERTEX
  8
LAYER_1
 10
136.7758
 20
91.9475
  0
VERTEX
  8
LAYER_1
 10
136.7875
 20
91.9599
  0
VERTEX
  8
LAYER_1
 10
136.8216
 20
91.9599
  0
VERTEX
  8
LAYER_1
 10
136.8333
 20
91.9723
  0
VERTEX
  8
LAYER_1
 10
136.8571
 20
91.9723
  0
VERTEX
  8
LAYER_1
 10
136.8685
 20
91.9841
  0
VERTEX
  8
LAYER_1
 10
181.5421
 20
91.9841
  0
SEQEND
  0
INSERT
  8
LAYER_1
  2
AIGNBL01010003
 10
0
 20
0
 30
0
  0
POLYLINE
  8
LAYER_1
 40
0.1129
 41
0.1129
 66
1
 10
0
 20
0
 30
0
  0
VERTEX
  8
LAYER_1
 10
42.5879
 20
96.5784
  0
VERTEX
  8
LAYER_1
 10
42.5879
 20
93.1072
  0
SEQEND
  0
POLYLINE
  8
LAYER_1
 40
0.1129
 41
0.1129
 66
1
 10
0
 20
0
 30
0
  0
VERTEX
  8
LAYER_1
 10
40.8516
 20
94.8421
  0
VERTEX
  8
LAYER_1
 10
44.3236
 20
94.8421
  0
SEQEND
  0
CIRCLE
  8
LAYER_1
  6
AIGENLINE001
 10
70.5983
 20
94.8428
 40
1.1841
  0
POLYLINE
  8
LAYER_1
 40
0.1129
 41
0.1129
 66
1
 10
0
 20
0
 30
0
  0
VERTEX
  8
LAYER_1
 10
70.5986
 20
96.5784
  0
VERTEX
  8
LAYER_1
 10
70.5986
 20
93.1072
  0
SEQEND
  0
POLYLINE
  8
LAYER_1
 40
0.1129
 41
0.1129
 66
1
 10
0
 20
0
 30
0
  0
VERTEX
  8
LAYER_1
 10
68.8626
 20
94.8421
  0
VERTEX
  8
LAYER_1
 10
72.3346
 20
94.8421
  0
SEQEND
  0
INSERT
  8
LAYER_1
  2
AIGNBL01010004
 10
0
 20
0
 30
0
  0
POLYLINE
  8
LAYER_1
 40
0.1764
 41
0.1764
 66
1
 10
0
 20
0
 30
0
  0
VERTEX
  8
LAYER_1
 10
53.3883
 20
89.4333
  0
VERTEX
  8
LAYER_1
 10
53.2946
 20
89.4926
  0
VERTEX
  8
LAYER_1
 10
53.1781
 20
89.5153
  0
SEQEND
  0
POLYLINE
  8
LAYER_1
  6
AIGENLINE001
 40
0.1129
 41
0.1129
 66
1
 10
0
 20
0
 30
0
 70
128
  0
VERTEX
  8
LAYER_1
 10
53.1906
 20
89.5153
  0
VERTEX
  8
LAYER_1
 10
56.5102
 20
89.5153
  0
SEQEND
  0
INSERT
  8
LAYER_1
  2
AIGNBL01010005
 10
0
 20
0
 30
0
  0
POLYLINE
  8
LAYER_1
 40
0.1129
 41
0.1129
 66
1
 10
0
 20
0
 30
0
  0
VERTEX
  8
LAYER_1
 10
10.6772
 20
182.1296
  0
VERTEX
  8
LAYER_1
 10
10.6772
 20
136.1295
  0
SEQEND
  0
POLYLINE
  8
LAYER_1
 40
0.1129
 41
0.1129
 66
1
 10
0
 20
0
 30
0
  0
VERTEX
  8
LAYER_1
 10
13.8676
 20
136.0378
  0
VERTEX
  8
LAYER_1
 10
8.5759
 20
136.0378
  0
SEQEND
  0
POLYLINE
  8
LAYER_1
 40
0.1129
 41
0.1129
 66
1
 10
0
 20
0
 30
0
  0
VERTEX
  8
LAYER_1
 10
8.5759
 20
182.2199
  0
VERTEX
  8
LAYER_1
 10
13.8676
 20
182.2199
  0
SEQEND
  0
TEXT
  8
LAYER_1
 10
10.1001
 20
156.7329
 11
10.1001
 21
156.7329
 40
4.4427
 41
0.5
 50
89.99999999
  1
460
  0
POLYLINE
  8
LAYER_1
 40
0.1129
 41
0.1129
 66
1
 10
0
 20
0
 30
0
  0
VERTEX
  8
LAYER_1
 10
217.6487
 20
182.1296
  0
VERTEX
  8
LAYER_1
 10
217.6487
 20
136.1295
  0
SEQEND
  0
POLYLINE
  8
LAYER_1
 40
0.1129
 41
0.1129
 66
1
 10
0
 20
0
 30
0
  0
VERTEX
  8
LAYER_1
 10
220.8389
 20
136.0378
  0
VERTEX
  8
LAYER_1
 10
215.5472
 20
136.0378
  0
SEQEND
  0
POLYLINE
  8
LAYER_1
 40
0.1129
 41
0.1129
 66
1
 10
0
 20
0
 30
0
  0
VERTEX
  8
LAYER_1
 10
215.5472
 20
182.2199
  0
VERTEX
  8
LAYER_1
 10
220.8389
 20
182.2199
  0
SEQEND
  0
TEXT
  8
LAYER_1
 10
223.0246
 20
156.7329
 11
223.0246
 21
156.7329
 40
4.4427
 41
0.5
 50
89.99999999
  1
460
  0
POLYLINE
  8
LAYER_1
 40
0.1129
 41
0.1129
 66
1
 10
0
 20
0
 30
0
  0
VERTEX
  8
LAYER_1
 10
51.3543
 20
177.6883
  0
VERTEX
  8
LAYER_1
 10
51.3543
 20
180.6586
  0
SEQEND
  0
POLYLINE
  8
LAYER_1
 40
0.05
 41
0.05
 66
1
 10
0
 20
0
 30
0
  0
VERTEX
  8
LAYER_1
 10
51.8452
 20
178.0373
  0
VERTEX
  8
LAYER_1
 10
51.3336
 20
176.1253
  0
VERTEX
  8
LAYER_1
 10
50.8203
 20
178.0373
  0
SEQEND
  0
POLYLINE
  8
LAYER_1
 40
0.05
 41
0.05
 66
1
 10
0
 20
0
 30
0
  0
VERTEX
  8
LAYER_1
 10
51.8452
 20
180.3085
  0
VERTEX
  8
LAYER_1
 10
51.3336
 20
182.2209
  0
VERTEX
  8
LAYER_1
 10
50.8203
 20
180.3085
  0
SEQEND
  0
POLYLINE
  8
LAYER_1
 40
0.1129
 41
0.1129
 66
1
 10
0
 20
0
 30
0
  0
VERTEX
  8
LAYER_1
 10
54.0446
 20
176.1253
  0
VERTEX
  8
LAYER_1
 10
48.7529
 20
176.1253
  0
SEQEND
  0
TEXT
  8
LAYER_1
 10
44.1896
 20
177.0367
 11
44.1896
 21
177.0367
 40
4.4427
 41
0.5
  1
60
  0
POLYLINE
  8
LAYER_1
 40
0.1129
 41
0.1129
 66
1
 10
0
 20
0
 30
0
  0
VERTEX
  8
LAYER_1
 10
180.4806
 20
71.7303
  0
VERTEX
  8
LAYER_1
 10
161.6012
 20
71.7303
  0
SEQEND
  0
POLYLINE
  8
LAYER_1
 40
0.05
 41
0.05
 66
1
 10
0
 20
0
 30
0
  0
VERTEX
  8
LAYER_1
 10
180.1316
 20
72.2223
  0
VERTEX
  8
LAYER_1
 10
182.0437
 20
71.7103
  0
VERTEX
  8
LAYER_1
 10
180.1316
 20
71.1963
  0
SEQEND
  0
POLYLINE
  8
LAYER_1
 40
0.05
 41
0.05
 66
1
 10
0
 20
0
 30
0
  0
VERTEX
  8
LAYER_1
 10
161.9512
 20
72.2223
  0
VERTEX
  8
LAYER_1
 10
160.0384
 20
71.7103
  0
VERTEX
  8
LAYER_1
 10
161.9512
 20
71.1963
  0
SEQEND
  0
POLYLINE
  8
LAYER_1
 40
0.1129
 41
0.1129
 66
1
 10
0
 20
0
 30
0
  0
VERTEX
  8
LAYER_1
 10
160.0384
 20
69.0941
  0
VERTEX
  8
LAYER_1
 10
160.0384
 20
74.3865
  0
SEQEND
  0
POLYLINE
  8
LAYER_1
 40
0.1129
 41
0.1129
 66
1
 10
0
 20
0
 30
0
  0
VERTEX
  8
LAYER_1
 10
182.0437
 20
74.3872
  0
VERTEX
  8
LAYER_1
 10
182.0437
 20
69.0948
  0
SEQEND
  0
TEXT
  8
LAYER_1
 10
167.6811
 20
66.6457
 11
167.6811
 21
66.6457
 40
4.4427
 41
0.5
  1
220
  0
POLYLINE
  8
LAYER_1
 40
0.1129
 41
0.1129
 66
1
 10
0
 20
0
 30
0
  0
VERTEX
  8
LAYER_1
 10
105.0255
 20
180.6579
  0
VERTEX
  8
LAYER_1
 10
105.0255
 20
171.0967
  0
SEQEND
  0
POLYLINE
  8
LAYER_1
 40
0.05
 41
0.05
 66
1
 10
0
 20
0
 30
0
  0
VERTEX
  8
LAYER_1
 10
104.5349
 20
180.3085
  0
VERTEX
  8
LAYER_1
 10
105.0461
 20
182.2209
  0
VERTEX
  8
LAYER_1
 10
105.5591
 20
180.3085
  0
SEQEND
  0
POLYLINE
  8
LAYER_1
 40
0.05
 41
0.05
 66
1
 10
0
 20
0
 30
0
  0
VERTEX
  8
LAYER_1
 10
104.5349
 20
171.4464
  0
VERTEX
  8
LAYER_1
 10
105.0461
 20
169.534
  0
VERTEX
  8
LAYER_1
 10
105.5591
 20
171.4464
  0
SEQEND
  0
POLYLINE
  8
LAYER_1
 40
0.1129
 41
0.1129
 66
1
 10
0
 20
0
 30
0
  0
VERTEX
  8
LAYER_1
 10
105.0255
 20
169.534
  0
VERTEX
  8
LAYER_1
 10
99.7341
 20
169.534
  0
SEQEND
  0
POLYLINE
  8
LAYER_1
 40
0.1129
 41
0.1129
 66
1
 10
0
 20
0
 30
0
  0
VERTEX
  8
LAYER_1
 10
99.7341
 20
182.2206
  0
VERTEX
  8
LAYER_1
 10
105.0255
 20
182.2206
  0
SEQEND
  0
TEXT
  8
LAYER_1
 10
110.2288
 20
171.5037
 11
110.2288
 21
171.5037
 40
4.4427
 41
0.5
 50
89.99999999
  1
125
  0
POLYLINE
  8
LAYER_1
 40
0.1129
 41
0.1129
 66
1
 10
0
 20
0
 30
0
  0
VERTEX
  8
LAYER_1
 10
170.763
 20
101.7819
  0
VERTEX
  8
LAYER_1
 10
180.4806
 20
101.7819
  0
SEQEND
  0
POLYLINE
  8
LAYER_1
 40
0.05
 41
0.05
 66
1
 10
0
 20
0
 30
0
  0
VERTEX
  8
LAYER_1
 10
171.1127
 20
101.2906
  0
VERTEX
  8
LAYER_1
 10
169.2
 20
101.8026
  0
VERTEX
  8
LAYER_1
 10
171.1127
 20
102.3159
  0
SEQEND
  0
POLYLINE
  8
LAYER_1
 40
0.05
 41
0.05
 66
1
 10
0
 20
0
 30
0
  0
VERTEX
  8
LAYER_1
 10
180.1316
 20
101.2906
  0
VERTEX
  8
LAYER_1
 10
182.0437
 20
101.8026
  0
VERTEX
  8
LAYER_1
 10
180.1316
 20
102.3159
  0
SEQEND
  0
POLYLINE
  8
LAYER_1
 40
0.1129
 41
0.1129
 66
1
 10
0
 20
0
 30
0
  0
VERTEX
  8
LAYER_1
 10
182.0437
 20
101.7819
  0
VERTEX
  8
LAYER_1
 10
182.0437
 20
96.4902
  0
SEQEND
  0
POLYLINE
  8
LAYER_1
 40
0.1129
 41
0.1129
 66
1
 10
0
 20
0
 30
0
  0
VERTEX
  8
LAYER_1
 10
169.2007
 20
96.4902
  0
VERTEX
  8
LAYER_1
 10
169.2007
 20
101.7819
  0
SEQEND
  0
TEXT
  8
LAYER_1
 10
171.2519
 20
103.0059
 11
171.2519
 21
103.0059
 40
4.4427
 41
0.5
  1
125
  0
POLYLINE
  8
LAYER_1
 40
0.1129
 41
0.1129
 66
1
 10
0
 20
0
 30
0
  0
VERTEX
  8
LAYER_1
 10
139.7362
 20
101.7819
  0
VERTEX
  8
LAYER_1
 10
167.6377
 20
101.7819
  0
SEQEND
  0
POLYLINE
  8
LAYER_1
 40
0.05
 41
0.05
 66
1
 10
0
 20
0
 30
0
  0
VERTEX
  8
LAYER_1
 10
140.0859
 20
101.2906
  0
VERTEX
  8
LAYER_1
 10
138.1738
 20
101.8026
  0
VERTEX
  8
LAYER_1
 10
140.0859
 20
102.3159
  0
SEQEND
  0
POLYLINE
  8
LAYER_1
 40
0.05
 41
0.05
 66
1
 10
0
 20
0
 30
0
  0
VERTEX
  8
LAYER_1
 10
167.2883
 20
101.2906
  0
VERTEX
  8
LAYER_1
 10
169.2007
 20
101.8026
  0
VERTEX
  8
LAYER_1
 10
167.2883
 20
102.3159
  0
SEQEND
  0
POLYLINE
  8
LAYER_1
 40
0.1129
 41
0.1129
 66
1
 10
0
 20
0
 30
0
  0
VERTEX
  8
LAYER_1
 10
169.2007
 20
101.7819
  0
VERTEX
  8
LAYER_1
 10
169.2007
 20
96.4902
  0
SEQEND
  0
POLYLINE
  8
LAYER_1
 40
0.1129
 41
0.1129
 66
1
 10
0
 20
0
 30
0
  0
VERTEX
  8
LAYER_1
 10
138.1738
 20
96.4902
  0
VERTEX
  8
LAYER_1
 10
138.1738
 20
101.7819
  0
SEQEND
  0
TEXT
  8
LAYER_1
 10
150.099
 20
103.0059
 11
150.099
 21
103.0059
 40
4.4427
 41
0.5
  1
320
  0
POLYLINE
  8
LAYER_1
 40
0.1129
 41
0.1129
 66
1
 10
0
 20
0
 30
0
  0
VERTEX
  8
LAYER_1
 10
44.1503
 20
106.9668
  0
VERTEX
  8
LAYER_1
 10
69.0363
 20
106.9668
  0
SEQEND
  0
POLYLINE
  8
LAYER_1
 40
0.05
 41
0.05
 66
1
 10
0
 20
0
 30
0
  0
VERTEX
  8
LAYER_1
 10
44.5003
 20
106.4755
  0
VERTEX
  8
LAYER_1
 10
42.5872
 20
106.9874
  0
VERTEX
  8
LAYER_1
 10
44.5003
 20
107.5001
  0
SEQEND
  0
POLYLINE
  8
LAYER_1
 40
0.05
 41
0.05
 66
1
 10
0
 20
0
 30
0
  0
VERTEX
  8
LAYER_1
 10
68.6869
 20
106.4755
  0
VERTEX
  8
LAYER_1
 10
70.5993
 20
106.9874
  0
VERTEX
  8
LAYER_1
 10
68.6869
 20
107.5001
  0
SEQEND
  0
POLYLINE
  8
LAYER_1
 40
0.1129
 41
0.1129
 66
1
 10
0
 20
0
 30
0
  0
VERTEX
  8
LAYER_1
 10
70.5986
 20
109.7291
  0
VERTEX
  8
LAYER_1
 10
70.5986
 20
104.4374
  0
SEQEND
  0
POLYLINE
  8
LAYER_1
 40
0.1129
 41
0.1129
 66
1
 10
0
 20
0
 30
0
  0
VERTEX
  8
LAYER_1
 10
42.5872
 20
104.4374
  0
VERTEX
  8
LAYER_1
 10
42.5872
 20
109.7291
  0
SEQEND
  0
TEXT
  8
LAYER_1
 10
52.8529
 20
108.1905
 11
52.8529
 21
108.1905
 40
4.4427
 41
0.5
  1
285
  0
POLYLINE
  8
LAYER_1
 40
0.1129
 41
0.1129
 66
1
 10
0
 20
0
 30
0
  0
VERTEX
  8
LAYER_1
 10
16.4903
 20
186.843
  0
VERTEX
  8
LAYER_1
 10
96.4902
 20
186.843
  0
SEQEND
  0
POLYLINE
  8
LAYER_1
 40
0.1129
 41
0.1129
 66
1
 10
0
 20
0
 30
0
  0
VERTEX
  8
LAYER_1
 10
96.4913
 20
189.3922
  0
VERTEX
  8
LAYER_1
 10
96.4913
 20
184.1006
  0
SEQEND
  0
POLYLINE
  8
LAYER_1
 40
0.1129
 41
0.1129
 66
1
 10
0
 20
0
 30
0
  0
VERTEX
  8
LAYER_1
 10
16.4903
 20
184.1006
  0
VERTEX
  8
LAYER_1
 10
16.4903
 20
189.3922
  0
SEQEND
  0
TEXT
  8
LAYER_1
 10
52.4993
 20
188.9702
 11
52.4993
 21
188.9702
 40
4.4427
 41
0.5
  1
800
  0
POLYLINE
  8
LAYER_1
 40
0.1129
 41
0.1129
 66
1
 10
0
 20
0
 30
0
  0
VERTEX
  8
LAYER_1
 10
132.3712
 20
130.4478
  0
VERTEX
  8
LAYER_1
 10
212.3712
 20
130.4478
  0
SEQEND
  0
POLYLINE
  8
LAYER_1
 40
0.1129
 41
0.1129
 66
1
 10
0
 20
0
 30
0
  0
VERTEX
  8
LAYER_1
 10
212.3722
 20
132.9972
  0
VERTEX
  8
LAYER_1
 10
212.3722
 20
127.7056
  0
SEQEND
  0
POLYLINE
  8
LAYER_1
 40
0.1129
 41
0.1129
 66
1
 10
0
 20
0
 30
0
  0
VERTEX
  8
LAYER_1
 10
132.3712
 20
127.7056
  0
VERTEX
  8
LAYER_1
 10
132.3712
 20
132.9972
  0
SEQEND
  0
TEXT
  8
LAYER_1
 10
168.3802
 20
125.1669
 11
168.3802
 21
125.1669
 40
4.4427
 41
0.5
  1
800
  0
POLYLINE
  8
LAYER_1
 40
0.1129
 41
0.1129
 66
1
 10
0
 20
0
 30
0
  0
VERTEX
  8
LAYER_1
 10
17.9903
 20
131.0039
  0
VERTEX
  8
LAYER_1
 10
94.9902
 20
131.0039
  0
SEQEND
  0
POLYLINE
  8
LAYER_1
 40
0.1129
 41
0.1129
 66
1
 10
0
 20
0
 30
0
  0
VERTEX
  8
LAYER_1
 10
94.9913
 20
133.5526
  0
VERTEX
  8
LAYER_1
 10
94.9913
 20
128.2609
  0
SEQEND
  0
POLYLINE
  8
LAYER_1
 40
0.1129
 41
0.1129
 66
1
 10
0
 20
0
 30
0
  0
VERTEX
  8
LAYER_1
 10
17.9903
 20
128.2609
  0
VERTEX
  8
LAYER_1
 10
17.9903
 20
133.5526
  0
SEQEND
  0
TEXT
  8
LAYER_1
 10
52.4993
 20
124.8404
 11
52.4993
 21
124.8404
 40
4.4427
 41
0.5
  1
770
  0
POLYLINE
  8
LAYER_1
 40
0.1129
 41
0.1129
 66
1
 10
0
 20
0
 30
0
  0
VERTEX
  8
LAYER_1
 10
105.0251
 20
167.971
  0
VERTEX
  8
LAYER_1
 10
105.0251
 20
139.126
  0
SEQEND
  0
POLYLINE
  8
LAYER_1
 40
0.05
 41
0.05
 66
1
 10
0
 20
0
 30
0
  0
VERTEX
  8
LAYER_1
 10
104.5349
 20
167.6223
  0
VERTEX
  8
LAYER_1
 10
105.0461
 20
169.5347
  0
VERTEX
  8
LAYER_1
 10
105.5591
 20
167.6223
  0
SEQEND
  0
POLYLINE
  8
LAYER_1
 40
0.05
 41
0.05
 66
1
 10
0
 20
0
 30
0
  0
VERTEX
  8
LAYER_1
 10
104.5349
 20
139.4754
  0
VERTEX
  8
LAYER_1
 10
105.0461
 20
137.5627
  0
VERTEX
  8
LAYER_1
 10
105.5591
 20
139.4754
  0
SEQEND
  0
POLYLINE
  8
LAYER_1
 40
0.1129
 41
0.1129
 66
1
 10
0
 20
0
 30
0
  0
VERTEX
  8
LAYER_1
 10
105.0251
 20
137.5634
  0
VERTEX
  8
LAYER_1
 10
99.7335
 20
137.5634
  0
SEQEND
  0
POLYLINE
  8
LAYER_1
 40
0.1129
 41
0.1129
 66
1
 10
0
 20
0
 30
0
  0
VERTEX
  8
LAYER_1
 10
99.7335
 20
169.5337
  0
VERTEX
  8
LAYER_1
 10
105.0251
 20
169.5337
  0
SEQEND
  0
TEXT
  8
LAYER_1
 10
110.2288
 20
150.3798
 11
110.2288
 21
150.3798
 40
4.4427
 41
0.5
 50
89.99999999
  1
320
  0
POLYLINE
  8
LAYER_1
 40
0.1129
 41
0.1129
 66
1
 10
0
 20
0
 30
0
  0
VERTEX
  8
LAYER_1
 10
191.0288
 20
90.42
  0
VERTEX
  8
LAYER_1
 10
191.0288
 20
80.4037
  0
SEQEND
  0
POLYLINE
  8
LAYER_1
 40
0.05
 41
0.05
 66
1
 10
0
 20
0
 30
0
  0
VERTEX
  8
LAYER_1
 10
190.5379
 20
90.0713
  0
VERTEX
  8
LAYER_1
 10
191.0498
 20
91.9833
  0
VERTEX
  8
LAYER_1
 10
191.5625
 20
90.0713
  0
SEQEND
  0
POLYLINE
  8
LAYER_1
 40
0.05
 41
0.05
 66
1
 10
0
 20
0
 30
0
  0
VERTEX
  8
LAYER_1
 10
190.5379
 20
80.7537
  0
VERTEX
  8
LAYER_1
 10
191.0498
 20
78.841
  0
VERTEX
  8
LAYER_1
 10
191.5625
 20
80.7537
  0
SEQEND
  0
POLYLINE
  8
LAYER_1
 40
0.1129
 41
0.1129
 66
1
 10
0
 20
0
 30
0
  0
VERTEX
  8
LAYER_1
 10
191.0288
 20
78.841
  0
VERTEX
  8
LAYER_1
 10
185.7371
 20
78.841
  0
SEQEND
  0
POLYLINE
  8
LAYER_1
 40
0.1129
 41
0.1129
 66
1
 10
0
 20
0
 30
0
  0
VERTEX
  8
LAYER_1
 10
185.7371
 20
91.9833
  0
VERTEX
  8
LAYER_1
 10
191.0288
 20
91.9833
  0
SEQEND
  0
TEXT
  8
LAYER_1
 10
197.0062
 20
81.2836
 11
197.0062
 21
81.2836
 40
4.4427
 41
0.5
 50
89.99999999
  1
130
  0
POLYLINE
  8
LAYER_1
 40
0.1129
 41
0.1129
 66
1
 10
0
 20
0
 30
0
  0
VERTEX
  8
LAYER_1
 10
160.7158
 20
90.5564
  0
VERTEX
  8
LAYER_1
 10
160.7158
 20
81.4103
  0
SEQEND
  0
POLYLINE
  8
LAYER_1
 40
0.05
 41
0.05
 66
1
 10
0
 20
0
 30
0
  0
VERTEX
  8
LAYER_1
 10
160.2249
 20
90.2374
  0
VERTEX
  8
LAYER_1
 10
160.7368
 20
91.9833
  0
VERTEX
  8
LAYER_1
 10
161.2494
 20
90.2374
  0
SEQEND
  0
POLYLINE
  8
LAYER_1
 40
0.05
 41
0.05
 66
1
 10
0
 20
0
 30
0
  0
VERTEX
  8
LAYER_1
 10
160.2249
 20
81.7294
  0
VERTEX
  8
LAYER_1
 10
160.7368
 20
79.9834
  0
VERTEX
  8
LAYER_1
 10
161.2494
 20
81.7294
  0
SEQEND
  0
TEXT
  8
LAYER_1
 10
166.9612
 20
81.6612
 11
166.9612
 21
81.6612
 40
4.4427
 41
0.5
 50
89.99999999
  1
120
  0
POLYLINE
  8
LAYER_1
 40
0.1129
 41
0.1129
 66
1
 10
0
 20
0
 30
0
  0
VERTEX
  8
LAYER_1
 10
102.2033
 20
100.131
  0
VERTEX
  8
LAYER_1
 10
102.2033
 20
96.4048
  0
SEQEND
  0
POLYLINE
  8
LAYER_1
 40
0.05
 41
0.05
 66
1
 10
0
 20
0
 30
0
  0
VERTEX
  8
LAYER_1
 10
101.7126
 20
99.7824
  0
VERTEX
  8
LAYER_1
 10
102.2239
 20
101.6944
  0
VERTEX
  8
LAYER_1
 10
102.7369
 20
99.7824
  0
SEQEND
  0
POLYLINE
  8
LAYER_1
 40
0.05
 41
0.05
 66
1
 10
0
 20
0
 30
0
  0
VERTEX
  8
LAYER_1
 10
101.7126
 20
96.7548
  0
VERTEX
  8
LAYER_1
 10
102.2239
 20
94.8428
  0
VERTEX
  8
LAYER_1
 10
102.7369
 20
96.7548
  0
SEQEND
  0
POLYLINE
  8
LAYER_1
 40
0.1129
 41
0.1129
 66
1
 10
0
 20
0
 30
0
  0
VERTEX
  8
LAYER_1
 10
105.0255
 20
94.8428
  0
VERTEX
  8
LAYER_1
 10
99.7341
 20
94.8428
  0
SEQEND
  0
POLYLINE
  8
LAYER_1
 40
0.1129
 41
0.1129
 66
1
 10
0
 20
0
 30
0
  0
VERTEX
  8
LAYER_1
 10
99.7341
 20
101.6944
  0
VERTEX
  8
LAYER_1
 10
105.0255
 20
101.6944
  0
SEQEND
  0
TEXT
  8
LAYER_1
 10
105.5508
 20
96.8113
 11
105.5508
 21
96.8113
 40
4.4427
 41
0.5
  1
45
  0
POLYLINE
  8
LAYER_1
 40
0.1129
 41
0.1129
 66
1
 10
0
 20
0
 30
0
  0
VERTEX
  8
LAYER_1
 10
105.0251
 20
137.5627
  0
VERTEX
  8
LAYER_1
 10
105.0251
 20
136.0378
  0
SEQEND
  0
POLYLINE
  8
LAYER_1
 40
0.05
 41
0.05
 66
1
 10
0
 20
0
 30
0
  0
VERTEX
  8
LAYER_1
 10
104.5349
 20
137.2133
  0
VERTEX
  8
LAYER_1
 10
105.0461
 20
139.126
  0
VERTEX
  8
LAYER_1
 10
105.5591
 20
137.2133
  0
SEQEND
  0
POLYLINE
  8
LAYER_1
 40
0.05
 41
0.05
 66
1
 10
0
 20
0
 30
0
  0
VERTEX
  8
LAYER_1
 10
104.5349
 20
136.3872
  0
VERTEX
  8
LAYER_1
 10
105.0461
 20
134.4752
  0
VERTEX
  8
LAYER_1
 10
105.5591
 20
136.3872
  0
SEQEND
  0
POLYLINE
  8
LAYER_1
 40
0.1129
 41
0.1129
 66
1
 10
0
 20
0
 30
0
  0
VERTEX
  8
LAYER_1
 10
105.0251
 20
136.0378
  0
VERTEX
  8
LAYER_1
 10
99.7335
 20
136.0378
  0
SEQEND
  0
POLYLINE
  8
LAYER_1
 40
0.1129
 41
0.1129
 66
1
 10
0
 20
0
 30
0
  0
VERTEX
  8
LAYER_1
 10
99.7335
 20
137.5627
  0
VERTEX
  8
LAYER_1
 10
105.0251
 20
137.5627
  0
SEQEND
  0
TEXT
  8
LAYER_1
 10
110.2288
 20
134.0342
 11
110.2288
 21
134.0342
 40
4.4427
 41
0.5
 50
89.99999999
  1
15
  0
POLYLINE
  8
LAYER_1
 40
0.1129
 41
0.1129
 66
1
 10
0
 20
0
 30
0
  0
VERTEX
  8
LAYER_1
 10
136.6611
 20
101.7819
  0
VERTEX
  8
LAYER_1
 10
138.1855
 20
101.7819
  0
SEQEND
  0
POLYLINE
  8
LAYER_1
 40
0.05
 41
0.05
 66
1
 10
0
 20
0
 30
0
  0
VERTEX
  8
LAYER_1
 10
137.0111
 20
101.2906
  0
VERTEX
  8
LAYER_1
 10
135.098
 20
101.8026
  0
VERTEX
  8
LAYER_1
 10
137.0111
 20
102.3159
  0
SEQEND
  0
POLYLINE
  8
LAYER_1
 40
0.05
 41
0.05
 66
1
 10
0
 20
0
 30
0
  0
VERTEX
  8
LAYER_1
 10
137.8366
 20
101.2906
  0
VERTEX
  8
LAYER_1
 10
139.7486
 20
101.8026
  0
VERTEX
  8
LAYER_1
 10
137.8366
 20
102.3159
  0
SEQEND
  0
POLYLINE
  8
LAYER_1
 40
0.1129
 41
0.1129
 66
1
 10
0
 20
0
 30
0
  0
VERTEX
  8
LAYER_1
 10
138.1862
 20
101.7819
  0
VERTEX
  8
LAYER_1
 10
138.1862
 20
96.4902
  0
SEQEND
  0
POLYLINE
  8
LAYER_1
 40
0.1129
 41
0.1129
 66
1
 10
0
 20
0
 30
0
  0
VERTEX
  8
LAYER_1
 10
136.6611
 20
96.4902
  0
VERTEX
  8
LAYER_1
 10
136.6611
 20
101.7819
  0
SEQEND
  0
TEXT
  8
LAYER_1
 10
135.4708
 20
103.3594
 11
135.4708
 21
103.3594
 40
4.4427
 41
0.5
  1
15
  0
POLYLINE
  8
LAYER_1
 40
0.1764
 41
0.1764
 66
1
 10
0
 20
0
 30
0
  0
VERTEX
  8
LAYER_1
 10
182.0437
 20
90.564
  0
VERTEX
  8
LAYER_1
 10
182.0437
 20
78.7886
  0
VERTEX
  8
LAYER_1
 10
182.0437
 20
91.4742
  0
VERTEX
  8
LAYER_1
 10
182.0206
 20
91.6285
  0
VERTEX
  8
LAYER_1
 10
181.951
 20
91.7704
  0
VERTEX
  8
LAYER_1
 10
181.8342
 20
91.8883
  0
VERTEX
  8
LAYER_1
 10
181.6947
 20
91.9599
  0
VERTEX
  8
LAYER_1
 10
181.5428
 20
91.9827
  0
SEQEND
  0
INSERT
  8
LAYER_1
  2
AIGNBL01010006
 10
0
 20
0
 30
0
  0
INSERT
  8
LAYER_1
  2
AIGNBL01010007
 10
0
 20
0
 30
0
  0
INSERT
  8
LAYER_1
  2
AIGNBL01010008
 10
0
 20
0
 30
0
  0
POLYLINE
  8
LAYER_1
 40
0.1129
 41
0.1129
 66
1
 10
0
 20
0
 30
0
  0
VERTEX
  8
LAYER_1
 10
188.3289
 20
180.6613
  0
VERTEX
  8
LAYER_1
 10
188.3289
 20
153.783
  0
SEQEND
  0
POLYLINE
  8
LAYER_1
 40
0.05
 41
0.05
 66
1
 10
0
 20
0
 30
0
  0
VERTEX
  8
LAYER_1
 10
187.8383
 20
180.3116
  0
VERTEX
  8
LAYER_1
 10
188.3499
 20
182.2237
  0
VERTEX
  8
LAYER_1
 10
188.8625
 20
180.3116
  0
SEQEND
  0
POLYLINE
  8
LAYER_1
 40
0.05
 41
0.05
 66
1
 10
0
 20
0
 30
0
  0
VERTEX
  8
LAYER_1
 10
187.8383
 20
154.1317
  0
VERTEX
  8
LAYER_1
 10
188.3499
 20
152.2197
  0
VERTEX
  8
LAYER_1
 10
188.8625
 20
154.1317
  0
SEQEND
  0
POLYLINE
  8
LAYER_1
 40
0.1129
 41
0.1129
 66
1
 10
0
 20
0
 30
0
  0
VERTEX
  8
LAYER_1
 10
188.3289
 20
152.22
  0
VERTEX
  8
LAYER_1
 10
183.0376
 20
152.22
  0
SEQEND
  0
POLYLINE
  8
LAYER_1
 40
0.1129
 41
0.1129
 66
1
 10
0
 20
0
 30
0
  0
VERTEX
  8
LAYER_1
 10
183.0369
 20
182.2233
  0
VERTEX
  8
LAYER_1
 10
188.3285
 20
182.2233
  0
SEQEND
  0
TEXT
  8
LAYER_1
 10
192.6137
 20
162.6016
 11
192.6137
 21
162.6016
 40
4.4427
 41
0.5
 50
89.99999999
 62
1
  1
300
  0
POLYLINE
  8
LAYER_1
 40
0.1129
 41
0.1129
 66
1
 10
0
 20
0
 30
0
  0
VERTEX
  8
LAYER_1
 10
178.2895
 20
144.9829
  0
VERTEX
  8
LAYER_1
 10
166.4147
 20
144.9829
  0
SEQEND
  0
POLYLINE
  8
LAYER_1
 40
0.05
 41
0.05
 66
1
 10
0
 20
0
 30
0
  0
VERTEX
  8
LAYER_1
 10
177.9405
 20
145.4738
  0
VERTEX
  8
LAYER_1
 10
179.8526
 20
144.9619
  0
VERTEX
  8
LAYER_1
 10
177.9405
 20
144.4492
  0
SEQEND
  0
POLYLINE
  8
LAYER_1
 40
0.05
 41
0.05
 66
1
 10
0
 20
0
 30
0
  0
VERTEX
  8
LAYER_1
 10
166.7643
 20
145.4738
  0
VERTEX
  8
LAYER_1
 10
164.8516
 20
144.9619
  0
VERTEX
  8
LAYER_1
 10
166.7643
 20
144.4492
  0
SEQEND
  0
POLYLINE
  8
LAYER_1
 40
0.1129
 41
0.1129
 66
1
 10
0
 20
0
 30
0
  0
VERTEX
  8
LAYER_1
 10
164.852
 20
144.9829
  0
VERTEX
  8
LAYER_1
 10
164.852
 20
150.2745
  0
SEQEND
  0
POLYLINE
  8
LAYER_1
 40
0.1129
 41
0.1129
 66
1
 10
0
 20
0
 30
0
  0
VERTEX
  8
LAYER_1
 10
179.8526
 20
150.2745
  0
VERTEX
  8
LAYER_1
 10
179.8526
 20
144.9829
  0
SEQEND
  0
TEXT
  8
LAYER_1
 10
167.4771
 20
139.9012
 11
167.4771
 21
139.9012
 40
4.4427
 41
0.5
 62
1
  1
150
  0
INSERT
  8
LAYER_1
  2
AIGNBL01010009
 10
0
 20
0
 30
0
  0
INSERT
  8
LAYER_1
  2
AIGNBL0101000A
 10
0
 20
0
 30
0
  0
INSERT
  8
LAYER_1
  2
AIGNBL0101000B
 10
0
 20
0
 30
0
  0
INSERT
  8
LAYER_1
  2
AIGNBL0101000C
 10
0
 20
0
 30
0
  0
INSERT
  8
LAYER_1
  2
AIGNBL0101000D
 10
0
 20
0
 30
0
  0
POLYLINE
  8
LAYER_1
 40
0.05
 41
0.05
 66
1
 10
0
 20
0
 30
0
  0
VERTEX
  8
LAYER_1
 10
165.3573
 20
182.132
  0
VERTEX
  8
LAYER_1
 10
164.8481
 20
182.132
  0
VERTEX
  8
LAYER_1
 10
164.7593
 20
182.2209
  0
VERTEX
  8
LAYER_1
 10
164.8481
 20
182.3084
  0
VERTEX
  8
LAYER_1
 10
165.3573
 20
182.3084
 42
-0.1324559448
  0
VERTEX
  8
LAYER_1
 10
165.3811
 20
182.2206
 42
-0.1337910394
  0
VERTEX
  8
LAYER_1
 10
165.3573
 20
182.132
  0
SEQEND
  0
INSERT
  8
LAYER_1
  2
AIGNBL0101000E
 10
0
 20
0
 30
0
  0
INSERT
  8
LAYER_1
  2
AIGNBL0101000F
 10
0
 20
0
 30
0
  0
INSERT
  8
LAYER_1
  2
AIGNBL01010010
 10
0
 20
0
 30
0
  0
INSERT
  8
LAYER_1
  2
AIGNBL01010011
 10
0
 20
0
 30
0
  0
INSERT
  8
LAYER_1
  2
AIGNBL01010012
 10
0
 20
0
 30
0
  0
INSERT
  8
LAYER_1
  2
AIGNBL01010013
 10
0
 20
0
 30
0
  0
INSERT
  8
LAYER_1
  2
AIGNBL01010014
 10
0
 20
0
 30
0
  0
INSERT
  8
LAYER_1
  2
AIGNBL01010015
 10
0
 20
0
 30
0
  0
POLYLINE
  8
LAYER_1
 40
0.05
 41
0.05
 66
1
 10
0
 20
0
 30
0
  0
VERTEX
  8
LAYER_1
 10
168.081
 20
182.132
  0
VERTEX
  8
LAYER_1
 10
167.6769
 20
182.132
  0
VERTEX
  8
LAYER_1
 10
167.5891
 20
182.2209
  0
VERTEX
  8
LAYER_1
 10
167.6769
 20
182.3084
  0
VERTEX
  8
LAYER_1
 10
168.081
 20
182.3084
 42
-0.1325160352
  0
VERTEX
  8
LAYER_1
 10
168.1048
 20
182.2209
  0
VERTEX
  8
LAYER_1
 10
168.1048
 20
182.2206
 42
-0.1243869364
  0
VERTEX
  8
LAYER_1
 10
168.081
 20
182.132
  0
SEQEND
  0
POLYLINE
  8
LAYER_1
 40
0.05
 41
0.05
 66
1
 10
0
 20
0
 30
0
  0
VERTEX
  8
LAYER_1
 10
166.7189
 20
182.132
  0
VERTEX
  8
LAYER_1
 10
166.2631
 20
182.132
  0
VERTEX
  8
LAYER_1
 10
166.1742
 20
182.2209
  0
VERTEX
  8
LAYER_1
 10
166.2631
 20
182.3084
  0
VERTEX
  8
LAYER_1
 10
166.7189
 20
182.3084
 42
-0.1326378772
  0
VERTEX
  8
LAYER_1
 10
166.7426
 20
182.2209
  0
VERTEX
  8
LAYER_1
 10
166.7426
 20
182.2206
 42
-0.1328986039
  0
VERTEX
  8
LAYER_1
 10
166.7189
 20
182.132
  0
SEQEND
  0
POLYLINE
  8
LAYER_1
 40
0.05
 41
0.05
 66
1
 10
0
 20
0
 30
0
  0
VERTEX
  8
LAYER_1
 10
179.7013
 20
182.132
  0
VERTEX
  8
LAYER_1
 10
179.3472
 20
182.132
 42
-0.1285856642
  0
VERTEX
  8
LAYER_1
 10
179.3241
 20
182.2206
  0
VERTEX
  8
LAYER_1
 10
179.3234
 20
182.2209
 42
-0.1337070126
  0
VERTEX
  8
LAYER_1
 10
179.3472
 20
182.3084
  0
VERTEX
  8
LAYER_1
 10
179.7013
 20
182.3084
  0
VERTEX
  8
LAYER_1
 10
179.7902
 20
182.2209
  0
VERTEX
  8
LAYER_1
 10
179.7013
 20
182.132
  0
SEQEND
  0
TEXT
  8
LAYER_1
 10
62.565
 20
154.6507
 11
62.565
 21
154.6507
 40
3.329
 41
0.5
  1
46
  0
INSERT
  8
LAYER_1
  2
AIGNBL01010016
 10
0
 20
0
 30
0
  0
POLYLINE
  8
LAYER_1
 40
0.1058
 41
0.1058
 66
1
 10
0
 20
0
 30
0
  0
VERTEX
  8
LAYER_1
 10
61.67
 20
172.9188
  0
VERTEX
  8
LAYER_1
 10
60.6705
 20
172.9188
  0
SEQEND
  0
POLYLINE
  8
LAYER_1
 40
0.1058
 41
0.1058
 66
1
 10
0
 20
0
 30
0
  0
VERTEX
  8
LAYER_1
 10
60.6698
 20
172.9188
  0
VERTEX
  8
LAYER_1
 10
59.081
 20
174.3764
  0
SEQEND
  0
TEXT
  8
LAYER_1
 10
61.9817
 20
172.4506
 11
61.9817
 21
172.4506
 40
3.329
 41
0.5
  1
35
  0
POLYLINE
  8
LAYER_1
 40
0.05
 41
0.05
 66
1
 10
0
 20
0
 30
0
 70
1
  0
VERTEX
  8
LAYER_1
 10
59.1936
 20
174.4994
  0
VERTEX
  8
LAYER_1
 10
58.9683
 20
174.2534
  0
VERTEX
  8
LAYER_1
 10
58.3444
 20
175.0523
  0
SEQEND
  0
POLYLINE
  8
LAYER_1
  6
AIGENLINE002
 40
0.0882
 41
0.0882
 62
1
 66
1
 10
0
 20
0
 30
0
 70
129
  0
VERTEX
  8
LAYER_1
 10
164.7903
 20
152.2203
  0
VERTEX
  8
LAYER_1
 10
179.7902
 20
152.2203
  0
VERTEX
  8
LAYER_1
 10
179.7902
 20
182.2206
  0
VERTEX
  8
LAYER_1
 10
164.7903
 20
182.2206
  0
SEQEND
  0
TEXT
  8
LAYER_2
 10
-26.2556
 20
43.1712
 11
-26.2556
 21
43.1712
 40
3.2995
 41
0.5
  1
仕様
  0
POLYLINE
  8
LAYER_2
 40
0.3528
 41
0.3528
 66
1
 10
0
 20
0
 30
0
  0
VERTEX
  8
LAYER_2
 10
250.6748
 20
51.9507
  0
VERTEX
  8
LAYER_2
 10
-29.3178
 20
51.9507
  0
SEQEND
  0
INSERT
  8
LAYER_2
  2
AIGNBL02010002
 10
0
 20
0
 30
0
  0
POLYLINE
  8
LAYER_2
 40
0.3528
 41
0.3528
 66
1
 10
0
 20
0
 30
0
  0
VERTEX
  8
LAYER_2
 10
-29.3178
 20
229.3369
  0
VERTEX
  8
LAYER_2
 10
-29.3178
 20
34.3283
  0
VERTEX
  8
LAYER_2
 10
250.6748
 20
34.3283
  0
VERTEX
  8
LAYER_2
 10
250.6748
 20
229.3369
  0
VERTEX
  8
LAYER_2
 10
-29.3178
 20
229.3369
  0
SEQEND
  0
POLYLINE
  8
LAYER_2
 40
0.3528
 41
0.3528
 66
1
 10
0
 20
0
 30
0
  0
VERTEX
  8
LAYER_2
 10
250.6748
 20
60.4597
  0
VERTEX
  8
LAYER_2
 10
-29.3178
 20
60.4597
  0
SEQEND
  0
POLYLINE
  8
LAYER_2
 40
0.3528
 41
0.3528
 66
1
 10
0
 20
0
 30
0
  0
VERTEX
  8
LAYER_2
 10
250.6748
 20
43.4416
  0
VERTEX
  8
LAYER_2
 10
143.5341
 20
43.4416
  0
SEQEND
  0
TEXT
  8
LAYER_2
 10
188.1725
 20
45.7175
 11
188.1725
 21
45.7175
 40
3.7615
 41
0.5
  1
-
  0
TEXT
  8
LAYER_2
 10
182.8808
 20
49.4743
 11
182.8808
 21
49.4743
 40
2.1997
 41
0.5
  1
縮尺
  0
POLYLINE
  8
LAYER_2
 40
0.3528
 41
0.3528
 66
1
 10
0
 20
0
 30
0
  0
VERTEX
  8
LAYER_2
 10
181.3526
 20
43.4416
  0
VERTEX
  8
LAYER_2
 10
181.3526
 20
51.9507
  0
SEQEND
  0
TEXT
  8
LAYER_2
 10
144.2327
 20
57.9834
 11
144.2327
 21
57.9834
 40
2.1997
 41
0.5
  1
品番
  0
TEXT
  8
LAYER_2
 10
-28.1609
 20
57.9834
 11
-28.1609
 21
57.9834
 40
2.1997
 41
0.5
  1
品名
  0
TEXT
  8
LAYER_2
 10
144.2327
 20
49.4743
 11
144.2327
 21
49.4743
 40
2.1997
 41
0.5
  1
重量
  0
TEXT
  8
LAYER_2
 10
150.2547
 20
54.1514
 11
150.2547
 21
54.1514
 40
5.9385
 41
0.5
  1
CIE-SMLAA80/
  0
TEXT
  8
LAYER_2
 10
149.5454
 20
45.7175
 11
149.5454
 21
45.7175
 40
3.7615
 41
0.5
  1
23kg
  0
POLYLINE
  8
LAYER_2
 40
0.3528
 41
0.3528
 66
1
 10
0
 20
0
 30
0
  0
VERTEX
  8
LAYER_2
 10
143.5341
 20
34.9539
  0
VERTEX
  8
LAYER_2
 10
143.5341
 20
60.4597
  0
SEQEND
  0
TEXT
  8
LAYER_2
 10
-15.2914
 20
54.891
 11
-15.2914
 21
54.891
 40
4.1465
 41
0.5
  1
スマイル 壁付け／カウンター置き型洗面器800ｍｍ
  0
INSERT
  8
LAYER_2
  2
AIGNBL02010003
 10
0
 20
0
 30
0
  0
TEXT
  8
LAYER_2
 10
-15.6835
 20
45.3736
 11
-15.6835
 21
45.3736
 40
3.1177
 41
0.5
  1
●設置方法：壁付け・カウンター置き●水栓取付穴：１穴●オーバーフロー付き
  0
TEXT
  8
LAYER_2
 10
-15.6835
 20
40.6235
 11
-15.6835
 21
40.6235
 40
3.1177
 41
0.5
  1
●排水金具別途●取り付けボルト同梱
  0
TEXT
  8
LAYER_2
 10
237.263
 20
63.2582
 11
237.263
 21
63.2582
 40
2.9618
 41
0.5
  1
単位：mm
  0
TEXT
  8
LAYER_2
 10
6.5217
 20
219.7385
 11
6.5217
 21
219.7385
 40
2.5981
 41
0.5
  1
※陶器製品は寸法公差が発生します。カウンター切り込みの際は必ず現物を合わせてご確認ください。
  0
TEXT
  8
LAYER_2
 10
6.5217
 20
214.9886
 11
6.5217
 21
214.9886
 40
2.9618
 41
0.5
  1
※壁面には50mm以上の補強材を入れてください。
  0
TEXT
  8
LAYER_2
 10
6.5217
 20
210.2385
 11
6.5217
 21
210.2385
 40
2.5981
 41
0.5
  1
※製品と接する部分には必ずコーキング処理を行ってください。
  0
TEXT
  8
LAYER_2
 10
176.0254
 20
39.5359
 11
176.0254
 21
39.5359
 40
3.3853
 41
0.5
  1
●TEL 0120-65-1232●FAX 06-6532-1580
  0
TEXT
  8
LAYER_2
 10
176.0254
 20
36.0212
 11
176.0254
 21
36.0212
 40
3.3853
 41
0.5
  1
hits@hiratatile.co.jp
  0
TEXT
  8
LAYER_2
 10
240.3591
 20
225.8432
 11
240.3591
 21
225.8432
 40
2.0732
 41
0.5
  1
160906RT
  0
INSERT
  8
LAYER_2
  2
AIGNBL02010006
 10
0
 20
0
 30
0
  0
TEXT
  8
LAYER_2
 10
49.065
 20
93.852
 11
49.065
 21
93.852
 40
2.3382
 41
0.5
  1
壁取付ボルト穴
  0
ENDSEC
  0
EOF
