  0
SECTION
  2
HEADER
  9
$ACADVER
  1
AC1009
  9
$LUNITS
 70
2
  9
$LUPREC
 70
4
  9
$LTSCALE
 40
1.0
  9
$EXTMIN
 10
-30.3177
 20
33.3285
 30
0
  9
$EXTMAX
 10
251.6749
 20
230.337
 30
0
  0
ENDSEC
  0
SECTION
  2
TABLES
  0
TABLE
  2
LTYPE
 70
256
  0
LTYPE
  2
AIGENLINE001
 70
64
  3
generate AI->DXF Converter
 72
65
 73
0
 40
0
  0
LTYPE
  2
AIGENLINE002
 70
64
  3
generate AI->DXF Converter
 72
65
 73
2
 40
2.8222
 49
1.4111
 49
-1.4111
  0
ENDTAB
  0
TABLE
  2
LAYER
 70
2
  0
LAYER
  2
LAYER_1
 70
64
 62
7
  6
CONTINUOUS
  0
LAYER
  2
LAYER_2
 70
64
 62
7
  6
CONTINUOUS
  0
ENDTAB
  0
TABLE
  2
STYLE
 70
6
  0
STYLE
  2
STANDARD
 70
0
 40
0
 50
0
 71
0
 41
0
 42
0
  3
TXT
  4
BIGFONT
  0
ENDTAB
  0
ENDSEC
  0
SECTION
  2
BLOCKS
  0
BLOCK
  8
LAYER_2
  2
AIGNBL02040009
 70
64
 10
0
 20
0
 30
0
  3
AIGNBL02040009
  0
POLYLINE
  8
LAYER_2
 40
0.05
 41
0.05
 66
1
 10
0
 20
0
 30
0
 70
1
  0
VERTEX
  8
LAYER_2
 10
106.4059
 20
39.1418
  0
VERTEX
  8
LAYER_2
 10
105.917
 20
37.9567
  0
VERTEX
  8
LAYER_2
 10
105.289
 20
37.9567
  0
VERTEX
  8
LAYER_2
 10
106.8885
 20
41.7225
  0
VERTEX
  8
LAYER_2
 10
107.6217
 20
41.7225
  0
VERTEX
  8
LAYER_2
 10
109.2281
 20
37.9567
  0
VERTEX
  8
LAYER_2
 10
108.578
 20
37.9567
  0
VERTEX
  8
LAYER_2
 10
108.0754
 20
39.1418
  0
SEQEND
  0
POLYLINE
  8
LAYER_2
 40
0.05
 41
0.05
 66
1
 10
0
 20
0
 30
0
 70
1
  0
VERTEX
  8
LAYER_2
 10
107.9496
 20
39.5207
  0
VERTEX
  8
LAYER_2
 10
107.4887
 20
40.6056
  0
VERTEX
  8
LAYER_2
 10
107.2441
 20
41.2926
  0
VERTEX
  8
LAYER_2
 10
107.2303
 20
41.2926
  0
VERTEX
  8
LAYER_2
 10
106.9926
 20
40.6101
  0
VERTEX
  8
LAYER_2
 10
106.532
 20
39.5207
  0
SEQEND
  0
ENDBLK
  0
BLOCK
  8
LAYER_2
  2
AIGNBL0204000A
 70
64
 10
0
 20
0
 30
0
  3
AIGNBL0204000A
  0
POLYLINE
  8
LAYER_2
 40
0.05
 41
0.05
 66
1
 10
0
 20
0
 30
0
 70
1
  0
VERTEX
  8
LAYER_2
 10
113.5934
 20
37.4034
 42
-0.01559967508
  0
VERTEX
  8
LAYER_2
 10
111.7913
 20
37.8395
  0
VERTEX
  8
LAYER_2
 10
111.5046
 20
37.895
 42
-0.08356944747
  0
VERTEX
  8
LAYER_2
 10
110.6406
 20
38.0612
 42
-0.0975043791
  0
VERTEX
  8
LAYER_2
 10
109.9794
 20
38.4671
 42
-0.2129077902
  0
VERTEX
  8
LAYER_2
 10
109.4307
 20
39.7998
 42
-0.0968494152
  0
VERTEX
  8
LAYER_2
 10
109.5753
 20
40.5732
 42
-0.2046438079
  0
VERTEX
  8
LAYER_2
 10
110.6228
 20
41.5974
 42
-0.09824750395
  0
VERTEX
  8
LAYER_2
 10
111.6238
 20
41.7838
 42
-0.08554009695
  0
VERTEX
  8
LAYER_2
 10
112.4924
 20
41.6425
 42
-0.1004336034
  0
VERTEX
  8
LAYER_2
 10
113.1575
 20
41.2483
 42
-0.2141019095
  0
VERTEX
  8
LAYER_2
 10
113.7329
 20
39.8784
 42
-0.09539620281
  0
VERTEX
  8
LAYER_2
 10
113.594
 20
39.1106
 42
-0.2143310008
  0
VERTEX
  8
LAYER_2
 10
112.5712
 20
38.1321
 42
-0.02339132607
  0
VERTEX
  8
LAYER_2
 10
112.3921
 20
38.0738
  0
VERTEX
  8
LAYER_2
 10
112.3921
 20
38.0514
 42
0.01711831943
  0
VERTEX
  8
LAYER_2
 10
113.7684
 20
37.8113
  0
SEQEND
  0
POLYLINE
  8
LAYER_2
 40
0.05
 41
0.05
 66
1
 10
0
 20
0
 30
0
 70
1
  0
VERTEX
  8
LAYER_2
 10
113.0907
 20
39.857
 42
0.1071543648
  0
VERTEX
  8
LAYER_2
 10
112.9394
 20
40.5618
 42
0.2976507644
  0
VERTEX
  8
LAYER_2
 10
111.6024
 20
41.3873
 42
0.1072363269
  0
VERTEX
  8
LAYER_2
 10
110.9126
 20
41.2478
 42
0.2386054241
  0
VERTEX
  8
LAYER_2
 10
110.1257
 20
40.2422
 42
0.05752774583
  0
VERTEX
  8
LAYER_2
 10
110.0801
 20
39.8122
 42
0.218096749
  0
VERTEX
  8
LAYER_2
 10
110.6107
 20
38.6168
 42
0.1772796408
  0
VERTEX
  8
LAYER_2
 10
111.5745
 20
38.2912
 42
0.1075185771
  0
VERTEX
  8
LAYER_2
 10
112.2559
 20
38.4302
 42
0.2370926009
  0
VERTEX
  8
LAYER_2
 10
113.043
 20
39.4298
 42
0.05601310134
  0
SEQEND
  0
ENDBLK
  0
BLOCK
  8
LAYER_2
  2
AIGNBL0204000B
 70
64
 10
0
 20
0
 30
0
  3
AIGNBL0204000B
  0
POLYLINE
  8
LAYER_2
 40
0.05
 41
0.05
 66
1
 10
0
 20
0
 30
0
 70
1
  0
VERTEX
  8
LAYER_2
 10
115.0603
 20
41.7225
  0
VERTEX
  8
LAYER_2
 10
115.0603
 20
39.4932
 42
0.114533087
  0
VERTEX
  8
LAYER_2
 10
115.1942
 20
38.8274
 42
0.1464774934
  0
VERTEX
  8
LAYER_2
 10
115.5446
 20
38.4422
 42
0.1362552487
  0
VERTEX
  8
LAYER_2
 10
116.1569
 20
38.2912
 42
0.1219300979
  0
VERTEX
  8
LAYER_2
 10
116.78
 20
38.4259
 42
0.1503016186
  0
VERTEX
  8
LAYER_2
 10
117.1518
 20
38.7949
 42
0.1256239276
  0
VERTEX
  8
LAYER_2
 10
117.3024
 20
39.4932
  0
VERTEX
  8
LAYER_2
 10
117.3024
 20
41.7225
  0
VERTEX
  8
LAYER_2
 10
117.917
 20
41.7225
  0
VERTEX
  8
LAYER_2
 10
117.917
 20
39.5266
 42
-0.09997505101
  0
VERTEX
  8
LAYER_2
 10
117.7821
 20
38.7839
 42
-0.1214984503
  0
VERTEX
  8
LAYER_2
 10
117.4088
 20
38.2772
 42
-0.1106235892
  0
VERTEX
  8
LAYER_2
 10
116.7834
 20
37.9706
 42
-0.06128954947
  0
VERTEX
  8
LAYER_2
 10
116.1359
 20
37.895
 42
-0.09418225932
  0
VERTEX
  8
LAYER_2
 10
115.3167
 20
38.0331
 42
-0.2431666463
  0
VERTEX
  8
LAYER_2
 10
114.5132
 20
38.9438
 42
-0.06320556818
  0
VERTEX
  8
LAYER_2
 10
114.4457
 20
39.5045
  0
VERTEX
  8
LAYER_2
 10
114.4457
 20
41.7225
  0
SEQEND
  0
ENDBLK
  0
BLOCK
  8
LAYER_2
  2
AIGNBL0204000C
 70
64
 10
0
 20
0
 30
0
  3
AIGNBL0204000C
  0
POLYLINE
  8
LAYER_2
 40
0.05
 41
0.05
 66
1
 10
0
 20
0
 30
0
 70
1
  0
VERTEX
  8
LAYER_2
 10
119.6633
 20
39.1418
  0
VERTEX
  8
LAYER_2
 10
119.1741
 20
37.9567
  0
VERTEX
  8
LAYER_2
 10
118.5461
 20
37.9567
  0
VERTEX
  8
LAYER_2
 10
120.1453
 20
41.7225
  0
VERTEX
  8
LAYER_2
 10
120.8784
 20
41.7225
  0
VERTEX
  8
LAYER_2
 10
122.4848
 20
37.9567
  0
VERTEX
  8
LAYER_2
 10
121.8354
 20
37.9567
  0
VERTEX
  8
LAYER_2
 10
121.3328
 20
39.1418
  0
SEQEND
  0
POLYLINE
  8
LAYER_2
 40
0.05
 41
0.05
 66
1
 10
0
 20
0
 30
0
 70
1
  0
VERTEX
  8
LAYER_2
 10
121.2067
 20
39.5207
  0
VERTEX
  8
LAYER_2
 10
120.7454
 20
40.6056
  0
VERTEX
  8
LAYER_2
 10
120.5008
 20
41.2926
  0
VERTEX
  8
LAYER_2
 10
120.487
 20
41.2926
  0
VERTEX
  8
LAYER_2
 10
120.2497
 20
40.6101
  0
VERTEX
  8
LAYER_2
 10
119.7887
 20
39.5207
  0
SEQEND
  0
ENDBLK
  0
BLOCK
  8
LAYER_2
  2
AIGNBL0204000D
 70
64
 10
0
 20
0
 30
0
  3
AIGNBL0204000D
  0
POLYLINE
  8
LAYER_2
 40
0.05
 41
0.05
 66
1
 10
0
 20
0
 30
0
 70
1
  0
VERTEX
  8
LAYER_2
 10
123.5256
 20
41.6777
 42
-0.03245981043
  0
VERTEX
  8
LAYER_2
 10
124.6924
 20
41.7508
 42
-0.08083972759
  0
VERTEX
  8
LAYER_2
 10
125.6489
 20
41.619
 42
-0.0781591286
  0
VERTEX
  8
LAYER_2
 10
126.0123
 20
41.4379
 42
-0.2484156816
  0
VERTEX
  8
LAYER_2
 10
126.4239
 20
40.6497
 42
-0.226147
  0
VERTEX
  8
LAYER_2
 10
126.0608
 20
39.8456
 42
-0.1097236176
  0
VERTEX
  8
LAYER_2
 10
125.4326
 20
39.5323
 42
-0.06566039781
  0
VERTEX
  8
LAYER_2
 10
124.6222
 20
39.4319
 42
-0.06233087798
  0
VERTEX
  8
LAYER_2
 10
124.1336
 20
39.4653
  0
VERTEX
  8
LAYER_2
 10
124.1336
 20
37.9567
  0
VERTEX
  8
LAYER_2
 10
123.5256
 20
37.9567
  0
SEQEND
  0
POLYLINE
  8
LAYER_2
 40
0.05
 41
0.05
 66
1
 10
0
 20
0
 30
0
 70
1
  0
VERTEX
  8
LAYER_2
 10
124.1336
 20
39.8622
 42
0.04202445636
  0
VERTEX
  8
LAYER_2
 10
124.636
 20
39.8229
 42
0.1032184983
  0
VERTEX
  8
LAYER_2
 10
125.3551
 20
39.9502
 42
0.1555899564
  0
VERTEX
  8
LAYER_2
 10
125.7199
 20
40.2546
 42
0.1352638191
  0
VERTEX
  8
LAYER_2
 10
125.8169
 20
40.6273
 42
0.1736824711
  0
VERTEX
  8
LAYER_2
 10
125.6821
 20
41.0346
 42
0.151721714
  0
VERTEX
  8
LAYER_2
 10
125.261
 20
41.2941
 42
0.06880216409
  0
VERTEX
  8
LAYER_2
 10
124.7066
 20
41.3649
 42
0.06337515897
  0
VERTEX
  8
LAYER_2
 10
124.1336
 20
41.3257
  0
SEQEND
  0
ENDBLK
  0
BLOCK
  8
LAYER_2
  2
AIGNBL0204000E
 70
64
 10
0
 20
0
 30
0
  3
AIGNBL0204000E
  0
POLYLINE
  8
LAYER_2
 40
0.05
 41
0.05
 66
1
 10
0
 20
0
 30
0
 70
1
  0
VERTEX
  8
LAYER_2
 10
127.976
 20
41.4207
 42
-0.276556311
  0
VERTEX
  8
LAYER_2
 10
127.8364
 20
41.1806
 42
-0.1265551601
  0
VERTEX
  8
LAYER_2
 10
127.5843
 20
41.1189
 42
-0.22367962
  0
VERTEX
  8
LAYER_2
 10
127.274
 20
41.2513
 42
-0.170907845
  0
VERTEX
  8
LAYER_2
 10
127.2139
 20
41.4207
 42
-0.2643879937
  0
VERTEX
  8
LAYER_2
 10
127.3633
 20
41.6678
 42
-0.1290073663
  0
VERTEX
  8
LAYER_2
 10
127.598
 20
41.7277
 42
-0.2252702025
  0
VERTEX
  8
LAYER_2
 10
127.9149
 20
41.597
 42
-0.1691869544
  0
SEQEND
  0
POLYLINE
  8
LAYER_2
 40
0.05
 41
0.05
 66
1
 10
0
 20
0
 30
0
 70
1
  0
VERTEX
  8
LAYER_2
 10
127.2904
 20
37.9567
  0
VERTEX
  8
LAYER_2
 10
127.2904
 20
40.6607
  0
VERTEX
  8
LAYER_2
 10
127.905
 20
40.6607
  0
VERTEX
  8
LAYER_2
 10
127.905
 20
37.9567
  0
SEQEND
  0
ENDBLK
  0
BLOCK
  8
LAYER_2
  2
AIGNBL0204000F
 70
64
 10
0
 20
0
 30
0
  3
AIGNBL0204000F
  0
POLYLINE
  8
LAYER_2
 40
0.05
 41
0.05
 66
1
 10
0
 20
0
 30
0
 70
1
  0
VERTEX
  8
LAYER_2
 10
129.7767
 20
39.1418
  0
VERTEX
  8
LAYER_2
 10
129.2885
 20
37.9567
  0
VERTEX
  8
LAYER_2
 10
128.6595
 20
37.9567
  0
VERTEX
  8
LAYER_2
 10
130.259
 20
41.7225
  0
VERTEX
  8
LAYER_2
 10
130.9928
 20
41.7225
  0
VERTEX
  8
LAYER_2
 10
132.5993
 20
37.9567
  0
VERTEX
  8
LAYER_2
 10
131.9495
 20
37.9567
  0
VERTEX
  8
LAYER_2
 10
131.4469
 20
39.1418
  0
SEQEND
  0
POLYLINE
  8
LAYER_2
 40
0.05
 41
0.05
 66
1
 10
0
 20
0
 30
0
 70
1
  0
VERTEX
  8
LAYER_2
 10
131.3208
 20
39.5207
  0
VERTEX
  8
LAYER_2
 10
130.8598
 20
40.6056
  0
VERTEX
  8
LAYER_2
 10
130.6159
 20
41.2926
  0
VERTEX
  8
LAYER_2
 10
130.6011
 20
41.2926
  0
VERTEX
  8
LAYER_2
 10
130.3641
 20
40.6101
  0
VERTEX
  8
LAYER_2
 10
129.9031
 20
39.5207
  0
SEQEND
  0
ENDBLK
  0
BLOCK
  8
LAYER_2
  2
AIGNBL02030008
 70
64
 10
0
 20
0
 30
0
  3
AIGNBL02030008
  0
INSERT
  8
LAYER_2
  2
AIGNBL02040009
 10
0
 20
0
 30
0
  0
INSERT
  8
LAYER_2
  2
AIGNBL0204000A
 10
0
 20
0
 30
0
  0
INSERT
  8
LAYER_2
  2
AIGNBL0204000B
 10
0
 20
0
 30
0
  0
INSERT
  8
LAYER_2
  2
AIGNBL0204000C
 10
0
 20
0
 30
0
  0
INSERT
  8
LAYER_2
  2
AIGNBL0204000D
 10
0
 20
0
 30
0
  0
INSERT
  8
LAYER_2
  2
AIGNBL0204000E
 10
0
 20
0
 30
0
  0
INSERT
  8
LAYER_2
  2
AIGNBL0204000F
 10
0
 20
0
 30
0
  0
ENDBLK
  0
BLOCK
  8
LAYER_2
  2
AIGNBL02030011
 70
64
 10
0
 20
0
 30
0
  3
AIGNBL02030011
  0
POLYLINE
  8
LAYER_2
 40
0.05
 41
0.05
 66
1
 10
0
 20
0
 30
0
 70
1
  0
VERTEX
  8
LAYER_2
 10
105.3989
 20
36.0574
  0
VERTEX
  8
LAYER_2
 10
105.9521
 20
36.0574
  0
VERTEX
  8
LAYER_2
 10
105.9521
 20
35.9637
  0
VERTEX
  8
LAYER_2
 10
105.2938
 20
35.9637
  0
VERTEX
  8
LAYER_2
 10
105.2938
 20
36.9969
  0
VERTEX
  8
LAYER_2
 10
105.9346
 20
36.9969
  0
VERTEX
  8
LAYER_2
 10
105.9346
 20
36.9035
  0
VERTEX
  8
LAYER_2
 10
105.3989
 20
36.9035
  0
VERTEX
  8
LAYER_2
 10
105.3989
 20
36.549
  0
VERTEX
  8
LAYER_2
 10
105.8994
 20
36.549
  0
VERTEX
  8
LAYER_2
 10
105.8994
 20
36.4557
  0
VERTEX
  8
LAYER_2
 10
105.3989
 20
36.4557
  0
SEQEND
  0
ENDBLK
  0
BLOCK
  8
LAYER_2
  2
AIGNBL02030012
 70
64
 10
0
 20
0
 30
0
  3
AIGNBL02030012
  0
POLYLINE
  8
LAYER_2
 40
0.05
 41
0.05
 66
1
 10
0
 20
0
 30
0
 70
1
  0
VERTEX
  8
LAYER_2
 10
107.0918
 20
36.117
  0
VERTEX
  8
LAYER_2
 10
107.0945
 20
36.117
  0
VERTEX
  8
LAYER_2
 10
107.0945
 20
36.9969
  0
VERTEX
  8
LAYER_2
 10
107.1996
 20
36.9969
  0
VERTEX
  8
LAYER_2
 10
107.1996
 20
35.9637
  0
VERTEX
  8
LAYER_2
 10
107.0687
 20
35.9637
  0
VERTEX
  8
LAYER_2
 10
106.4676
 20
36.8525
  0
VERTEX
  8
LAYER_2
 10
106.4641
 20
36.8525
  0
VERTEX
  8
LAYER_2
 10
106.4641
 20
35.9637
  0
VERTEX
  8
LAYER_2
 10
106.3594
 20
35.9637
  0
VERTEX
  8
LAYER_2
 10
106.3594
 20
36.9969
  0
VERTEX
  8
LAYER_2
 10
106.4906
 20
36.9969
  0
SEQEND
  0
ENDBLK
  0
BLOCK
  8
LAYER_2
  2
AIGNBL02030013
 70
64
 10
0
 20
0
 30
0
  3
AIGNBL02030013
  0
POLYLINE
  8
LAYER_2
 40
0.05
 41
0.05
 66
1
 10
0
 20
0
 30
0
 70
1
  0
VERTEX
  8
LAYER_2
 10
107.6726
 20
36.1756
  0
VERTEX
  8
LAYER_2
 10
107.7271
 20
36.0725
 42
0.1804993832
  0
VERTEX
  8
LAYER_2
 10
107.8404
 20
36.0309
  0
VERTEX
  8
LAYER_2
 10
107.9296
 20
36.0505
  0
VERTEX
  8
LAYER_2
 10
107.9858
 20
36.1039
  0
VERTEX
  8
LAYER_2
 10
108.0147
 20
36.1804
  0
VERTEX
  8
LAYER_2
 10
108.023
 20
36.27
  0
VERTEX
  8
LAYER_2
 10
108.023
 20
36.9969
  0
VERTEX
  8
LAYER_2
 10
108.1281
 20
36.9969
  0
VERTEX
  8
LAYER_2
 10
108.1281
 20
36.2614
  0
VERTEX
  8
LAYER_2
 10
108.1167
 20
36.1535
  0
VERTEX
  8
LAYER_2
 10
108.0754
 20
36.0485
  0
VERTEX
  8
LAYER_2
 10
107.9906
 20
35.9689
  0
VERTEX
  8
LAYER_2
 10
107.8518
 20
35.9375
 42
-0.1842921564
  0
VERTEX
  8
LAYER_2
 10
107.6671
 20
35.9974
 42
-0.176191571
  0
VERTEX
  8
LAYER_2
 10
107.5748
 20
36.149
  0
SEQEND
  0
ENDBLK
  0
BLOCK
  8
LAYER_2
  2
AIGNBL02030014
 70
64
 10
0
 20
0
 30
0
  3
AIGNBL02030014
  0
POLYLINE
  8
LAYER_2
 40
0.05
 41
0.05
 66
1
 10
0
 20
0
 30
0
 70
1
  0
VERTEX
  8
LAYER_2
 10
109.6164
 20
36.4805
 42
-0.103587114
  0
VERTEX
  8
LAYER_2
 10
109.5754
 20
36.2631
 42
-0.1000549391
  0
VERTEX
  8
LAYER_2
 10
109.4627
 20
36.0915
  0
VERTEX
  8
LAYER_2
 10
109.2918
 20
35.9785
 42
-0.09506675375
  0
VERTEX
  8
LAYER_2
 10
109.0779
 20
35.9375
 42
-0.1010765979
  0
VERTEX
  8
LAYER_2
 10
108.8643
 20
35.9785
 42
-0.1005668876
  0
VERTEX
  8
LAYER_2
 10
108.6934
 20
36.0915
 42
-0.09506076213
  0
VERTEX
  8
LAYER_2
 10
108.5801
 20
36.2631
 42
-0.0931359716
  0
VERTEX
  8
LAYER_2
 10
108.5394
 20
36.4805
 42
-0.1022959507
  0
VERTEX
  8
LAYER_2
 10
108.5801
 20
36.6978
 42
-0.1008913794
  0
VERTEX
  8
LAYER_2
 10
108.6934
 20
36.8694
 42
-0.09625543395
  0
VERTEX
  8
LAYER_2
 10
108.8643
 20
36.9824
 42
-0.0952064105
  0
VERTEX
  8
LAYER_2
 10
109.0779
 20
37.0234
 42
-0.101175466
  0
VERTEX
  8
LAYER_2
 10
109.2918
 20
36.9824
 42
-0.09853409661
  0
VERTEX
  8
LAYER_2
 10
109.4627
 20
36.8694
 42
-0.09576191851
  0
VERTEX
  8
LAYER_2
 10
109.5754
 20
36.6978
 42
-0.09397271416
  0
SEQEND
  0
POLYLINE
  8
LAYER_2
 40
0.05
 41
0.05
 66
1
 10
0
 20
0
 30
0
 70
1
  0
VERTEX
  8
LAYER_2
 10
109.5054
 20
36.4798
  0
VERTEX
  8
LAYER_2
 10
109.4765
 20
36.6517
  0
VERTEX
  8
LAYER_2
 10
109.3917
 20
36.795
  0
VERTEX
  8
LAYER_2
 10
109.2567
 20
36.8932
  0
VERTEX
  8
LAYER_2
 10
109.0779
 20
36.93
  0
VERTEX
  8
LAYER_2
 10
108.8991
 20
36.8932
  0
VERTEX
  8
LAYER_2
 10
108.7644
 20
36.795
  0
VERTEX
  8
LAYER_2
 10
108.6796
 20
36.6517
  0
VERTEX
  8
LAYER_2
 10
108.6504
 20
36.4798
  0
VERTEX
  8
LAYER_2
 10
108.6796
 20
36.3079
  0
VERTEX
  8
LAYER_2
 10
108.7644
 20
36.1649
  0
VERTEX
  8
LAYER_2
 10
108.8991
 20
36.0674
 42
0.1008257054
  0
VERTEX
  8
LAYER_2
 10
109.0779
 20
36.0309
  0
VERTEX
  8
LAYER_2
 10
109.2567
 20
36.0674
  0
VERTEX
  8
LAYER_2
 10
109.3917
 20
36.1649
  0
VERTEX
  8
LAYER_2
 10
109.4765
 20
36.3079
  0
SEQEND
  0
ENDBLK
  0
BLOCK
  8
LAYER_2
  2
AIGNBL02030015
 70
64
 10
0
 20
0
 30
0
  3
AIGNBL02030015
  0
POLYLINE
  8
LAYER_2
 40
0.05
 41
0.05
 66
1
 10
0
 20
0
 30
0
 70
1
  0
VERTEX
  8
LAYER_2
 10
110.3911
 20
35.9637
  0
VERTEX
  8
LAYER_2
 10
110.2864
 20
35.9637
  0
VERTEX
  8
LAYER_2
 10
110.2864
 20
36.4091
  0
VERTEX
  8
LAYER_2
 10
109.8996
 20
36.9969
  0
VERTEX
  8
LAYER_2
 10
110.0308
 20
36.9969
  0
VERTEX
  8
LAYER_2
 10
110.3419
 20
36.4967
  0
VERTEX
  8
LAYER_2
 10
110.6554
 20
36.9969
  0
VERTEX
  8
LAYER_2
 10
110.7777
 20
36.9969
  0
VERTEX
  8
LAYER_2
 10
110.3911
 20
36.4091
  0
SEQEND
  0
ENDBLK
  0
BLOCK
  8
LAYER_2
  2
AIGNBL02030016
 70
64
 10
0
 20
0
 30
0
  3
AIGNBL02030016
  0
POLYLINE
  8
LAYER_2
 40
0.05
 41
0.05
 66
1
 10
0
 20
0
 30
0
 70
1
  0
VERTEX
  8
LAYER_2
 10
111.6827
 20
36.9969
  0
VERTEX
  8
LAYER_2
 10
111.9904
 20
36.9969
  0
VERTEX
  8
LAYER_2
 10
112.1089
 20
36.9845
  0
VERTEX
  8
LAYER_2
 10
112.2157
 20
36.9421
  0
VERTEX
  8
LAYER_2
 10
112.2935
 20
36.8611
  0
VERTEX
  8
LAYER_2
 10
112.3232
 20
36.733
 42
-0.1787887146
  0
VERTEX
  8
LAYER_2
 10
112.2732
 20
36.5907
 42
-0.1642670326
  0
VERTEX
  8
LAYER_2
 10
112.1399
 20
36.5111
  0
VERTEX
  8
LAYER_2
 10
112.1399
 20
36.5084
 42
-0.1734673322
  0
VERTEX
  8
LAYER_2
 10
112.3066
 20
36.4302
 42
-0.1923000161
  0
VERTEX
  8
LAYER_2
 10
112.3728
 20
36.2496
  0
VERTEX
  8
LAYER_2
 10
112.3456
 20
36.1325
  0
VERTEX
  8
LAYER_2
 10
112.2694
 20
36.0419
  0
VERTEX
  8
LAYER_2
 10
112.1485
 20
35.9844
  0
VERTEX
  8
LAYER_2
 10
111.9887
 20
35.9637
  0
VERTEX
  8
LAYER_2
 10
111.6827
 20
35.9637
  0
SEQEND
  0
POLYLINE
  8
LAYER_2
 40
0.05
 41
0.05
 66
1
 10
0
 20
0
 30
0
 70
1
  0
VERTEX
  8
LAYER_2
 10
111.7878
 20
36.5445
  0
VERTEX
  8
LAYER_2
 10
111.9993
 20
36.5445
  0
VERTEX
  8
LAYER_2
 10
112.0762
 20
36.5535
  0
VERTEX
  8
LAYER_2
 10
112.1464
 20
36.5831
  0
VERTEX
  8
LAYER_2
 10
112.1985
 20
36.6396
  0
VERTEX
  8
LAYER_2
 10
112.2181
 20
36.7258
  0
VERTEX
  8
LAYER_2
 10
112.1985
 20
36.8095
  0
VERTEX
  8
LAYER_2
 10
112.1454
 20
36.8656
  0
VERTEX
  8
LAYER_2
 10
112.0665
 20
36.897
  0
VERTEX
  8
LAYER_2
 10
111.97
 20
36.9066
  0
VERTEX
  8
LAYER_2
 10
111.7878
 20
36.9066
  0
SEQEND
  0
POLYLINE
  8
LAYER_2
 40
0.05
 41
0.05
 66
1
 10
0
 20
0
 30
0
 70
1
  0
VERTEX
  8
LAYER_2
 10
111.7878
 20
36.0543
  0
VERTEX
  8
LAYER_2
 10
111.9835
 20
36.0543
  0
VERTEX
  8
LAYER_2
 10
112.092
 20
36.0653
  0
VERTEX
  8
LAYER_2
 10
112.1826
 20
36.1001
  0
VERTEX
  8
LAYER_2
 10
112.2443
 20
36.1632
  0
VERTEX
  8
LAYER_2
 10
112.2677
 20
36.2559
 42
0.2554060681
  0
VERTEX
  8
LAYER_2
 10
112.1985
 20
36.4081
 42
0.1380642909
  0
VERTEX
  8
LAYER_2
 10
112.0024
 20
36.4584
  0
VERTEX
  8
LAYER_2
 10
111.7878
 20
36.4584
  0
SEQEND
  0
ENDBLK
  0
BLOCK
  8
LAYER_2
  2
AIGNBL02030017
 70
64
 10
0
 20
0
 30
0
  3
AIGNBL02030017
  0
POLYLINE
  8
LAYER_2
 40
0.05
 41
0.05
 66
1
 10
0
 20
0
 30
0
 70
1
  0
VERTEX
  8
LAYER_2
 10
112.8048
 20
35.9637
  0
VERTEX
  8
LAYER_2
 10
112.6894
 20
35.9637
  0
VERTEX
  8
LAYER_2
 10
113.1362
 20
36.9969
  0
VERTEX
  8
LAYER_2
 10
113.2385
 20
36.9969
  0
VERTEX
  8
LAYER_2
 10
113.6819
 20
35.9637
  0
VERTEX
  8
LAYER_2
 10
113.5651
 20
35.9637
  0
VERTEX
  8
LAYER_2
 10
113.4511
 20
36.2352
  0
VERTEX
  8
LAYER_2
 10
112.9171
 20
36.2352
  0
SEQEND
  0
POLYLINE
  8
LAYER_2
 40
0.05
 41
0.05
 66
1
 10
0
 20
0
 30
0
 70
1
  0
VERTEX
  8
LAYER_2
 10
112.9564
 20
36.3316
  0
VERTEX
  8
LAYER_2
 10
113.4118
 20
36.3316
  0
VERTEX
  8
LAYER_2
 10
113.1841
 20
36.8804
  0
SEQEND
  0
ENDBLK
  0
BLOCK
  8
LAYER_2
  2
AIGNBL02030018
 70
64
 10
0
 20
0
 30
0
  3
AIGNBL02030018
  0
POLYLINE
  8
LAYER_2
 40
0.05
 41
0.05
 66
1
 10
0
 20
0
 30
0
 70
1
  0
VERTEX
  8
LAYER_2
 10
114.3665
 20
35.9637
  0
VERTEX
  8
LAYER_2
 10
114.2614
 20
35.9637
  0
VERTEX
  8
LAYER_2
 10
114.2614
 20
36.9035
  0
VERTEX
  8
LAYER_2
 10
113.9152
 20
36.9035
  0
VERTEX
  8
LAYER_2
 10
113.9152
 20
36.9969
  0
VERTEX
  8
LAYER_2
 10
114.712
 20
36.9969
  0
VERTEX
  8
LAYER_2
 10
114.712
 20
36.9035
  0
VERTEX
  8
LAYER_2
 10
114.3665
 20
36.9035
  0
SEQEND
  0
ENDBLK
  0
BLOCK
  8
LAYER_2
  2
AIGNBL02030019
 70
64
 10
0
 20
0
 30
0
  3
AIGNBL02030019
  0
POLYLINE
  8
LAYER_2
 40
0.05
 41
0.05
 66
1
 10
0
 20
0
 30
0
 70
1
  0
VERTEX
  8
LAYER_2
 10
115.0682
 20
36.9969
  0
VERTEX
  8
LAYER_2
 10
115.1729
 20
36.9969
  0
VERTEX
  8
LAYER_2
 10
115.1729
 20
36.549
  0
VERTEX
  8
LAYER_2
 10
115.7366
 20
36.549
  0
VERTEX
  8
LAYER_2
 10
115.7366
 20
36.9969
  0
VERTEX
  8
LAYER_2
 10
115.8416
 20
36.9969
  0
VERTEX
  8
LAYER_2
 10
115.8416
 20
35.9637
  0
VERTEX
  8
LAYER_2
 10
115.7366
 20
35.9637
  0
VERTEX
  8
LAYER_2
 10
115.7366
 20
36.4529
  0
VERTEX
  8
LAYER_2
 10
115.1729
 20
36.4529
  0
VERTEX
  8
LAYER_2
 10
115.1729
 20
35.9637
  0
VERTEX
  8
LAYER_2
 10
115.0682
 20
35.9637
  0
SEQEND
  0
ENDBLK
  0
BLOCK
  8
LAYER_2
  2
AIGNBL0203001A
 70
64
 10
0
 20
0
 30
0
  3
AIGNBL0203001A
  0
POLYLINE
  8
LAYER_2
 40
0.05
 41
0.05
 66
1
 10
0
 20
0
 30
0
 70
1
  0
VERTEX
  8
LAYER_2
 10
116.4221
 20
35.9637
  0
VERTEX
  8
LAYER_2
 10
116.3171
 20
35.9637
  0
VERTEX
  8
LAYER_2
 10
116.3171
 20
36.9969
  0
VERTEX
  8
LAYER_2
 10
116.6209
 20
36.9969
  0
VERTEX
  8
LAYER_2
 10
116.7615
 20
36.9824
  0
VERTEX
  8
LAYER_2
 10
116.8741
 20
36.9349
  0
VERTEX
  8
LAYER_2
 10
116.9475
 20
36.8494
  0
VERTEX
  8
LAYER_2
 10
116.9737
 20
36.7213
  0
VERTEX
  8
LAYER_2
 10
116.9537
 20
36.6176
  0
VERTEX
  8
LAYER_2
 10
116.8983
 20
36.5366
  0
VERTEX
  8
LAYER_2
 10
116.8149
 20
36.4818
  0
VERTEX
  8
LAYER_2
 10
116.7098
 20
36.4557
  0
VERTEX
  8
LAYER_2
 10
117.0119
 20
35.9637
  0
VERTEX
  8
LAYER_2
 10
116.8835
 20
35.9637
  0
VERTEX
  8
LAYER_2
 10
116.5975
 20
36.4467
  0
VERTEX
  8
LAYER_2
 10
116.4221
 20
36.4467
  0
SEQEND
  0
POLYLINE
  8
LAYER_2
 40
0.05
 41
0.05
 66
1
 10
0
 20
0
 30
0
 70
1
  0
VERTEX
  8
LAYER_2
 10
116.4221
 20
36.5373
  0
VERTEX
  8
LAYER_2
 10
116.6047
 20
36.5373
 42
0.1657798624
  0
VERTEX
  8
LAYER_2
 10
116.8004
 20
36.5831
 42
0.2503949893
  0
VERTEX
  8
LAYER_2
 10
116.869
 20
36.7213
  0
VERTEX
  8
LAYER_2
 10
116.8497
 20
36.8071
  0
VERTEX
  8
LAYER_2
 10
116.7973
 20
36.8643
  0
VERTEX
  8
LAYER_2
 10
116.7157
 20
36.8963
  0
VERTEX
  8
LAYER_2
 10
116.6092
 20
36.9066
  0
VERTEX
  8
LAYER_2
 10
116.4221
 20
36.9066
  0
SEQEND
  0
ENDBLK
  0
BLOCK
  8
LAYER_2
  2
AIGNBL0203001B
 70
64
 10
0
 20
0
 30
0
  3
AIGNBL0203001B
  0
POLYLINE
  8
LAYER_2
 40
0.05
 41
0.05
 66
1
 10
0
 20
0
 30
0
 70
1
  0
VERTEX
  8
LAYER_2
 10
118.4141
 20
36.4805
 42
-0.1000954639
  0
VERTEX
  8
LAYER_2
 10
118.3735
 20
36.2631
 42
-0.1001905425
  0
VERTEX
  8
LAYER_2
 10
118.2601
 20
36.0915
 42
-0.09571058079
  0
VERTEX
  8
LAYER_2
 10
118.0896
 20
35.9785
 42
-0.09502028874
  0
VERTEX
  8
LAYER_2
 10
117.8756
 20
35.9375
 42
-0.101175466
  0
VERTEX
  8
LAYER_2
 10
117.6617
 20
35.9785
 42
-0.1000517149
  0
VERTEX
  8
LAYER_2
 10
117.4912
 20
36.0915
 42
-0.09638651027
  0
VERTEX
  8
LAYER_2
 10
117.3782
 20
36.2631
 42
-0.0931359716
  0
VERTEX
  8
LAYER_2
 10
117.3375
 20
36.4805
 42
-0.1022959507
  0
VERTEX
  8
LAYER_2
 10
117.3782
 20
36.6978
 42
-0.1020104137
  0
VERTEX
  8
LAYER_2
 10
117.4912
 20
36.8694
 42
-0.09596829797
  0
VERTEX
  8
LAYER_2
 10
117.6617
 20
36.9824
 42
-0.09506675375
  0
VERTEX
  8
LAYER_2
 10
117.8756
 20
37.0234
 42
-0.1012083438
  0
VERTEX
  8
LAYER_2
 10
118.0896
 20
36.9824
 42
-0.1015678172
  0
VERTEX
  8
LAYER_2
 10
118.2601
 20
36.8694
 42
-0.09462760439
  0
VERTEX
  8
LAYER_2
 10
118.3735
 20
36.6978
 42
-0.09276657997
  0
SEQEND
  0
POLYLINE
  8
LAYER_2
 40
0.05
 41
0.05
 66
1
 10
0
 20
0
 30
0
 70
1
  0
VERTEX
  8
LAYER_2
 10
118.3032
 20
36.4798
  0
VERTEX
  8
LAYER_2
 10
118.2739
 20
36.6517
  0
VERTEX
  8
LAYER_2
 10
118.1891
 20
36.795
  0
VERTEX
  8
LAYER_2
 10
118.0544
 20
36.8932
  0
VERTEX
  8
LAYER_2
 10
117.8756
 20
36.93
  0
VERTEX
  8
LAYER_2
 10
117.6968
 20
36.8932
  0
VERTEX
  8
LAYER_2
 10
117.5618
 20
36.795
  0
VERTEX
  8
LAYER_2
 10
117.477
 20
36.6517
  0
VERTEX
  8
LAYER_2
 10
117.4481
 20
36.4798
  0
VERTEX
  8
LAYER_2
 10
117.477
 20
36.3079
  0
VERTEX
  8
LAYER_2
 10
117.5618
 20
36.1649
  0
VERTEX
  8
LAYER_2
 10
117.6968
 20
36.0674
  0
VERTEX
  8
LAYER_2
 10
117.8756
 20
36.0309
 42
0.1157330551
  0
VERTEX
  8
LAYER_2
 10
118.0544
 20
36.0674
  0
VERTEX
  8
LAYER_2
 10
118.1891
 20
36.1649
  0
VERTEX
  8
LAYER_2
 10
118.2739
 20
36.3079
  0
SEQEND
  0
ENDBLK
  0
BLOCK
  8
LAYER_2
  2
AIGNBL0203001C
 70
64
 10
0
 20
0
 30
0
  3
AIGNBL0203001C
  0
POLYLINE
  8
LAYER_2
 40
0.05
 41
0.05
 66
1
 10
0
 20
0
 30
0
 70
1
  0
VERTEX
  8
LAYER_2
 10
119.8559
 20
36.4805
 42
-0.1041417444
  0
VERTEX
  8
LAYER_2
 10
119.8149
 20
36.2631
 42
-0.1000549391
  0
VERTEX
  8
LAYER_2
 10
119.7022
 20
36.0915
 42
-0.09536265516
  0
VERTEX
  8
LAYER_2
 10
119.5313
 20
35.9785
 42
-0.09506675375
  0
VERTEX
  8
LAYER_2
 10
119.3174
 20
35.9375
 42
-0.101822328
  0
VERTEX
  8
LAYER_2
 10
119.1038
 20
35.9785
 42
-0.102112669
  0
VERTEX
  8
LAYER_2
 10
118.9329
 20
36.0915
 42
-0.09442769366
  0
VERTEX
  8
LAYER_2
 10
118.8196
 20
36.2631
 42
-0.0931359716
  0
VERTEX
  8
LAYER_2
 10
118.7789
 20
36.4805
 42
-0.1022959507
  0
VERTEX
  8
LAYER_2
 10
118.8196
 20
36.6978
 42
-0.1008832254
  0
VERTEX
  8
LAYER_2
 10
118.9329
 20
36.8694
 42
-0.09625543395
  0
VERTEX
  8
LAYER_2
 10
119.1038
 20
36.9824
 42
-0.09528409444
  0
VERTEX
  8
LAYER_2
 10
119.3174
 20
37.0234
 42
-0.101175466
  0
VERTEX
  8
LAYER_2
 10
119.5313
 20
36.9824
 42
-0.09853409661
  0
VERTEX
  8
LAYER_2
 10
119.7022
 20
36.8694
 42
-0.09576191851
  0
VERTEX
  8
LAYER_2
 10
119.8149
 20
36.6978
 42
-0.09400765476
  0
SEQEND
  0
POLYLINE
  8
LAYER_2
 40
0.05
 41
0.05
 66
1
 10
0
 20
0
 30
0
 70
1
  0
VERTEX
  8
LAYER_2
 10
119.7449
 20
36.4798
  0
VERTEX
  8
LAYER_2
 10
119.716
 20
36.6517
  0
VERTEX
  8
LAYER_2
 10
119.6312
 20
36.795
  0
VERTEX
  8
LAYER_2
 10
119.4962
 20
36.8932
  0
VERTEX
  8
LAYER_2
 10
119.3174
 20
36.93
  0
VERTEX
  8
LAYER_2
 10
119.1386
 20
36.8932
  0
VERTEX
  8
LAYER_2
 10
119.0039
 20
36.795
  0
VERTEX
  8
LAYER_2
 10
118.9192
 20
36.6517
  0
VERTEX
  8
LAYER_2
 10
118.8899
 20
36.4798
  0
VERTEX
  8
LAYER_2
 10
118.9192
 20
36.3079
  0
VERTEX
  8
LAYER_2
 10
119.0039
 20
36.1649
  0
VERTEX
  8
LAYER_2
 10
119.1386
 20
36.0674
 42
0.1008257054
  0
VERTEX
  8
LAYER_2
 10
119.3174
 20
36.0309
  0
VERTEX
  8
LAYER_2
 10
119.4962
 20
36.0674
  0
VERTEX
  8
LAYER_2
 10
119.6312
 20
36.1649
  0
VERTEX
  8
LAYER_2
 10
119.716
 20
36.3079
  0
SEQEND
  0
ENDBLK
  0
BLOCK
  8
LAYER_2
  2
AIGNBL0203001D
 70
64
 10
0
 20
0
 30
0
  3
AIGNBL0203001D
  0
POLYLINE
  8
LAYER_2
 40
0.05
 41
0.05
 66
1
 10
0
 20
0
 30
0
 70
1
  0
VERTEX
  8
LAYER_2
 10
120.7867
 20
36.1418
  0
VERTEX
  8
LAYER_2
 10
120.7885
 20
36.1418
  0
VERTEX
  8
LAYER_2
 10
121.134
 20
36.9969
  0
VERTEX
  8
LAYER_2
 10
121.2949
 20
36.9969
  0
VERTEX
  8
LAYER_2
 10
121.2949
 20
35.9637
  0
VERTEX
  8
LAYER_2
 10
121.1895
 20
35.9637
  0
VERTEX
  8
LAYER_2
 10
121.1895
 20
36.8611
  0
VERTEX
  8
LAYER_2
 10
121.1867
 20
36.8611
  0
VERTEX
  8
LAYER_2
 10
120.8133
 20
35.9637
  0
VERTEX
  8
LAYER_2
 10
120.7578
 20
35.9637
  0
VERTEX
  8
LAYER_2
 10
120.384
 20
36.8611
  0
VERTEX
  8
LAYER_2
 10
120.3813
 20
36.8611
  0
VERTEX
  8
LAYER_2
 10
120.3813
 20
35.9637
  0
VERTEX
  8
LAYER_2
 10
120.2762
 20
35.9637
  0
VERTEX
  8
LAYER_2
 10
120.2762
 20
36.9969
  0
VERTEX
  8
LAYER_2
 10
120.4367
 20
36.9969
  0
SEQEND
  0
ENDBLK
  0
BLOCK
  8
LAYER_2
  2
AIGNBL0203001E
 70
64
 10
0
 20
0
 30
0
  3
AIGNBL0203001E
  0
POLYLINE
  8
LAYER_2
 40
0.05
 41
0.05
 66
1
 10
0
 20
0
 30
0
 70
1
  0
VERTEX
  8
LAYER_2
 10
122.4414
 20
36.0574
  0
VERTEX
  8
LAYER_2
 10
122.9947
 20
36.0574
  0
VERTEX
  8
LAYER_2
 10
122.9947
 20
35.9637
  0
VERTEX
  8
LAYER_2
 10
122.3363
 20
35.9637
  0
VERTEX
  8
LAYER_2
 10
122.3363
 20
36.9969
  0
VERTEX
  8
LAYER_2
 10
122.9771
 20
36.9969
  0
VERTEX
  8
LAYER_2
 10
122.9771
 20
36.9035
  0
VERTEX
  8
LAYER_2
 10
122.4414
 20
36.9035
  0
VERTEX
  8
LAYER_2
 10
122.4414
 20
36.549
  0
VERTEX
  8
LAYER_2
 10
122.942
 20
36.549
  0
VERTEX
  8
LAYER_2
 10
122.942
 20
36.4557
  0
VERTEX
  8
LAYER_2
 10
122.4414
 20
36.4557
  0
SEQEND
  0
ENDBLK
  0
BLOCK
  8
LAYER_2
  2
AIGNBL0203001F
 70
64
 10
0
 20
0
 30
0
  3
AIGNBL0203001F
  0
POLYLINE
  8
LAYER_2
 40
0.05
 41
0.05
 66
1
 10
0
 20
0
 30
0
 70
1
  0
VERTEX
  8
LAYER_2
 10
123.7399
 20
36.5797
  0
VERTEX
  8
LAYER_2
 10
124.022
 20
36.9969
  0
VERTEX
  8
LAYER_2
 10
124.1471
 20
36.9969
  0
VERTEX
  8
LAYER_2
 10
123.8046
 20
36.5053
  0
VERTEX
  8
LAYER_2
 10
124.1839
 20
35.9637
  0
VERTEX
  8
LAYER_2
 10
124.0527
 20
35.9637
  0
VERTEX
  8
LAYER_2
 10
123.7371
 20
36.4295
  0
VERTEX
  8
LAYER_2
 10
123.4236
 20
35.9637
  0
VERTEX
  8
LAYER_2
 10
123.292
 20
35.9637
  0
VERTEX
  8
LAYER_2
 10
123.6717
 20
36.5066
  0
VERTEX
  8
LAYER_2
 10
123.3258
 20
36.9969
  0
VERTEX
  8
LAYER_2
 10
123.4574
 20
36.9969
  0
SEQEND
  0
ENDBLK
  0
BLOCK
  8
LAYER_2
  2
AIGNBL02030020
 70
64
 10
0
 20
0
 30
0
  3
AIGNBL02030020
  0
POLYLINE
  8
LAYER_2
 40
0.05
 41
0.05
 66
1
 10
0
 20
0
 30
0
 70
1
  0
VERTEX
  8
LAYER_2
 10
124.5502
 20
36.9969
  0
VERTEX
  8
LAYER_2
 10
124.8423
 20
36.9969
  0
VERTEX
  8
LAYER_2
 10
124.9853
 20
36.9804
  0
VERTEX
  8
LAYER_2
 10
125.0952
 20
36.929
  0
VERTEX
  8
LAYER_2
 10
125.1662
 20
36.8429
  0
VERTEX
  8
LAYER_2
 10
125.1906
 20
36.7213
  0
VERTEX
  8
LAYER_2
 10
125.1654
 20
36.5993
  0
VERTEX
  8
LAYER_2
 10
125.0938
 20
36.5132
  0
VERTEX
  8
LAYER_2
 10
124.9829
 20
36.4615
  0
VERTEX
  8
LAYER_2
 10
124.8392
 20
36.444
  0
VERTEX
  8
LAYER_2
 10
124.6552
 20
36.444
  0
VERTEX
  8
LAYER_2
 10
124.6552
 20
35.9637
  0
VERTEX
  8
LAYER_2
 10
124.5502
 20
35.9637
  0
SEQEND
  0
POLYLINE
  8
LAYER_2
 40
0.05
 41
0.05
 66
1
 10
0
 20
0
 30
0
 70
1
  0
VERTEX
  8
LAYER_2
 10
124.6552
 20
36.5328
  0
VERTEX
  8
LAYER_2
 10
124.833
 20
36.5328
 42
0.1829203509
  0
VERTEX
  8
LAYER_2
 10
125.0214
 20
36.581
 42
0.2347011275
  0
VERTEX
  8
LAYER_2
 10
125.0859
 20
36.7213
 42
0.26486771
  0
VERTEX
  8
LAYER_2
 10
125.0194
 20
36.8622
 42
0.1264027561
  0
VERTEX
  8
LAYER_2
 10
124.833
 20
36.9066
  0
VERTEX
  8
LAYER_2
 10
124.6552
 20
36.9066
  0
SEQEND
  0
ENDBLK
  0
BLOCK
  8
LAYER_2
  2
AIGNBL02030021
 70
64
 10
0
 20
0
 30
0
  3
AIGNBL02030021
  0
POLYLINE
  8
LAYER_2
 40
0.05
 41
0.05
 66
1
 10
0
 20
0
 30
0
 70
1
  0
VERTEX
  8
LAYER_2
 10
125.7029
 20
36.0574
  0
VERTEX
  8
LAYER_2
 10
126.2562
 20
36.0574
  0
VERTEX
  8
LAYER_2
 10
126.2562
 20
35.9637
  0
VERTEX
  8
LAYER_2
 10
125.5978
 20
35.9637
  0
VERTEX
  8
LAYER_2
 10
125.5978
 20
36.9969
  0
VERTEX
  8
LAYER_2
 10
126.2386
 20
36.9969
  0
VERTEX
  8
LAYER_2
 10
126.2386
 20
36.9035
  0
VERTEX
  8
LAYER_2
 10
125.7029
 20
36.9035
  0
VERTEX
  8
LAYER_2
 10
125.7029
 20
36.549
  0
VERTEX
  8
LAYER_2
 10
126.2035
 20
36.549
  0
VERTEX
  8
LAYER_2
 10
126.2035
 20
36.4557
  0
VERTEX
  8
LAYER_2
 10
125.7029
 20
36.4557
  0
SEQEND
  0
ENDBLK
  0
BLOCK
  8
LAYER_2
  2
AIGNBL02030022
 70
64
 10
0
 20
0
 30
0
  3
AIGNBL02030022
  0
POLYLINE
  8
LAYER_2
 40
0.05
 41
0.05
 66
1
 10
0
 20
0
 30
0
 70
1
  0
VERTEX
  8
LAYER_2
 10
126.7681
 20
35.9637
  0
VERTEX
  8
LAYER_2
 10
126.663
 20
35.9637
  0
VERTEX
  8
LAYER_2
 10
126.663
 20
36.9969
  0
VERTEX
  8
LAYER_2
 10
126.9669
 20
36.9969
  0
VERTEX
  8
LAYER_2
 10
127.1075
 20
36.9824
  0
VERTEX
  8
LAYER_2
 10
127.2201
 20
36.9349
  0
VERTEX
  8
LAYER_2
 10
127.2938
 20
36.8494
  0
VERTEX
  8
LAYER_2
 10
127.3197
 20
36.7213
  0
VERTEX
  8
LAYER_2
 10
127.2997
 20
36.6176
  0
VERTEX
  8
LAYER_2
 10
127.2442
 20
36.5366
  0
VERTEX
  8
LAYER_2
 10
127.1609
 20
36.4818
  0
VERTEX
  8
LAYER_2
 10
127.0558
 20
36.4557
  0
VERTEX
  8
LAYER_2
 10
127.3579
 20
35.9637
  0
VERTEX
  8
LAYER_2
 10
127.2294
 20
35.9637
  0
VERTEX
  8
LAYER_2
 10
126.9435
 20
36.4467
  0
VERTEX
  8
LAYER_2
 10
126.7681
 20
36.4467
  0
SEQEND
  0
POLYLINE
  8
LAYER_2
 40
0.05
 41
0.05
 66
1
 10
0
 20
0
 30
0
 70
1
  0
VERTEX
  8
LAYER_2
 10
126.7681
 20
36.5373
  0
VERTEX
  8
LAYER_2
 10
126.9507
 20
36.5373
 42
0.1667734107
  0
VERTEX
  8
LAYER_2
 10
127.1464
 20
36.5831
 42
0.2503091692
  0
VERTEX
  8
LAYER_2
 10
127.2149
 20
36.7213
  0
VERTEX
  8
LAYER_2
 10
127.196
 20
36.8071
  0
VERTEX
  8
LAYER_2
 10
127.1433
 20
36.8643
  0
VERTEX
  8
LAYER_2
 10
127.0616
 20
36.8963
  0
VERTEX
  8
LAYER_2
 10
126.9552
 20
36.9066
  0
VERTEX
  8
LAYER_2
 10
126.7681
 20
36.9066
  0
SEQEND
  0
ENDBLK
  0
BLOCK
  8
LAYER_2
  2
AIGNBL02030023
 70
64
 10
0
 20
0
 30
0
  3
AIGNBL02030023
  0
POLYLINE
  8
LAYER_2
 40
0.05
 41
0.05
 66
1
 10
0
 20
0
 30
0
 70
1
  0
VERTEX
  8
LAYER_2
 10
127.8437
 20
35.9637
  0
VERTEX
  8
LAYER_2
 10
127.739
 20
35.9637
  0
VERTEX
  8
LAYER_2
 10
127.739
 20
36.9969
  0
VERTEX
  8
LAYER_2
 10
127.8437
 20
36.9969
  0
SEQEND
  0
ENDBLK
  0
BLOCK
  8
LAYER_2
  2
AIGNBL02030024
 70
64
 10
0
 20
0
 30
0
  3
AIGNBL02030024
  0
POLYLINE
  8
LAYER_2
 40
0.05
 41
0.05
 66
1
 10
0
 20
0
 30
0
 70
1
  0
VERTEX
  8
LAYER_2
 10
128.4245
 20
36.0574
  0
VERTEX
  8
LAYER_2
 10
128.9775
 20
36.0574
  0
VERTEX
  8
LAYER_2
 10
128.9775
 20
35.9637
  0
VERTEX
  8
LAYER_2
 10
128.3195
 20
35.9637
  0
VERTEX
  8
LAYER_2
 10
128.3195
 20
36.9969
  0
VERTEX
  8
LAYER_2
 10
128.9602
 20
36.9969
  0
VERTEX
  8
LAYER_2
 10
128.9602
 20
36.9035
  0
VERTEX
  8
LAYER_2
 10
128.4245
 20
36.9035
  0
VERTEX
  8
LAYER_2
 10
128.4245
 20
36.549
  0
VERTEX
  8
LAYER_2
 10
128.9251
 20
36.549
  0
VERTEX
  8
LAYER_2
 10
128.9251
 20
36.4557
  0
VERTEX
  8
LAYER_2
 10
128.4245
 20
36.4557
  0
SEQEND
  0
ENDBLK
  0
BLOCK
  8
LAYER_2
  2
AIGNBL02030025
 70
64
 10
0
 20
0
 30
0
  3
AIGNBL02030025
  0
POLYLINE
  8
LAYER_2
 40
0.05
 41
0.05
 66
1
 10
0
 20
0
 30
0
 70
1
  0
VERTEX
  8
LAYER_2
 10
130.1174
 20
36.117
  0
VERTEX
  8
LAYER_2
 10
130.1202
 20
36.117
  0
VERTEX
  8
LAYER_2
 10
130.1202
 20
36.9969
  0
VERTEX
  8
LAYER_2
 10
130.2253
 20
36.9969
  0
VERTEX
  8
LAYER_2
 10
130.2253
 20
35.9637
  0
VERTEX
  8
LAYER_2
 10
130.094
 20
35.9637
  0
VERTEX
  8
LAYER_2
 10
129.4928
 20
36.8525
  0
VERTEX
  8
LAYER_2
 10
129.4897
 20
36.8525
  0
VERTEX
  8
LAYER_2
 10
129.4897
 20
35.9637
  0
VERTEX
  8
LAYER_2
 10
129.3847
 20
35.9637
  0
VERTEX
  8
LAYER_2
 10
129.3847
 20
36.9969
  0
VERTEX
  8
LAYER_2
 10
129.5163
 20
36.9969
  0
SEQEND
  0
ENDBLK
  0
BLOCK
  8
LAYER_2
  2
AIGNBL02030026
 70
64
 10
0
 20
0
 30
0
  3
AIGNBL02030026
  0
POLYLINE
  8
LAYER_2
 40
0.05
 41
0.05
 66
1
 10
0
 20
0
 30
0
 70
1
  0
VERTEX
  8
LAYER_2
 10
131.5709
 20
36.1315
  0
VERTEX
  8
LAYER_2
 10
131.5072
 20
36.0571
  0
VERTEX
  8
LAYER_2
 10
131.4211
 20
35.9954
  0
VERTEX
  8
LAYER_2
 10
131.3129
 20
35.953
  0
VERTEX
  8
LAYER_2
 10
131.184
 20
35.9375
 42
-0.1009408553
  0
VERTEX
  8
LAYER_2
 10
130.968
 20
35.9785
 42
-0.1036559164
  0
VERTEX
  8
LAYER_2
 10
130.7975
 20
36.0915
 42
-0.09812017057
  0
VERTEX
  8
LAYER_2
 10
130.6859
 20
36.2631
 42
-0.09232404316
  0
VERTEX
  8
LAYER_2
 10
130.6456
 20
36.4805
 42
-0.1041003847
  0
VERTEX
  8
LAYER_2
 10
130.6866
 20
36.6978
 42
-0.1007605982
  0
VERTEX
  8
LAYER_2
 10
130.7992
 20
36.8694
 42
-0.09536265516
  0
VERTEX
  8
LAYER_2
 10
130.9701
 20
36.9824
 42
-0.09506675375
  0
VERTEX
  8
LAYER_2
 10
131.184
 20
37.0234
  0
VERTEX
  8
LAYER_2
 10
131.2957
 20
37.0114
  0
VERTEX
  8
LAYER_2
 10
131.3987
 20
36.9779
  0
VERTEX
  8
LAYER_2
 10
131.4862
 20
36.9263
  0
VERTEX
  8
LAYER_2
 10
131.552
 20
36.8584
  0
VERTEX
  8
LAYER_2
 10
131.4645
 20
36.794
  0
VERTEX
  8
LAYER_2
 10
131.4211
 20
36.8439
  0
VERTEX
  8
LAYER_2
 10
131.3577
 20
36.8877
  0
VERTEX
  8
LAYER_2
 10
131.2781
 20
36.9183
  0
VERTEX
  8
LAYER_2
 10
131.1854
 20
36.93
  0
VERTEX
  8
LAYER_2
 10
131.0052
 20
36.8935
  0
VERTEX
  8
LAYER_2
 10
130.8702
 20
36.7954
  0
VERTEX
  8
LAYER_2
 10
130.7854
 20
36.652
  0
VERTEX
  8
LAYER_2
 10
130.7565
 20
36.4805
  0
VERTEX
  8
LAYER_2
 10
130.7865
 20
36.3089
  0
VERTEX
  8
LAYER_2
 10
130.8719
 20
36.1656
  0
VERTEX
  8
LAYER_2
 10
131.007
 20
36.0674
 42
0.1010490553
  0
VERTEX
  8
LAYER_2
 10
131.1854
 20
36.0309
  0
VERTEX
  8
LAYER_2
 10
131.3546
 20
36.0674
 42
0.1325349639
  0
VERTEX
  8
LAYER_2
 10
131.4889
 20
36.1842
  0
SEQEND
  0
ENDBLK
  0
BLOCK
  8
LAYER_2
  2
AIGNBL02030027
 70
64
 10
0
 20
0
 30
0
  3
AIGNBL02030027
  0
POLYLINE
  8
LAYER_2
 40
0.05
 41
0.05
 66
1
 10
0
 20
0
 30
0
 70
1
  0
VERTEX
  8
LAYER_2
 10
132.0581
 20
36.0574
  0
VERTEX
  8
LAYER_2
 10
132.6114
 20
36.0574
  0
VERTEX
  8
LAYER_2
 10
132.6114
 20
35.9637
  0
VERTEX
  8
LAYER_2
 10
131.953
 20
35.9637
  0
VERTEX
  8
LAYER_2
 10
131.953
 20
36.9969
  0
VERTEX
  8
LAYER_2
 10
132.5938
 20
36.9969
  0
VERTEX
  8
LAYER_2
 10
132.5938
 20
36.9035
  0
VERTEX
  8
LAYER_2
 10
132.0581
 20
36.9035
  0
VERTEX
  8
LAYER_2
 10
132.0581
 20
36.549
  0
VERTEX
  8
LAYER_2
 10
132.5586
 20
36.549
  0
VERTEX
  8
LAYER_2
 10
132.5586
 20
36.4557
  0
VERTEX
  8
LAYER_2
 10
132.0581
 20
36.4557
  0
SEQEND
  0
ENDBLK
  0
BLOCK
  8
LAYER_2
  2
AIGNBL02020004
 70
64
 10
0
 20
0
 30
0
  3
AIGNBL02020004
  0
POLYLINE
  8
LAYER_2
 40
0.05
 41
0.05
 66
1
 10
0
 20
0
 30
0
  0
VERTEX
  8
LAYER_2
 10
-1.196
 20
217.6012
 42
-0.07434374488
  0
VERTEX
  8
LAYER_2
 10
-1.3046
 20
216.4751
 42
-0.1312981164
  0
VERTEX
  8
LAYER_2
 10
-1.5732
 20
216.0054
 42
-0.208619006
  0
VERTEX
  8
LAYER_2
 10
-2.3408
 20
215.7164
 42
-0.1980855618
  0
VERTEX
  8
LAYER_2
 10
-3.0956
 20
216.0054
 42
-0.1359059684
  0
VERTEX
  8
LAYER_2
 10
-3.3746
 20
216.5106
 42
-0.06699191066
  0
VERTEX
  8
LAYER_2
 10
-3.4732
 20
217.6012
 42
-0.07470238595
  0
VERTEX
  8
LAYER_2
 10
-3.3644
 20
218.7157
 42
-0.1310826725
  0
VERTEX
  8
LAYER_2
 10
-3.0956
 20
219.1845
 42
-0.2061520596
  0
VERTEX
  8
LAYER_2
 10
-2.3408
 20
219.4732
 42
-0.1977437771
  0
VERTEX
  8
LAYER_2
 10
-1.5732
 20
219.1845
 42
-0.1358673357
  0
VERTEX
  8
LAYER_2
 10
-1.2943
 20
218.6804
 42
-0.06720044206
  0
VERTEX
  8
LAYER_2
 10
-1.196
 20
217.6012
  0
SEQEND
  0
POLYLINE
  8
LAYER_2
 40
0.05
 41
0.05
 66
1
 10
0
 20
0
 30
0
  0
VERTEX
  8
LAYER_2
 10
0.4394
 20
217.6012
 42
0.0577585355
  0
VERTEX
  8
LAYER_2
 10
0.3194
 20
218.9609
 42
0.1358747382
  0
VERTEX
  8
LAYER_2
 10
-0.303
 20
220.1395
 42
0.1777268905
  0
VERTEX
  8
LAYER_2
 10
-1.8892
 20
220.9154
 42
0.03495822391
  0
VERTEX
  8
LAYER_2
 10
-2.3408
 20
220.9436
 42
0.07961804251
  0
VERTEX
  8
LAYER_2
 10
-3.315
 20
220.7962
 42
0.1217450219
  0
VERTEX
  8
LAYER_2
 10
-4.3662
 20
220.1395
 42
0.09150776818
  0
VERTEX
  8
LAYER_2
 10
-4.8465
 20
219.4067
 42
0.07735978812
  0
VERTEX
  8
LAYER_2
 10
-5.0776
 20
218.3847
 42
0.03281807239
  0
VERTEX
  8
LAYER_2
 10
-5.1082
 20
217.6012
 42
0.05725233541
  0
VERTEX
  8
LAYER_2
 10
-4.9885
 20
216.2362
 42
0.1359864428
  0
VERTEX
  8
LAYER_2
 10
-4.3662
 20
215.0504
 42
0.175204158
  0
VERTEX
  8
LAYER_2
 10
-2.7508
 20
214.2702
 42
0.03231924249
  0
VERTEX
  8
LAYER_2
 10
-2.3408
 20
214.2463
 42
0.07899302184
  0
VERTEX
  8
LAYER_2
 10
-1.3625
 20
214.3937
 42
0.1216861451
  0
VERTEX
  8
LAYER_2
 10
-0.303
 20
215.0504
 42
0.09340304456
  0
VERTEX
  8
LAYER_2
 10
0.1681
 20
215.7463
 42
0.0774645698
  0
VERTEX
  8
LAYER_2
 10
0.4017
 20
216.7223
 42
0.02212089617
  0
VERTEX
  8
LAYER_2
 10
0.4394
 20
217.6012
  0
SEQEND
  0
POLYLINE
  8
LAYER_2
 40
0.05
 41
0.05
 66
1
 10
0
 20
0
 30
0
  0
VERTEX
  8
LAYER_2
 10
-11.3166
 20
218.2044
  0
VERTEX
  8
LAYER_2
 10
-13.8074
 20
218.2044
 42
-0.1153546446
  0
VERTEX
  8
LAYER_2
 10
-13.6562
 20
218.9079
 42
-0.3007040875
  0
VERTEX
  8
LAYER_2
 10
-12.562
 20
219.5866
 42
-0.1235431447
  0
VERTEX
  8
LAYER_2
 10
-11.9621
 20
219.4464
 42
-0.1667603161
  0
VERTEX
  8
LAYER_2
 10
-11.4672
 20
218.9079
 42
-0.1143399212
  0
VERTEX
  8
LAYER_2
 10
-11.3166
 20
218.2044
  0
SEQEND
  0
POLYLINE
  8
LAYER_2
 40
0.05
 41
0.05
 66
1
 10
0
 20
0
 30
0
 70
1
  0
VERTEX
  8
LAYER_2
 10
-9.7064
 20
217.0861
  0
VERTEX
  8
LAYER_2
 10
-9.7064
 20
217.7772
 42
0.0677042249
  0
VERTEX
  8
LAYER_2
 10
-9.852
 20
218.9102
 42
0.07767771487
  0
VERTEX
  8
LAYER_2
 10
-10.2392
 20
219.7789
 42
0.1724975422
  0
VERTEX
  8
LAYER_2
 10
-11.5857
 20
220.7996
 42
0.07776532921
  0
VERTEX
  8
LAYER_2
 10
-12.562
 20
220.9436
 42
0.0796960513
  0
VERTEX
  8
LAYER_2
 10
-13.5247
 20
220.7966
 42
0.168887661
  0
VERTEX
  8
LAYER_2
 10
-14.846
 20
219.7874
 42
0.07658055294
  0
VERTEX
  8
LAYER_2
 10
-15.2466
 20
218.9066
 42
0.07097127065
  0
VERTEX
  8
LAYER_2
 10
-15.4177
 20
217.6012
 42
0.05685454964
  0
VERTEX
  8
LAYER_2
 10
-15.2934
 20
216.4004
 42
0.07540481703
  0
VERTEX
  8
LAYER_2
 10
-14.9492
 20
215.5069
 42
0.1774924504
  0
VERTEX
  8
LAYER_2
 10
-13.6777
 20
214.4527
 42
0.08958127581
  0
VERTEX
  8
LAYER_2
 10
-12.386
 20
214.2463
 42
0.07080596686
  0
VERTEX
  8
LAYER_2
 10
-11.2943
 20
214.3814
 42
0.08369033087
  0
VERTEX
  8
LAYER_2
 10
-10.4805
 20
214.7708
 42
0.04417423811
  0
VERTEX
  8
LAYER_2
 10
-9.8948
 20
215.2768
  0
VERTEX
  8
LAYER_2
 10
-10.8887
 20
216.2442
 42
-0.09875545259
  0
VERTEX
  8
LAYER_2
 10
-11.5612
 20
215.7667
 42
-0.1006814841
  0
VERTEX
  8
LAYER_2
 10
-12.3732
 20
215.6285
 42
-0.1070981108
  0
VERTEX
  8
LAYER_2
 10
-13.0555
 20
215.7638
 42
-0.2542521374
  0
VERTEX
  8
LAYER_2
 10
-13.7778
 20
216.7415
 42
-0.04997815034
  0
VERTEX
  8
LAYER_2
 10
-13.8074
 20
217.0861
  0
SEQEND
  0
POLYLINE
  8
LAYER_2
 40
0.05
 41
0.05
 66
1
 10
0
 20
0
 30
0
 70
1
  0
VERTEX
  8
LAYER_2
 10
-16.9018
 20
223.2773
  0
VERTEX
  8
LAYER_2
 10
-18.5517
 20
223.2773
  0
VERTEX
  8
LAYER_2
 10
-18.5517
 20
221.9454
  0
VERTEX
  8
LAYER_2
 10
-16.9018
 20
221.9454
  0
SEQEND
  0
POLYLINE
  8
LAYER_2
 40
0.05
 41
0.05
 66
1
 10
0
 20
0
 30
0
 70
1
  0
VERTEX
  8
LAYER_2
 10
-16.9146
 20
220.79
  0
VERTEX
  8
LAYER_2
 10
-18.5499
 20
220.79
  0
VERTEX
  8
LAYER_2
 10
-18.5499
 20
214.3218
  0
VERTEX
  8
LAYER_2
 10
-16.9146
 20
214.3218
  0
SEQEND
  0
POLYLINE
  8
LAYER_2
 40
0.05
 41
0.05
 66
1
 10
0
 20
0
 30
0
  0
VERTEX
  8
LAYER_2
 10
-19.8205
 20
215.1386
  0
VERTEX
  8
LAYER_2
 10
-20.9274
 20
216.2317
 42
-0.1123773458
  0
VERTEX
  8
LAYER_2
 10
-21.5025
 20
215.8017
 42
-0.09517045223
  0
VERTEX
  8
LAYER_2
 10
-21.984
 20
215.7164
 42
-0.2295666259
  0
VERTEX
  8
LAYER_2
 10
-22.9149
 20
216.1436
 42
-0.1146247369
  0
VERTEX
  8
LAYER_2
 10
-23.2025
 20
216.7765
 42
-0.05302023055
  0
VERTEX
  8
LAYER_2
 10
-23.2797
 20
217.6012
 42
-0.07909887362
  0
VERTEX
  8
LAYER_2
 10
-23.1547
 20
218.5928
 42
-0.092262399
  0
VERTEX
  8
LAYER_2
 10
-22.9149
 20
219.0461
 42
-0.2338488836
  0
VERTEX
  8
LAYER_2
 10
-21.984
 20
219.4732
 42
-0.128883052
  0
VERTEX
  8
LAYER_2
 10
-21.3835
 20
219.3322
 42
-0.07812769659
  0
VERTEX
  8
LAYER_2
 10
-20.9274
 20
218.9585
  0
VERTEX
  8
LAYER_2
 10
-19.8205
 20
220.0637
 42
0.170273791
  0
VERTEX
  8
LAYER_2
 10
-21.4399
 20
220.9062
 42
0.04126809408
  0
VERTEX
  8
LAYER_2
 10
-21.984
 20
220.9436
 42
0.07342899762
  0
VERTEX
  8
LAYER_2
 10
-22.9625
 20
220.804
 42
0.1715306153
  0
VERTEX
  8
LAYER_2
 10
-24.3547
 20
219.7917
 42
0.07792315428
  0
VERTEX
  8
LAYER_2
 10
-24.7438
 20
218.9398
 42
0.07121572719
  0
VERTEX
  8
LAYER_2
 10
-24.9151
 20
217.6012
 42
0.06071119945
  0
VERTEX
  8
LAYER_2
 10
-24.7811
 20
216.4004
 42
0.07599045696
  0
VERTEX
  8
LAYER_2
 10
-24.4186
 20
215.5069
 42
0.1707838222
  0
VERTEX
  8
LAYER_2
 10
-23.1195
 20
214.4409
 42
0.08917342928
  0
VERTEX
  8
LAYER_2
 10
-21.984
 20
214.2463
 42
0.07667723183
  0
VERTEX
  8
LAYER_2
 10
-21.0013
 20
214.3855
 42
0.1303789466
  0
VERTEX
  8
LAYER_2
 10
-19.8205
 20
215.1386
  0
SEQEND
  0
ENDBLK
  0
BLOCK
  8
LAYER_2
  2
AIGNBL02020005
 70
64
 10
0
 20
0
 30
0
  3
AIGNBL02020005
  0
POLYLINE
  8
LAYER_2
 40
0.05
 41
0.05
 66
1
 10
0
 20
0
 30
0
 70
1
  0
VERTEX
  8
LAYER_2
 10
0.3288
 20
212.6805
  0
VERTEX
  8
LAYER_2
 10
0.0009
 20
212.6805
  0
VERTEX
  8
LAYER_2
 10
-0.2479
 20
211.9109
  0
VERTEX
  8
LAYER_2
 10
-0.5066
 20
212.6805
  0
VERTEX
  8
LAYER_2
 10
-0.8342
 20
212.6805
  0
VERTEX
  8
LAYER_2
 10
-0.4084
 20
211.5234
  0
VERTEX
  8
LAYER_2
 10
-0.4611
 20
211.3704
 42
-0.396721792
  0
VERTEX
  8
LAYER_2
 10
-0.6165
 20
211.2581
  0
VERTEX
  8
LAYER_2
 10
-0.6882
 20
211.2581
  0
VERTEX
  8
LAYER_2
 10
-0.6882
 20
210.9783
  0
VERTEX
  8
LAYER_2
 10
-0.5662
 20
210.9783
 42
0.2067482179
  0
VERTEX
  8
LAYER_2
 10
-0.2985
 20
211.0741
  0
VERTEX
  8
LAYER_2
 10
-0.2048
 20
211.2343
  0
SEQEND
  0
POLYLINE
  8
LAYER_2
 40
0.05
 41
0.05
 66
1
 10
0
 20
0
 30
0
 70
1
  0
VERTEX
  8
LAYER_2
 10
-0.8704
 20
211.4352
  0
VERTEX
  8
LAYER_2
 10
-0.8704
 20
211.6977
  0
VERTEX
  8
LAYER_2
 10
-0.9899
 20
211.6977
 42
-0.4758158184
  0
VERTEX
  8
LAYER_2
 10
-1.0998
 20
211.8103
  0
VERTEX
  8
LAYER_2
 10
-1.0998
 20
213.137
  0
VERTEX
  8
LAYER_2
 10
-1.4109
 20
213.137
  0
VERTEX
  8
LAYER_2
 10
-1.4109
 20
211.7914
 42
0.4199153803
  0
VERTEX
  8
LAYER_2
 10
-1.0475
 20
211.4352
  0
SEQEND
  0
POLYLINE
  8
LAYER_2
 40
0.05
 41
0.05
 66
1
 10
0
 20
0
 30
0
 70
1
  0
VERTEX
  8
LAYER_2
 10
-1.9739
 20
211.894
 42
-0.2612643935
  0
VERTEX
  8
LAYER_2
 10
-2.0214
 20
211.7363
 42
-0.1972145384
  0
VERTEX
  8
LAYER_2
 10
-2.2057
 20
211.6763
 42
-0.4351815088
  0
VERTEX
  8
LAYER_2
 10
-2.3949
 20
211.8175
 42
-0.4650020324
  0
VERTEX
  8
LAYER_2
 10
-2.2105
 20
211.9609
  0
VERTEX
  8
LAYER_2
 10
-1.9739
 20
211.9609
  0
SEQEND
  0
POLYLINE
  8
LAYER_2
 40
0.05
 41
0.05
 66
1
 10
0
 20
0
 30
0
 70
1
  0
VERTEX
  8
LAYER_2
 10
-1.6624
 20
211.4352
  0
VERTEX
  8
LAYER_2
 10
-1.6624
 20
212.2551
 42
0.2205564812
  0
VERTEX
  8
LAYER_2
 10
-1.7881
 20
212.5772
 42
0.1806009816
  0
VERTEX
  8
LAYER_2
 10
-2.194
 20
212.6947
 42
0.2375604919
  0
VERTEX
  8
LAYER_2
 10
-2.6412
 20
212.5179
  0
VERTEX
  8
LAYER_2
 10
-2.4452
 20
212.3243
 42
-0.2464065653
  0
VERTEX
  8
LAYER_2
 10
-2.2057
 20
212.4322
 42
-0.4684872669
  0
VERTEX
  8
LAYER_2
 10
-1.9739
 20
212.2358
  0
VERTEX
  8
LAYER_2
 10
-1.9739
 20
212.1738
  0
VERTEX
  8
LAYER_2
 10
-2.2633
 20
212.1738
 42
0.2103132122
  0
VERTEX
  8
LAYER_2
 10
-2.6081
 20
212.0486
 42
0.18506809
  0
VERTEX
  8
LAYER_2
 10
-2.6942
 20
211.8127
 42
0.1945609364
  0
VERTEX
  8
LAYER_2
 10
-2.5912
 20
211.533
 42
0.1980708175
  0
VERTEX
  8
LAYER_2
 10
-2.2729
 20
211.4228
 42
0.2246292991
  0
VERTEX
  8
LAYER_2
 10
-1.9663
 20
211.5426
  0
VERTEX
  8
LAYER_2
 10
-1.9663
 20
211.4352
  0
SEQEND
  0
POLYLINE
  8
LAYER_2
 40
0.05
 41
0.05
 66
1
 10
0
 20
0
 30
0
 70
1
  0
VERTEX
  8
LAYER_2
 10
-2.8758
 20
211.4352
  0
VERTEX
  8
LAYER_2
 10
-2.8758
 20
211.6977
  0
VERTEX
  8
LAYER_2
 10
-2.9884
 20
211.6977
 42
-0.496954413
  0
VERTEX
  8
LAYER_2
 10
-3.0963
 20
211.8103
  0
VERTEX
  8
LAYER_2
 10
-3.0963
 20
212.4081
  0
VERTEX
  8
LAYER_2
 10
-2.8758
 20
212.4081
  0
VERTEX
  8
LAYER_2
 10
-2.8758
 20
212.6444
  0
VERTEX
  8
LAYER_2
 10
-3.0963
 20
212.6444
  0
VERTEX
  8
LAYER_2
 10
-3.0963
 20
213.0126
  0
VERTEX
  8
LAYER_2
 10
-3.407
 20
213.0126
  0
VERTEX
  8
LAYER_2
 10
-3.407
 20
212.6444
  0
VERTEX
  8
LAYER_2
 10
-3.539
 20
212.6444
  0
VERTEX
  8
LAYER_2
 10
-3.539
 20
212.4081
  0
VERTEX
  8
LAYER_2
 10
-3.407
 20
212.4081
  0
VERTEX
  8
LAYER_2
 10
-3.407
 20
211.7914
 42
0.4187763975
  0
VERTEX
  8
LAYER_2
 10
-3.0456
 20
211.4352
  0
SEQEND
  0
POLYLINE
  8
LAYER_2
 40
0.05
 41
0.05
 66
1
 10
0
 20
0
 30
0
 70
1
  0
VERTEX
  8
LAYER_2
 10
-3.8091
 20
213.137
  0
VERTEX
  8
LAYER_2
 10
-4.1419
 20
213.137
  0
VERTEX
  8
LAYER_2
 10
-4.1419
 20
211.4352
  0
VERTEX
  8
LAYER_2
 10
-3.8091
 20
211.4352
  0
SEQEND
  0
POLYLINE
  8
LAYER_2
 40
0.05
 41
0.05
 66
1
 10
0
 20
0
 30
0
 70
1
  0
VERTEX
  8
LAYER_2
 10
-5.0562
 20
211.4352
  0
VERTEX
  8
LAYER_2
 10
-5.0562
 20
212.231
 42
0.2135728393
  0
VERTEX
  8
LAYER_2
 10
-5.183
 20
212.5844
 42
0.1976836271
  0
VERTEX
  8
LAYER_2
 10
-5.4775
 20
212.6947
 42
0.2038428178
  0
VERTEX
  8
LAYER_2
 10
-5.7886
 20
212.5658
  0
VERTEX
  8
LAYER_2
 10
-5.7886
 20
212.6805
  0
VERTEX
  8
LAYER_2
 10
-6.0925
 20
212.6805
  0
VERTEX
  8
LAYER_2
 10
-6.0925
 20
211.4352
  0
VERTEX
  8
LAYER_2
 10
-5.7814
 20
211.4352
  0
VERTEX
  8
LAYER_2
 10
-5.7814
 20
212.1882
 42
-0.4265123439
  0
VERTEX
  8
LAYER_2
 10
-5.573
 20
212.4149
 42
-0.4361688158
  0
VERTEX
  8
LAYER_2
 10
-5.3673
 20
212.1882
  0
VERTEX
  8
LAYER_2
 10
-5.3673
 20
211.4352
  0
SEQEND
  0
POLYLINE
  8
LAYER_2
 40
0.05
 41
0.05
 66
1
 10
0
 20
0
 30
0
 70
1
  0
VERTEX
  8
LAYER_2
 10
-6.437
 20
213.1467
  0
VERTEX
  8
LAYER_2
 10
-6.7553
 20
213.1467
  0
VERTEX
  8
LAYER_2
 10
-6.7553
 20
212.8931
  0
VERTEX
  8
LAYER_2
 10
-6.437
 20
212.8931
  0
SEQEND
  0
POLYLINE
  8
LAYER_2
 40
0.05
 41
0.05
 66
1
 10
0
 20
0
 30
0
 70
1
  0
VERTEX
  8
LAYER_2
 10
-6.4394
 20
212.6444
  0
VERTEX
  8
LAYER_2
 10
-6.7508
 20
212.6444
  0
VERTEX
  8
LAYER_2
 10
-6.7508
 20
211.4352
  0
VERTEX
  8
LAYER_2
 10
-6.4394
 20
211.4352
  0
SEQEND
  0
POLYLINE
  8
LAYER_2
 40
0.05
 41
0.05
 66
1
 10
0
 20
0
 30
0
  0
VERTEX
  8
LAYER_2
 10
-7.8994
 20
212.1738
  0
VERTEX
  8
LAYER_2
 10
-8.3735
 20
212.1738
  0
VERTEX
  8
LAYER_2
 10
-8.3445
 20
212.3074
 42
-0.3006254692
  0
VERTEX
  8
LAYER_2
 10
-8.1365
 20
212.4363
 42
-0.3004502708
  0
VERTEX
  8
LAYER_2
 10
-7.9284
 20
212.3074
  0
VERTEX
  8
LAYER_2
 10
-7.8994
 20
212.1738
  0
SEQEND
  0
POLYLINE
  8
LAYER_2
 40
0.05
 41
0.05
 66
1
 10
0
 20
0
 30
0
 70
1
  0
VERTEX
  8
LAYER_2
 10
-7.5932
 20
211.9609
  0
VERTEX
  8
LAYER_2
 10
-7.5932
 20
212.0925
 42
0.1727949422
  0
VERTEX
  8
LAYER_2
 10
-7.7261
 20
212.5161
 42
0.2293242446
  0
VERTEX
  8
LAYER_2
 10
-8.1365
 20
212.6947
 42
0.4082688927
  0
VERTEX
  8
LAYER_2
 10
-8.6757
 20
212.151
 42
0.02665393029
  0
VERTEX
  8
LAYER_2
 10
-8.6797
 20
212.0591
 42
0.1685110564
  0
VERTEX
  8
LAYER_2
 10
-8.5537
 20
211.6061
 42
0.2404561047
  0
VERTEX
  8
LAYER_2
 10
-8.103
 20
211.4207
 42
0.2250390665
  0
VERTEX
  8
LAYER_2
 10
-7.629
 20
211.6167
  0
VERTEX
  8
LAYER_2
 10
-7.8181
 20
211.801
 42
-0.2242451699
  0
VERTEX
  8
LAYER_2
 10
-8.1003
 20
211.6839
 42
-0.4312737558
  0
VERTEX
  8
LAYER_2
 10
-8.3735
 20
211.9609
  0
SEQEND
  0
POLYLINE
  8
LAYER_2
 40
0.05
 41
0.05
 66
1
 10
0
 20
0
 30
0
  0
VERTEX
  8
LAYER_2
 10
-9.2778
 20
212.0591
 42
-0.253040373
  0
VERTEX
  8
LAYER_2
 10
-9.3737
 20
211.7317
 42
-0.1751487426
  0
VERTEX
  8
LAYER_2
 10
-9.4911
 20
211.7004
 42
-0.3550784466
  0
VERTEX
  8
LAYER_2
 10
-9.6774
 20
211.8331
 42
-0.1590539016
  0
VERTEX
  8
LAYER_2
 10
-9.7016
 20
212.0591
 42
-0.2613372193
  0
VERTEX
  8
LAYER_2
 10
-9.6054
 20
212.3859
 42
-0.1728730088
  0
VERTEX
  8
LAYER_2
 10
-9.4911
 20
212.4149
 42
-0.3508351005
  0
VERTEX
  8
LAYER_2
 10
-9.3031
 20
212.2839
 42
-0.1617280931
  0
VERTEX
  8
LAYER_2
 10
-9.2778
 20
212.0591
  0
SEQEND
  0
POLYLINE
  8
LAYER_2
 40
0.05
 41
0.05
 66
1
 10
0
 20
0
 30
0
 70
1
  0
VERTEX
  8
LAYER_2
 10
-8.9667
 20
211.4352
  0
VERTEX
  8
LAYER_2
 10
-8.9667
 20
213.137
  0
VERTEX
  8
LAYER_2
 10
-9.2778
 20
213.137
  0
VERTEX
  8
LAYER_2
 10
-9.2778
 20
212.5707
 42
0.2263222596
  0
VERTEX
  8
LAYER_2
 10
-9.582
 20
212.6947
 42
0.2021447193
  0
VERTEX
  8
LAYER_2
 10
-9.8835
 20
212.5824
 42
0.1955994833
  0
VERTEX
  8
LAYER_2
 10
-10.0116
 20
212.1647
 42
0.01858076917
  0
VERTEX
  8
LAYER_2
 10
-10.013
 20
212.0591
 42
0.1992737425
  0
VERTEX
  8
LAYER_2
 10
-9.8835
 20
211.533
 42
0.1967798833
  0
VERTEX
  8
LAYER_2
 10
-9.5796
 20
211.4207
 42
0.2368398509
  0
VERTEX
  8
LAYER_2
 10
-9.2709
 20
211.5523
  0
VERTEX
  8
LAYER_2
 10
-9.2709
 20
211.4352
  0
SEQEND
  0
POLYLINE
  8
LAYER_2
 40
0.05
 41
0.05
 66
1
 10
0
 20
0
 30
0
 70
1
  0
VERTEX
  8
LAYER_2
 10
-10.6062
 20
211.894
 42
-0.2606176184
  0
VERTEX
  8
LAYER_2
 10
-10.6541
 20
211.7363
 42
-0.1975146001
  0
VERTEX
  8
LAYER_2
 10
-10.8384
 20
211.6763
 42
-0.4358674545
  0
VERTEX
  8
LAYER_2
 10
-11.0272
 20
211.8175
 42
-0.4654392595
  0
VERTEX
  8
LAYER_2
 10
-10.8433
 20
211.9609
  0
VERTEX
  8
LAYER_2
 10
-10.6062
 20
211.9609
  0
SEQEND
  0
POLYLINE
  8
LAYER_2
 40
0.05
 41
0.05
 66
1
 10
0
 20
0
 30
0
 70
1
  0
VERTEX
  8
LAYER_2
 10
-10.2951
 20
211.4352
  0
VERTEX
  8
LAYER_2
 10
-10.2951
 20
212.2551
 42
0.2204713638
  0
VERTEX
  8
LAYER_2
 10
-10.4207
 20
212.5772
 42
0.1806796456
  0
VERTEX
  8
LAYER_2
 10
-10.8267
 20
212.6947
 42
0.2375604919
  0
VERTEX
  8
LAYER_2
 10
-11.2739
 20
212.5179
  0
VERTEX
  8
LAYER_2
 10
-11.0779
 20
212.3243
 42
-0.2460763492
  0
VERTEX
  8
LAYER_2
 10
-10.8384
 20
212.4322
 42
-0.4683426501
  0
VERTEX
  8
LAYER_2
 10
-10.6062
 20
212.2358
  0
VERTEX
  8
LAYER_2
 10
-10.6062
 20
212.1738
  0
VERTEX
  8
LAYER_2
 10
-10.896
 20
212.1738
 42
0.2105830771
  0
VERTEX
  8
LAYER_2
 10
-11.2407
 20
212.0486
 42
0.1847749138
  0
VERTEX
  8
LAYER_2
 10
-11.3266
 20
211.8127
 42
0.1946881207
  0
VERTEX
  8
LAYER_2
 10
-11.2239
 20
211.533
 42
0.1984095291
  0
VERTEX
  8
LAYER_2
 10
-10.9053
 20
211.4228
 42
0.2251045156
  0
VERTEX
  8
LAYER_2
 10
-10.599
 20
211.5426
  0
VERTEX
  8
LAYER_2
 10
-10.599
 20
211.4352
  0
SEQEND
  0
POLYLINE
  8
LAYER_2
 40
0.05
 41
0.05
 66
1
 10
0
 20
0
 30
0
 70
1
  0
VERTEX
  8
LAYER_2
 10
-11.5733
 20
211.4352
  0
VERTEX
  8
LAYER_2
 10
-11.5733
 20
212.231
 42
0.2096424971
  0
VERTEX
  8
LAYER_2
 10
-11.7097
 20
212.5844
 42
0.1904514856
  0
VERTEX
  8
LAYER_2
 10
-12.016
 20
212.6947
 42
0.2238328308
  0
VERTEX
  8
LAYER_2
 10
-12.3894
 20
212.5369
 42
0.2475119635
  0
VERTEX
  8
LAYER_2
 10
-12.7198
 20
212.6947
 42
0.1995172237
  0
VERTEX
  8
LAYER_2
 10
-13.0309
 20
212.5658
  0
VERTEX
  8
LAYER_2
 10
-13.0309
 20
212.6805
  0
VERTEX
  8
LAYER_2
 10
-13.3348
 20
212.6805
  0
VERTEX
  8
LAYER_2
 10
-13.3348
 20
211.4352
  0
VERTEX
  8
LAYER_2
 10
-13.0233
 20
211.4352
  0
VERTEX
  8
LAYER_2
 10
-13.0233
 20
212.1882
 42
-0.4265481482
  0
VERTEX
  8
LAYER_2
 10
-12.8153
 20
212.4149
 42
-0.4361688158
  0
VERTEX
  8
LAYER_2
 10
-12.6096
 20
212.1882
  0
VERTEX
  8
LAYER_2
 10
-12.6096
 20
211.4352
  0
VERTEX
  8
LAYER_2
 10
-12.2985
 20
211.4352
  0
VERTEX
  8
LAYER_2
 10
-12.2985
 20
212.1951
 42
-0.4236814191
  0
VERTEX
  8
LAYER_2
 10
-12.0904
 20
212.4149
 42
-0.4367319455
  0
VERTEX
  8
LAYER_2
 10
-11.8844
 20
212.1882
  0
VERTEX
  8
LAYER_2
 10
-11.8844
 20
211.4352
  0
SEQEND
  0
POLYLINE
  8
LAYER_2
 40
0.05
 41
0.05
 66
1
 10
0
 20
0
 30
0
  0
VERTEX
  8
LAYER_2
 10
-13.8973
 20
212.0229
 42
-0.2061577285
  0
VERTEX
  8
LAYER_2
 10
-14.0003
 20
211.6401
 42
-0.1860547104
  0
VERTEX
  8
LAYER_2
 10
-14.1915
 20
211.5736
 42
-0.2912351062
  0
VERTEX
  8
LAYER_2
 10
-14.4327
 20
211.7044
 42
-0.1074256356
  0
VERTEX
  8
LAYER_2
 10
-14.4882
 20
212.0229
 42
-0.2074793493
  0
VERTEX
  8
LAYER_2
 10
-14.3843
 20
212.406
 42
-0.1847812498
  0
VERTEX
  8
LAYER_2
 10
-14.1915
 20
212.4725
 42
-0.2924886932
  0
VERTEX
  8
LAYER_2
 10
-13.9523
 20
212.3416
 42
-0.1065173685
  0
VERTEX
  8
LAYER_2
 10
-13.8973
 20
212.0229
  0
SEQEND
  0
POLYLINE
  8
LAYER_2
 40
0.05
 41
0.05
 66
1
 10
0
 20
0
 30
0
 70
1
  0
VERTEX
  8
LAYER_2
 10
-13.7247
 20
211.4352
  0
VERTEX
  8
LAYER_2
 10
-13.7247
 20
213.137
  0
VERTEX
  8
LAYER_2
 10
-13.8973
 20
213.137
  0
VERTEX
  8
LAYER_2
 10
-13.8973
 20
212.4749
 42
0.2526586678
  0
VERTEX
  8
LAYER_2
 10
-14.2298
 20
212.6258
 42
0.19617536
  0
VERTEX
  8
LAYER_2
 10
-14.5171
 20
212.5224
 42
0.2062736322
  0
VERTEX
  8
LAYER_2
 10
-14.6608
 20
212.0229
 42
0.1925049638
  0
VERTEX
  8
LAYER_2
 10
-14.5171
 20
211.5234
 42
0.1893263809
  0
VERTEX
  8
LAYER_2
 10
-14.2298
 20
211.4207
 42
0.2549957718
  0
VERTEX
  8
LAYER_2
 10
-13.8949
 20
211.5761
  0
VERTEX
  8
LAYER_2
 10
-13.8949
 20
211.4352
  0
SEQEND
  0
POLYLINE
  8
LAYER_2
 40
0.05
 41
0.05
 66
1
 10
0
 20
0
 30
0
 70
1
  0
VERTEX
  8
LAYER_2
 10
-15.0173
 20
211.4352
  0
VERTEX
  8
LAYER_2
 10
-15.0173
 20
212.1882
 42
0.2089360908
  0
VERTEX
  8
LAYER_2
 10
-15.1393
 20
212.5156
 42
0.1977212202
  0
VERTEX
  8
LAYER_2
 10
-15.4411
 20
212.6258
 42
0.2189458741
  0
VERTEX
  8
LAYER_2
 10
-15.7711
 20
212.4818
  0
VERTEX
  8
LAYER_2
 10
-15.7711
 20
212.6113
  0
VERTEX
  8
LAYER_2
 10
-15.9434
 20
212.6113
  0
VERTEX
  8
LAYER_2
 10
-15.9434
 20
211.4352
  0
VERTEX
  8
LAYER_2
 10
-15.7711
 20
211.4352
  0
VERTEX
  8
LAYER_2
 10
-15.7711
 20
212.1593
 42
-0.4284576329
  0
VERTEX
  8
LAYER_2
 10
-15.479
 20
212.4725
 42
-0.4466039224
  0
VERTEX
  8
LAYER_2
 10
-15.1896
 20
212.1593
  0
VERTEX
  8
LAYER_2
 10
-15.1896
 20
211.4352
  0
SEQEND
  0
POLYLINE
  8
LAYER_2
 40
0.05
 41
0.05
 66
1
 10
0
 20
0
 30
0
 70
1
  0
VERTEX
  8
LAYER_2
 10
-16.5346
 20
211.8506
 42
-0.2283736068
  0
VERTEX
  8
LAYER_2
 10
-16.5945
 20
211.6477
 42
-0.1936527339
  0
VERTEX
  8
LAYER_2
 10
-16.8553
 20
211.5688
 42
-0.4421173513
  0
VERTEX
  8
LAYER_2
 10
-17.1281
 20
211.77
 42
-0.3470924647
  0
VERTEX
  8
LAYER_2
 10
-16.9968
 20
211.9592
 42
-0.1261120874
  0
VERTEX
  8
LAYER_2
 10
-16.8625
 20
211.9774
  0
VERTEX
  8
LAYER_2
 10
-16.5346
 20
211.9774
  0
SEQEND
  0
POLYLINE
  8
LAYER_2
 40
0.05
 41
0.05
 66
1
 10
0
 20
0
 30
0
 70
1
  0
VERTEX
  8
LAYER_2
 10
-16.362
 20
211.4352
  0
VERTEX
  8
LAYER_2
 10
-16.362
 20
212.233
 42
0.2383829599
  0
VERTEX
  8
LAYER_2
 10
-16.4898
 20
212.5337
 42
0.1599209503
  0
VERTEX
  8
LAYER_2
 10
-16.8336
 20
212.6258
 42
0.2578644009
  0
VERTEX
  8
LAYER_2
 10
-17.2501
 20
212.4487
  0
VERTEX
  8
LAYER_2
 10
-17.133
 20
212.3409
 42
-0.2730960706
  0
VERTEX
  8
LAYER_2
 10
-16.8364
 20
212.4776
 42
-0.4521672334
  0
VERTEX
  8
LAYER_2
 10
-16.5346
 20
212.2193
  0
VERTEX
  8
LAYER_2
 10
-16.5346
 20
212.1066
  0
VERTEX
  8
LAYER_2
 10
-16.8863
 20
212.1066
 42
0.2189203862
  0
VERTEX
  8
LAYER_2
 10
-17.2226
 20
211.9822
 42
0.17494127
  0
VERTEX
  8
LAYER_2
 10
-17.2956
 20
211.7673
 42
0.2075768001
  0
VERTEX
  8
LAYER_2
 10
-17.2071
 20
211.5282
 42
0.2128603639
  0
VERTEX
  8
LAYER_2
 10
-16.8742
 20
211.4207
 42
0.2247839487
  0
VERTEX
  8
LAYER_2
 10
-16.5346
 20
211.5471
  0
VERTEX
  8
LAYER_2
 10
-16.5346
 20
211.4352
  0
SEQEND
  0
POLYLINE
  8
LAYER_2
 40
0.05
 41
0.05
 66
1
 10
0
 20
0
 30
0
 70
1
  0
VERTEX
  8
LAYER_2
 10
-17.6211
 20
211.4352
  0
VERTEX
  8
LAYER_2
 10
-17.6211
 20
212.1903
 42
0.4657729105
  0
VERTEX
  8
LAYER_2
 10
-18.0449
 20
212.6258
 42
0.2190712165
  0
VERTEX
  8
LAYER_2
 10
-18.3749
 20
212.4818
  0
VERTEX
  8
LAYER_2
 10
-18.3749
 20
213.137
  0
VERTEX
  8
LAYER_2
 10
-18.5475
 20
213.137
  0
VERTEX
  8
LAYER_2
 10
-18.5475
 20
211.4352
  0
VERTEX
  8
LAYER_2
 10
-18.3749
 20
211.4352
  0
VERTEX
  8
LAYER_2
 10
-18.3749
 20
212.1617
 42
-0.4350388577
  0
VERTEX
  8
LAYER_2
 10
-18.0807
 20
212.4725
 42
-0.4517618327
  0
VERTEX
  8
LAYER_2
 10
-17.7934
 20
212.1617
  0
VERTEX
  8
LAYER_2
 10
-17.7934
 20
211.4352
  0
SEQEND
  0
ENDBLK
  0
BLOCK
  8
LAYER_2
  2
AIGNBL02020007
 70
64
 10
0
 20
0
 30
0
  3
AIGNBL02020007
  0
INSERT
  8
LAYER_2
  2
AIGNBL02030008
 10
0
 20
0
 30
0
  0
ENDBLK
  0
BLOCK
  8
LAYER_2
  2
AIGNBL02020010
 70
64
 10
0
 20
0
 30
0
  3
AIGNBL02020010
  0
INSERT
  8
LAYER_2
  2
AIGNBL02030011
 10
0
 20
0
 30
0
  0
INSERT
  8
LAYER_2
  2
AIGNBL02030012
 10
0
 20
0
 30
0
  0
INSERT
  8
LAYER_2
  2
AIGNBL02030013
 10
0
 20
0
 30
0
  0
INSERT
  8
LAYER_2
  2
AIGNBL02030014
 10
0
 20
0
 30
0
  0
INSERT
  8
LAYER_2
  2
AIGNBL02030015
 10
0
 20
0
 30
0
  0
INSERT
  8
LAYER_2
  2
AIGNBL02030016
 10
0
 20
0
 30
0
  0
INSERT
  8
LAYER_2
  2
AIGNBL02030017
 10
0
 20
0
 30
0
  0
INSERT
  8
LAYER_2
  2
AIGNBL02030018
 10
0
 20
0
 30
0
  0
INSERT
  8
LAYER_2
  2
AIGNBL02030019
 10
0
 20
0
 30
0
  0
INSERT
  8
LAYER_2
  2
AIGNBL0203001A
 10
0
 20
0
 30
0
  0
INSERT
  8
LAYER_2
  2
AIGNBL0203001B
 10
0
 20
0
 30
0
  0
INSERT
  8
LAYER_2
  2
AIGNBL0203001C
 10
0
 20
0
 30
0
  0
INSERT
  8
LAYER_2
  2
AIGNBL0203001D
 10
0
 20
0
 30
0
  0
INSERT
  8
LAYER_2
  2
AIGNBL0203001E
 10
0
 20
0
 30
0
  0
INSERT
  8
LAYER_2
  2
AIGNBL0203001F
 10
0
 20
0
 30
0
  0
INSERT
  8
LAYER_2
  2
AIGNBL02030020
 10
0
 20
0
 30
0
  0
INSERT
  8
LAYER_2
  2
AIGNBL02030021
 10
0
 20
0
 30
0
  0
INSERT
  8
LAYER_2
  2
AIGNBL02030022
 10
0
 20
0
 30
0
  0
INSERT
  8
LAYER_2
  2
AIGNBL02030023
 10
0
 20
0
 30
0
  0
INSERT
  8
LAYER_2
  2
AIGNBL02030024
 10
0
 20
0
 30
0
  0
INSERT
  8
LAYER_2
  2
AIGNBL02030025
 10
0
 20
0
 30
0
  0
INSERT
  8
LAYER_2
  2
AIGNBL02030026
 10
0
 20
0
 30
0
  0
INSERT
  8
LAYER_2
  2
AIGNBL02030027
 10
0
 20
0
 30
0
  0
ENDBLK
  0
BLOCK
  8
LAYER_2
  2
AIGNBL02010002
 70
64
 10
0
 20
0
 30
0
  3
AIGNBL02010002
  0
POLYLINE
  8
LAYER_2
 40
0.7056
 41
0.7056
 66
1
 10
0
 20
0
 30
0
 70
1
  0
VERTEX
  8
LAYER_2
 10
251.6749
 20
230.337
  0
VERTEX
  8
LAYER_2
 10
251.6749
 20
33.3285
  0
VERTEX
  8
LAYER_2
 10
-30.3177
 20
33.3285
  0
VERTEX
  8
LAYER_2
 10
-30.3177
 20
230.337
  0
SEQEND
  0
ENDBLK
  0
BLOCK
  8
LAYER_2
  2
AIGNBL02010003
 70
64
 10
0
 20
0
 30
0
  3
AIGNBL02010003
  0
INSERT
  8
LAYER_2
  2
AIGNBL02020004
 10
0
 20
0
 30
0
  0
POLYLINE
  8
LAYER_2
 40
0.05
 41
0.05
 66
1
 10
0
 20
0
 30
0
  0
VERTEX
  8
LAYER_2
 10
-6.457
 20
223.2684
  0
VERTEX
  8
LAYER_2
 10
-8.0924
 20
223.2684
  0
VERTEX
  8
LAYER_2
 10
-8.0924
 20
216.1939
 42
0.09304299953
  0
VERTEX
  8
LAYER_2
 10
-7.9518
 20
215.4241
 42
0.2872011141
  0
VERTEX
  8
LAYER_2
 10
-6.4597
 20
214.3359
  0
VERTEX
  8
LAYER_2
 10
-6.457
 20
223.2684
  0
SEQEND
  0
INSERT
  8
LAYER_2
  2
AIGNBL02020005
 10
0
 20
0
 30
0
  0
ENDBLK
  0
BLOCK
  8
LAYER_2
  2
AIGNBL02010006
 70
64
 10
0
 20
0
 30
0
  3
AIGNBL02010006
  0
INSERT
  8
LAYER_2
  2
AIGNBL02020007
 10
0
 20
0
 30
0
  0
INSERT
  8
LAYER_2
  2
AIGNBL02020010
 10
0
 20
0
 30
0
  0
ENDBLK
  0
BLOCK
  8
LAYER_2
  2
AIGNBL02010028
 70
64
 10
0
 20
0
 30
0
  3
AIGNBL02010028
  0
POLYLINE
  8
LAYER_2
 40
0.1058
 41
0.1058
 66
1
 10
0
 20
0
 30
0
  0
VERTEX
  8
LAYER_2
 10
204.1306
 20
184.9722
  0
VERTEX
  8
LAYER_2
 10
207.2985
 20
184.9722
  0
SEQEND
  0
POLYLINE
  8
LAYER_2
 40
0.1058
 41
0.1058
 66
1
 10
0
 20
0
 30
0
  0
VERTEX
  8
LAYER_2
 10
200.1193
 20
136.5582
  0
VERTEX
  8
LAYER_2
 10
207.2987
 20
136.5582
  0
SEQEND
  0
POLYLINE
  8
LAYER_2
 40
0.1058
 41
0.1058
 66
1
 10
0
 20
0
 30
0
  0
VERTEX
  8
LAYER_2
 10
207.1761
 20
183.5159
  0
VERTEX
  8
LAYER_2
 10
207.1761
 20
163.4811
  0
SEQEND
  0
POLYLINE
  8
LAYER_2
 40
0.1058
 41
0.1058
 66
1
 10
0
 20
0
 30
0
  0
VERTEX
  8
LAYER_2
 10
207.1761
 20
137.9752
  0
VERTEX
  8
LAYER_2
 10
207.1761
 20
158.01
  0
SEQEND
  0
POLYLINE
  8
LAYER_2
 66
1
 10
0
 20
0
 30
0
 70
1
  0
VERTEX
  8
LAYER_2
 10
206.9313
 20
183.5159
  0
VERTEX
  8
LAYER_2
 10
207.4208
 20
183.5159
  0
VERTEX
  8
LAYER_2
 10
207.1761
 20
184.972
  0
SEQEND
  0
POLYLINE
  8
LAYER_2
 40
0.05
 41
0.05
 66
1
 10
0
 20
0
 30
0
 70
1
  0
VERTEX
  8
LAYER_2
 10
206.9313
 20
137.9752
  0
VERTEX
  8
LAYER_2
 10
207.4208
 20
137.9752
  0
VERTEX
  8
LAYER_2
 10
207.1761
 20
136.5583
  0
SEQEND
  0
TEXT
  8
LAYER_2
 10
208.4001
 20
157.9313
 11
208.4001
 21
157.9313
 40
3.7001
 41
0.5
 50
89.99999999
  1
485
  0
ENDBLK
  0
BLOCK
  8
LAYER_2
  2
AIGNBL02010029
 70
64
 10
0
 20
0
 30
0
  3
AIGNBL02010029
  0
POLYLINE
  8
LAYER_2
 40
0.1058
 41
0.1058
 66
1
 10
0
 20
0
 30
0
  0
VERTEX
  8
LAYER_2
 10
143.6315
 20
191.2711
  0
VERTEX
  8
LAYER_2
 10
143.6315
 20
195.6857
  0
SEQEND
  0
POLYLINE
  8
LAYER_2
 40
0.1058
 41
0.1058
 66
1
 10
0
 20
0
 30
0
  0
VERTEX
  8
LAYER_2
 10
202.523
 20
182.8417
  0
VERTEX
  8
LAYER_2
 10
202.523
 20
195.6859
  0
SEQEND
  0
POLYLINE
  8
LAYER_2
 40
0.1058
 41
0.1058
 66
1
 10
0
 20
0
 30
0
  0
VERTEX
  8
LAYER_2
 10
145.0526
 20
195.5634
  0
VERTEX
  8
LAYER_2
 10
167.3117
 20
195.5634
  0
SEQEND
  0
POLYLINE
  8
LAYER_2
 40
0.1058
 41
0.1058
 66
1
 10
0
 20
0
 30
0
  0
VERTEX
  8
LAYER_2
 10
201.1403
 20
195.5634
  0
VERTEX
  8
LAYER_2
 10
175.7473
 20
195.5634
  0
SEQEND
  0
POLYLINE
  8
LAYER_2
 40
0.05
 41
0.05
 66
1
 10
0
 20
0
 30
0
 70
1
  0
VERTEX
  8
LAYER_2
 10
145.0526
 20
195.3185
  0
VERTEX
  8
LAYER_2
 10
145.0526
 20
195.8081
  0
VERTEX
  8
LAYER_2
 10
143.6317
 20
195.5633
  0
SEQEND
  0
POLYLINE
  8
LAYER_2
 66
1
 10
0
 20
0
 30
0
 70
1
  0
VERTEX
  8
LAYER_2
 10
201.1403
 20
195.3185
  0
VERTEX
  8
LAYER_2
 10
201.1403
 20
195.8081
  0
VERTEX
  8
LAYER_2
 10
202.523
 20
195.5633
  0
SEQEND
  0
TEXT
  8
LAYER_2
 10
168.8876
 20
194.3019
 11
168.8876
 21
194.3019
 40
3.7001
 41
0.5
  1
590
  0
ENDBLK
  0
BLOCK
  8
LAYER_2
  2
AIGNBL0201002A
 70
64
 10
0
 20
0
 30
0
  3
AIGNBL0201002A
  0
POLYLINE
  8
LAYER_2
  6
AIGENLINE001
 40
0.2646
 41
0.2646
 66
1
 10
0
 20
0
 30
0
 70
128
  0
VERTEX
  8
LAYER_2
 10
231.8767
 20
181.038
 42
0.3339884772
  0
VERTEX
  8
LAYER_2
 10
228.7972
 20
184.9537
 42
0.05726737993
  0
VERTEX
  8
LAYER_2
 10
227.8988
 20
185.0566
  0
SEQEND
  0
POLYLINE
  8
LAYER_2
  6
AIGENLINE001
 40
0.2646
 41
0.2646
 66
1
 10
0
 20
0
 30
0
 70
128
  0
VERTEX
  8
LAYER_2
 10
231.8767
 20
181.0176
  0
VERTEX
  8
LAYER_2
 10
231.8767
 20
140.832
  0
SEQEND
  0
POLYLINE
  8
LAYER_2
  6
AIGENLINE001
 40
0.2646
 41
0.2646
 66
1
 10
0
 20
0
 30
0
 70
128
  0
VERTEX
  8
LAYER_2
 10
225.8998
 20
134.8346
 42
0.4142087221
  0
VERTEX
  8
LAYER_2
 10
231.9172
 20
140.8521
  0
SEQEND
  0
POLYLINE
  8
LAYER_2
  6
AIGENLINE001
 40
0.2646
 41
0.2646
 66
1
 10
0
 20
0
 30
0
 70
128
  0
VERTEX
  8
LAYER_2
 10
225.8794
 20
134.8346
  0
VERTEX
  8
LAYER_2
 10
147.8743
 20
134.8346
  0
SEQEND
  0
POLYLINE
  8
LAYER_2
  6
AIGENLINE001
 40
0.2646
 41
0.2646
 66
1
 10
0
 20
0
 30
0
 70
128
  0
VERTEX
  8
LAYER_2
 10
141.8769
 20
140.8523
 42
0.19892069
  0
VERTEX
  8
LAYER_2
 10
143.6397
 20
136.5969
 42
0.1989360564
  0
VERTEX
  8
LAYER_2
 10
147.8951
 20
134.8348
  0
SEQEND
  0
POLYLINE
  8
LAYER_2
  6
AIGENLINE001
 40
0.2646
 41
0.2646
 66
1
 10
0
 20
0
 30
0
 70
128
  0
VERTEX
  8
LAYER_2
 10
141.8769
 20
140.8319
  0
VERTEX
  8
LAYER_2
 10
141.8769
 20
181.0176
  0
SEQEND
  0
POLYLINE
  8
LAYER_2
  6
AIGENLINE001
 40
0.2646
 41
0.2646
 66
1
 10
0
 20
0
 30
0
 70
128
  0
VERTEX
  8
LAYER_2
 10
145.8954
 20
185.0566
 42
0.4142464468
  0
VERTEX
  8
LAYER_2
 10
141.8769
 20
181.038
  0
SEQEND
  0
POLYLINE
  8
LAYER_2
  6
AIGENLINE001
 40
0.2646
 41
0.2646
 66
1
 10
0
 20
0
 30
0
 70
128
  0
VERTEX
  8
LAYER_2
 10
145.875
 20
185.0158
  0
VERTEX
  8
LAYER_2
 10
227.8783
 20
185.0158
  0
SEQEND
  0
ENDBLK
  0
ENDSEC
  0
SECTION
  2
ENTITIES
  0
POLYLINE
  8
LAYER_2
  6
AIGENLINE002
 40
0.0882
 41
0.0882
 62
1
 66
1
 10
0
 20
0
 30
0
 70
129
  0
VERTEX
  8
LAYER_2
 10
72.5962
 20
136.2797
  0
VERTEX
  8
LAYER_2
 10
24.4402
 20
136.2797
 42
-0.4142154264
  0
VERTEX
  8
LAYER_2
 10
20.1435
 20
140.5764
  0
VERTEX
  8
LAYER_2
 10
20.1435
 20
179.2816
 42
-0.4142143841
  0
VERTEX
  8
LAYER_2
 10
25.4621
 20
184.6001
  0
VERTEX
  8
LAYER_2
 10
72.4516
 20
184.6001
 42
-0.4142177937
  0
VERTEX
  8
LAYER_2
 10
78.3252
 20
178.7265
  0
VERTEX
  8
LAYER_2
 10
78.3252
 20
142.0087
 42
-0.1228421287
  0
VERTEX
  8
LAYER_2
 10
77.7456
 20
139.7249
 42
-0.05294722266
  0
VERTEX
  8
LAYER_2
 10
77.0309
 20
138.6562
 42
-0.1005969743
  0
VERTEX
  8
LAYER_2
 10
74.8408
 20
136.9056
 42
-0.0541049804
  0
VERTEX
  8
LAYER_2
 10
73.6144
 20
136.4316
 42
-0.05729869844
  0
SEQEND
  0
TEXT
  8
LAYER_2
 10
-26.2556
 20
43.1712
 11
-26.2556
 21
43.1712
 40
3.2991
 41
0.5
  1
仕様
  0
POLYLINE
  8
LAYER_2
 40
0.3528
 41
0.3528
 66
1
 10
0
 20
0
 30
0
  0
VERTEX
  8
LAYER_2
 10
250.4089
 20
51.9507
  0
VERTEX
  8
LAYER_2
 10
-29.1405
 20
51.9507
  0
SEQEND
  0
INSERT
  8
LAYER_2
  2
AIGNBL02010002
 10
0
 20
0
 30
0
  0
POLYLINE
  8
LAYER_2
 40
0.3528
 41
0.3528
 66
1
 10
0
 20
0
 30
0
  0
VERTEX
  8
LAYER_2
 10
-29.3178
 20
229.3369
  0
VERTEX
  8
LAYER_2
 10
-29.3178
 20
34.3283
  0
VERTEX
  8
LAYER_2
 10
250.6748
 20
34.3283
  0
VERTEX
  8
LAYER_2
 10
250.6748
 20
229.3369
  0
VERTEX
  8
LAYER_2
 10
-29.3178
 20
229.3369
  0
SEQEND
  0
POLYLINE
  8
LAYER_2
 40
0.3528
 41
0.3528
 66
1
 10
0
 20
0
 30
0
  0
VERTEX
  8
LAYER_2
 10
250.4089
 20
60.4597
  0
VERTEX
  8
LAYER_2
 10
-29.1405
 20
60.4597
  0
SEQEND
  0
POLYLINE
  8
LAYER_2
 40
0.3528
 41
0.3528
 66
1
 10
0
 20
0
 30
0
  0
VERTEX
  8
LAYER_2
 10
250.6748
 20
43.4416
  0
VERTEX
  8
LAYER_2
 10
102.0225
 20
43.4416
  0
SEQEND
  0
TEXT
  8
LAYER_2
 10
182.8808
 20
49.4743
 11
182.8808
 21
49.4743
 40
2.1994
 41
0.5
  1
縮尺
  0
POLYLINE
  8
LAYER_2
 40
0.3528
 41
0.3528
 66
1
 10
0
 20
0
 30
0
  0
VERTEX
  8
LAYER_2
 10
181.3526
 20
43.4416
  0
VERTEX
  8
LAYER_2
 10
181.3526
 20
51.9507
  0
SEQEND
  0
TEXT
  8
LAYER_2
 10
102.7211
 20
57.9834
 11
102.7211
 21
57.9834
 40
2.1994
 41
0.5
  1
品番
  0
TEXT
  8
LAYER_2
 10
-28.1609
 20
57.9834
 11
-28.1609
 21
57.9834
 40
2.1994
 41
0.5
  1
品名
  0
TEXT
  8
LAYER_2
 10
102.7211
 20
49.4743
 11
102.7211
 21
49.4743
 40
2.1994
 41
0.5
  1
重量
  0
TEXT
  8
LAYER_2
 10
105.6444
 20
54.1714
 11
105.6444
 21
54.1714
 40
4.6883
 41
0.5
  1
CIE-SWLA/
  0
TEXT
  8
LAYER_2
 10
109.4985
 20
45.7175
 11
109.4985
 21
45.7175
 40
3.7609
 41
0.5
  1
32kg
  0
POLYLINE
  8
LAYER_2
 40
0.3528
 41
0.3528
 66
1
 10
0
 20
0
 30
0
  0
VERTEX
  8
LAYER_2
 10
102.0225
 20
34.7539
  0
VERTEX
  8
LAYER_2
 10
102.0225
 20
60.4597
  0
SEQEND
  0
TEXT
  8
LAYER_2
 10
-15.3472
 20
54.891
 11
-15.3472
 21
54.891
 40
4.1459
 41
0.5
  1
シーワ洗面ボウル900mm
  0
INSERT
  8
LAYER_2
  2
AIGNBL02010003
 10
0
 20
0
 30
0
  0
TEXT
  8
LAYER_2
 10
-15.6835
 20
45.3736
 11
-15.6835
 21
45.3736
 40
3.5536
 41
0.5
  1
●サイズ：W900×D500×H830mm●オーバーフローなし
  0
TEXT
  8
LAYER_2
 10
-15.6835
 20
40.6235
 11
-15.6835
 21
40.6235
 40
3.5536
 41
0.5
  1
●水栓取付穴：1穴●排水金具別途
  0
TEXT
  8
LAYER_2
 10
237.263
 20
63.2582
 11
237.263
 21
63.2582
 40
2.9614
 41
0.5
  1
単位：mm
  0
TEXT
  8
LAYER_2
 10
135.6768
 20
39.5359
 11
135.6768
 21
39.5359
 40
3.3848
 41
0.5
  1
●TEL 0120-65-1232●FAX 06-6532-1580
  0
TEXT
  8
LAYER_2
 10
135.6768
 20
36.0212
 11
135.6768
 21
36.0212
 40
3.3848
 41
0.5
  1
hits@hiratatile.co.jp
  0
TEXT
  8
LAYER_2
 10
240.3591
 20
225.8432
 11
240.3591
 21
225.8432
 40
2.073
 41
0.5
  1
221014RT
  0
INSERT
  8
LAYER_2
  2
AIGNBL02010006
 10
0
 20
0
 30
0
  0
TEXT
  8
LAYER_2
 10
39.3485
 20
177.8543
 11
39.3485
 21
177.8543
 40
3.1616
 41
0.5
  1
ｯ35
  0
POLYLINE
  8
LAYER_2
 40
0.2646
 41
0.2646
 66
1
 10
0
 20
0
 30
0
  0
VERTEX
  8
LAYER_2
 10
108.3373
 20
180.821
 42
0.3339827552
  0
VERTEX
  8
LAYER_2
 10
105.2579
 20
184.7367
 42
0.05726797732
  0
VERTEX
  8
LAYER_2
 10
104.3595
 20
184.8396
  0
SEQEND
  0
POLYLINE
  8
LAYER_2
 40
0.2646
 41
0.2646
 66
1
 10
0
 20
0
 30
0
  0
VERTEX
  8
LAYER_2
 10
108.3373
 20
180.8006
  0
VERTEX
  8
LAYER_2
 10
108.3373
 20
140.6149
  0
SEQEND
  0
POLYLINE
  8
LAYER_2
 40
0.2646
 41
0.2646
 66
1
 10
0
 20
0
 30
0
  0
VERTEX
  8
LAYER_2
 10
102.3604
 20
134.6176
 42
0.4142113323
  0
VERTEX
  8
LAYER_2
 10
108.3779
 20
140.6351
  0
SEQEND
  0
POLYLINE
  8
LAYER_2
 40
0.2646
 41
0.2646
 66
1
 10
0
 20
0
 30
0
  0
VERTEX
  8
LAYER_2
 10
102.34
 20
134.6176
  0
VERTEX
  8
LAYER_2
 10
24.3349
 20
134.6176
  0
SEQEND
  0
POLYLINE
  8
LAYER_2
 40
0.2646
 41
0.2646
 66
1
 10
0
 20
0
 30
0
  0
VERTEX
  8
LAYER_2
 10
18.3375
 20
140.6353
 42
0.1989238967
  0
VERTEX
  8
LAYER_2
 10
20.1003
 20
136.3798
 42
0.1989357047
  0
VERTEX
  8
LAYER_2
 10
24.3558
 20
134.6178
  0
SEQEND
  0
POLYLINE
  8
LAYER_2
 40
0.2646
 41
0.2646
 66
1
 10
0
 20
0
 30
0
  0
VERTEX
  8
LAYER_2
 10
18.3375
 20
140.6149
  0
VERTEX
  8
LAYER_2
 10
18.3375
 20
180.8005
  0
SEQEND
  0
POLYLINE
  8
LAYER_2
 40
0.2646
 41
0.2646
 66
1
 10
0
 20
0
 30
0
  0
VERTEX
  8
LAYER_2
 10
22.3561
 20
184.8396
 42
0.4142489418
  0
VERTEX
  8
LAYER_2
 10
18.3375
 20
180.821
  0
SEQEND
  0
POLYLINE
  8
LAYER_2
 40
0.2646
 41
0.2646
 66
1
 10
0
 20
0
 30
0
  0
VERTEX
  8
LAYER_2
 10
18.3375
 20
159.545
  0
VERTEX
  8
LAYER_2
 10
19.8468
 20
159.545
  0
VERTEX
  8
LAYER_2
 10
19.8468
 20
180.5966
  0
SEQEND
  0
POLYLINE
  8
LAYER_2
 40
0.2646
 41
0.2646
 66
1
 10
0
 20
0
 30
0
  0
VERTEX
  8
LAYER_2
 10
22.3561
 20
183.1261
 42
0.1990316799
  0
VERTEX
  8
LAYER_2
 10
20.582
 20
182.3909
 42
0.1990173999
  0
VERTEX
  8
LAYER_2
 10
19.8468
 20
180.6169
  0
SEQEND
  0
POLYLINE
  8
LAYER_2
 40
0.2646
 41
0.2646
 66
1
 10
0
 20
0
 30
0
  0
VERTEX
  8
LAYER_2
 10
22.3356
 20
183.0853
  0
VERTEX
  8
LAYER_2
 10
104.3389
 20
183.0853
  0
VERTEX
  8
LAYER_2
 10
24.3345
 20
183.0853
  0
SEQEND
  0
POLYLINE
  8
LAYER_2
 40
0.2646
 41
0.2646
 66
1
 10
0
 20
0
 30
0
  0
VERTEX
  8
LAYER_2
 10
106.8277
 20
180.5966
  0
VERTEX
  8
LAYER_2
 10
106.8277
 20
159.545
  0
VERTEX
  8
LAYER_2
 10
106.8277
 20
180.5966
  0
SEQEND
  0
POLYLINE
  8
LAYER_2
 40
0.2646
 41
0.2646
 66
1
 10
0
 20
0
 30
0
  0
VERTEX
  8
LAYER_2
 10
106.8685
 20
180.6168
 42
0.1987913678
  0
VERTEX
  8
LAYER_2
 10
106.1338
 20
182.3913
 42
0.1989132385
  0
VERTEX
  8
LAYER_2
 10
104.3593
 20
183.126
  0
SEQEND
  0
POLYLINE
  8
LAYER_2
 40
0.2646
 41
0.2646
 66
1
 10
0
 20
0
 30
0
  0
VERTEX
  8
LAYER_2
 10
106.8685
 20
180.6171
 42
0.4140990692
  0
VERTEX
  8
LAYER_2
 10
104.3597
 20
183.1263
  0
SEQEND
  0
POLYLINE
  8
LAYER_2
 40
0.2646
 41
0.2646
 66
1
 10
0
 20
0
 30
0
  0
VERTEX
  8
LAYER_2
 10
71.3337
 20
138.6158
  0
VERTEX
  8
LAYER_2
 10
25.3546
 20
138.6158
  0
SEQEND
  0
POLYLINE
  8
LAYER_2
 40
0.2646
 41
0.2646
 66
1
 10
0
 20
0
 30
0
  0
VERTEX
  8
LAYER_2
 10
23.3556
 20
140.6351
 42
0.4142516927
  0
VERTEX
  8
LAYER_2
 10
25.3753
 20
138.6158
  0
SEQEND
  0
POLYLINE
  8
LAYER_2
 40
0.2646
 41
0.2646
 66
1
 10
0
 20
0
 30
0
  0
VERTEX
  8
LAYER_2
 10
23.3556
 20
140.6149
  0
VERTEX
  8
LAYER_2
 10
23.3556
 20
170.0709
  0
SEQEND
  0
POLYLINE
  8
LAYER_2
 40
0.2646
 41
0.2646
 66
1
 10
0
 20
0
 30
0
  0
VERTEX
  8
LAYER_2
 10
27.8637
 20
174.5994
 42
0.4141972269
  0
VERTEX
  8
LAYER_2
 10
23.3556
 20
170.0913
  0
SEQEND
  0
POLYLINE
  8
LAYER_2
 40
0.2646
 41
0.2646
 66
1
 10
0
 20
0
 30
0
  0
VERTEX
  8
LAYER_2
 10
27.8433
 20
174.5994
  0
VERTEX
  8
LAYER_2
 10
68.8452
 20
174.5994
  0
SEQEND
  0
POLYLINE
  8
LAYER_2
 40
0.2646
 41
0.2646
 66
1
 10
0
 20
0
 30
0
  0
VERTEX
  8
LAYER_2
 10
73.3736
 20
170.0912
 42
0.414202158
  0
VERTEX
  8
LAYER_2
 10
68.8655
 20
174.5993
  0
SEQEND
  0
POLYLINE
  8
LAYER_2
 40
0.2646
 41
0.2646
 66
1
 10
0
 20
0
 30
0
  0
VERTEX
  8
LAYER_2
 10
73.3328
 20
170.0708
  0
VERTEX
  8
LAYER_2
 10
73.3328
 20
140.6148
  0
SEQEND
  0
POLYLINE
  8
LAYER_2
 40
0.2646
 41
0.2646
 66
1
 10
0
 20
0
 30
0
  0
VERTEX
  8
LAYER_2
 10
71.3541
 20
138.6158
 42
0.2942387017
  0
VERTEX
  8
LAYER_2
 10
73.1677
 20
139.8267
 42
0.1014225573
  0
VERTEX
  8
LAYER_2
 10
73.3327
 20
140.6354
  0
SEQEND
  0
POLYLINE
  8
LAYER_2
 40
0.2646
 41
0.2646
 66
1
 10
0
 20
0
 30
0
  0
VERTEX
  8
LAYER_2
 10
66.234
 20
138.6158
  0
SEQEND
  0
POLYLINE
  8
LAYER_2
 40
0.2046
 41
0.2046
 66
1
 10
0
 20
0
 30
0
  0
VERTEX
  8
LAYER_2
 10
19.847
 20
159.545
  0
SEQEND
  0
POLYLINE
  8
LAYER_2
 40
0.2046
 41
0.2046
 66
1
 10
0
 20
0
 30
0
  0
VERTEX
  8
LAYER_2
 10
18.3375
 20
159.545
  0
SEQEND
  0
POLYLINE
  8
LAYER_2
 40
0.2046
 41
0.2046
 66
1
 10
0
 20
0
 30
0
  0
VERTEX
  8
LAYER_2
 10
23.886
 20
139.2277
  0
SEQEND
  0
POLYLINE
  8
LAYER_2
 40
0.2046
 41
0.2046
 66
1
 10
0
 20
0
 30
0
  0
VERTEX
  8
LAYER_2
 10
18.3375
 20
180.8006
  0
SEQEND
  0
POLYLINE
  8
LAYER_2
 40
0.2046
 41
0.2046
 66
1
 10
0
 20
0
 30
0
  0
VERTEX
  8
LAYER_2
 10
108.3373
 20
180.8006
  0
SEQEND
  0
POLYLINE
  8
LAYER_2
 40
0.2646
 41
0.2646
 66
1
 10
0
 20
0
 30
0
  0
VERTEX
  8
LAYER_2
 10
51.8732
 20
159.1166
 42
0.4142258434
  0
VERTEX
  8
LAYER_2
 10
48.3849
 20
162.6049
 42
0.4142265889
  0
VERTEX
  8
LAYER_2
 10
44.8966
 20
159.1166
 42
0.4142214932
  0
VERTEX
  8
LAYER_2
 10
48.3849
 20
155.6283
 42
0.4142207478
  0
VERTEX
  8
LAYER_2
 10
51.8732
 20
159.1166
  0
SEQEND
  0
POLYLINE
  8
LAYER_2
 40
0.2646
 41
0.2646
 66
1
 10
0
 20
0
 30
0
  0
VERTEX
  8
LAYER_2
 10
50.6901
 20
159.1166
 42
0.4142127901
  0
VERTEX
  8
LAYER_2
 10
48.3849
 20
161.4218
 42
0.4141468645
  0
VERTEX
  8
LAYER_2
 10
46.0797
 20
159.1166
 42
0.4141391546
  0
VERTEX
  8
LAYER_2
 10
48.3849
 20
156.8115
 42
0.4142050795
  0
VERTEX
  8
LAYER_2
 10
50.6901
 20
159.1166
  0
SEQEND
  0
POLYLINE
  8
LAYER_2
 40
0.0882
 41
0.0882
 66
1
 10
0
 20
0
 30
0
  0
VERTEX
  8
LAYER_2
 10
43.8769
 20
161.9521
  0
VERTEX
  8
LAYER_2
 10
45.1414
 20
161.1363
  0
SEQEND
  0
POLYLINE
  8
LAYER_2
 40
0.0882
 41
0.0882
 66
1
 10
0
 20
0
 30
0
  0
VERTEX
  8
LAYER_2
 10
51.5468
 20
157.0563
  0
VERTEX
  8
LAYER_2
 10
52.8114
 20
156.2405
  0
SEQEND
  0
TEXT
  8
LAYER_2
 10
36.9188
 20
164.9185
 11
36.9188
 21
164.9185
 40
3.7002
 41
0.5
 50
327.3376549
  1
 ｯ45
  0
POLYLINE
  8
LAYER_2
 40
0.0882
 41
0.0882
 66
1
 10
0
 20
0
 30
0
  0
VERTEX
  8
LAYER_2
 10
50.2821
 20
157.8723
  0
VERTEX
  8
LAYER_2
 10
46.4065
 20
160.32
  0
SEQEND
  0
POLYLINE
  8
LAYER_2
 40
0.05
 41
0.05
 66
1
 10
0
 20
0
 30
0
 70
1
  0
VERTEX
  8
LAYER_2
 10
51.6692
 20
157.2603
  0
VERTEX
  8
LAYER_2
 10
51.4245
 20
156.8522
  0
VERTEX
  8
LAYER_2
 10
50.2821
 20
157.8725
  0
SEQEND
  0
POLYLINE
  8
LAYER_2
 66
1
 10
0
 20
0
 30
0
 70
1
  0
VERTEX
  8
LAYER_2
 10
51.6692
 20
157.2603
  0
VERTEX
  8
LAYER_2
 10
51.4245
 20
156.8522
  0
VERTEX
  8
LAYER_2
 10
50.2821
 20
157.8725
  0
SEQEND
  0
POLYLINE
  8
LAYER_2
 40
0.05
 41
0.05
 66
1
 10
0
 20
0
 30
0
 70
1
  0
VERTEX
  8
LAYER_2
 10
45.264
 20
161.3401
  0
VERTEX
  8
LAYER_2
 10
45.0192
 20
160.932
  0
VERTEX
  8
LAYER_2
 10
46.4064
 20
160.3203
  0
SEQEND
  0
POLYLINE
  8
LAYER_2
 66
1
 10
0
 20
0
 30
0
 70
1
  0
VERTEX
  8
LAYER_2
 10
45.264
 20
161.3401
  0
VERTEX
  8
LAYER_2
 10
45.0192
 20
160.932
  0
VERTEX
  8
LAYER_2
 10
46.4064
 20
160.3203
  0
SEQEND
  0
POLYLINE
  8
LAYER_2
 40
0.1729
 41
0.1729
 66
1
 10
0
 20
0
 30
0
  0
VERTEX
  8
LAYER_2
 10
50.1189
 20
178.8627
 42
0.414199746
  0
VERTEX
  8
LAYER_2
 10
48.3851
 20
180.5965
 42
0.4142257788
  0
VERTEX
  8
LAYER_2
 10
46.651
 20
178.8627
 42
0.4142185903
  0
VERTEX
  8
LAYER_2
 10
48.3851
 20
177.129
 42
0.414192556
  0
VERTEX
  8
LAYER_2
 10
50.1189
 20
178.8627
  0
SEQEND
  0
POLYLINE
  8
LAYER_2
 40
0.0882
 41
0.0882
 66
1
 10
0
 20
0
 30
0
  0
VERTEX
  8
LAYER_2
 10
30.4544
 20
183.0853
  0
VERTEX
  8
LAYER_2
 10
33.0247
 20
183.0853
  0
SEQEND
  0
POLYLINE
  8
LAYER_2
 40
0.0882
 41
0.0882
 66
1
 10
0
 20
0
 30
0
  0
VERTEX
  8
LAYER_2
 10
30.4544
 20
184.7988
  0
VERTEX
  8
LAYER_2
 10
33.0247
 20
184.7988
  0
SEQEND
  0
POLYLINE
  8
LAYER_2
 40
0.0882
 41
0.0882
 66
1
 10
0
 20
0
 30
0
  0
VERTEX
  8
LAYER_2
 10
32.9023
 20
181.5758
  0
VERTEX
  8
LAYER_2
 10
32.9023
 20
180.0664
  0
SEQEND
  0
POLYLINE
  8
LAYER_2
 40
0.0882
 41
0.0882
 66
1
 10
0
 20
0
 30
0
  0
VERTEX
  8
LAYER_2
 10
32.9023
 20
186.2675
  0
VERTEX
  8
LAYER_2
 10
32.9023
 20
187.7769
  0
SEQEND
  0
POLYLINE
  8
LAYER_2
 40
0.0882
 41
0.0882
 66
1
 10
0
 20
0
 30
0
  0
VERTEX
  8
LAYER_2
 10
32.9023
 20
183.0853
  0
VERTEX
  8
LAYER_2
 10
32.9023
 20
184.7987
  0
SEQEND
  0
POLYLINE
  8
LAYER_2
 40
0.05
 41
0.05
 66
1
 10
0
 20
0
 30
0
 70
1
  0
VERTEX
  8
LAYER_2
 10
32.6575
 20
181.5758
  0
VERTEX
  8
LAYER_2
 10
33.147
 20
181.5758
  0
VERTEX
  8
LAYER_2
 10
32.9022
 20
183.0851
  0
SEQEND
  0
POLYLINE
  8
LAYER_2
 66
1
 10
0
 20
0
 30
0
 70
1
  0
VERTEX
  8
LAYER_2
 10
32.6575
 20
181.5758
  0
VERTEX
  8
LAYER_2
 10
33.147
 20
181.5758
  0
VERTEX
  8
LAYER_2
 10
32.9022
 20
183.0851
  0
SEQEND
  0
POLYLINE
  8
LAYER_2
 40
0.05
 41
0.05
 66
1
 10
0
 20
0
 30
0
 70
1
  0
VERTEX
  8
LAYER_2
 10
32.6575
 20
186.2675
  0
VERTEX
  8
LAYER_2
 10
33.147
 20
186.2675
  0
VERTEX
  8
LAYER_2
 10
32.9023
 20
184.7989
  0
SEQEND
  0
POLYLINE
  8
LAYER_2
 66
1
 10
0
 20
0
 30
0
 70
1
  0
VERTEX
  8
LAYER_2
 10
32.6575
 20
186.2675
  0
VERTEX
  8
LAYER_2
 10
33.147
 20
186.2675
  0
VERTEX
  8
LAYER_2
 10
32.9023
 20
184.7989
  0
SEQEND
  0
TEXT
  8
LAYER_2
 10
34.1264
 20
187.4507
 11
34.1264
 21
187.4507
 40
3.7001
 41
0.5
 50
89.99999999
  1
15
  0
POLYLINE
  8
LAYER_2
 40
0.0882
 41
0.0882
 66
1
 10
0
 20
0
 30
0
  0
VERTEX
  8
LAYER_2
 10
53.2257
 20
178.8423
  0
VERTEX
  8
LAYER_2
 10
53.3071
 20
178.8423
  0
SEQEND
  0
POLYLINE
  8
LAYER_2
 40
0.0882
 41
0.0882
 66
1
 10
0
 20
0
 30
0
  0
VERTEX
  8
LAYER_2
 10
48.4054
 20
159.0962
  0
VERTEX
  8
LAYER_2
 10
48.4869
 20
159.0962
  0
SEQEND
  0
POLYLINE
  8
LAYER_2
 40
0.0882
 41
0.0882
 66
1
 10
0
 20
0
 30
0
  0
VERTEX
  8
LAYER_2
 10
53.1849
 20
177.3328
  0
VERTEX
  8
LAYER_2
 10
53.1849
 20
171.6619
  0
SEQEND
  0
POLYLINE
  8
LAYER_2
 40
0.0882
 41
0.0882
 66
1
 10
0
 20
0
 30
0
  0
VERTEX
  8
LAYER_2
 10
53.1849
 20
160.6057
  0
VERTEX
  8
LAYER_2
 10
53.1849
 20
166.2359
  0
SEQEND
  0
POLYLINE
  8
LAYER_2
 40
0.05
 41
0.05
 66
1
 10
0
 20
0
 30
0
 70
1
  0
VERTEX
  8
LAYER_2
 10
52.8993
 20
177.3328
  0
VERTEX
  8
LAYER_2
 10
53.4295
 20
177.3328
  0
VERTEX
  8
LAYER_2
 10
53.1848
 20
178.8421
  0
SEQEND
  0
POLYLINE
  8
LAYER_2
 66
1
 10
0
 20
0
 30
0
 70
1
  0
VERTEX
  8
LAYER_2
 10
52.8993
 20
177.3328
  0
VERTEX
  8
LAYER_2
 10
53.4295
 20
177.3328
  0
VERTEX
  8
LAYER_2
 10
53.1848
 20
178.8421
  0
SEQEND
  0
POLYLINE
  8
LAYER_2
 40
0.05
 41
0.05
 66
1
 10
0
 20
0
 30
0
 70
1
  0
VERTEX
  8
LAYER_2
 10
52.8993
 20
160.6057
  0
VERTEX
  8
LAYER_2
 10
53.4295
 20
160.6057
  0
VERTEX
  8
LAYER_2
 10
53.1848
 20
159.0964
  0
SEQEND
  0
POLYLINE
  8
LAYER_2
 66
1
 10
0
 20
0
 30
0
 70
1
  0
VERTEX
  8
LAYER_2
 10
52.8993
 20
160.6057
  0
VERTEX
  8
LAYER_2
 10
53.4295
 20
160.6057
  0
VERTEX
  8
LAYER_2
 10
53.1848
 20
159.0964
  0
SEQEND
  0
TEXT
  8
LAYER_2
 10
54.409
 20
165.9503
 11
54.409
 21
165.9503
 40
3.7001
 41
0.5
 50
89.99999999
  1
195
  0
POLYLINE
  8
LAYER_2
 40
0.0882
 41
0.0882
 66
1
 10
0
 20
0
 30
0
  0
VERTEX
  8
LAYER_2
 10
19.847
 20
166.3174
  0
VERTEX
  8
LAYER_2
 10
19.847
 20
167.5413
  0
SEQEND
  0
POLYLINE
  8
LAYER_2
 40
0.0882
 41
0.0882
 66
1
 10
0
 20
0
 30
0
  0
VERTEX
  8
LAYER_2
 10
18.3375
 20
166.3174
  0
VERTEX
  8
LAYER_2
 10
18.3375
 20
167.5413
  0
SEQEND
  0
POLYLINE
  8
LAYER_2
 40
0.0882
 41
0.0882
 66
1
 10
0
 20
0
 30
0
  0
VERTEX
  8
LAYER_2
 10
21.3565
 20
167.4189
  0
VERTEX
  8
LAYER_2
 10
22.8659
 20
167.4189
  0
SEQEND
  0
POLYLINE
  8
LAYER_2
 40
0.0882
 41
0.0882
 66
1
 10
0
 20
0
 30
0
  0
VERTEX
  8
LAYER_2
 10
16.8687
 20
167.4189
  0
VERTEX
  8
LAYER_2
 10
15.3594
 20
167.4189
  0
SEQEND
  0
POLYLINE
  8
LAYER_2
 40
0.0882
 41
0.0882
 66
1
 10
0
 20
0
 30
0
  0
VERTEX
  8
LAYER_2
 10
19.847
 20
167.4189
  0
VERTEX
  8
LAYER_2
 10
18.3377
 20
167.4189
  0
SEQEND
  0
POLYLINE
  8
LAYER_2
 40
0.05
 41
0.05
 66
1
 10
0
 20
0
 30
0
 70
1
  0
VERTEX
  8
LAYER_2
 10
21.3565
 20
167.6638
  0
VERTEX
  8
LAYER_2
 10
21.3565
 20
167.1742
  0
VERTEX
  8
LAYER_2
 10
19.8472
 20
167.419
  0
SEQEND
  0
POLYLINE
  8
LAYER_2
 66
1
 10
0
 20
0
 30
0
 70
1
  0
VERTEX
  8
LAYER_2
 10
21.3565
 20
167.6638
  0
VERTEX
  8
LAYER_2
 10
21.3565
 20
167.1742
  0
VERTEX
  8
LAYER_2
 10
19.8472
 20
167.419
  0
SEQEND
  0
POLYLINE
  8
LAYER_2
 40
0.05
 41
0.05
 66
1
 10
0
 20
0
 30
0
 70
1
  0
VERTEX
  8
LAYER_2
 10
16.8687
 20
167.6638
  0
VERTEX
  8
LAYER_2
 10
16.8687
 20
167.1742
  0
VERTEX
  8
LAYER_2
 10
18.3374
 20
167.419
  0
SEQEND
  0
POLYLINE
  8
LAYER_2
 66
1
 10
0
 20
0
 30
0
 70
1
  0
VERTEX
  8
LAYER_2
 10
16.8687
 20
167.6638
  0
VERTEX
  8
LAYER_2
 10
16.8687
 20
167.1742
  0
VERTEX
  8
LAYER_2
 10
18.3374
 20
167.419
  0
SEQEND
  0
TEXT
  8
LAYER_2
 10
11.5655
 20
166.1952
 11
11.5655
 21
166.1952
 40
3.7001
 41
0.5
  1
15
  0
POLYLINE
  8
LAYER_2
 40
0.0882
 41
0.0882
 66
1
 10
0
 20
0
 30
0
  0
VERTEX
  8
LAYER_2
 10
16.7873
 20
159.545
  0
VERTEX
  8
LAYER_2
 10
13.3601
 20
159.545
  0
SEQEND
  0
POLYLINE
  8
LAYER_2
 40
0.0882
 41
0.0882
 66
1
 10
0
 20
0
 30
0
  0
VERTEX
  8
LAYER_2
 10
22.7846
 20
133.8016
  0
VERTEX
  8
LAYER_2
 10
13.3603
 20
133.8016
  0
SEQEND
  0
POLYLINE
  8
LAYER_2
 40
0.0882
 41
0.0882
 66
1
 10
0
 20
0
 30
0
  0
VERTEX
  8
LAYER_2
 10
13.4827
 20
158.0355
  0
VERTEX
  8
LAYER_2
 10
13.4827
 20
149.5088
  0
SEQEND
  0
POLYLINE
  8
LAYER_2
 40
0.0882
 41
0.0882
 66
1
 10
0
 20
0
 30
0
  0
VERTEX
  8
LAYER_2
 10
13.4827
 20
135.3111
  0
VERTEX
  8
LAYER_2
 10
13.4827
 20
143.8378
  0
SEQEND
  0
POLYLINE
  8
LAYER_2
 40
0.05
 41
0.05
 66
1
 10
0
 20
0
 30
0
 70
1
  0
VERTEX
  8
LAYER_2
 10
13.2379
 20
158.0355
  0
VERTEX
  8
LAYER_2
 10
13.7275
 20
158.0355
  0
VERTEX
  8
LAYER_2
 10
13.4827
 20
159.5448
  0
SEQEND
  0
POLYLINE
  8
LAYER_2
 66
1
 10
0
 20
0
 30
0
 70
1
  0
VERTEX
  8
LAYER_2
 10
13.2379
 20
158.0355
  0
VERTEX
  8
LAYER_2
 10
13.7275
 20
158.0355
  0
VERTEX
  8
LAYER_2
 10
13.4827
 20
159.5448
  0
SEQEND
  0
POLYLINE
  8
LAYER_2
 40
0.05
 41
0.05
 66
1
 10
0
 20
0
 30
0
 70
1
  0
VERTEX
  8
LAYER_2
 10
13.2379
 20
135.3111
  0
VERTEX
  8
LAYER_2
 10
13.7275
 20
135.3111
  0
VERTEX
  8
LAYER_2
 10
13.4827
 20
133.8018
  0
SEQEND
  0
POLYLINE
  8
LAYER_2
 66
1
 10
0
 20
0
 30
0
 70
1
  0
VERTEX
  8
LAYER_2
 10
13.2379
 20
135.3111
  0
VERTEX
  8
LAYER_2
 10
13.7275
 20
135.3111
  0
VERTEX
  8
LAYER_2
 10
13.4827
 20
133.8018
  0
SEQEND
  0
TEXT
  8
LAYER_2
 10
14.707
 20
143.7969
 11
14.707
 21
143.7969
 40
3.7001
 41
0.5
 50
89.99999999
  1
260
  0
POLYLINE
  8
LAYER_2
 40
0.0882
 41
0.0882
 66
1
 10
0
 20
0
 30
0
  0
VERTEX
  8
LAYER_2
 10
18.3375
 20
144.0011
  0
VERTEX
  8
LAYER_2
 10
18.3375
 20
141.6348
  0
SEQEND
  0
POLYLINE
  8
LAYER_2
 40
0.0882
 41
0.0882
 66
1
 10
0
 20
0
 30
0
  0
VERTEX
  8
LAYER_2
 10
23.3556
 20
144.0011
  0
VERTEX
  8
LAYER_2
 10
23.3556
 20
141.6348
  0
SEQEND
  0
POLYLINE
  8
LAYER_2
 40
0.0882
 41
0.0882
 66
1
 10
0
 20
0
 30
0
  0
VERTEX
  8
LAYER_2
 10
15.3594
 20
141.7572
  0
VERTEX
  8
LAYER_2
 10
13.85
 20
141.7572
  0
SEQEND
  0
POLYLINE
  8
LAYER_2
 40
0.0882
 41
0.0882
 66
1
 10
0
 20
0
 30
0
  0
VERTEX
  8
LAYER_2
 10
24.8651
 20
141.7572
  0
VERTEX
  8
LAYER_2
 10
26.3337
 20
141.7572
  0
SEQEND
  0
POLYLINE
  8
LAYER_2
 40
0.0882
 41
0.0882
 66
1
 10
0
 20
0
 30
0
  0
VERTEX
  8
LAYER_2
 10
18.3375
 20
141.7572
  0
VERTEX
  8
LAYER_2
 10
18.9903
 20
141.7572
  0
SEQEND
  0
POLYLINE
  8
LAYER_2
 40
0.0882
 41
0.0882
 66
1
 10
0
 20
0
 30
0
  0
VERTEX
  8
LAYER_2
 10
23.3556
 20
141.7572
  0
VERTEX
  8
LAYER_2
 10
22.7027
 20
141.7572
  0
SEQEND
  0
POLYLINE
  8
LAYER_2
 40
0.05
 41
0.05
 66
1
 10
0
 20
0
 30
0
 70
1
  0
VERTEX
  8
LAYER_2
 10
15.3594
 20
142.002
  0
VERTEX
  8
LAYER_2
 10
15.3594
 20
141.5124
  0
VERTEX
  8
LAYER_2
 10
16.828
 20
141.7572
  0
SEQEND
  0
POLYLINE
  8
LAYER_2
 66
1
 10
0
 20
0
 30
0
 70
1
  0
VERTEX
  8
LAYER_2
 10
15.3594
 20
142.002
  0
VERTEX
  8
LAYER_2
 10
15.3594
 20
141.5124
  0
VERTEX
  8
LAYER_2
 10
16.828
 20
141.7572
  0
SEQEND
  0
POLYLINE
  8
LAYER_2
 40
0.05
 41
0.05
 66
1
 10
0
 20
0
 30
0
 70
1
  0
VERTEX
  8
LAYER_2
 10
24.8651
 20
142.002
  0
VERTEX
  8
LAYER_2
 10
24.8651
 20
141.5124
  0
VERTEX
  8
LAYER_2
 10
23.3557
 20
141.7572
  0
SEQEND
  0
POLYLINE
  8
LAYER_2
 66
1
 10
0
 20
0
 30
0
 70
1
  0
VERTEX
  8
LAYER_2
 10
24.8651
 20
142.002
  0
VERTEX
  8
LAYER_2
 10
24.8651
 20
141.5124
  0
VERTEX
  8
LAYER_2
 10
23.3557
 20
141.7572
  0
SEQEND
  0
TEXT
  8
LAYER_2
 10
18.9087
 20
140.5334
 11
18.9087
 21
140.5334
 40
3.7001
 41
0.5
  1
50
  0
POLYLINE
  8
LAYER_2
 40
0.0882
 41
0.0882
 66
1
 10
0
 20
0
 30
0
  0
VERTEX
  8
LAYER_2
 10
23.3556
 20
141.798
  0
VERTEX
  8
LAYER_2
 10
23.3556
 20
141.8794
  0
SEQEND
  0
POLYLINE
  8
LAYER_2
 40
0.0882
 41
0.0882
 66
1
 10
0
 20
0
 30
0
  0
VERTEX
  8
LAYER_2
 10
73.3328
 20
141.798
  0
VERTEX
  8
LAYER_2
 10
73.3328
 20
141.8794
  0
SEQEND
  0
POLYLINE
  8
LAYER_2
 40
0.0882
 41
0.0882
 66
1
 10
0
 20
0
 30
0
  0
VERTEX
  8
LAYER_2
 10
24.8651
 20
141.7572
  0
VERTEX
  8
LAYER_2
 10
45.5086
 20
141.7572
  0
SEQEND
  0
POLYLINE
  8
LAYER_2
 40
0.0882
 41
0.0882
 66
1
 10
0
 20
0
 30
0
  0
VERTEX
  8
LAYER_2
 10
71.8233
 20
141.7572
  0
VERTEX
  8
LAYER_2
 10
51.1798
 20
141.7572
  0
SEQEND
  0
POLYLINE
  8
LAYER_2
 40
0.05
 41
0.05
 66
1
 10
0
 20
0
 30
0
 70
1
  0
VERTEX
  8
LAYER_2
 10
24.8651
 20
142.002
  0
VERTEX
  8
LAYER_2
 10
24.8651
 20
141.5124
  0
VERTEX
  8
LAYER_2
 10
23.3557
 20
141.7572
  0
SEQEND
  0
POLYLINE
  8
LAYER_2
 66
1
 10
0
 20
0
 30
0
 70
1
  0
VERTEX
  8
LAYER_2
 10
24.8651
 20
142.002
  0
VERTEX
  8
LAYER_2
 10
24.8651
 20
141.5124
  0
VERTEX
  8
LAYER_2
 10
23.3557
 20
141.7572
  0
SEQEND
  0
POLYLINE
  8
LAYER_2
 40
0.05
 41
0.05
 66
1
 10
0
 20
0
 30
0
 70
1
  0
VERTEX
  8
LAYER_2
 10
71.8233
 20
142.002
  0
VERTEX
  8
LAYER_2
 10
71.8233
 20
141.5124
  0
VERTEX
  8
LAYER_2
 10
73.3326
 20
141.7572
  0
SEQEND
  0
POLYLINE
  8
LAYER_2
 66
1
 10
0
 20
0
 30
0
 70
1
  0
VERTEX
  8
LAYER_2
 10
71.8233
 20
142.002
  0
VERTEX
  8
LAYER_2
 10
71.8233
 20
141.5124
  0
VERTEX
  8
LAYER_2
 10
73.3326
 20
141.7572
  0
SEQEND
  0
TEXT
  8
LAYER_2
 10
45.4273
 20
140.5334
 11
45.4273
 21
140.5334
 40
3.7001
 41
0.5
  1
500
  0
POLYLINE
  8
LAYER_2
 40
0.0882
 41
0.0882
 66
1
 10
0
 20
0
 30
0
  0
VERTEX
  8
LAYER_2
 10
73.3328
 20
141.798
  0
VERTEX
  8
LAYER_2
 10
73.3328
 20
141.8794
  0
SEQEND
  0
POLYLINE
  8
LAYER_2
 40
0.0882
 41
0.0882
 66
1
 10
0
 20
0
 30
0
  0
VERTEX
  8
LAYER_2
 10
108.3373
 20
141.6756
  0
VERTEX
  8
LAYER_2
 10
108.3373
 20
141.6349
  0
SEQEND
  0
POLYLINE
  8
LAYER_2
 40
0.0882
 41
0.0882
 66
1
 10
0
 20
0
 30
0
  0
VERTEX
  8
LAYER_2
 10
74.8424
 20
141.7572
  0
VERTEX
  8
LAYER_2
 10
88.0201
 20
141.7572
  0
SEQEND
  0
POLYLINE
  8
LAYER_2
 40
0.0882
 41
0.0882
 66
1
 10
0
 20
0
 30
0
  0
VERTEX
  8
LAYER_2
 10
106.8277
 20
141.7572
  0
VERTEX
  8
LAYER_2
 10
93.65
 20
141.7572
  0
SEQEND
  0
POLYLINE
  8
LAYER_2
 40
0.05
 41
0.05
 66
1
 10
0
 20
0
 30
0
 70
1
  0
VERTEX
  8
LAYER_2
 10
74.8424
 20
142.002
  0
VERTEX
  8
LAYER_2
 10
74.8424
 20
141.5124
  0
VERTEX
  8
LAYER_2
 10
73.333
 20
141.7572
  0
SEQEND
  0
POLYLINE
  8
LAYER_2
 66
1
 10
0
 20
0
 30
0
 70
1
  0
VERTEX
  8
LAYER_2
 10
74.8424
 20
142.002
  0
VERTEX
  8
LAYER_2
 10
74.8424
 20
141.5124
  0
VERTEX
  8
LAYER_2
 10
73.333
 20
141.7572
  0
SEQEND
  0
POLYLINE
  8
LAYER_2
 40
0.05
 41
0.05
 66
1
 10
0
 20
0
 30
0
 70
1
  0
VERTEX
  8
LAYER_2
 10
106.8277
 20
142.002
  0
VERTEX
  8
LAYER_2
 10
106.8277
 20
141.5124
  0
VERTEX
  8
LAYER_2
 10
108.3371
 20
141.7572
  0
SEQEND
  0
POLYLINE
  8
LAYER_2
 66
1
 10
0
 20
0
 30
0
 70
1
  0
VERTEX
  8
LAYER_2
 10
106.8277
 20
142.002
  0
VERTEX
  8
LAYER_2
 10
106.8277
 20
141.5124
  0
VERTEX
  8
LAYER_2
 10
108.3371
 20
141.7572
  0
SEQEND
  0
TEXT
  8
LAYER_2
 10
87.9384
 20
140.5334
 11
87.9384
 21
140.5334
 40
3.7001
 41
0.5
  1
350
  0
POLYLINE
  8
LAYER_2
 40
0.0882
 41
0.0882
 66
1
 10
0
 20
0
 30
0
  0
VERTEX
  8
LAYER_2
 10
70.681
 20
174.5994
  0
VERTEX
  8
LAYER_2
 10
70.3955
 20
174.5994
  0
SEQEND
  0
POLYLINE
  8
LAYER_2
 40
0.0882
 41
0.0882
 66
1
 10
0
 20
0
 30
0
  0
VERTEX
  8
LAYER_2
 10
70.5586
 20
138.6158
  0
VERTEX
  8
LAYER_2
 10
70.64
 20
138.6158
  0
SEQEND
  0
POLYLINE
  8
LAYER_2
 40
0.0882
 41
0.0882
 66
1
 10
0
 20
0
 30
0
  0
VERTEX
  8
LAYER_2
 10
70.5178
 20
173.0899
  0
VERTEX
  8
LAYER_2
 10
70.5178
 20
159.4226
  0
SEQEND
  0
POLYLINE
  8
LAYER_2
 40
0.0882
 41
0.0882
 66
1
 10
0
 20
0
 30
0
  0
VERTEX
  8
LAYER_2
 10
70.5178
 20
140.0845
  0
VERTEX
  8
LAYER_2
 10
70.5178
 20
153.7925
  0
SEQEND
  0
POLYLINE
  8
LAYER_2
 40
0.05
 41
0.05
 66
1
 10
0
 20
0
 30
0
 70
1
  0
VERTEX
  8
LAYER_2
 10
70.273
 20
173.0899
  0
VERTEX
  8
LAYER_2
 10
70.7625
 20
173.0899
  0
VERTEX
  8
LAYER_2
 10
70.5178
 20
174.5992
  0
SEQEND
  0
POLYLINE
  8
LAYER_2
 66
1
 10
0
 20
0
 30
0
 70
1
  0
VERTEX
  8
LAYER_2
 10
70.273
 20
173.0899
  0
VERTEX
  8
LAYER_2
 10
70.7625
 20
173.0899
  0
VERTEX
  8
LAYER_2
 10
70.5178
 20
174.5992
  0
SEQEND
  0
POLYLINE
  8
LAYER_2
 40
0.05
 41
0.05
 66
1
 10
0
 20
0
 30
0
 70
1
  0
VERTEX
  8
LAYER_2
 10
70.273
 20
140.0845
  0
VERTEX
  8
LAYER_2
 10
70.7625
 20
140.0845
  0
VERTEX
  8
LAYER_2
 10
70.5178
 20
138.6158
  0
SEQEND
  0
POLYLINE
  8
LAYER_2
 66
1
 10
0
 20
0
 30
0
 70
1
  0
VERTEX
  8
LAYER_2
 10
70.273
 20
140.0845
  0
VERTEX
  8
LAYER_2
 10
70.7625
 20
140.0845
  0
VERTEX
  8
LAYER_2
 10
70.5178
 20
138.6158
  0
SEQEND
  0
TEXT
  8
LAYER_2
 10
71.7418
 20
153.6706
 11
71.7418
 21
153.6706
 40
3.7001
 41
0.5
 50
89.99999999
  1
360
  0
POLYLINE
  8
LAYER_2
 40
0.0882
 41
0.0882
 66
1
 10
0
 20
0
 30
0
  0
VERTEX
  8
LAYER_2
 10
70.4362
 20
174.5994
  0
VERTEX
  8
LAYER_2
 10
70.6402
 20
174.5994
  0
SEQEND
  0
POLYLINE
  8
LAYER_2
 40
0.0882
 41
0.0882
 66
1
 10
0
 20
0
 30
0
  0
VERTEX
  8
LAYER_2
 10
70.4362
 20
183.0853
  0
VERTEX
  8
LAYER_2
 10
70.6402
 20
183.0853
  0
SEQEND
  0
POLYLINE
  8
LAYER_2
 40
0.0882
 41
0.0882
 66
1
 10
0
 20
0
 30
0
  0
VERTEX
  8
LAYER_2
 10
70.5178
 20
176.0681
  0
VERTEX
  8
LAYER_2
 10
70.5178
 20
176.9657
  0
SEQEND
  0
POLYLINE
  8
LAYER_2
 40
0.0882
 41
0.0882
 66
1
 10
0
 20
0
 30
0
  0
VERTEX
  8
LAYER_2
 10
70.5178
 20
181.5758
  0
VERTEX
  8
LAYER_2
 10
70.5178
 20
180.7189
  0
SEQEND
  0
POLYLINE
  8
LAYER_2
 40
0.05
 41
0.05
 66
1
 10
0
 20
0
 30
0
 70
1
  0
VERTEX
  8
LAYER_2
 10
70.273
 20
176.0681
  0
VERTEX
  8
LAYER_2
 10
70.7625
 20
176.0681
  0
VERTEX
  8
LAYER_2
 10
70.5178
 20
174.5995
  0
SEQEND
  0
POLYLINE
  8
LAYER_2
 66
1
 10
0
 20
0
 30
0
 70
1
  0
VERTEX
  8
LAYER_2
 10
70.273
 20
176.0681
  0
VERTEX
  8
LAYER_2
 10
70.7625
 20
176.0681
  0
VERTEX
  8
LAYER_2
 10
70.5178
 20
174.5995
  0
SEQEND
  0
POLYLINE
  8
LAYER_2
 40
0.05
 41
0.05
 66
1
 10
0
 20
0
 30
0
 70
1
  0
VERTEX
  8
LAYER_2
 10
70.273
 20
181.5758
  0
VERTEX
  8
LAYER_2
 10
70.7625
 20
181.5758
  0
VERTEX
  8
LAYER_2
 10
70.5178
 20
183.0851
  0
SEQEND
  0
POLYLINE
  8
LAYER_2
 66
1
 10
0
 20
0
 30
0
 70
1
  0
VERTEX
  8
LAYER_2
 10
70.273
 20
181.5758
  0
VERTEX
  8
LAYER_2
 10
70.7625
 20
181.5758
  0
VERTEX
  8
LAYER_2
 10
70.5178
 20
183.0851
  0
SEQEND
  0
TEXT
  8
LAYER_2
 10
71.7416
 20
176.8843
 11
71.7416
 21
176.8843
 40
3.7001
 41
0.5
 50
89.99999999
  1
85
  0
POLYLINE
  8
LAYER_2
 40
0.0882
 41
0.0882
 66
1
 10
0
 20
0
 30
0
  0
VERTEX
  8
LAYER_2
 10
45.4716
 20
178.8423
  0
VERTEX
  8
LAYER_2
 10
53.3073
 20
178.8423
  0
SEQEND
  0
POLYLINE
  8
LAYER_2
 40
0.0882
 41
0.0882
 66
1
 10
0
 20
0
 30
0
  0
VERTEX
  8
LAYER_2
 10
45.4716
 20
159.0964
  0
VERTEX
  8
LAYER_2
 10
53.3073
 20
159.0964
  0
SEQEND
  0
POLYLINE
  8
LAYER_2
 40
0.0882
 41
0.0882
 66
1
 10
0
 20
0
 30
0
  0
VERTEX
  8
LAYER_2
 10
53.1032
 20
183.0853
  0
VERTEX
  8
LAYER_2
 10
53.3073
 20
183.0853
  0
SEQEND
  0
POLYLINE
  8
LAYER_2
 40
0.0882
 41
0.0882
 66
1
 10
0
 20
0
 30
0
  0
VERTEX
  8
LAYER_2
 10
53.1849
 20
177.3328
  0
VERTEX
  8
LAYER_2
 10
53.1849
 20
175.8234
  0
SEQEND
  0
POLYLINE
  8
LAYER_2
 40
0.0882
 41
0.0882
 66
1
 10
0
 20
0
 30
0
  0
VERTEX
  8
LAYER_2
 10
53.1849
 20
184.5948
  0
VERTEX
  8
LAYER_2
 10
53.1849
 20
186.0634
  0
SEQEND
  0
POLYLINE
  8
LAYER_2
 40
0.0882
 41
0.0882
 66
1
 10
0
 20
0
 30
0
  0
VERTEX
  8
LAYER_2
 10
53.1849
 20
178.8423
  0
VERTEX
  8
LAYER_2
 10
53.1849
 20
179.0464
  0
SEQEND
  0
POLYLINE
  8
LAYER_2
 40
0.0882
 41
0.0882
 66
1
 10
0
 20
0
 30
0
  0
VERTEX
  8
LAYER_2
 10
53.1849
 20
183.0853
  0
VERTEX
  8
LAYER_2
 10
53.1849
 20
182.8812
  0
SEQEND
  0
POLYLINE
  8
LAYER_2
 40
0.05
 41
0.05
 66
1
 10
0
 20
0
 30
0
 70
1
  0
VERTEX
  8
LAYER_2
 10
52.8993
 20
177.3328
  0
VERTEX
  8
LAYER_2
 10
53.4295
 20
177.3328
  0
VERTEX
  8
LAYER_2
 10
53.1848
 20
178.8421
  0
SEQEND
  0
POLYLINE
  8
LAYER_2
 66
1
 10
0
 20
0
 30
0
 70
1
  0
VERTEX
  8
LAYER_2
 10
52.8993
 20
177.3328
  0
VERTEX
  8
LAYER_2
 10
53.4295
 20
177.3328
  0
VERTEX
  8
LAYER_2
 10
53.1848
 20
178.8421
  0
SEQEND
  0
POLYLINE
  8
LAYER_2
 40
0.05
 41
0.05
 66
1
 10
0
 20
0
 30
0
 70
1
  0
VERTEX
  8
LAYER_2
 10
52.8993
 20
184.5948
  0
VERTEX
  8
LAYER_2
 10
53.4295
 20
184.5948
  0
VERTEX
  8
LAYER_2
 10
53.1848
 20
183.0855
  0
SEQEND
  0
POLYLINE
  8
LAYER_2
 66
1
 10
0
 20
0
 30
0
 70
1
  0
VERTEX
  8
LAYER_2
 10
52.8993
 20
184.5948
  0
VERTEX
  8
LAYER_2
 10
53.4295
 20
184.5948
  0
VERTEX
  8
LAYER_2
 10
53.1848
 20
183.0855
  0
SEQEND
  0
TEXT
  8
LAYER_2
 10
54.409
 20
179.0464
 11
54.409
 21
179.0464
 40
3.7001
 41
0.5
 50
89.99999999
  1
45
  0
POLYLINE
  8
LAYER_2
 40
0.0882
 41
0.0882
 66
1
 10
0
 20
0
 30
0
  0
VERTEX
  8
LAYER_2
 10
80.2277
 20
183.0853
  0
VERTEX
  8
LAYER_2
 10
78.3102
 20
183.0853
  0
SEQEND
  0
POLYLINE
  8
LAYER_2
 40
0.0882
 41
0.0882
 66
1
 10
0
 20
0
 30
0
  0
VERTEX
  8
LAYER_2
 10
80.2277
 20
134.6176
  0
VERTEX
  8
LAYER_2
 10
78.3102
 20
134.6176
  0
SEQEND
  0
POLYLINE
  8
LAYER_2
 40
0.0882
 41
0.0882
 66
1
 10
0
 20
0
 30
0
  0
VERTEX
  8
LAYER_2
 10
82.2265
 20
181.5758
  0
VERTEX
  8
LAYER_2
 10
82.2265
 20
161.7073
  0
SEQEND
  0
POLYLINE
  8
LAYER_2
 40
0.0882
 41
0.0882
 66
1
 10
0
 20
0
 30
0
  0
VERTEX
  8
LAYER_2
 10
82.2265
 20
136.0863
  0
VERTEX
  8
LAYER_2
 10
82.2265
 20
155.9547
  0
SEQEND
  0
POLYLINE
  8
LAYER_2
 40
0.05
 41
0.05
 66
1
 10
0
 20
0
 30
0
 70
1
  0
VERTEX
  8
LAYER_2
 10
81.9817
 20
181.5758
  0
VERTEX
  8
LAYER_2
 10
82.4713
 20
181.5758
  0
VERTEX
  8
LAYER_2
 10
82.2265
 20
183.0851
  0
SEQEND
  0
POLYLINE
  8
LAYER_2
 66
1
 10
0
 20
0
 30
0
 70
1
  0
VERTEX
  8
LAYER_2
 10
81.9817
 20
181.5758
  0
VERTEX
  8
LAYER_2
 10
82.4713
 20
181.5758
  0
VERTEX
  8
LAYER_2
 10
82.2265
 20
183.0851
  0
SEQEND
  0
POLYLINE
  8
LAYER_2
 40
0.05
 41
0.05
 66
1
 10
0
 20
0
 30
0
 70
1
  0
VERTEX
  8
LAYER_2
 10
81.9817
 20
136.0863
  0
VERTEX
  8
LAYER_2
 10
82.4713
 20
136.0863
  0
VERTEX
  8
LAYER_2
 10
82.2265
 20
134.6177
  0
SEQEND
  0
POLYLINE
  8
LAYER_2
 66
1
 10
0
 20
0
 30
0
 70
1
  0
VERTEX
  8
LAYER_2
 10
81.9817
 20
136.0863
  0
VERTEX
  8
LAYER_2
 10
82.4713
 20
136.0863
  0
VERTEX
  8
LAYER_2
 10
82.2265
 20
134.6177
  0
SEQEND
  0
TEXT
  8
LAYER_2
 10
83.4504
 20
155.996
 11
83.4504
 21
155.996
 40
3.7001
 41
0.5
 50
89.99999999
  1
485
  0
POLYLINE
  8
LAYER_2
 40
0.0882
 41
0.0882
 66
1
 10
0
 20
0
 30
0
  0
VERTEX
  8
LAYER_2
 10
24.4163
 20
134.6176
  0
VERTEX
  8
LAYER_2
 10
24.4978
 20
134.6176
  0
SEQEND
  0
POLYLINE
  8
LAYER_2
 40
0.0882
 41
0.0882
 66
1
 10
0
 20
0
 30
0
  0
VERTEX
  8
LAYER_2
 10
24.4163
 20
133.8016
  0
VERTEX
  8
LAYER_2
 10
24.4978
 20
133.8016
  0
SEQEND
  0
POLYLINE
  8
LAYER_2
 40
0.0882
 41
0.0882
 66
1
 10
0
 20
0
 30
0
  0
VERTEX
  8
LAYER_2
 10
24.3347
 20
136.0863
  0
VERTEX
  8
LAYER_2
 10
24.3347
 20
137.5957
  0
SEQEND
  0
POLYLINE
  8
LAYER_2
 40
0.0882
 41
0.0882
 66
1
 10
0
 20
0
 30
0
  0
VERTEX
  8
LAYER_2
 10
24.3347
 20
132.2921
  0
VERTEX
  8
LAYER_2
 10
24.3347
 20
130.7828
  0
SEQEND
  0
POLYLINE
  8
LAYER_2
 40
0.0882
 41
0.0882
 66
1
 10
0
 20
0
 30
0
  0
VERTEX
  8
LAYER_2
 10
24.3347
 20
134.6176
  0
VERTEX
  8
LAYER_2
 10
24.3347
 20
133.8018
  0
SEQEND
  0
POLYLINE
  8
LAYER_2
 40
0.05
 41
0.05
 66
1
 10
0
 20
0
 30
0
 70
1
  0
VERTEX
  8
LAYER_2
 10
24.0899
 20
136.0863
  0
VERTEX
  8
LAYER_2
 10
24.6202
 20
136.0863
  0
VERTEX
  8
LAYER_2
 10
24.3347
 20
134.6177
  0
SEQEND
  0
POLYLINE
  8
LAYER_2
 66
1
 10
0
 20
0
 30
0
 70
1
  0
VERTEX
  8
LAYER_2
 10
24.0899
 20
136.0863
  0
VERTEX
  8
LAYER_2
 10
24.6202
 20
136.0863
  0
VERTEX
  8
LAYER_2
 10
24.3347
 20
134.6177
  0
SEQEND
  0
POLYLINE
  8
LAYER_2
 40
0.05
 41
0.05
 66
1
 10
0
 20
0
 30
0
 70
1
  0
VERTEX
  8
LAYER_2
 10
24.0899
 20
132.2921
  0
VERTEX
  8
LAYER_2
 10
24.6202
 20
132.2921
  0
VERTEX
  8
LAYER_2
 10
24.3347
 20
133.8015
  0
SEQEND
  0
POLYLINE
  8
LAYER_2
 66
1
 10
0
 20
0
 30
0
 70
1
  0
VERTEX
  8
LAYER_2
 10
24.0899
 20
132.2921
  0
VERTEX
  8
LAYER_2
 10
24.6202
 20
132.2921
  0
VERTEX
  8
LAYER_2
 10
24.3347
 20
133.8015
  0
SEQEND
  0
TEXT
  8
LAYER_2
 10
25.5997
 20
127.0293
 11
25.5997
 21
127.0293
 40
3.7001
 41
0.5
 50
89.99999999
  1
10
  0
POLYLINE
  8
LAYER_2
 40
0.0882
 41
0.0882
 66
1
 10
0
 20
0
 30
0
  0
VERTEX
  8
LAYER_2
 10
18.3375
 20
183.3414
  0
VERTEX
  8
LAYER_2
 10
18.3375
 20
189.7466
  0
SEQEND
  0
POLYLINE
  8
LAYER_2
 40
0.0882
 41
0.0882
 66
1
 10
0
 20
0
 30
0
  0
VERTEX
  8
LAYER_2
 10
108.3375
 20
183.3414
  0
VERTEX
  8
LAYER_2
 10
108.3375
 20
189.7466
  0
SEQEND
  0
POLYLINE
  8
LAYER_2
 40
0.0882
 41
0.0882
 66
1
 10
0
 20
0
 30
0
  0
VERTEX
  8
LAYER_2
 10
19.847
 20
189.6242
  0
VERTEX
  8
LAYER_2
 10
60.5223
 20
189.6242
  0
SEQEND
  0
POLYLINE
  8
LAYER_2
 40
0.0882
 41
0.0882
 66
1
 10
0
 20
0
 30
0
  0
VERTEX
  8
LAYER_2
 10
106.8279
 20
189.6242
  0
VERTEX
  8
LAYER_2
 10
66.1526
 20
189.6242
  0
SEQEND
  0
POLYLINE
  8
LAYER_2
 40
0.05
 41
0.05
 66
1
 10
0
 20
0
 30
0
 70
1
  0
VERTEX
  8
LAYER_2
 10
19.847
 20
189.869
  0
VERTEX
  8
LAYER_2
 10
19.847
 20
189.3795
  0
VERTEX
  8
LAYER_2
 10
18.3377
 20
189.6243
  0
SEQEND
  0
POLYLINE
  8
LAYER_2
 66
1
 10
0
 20
0
 30
0
 70
1
  0
VERTEX
  8
LAYER_2
 10
19.847
 20
189.869
  0
VERTEX
  8
LAYER_2
 10
19.847
 20
189.3795
  0
VERTEX
  8
LAYER_2
 10
18.3377
 20
189.6243
  0
SEQEND
  0
POLYLINE
  8
LAYER_2
 40
0.05
 41
0.05
 66
1
 10
0
 20
0
 30
0
 70
1
  0
VERTEX
  8
LAYER_2
 10
106.8279
 20
189.869
  0
VERTEX
  8
LAYER_2
 10
106.8279
 20
189.3795
  0
VERTEX
  8
LAYER_2
 10
108.3373
 20
189.6243
  0
SEQEND
  0
POLYLINE
  8
LAYER_2
 66
1
 10
0
 20
0
 30
0
 70
1
  0
VERTEX
  8
LAYER_2
 10
106.8279
 20
189.869
  0
VERTEX
  8
LAYER_2
 10
106.8279
 20
189.3795
  0
VERTEX
  8
LAYER_2
 10
108.3373
 20
189.6243
  0
SEQEND
  0
TEXT
  8
LAYER_2
 10
60.4407
 20
188.4005
 11
60.4407
 21
188.4005
 40
3.7001
 41
0.5
  1
900
  0
POLYLINE
  8
LAYER_2
 40
0.0882
 41
0.0882
 66
1
 10
0
 20
0
 30
0
  0
VERTEX
  8
LAYER_2
 10
109.9578
 20
159.545
  0
VERTEX
  8
LAYER_2
 10
114.8944
 20
159.545
  0
SEQEND
  0
POLYLINE
  8
LAYER_2
 40
0.0882
 41
0.0882
 66
1
 10
0
 20
0
 30
0
  0
VERTEX
  8
LAYER_2
 10
105.4701
 20
134.6176
  0
VERTEX
  8
LAYER_2
 10
114.8944
 20
134.6176
  0
SEQEND
  0
POLYLINE
  8
LAYER_2
 40
0.0882
 41
0.0882
 66
1
 10
0
 20
0
 30
0
  0
VERTEX
  8
LAYER_2
 10
114.772
 20
158.0355
  0
VERTEX
  8
LAYER_2
 10
114.772
 20
149.9169
  0
SEQEND
  0
POLYLINE
  8
LAYER_2
 40
0.0882
 41
0.0882
 66
1
 10
0
 20
0
 30
0
  0
VERTEX
  8
LAYER_2
 10
114.772
 20
136.0863
  0
VERTEX
  8
LAYER_2
 10
114.772
 20
144.246
  0
SEQEND
  0
POLYLINE
  8
LAYER_2
 40
0.05
 41
0.05
 66
1
 10
0
 20
0
 30
0
 70
1
  0
VERTEX
  8
LAYER_2
 10
114.5272
 20
158.0355
  0
VERTEX
  8
LAYER_2
 10
115.0168
 20
158.0355
  0
VERTEX
  8
LAYER_2
 10
114.772
 20
159.5448
  0
SEQEND
  0
POLYLINE
  8
LAYER_2
 66
1
 10
0
 20
0
 30
0
 70
1
  0
VERTEX
  8
LAYER_2
 10
114.5272
 20
158.0355
  0
VERTEX
  8
LAYER_2
 10
115.0168
 20
158.0355
  0
VERTEX
  8
LAYER_2
 10
114.772
 20
159.5448
  0
SEQEND
  0
POLYLINE
  8
LAYER_2
 40
0.05
 41
0.05
 66
1
 10
0
 20
0
 30
0
 70
1
  0
VERTEX
  8
LAYER_2
 10
114.5272
 20
136.0863
  0
VERTEX
  8
LAYER_2
 10
115.0168
 20
136.0863
  0
VERTEX
  8
LAYER_2
 10
114.772
 20
134.6177
  0
SEQEND
  0
POLYLINE
  8
LAYER_2
 66
1
 10
0
 20
0
 30
0
 70
1
  0
VERTEX
  8
LAYER_2
 10
114.5272
 20
136.0863
  0
VERTEX
  8
LAYER_2
 10
115.0168
 20
136.0863
  0
VERTEX
  8
LAYER_2
 10
114.772
 20
134.6177
  0
SEQEND
  0
TEXT
  8
LAYER_2
 10
116.037
 20
144.2052
 11
116.037
 21
144.2052
 40
3.7001
 41
0.5
 50
89.99999999
  1
250
  0
POLYLINE
  8
LAYER_2
 40
0.0882
 41
0.0882
 66
1
 10
0
 20
0
 30
0
  0
VERTEX
  8
LAYER_2
 10
107.4692
 20
184.7988
  0
VERTEX
  8
LAYER_2
 10
118.1174
 20
184.7988
  0
SEQEND
  0
POLYLINE
  8
LAYER_2
 40
0.0882
 41
0.0882
 66
1
 10
0
 20
0
 30
0
  0
VERTEX
  8
LAYER_2
 10
105.4701
 20
134.6176
  0
VERTEX
  8
LAYER_2
 10
118.1176
 20
134.6176
  0
SEQEND
  0
POLYLINE
  8
LAYER_2
 40
0.0882
 41
0.0882
 66
1
 10
0
 20
0
 30
0
  0
VERTEX
  8
LAYER_2
 10
117.995
 20
183.2893
  0
VERTEX
  8
LAYER_2
 10
117.995
 20
162.5232
  0
SEQEND
  0
POLYLINE
  8
LAYER_2
 40
0.0882
 41
0.0882
 66
1
 10
0
 20
0
 30
0
  0
VERTEX
  8
LAYER_2
 10
117.995
 20
136.0863
  0
VERTEX
  8
LAYER_2
 10
117.995
 20
156.8524
  0
SEQEND
  0
POLYLINE
  8
LAYER_2
 40
0.05
 41
0.05
 66
1
 10
0
 20
0
 30
0
 70
1
  0
VERTEX
  8
LAYER_2
 10
117.7502
 20
183.2893
  0
VERTEX
  8
LAYER_2
 10
118.2398
 20
183.2893
  0
VERTEX
  8
LAYER_2
 10
117.995
 20
184.7986
  0
SEQEND
  0
POLYLINE
  8
LAYER_2
 66
1
 10
0
 20
0
 30
0
 70
1
  0
VERTEX
  8
LAYER_2
 10
117.7502
 20
183.2893
  0
VERTEX
  8
LAYER_2
 10
118.2398
 20
183.2893
  0
VERTEX
  8
LAYER_2
 10
117.995
 20
184.7986
  0
SEQEND
  0
POLYLINE
  8
LAYER_2
 40
0.05
 41
0.05
 66
1
 10
0
 20
0
 30
0
 70
1
  0
VERTEX
  8
LAYER_2
 10
117.7502
 20
136.0863
  0
VERTEX
  8
LAYER_2
 10
118.2398
 20
136.0863
  0
VERTEX
  8
LAYER_2
 10
117.995
 20
134.6177
  0
SEQEND
  0
POLYLINE
  8
LAYER_2
 66
1
 10
0
 20
0
 30
0
 70
1
  0
VERTEX
  8
LAYER_2
 10
117.7502
 20
136.0863
  0
VERTEX
  8
LAYER_2
 10
118.2398
 20
136.0863
  0
VERTEX
  8
LAYER_2
 10
117.995
 20
134.6177
  0
SEQEND
  0
TEXT
  8
LAYER_2
 10
119.2189
 20
156.7708
 11
119.2189
 21
156.7708
 40
3.7001
 41
0.5
 50
89.99999999
  1
500
  0
POLYLINE
  8
LAYER_2
 40
0.2646
 41
0.2646
 66
1
 10
0
 20
0
 30
0
  0
VERTEX
  8
LAYER_2
 10
22.3356
 20
184.7988
  0
VERTEX
  8
LAYER_2
 10
104.3389
 20
184.7988
  0
SEQEND
  0
POLYLINE
  8
LAYER_2
 40
0.2046
 41
0.2046
 66
1
 10
0
 20
0
 30
0
  0
VERTEX
  8
LAYER_2
 10
102.2176
 20
84.407
  0
VERTEX
  8
LAYER_2
 10
24.4573
 20
84.407
  0
SEQEND
  0
POLYLINE
  8
LAYER_2
 40
0.2646
 41
0.2646
 66
1
 10
0
 20
0
 30
0
  0
VERTEX
  8
LAYER_2
 10
19.5614
 20
104.3979
  0
VERTEX
  8
LAYER_2
 10
107.1134
 20
104.3979
  0
VERTEX
  8
LAYER_2
 10
107.6029
 20
104.3979
  0
SEQEND
  0
POLYLINE
  8
LAYER_2
 40
0.2646
 41
0.2646
 66
1
 10
0
 20
0
 30
0
  0
VERTEX
  8
LAYER_2
 10
108.1333
 20
103.9288
 42
0.4139553843
  0
VERTEX
  8
LAYER_2
 10
107.6238
 20
104.4387
  0
SEQEND
  0
POLYLINE
  8
LAYER_2
 40
0.2646
 41
0.2646
 66
1
 10
0
 20
0
 30
0
  0
VERTEX
  8
LAYER_2
 10
108.0925
 20
103.9084
  0
VERTEX
  8
LAYER_2
 10
108.2965
 20
84.4069
  0
VERTEX
  8
LAYER_2
 10
18.3376
 20
84.4069
  0
VERTEX
  8
LAYER_2
 10
18.5416
 20
103.9084
  0
SEQEND
  0
POLYLINE
  8
LAYER_2
 40
0.2646
 41
0.2646
 66
1
 10
0
 20
0
 30
0
  0
VERTEX
  8
LAYER_2
 10
19.0514
 20
104.4387
 42
0.1997012159
  0
VERTEX
  8
LAYER_2
 10
18.6906
 20
104.2891
 42
0.1989740738
  0
VERTEX
  8
LAYER_2
 10
18.5414
 20
103.9284
  0
SEQEND
  0
POLYLINE
  8
LAYER_2
 40
0.2646
 41
0.2646
 66
1
 10
0
 20
0
 30
0
  0
VERTEX
  8
LAYER_2
 10
19.031
 20
104.3979
  0
VERTEX
  8
LAYER_2
 10
19.5613
 20
104.3979
  0
SEQEND
  0
POLYLINE
  8
LAYER_2
 40
0.2646
 41
0.2646
 66
1
 10
0
 20
0
 30
0
  0
VERTEX
  8
LAYER_2
 10
107.1336
 20
104.4387
 42
0.1996404522
  0
VERTEX
  8
LAYER_2
 10
106.7729
 20
104.2891
 42
0.1989676614
  0
VERTEX
  8
LAYER_2
 10
106.6237
 20
103.9284
  0
SEQEND
  0
POLYLINE
  8
LAYER_2
 40
0.2646
 41
0.2646
 66
1
 10
0
 20
0
 30
0
  0
VERTEX
  8
LAYER_2
 10
106.6238
 20
103.9084
  0
VERTEX
  8
LAYER_2
 10
106.6238
 20
100.8892
  0
SEQEND
  0
POLYLINE
  8
LAYER_2
 40
0.2646
 41
0.2646
 66
1
 10
0
 20
0
 30
0
  0
VERTEX
  8
LAYER_2
 10
106.1142
 20
100.3998
 42
0.4139704699
  0
VERTEX
  8
LAYER_2
 10
106.6236
 20
100.9097
  0
SEQEND
  0
POLYLINE
  8
LAYER_2
 40
0.2646
 41
0.2646
 66
1
 10
0
 20
0
 30
0
  0
VERTEX
  8
LAYER_2
 10
108.1333
 20
100.3998
  0
VERTEX
  8
LAYER_2
 10
18.5005
 20
100.3998
  0
SEQEND
  0
POLYLINE
  8
LAYER_2
 40
0.2646
 41
0.2646
 66
1
 10
0
 20
0
 30
0
  0
VERTEX
  8
LAYER_2
 10
20.051
 20
100.91
 42
0.199043085
  0
VERTEX
  8
LAYER_2
 10
20.2002
 20
100.5492
 42
0.1988900099
  0
VERTEX
  8
LAYER_2
 10
20.5609
 20
100.3996
  0
SEQEND
  0
POLYLINE
  8
LAYER_2
 40
0.2646
 41
0.2646
 66
1
 10
0
 20
0
 30
0
  0
VERTEX
  8
LAYER_2
 10
20.051
 20
100.8893
  0
VERTEX
  8
LAYER_2
 10
20.051
 20
103.9084
  0
SEQEND
  0
POLYLINE
  8
LAYER_2
 40
0.2646
 41
0.2646
 66
1
 10
0
 20
0
 30
0
  0
VERTEX
  8
LAYER_2
 10
20.0918
 20
103.9288
 42
0.4139540366
  0
VERTEX
  8
LAYER_2
 10
19.5823
 20
104.4387
  0
SEQEND
  0
POLYLINE
  8
LAYER_2
 40
0.2046
 41
0.2046
 66
1
 10
0
 20
0
 30
0
  0
VERTEX
  8
LAYER_2
 10
105.767
 20
100.3998
  0
SEQEND
  0
POLYLINE
  8
LAYER_2
 40
0.2046
 41
0.2046
 66
1
 10
0
 20
0
 30
0
  0
VERTEX
  8
LAYER_2
 10
18.5414
 20
103.9084
  0
SEQEND
  0
POLYLINE
  8
LAYER_2
 40
0.2046
 41
0.2046
 66
1
 10
0
 20
0
 30
0
  0
VERTEX
  8
LAYER_2
 10
19.3166
 20
104.3979
  0
SEQEND
  0
POLYLINE
  8
LAYER_2
 40
0.2046
 41
0.2046
 66
1
 10
0
 20
0
 30
0
  0
VERTEX
  8
LAYER_2
 10
18.5414
 20
103.9084
  0
SEQEND
  0
POLYLINE
  8
LAYER_2
 40
0.2046
 41
0.2046
 66
1
 10
0
 20
0
 30
0
  0
VERTEX
  8
LAYER_2
 10
20.051
 20
103.9084
  0
SEQEND
  0
POLYLINE
  8
LAYER_2
 40
0.2046
 41
0.2046
 66
1
 10
0
 20
0
 30
0
  0
VERTEX
  8
LAYER_2
 10
106.6238
 20
103.9084
  0
SEQEND
  0
POLYLINE
  8
LAYER_2
 40
0.0882
 41
0.0882
 66
1
 10
0
 20
0
 30
0
  0
VERTEX
  8
LAYER_2
 10
15.1546
 20
84.407
  0
VERTEX
  8
LAYER_2
 10
10.218
 20
84.407
  0
SEQEND
  0
POLYLINE
  8
LAYER_2
 40
0.0882
 41
0.0882
 66
1
 10
0
 20
0
 30
0
  0
VERTEX
  8
LAYER_2
 10
17.7248
 20
104.2347
  0
VERTEX
  8
LAYER_2
 10
10.2179
 20
104.2347
  0
SEQEND
  0
POLYLINE
  8
LAYER_2
 40
0.0882
 41
0.0882
 66
1
 10
0
 20
0
 30
0
  0
VERTEX
  8
LAYER_2
 10
10.3404
 20
85.9166
  0
VERTEX
  8
LAYER_2
 10
10.3404
 20
91.4652
  0
SEQEND
  0
POLYLINE
  8
LAYER_2
 40
0.0882
 41
0.0882
 66
1
 10
0
 20
0
 30
0
  0
VERTEX
  8
LAYER_2
 10
10.3404
 20
102.766
  0
VERTEX
  8
LAYER_2
 10
10.3404
 20
97.1766
  0
SEQEND
  0
POLYLINE
  8
LAYER_2
 40
0.05
 41
0.05
 66
1
 10
0
 20
0
 30
0
 70
1
  0
VERTEX
  8
LAYER_2
 10
10.0956
 20
85.9166
  0
VERTEX
  8
LAYER_2
 10
10.5851
 20
85.9166
  0
VERTEX
  8
LAYER_2
 10
10.3404
 20
84.4072
  0
SEQEND
  0
POLYLINE
  8
LAYER_2
 66
1
 10
0
 20
0
 30
0
 70
1
  0
VERTEX
  8
LAYER_2
 10
10.0956
 20
85.9166
  0
VERTEX
  8
LAYER_2
 10
10.5851
 20
85.9166
  0
VERTEX
  8
LAYER_2
 10
10.3404
 20
84.4072
  0
SEQEND
  0
POLYLINE
  8
LAYER_2
 40
0.05
 41
0.05
 66
1
 10
0
 20
0
 30
0
 70
1
  0
VERTEX
  8
LAYER_2
 10
10.0956
 20
102.766
  0
VERTEX
  8
LAYER_2
 10
10.5851
 20
102.766
  0
VERTEX
  8
LAYER_2
 10
10.3404
 20
104.2347
  0
SEQEND
  0
POLYLINE
  8
LAYER_2
 66
1
 10
0
 20
0
 30
0
 70
1
  0
VERTEX
  8
LAYER_2
 10
10.0956
 20
102.766
  0
VERTEX
  8
LAYER_2
 10
10.5851
 20
102.766
  0
VERTEX
  8
LAYER_2
 10
10.3404
 20
104.2347
  0
SEQEND
  0
TEXT
  8
LAYER_2
 10
11.5641
 20
91.4245
 11
11.5641
 21
91.4245
 40
3.7001
 41
0.5
 50
89.99999999
  1
200
  0
POLYLINE
  8
LAYER_2
 40
0.0882
 41
0.0882
 66
1
 10
0
 20
0
 30
0
  0
VERTEX
  8
LAYER_2
 10
16.3377
 20
100.3998
  0
VERTEX
  8
LAYER_2
 10
13.1557
 20
100.3998
  0
SEQEND
  0
POLYLINE
  8
LAYER_2
 40
0.0882
 41
0.0882
 66
1
 10
0
 20
0
 30
0
  0
VERTEX
  8
LAYER_2
 10
43.8821
 20
80.8986
  0
VERTEX
  8
LAYER_2
 10
10.3406
 20
80.8986
  0
SEQEND
  0
POLYLINE
  8
LAYER_2
 40
0.0882
 41
0.0882
 66
1
 10
0
 20
0
 30
0
  0
VERTEX
  8
LAYER_2
 10
31.4539
 20
82.408
  0
VERTEX
  8
LAYER_2
 10
18.3373
 20
82.408
  0
SEQEND
  0
POLYLINE
  8
LAYER_2
 40
0.0882
 41
0.0882
 66
1
 10
0
 20
0
 30
0
  0
VERTEX
  8
LAYER_2
 10
16.3377
 20
84.407
  0
VERTEX
  8
LAYER_2
 10
13.1557
 20
84.407
  0
SEQEND
  0
POLYLINE
  8
LAYER_2
 40
0.0882
 41
0.0882
 66
1
 10
0
 20
0
 30
0
  0
VERTEX
  8
LAYER_2
 10
13.2778
 20
98.8902
  0
VERTEX
  8
LAYER_2
 10
13.2778
 20
95.0961
  0
SEQEND
  0
POLYLINE
  8
LAYER_2
 40
0.05
 41
0.05
 66
1
 10
0
 20
0
 30
0
 70
1
  0
VERTEX
  8
LAYER_2
 10
13.0331
 20
98.8902
  0
VERTEX
  8
LAYER_2
 10
13.5226
 20
98.8902
  0
VERTEX
  8
LAYER_2
 10
13.2778
 20
100.3996
  0
SEQEND
  0
POLYLINE
  8
LAYER_2
 66
1
 10
0
 20
0
 30
0
 70
1
  0
VERTEX
  8
LAYER_2
 10
13.0331
 20
98.8902
  0
VERTEX
  8
LAYER_2
 10
13.5226
 20
98.8902
  0
VERTEX
  8
LAYER_2
 10
13.2778
 20
100.3996
  0
SEQEND
  0
POLYLINE
  8
LAYER_2
 40
0.0882
 41
0.0882
 66
1
 10
0
 20
0
 30
0
  0
VERTEX
  8
LAYER_2
 10
13.2778
 20
85.9166
  0
VERTEX
  8
LAYER_2
 10
13.2778
 20
89.7107
  0
SEQEND
  0
POLYLINE
  8
LAYER_2
 40
0.05
 41
0.05
 66
1
 10
0
 20
0
 30
0
 70
1
  0
VERTEX
  8
LAYER_2
 10
13.0331
 20
85.9166
  0
VERTEX
  8
LAYER_2
 10
13.5226
 20
85.9166
  0
VERTEX
  8
LAYER_2
 10
13.2778
 20
84.4072
  0
SEQEND
  0
POLYLINE
  8
LAYER_2
 66
1
 10
0
 20
0
 30
0
 70
1
  0
VERTEX
  8
LAYER_2
 10
13.0331
 20
85.9166
  0
VERTEX
  8
LAYER_2
 10
13.5226
 20
85.9166
  0
VERTEX
  8
LAYER_2
 10
13.2778
 20
84.4072
  0
SEQEND
  0
TEXT
  8
LAYER_2
 10
14.5019
 20
89.3843
 11
14.5019
 21
89.3843
 40
3.7001
 41
0.5
 50
89.99999999
  1
160
  0
POLYLINE
  8
LAYER_2
 40
0.2646
 41
0.2646
 66
1
 10
0
 20
0
 30
0
  0
VERTEX
  8
LAYER_2
 10
51.6284
 20
81.9184
  0
VERTEX
  8
LAYER_2
 10
51.5877
 20
81.1026
  0
VERTEX
  8
LAYER_2
 10
51.4651
 20
80.9393
  0
VERTEX
  8
LAYER_2
 10
51.3022
 20
80.8986
  0
VERTEX
  8
LAYER_2
 10
51.2611
 20
80.8986
  0
VERTEX
  8
LAYER_2
 10
51.2203
 20
80.8986
  0
VERTEX
  8
LAYER_2
 10
51.1389
 20
80.8986
  0
VERTEX
  8
LAYER_2
 10
51.0982
 20
80.8986
  0
VERTEX
  8
LAYER_2
 10
51.0574
 20
80.8986
  0
VERTEX
  8
LAYER_2
 10
50.9756
 20
80.8986
  0
VERTEX
  8
LAYER_2
 10
50.9348
 20
80.8986
  0
VERTEX
  8
LAYER_2
 10
50.8534
 20
80.8986
  0
VERTEX
  8
LAYER_2
 10
50.7715
 20
80.8986
  0
VERTEX
  8
LAYER_2
 10
50.6901
 20
80.8986
  0
VERTEX
  8
LAYER_2
 10
50.5679
 20
80.8986
  0
VERTEX
  8
LAYER_2
 10
50.486
 20
80.8986
  0
VERTEX
  8
LAYER_2
 10
50.4046
 20
80.8986
  0
VERTEX
  8
LAYER_2
 10
50.282
 20
80.8986
  0
VERTEX
  8
LAYER_2
 10
50.1598
 20
80.8986
  0
VERTEX
  8
LAYER_2
 10
50.0372
 20
80.8986
  0
VERTEX
  8
LAYER_2
 10
49.9558
 20
80.8986
  0
VERTEX
  8
LAYER_2
 10
49.8332
 20
80.8986
  0
VERTEX
  8
LAYER_2
 10
49.711
 20
80.8986
  0
VERTEX
  8
LAYER_2
 10
49.5884
 20
80.8986
  0
VERTEX
  8
LAYER_2
 10
49.4255
 20
80.8986
  0
VERTEX
  8
LAYER_2
 10
49.1807
 20
80.8986
  0
VERTEX
  8
LAYER_2
 10
48.8948
 20
80.8986
  0
VERTEX
  8
LAYER_2
 10
48.3645
 20
80.8986
  0
VERTEX
  8
LAYER_2
 10
47.8343
 20
80.8986
  0
VERTEX
  8
LAYER_2
 10
47.5488
 20
80.8986
  0
VERTEX
  8
LAYER_2
 10
47.304
 20
80.8986
  0
VERTEX
  8
LAYER_2
 10
47.1407
 20
80.8986
  0
VERTEX
  8
LAYER_2
 10
47.0181
 20
80.8986
  0
VERTEX
  8
LAYER_2
 10
46.8959
 20
80.8986
  0
VERTEX
  8
LAYER_2
 10
46.7733
 20
80.8986
  0
VERTEX
  8
LAYER_2
 10
46.6919
 20
80.8986
  0
VERTEX
  8
LAYER_2
 10
46.5697
 20
80.8986
  0
VERTEX
  8
LAYER_2
 10
46.4471
 20
80.8986
  0
VERTEX
  8
LAYER_2
 10
46.3249
 20
80.8986
  0
VERTEX
  8
LAYER_2
 10
46.243
 20
80.8986
  0
VERTEX
  8
LAYER_2
 10
46.1616
 20
80.8986
  0
VERTEX
  8
LAYER_2
 10
46.039
 20
80.8986
  0
VERTEX
  8
LAYER_2
 10
45.9575
 20
80.8986
  0
VERTEX
  8
LAYER_2
 10
45.8761
 20
80.8986
  0
VERTEX
  8
LAYER_2
 10
45.7942
 20
80.8986
  0
VERTEX
  8
LAYER_2
 10
45.7535
 20
80.8986
  0
VERTEX
  8
LAYER_2
 10
45.672
 20
80.8986
  0
VERTEX
  8
LAYER_2
 10
45.6313
 20
80.8986
  0
VERTEX
  8
LAYER_2
 10
45.5902
 20
80.8986
  0
VERTEX
  8
LAYER_2
 10
45.5087
 20
80.8986
  0
VERTEX
  8
LAYER_2
 10
45.468
 20
80.8986
  0
VERTEX
  8
LAYER_2
 10
45.4273
 20
80.8986
  0
VERTEX
  8
LAYER_2
 10
45.3865
 20
80.8986
  0
VERTEX
  8
LAYER_2
 10
45.3454
 20
80.8986
  0
VERTEX
  8
LAYER_2
 10
45.3047
 20
80.9393
  0
VERTEX
  8
LAYER_2
 10
45.264
 20
80.9393
  0
VERTEX
  8
LAYER_2
 10
45.2232
 20
80.98
  0
VERTEX
  8
LAYER_2
 10
45.1825
 20
81.0208
  0
VERTEX
  8
LAYER_2
 10
45.1825
 20
81.0615
  0
VERTEX
  8
LAYER_2
 10
45.1418
 20
81.1026
  0
VERTEX
  8
LAYER_2
 10
45.1418
 20
81.1434
  0
VERTEX
  8
LAYER_2
 10
45.1418
 20
81.1841
  0
VERTEX
  8
LAYER_2
 10
45.1418
 20
81.2248
  0
VERTEX
  8
LAYER_2
 10
45.1418
 20
81.2655
  0
VERTEX
  8
LAYER_2
 10
45.1418
 20
81.3063
  0
VERTEX
  8
LAYER_2
 10
45.1418
 20
81.3474
  0
VERTEX
  8
LAYER_2
 10
45.1418
 20
81.3881
  0
VERTEX
  8
LAYER_2
 10
45.1418
 20
81.4289
  0
VERTEX
  8
LAYER_2
 10
45.1418
 20
81.4696
  0
VERTEX
  8
LAYER_2
 10
45.1418
 20
81.551
  0
VERTEX
  8
LAYER_2
 10
45.1418
 20
81.5922
  0
VERTEX
  8
LAYER_2
 10
45.1418
 20
81.6736
  0
VERTEX
  8
LAYER_2
 10
45.1418
 20
81.9184
  0
SEQEND
  0
POLYLINE
  8
LAYER_2
 40
0.1023
 41
0.1023
 66
1
 10
0
 20
0
 30
0
  0
VERTEX
  8
LAYER_2
 10
41.2658
 20
96.4016
  0
VERTEX
  8
LAYER_2
 10
32.4125
 20
96.4016
  0
SEQEND
  0
POLYLINE
  8
LAYER_2
 40
0.0882
 41
0.0882
 66
1
 10
0
 20
0
 30
0
  0
VERTEX
  8
LAYER_2
 10
106.0526
 20
100.3998
  0
VERTEX
  8
LAYER_2
 10
104.2985
 20
100.3998
  0
SEQEND
  0
POLYLINE
  8
LAYER_2
 40
0.0882
 41
0.0882
 66
1
 10
0
 20
0
 30
0
  0
VERTEX
  8
LAYER_2
 10
106.0526
 20
104.3979
  0
VERTEX
  8
LAYER_2
 10
104.2985
 20
104.3979
  0
SEQEND
  0
POLYLINE
  8
LAYER_2
 40
0.0882
 41
0.0882
 66
1
 10
0
 20
0
 30
0
  0
VERTEX
  8
LAYER_2
 10
104.4207
 20
98.8902
  0
VERTEX
  8
LAYER_2
 10
104.4207
 20
97.3809
  0
SEQEND
  0
POLYLINE
  8
LAYER_2
 40
0.0882
 41
0.0882
 66
1
 10
0
 20
0
 30
0
  0
VERTEX
  8
LAYER_2
 10
104.4207
 20
105.9075
  0
VERTEX
  8
LAYER_2
 10
104.4207
 20
107.3761
  0
SEQEND
  0
POLYLINE
  8
LAYER_2
 40
0.0882
 41
0.0882
 66
1
 10
0
 20
0
 30
0
  0
VERTEX
  8
LAYER_2
 10
104.4207
 20
100.3998
  0
VERTEX
  8
LAYER_2
 10
104.4207
 20
100.4812
  0
SEQEND
  0
POLYLINE
  8
LAYER_2
 40
0.0882
 41
0.0882
 66
1
 10
0
 20
0
 30
0
  0
VERTEX
  8
LAYER_2
 10
104.4207
 20
104.3979
  0
VERTEX
  8
LAYER_2
 10
104.4207
 20
104.2753
  0
SEQEND
  0
POLYLINE
  8
LAYER_2
 40
0.05
 41
0.05
 66
1
 10
0
 20
0
 30
0
 70
1
  0
VERTEX
  8
LAYER_2
 10
104.1759
 20
98.8902
  0
VERTEX
  8
LAYER_2
 10
104.6654
 20
98.8902
  0
VERTEX
  8
LAYER_2
 10
104.4207
 20
100.3996
  0
SEQEND
  0
POLYLINE
  8
LAYER_2
 66
1
 10
0
 20
0
 30
0
 70
1
  0
VERTEX
  8
LAYER_2
 10
104.1759
 20
98.8902
  0
VERTEX
  8
LAYER_2
 10
104.6654
 20
98.8902
  0
VERTEX
  8
LAYER_2
 10
104.4207
 20
100.3996
  0
SEQEND
  0
POLYLINE
  8
LAYER_2
 40
0.05
 41
0.05
 66
1
 10
0
 20
0
 30
0
 70
1
  0
VERTEX
  8
LAYER_2
 10
104.1759
 20
105.9075
  0
VERTEX
  8
LAYER_2
 10
104.6654
 20
105.9075
  0
VERTEX
  8
LAYER_2
 10
104.4207
 20
104.3981
  0
SEQEND
  0
POLYLINE
  8
LAYER_2
 66
1
 10
0
 20
0
 30
0
 70
1
  0
VERTEX
  8
LAYER_2
 10
104.1759
 20
105.9075
  0
VERTEX
  8
LAYER_2
 10
104.6654
 20
105.9075
  0
VERTEX
  8
LAYER_2
 10
104.4207
 20
104.3981
  0
SEQEND
  0
TEXT
  8
LAYER_2
 10
105.6445
 20
100.5223
 11
105.6445
 21
100.5223
 40
3.7001
 41
0.5
 50
89.99999999
  1
40
  0
POLYLINE
  8
LAYER_2
 40
0.0882
 41
0.0882
 66
1
 10
0
 20
0
 30
0
  0
VERTEX
  8
LAYER_2
 10
99.3618
 20
99.3798
  0
VERTEX
  8
LAYER_2
 10
98.913
 20
99.3798
  0
SEQEND
  0
POLYLINE
  8
LAYER_2
 40
0.0882
 41
0.0882
 66
1
 10
0
 20
0
 30
0
  0
VERTEX
  8
LAYER_2
 10
98.5866
 20
99.3798
  0
VERTEX
  8
LAYER_2
 10
97.9745
 20
99.3798
  0
SEQEND
  0
POLYLINE
  8
LAYER_2
 40
0.0882
 41
0.0882
 66
1
 10
0
 20
0
 30
0
  0
VERTEX
  8
LAYER_2
 10
97.6483
 20
99.3798
  0
VERTEX
  8
LAYER_2
 10
97.0362
 20
99.3798
  0
SEQEND
  0
POLYLINE
  8
LAYER_2
 40
0.0882
 41
0.0882
 66
1
 10
0
 20
0
 30
0
  0
VERTEX
  8
LAYER_2
 10
96.7099
 20
99.3798
  0
VERTEX
  8
LAYER_2
 10
96.057
 20
99.3798
  0
SEQEND
  0
POLYLINE
  8
LAYER_2
 40
0.0882
 41
0.0882
 66
1
 10
0
 20
0
 30
0
  0
VERTEX
  8
LAYER_2
 10
95.7307
 20
99.3798
  0
VERTEX
  8
LAYER_2
 10
95.1186
 20
99.3798
  0
SEQEND
  0
POLYLINE
  8
LAYER_2
 40
0.0882
 41
0.0882
 66
1
 10
0
 20
0
 30
0
  0
VERTEX
  8
LAYER_2
 10
94.7924
 20
99.3798
  0
VERTEX
  8
LAYER_2
 10
94.1803
 20
99.3798
  0
SEQEND
  0
POLYLINE
  8
LAYER_2
 40
0.0882
 41
0.0882
 66
1
 10
0
 20
0
 30
0
  0
VERTEX
  8
LAYER_2
 10
93.8541
 20
99.3798
  0
VERTEX
  8
LAYER_2
 10
93.2012
 20
99.3798
  0
SEQEND
  0
POLYLINE
  8
LAYER_2
 40
0.0882
 41
0.0882
 66
1
 10
0
 20
0
 30
0
  0
VERTEX
  8
LAYER_2
 10
92.8749
 20
99.3798
  0
VERTEX
  8
LAYER_2
 10
92.2628
 20
99.3798
  0
SEQEND
  0
POLYLINE
  8
LAYER_2
 40
0.0882
 41
0.0882
 66
1
 10
0
 20
0
 30
0
  0
VERTEX
  8
LAYER_2
 10
91.9366
 20
99.3798
  0
VERTEX
  8
LAYER_2
 10
91.3245
 20
99.3798
  0
SEQEND
  0
POLYLINE
  8
LAYER_2
 40
0.0882
 41
0.0882
 66
1
 10
0
 20
0
 30
0
  0
VERTEX
  8
LAYER_2
 10
90.9982
 20
99.3798
  0
VERTEX
  8
LAYER_2
 10
90.3454
 20
99.3798
  0
SEQEND
  0
POLYLINE
  8
LAYER_2
 40
0.0882
 41
0.0882
 66
1
 10
0
 20
0
 30
0
  0
VERTEX
  8
LAYER_2
 10
90.0191
 20
99.3798
  0
VERTEX
  8
LAYER_2
 10
89.4069
 20
99.3798
  0
SEQEND
  0
POLYLINE
  8
LAYER_2
 40
0.0882
 41
0.0882
 66
1
 10
0
 20
0
 30
0
  0
VERTEX
  8
LAYER_2
 10
89.0808
 20
99.3798
  0
VERTEX
  8
LAYER_2
 10
88.4686
 20
99.3798
  0
SEQEND
  0
POLYLINE
  8
LAYER_2
 40
0.0882
 41
0.0882
 66
1
 10
0
 20
0
 30
0
  0
VERTEX
  8
LAYER_2
 10
88.1424
 20
99.3798
  0
VERTEX
  8
LAYER_2
 10
87.4895
 20
99.3798
  0
SEQEND
  0
POLYLINE
  8
LAYER_2
 40
0.0882
 41
0.0882
 66
1
 10
0
 20
0
 30
0
  0
VERTEX
  8
LAYER_2
 10
87.1632
 20
99.3798
  0
VERTEX
  8
LAYER_2
 10
86.5511
 20
99.3798
  0
SEQEND
  0
POLYLINE
  8
LAYER_2
 40
0.0882
 41
0.0882
 66
1
 10
0
 20
0
 30
0
  0
VERTEX
  8
LAYER_2
 10
86.2249
 20
99.3798
  0
VERTEX
  8
LAYER_2
 10
85.6128
 20
99.3798
  0
SEQEND
  0
POLYLINE
  8
LAYER_2
 40
0.0882
 41
0.0882
 66
1
 10
0
 20
0
 30
0
  0
VERTEX
  8
LAYER_2
 10
85.2866
 20
99.3798
  0
VERTEX
  8
LAYER_2
 10
84.6337
 20
99.3798
  0
SEQEND
  0
POLYLINE
  8
LAYER_2
 40
0.0882
 41
0.0882
 66
1
 10
0
 20
0
 30
0
  0
VERTEX
  8
LAYER_2
 10
84.3074
 20
99.3798
  0
VERTEX
  8
LAYER_2
 10
83.6953
 20
99.3798
  0
SEQEND
  0
POLYLINE
  8
LAYER_2
 40
0.0882
 41
0.0882
 66
1
 10
0
 20
0
 30
0
  0
VERTEX
  8
LAYER_2
 10
83.3691
 20
99.3798
  0
VERTEX
  8
LAYER_2
 10
82.7569
 20
99.3798
  0
SEQEND
  0
POLYLINE
  8
LAYER_2
 40
0.0882
 41
0.0882
 66
1
 10
0
 20
0
 30
0
  0
VERTEX
  8
LAYER_2
 10
82.4307
 20
99.3798
  0
VERTEX
  8
LAYER_2
 10
81.7779
 20
99.3798
  0
SEQEND
  0
POLYLINE
  8
LAYER_2
 40
0.0882
 41
0.0882
 66
1
 10
0
 20
0
 30
0
  0
VERTEX
  8
LAYER_2
 10
81.4515
 20
99.3798
  0
VERTEX
  8
LAYER_2
 10
80.8394
 20
99.3798
  0
SEQEND
  0
POLYLINE
  8
LAYER_2
 40
0.0882
 41
0.0882
 66
1
 10
0
 20
0
 30
0
  0
VERTEX
  8
LAYER_2
 10
80.5132
 20
99.3798
  0
VERTEX
  8
LAYER_2
 10
79.8604
 20
99.3798
  0
SEQEND
  0
POLYLINE
  8
LAYER_2
 40
0.0882
 41
0.0882
 66
1
 10
0
 20
0
 30
0
  0
VERTEX
  8
LAYER_2
 10
79.5749
 20
99.3798
  0
VERTEX
  8
LAYER_2
 10
78.922
 20
99.3798
  0
SEQEND
  0
POLYLINE
  8
LAYER_2
 40
0.0882
 41
0.0882
 66
1
 10
0
 20
0
 30
0
  0
VERTEX
  8
LAYER_2
 10
78.5957
 20
99.3798
  0
VERTEX
  8
LAYER_2
 10
77.9836
 20
99.3798
  0
SEQEND
  0
POLYLINE
  8
LAYER_2
 40
0.0882
 41
0.0882
 66
1
 10
0
 20
0
 30
0
  0
VERTEX
  8
LAYER_2
 10
77.6574
 20
99.3798
  0
VERTEX
  8
LAYER_2
 10
77.0045
 20
99.3798
  0
SEQEND
  0
POLYLINE
  8
LAYER_2
 40
0.0882
 41
0.0882
 66
1
 10
0
 20
0
 30
0
  0
VERTEX
  8
LAYER_2
 10
76.719
 20
99.3798
  0
VERTEX
  8
LAYER_2
 10
76.0662
 20
99.3798
  0
SEQEND
  0
POLYLINE
  8
LAYER_2
 40
0.0882
 41
0.0882
 66
1
 10
0
 20
0
 30
0
  0
VERTEX
  8
LAYER_2
 10
75.7399
 20
99.3798
  0
VERTEX
  8
LAYER_2
 10
75.3318
 20
99.3798
  0
SEQEND
  0
POLYLINE
  8
LAYER_2
 40
0.0882
 41
0.0882
 66
1
 10
0
 20
0
 30
0
  0
VERTEX
  8
LAYER_2
 10
100.3409
 20
98.4415
  0
VERTEX
  8
LAYER_2
 10
100.3002
 20
98.6455
  0
VERTEX
  8
LAYER_2
 10
100.2595
 20
98.8088
  0
VERTEX
  8
LAYER_2
 10
100.1369
 20
98.9717
  0
VERTEX
  8
LAYER_2
 10
100.1369
 20
99.0125
  0
SEQEND
  0
POLYLINE
  8
LAYER_2
 40
0.0882
 41
0.0882
 66
1
 10
0
 20
0
 30
0
  0
VERTEX
  8
LAYER_2
 10
99.8921
 20
99.2166
  0
VERTEX
  8
LAYER_2
 10
99.8921
 20
99.2574
  0
VERTEX
  8
LAYER_2
 10
99.7288
 20
99.3392
  0
VERTEX
  8
LAYER_2
 10
99.5248
 20
99.38
  0
VERTEX
  8
LAYER_2
 10
99.3619
 20
99.38
  0
SEQEND
  0
POLYLINE
  8
LAYER_2
 40
0.0882
 41
0.0882
 66
1
 10
0
 20
0
 30
0
  0
VERTEX
  8
LAYER_2
 10
73.3328
 20
100.3998
  0
VERTEX
  8
LAYER_2
 10
73.3328
 20
99.6655
  0
SEQEND
  0
POLYLINE
  8
LAYER_2
 40
0.0882
 41
0.0882
 66
1
 10
0
 20
0
 30
0
  0
VERTEX
  8
LAYER_2
 10
73.3328
 20
99.339
  0
VERTEX
  8
LAYER_2
 10
73.3328
 20
98.7269
  0
SEQEND
  0
POLYLINE
  8
LAYER_2
 40
0.0882
 41
0.0882
 66
1
 10
0
 20
0
 30
0
  0
VERTEX
  8
LAYER_2
 10
73.3328
 20
98.4007
  0
VERTEX
  8
LAYER_2
 10
73.3328
 20
97.7478
  0
SEQEND
  0
POLYLINE
  8
LAYER_2
 40
0.0882
 41
0.0882
 66
1
 10
0
 20
0
 30
0
  0
VERTEX
  8
LAYER_2
 10
73.3328
 20
97.4623
  0
VERTEX
  8
LAYER_2
 10
73.3328
 20
96.8094
  0
SEQEND
  0
POLYLINE
  8
LAYER_2
 40
0.0882
 41
0.0882
 66
1
 10
0
 20
0
 30
0
  0
VERTEX
  8
LAYER_2
 10
73.3328
 20
96.4832
  0
VERTEX
  8
LAYER_2
 10
73.3328
 20
95.8711
  0
SEQEND
  0
POLYLINE
  8
LAYER_2
 40
0.0882
 41
0.0882
 66
1
 10
0
 20
0
 30
0
  0
VERTEX
  8
LAYER_2
 10
73.3328
 20
95.5448
  0
VERTEX
  8
LAYER_2
 10
73.3328
 20
94.892
  0
SEQEND
  0
POLYLINE
  8
LAYER_2
 40
0.0882
 41
0.0882
 66
1
 10
0
 20
0
 30
0
  0
VERTEX
  8
LAYER_2
 10
73.3328
 20
94.6065
  0
VERTEX
  8
LAYER_2
 10
73.3328
 20
93.9536
  0
SEQEND
  0
POLYLINE
  8
LAYER_2
 40
0.0882
 41
0.0882
 66
1
 10
0
 20
0
 30
0
  0
VERTEX
  8
LAYER_2
 10
73.3328
 20
93.6273
  0
VERTEX
  8
LAYER_2
 10
73.3328
 20
93.0152
  0
SEQEND
  0
POLYLINE
  8
LAYER_2
 40
0.0882
 41
0.0882
 66
1
 10
0
 20
0
 30
0
  0
VERTEX
  8
LAYER_2
 10
73.3328
 20
92.689
  0
VERTEX
  8
LAYER_2
 10
73.3328
 20
92.0361
  0
SEQEND
  0
POLYLINE
  8
LAYER_2
 40
0.0882
 41
0.0882
 66
1
 10
0
 20
0
 30
0
  0
VERTEX
  8
LAYER_2
 10
73.3328
 20
91.7506
  0
VERTEX
  8
LAYER_2
 10
73.3328
 20
91.0978
  0
SEQEND
  0
POLYLINE
  8
LAYER_2
 40
0.0882
 41
0.0882
 66
1
 10
0
 20
0
 30
0
  0
VERTEX
  8
LAYER_2
 10
73.3328
 20
90.7715
  0
VERTEX
  8
LAYER_2
 10
73.3328
 20
90.1594
  0
SEQEND
  0
POLYLINE
  8
LAYER_2
 40
0.0882
 41
0.0882
 66
1
 10
0
 20
0
 30
0
  0
VERTEX
  8
LAYER_2
 10
73.3328
 20
89.8332
  0
VERTEX
  8
LAYER_2
 10
73.3328
 20
89.1803
  0
SEQEND
  0
POLYLINE
  8
LAYER_2
 40
0.0882
 41
0.0882
 66
1
 10
0
 20
0
 30
0
  0
VERTEX
  8
LAYER_2
 10
73.3328
 20
88.8948
  0
VERTEX
  8
LAYER_2
 10
73.3328
 20
88.2419
  0
SEQEND
  0
POLYLINE
  8
LAYER_2
 40
0.0882
 41
0.0882
 66
1
 10
0
 20
0
 30
0
  0
VERTEX
  8
LAYER_2
 10
73.3328
 20
87.9157
  0
VERTEX
  8
LAYER_2
 10
73.3328
 20
87.2221
  0
SEQEND
  0
POLYLINE
  8
LAYER_2
 40
0.0882
 41
0.0882
 66
1
 10
0
 20
0
 30
0
  0
VERTEX
  8
LAYER_2
 10
71.2521
 20
84.8966
  0
VERTEX
  8
LAYER_2
 10
71.6195
 20
84.9374
  0
VERTEX
  8
LAYER_2
 10
71.8643
 20
85.0188
  0
SEQEND
  0
POLYLINE
  8
LAYER_2
 40
0.0882
 41
0.0882
 66
1
 10
0
 20
0
 30
0
  0
VERTEX
  8
LAYER_2
 10
72.1497
 20
85.1414
  0
VERTEX
  8
LAYER_2
 10
72.3537
 20
85.2229
  0
VERTEX
  8
LAYER_2
 10
72.6392
 20
85.4676
  0
VERTEX
  8
LAYER_2
 10
72.6799
 20
85.5088
  0
SEQEND
  0
POLYLINE
  8
LAYER_2
 40
0.0882
 41
0.0882
 66
1
 10
0
 20
0
 30
0
  0
VERTEX
  8
LAYER_2
 10
72.8841
 20
85.7534
  0
VERTEX
  8
LAYER_2
 10
73.0881
 20
86.0796
  0
VERTEX
  8
LAYER_2
 10
73.1696
 20
86.2836
  0
SEQEND
  0
POLYLINE
  8
LAYER_2
 40
0.0882
 41
0.0882
 66
1
 10
0
 20
0
 30
0
  0
VERTEX
  8
LAYER_2
 10
73.292
 20
86.6101
  0
VERTEX
  8
LAYER_2
 10
73.3328
 20
86.8142
  0
VERTEX
  8
LAYER_2
 10
73.3328
 20
87.2222
  0
SEQEND
  0
POLYLINE
  8
LAYER_2
 40
0.0882
 41
0.0882
 66
1
 10
0
 20
0
 30
0
  0
VERTEX
  8
LAYER_2
 10
23.3964
 20
87.2221
  0
VERTEX
  8
LAYER_2
 10
23.3964
 20
87.9157
  0
SEQEND
  0
POLYLINE
  8
LAYER_2
 40
0.0882
 41
0.0882
 66
1
 10
0
 20
0
 30
0
  0
VERTEX
  8
LAYER_2
 10
23.3964
 20
88.2421
  0
VERTEX
  8
LAYER_2
 10
23.3964
 20
88.8949
  0
SEQEND
  0
POLYLINE
  8
LAYER_2
 40
0.0882
 41
0.0882
 66
1
 10
0
 20
0
 30
0
  0
VERTEX
  8
LAYER_2
 10
23.3964
 20
89.1804
  0
VERTEX
  8
LAYER_2
 10
23.3964
 20
89.8332
  0
SEQEND
  0
POLYLINE
  8
LAYER_2
 40
0.0882
 41
0.0882
 66
1
 10
0
 20
0
 30
0
  0
VERTEX
  8
LAYER_2
 10
23.3964
 20
90.1595
  0
VERTEX
  8
LAYER_2
 10
23.3964
 20
90.7717
  0
SEQEND
  0
POLYLINE
  8
LAYER_2
 40
0.0882
 41
0.0882
 66
1
 10
0
 20
0
 30
0
  0
VERTEX
  8
LAYER_2
 10
23.3964
 20
91.0979
  0
VERTEX
  8
LAYER_2
 10
23.3964
 20
91.7508
  0
SEQEND
  0
POLYLINE
  8
LAYER_2
 40
0.0882
 41
0.0882
 66
1
 10
0
 20
0
 30
0
  0
VERTEX
  8
LAYER_2
 10
23.3964
 20
92.0362
  0
VERTEX
  8
LAYER_2
 10
23.3964
 20
92.6891
  0
SEQEND
  0
POLYLINE
  8
LAYER_2
 40
0.0882
 41
0.0882
 66
1
 10
0
 20
0
 30
0
  0
VERTEX
  8
LAYER_2
 10
23.3964
 20
93.0154
  0
VERTEX
  8
LAYER_2
 10
23.3964
 20
93.6275
  0
SEQEND
  0
POLYLINE
  8
LAYER_2
 40
0.0882
 41
0.0882
 66
1
 10
0
 20
0
 30
0
  0
VERTEX
  8
LAYER_2
 10
23.3556
 20
93.9537
  0
VERTEX
  8
LAYER_2
 10
23.3556
 20
94.6066
  0
SEQEND
  0
POLYLINE
  8
LAYER_2
 40
0.0882
 41
0.0882
 66
1
 10
0
 20
0
 30
0
  0
VERTEX
  8
LAYER_2
 10
23.3556
 20
94.8921
  0
VERTEX
  8
LAYER_2
 10
23.3556
 20
95.5449
  0
SEQEND
  0
POLYLINE
  8
LAYER_2
 40
0.0882
 41
0.0882
 66
1
 10
0
 20
0
 30
0
  0
VERTEX
  8
LAYER_2
 10
23.3556
 20
95.8712
  0
VERTEX
  8
LAYER_2
 10
23.3556
 20
96.4834
  0
SEQEND
  0
POLYLINE
  8
LAYER_2
 40
0.0882
 41
0.0882
 66
1
 10
0
 20
0
 30
0
  0
VERTEX
  8
LAYER_2
 10
23.3556
 20
96.8095
  0
VERTEX
  8
LAYER_2
 10
23.3556
 20
97.4624
  0
SEQEND
  0
POLYLINE
  8
LAYER_2
 40
0.0882
 41
0.0882
 66
1
 10
0
 20
0
 30
0
  0
VERTEX
  8
LAYER_2
 10
23.3556
 20
97.7479
  0
VERTEX
  8
LAYER_2
 10
23.3556
 20
98.4008
  0
SEQEND
  0
POLYLINE
  8
LAYER_2
 40
0.0882
 41
0.0882
 66
1
 10
0
 20
0
 30
0
  0
VERTEX
  8
LAYER_2
 10
23.3556
 20
98.7271
  0
VERTEX
  8
LAYER_2
 10
23.3556
 20
99.3392
  0
SEQEND
  0
POLYLINE
  8
LAYER_2
 40
0.0882
 41
0.0882
 66
1
 10
0
 20
0
 30
0
  0
VERTEX
  8
LAYER_2
 10
23.3556
 20
99.6654
  0
VERTEX
  8
LAYER_2
 10
23.3556
 20
100.3997
  0
SEQEND
  0
POLYLINE
  8
LAYER_2
 40
0.0882
 41
0.0882
 66
1
 10
0
 20
0
 30
0
  0
VERTEX
  8
LAYER_2
 10
74.3528
 20
98.4007
  0
VERTEX
  8
LAYER_2
 10
74.312
 20
97.7478
  0
SEQEND
  0
POLYLINE
  8
LAYER_2
 40
0.0882
 41
0.0882
 66
1
 10
0
 20
0
 30
0
  0
VERTEX
  8
LAYER_2
 10
74.312
 20
97.4215
  0
VERTEX
  8
LAYER_2
 10
74.312
 20
96.8094
  0
SEQEND
  0
POLYLINE
  8
LAYER_2
 40
0.0882
 41
0.0882
 66
1
 10
0
 20
0
 30
0
  0
VERTEX
  8
LAYER_2
 10
74.312
 20
96.4832
  0
VERTEX
  8
LAYER_2
 10
74.312
 20
95.8303
  0
SEQEND
  0
POLYLINE
  8
LAYER_2
 40
0.0882
 41
0.0882
 66
1
 10
0
 20
0
 30
0
  0
VERTEX
  8
LAYER_2
 10
74.312
 20
95.504
  0
VERTEX
  8
LAYER_2
 10
74.2712
 20
94.8919
  0
SEQEND
  0
POLYLINE
  8
LAYER_2
 40
0.0882
 41
0.0882
 66
1
 10
0
 20
0
 30
0
  0
VERTEX
  8
LAYER_2
 10
74.2712
 20
94.5657
  0
VERTEX
  8
LAYER_2
 10
74.2712
 20
93.9535
  0
SEQEND
  0
POLYLINE
  8
LAYER_2
 40
0.0882
 41
0.0882
 66
1
 10
0
 20
0
 30
0
  0
VERTEX
  8
LAYER_2
 10
74.2712
 20
93.6273
  0
VERTEX
  8
LAYER_2
 10
74.2712
 20
92.9745
  0
SEQEND
  0
POLYLINE
  8
LAYER_2
 40
0.0882
 41
0.0882
 66
1
 10
0
 20
0
 30
0
  0
VERTEX
  8
LAYER_2
 10
74.2712
 20
92.6482
  0
VERTEX
  8
LAYER_2
 10
74.2712
 20
92.036
  0
SEQEND
  0
POLYLINE
  8
LAYER_2
 40
0.0882
 41
0.0882
 66
1
 10
0
 20
0
 30
0
  0
VERTEX
  8
LAYER_2
 10
74.2712
 20
91.7098
  0
VERTEX
  8
LAYER_2
 10
74.2304
 20
91.0977
  0
SEQEND
  0
POLYLINE
  8
LAYER_2
 40
0.0882
 41
0.0882
 66
1
 10
0
 20
0
 30
0
  0
VERTEX
  8
LAYER_2
 10
74.2304
 20
90.7715
  0
VERTEX
  8
LAYER_2
 10
74.2304
 20
90.1186
  0
SEQEND
  0
POLYLINE
  8
LAYER_2
 40
0.0882
 41
0.0882
 66
1
 10
0
 20
0
 30
0
  0
VERTEX
  8
LAYER_2
 10
74.2304
 20
89.7923
  0
VERTEX
  8
LAYER_2
 10
74.2304
 20
89.1802
  0
SEQEND
  0
POLYLINE
  8
LAYER_2
 40
0.0882
 41
0.0882
 66
1
 10
0
 20
0
 30
0
  0
VERTEX
  8
LAYER_2
 10
74.2304
 20
88.854
  0
VERTEX
  8
LAYER_2
 10
74.1897
 20
88.2419
  0
SEQEND
  0
POLYLINE
  8
LAYER_2
 40
0.0882
 41
0.0882
 66
1
 10
0
 20
0
 30
0
  0
VERTEX
  8
LAYER_2
 10
74.1896
 20
87.9157
  0
VERTEX
  8
LAYER_2
 10
74.1896
 20
87.2628
  0
SEQEND
  0
POLYLINE
  8
LAYER_2
 40
0.0882
 41
0.0882
 66
1
 10
0
 20
0
 30
0
  0
VERTEX
  8
LAYER_2
 10
74.1896
 20
86.9365
  0
VERTEX
  8
LAYER_2
 10
74.1896
 20
86.3244
  0
SEQEND
  0
POLYLINE
  8
LAYER_2
 40
0.0882
 41
0.0882
 66
1
 10
0
 20
0
 30
0
  0
VERTEX
  8
LAYER_2
 10
74.1896
 20
85.9982
  0
VERTEX
  8
LAYER_2
 10
74.1896
 20
85.3453
  0
SEQEND
  0
POLYLINE
  8
LAYER_2
 40
0.0882
 41
0.0882
 66
1
 10
0
 20
0
 30
0
  0
VERTEX
  8
LAYER_2
 10
74.1896
 20
85.0598
  0
VERTEX
  8
LAYER_2
 10
74.1488
 20
84.407
  0
SEQEND
  0
POLYLINE
  8
LAYER_2
 40
0.0882
 41
0.0882
 66
1
 10
0
 20
0
 30
0
  0
VERTEX
  8
LAYER_2
 10
75.3319
 20
99.3798
  0
VERTEX
  8
LAYER_2
 10
75.1279
 20
99.3798
  0
VERTEX
  8
LAYER_2
 10
74.9645
 20
99.2984
  0
VERTEX
  8
LAYER_2
 10
74.7609
 20
99.2165
  0
SEQEND
  0
POLYLINE
  8
LAYER_2
 40
0.0882
 41
0.0882
 66
1
 10
0
 20
0
 30
0
  0
VERTEX
  8
LAYER_2
 10
74.516
 20
98.9718
  0
VERTEX
  8
LAYER_2
 10
74.516
 20
98.9311
  0
VERTEX
  8
LAYER_2
 10
74.3934
 20
98.7678
  0
VERTEX
  8
LAYER_2
 10
74.3526
 20
98.6045
  0
VERTEX
  8
LAYER_2
 10
74.3526
 20
98.4008
  0
SEQEND
  0
POLYLINE
  8
LAYER_2
 40
0.2046
 41
0.2046
 66
1
 10
0
 20
0
 30
0
  0
VERTEX
  8
LAYER_2
 10
34.8606
 20
95.3816
  0
VERTEX
  8
LAYER_2
 10
35.7989
 20
95.3816
  0
SEQEND
  0
POLYLINE
  8
LAYER_2
 40
0.2046
 41
0.2046
 66
1
 10
0
 20
0
 30
0
  0
VERTEX
  8
LAYER_2
 10
35.8397
 20
97.3807
  0
VERTEX
  8
LAYER_2
 10
34.8606
 20
97.3807
  0
SEQEND
  0
POLYLINE
  8
LAYER_2
 40
0.2046
 41
0.2046
 66
1
 10
0
 20
0
 30
0
  0
VERTEX
  8
LAYER_2
 10
34.8528
 20
97.4215
 42
0.2703092827
  0
VERTEX
  8
LAYER_2
 10
33.9768
 20
96.9253
 42
0.2706479728
  0
VERTEX
  8
LAYER_2
 10
33.9768
 20
95.9188
 42
0.2703353277
  0
VERTEX
  8
LAYER_2
 10
34.8528
 20
95.4226
  0
SEQEND
  0
POLYLINE
  8
LAYER_2
 40
0.2046
 41
0.2046
 66
1
 10
0
 20
0
 30
0
  0
VERTEX
  8
LAYER_2
 10
35.8424
 20
95.4226
 42
0.2697219612
  0
VERTEX
  8
LAYER_2
 10
36.72
 20
95.9126
 42
0.269612752
  0
VERTEX
  8
LAYER_2
 10
36.7279
 20
96.9182
 42
0.2696991744
  0
VERTEX
  8
LAYER_2
 10
35.8573
 20
97.4215
  0
SEQEND
  0
POLYLINE
  8
LAYER_2
 40
0.2046
 41
0.2046
 66
1
 10
0
 20
0
 30
0
  0
VERTEX
  8
LAYER_2
 10
35.4317
 20
96.4016
  0
VERTEX
  8
LAYER_2
 10
35.2277
 20
96.4016
  0
SEQEND
  0
POLYLINE
  8
LAYER_2
 40
0.2046
 41
0.2046
 66
1
 10
0
 20
0
 30
0
  0
VERTEX
  8
LAYER_2
 10
35.3501
 20
96.4832
  0
VERTEX
  8
LAYER_2
 10
35.3501
 20
96.2791
  0
SEQEND
  0
POLYLINE
  8
LAYER_2
 40
0.2046
 41
0.2046
 66
1
 10
0
 20
0
 30
0
  0
VERTEX
  8
LAYER_2
 10
62.8478
 20
95.3816
  0
VERTEX
  8
LAYER_2
 10
63.7861
 20
95.3816
  0
SEQEND
  0
POLYLINE
  8
LAYER_2
 40
0.2046
 41
0.2046
 66
1
 10
0
 20
0
 30
0
  0
VERTEX
  8
LAYER_2
 10
63.827
 20
97.3807
  0
VERTEX
  8
LAYER_2
 10
62.8479
 20
97.3807
  0
SEQEND
  0
POLYLINE
  8
LAYER_2
 40
0.2046
 41
0.2046
 66
1
 10
0
 20
0
 30
0
  0
VERTEX
  8
LAYER_2
 10
62.8401
 20
97.4215
 42
0.2703281183
  0
VERTEX
  8
LAYER_2
 10
61.964
 20
96.9253
 42
0.2706316763
  0
VERTEX
  8
LAYER_2
 10
61.964
 20
95.9188
 42
0.2703541641
  0
VERTEX
  8
LAYER_2
 10
62.8401
 20
95.4226
  0
SEQEND
  0
POLYLINE
  8
LAYER_2
 40
0.2046
 41
0.2046
 66
1
 10
0
 20
0
 30
0
  0
VERTEX
  8
LAYER_2
 10
63.8296
 20
95.4226
 42
0.2697435401
  0
VERTEX
  8
LAYER_2
 10
64.7073
 20
95.9126
 42
0.2696019939
  0
VERTEX
  8
LAYER_2
 10
64.7152
 20
96.9182
 42
0.269693787
  0
VERTEX
  8
LAYER_2
 10
63.8446
 20
97.4215
  0
SEQEND
  0
POLYLINE
  8
LAYER_2
 40
0.2046
 41
0.2046
 66
1
 10
0
 20
0
 30
0
  0
VERTEX
  8
LAYER_2
 10
63.4189
 20
96.4016
  0
VERTEX
  8
LAYER_2
 10
63.2149
 20
96.4016
  0
SEQEND
  0
POLYLINE
  8
LAYER_2
 40
0.2046
 41
0.2046
 66
1
 10
0
 20
0
 30
0
  0
VERTEX
  8
LAYER_2
 10
63.3374
 20
96.4832
  0
VERTEX
  8
LAYER_2
 10
63.3374
 20
96.2791
  0
SEQEND
  0
POLYLINE
  8
LAYER_2
 40
0.2046
 41
0.2046
 66
1
 10
0
 20
0
 30
0
  0
VERTEX
  8
LAYER_2
 10
90.835
 20
95.3816
  0
VERTEX
  8
LAYER_2
 10
91.7734
 20
95.3816
  0
SEQEND
  0
POLYLINE
  8
LAYER_2
 40
0.2046
 41
0.2046
 66
1
 10
0
 20
0
 30
0
  0
VERTEX
  8
LAYER_2
 10
91.8142
 20
97.3807
  0
VERTEX
  8
LAYER_2
 10
90.8351
 20
97.3807
  0
SEQEND
  0
POLYLINE
  8
LAYER_2
 40
0.2046
 41
0.2046
 66
1
 10
0
 20
0
 30
0
  0
VERTEX
  8
LAYER_2
 10
90.8273
 20
97.4215
 42
0.2703065937
  0
VERTEX
  8
LAYER_2
 10
89.9513
 20
96.9253
 42
0.2706519523
  0
VERTEX
  8
LAYER_2
 10
89.9513
 20
95.9188
 42
0.2703326379
  0
VERTEX
  8
LAYER_2
 10
90.8273
 20
95.4226
  0
SEQEND
  0
POLYLINE
  8
LAYER_2
 40
0.2046
 41
0.2046
 66
1
 10
0
 20
0
 30
0
  0
VERTEX
  8
LAYER_2
 10
91.8169
 20
95.4226
 42
0.2697351478
  0
VERTEX
  8
LAYER_2
 10
92.6946
 20
95.9126
 42
0.2695903558
  0
VERTEX
  8
LAYER_2
 10
92.7025
 20
96.9182
 42
0.2697104832
  0
VERTEX
  8
LAYER_2
 10
91.8318
 20
97.4215
  0
SEQEND
  0
POLYLINE
  8
LAYER_2
 40
0.2046
 41
0.2046
 66
1
 10
0
 20
0
 30
0
  0
VERTEX
  8
LAYER_2
 10
91.4062
 20
96.4016
  0
VERTEX
  8
LAYER_2
 10
91.2022
 20
96.4016
  0
SEQEND
  0
POLYLINE
  8
LAYER_2
 40
0.2046
 41
0.2046
 66
1
 10
0
 20
0
 30
0
  0
VERTEX
  8
LAYER_2
 10
91.3246
 20
96.4832
  0
VERTEX
  8
LAYER_2
 10
91.3246
 20
96.2791
  0
SEQEND
  0
POLYLINE
  8
LAYER_2
 40
0.1023
 41
0.1023
 66
1
 10
0
 20
0
 30
0
  0
VERTEX
  8
LAYER_2
 10
35.3501
 20
96.32
  0
VERTEX
  8
LAYER_2
 10
35.3501
 20
96.2793
  0
SEQEND
  0
POLYLINE
  8
LAYER_2
 40
0.1023
 41
0.1023
 66
1
 10
0
 20
0
 30
0
  0
VERTEX
  8
LAYER_2
 10
63.3374
 20
96.4424
  0
VERTEX
  8
LAYER_2
 10
63.3374
 20
96.2791
  0
SEQEND
  0
POLYLINE
  8
LAYER_2
 40
0.1023
 41
0.1023
 66
1
 10
0
 20
0
 30
0
  0
VERTEX
  8
LAYER_2
 10
36.8596
 20
96.4016
  0
VERTEX
  8
LAYER_2
 10
45.8351
 20
96.4016
  0
SEQEND
  0
POLYLINE
  8
LAYER_2
 40
0.1023
 41
0.1023
 66
1
 10
0
 20
0
 30
0
  0
VERTEX
  8
LAYER_2
 10
61.8278
 20
96.4016
  0
VERTEX
  8
LAYER_2
 10
52.8116
 20
96.4016
  0
SEQEND
  0
POLYLINE
  8
LAYER_2
 40
0.05
 41
0.05
 66
1
 10
0
 20
0
 30
0
 70
1
  0
VERTEX
  8
LAYER_2
 10
36.8596
 20
96.6464
  0
VERTEX
  8
LAYER_2
 10
36.8596
 20
96.1568
  0
VERTEX
  8
LAYER_2
 10
35.3503
 20
96.4016
  0
SEQEND
  0
POLYLINE
  8
LAYER_2
 66
1
 10
0
 20
0
 30
0
 70
1
  0
VERTEX
  8
LAYER_2
 10
36.8596
 20
96.6464
  0
VERTEX
  8
LAYER_2
 10
36.8596
 20
96.1568
  0
VERTEX
  8
LAYER_2
 10
35.3503
 20
96.4016
  0
SEQEND
  0
POLYLINE
  8
LAYER_2
 40
0.05
 41
0.05
 66
1
 10
0
 20
0
 30
0
 70
1
  0
VERTEX
  8
LAYER_2
 10
61.8278
 20
96.6464
  0
VERTEX
  8
LAYER_2
 10
61.8278
 20
96.1568
  0
VERTEX
  8
LAYER_2
 10
63.3372
 20
96.4016
  0
SEQEND
  0
POLYLINE
  8
LAYER_2
 66
1
 10
0
 20
0
 30
0
 70
1
  0
VERTEX
  8
LAYER_2
 10
61.8278
 20
96.6464
  0
VERTEX
  8
LAYER_2
 10
61.8278
 20
96.1568
  0
VERTEX
  8
LAYER_2
 10
63.3372
 20
96.4016
  0
SEQEND
  0
TEXT
  8
LAYER_2
 10
46.3129
 20
95.1776
 11
46.3129
 21
95.1776
 40
3.7001
 41
0.5
  1
280
  0
POLYLINE
  8
LAYER_2
 40
0.1023
 41
0.1023
 66
1
 10
0
 20
0
 30
0
  0
VERTEX
  8
LAYER_2
 10
91.3246
 20
96.32
  0
VERTEX
  8
LAYER_2
 10
91.3246
 20
96.2793
  0
SEQEND
  0
POLYLINE
  8
LAYER_2
 40
0.1023
 41
0.1023
 66
1
 10
0
 20
0
 30
0
  0
VERTEX
  8
LAYER_2
 10
63.3374
 20
96.4424
  0
VERTEX
  8
LAYER_2
 10
63.3374
 20
96.2791
  0
SEQEND
  0
POLYLINE
  8
LAYER_2
 40
0.1023
 41
0.1023
 66
1
 10
0
 20
0
 30
0
  0
VERTEX
  8
LAYER_2
 10
89.8151
 20
96.4016
  0
VERTEX
  8
LAYER_2
 10
80.7989
 20
96.4016
  0
SEQEND
  0
POLYLINE
  8
LAYER_2
 40
0.1023
 41
0.1023
 66
1
 10
0
 20
0
 30
0
  0
VERTEX
  8
LAYER_2
 10
64.8469
 20
96.4016
  0
VERTEX
  8
LAYER_2
 10
73.8224
 20
96.4016
  0
SEQEND
  0
POLYLINE
  8
LAYER_2
 40
0.05
 41
0.05
 66
1
 10
0
 20
0
 30
0
 70
1
  0
VERTEX
  8
LAYER_2
 10
89.8151
 20
96.6464
  0
VERTEX
  8
LAYER_2
 10
89.8151
 20
96.1568
  0
VERTEX
  8
LAYER_2
 10
91.3245
 20
96.4016
  0
SEQEND
  0
POLYLINE
  8
LAYER_2
 66
1
 10
0
 20
0
 30
0
 70
1
  0
VERTEX
  8
LAYER_2
 10
89.8151
 20
96.6464
  0
VERTEX
  8
LAYER_2
 10
89.8151
 20
96.1568
  0
VERTEX
  8
LAYER_2
 10
91.3245
 20
96.4016
  0
SEQEND
  0
POLYLINE
  8
LAYER_2
 40
0.05
 41
0.05
 66
1
 10
0
 20
0
 30
0
 70
1
  0
VERTEX
  8
LAYER_2
 10
64.8469
 20
96.6464
  0
VERTEX
  8
LAYER_2
 10
64.8469
 20
96.1568
  0
VERTEX
  8
LAYER_2
 10
63.3375
 20
96.4016
  0
SEQEND
  0
POLYLINE
  8
LAYER_2
 66
1
 10
0
 20
0
 30
0
 70
1
  0
VERTEX
  8
LAYER_2
 10
64.8469
 20
96.6464
  0
VERTEX
  8
LAYER_2
 10
64.8469
 20
96.1568
  0
VERTEX
  8
LAYER_2
 10
63.3375
 20
96.4016
  0
SEQEND
  0
TEXT
  8
LAYER_2
 10
74.8205
 20
95.1776
 11
74.8205
 21
95.1776
 40
3.7001
 41
0.5
  1
280
  0
POLYLINE
  8
LAYER_2
 40
0.0882
 41
0.0882
 66
1
 10
0
 20
0
 30
0
  0
VERTEX
  8
LAYER_2
 10
101.1161
 20
85.3454
  0
VERTEX
  8
LAYER_2
 10
101.0754
 20
86.039
  0
SEQEND
  0
POLYLINE
  8
LAYER_2
 40
0.0882
 41
0.0882
 66
1
 10
0
 20
0
 30
0
  0
VERTEX
  8
LAYER_2
 10
101.0753
 20
86.3653
  0
VERTEX
  8
LAYER_2
 10
101.0346
 20
86.9775
  0
SEQEND
  0
POLYLINE
  8
LAYER_2
 40
0.0882
 41
0.0882
 66
1
 10
0
 20
0
 30
0
  0
VERTEX
  8
LAYER_2
 10
100.9937
 20
87.3037
  0
VERTEX
  8
LAYER_2
 10
100.9937
 20
87.9158
  0
SEQEND
  0
POLYLINE
  8
LAYER_2
 40
0.0882
 41
0.0882
 66
1
 10
0
 20
0
 30
0
  0
VERTEX
  8
LAYER_2
 10
100.9529
 20
88.2421
  0
VERTEX
  8
LAYER_2
 10
100.9122
 20
88.8949
  0
SEQEND
  0
POLYLINE
  8
LAYER_2
 40
0.0882
 41
0.0882
 66
1
 10
0
 20
0
 30
0
  0
VERTEX
  8
LAYER_2
 10
100.9121
 20
89.2212
  0
VERTEX
  8
LAYER_2
 10
100.8714
 20
89.8333
  0
SEQEND
  0
POLYLINE
  8
LAYER_2
 40
0.0882
 41
0.0882
 66
1
 10
0
 20
0
 30
0
  0
VERTEX
  8
LAYER_2
 10
100.8305
 20
90.1595
  0
VERTEX
  8
LAYER_2
 10
100.7898
 20
90.7717
  0
SEQEND
  0
POLYLINE
  8
LAYER_2
 40
0.0882
 41
0.0882
 66
1
 10
0
 20
0
 30
0
  0
VERTEX
  8
LAYER_2
 10
100.7897
 20
91.0979
  0
VERTEX
  8
LAYER_2
 10
100.749
 20
91.7508
  0
SEQEND
  0
POLYLINE
  8
LAYER_2
 40
0.0882
 41
0.0882
 66
1
 10
0
 20
0
 30
0
  0
VERTEX
  8
LAYER_2
 10
100.7081
 20
92.0362
  0
VERTEX
  8
LAYER_2
 10
100.7081
 20
92.6891
  0
SEQEND
  0
POLYLINE
  8
LAYER_2
 40
0.0882
 41
0.0882
 66
1
 10
0
 20
0
 30
0
  0
VERTEX
  8
LAYER_2
 10
100.6673
 20
93.0154
  0
VERTEX
  8
LAYER_2
 10
100.6266
 20
93.6275
  0
SEQEND
  0
POLYLINE
  8
LAYER_2
 40
0.0882
 41
0.0882
 66
1
 10
0
 20
0
 30
0
  0
VERTEX
  8
LAYER_2
 10
100.6265
 20
93.9537
  0
VERTEX
  8
LAYER_2
 10
100.5858
 20
94.6066
  0
SEQEND
  0
POLYLINE
  8
LAYER_2
 40
0.0882
 41
0.0882
 66
1
 10
0
 20
0
 30
0
  0
VERTEX
  8
LAYER_2
 10
100.5449
 20
94.8921
  0
VERTEX
  8
LAYER_2
 10
100.5042
 20
95.5449
  0
SEQEND
  0
POLYLINE
  8
LAYER_2
 40
0.0882
 41
0.0882
 66
1
 10
0
 20
0
 30
0
  0
VERTEX
  8
LAYER_2
 10
100.5041
 20
95.8712
  0
VERTEX
  8
LAYER_2
 10
100.4634
 20
96.4834
  0
SEQEND
  0
POLYLINE
  8
LAYER_2
 40
0.0882
 41
0.0882
 66
1
 10
0
 20
0
 30
0
  0
VERTEX
  8
LAYER_2
 10
100.4225
 20
96.8095
  0
VERTEX
  8
LAYER_2
 10
100.4225
 20
97.4217
  0
SEQEND
  0
POLYLINE
  8
LAYER_2
 40
0.0882
 41
0.0882
 66
1
 10
0
 20
0
 30
0
  0
VERTEX
  8
LAYER_2
 10
100.3817
 20
97.7479
  0
VERTEX
  8
LAYER_2
 10
100.341
 20
98.4415
  0
SEQEND
  0
POLYLINE
  8
LAYER_2
 40
0.0882
 41
0.0882
 66
1
 10
0
 20
0
 30
0
  0
VERTEX
  8
LAYER_2
 10
101.1161
 20
85.3454
  0
VERTEX
  8
LAYER_2
 10
101.2383
 20
85.1006
  0
VERTEX
  8
LAYER_2
 10
101.3609
 20
84.8966
  0
VERTEX
  8
LAYER_2
 10
101.4423
 20
84.8151
  0
SEQEND
  0
POLYLINE
  8
LAYER_2
 40
0.0882
 41
0.0882
 66
1
 10
0
 20
0
 30
0
  0
VERTEX
  8
LAYER_2
 10
101.6464
 20
84.611
  0
VERTEX
  8
LAYER_2
 10
101.7279
 20
84.5703
  0
VERTEX
  8
LAYER_2
 10
101.9727
 20
84.4477
  0
VERTEX
  8
LAYER_2
 10
102.2174
 20
84.407
  0
SEQEND
  0
POLYLINE
  8
LAYER_2
 40
0.1023
 41
0.1023
 66
1
 10
0
 20
0
 30
0
  0
VERTEX
  8
LAYER_2
 10
35.1869
 20
96.4016
  0
VERTEX
  8
LAYER_2
 10
32.4126
 20
96.4016
  0
SEQEND
  0
POLYLINE
  8
LAYER_2
 40
0.1023
 41
0.1023
 66
1
 10
0
 20
0
 30
0
  0
VERTEX
  8
LAYER_2
 10
35.1869
 20
104.3979
  0
VERTEX
  8
LAYER_2
 10
32.4126
 20
104.3979
  0
SEQEND
  0
POLYLINE
  8
LAYER_2
 40
0.1023
 41
0.1023
 66
1
 10
0
 20
0
 30
0
  0
VERTEX
  8
LAYER_2
 10
32.5759
 20
105.9075
  0
VERTEX
  8
LAYER_2
 10
32.5759
 20
107.3761
  0
SEQEND
  0
POLYLINE
  8
LAYER_2
 40
0.1023
 41
0.1023
 66
1
 10
0
 20
0
 30
0
  0
VERTEX
  8
LAYER_2
 10
32.5759
 20
96.4016
  0
VERTEX
  8
LAYER_2
 10
32.5759
 20
97.8702
  0
SEQEND
  0
POLYLINE
  8
LAYER_2
 40
0.1023
 41
0.1023
 66
1
 10
0
 20
0
 30
0
  0
VERTEX
  8
LAYER_2
 10
32.5759
 20
104.3979
  0
VERTEX
  8
LAYER_2
 10
32.5759
 20
102.8886
  0
SEQEND
  0
POLYLINE
  8
LAYER_2
 40
0.05
 41
0.05
 66
1
 10
0
 20
0
 30
0
 70
1
  0
VERTEX
  8
LAYER_2
 10
32.2903
 20
105.9075
  0
VERTEX
  8
LAYER_2
 10
32.8206
 20
105.9075
  0
VERTEX
  8
LAYER_2
 10
32.5758
 20
104.3981
  0
SEQEND
  0
POLYLINE
  8
LAYER_2
 66
1
 10
0
 20
0
 30
0
 70
1
  0
VERTEX
  8
LAYER_2
 10
32.2903
 20
105.9075
  0
VERTEX
  8
LAYER_2
 10
32.8206
 20
105.9075
  0
VERTEX
  8
LAYER_2
 10
32.5758
 20
104.3981
  0
SEQEND
  0
TEXT
  8
LAYER_2
 10
33.9077
 20
98.576
 11
33.9077
 21
98.576
 40
3.7001
 41
0.5
 50
89.99999999
  1
80
  0
POLYLINE
  8
LAYER_2
 40
0.0882
 41
0.0882
 66
1
 10
0
 20
0
 30
0
  0
VERTEX
  8
LAYER_2
 10
183.9356
 20
104.3979
  0
VERTEX
  8
LAYER_2
 10
183.9356
 20
103.9899
  0
SEQEND
  0
POLYLINE
  8
LAYER_2
 40
0.0882
 41
0.0882
 66
1
 10
0
 20
0
 30
0
  0
VERTEX
  8
LAYER_2
 10
183.9356
 20
103.7044
  0
VERTEX
  8
LAYER_2
 10
183.9356
 20
103.0515
  0
SEQEND
  0
POLYLINE
  8
LAYER_2
 40
0.0882
 41
0.0882
 66
1
 10
0
 20
0
 30
0
  0
VERTEX
  8
LAYER_2
 10
183.9356
 20
102.7252
  0
VERTEX
  8
LAYER_2
 10
183.9356
 20
102.1131
  0
SEQEND
  0
POLYLINE
  8
LAYER_2
 40
0.0882
 41
0.0882
 66
1
 10
0
 20
0
 30
0
  0
VERTEX
  8
LAYER_2
 10
183.9356
 20
101.7869
  0
VERTEX
  8
LAYER_2
 10
183.9356
 20
101.3788
  0
SEQEND
  0
POLYLINE
  8
LAYER_2
 40
0.0882
 41
0.0882
 66
1
 10
0
 20
0
 30
0
  0
VERTEX
  8
LAYER_2
 10
182.9157
 20
100.3998
  0
VERTEX
  8
LAYER_2
 10
183.1197
 20
100.3998
  0
VERTEX
  8
LAYER_2
 10
183.2831
 20
100.4405
  0
VERTEX
  8
LAYER_2
 10
183.446
 20
100.5224
  0
VERTEX
  8
LAYER_2
 10
183.5278
 20
100.6038
  0
SEQEND
  0
POLYLINE
  8
LAYER_2
 40
0.0882
 41
0.0882
 66
1
 10
0
 20
0
 30
0
  0
VERTEX
  8
LAYER_2
 10
183.7317
 20
100.8077
  0
VERTEX
  8
LAYER_2
 10
183.7724
 20
100.8892
  0
VERTEX
  8
LAYER_2
 10
183.8543
 20
101.0525
  0
VERTEX
  8
LAYER_2
 10
183.895
 20
101.2158
  0
VERTEX
  8
LAYER_2
 10
183.9357
 20
101.3787
  0
SEQEND
  0
POLYLINE
  8
LAYER_2
 40
0.0882
 41
0.0882
 66
1
 10
0
 20
0
 30
0
  0
VERTEX
  8
LAYER_2
 10
182.9157
 20
100.3998
  0
VERTEX
  8
LAYER_2
 10
182.5076
 20
100.3998
  0
SEQEND
  0
POLYLINE
  8
LAYER_2
 40
0.0882
 41
0.0882
 66
1
 10
0
 20
0
 30
0
  0
VERTEX
  8
LAYER_2
 10
182.1813
 20
100.3998
  0
VERTEX
  8
LAYER_2
 10
181.5692
 20
100.3998
  0
SEQEND
  0
POLYLINE
  8
LAYER_2
 40
0.0882
 41
0.0882
 66
1
 10
0
 20
0
 30
0
  0
VERTEX
  8
LAYER_2
 10
181.243
 20
100.3998
  0
VERTEX
  8
LAYER_2
 10
180.5901
 20
100.3998
  0
SEQEND
  0
POLYLINE
  8
LAYER_2
 40
0.0882
 41
0.0882
 66
1
 10
0
 20
0
 30
0
  0
VERTEX
  8
LAYER_2
 10
180.3047
 20
100.3998
  0
VERTEX
  8
LAYER_2
 10
179.6518
 20
100.3998
  0
SEQEND
  0
POLYLINE
  8
LAYER_2
 40
0.0882
 41
0.0882
 66
1
 10
0
 20
0
 30
0
  0
VERTEX
  8
LAYER_2
 10
179.3255
 20
100.3998
  0
VERTEX
  8
LAYER_2
 10
178.7134
 20
100.3998
  0
SEQEND
  0
POLYLINE
  8
LAYER_2
 40
0.0882
 41
0.0882
 66
1
 10
0
 20
0
 30
0
  0
VERTEX
  8
LAYER_2
 10
178.3871
 20
100.3998
  0
VERTEX
  8
LAYER_2
 10
177.7343
 20
100.3998
  0
SEQEND
  0
POLYLINE
  8
LAYER_2
 40
0.0882
 41
0.0882
 66
1
 10
0
 20
0
 30
0
  0
VERTEX
  8
LAYER_2
 10
177.4488
 20
100.3998
  0
VERTEX
  8
LAYER_2
 10
176.796
 20
100.3998
  0
SEQEND
  0
POLYLINE
  8
LAYER_2
 40
0.0882
 41
0.0882
 66
1
 10
0
 20
0
 30
0
  0
VERTEX
  8
LAYER_2
 10
176.4697
 20
100.3998
  0
VERTEX
  8
LAYER_2
 10
175.8575
 20
100.3998
  0
SEQEND
  0
POLYLINE
  8
LAYER_2
 40
0.0882
 41
0.0882
 66
1
 10
0
 20
0
 30
0
  0
VERTEX
  8
LAYER_2
 10
175.5313
 20
100.3998
  0
VERTEX
  8
LAYER_2
 10
174.8784
 20
100.3998
  0
SEQEND
  0
POLYLINE
  8
LAYER_2
 40
0.0882
 41
0.0882
 66
1
 10
0
 20
0
 30
0
  0
VERTEX
  8
LAYER_2
 10
174.593
 20
100.3998
  0
VERTEX
  8
LAYER_2
 10
173.9401
 20
100.3998
  0
SEQEND
  0
POLYLINE
  8
LAYER_2
 40
0.0882
 41
0.0882
 66
1
 10
0
 20
0
 30
0
  0
VERTEX
  8
LAYER_2
 10
173.6138
 20
100.3998
  0
VERTEX
  8
LAYER_2
 10
173.0017
 20
100.3998
  0
SEQEND
  0
POLYLINE
  8
LAYER_2
 40
0.0882
 41
0.0882
 66
1
 10
0
 20
0
 30
0
  0
VERTEX
  8
LAYER_2
 10
172.6755
 20
100.3998
  0
VERTEX
  8
LAYER_2
 10
172.0226
 20
100.3998
  0
SEQEND
  0
POLYLINE
  8
LAYER_2
 40
0.0882
 41
0.0882
 66
1
 10
0
 20
0
 30
0
  0
VERTEX
  8
LAYER_2
 10
171.7371
 20
100.3998
  0
VERTEX
  8
LAYER_2
 10
171.0843
 20
100.3998
  0
SEQEND
  0
POLYLINE
  8
LAYER_2
 40
0.0882
 41
0.0882
 66
1
 10
0
 20
0
 30
0
  0
VERTEX
  8
LAYER_2
 10
170.758
 20
100.3998
  0
VERTEX
  8
LAYER_2
 10
170.1458
 20
100.3998
  0
SEQEND
  0
POLYLINE
  8
LAYER_2
 40
0.0882
 41
0.0882
 66
1
 10
0
 20
0
 30
0
  0
VERTEX
  8
LAYER_2
 10
169.8196
 20
100.3998
  0
VERTEX
  8
LAYER_2
 10
169.1667
 20
100.3998
  0
SEQEND
  0
POLYLINE
  8
LAYER_2
 40
0.0882
 41
0.0882
 66
1
 10
0
 20
0
 30
0
  0
VERTEX
  8
LAYER_2
 10
168.8813
 20
100.3998
  0
VERTEX
  8
LAYER_2
 10
168.2284
 20
100.3998
  0
SEQEND
  0
POLYLINE
  8
LAYER_2
 40
0.0882
 41
0.0882
 66
1
 10
0
 20
0
 30
0
  0
VERTEX
  8
LAYER_2
 10
167.9021
 20
100.3998
  0
VERTEX
  8
LAYER_2
 10
167.29
 20
100.3998
  0
SEQEND
  0
POLYLINE
  8
LAYER_2
 40
0.0882
 41
0.0882
 66
1
 10
0
 20
0
 30
0
  0
VERTEX
  8
LAYER_2
 10
166.9638
 20
100.3998
  0
VERTEX
  8
LAYER_2
 10
166.3109
 20
100.3998
  0
SEQEND
  0
POLYLINE
  8
LAYER_2
 40
0.0882
 41
0.0882
 66
1
 10
0
 20
0
 30
0
  0
VERTEX
  8
LAYER_2
 10
166.0255
 20
100.3998
  0
VERTEX
  8
LAYER_2
 10
165.3726
 20
100.3998
  0
SEQEND
  0
POLYLINE
  8
LAYER_2
 40
0.0882
 41
0.0882
 66
1
 10
0
 20
0
 30
0
  0
VERTEX
  8
LAYER_2
 10
165.0463
 20
100.3998
  0
VERTEX
  8
LAYER_2
 10
164.4342
 20
100.3998
  0
SEQEND
  0
POLYLINE
  8
LAYER_2
 40
0.0882
 41
0.0882
 66
1
 10
0
 20
0
 30
0
  0
VERTEX
  8
LAYER_2
 10
164.1079
 20
100.3998
  0
VERTEX
  8
LAYER_2
 10
163.4551
 20
100.3998
  0
SEQEND
  0
POLYLINE
  8
LAYER_2
 40
0.0882
 41
0.0882
 66
1
 10
0
 20
0
 30
0
  0
VERTEX
  8
LAYER_2
 10
163.1696
 20
100.3998
  0
VERTEX
  8
LAYER_2
 10
162.5167
 20
100.3998
  0
SEQEND
  0
POLYLINE
  8
LAYER_2
 40
0.0882
 41
0.0882
 66
1
 10
0
 20
0
 30
0
  0
VERTEX
  8
LAYER_2
 10
162.1904
 20
100.3998
  0
VERTEX
  8
LAYER_2
 10
161.5783
 20
100.3998
  0
SEQEND
  0
POLYLINE
  8
LAYER_2
 40
0.0882
 41
0.0882
 66
1
 10
0
 20
0
 30
0
  0
VERTEX
  8
LAYER_2
 10
161.2521
 20
100.3998
  0
VERTEX
  8
LAYER_2
 10
160.5992
 20
100.3998
  0
SEQEND
  0
POLYLINE
  8
LAYER_2
 40
0.0882
 41
0.0882
 66
1
 10
0
 20
0
 30
0
  0
VERTEX
  8
LAYER_2
 10
160.3138
 20
100.3998
  0
VERTEX
  8
LAYER_2
 10
159.9057
 20
100.3998
  0
SEQEND
  0
POLYLINE
  8
LAYER_2
 40
0.2646
 41
0.2646
 66
1
 10
0
 20
0
 30
0
  0
VERTEX
  8
LAYER_2
 10
135.2231
 20
100.3998
  0
VERTEX
  8
LAYER_2
 10
159.8648
 20
100.3998
  0
VERTEX
  8
LAYER_2
 10
179.8965
 20
104.3573
  0
SEQEND
  0
POLYLINE
  8
LAYER_2
 40
0.2646
 41
0.2646
 66
1
 10
0
 20
0
 30
0
  0
VERTEX
  8
LAYER_2
 10
180.0792
 20
104.3967
  0
VERTEX
  8
LAYER_2
 10
179.9404
 20
104.3747
  0
SEQEND
  0
POLYLINE
  8
LAYER_2
 40
0.2646
 41
0.2646
 66
1
 10
0
 20
0
 30
0
  0
VERTEX
  8
LAYER_2
 10
180.0598
 20
104.3979
  0
VERTEX
  8
LAYER_2
 10
184.629
 20
104.3979
  0
SEQEND
  0
POLYLINE
  8
LAYER_2
 40
0.2646
 41
0.2646
 66
1
 10
0
 20
0
 30
0
  0
VERTEX
  8
LAYER_2
 10
184.9556
 20
104.1324
 42
0.1986876899
  0
VERTEX
  8
LAYER_2
 10
184.8662
 20
104.3489
 42
0.1985458824
  0
VERTEX
  8
LAYER_2
 10
184.6497
 20
104.4387
  0
SEQEND
  0
POLYLINE
  8
LAYER_2
 40
0.2646
 41
0.2646
 66
1
 10
0
 20
0
 30
0
  0
VERTEX
  8
LAYER_2
 10
184.9148
 20
104.1123
  0
VERTEX
  8
LAYER_2
 10
184.9148
 20
84.652
  0
SEQEND
  0
POLYLINE
  8
LAYER_2
 40
0.0882
 41
0.0882
 66
1
 10
0
 20
0
 30
0
  0
VERTEX
  8
LAYER_2
 10
180.4148
 20
102.562
  0
VERTEX
  8
LAYER_2
 10
180.4148
 20
97.6498
  0
SEQEND
  0
POLYLINE
  8
LAYER_2
 40
0.2646
 41
0.2646
 66
1
 10
0
 20
0
 30
0
  0
VERTEX
  8
LAYER_2
 10
184.7948
 20
84.4292
 42
0.2360135694
  0
VERTEX
  8
LAYER_2
 10
184.9149
 20
84.6748
  0
SEQEND
  0
POLYLINE
  8
LAYER_2
 40
0.2646
 41
0.2646
 66
1
 10
0
 20
0
 30
0
  0
VERTEX
  8
LAYER_2
 10
184.7924
 20
84.407
  0
VERTEX
  8
LAYER_2
 10
134.7336
 20
84.407
  0
VERTEX
  8
LAYER_2
 10
134.9377
 20
100.0732
  0
SEQEND
  0
POLYLINE
  8
LAYER_2
 40
0.2646
 41
0.2646
 66
1
 10
0
 20
0
 30
0
  0
VERTEX
  8
LAYER_2
 10
135.2845
 20
100.3998
 42
0.4134850629
  0
VERTEX
  8
LAYER_2
 10
134.9782
 20
100.0939
  0
SEQEND
  0
POLYLINE
  8
LAYER_2
 40
0.2646
 41
0.2646
 66
1
 10
0
 20
0
 30
0
  0
VERTEX
  8
LAYER_2
 10
135.2639
 20
100.3998
  0
VERTEX
  8
LAYER_2
 10
159.9056
 20
100.3998
  0
SEQEND
  0
POLYLINE
  8
LAYER_2
 40
0.2046
 41
0.2046
 66
1
 10
0
 20
0
 30
0
  0
VERTEX
  8
LAYER_2
 10
135.7943
 20
100.3998
  0
SEQEND
  0
POLYLINE
  8
LAYER_2
 40
0.2046
 41
0.2046
 66
1
 10
0
 20
0
 30
0
  0
VERTEX
  8
LAYER_2
 10
134.9376
 20
100.0734
  0
SEQEND
  0
POLYLINE
  8
LAYER_2
 40
0.2046
 41
0.2046
 66
1
 10
0
 20
0
 30
0
  0
VERTEX
  8
LAYER_2
 10
159.9058
 20
100.3998
  0
SEQEND
  0
POLYLINE
  8
LAYER_2
 40
0.2046
 41
0.2046
 66
1
 10
0
 20
0
 30
0
  0
VERTEX
  8
LAYER_2
 10
134.9376
 20
99.3798
  0
SEQEND
  0
POLYLINE
  8
LAYER_2
 40
0.0882
 41
0.0882
 66
1
 10
0
 20
0
 30
0
  0
VERTEX
  8
LAYER_2
 10
159.253
 20
81.8776
  0
VERTEX
  8
LAYER_2
 10
159.253
 20
77.7572
  0
SEQEND
  0
POLYLINE
  8
LAYER_2
 40
0.0882
 41
0.0882
 66
1
 10
0
 20
0
 30
0
  0
VERTEX
  8
LAYER_2
 10
184.9148
 20
82.7346
  0
VERTEX
  8
LAYER_2
 10
184.9148
 20
77.7571
  0
SEQEND
  0
POLYLINE
  8
LAYER_2
 40
0.0882
 41
0.0882
 66
1
 10
0
 20
0
 30
0
  0
VERTEX
  8
LAYER_2
 10
160.7217
 20
77.8794
  0
VERTEX
  8
LAYER_2
 10
169.2484
 20
77.8794
  0
SEQEND
  0
POLYLINE
  8
LAYER_2
 40
0.0882
 41
0.0882
 66
1
 10
0
 20
0
 30
0
  0
VERTEX
  8
LAYER_2
 10
183.4461
 20
77.8794
  0
VERTEX
  8
LAYER_2
 10
174.9194
 20
77.8794
  0
SEQEND
  0
POLYLINE
  8
LAYER_2
 40
0.05
 41
0.05
 66
1
 10
0
 20
0
 30
0
 70
1
  0
VERTEX
  8
LAYER_2
 10
160.7217
 20
78.1242
  0
VERTEX
  8
LAYER_2
 10
160.7217
 20
77.6347
  0
VERTEX
  8
LAYER_2
 10
159.2531
 20
77.8794
  0
SEQEND
  0
POLYLINE
  8
LAYER_2
 66
1
 10
0
 20
0
 30
0
 70
1
  0
VERTEX
  8
LAYER_2
 10
160.7217
 20
78.1242
  0
VERTEX
  8
LAYER_2
 10
160.7217
 20
77.6347
  0
VERTEX
  8
LAYER_2
 10
159.2531
 20
77.8794
  0
SEQEND
  0
POLYLINE
  8
LAYER_2
 40
0.05
 41
0.05
 66
1
 10
0
 20
0
 30
0
 70
1
  0
VERTEX
  8
LAYER_2
 10
183.4461
 20
78.1242
  0
VERTEX
  8
LAYER_2
 10
183.4461
 20
77.6347
  0
VERTEX
  8
LAYER_2
 10
184.9147
 20
77.8794
  0
SEQEND
  0
POLYLINE
  8
LAYER_2
 66
1
 10
0
 20
0
 30
0
 70
1
  0
VERTEX
  8
LAYER_2
 10
183.4461
 20
78.1242
  0
VERTEX
  8
LAYER_2
 10
183.4461
 20
77.6347
  0
VERTEX
  8
LAYER_2
 10
184.9147
 20
77.8794
  0
SEQEND
  0
TEXT
  8
LAYER_2
 10
169.2078
 20
76.6554
 11
169.2078
 21
76.6554
 40
3.7001
 41
0.5
  1
255
  0
POLYLINE
  8
LAYER_2
 40
0.0882
 41
0.0882
 66
1
 10
0
 20
0
 30
0
  0
VERTEX
  8
LAYER_2
 10
133.8824
 20
100.3998
  0
VERTEX
  8
LAYER_2
 10
131.3528
 20
100.3998
  0
SEQEND
  0
POLYLINE
  8
LAYER_2
 40
0.0882
 41
0.0882
 66
1
 10
0
 20
0
 30
0
  0
VERTEX
  8
LAYER_2
 10
133.8348
 20
84.407
  0
VERTEX
  8
LAYER_2
 10
131.353
 20
84.407
  0
SEQEND
  0
POLYLINE
  8
LAYER_2
 40
0.0882
 41
0.0882
 66
1
 10
0
 20
0
 30
0
  0
VERTEX
  8
LAYER_2
 10
131.4753
 20
98.8902
  0
VERTEX
  8
LAYER_2
 10
131.4753
 20
95.0961
  0
SEQEND
  0
POLYLINE
  8
LAYER_2
 40
0.0882
 41
0.0882
 66
1
 10
0
 20
0
 30
0
  0
VERTEX
  8
LAYER_2
 10
131.4753
 20
85.9166
  0
VERTEX
  8
LAYER_2
 10
131.4753
 20
89.7107
  0
SEQEND
  0
POLYLINE
  8
LAYER_2
 40
0.05
 41
0.05
 66
1
 10
0
 20
0
 30
0
 70
1
  0
VERTEX
  8
LAYER_2
 10
131.2305
 20
98.8902
  0
VERTEX
  8
LAYER_2
 10
131.72
 20
98.8902
  0
VERTEX
  8
LAYER_2
 10
131.4752
 20
100.3996
  0
SEQEND
  0
POLYLINE
  8
LAYER_2
 66
1
 10
0
 20
0
 30
0
 70
1
  0
VERTEX
  8
LAYER_2
 10
131.2305
 20
98.8902
  0
VERTEX
  8
LAYER_2
 10
131.72
 20
98.8902
  0
VERTEX
  8
LAYER_2
 10
131.4752
 20
100.3996
  0
SEQEND
  0
POLYLINE
  8
LAYER_2
 40
0.05
 41
0.05
 66
1
 10
0
 20
0
 30
0
 70
1
  0
VERTEX
  8
LAYER_2
 10
131.2305
 20
85.9166
  0
VERTEX
  8
LAYER_2
 10
131.72
 20
85.9166
  0
VERTEX
  8
LAYER_2
 10
131.4752
 20
84.4072
  0
SEQEND
  0
POLYLINE
  8
LAYER_2
 66
1
 10
0
 20
0
 30
0
 70
1
  0
VERTEX
  8
LAYER_2
 10
131.2305
 20
85.9166
  0
VERTEX
  8
LAYER_2
 10
131.72
 20
85.9166
  0
VERTEX
  8
LAYER_2
 10
131.4752
 20
84.4072
  0
SEQEND
  0
TEXT
  8
LAYER_2
 10
132.7402
 20
89.3847
 11
132.7402
 21
89.3847
 40
3.7001
 41
0.5
 50
89.99999999
  1
160
  0
POLYLINE
  8
LAYER_2
 40
0.0882
 41
0.0882
 66
1
 10
0
 20
0
 30
0
  0
VERTEX
  8
LAYER_2
 10
180.0598
 20
104.4387
  0
VERTEX
  8
LAYER_2
 10
180.0598
 20
106.4376
  0
SEQEND
  0
POLYLINE
  8
LAYER_2
 40
0.0882
 41
0.0882
 66
1
 10
0
 20
0
 30
0
  0
VERTEX
  8
LAYER_2
 10
184.9148
 20
104.5203
  0
VERTEX
  8
LAYER_2
 10
184.9148
 20
106.4378
  0
SEQEND
  0
POLYLINE
  8
LAYER_2
 40
0.0882
 41
0.0882
 66
1
 10
0
 20
0
 30
0
  0
VERTEX
  8
LAYER_2
 10
178.5503
 20
106.2747
  0
VERTEX
  8
LAYER_2
 10
177.041
 20
106.2747
  0
SEQEND
  0
POLYLINE
  8
LAYER_2
 40
0.0882
 41
0.0882
 66
1
 10
0
 20
0
 30
0
  0
VERTEX
  8
LAYER_2
 10
186.4243
 20
106.2747
  0
VERTEX
  8
LAYER_2
 10
187.9337
 20
106.2747
  0
SEQEND
  0
POLYLINE
  8
LAYER_2
 40
0.0882
 41
0.0882
 66
1
 10
0
 20
0
 30
0
  0
VERTEX
  8
LAYER_2
 10
180.0598
 20
106.2747
  0
VERTEX
  8
LAYER_2
 10
180.6308
 20
106.2747
  0
SEQEND
  0
POLYLINE
  8
LAYER_2
 40
0.0882
 41
0.0882
 66
1
 10
0
 20
0
 30
0
  0
VERTEX
  8
LAYER_2
 10
184.9148
 20
106.2747
  0
VERTEX
  8
LAYER_2
 10
184.3438
 20
106.2747
  0
SEQEND
  0
POLYLINE
  8
LAYER_2
 40
0.05
 41
0.05
 66
1
 10
0
 20
0
 30
0
 70
1
  0
VERTEX
  8
LAYER_2
 10
178.5503
 20
106.5602
  0
VERTEX
  8
LAYER_2
 10
178.5503
 20
106.03
  0
VERTEX
  8
LAYER_2
 10
180.0597
 20
106.2747
  0
SEQEND
  0
POLYLINE
  8
LAYER_2
 66
1
 10
0
 20
0
 30
0
 70
1
  0
VERTEX
  8
LAYER_2
 10
178.5503
 20
106.5602
  0
VERTEX
  8
LAYER_2
 10
178.5503
 20
106.03
  0
VERTEX
  8
LAYER_2
 10
180.0597
 20
106.2747
  0
SEQEND
  0
POLYLINE
  8
LAYER_2
 40
0.05
 41
0.05
 66
1
 10
0
 20
0
 30
0
 70
1
  0
VERTEX
  8
LAYER_2
 10
186.4243
 20
106.5602
  0
VERTEX
  8
LAYER_2
 10
186.4243
 20
106.03
  0
VERTEX
  8
LAYER_2
 10
184.915
 20
106.2747
  0
SEQEND
  0
POLYLINE
  8
LAYER_2
 66
1
 10
0
 20
0
 30
0
 70
1
  0
VERTEX
  8
LAYER_2
 10
186.4243
 20
106.5602
  0
VERTEX
  8
LAYER_2
 10
186.4243
 20
106.03
  0
VERTEX
  8
LAYER_2
 10
184.915
 20
106.2747
  0
SEQEND
  0
TEXT
  8
LAYER_2
 10
180.5497
 20
105.0506
 11
180.5497
 21
105.0506
 40
3.7001
 41
0.5
  1
50
  0
POLYLINE
  8
LAYER_2
 40
0.0882
 41
0.0882
 66
1
 10
0
 20
0
 30
0
  0
VERTEX
  8
LAYER_2
 10
159.865
 20
101.3405
  0
VERTEX
  8
LAYER_2
 10
159.865
 20
103.0947
  0
SEQEND
  0
POLYLINE
  8
LAYER_2
 40
0.0882
 41
0.0882
 66
1
 10
0
 20
0
 30
0
  0
VERTEX
  8
LAYER_2
 10
134.9376
 20
101.6669
  0
VERTEX
  8
LAYER_2
 10
134.9376
 20
103.0948
  0
SEQEND
  0
POLYLINE
  8
LAYER_2
 40
0.0882
 41
0.0882
 66
1
 10
0
 20
0
 30
0
  0
VERTEX
  8
LAYER_2
 10
158.3962
 20
102.9725
  0
VERTEX
  8
LAYER_2
 10
150.2777
 20
102.9725
  0
SEQEND
  0
POLYLINE
  8
LAYER_2
 40
0.0882
 41
0.0882
 66
1
 10
0
 20
0
 30
0
  0
VERTEX
  8
LAYER_2
 10
136.4471
 20
102.9725
  0
VERTEX
  8
LAYER_2
 10
144.5657
 20
102.9725
  0
SEQEND
  0
POLYLINE
  8
LAYER_2
 40
0.05
 41
0.05
 66
1
 10
0
 20
0
 30
0
 70
1
  0
VERTEX
  8
LAYER_2
 10
158.3962
 20
103.2173
  0
VERTEX
  8
LAYER_2
 10
158.3962
 20
102.7277
  0
VERTEX
  8
LAYER_2
 10
159.8649
 20
102.9725
  0
SEQEND
  0
POLYLINE
  8
LAYER_2
 66
1
 10
0
 20
0
 30
0
 70
1
  0
VERTEX
  8
LAYER_2
 10
158.3962
 20
103.2173
  0
VERTEX
  8
LAYER_2
 10
158.3962
 20
102.7277
  0
VERTEX
  8
LAYER_2
 10
159.8649
 20
102.9725
  0
SEQEND
  0
POLYLINE
  8
LAYER_2
 40
0.05
 41
0.05
 66
1
 10
0
 20
0
 30
0
 70
1
  0
VERTEX
  8
LAYER_2
 10
136.4471
 20
103.2173
  0
VERTEX
  8
LAYER_2
 10
136.4471
 20
102.7277
  0
VERTEX
  8
LAYER_2
 10
134.9377
 20
102.9725
  0
SEQEND
  0
POLYLINE
  8
LAYER_2
 66
1
 10
0
 20
0
 30
0
 70
1
  0
VERTEX
  8
LAYER_2
 10
136.4471
 20
103.2173
  0
VERTEX
  8
LAYER_2
 10
136.4471
 20
102.7277
  0
VERTEX
  8
LAYER_2
 10
134.9377
 20
102.9725
  0
SEQEND
  0
TEXT
  8
LAYER_2
 10
144.5254
 20
101.7486
 11
144.5254
 21
101.7486
 40
3.7001
 41
0.5
  1
250
  0
POLYLINE
  8
LAYER_2
 40
0.0882
 41
0.0882
 66
1
 10
0
 20
0
 30
0
  0
VERTEX
  8
LAYER_2
 10
185.874
 20
84.407
  0
VERTEX
  8
LAYER_2
 10
187.914
 20
84.407
  0
SEQEND
  0
POLYLINE
  8
LAYER_2
 40
0.0882
 41
0.0882
 66
1
 10
0
 20
0
 30
0
  0
VERTEX
  8
LAYER_2
 10
185.9964
 20
104.4387
  0
VERTEX
  8
LAYER_2
 10
187.9138
 20
104.4387
  0
SEQEND
  0
POLYLINE
  8
LAYER_2
 40
0.0882
 41
0.0882
 66
1
 10
0
 20
0
 30
0
  0
VERTEX
  8
LAYER_2
 10
187.7915
 20
85.9166
  0
VERTEX
  8
LAYER_2
 10
187.7915
 20
91.5874
  0
SEQEND
  0
POLYLINE
  8
LAYER_2
 40
0.0882
 41
0.0882
 66
1
 10
0
 20
0
 30
0
  0
VERTEX
  8
LAYER_2
 10
187.7915
 20
102.9292
  0
VERTEX
  8
LAYER_2
 10
187.7915
 20
97.2584
  0
SEQEND
  0
POLYLINE
  8
LAYER_2
 40
0.05
 41
0.05
 66
1
 10
0
 20
0
 30
0
 70
1
  0
VERTEX
  8
LAYER_2
 10
187.5467
 20
85.9166
  0
VERTEX
  8
LAYER_2
 10
188.0363
 20
85.9166
  0
VERTEX
  8
LAYER_2
 10
187.7915
 20
84.4072
  0
SEQEND
  0
POLYLINE
  8
LAYER_2
 66
1
 10
0
 20
0
 30
0
 70
1
  0
VERTEX
  8
LAYER_2
 10
187.5467
 20
85.9166
  0
VERTEX
  8
LAYER_2
 10
188.0363
 20
85.9166
  0
VERTEX
  8
LAYER_2
 10
187.7915
 20
84.4072
  0
SEQEND
  0
POLYLINE
  8
LAYER_2
 40
0.05
 41
0.05
 66
1
 10
0
 20
0
 30
0
 70
1
  0
VERTEX
  8
LAYER_2
 10
187.5467
 20
102.9292
  0
VERTEX
  8
LAYER_2
 10
188.0363
 20
102.9292
  0
VERTEX
  8
LAYER_2
 10
187.7915
 20
104.4386
  0
SEQEND
  0
POLYLINE
  8
LAYER_2
 66
1
 10
0
 20
0
 30
0
 70
1
  0
VERTEX
  8
LAYER_2
 10
187.5467
 20
102.9292
  0
VERTEX
  8
LAYER_2
 10
188.0363
 20
102.9292
  0
VERTEX
  8
LAYER_2
 10
187.7915
 20
104.4386
  0
SEQEND
  0
TEXT
  8
LAYER_2
 10
189.0156
 20
91.5472
 11
189.0156
 21
91.5472
 40
3.7001
 41
0.5
 50
89.99999999
  1
200
  0
POLYLINE
  8
LAYER_2
 40
0.2646
 41
0.2646
 66
1
 10
0
 20
0
 30
0
  0
VERTEX
  8
LAYER_2
 10
22.5397
 20
84.407
  0
VERTEX
  8
LAYER_2
 10
28.0472
 20
83.7135
  0
VERTEX
  8
LAYER_2
 10
33.5552
 20
83.1425
  0
VERTEX
  8
LAYER_2
 10
39.1035
 20
82.6937
  0
VERTEX
  8
LAYER_2
 10
44.6522
 20
82.4082
  0
SEQEND
  0
POLYLINE
  8
LAYER_2
 40
0.0882
 41
0.0882
 66
1
 10
0
 20
0
 30
0
  0
VERTEX
  8
LAYER_2
 10
25.4771
 20
84.8966
  0
VERTEX
  8
LAYER_2
 10
26.0892
 20
84.8152
  0
SEQEND
  0
POLYLINE
  8
LAYER_2
 40
0.0882
 41
0.0882
 66
1
 10
0
 20
0
 30
0
  0
VERTEX
  8
LAYER_2
 10
26.4154
 20
84.815
  0
VERTEX
  8
LAYER_2
 10
27.0276
 20
84.7336
  0
SEQEND
  0
POLYLINE
  8
LAYER_2
 40
0.0882
 41
0.0882
 66
1
 10
0
 20
0
 30
0
  0
VERTEX
  8
LAYER_2
 10
27.3538
 20
84.6926
  0
VERTEX
  8
LAYER_2
 10
27.9659
 20
84.6519
  0
SEQEND
  0
POLYLINE
  8
LAYER_2
 40
0.0882
 41
0.0882
 66
1
 10
0
 20
0
 30
0
  0
VERTEX
  8
LAYER_2
 10
28.2921
 20
84.611
  0
VERTEX
  8
LAYER_2
 10
28.945
 20
84.5703
  0
SEQEND
  0
POLYLINE
  8
LAYER_2
 40
0.0882
 41
0.0882
 66
1
 10
0
 20
0
 30
0
  0
VERTEX
  8
LAYER_2
 10
29.2305
 20
84.5294
  0
VERTEX
  8
LAYER_2
 10
29.8833
 20
84.448
  0
SEQEND
  0
POLYLINE
  8
LAYER_2
 40
0.0882
 41
0.0882
 66
1
 10
0
 20
0
 30
0
  0
VERTEX
  8
LAYER_2
 10
30.2096
 20
84.4479
  0
VERTEX
  8
LAYER_2
 10
30.8218
 20
84.3664
  0
SEQEND
  0
POLYLINE
  8
LAYER_2
 40
0.0882
 41
0.0882
 66
1
 10
0
 20
0
 30
0
  0
VERTEX
  8
LAYER_2
 10
31.1479
 20
84.3662
  0
VERTEX
  8
LAYER_2
 10
31.7601
 20
84.2848
  0
SEQEND
  0
POLYLINE
  8
LAYER_2
 40
0.0882
 41
0.0882
 66
1
 10
0
 20
0
 30
0
  0
VERTEX
  8
LAYER_2
 10
32.0863
 20
84.2438
  0
VERTEX
  8
LAYER_2
 10
32.7392
 20
84.2031
  0
SEQEND
  0
POLYLINE
  8
LAYER_2
 40
0.0882
 41
0.0882
 66
1
 10
0
 20
0
 30
0
  0
VERTEX
  8
LAYER_2
 10
33.0247
 20
84.2031
  0
VERTEX
  8
LAYER_2
 10
33.6775
 20
84.1216
  0
SEQEND
  0
POLYLINE
  8
LAYER_2
 40
0.0882
 41
0.0882
 66
1
 10
0
 20
0
 30
0
  0
VERTEX
  8
LAYER_2
 10
34.0038
 20
84.1215
  0
VERTEX
  8
LAYER_2
 10
34.6159
 20
84.0807
  0
SEQEND
  0
POLYLINE
  8
LAYER_2
 40
0.0882
 41
0.0882
 66
1
 10
0
 20
0
 30
0
  0
VERTEX
  8
LAYER_2
 10
34.9421
 20
84.0399
  0
VERTEX
  8
LAYER_2
 10
35.5543
 20
83.9992
  0
SEQEND
  0
POLYLINE
  8
LAYER_2
 40
0.0882
 41
0.0882
 66
1
 10
0
 20
0
 30
0
  0
VERTEX
  8
LAYER_2
 10
35.8805
 20
83.9583
  0
VERTEX
  8
LAYER_2
 10
36.5334
 20
83.9175
  0
SEQEND
  0
POLYLINE
  8
LAYER_2
 40
0.0882
 41
0.0882
 66
1
 10
0
 20
0
 30
0
  0
VERTEX
  8
LAYER_2
 10
36.8189
 20
83.8767
  0
VERTEX
  8
LAYER_2
 10
37.4717
 20
83.836
  0
SEQEND
  0
POLYLINE
  8
LAYER_2
 40
0.0882
 41
0.0882
 66
1
 10
0
 20
0
 30
0
  0
VERTEX
  8
LAYER_2
 10
37.798
 20
83.8359
  0
VERTEX
  8
LAYER_2
 10
38.4101
 20
83.7544
  0
SEQEND
  0
POLYLINE
  8
LAYER_2
 40
0.0882
 41
0.0882
 66
1
 10
0
 20
0
 30
0
  0
VERTEX
  8
LAYER_2
 10
38.7363
 20
83.7543
  0
VERTEX
  8
LAYER_2
 10
39.3892
 20
83.7136
  0
SEQEND
  0
POLYLINE
  8
LAYER_2
 40
0.0882
 41
0.0882
 66
1
 10
0
 20
0
 30
0
  0
VERTEX
  8
LAYER_2
 10
39.6747
 20
83.7135
  0
VERTEX
  8
LAYER_2
 10
40.3276
 20
83.6728
  0
SEQEND
  0
POLYLINE
  8
LAYER_2
 40
0.0882
 41
0.0882
 66
1
 10
0
 20
0
 30
0
  0
VERTEX
  8
LAYER_2
 10
40.6538
 20
83.6319
  0
VERTEX
  8
LAYER_2
 10
41.266
 20
83.6319
  0
SEQEND
  0
POLYLINE
  8
LAYER_2
 40
0.0882
 41
0.0882
 66
1
 10
0
 20
0
 30
0
  0
VERTEX
  8
LAYER_2
 10
41.5922
 20
83.5911
  0
VERTEX
  8
LAYER_2
 10
42.2043
 20
83.5504
  0
SEQEND
  0
POLYLINE
  8
LAYER_2
 40
0.0882
 41
0.0882
 66
1
 10
0
 20
0
 30
0
  0
VERTEX
  8
LAYER_2
 10
42.5305
 20
83.5503
  0
VERTEX
  8
LAYER_2
 10
43.1834
 20
83.5096
  0
SEQEND
  0
POLYLINE
  8
LAYER_2
 40
0.0882
 41
0.0882
 66
1
 10
0
 20
0
 30
0
  0
VERTEX
  8
LAYER_2
 10
43.4689
 20
83.5095
  0
VERTEX
  8
LAYER_2
 10
44.1217
 20
83.4688
  0
SEQEND
  0
POLYLINE
  8
LAYER_2
 40
0.0882
 41
0.0882
 66
1
 10
0
 20
0
 30
0
  0
VERTEX
  8
LAYER_2
 10
44.448
 20
83.4279
  0
VERTEX
  8
LAYER_2
 10
45.0602
 20
83.3872
  0
SEQEND
  0
POLYLINE
  8
LAYER_2
 40
0.2646
 41
0.2646
 66
1
 10
0
 20
0
 30
0
  0
VERTEX
  8
LAYER_2
 10
52.118
 20
82.408
  0
VERTEX
  8
LAYER_2
 10
56.565
 20
82.4487
  0
VERTEX
  8
LAYER_2
 10
60.9713
 20
82.6528
  0
VERTEX
  8
LAYER_2
 10
65.3772
 20
83.0609
  0
VERTEX
  8
LAYER_2
 10
69.7835
 20
83.6318
  0
VERTEX
  8
LAYER_2
 10
74.1486
 20
84.4069
  0
SEQEND
  0
POLYLINE
  8
LAYER_2
 40
0.2646
 41
0.2646
 66
1
 10
0
 20
0
 30
0
  0
VERTEX
  8
LAYER_2
 10
52.1427
 20
82.4079
 42
0.4048213025
  0
VERTEX
  8
LAYER_2
 10
51.6287
 20
81.9188
  0
SEQEND
  0
POLYLINE
  8
LAYER_2
 40
0.0882
 41
0.0882
 66
1
 10
0
 20
0
 30
0
  0
VERTEX
  8
LAYER_2
 10
51.71
 20
83.3871
  0
VERTEX
  8
LAYER_2
 10
52.1181
 20
83.3871
  0
SEQEND
  0
POLYLINE
  8
LAYER_2
 40
0.0882
 41
0.0882
 66
1
 10
0
 20
0
 30
0
  0
VERTEX
  8
LAYER_2
 10
52.4444
 20
83.3871
  0
VERTEX
  8
LAYER_2
 10
53.0565
 20
83.3871
  0
SEQEND
  0
POLYLINE
  8
LAYER_2
 40
0.0882
 41
0.0882
 66
1
 10
0
 20
0
 30
0
  0
VERTEX
  8
LAYER_2
 10
53.3827
 20
83.3871
  0
VERTEX
  8
LAYER_2
 10
53.9948
 20
83.4278
  0
SEQEND
  0
POLYLINE
  8
LAYER_2
 40
0.0882
 41
0.0882
 66
1
 10
0
 20
0
 30
0
  0
VERTEX
  8
LAYER_2
 10
54.3211
 20
83.4279
  0
VERTEX
  8
LAYER_2
 10
54.9739
 20
83.4279
  0
SEQEND
  0
POLYLINE
  8
LAYER_2
 40
0.0882
 41
0.0882
 66
1
 10
0
 20
0
 30
0
  0
VERTEX
  8
LAYER_2
 10
55.3002
 20
83.4279
  0
VERTEX
  8
LAYER_2
 10
55.7491
 20
83.4279
  0
VERTEX
  8
LAYER_2
 10
55.9124
 20
83.4279
  0
SEQEND
  0
POLYLINE
  8
LAYER_2
 40
0.0882
 41
0.0882
 66
1
 10
0
 20
0
 30
0
  0
VERTEX
  8
LAYER_2
 10
56.2386
 20
83.4279
  0
VERTEX
  8
LAYER_2
 10
56.8507
 20
83.4686
  0
SEQEND
  0
POLYLINE
  8
LAYER_2
 40
0.0882
 41
0.0882
 66
1
 10
0
 20
0
 30
0
  0
VERTEX
  8
LAYER_2
 10
57.1769
 20
83.4687
  0
VERTEX
  8
LAYER_2
 10
57.8298
 20
83.5094
  0
SEQEND
  0
POLYLINE
  8
LAYER_2
 40
0.0882
 41
0.0882
 66
1
 10
0
 20
0
 30
0
  0
VERTEX
  8
LAYER_2
 10
58.1153
 20
83.5095
  0
VERTEX
  8
LAYER_2
 10
58.7681
 20
83.5502
  0
SEQEND
  0
POLYLINE
  8
LAYER_2
 40
0.0882
 41
0.0882
 66
1
 10
0
 20
0
 30
0
  0
VERTEX
  8
LAYER_2
 10
59.0944
 20
83.5503
  0
VERTEX
  8
LAYER_2
 10
59.7065
 20
83.591
  0
SEQEND
  0
POLYLINE
  8
LAYER_2
 40
0.0882
 41
0.0882
 66
1
 10
0
 20
0
 30
0
  0
VERTEX
  8
LAYER_2
 10
60.0328
 20
83.6319
  0
VERTEX
  8
LAYER_2
 10
60.6856
 20
83.6726
  0
SEQEND
  0
POLYLINE
  8
LAYER_2
 40
0.0882
 41
0.0882
 66
1
 10
0
 20
0
 30
0
  0
VERTEX
  8
LAYER_2
 10
60.9711
 20
83.6727
  0
VERTEX
  8
LAYER_2
 10
61.624
 20
83.7541
  0
SEQEND
  0
POLYLINE
  8
LAYER_2
 40
0.0882
 41
0.0882
 66
1
 10
0
 20
0
 30
0
  0
VERTEX
  8
LAYER_2
 10
61.9502
 20
83.7543
  0
VERTEX
  8
LAYER_2
 10
62.5624
 20
83.795
  0
SEQEND
  0
POLYLINE
  8
LAYER_2
 40
0.0882
 41
0.0882
 66
1
 10
0
 20
0
 30
0
  0
VERTEX
  8
LAYER_2
 10
62.8886
 20
83.8359
  0
VERTEX
  8
LAYER_2
 10
63.5007
 20
83.8766
  0
SEQEND
  0
POLYLINE
  8
LAYER_2
 40
0.0882
 41
0.0882
 66
1
 10
0
 20
0
 30
0
  0
VERTEX
  8
LAYER_2
 10
63.827
 20
83.9175
  0
VERTEX
  8
LAYER_2
 10
64.4798
 20
83.9989
  0
SEQEND
  0
POLYLINE
  8
LAYER_2
 40
0.0882
 41
0.0882
 66
1
 10
0
 20
0
 30
0
  0
VERTEX
  8
LAYER_2
 10
64.7653
 20
84.0399
  0
VERTEX
  8
LAYER_2
 10
65.4182
 20
84.0806
  0
SEQEND
  0
POLYLINE
  8
LAYER_2
 40
0.0882
 41
0.0882
 66
1
 10
0
 20
0
 30
0
  0
VERTEX
  8
LAYER_2
 10
65.7444
 20
84.1215
  0
VERTEX
  8
LAYER_2
 10
66.3566
 20
84.2029
  0
SEQEND
  0
POLYLINE
  8
LAYER_2
 40
0.0882
 41
0.0882
 66
1
 10
0
 20
0
 30
0
  0
VERTEX
  8
LAYER_2
 10
66.6828
 20
84.2438
  0
VERTEX
  8
LAYER_2
 10
67.2949
 20
84.3253
  0
SEQEND
  0
POLYLINE
  8
LAYER_2
 40
0.0882
 41
0.0882
 66
1
 10
0
 20
0
 30
0
  0
VERTEX
  8
LAYER_2
 10
67.6211
 20
84.3662
  0
VERTEX
  8
LAYER_2
 10
67.7845
 20
84.3662
  0
VERTEX
  8
LAYER_2
 10
68.2333
 20
84.4477
  0
SEQEND
  0
POLYLINE
  8
LAYER_2
 40
0.0882
 41
0.0882
 66
1
 10
0
 20
0
 30
0
  0
VERTEX
  8
LAYER_2
 10
68.5595
 20
84.4887
  0
VERTEX
  8
LAYER_2
 10
69.1716
 20
84.5701
  0
SEQEND
  0
POLYLINE
  8
LAYER_2
 40
0.0882
 41
0.0882
 66
1
 10
0
 20
0
 30
0
  0
VERTEX
  8
LAYER_2
 10
69.4978
 20
84.6518
  0
VERTEX
  8
LAYER_2
 10
70.11
 20
84.7333
  0
SEQEND
  0
POLYLINE
  8
LAYER_2
 40
0.0882
 41
0.0882
 66
1
 10
0
 20
0
 30
0
  0
VERTEX
  8
LAYER_2
 10
70.4362
 20
84.7742
  0
VERTEX
  8
LAYER_2
 10
71.0483
 20
84.8557
  0
SEQEND
  0
POLYLINE
  8
LAYER_2
 40
0.0882
 41
0.0882
 66
1
 10
0
 20
0
 30
0
  0
VERTEX
  8
LAYER_2
 10
71.3745
 20
84.9374
  0
VERTEX
  8
LAYER_2
 10
71.7826
 20
84.9782
  0
SEQEND
  0
POLYLINE
  8
LAYER_2
 40
0.2646
 41
0.2646
 66
1
 10
0
 20
0
 30
0
  0
VERTEX
  8
LAYER_2
 10
44.4888
 20
82.408
  0
VERTEX
  8
LAYER_2
 10
52.1179
 20
82.408
  0
SEQEND
  0
POLYLINE
  8
LAYER_2
 40
0.0882
 41
0.0882
 66
1
 10
0
 20
0
 30
0
  0
VERTEX
  8
LAYER_2
 10
23.3964
 20
87.2221
  0
VERTEX
  8
LAYER_2
 10
23.3964
 20
86.814
  0
VERTEX
  8
LAYER_2
 10
23.4371
 20
86.6099
  0
SEQEND
  0
POLYLINE
  8
LAYER_2
 40
0.0882
 41
0.0882
 66
1
 10
0
 20
0
 30
0
  0
VERTEX
  8
LAYER_2
 10
23.5596
 20
86.2838
  0
VERTEX
  8
LAYER_2
 10
23.641
 20
86.0797
  0
VERTEX
  8
LAYER_2
 10
23.8451
 20
85.7535
  0
SEQEND
  0
POLYLINE
  8
LAYER_2
 40
0.0882
 41
0.0882
 66
1
 10
0
 20
0
 30
0
  0
VERTEX
  8
LAYER_2
 10
24.0899
 20
85.5086
  0
VERTEX
  8
LAYER_2
 10
24.0899
 20
85.4679
  0
VERTEX
  8
LAYER_2
 10
24.3754
 20
85.2231
  0
VERTEX
  8
LAYER_2
 10
24.5795
 20
85.1412
  0
SEQEND
  0
POLYLINE
  8
LAYER_2
 40
0.0882
 41
0.0882
 66
1
 10
0
 20
0
 30
0
  0
VERTEX
  8
LAYER_2
 10
24.8651
 20
85.019
  0
VERTEX
  8
LAYER_2
 10
25.1099
 20
84.9376
  0
VERTEX
  8
LAYER_2
 10
25.4772
 20
84.8968
  0
SEQEND
  0
POLYLINE
  8
LAYER_2
 40
0.0882
 41
0.0882
 66
1
 10
0
 20
0
 30
0
  0
VERTEX
  8
LAYER_2
 10
138.7726
 20
87.2221
  0
VERTEX
  8
LAYER_2
 10
138.7726
 20
87.9157
  0
SEQEND
  0
POLYLINE
  8
LAYER_2
 40
0.0882
 41
0.0882
 66
1
 10
0
 20
0
 30
0
  0
VERTEX
  8
LAYER_2
 10
138.7726
 20
88.2421
  0
VERTEX
  8
LAYER_2
 10
138.7726
 20
88.8949
  0
SEQEND
  0
POLYLINE
  8
LAYER_2
 40
0.0882
 41
0.0882
 66
1
 10
0
 20
0
 30
0
  0
VERTEX
  8
LAYER_2
 10
138.7726
 20
89.1804
  0
VERTEX
  8
LAYER_2
 10
138.7726
 20
89.8332
  0
SEQEND
  0
POLYLINE
  8
LAYER_2
 40
0.0882
 41
0.0882
 66
1
 10
0
 20
0
 30
0
  0
VERTEX
  8
LAYER_2
 10
138.7726
 20
90.1595
  0
VERTEX
  8
LAYER_2
 10
138.7726
 20
90.7717
  0
SEQEND
  0
POLYLINE
  8
LAYER_2
 40
0.0882
 41
0.0882
 66
1
 10
0
 20
0
 30
0
  0
VERTEX
  8
LAYER_2
 10
138.7726
 20
91.0979
  0
VERTEX
  8
LAYER_2
 10
138.7726
 20
91.7508
  0
SEQEND
  0
POLYLINE
  8
LAYER_2
 40
0.0882
 41
0.0882
 66
1
 10
0
 20
0
 30
0
  0
VERTEX
  8
LAYER_2
 10
138.7726
 20
92.0362
  0
VERTEX
  8
LAYER_2
 10
138.7726
 20
92.6891
  0
SEQEND
  0
POLYLINE
  8
LAYER_2
 40
0.0882
 41
0.0882
 66
1
 10
0
 20
0
 30
0
  0
VERTEX
  8
LAYER_2
 10
138.7726
 20
93.0154
  0
VERTEX
  8
LAYER_2
 10
138.7726
 20
93.6275
  0
SEQEND
  0
POLYLINE
  8
LAYER_2
 40
0.0882
 41
0.0882
 66
1
 10
0
 20
0
 30
0
  0
VERTEX
  8
LAYER_2
 10
138.7726
 20
93.9537
  0
VERTEX
  8
LAYER_2
 10
138.7726
 20
94.6066
  0
SEQEND
  0
POLYLINE
  8
LAYER_2
 40
0.0882
 41
0.0882
 66
1
 10
0
 20
0
 30
0
  0
VERTEX
  8
LAYER_2
 10
138.7726
 20
94.8921
  0
VERTEX
  8
LAYER_2
 10
138.7726
 20
95.5449
  0
SEQEND
  0
POLYLINE
  8
LAYER_2
 40
0.0882
 41
0.0882
 66
1
 10
0
 20
0
 30
0
  0
VERTEX
  8
LAYER_2
 10
138.7726
 20
95.8712
  0
VERTEX
  8
LAYER_2
 10
138.7726
 20
96.4834
  0
SEQEND
  0
POLYLINE
  8
LAYER_2
 40
0.0882
 41
0.0882
 66
1
 10
0
 20
0
 30
0
  0
VERTEX
  8
LAYER_2
 10
138.7726
 20
96.8095
  0
VERTEX
  8
LAYER_2
 10
138.7726
 20
97.4624
  0
SEQEND
  0
POLYLINE
  8
LAYER_2
 40
0.0882
 41
0.0882
 66
1
 10
0
 20
0
 30
0
  0
VERTEX
  8
LAYER_2
 10
138.7726
 20
97.7479
  0
VERTEX
  8
LAYER_2
 10
138.7726
 20
98.4008
  0
SEQEND
  0
POLYLINE
  8
LAYER_2
 40
0.0882
 41
0.0882
 66
1
 10
0
 20
0
 30
0
  0
VERTEX
  8
LAYER_2
 10
138.7317
 20
98.7271
  0
VERTEX
  8
LAYER_2
 10
138.7317
 20
99.3392
  0
SEQEND
  0
POLYLINE
  8
LAYER_2
 40
0.0882
 41
0.0882
 66
1
 10
0
 20
0
 30
0
  0
VERTEX
  8
LAYER_2
 10
138.7317
 20
99.6654
  0
VERTEX
  8
LAYER_2
 10
138.7317
 20
100.3997
  0
SEQEND
  0
POLYLINE
  8
LAYER_2
 40
0.0882
 41
0.0882
 66
1
 10
0
 20
0
 30
0
  0
VERTEX
  8
LAYER_2
 10
138.7726
 20
87.2221
  0
VERTEX
  8
LAYER_2
 10
138.8133
 20
86.814
  0
VERTEX
  8
LAYER_2
 10
138.854
 20
86.6099
  0
SEQEND
  0
POLYLINE
  8
LAYER_2
 40
0.0882
 41
0.0882
 66
1
 10
0
 20
0
 30
0
  0
VERTEX
  8
LAYER_2
 10
138.9357
 20
86.2838
  0
VERTEX
  8
LAYER_2
 10
139.0172
 20
86.0797
  0
VERTEX
  8
LAYER_2
 10
139.2212
 20
85.7535
  0
VERTEX
  8
LAYER_2
 10
139.262
 20
85.7535
  0
SEQEND
  0
POLYLINE
  8
LAYER_2
 40
0.0882
 41
0.0882
 66
1
 10
0
 20
0
 30
0
  0
VERTEX
  8
LAYER_2
 10
139.4661
 20
85.5086
  0
VERTEX
  8
LAYER_2
 10
139.4661
 20
85.4679
  0
VERTEX
  8
LAYER_2
 10
139.7923
 20
85.2231
  0
VERTEX
  8
LAYER_2
 10
139.9964
 20
85.1412
  0
SEQEND
  0
POLYLINE
  8
LAYER_2
 40
0.0882
 41
0.0882
 66
1
 10
0
 20
0
 30
0
  0
VERTEX
  8
LAYER_2
 10
140.2821
 20
85.019
  0
VERTEX
  8
LAYER_2
 10
140.4861
 20
84.9376
  0
VERTEX
  8
LAYER_2
 10
140.8531
 20
84.8968
  0
SEQEND
  0
POLYLINE
  8
LAYER_2
 40
0.2646
 41
0.2646
 66
1
 10
0
 20
0
 30
0
  0
VERTEX
  8
LAYER_2
 10
138.1606
 20
84.3662
  0
VERTEX
  8
LAYER_2
 10
141.5878
 20
83.6726
  0
VERTEX
  8
LAYER_2
 10
145.0146
 20
83.1424
  0
VERTEX
  8
LAYER_2
 10
148.4825
 20
82.7343
  0
VERTEX
  8
LAYER_2
 10
151.9912
 20
82.4895
  0
VERTEX
  8
LAYER_2
 10
155.4994
 20
82.4081
  0
SEQEND
  0
POLYLINE
  8
LAYER_2
 40
0.0882
 41
0.0882
 66
1
 10
0
 20
0
 30
0
  0
VERTEX
  8
LAYER_2
 10
159.253
 20
79.7969
  0
VERTEX
  8
LAYER_2
 10
159.253
 20
88.9764
  0
SEQEND
  0
POLYLINE
  8
LAYER_2
 40
0.2646
 41
0.2646
 66
1
 10
0
 20
0
 30
0
  0
VERTEX
  8
LAYER_2
 10
162.476
 20
81.9184
  0
VERTEX
  8
LAYER_2
 10
162.4353
 20
81.1026
  0
VERTEX
  8
LAYER_2
 10
162.3127
 20
80.9393
  0
VERTEX
  8
LAYER_2
 10
162.1498
 20
80.8986
  0
VERTEX
  8
LAYER_2
 10
162.1087
 20
80.8986
  0
VERTEX
  8
LAYER_2
 10
161.905
 20
80.8986
  0
VERTEX
  8
LAYER_2
 10
161.6191
 20
80.8986
  0
VERTEX
  8
LAYER_2
 10
161.2522
 20
80.8986
  0
VERTEX
  8
LAYER_2
 10
160.8034
 20
80.8986
  0
VERTEX
  8
LAYER_2
 10
160.3138
 20
80.8986
  0
VERTEX
  8
LAYER_2
 10
159.2121
 20
80.8986
  0
VERTEX
  8
LAYER_2
 10
158.1516
 20
80.8986
  0
VERTEX
  8
LAYER_2
 10
157.6621
 20
80.8986
  0
VERTEX
  8
LAYER_2
 10
157.2132
 20
80.8986
  0
VERTEX
  8
LAYER_2
 10
156.8052
 20
80.8986
  0
VERTEX
  8
LAYER_2
 10
156.5196
 20
80.8986
  0
VERTEX
  8
LAYER_2
 10
156.3563
 20
80.8986
  0
VERTEX
  8
LAYER_2
 10
156.2749
 20
80.8986
  0
VERTEX
  8
LAYER_2
 10
156.1523
 20
80.9393
  0
VERTEX
  8
LAYER_2
 10
156.0708
 20
80.98
  0
VERTEX
  8
LAYER_2
 10
155.9894
 20
81.1026
  0
VERTEX
  8
LAYER_2
 10
155.9894
 20
81.1841
  0
VERTEX
  8
LAYER_2
 10
155.9894
 20
81.2655
  0
VERTEX
  8
LAYER_2
 10
155.9894
 20
81.4289
  0
VERTEX
  8
LAYER_2
 10
155.9894
 20
81.9184
  0
SEQEND
  0
POLYLINE
  8
LAYER_2
 40
0.0882
 41
0.0882
 66
1
 10
0
 20
0
 30
0
  0
VERTEX
  8
LAYER_2
 10
161.4561
 20
82.408
  0
VERTEX
  8
LAYER_2
 10
161.4561
 20
81.7959
  0
SEQEND
  0
POLYLINE
  8
LAYER_2
 40
0.0882
 41
0.0882
 66
1
 10
0
 20
0
 30
0
  0
VERTEX
  8
LAYER_2
 10
161.4561
 20
81.5104
  0
VERTEX
  8
LAYER_2
 10
161.4561
 20
80.8983
  0
SEQEND
  0
POLYLINE
  8
LAYER_2
 40
0.0882
 41
0.0882
 66
1
 10
0
 20
0
 30
0
  0
VERTEX
  8
LAYER_2
 10
157.0092
 20
80.8985
  0
VERTEX
  8
LAYER_2
 10
156.9684
 20
81.5106
  0
SEQEND
  0
POLYLINE
  8
LAYER_2
 40
0.0882
 41
0.0882
 66
1
 10
0
 20
0
 30
0
  0
VERTEX
  8
LAYER_2
 10
156.9683
 20
81.796
  0
VERTEX
  8
LAYER_2
 10
156.9683
 20
82.4081
  0
SEQEND
  0
POLYLINE
  8
LAYER_2
 40
0.0882
 41
0.0882
 66
1
 10
0
 20
0
 30
0
  0
VERTEX
  8
LAYER_2
 10
140.8532
 20
84.8966
  0
VERTEX
  8
LAYER_2
 10
141.5875
 20
84.774
  0
SEQEND
  0
POLYLINE
  8
LAYER_2
 40
0.0882
 41
0.0882
 66
1
 10
0
 20
0
 30
0
  0
VERTEX
  8
LAYER_2
 10
141.914
 20
84.6926
  0
VERTEX
  8
LAYER_2
 10
142.5261
 20
84.6112
  0
SEQEND
  0
POLYLINE
  8
LAYER_2
 40
0.0882
 41
0.0882
 66
1
 10
0
 20
0
 30
0
  0
VERTEX
  8
LAYER_2
 10
142.8523
 20
84.5294
  0
VERTEX
  8
LAYER_2
 10
143.4645
 20
84.4068
  0
SEQEND
  0
POLYLINE
  8
LAYER_2
 40
0.0882
 41
0.0882
 66
1
 10
0
 20
0
 30
0
  0
VERTEX
  8
LAYER_2
 10
143.7907
 20
84.3662
  0
VERTEX
  8
LAYER_2
 10
143.8314
 20
84.3662
  0
VERTEX
  8
LAYER_2
 10
144.4028
 20
84.2848
  0
SEQEND
  0
POLYLINE
  8
LAYER_2
 40
0.0882
 41
0.0882
 66
1
 10
0
 20
0
 30
0
  0
VERTEX
  8
LAYER_2
 10
144.729
 20
84.2438
  0
VERTEX
  8
LAYER_2
 10
145.3411
 20
84.1624
  0
SEQEND
  0
POLYLINE
  8
LAYER_2
 40
0.0882
 41
0.0882
 66
1
 10
0
 20
0
 30
0
  0
VERTEX
  8
LAYER_2
 10
145.6674
 20
84.1215
  0
VERTEX
  8
LAYER_2
 10
146.3202
 20
83.9989
  0
SEQEND
  0
POLYLINE
  8
LAYER_2
 40
0.0882
 41
0.0882
 66
1
 10
0
 20
0
 30
0
  0
VERTEX
  8
LAYER_2
 10
146.6057
 20
83.9583
  0
VERTEX
  8
LAYER_2
 10
146.8505
 20
83.9175
  0
VERTEX
  8
LAYER_2
 10
147.2586
 20
83.9175
  0
SEQEND
  0
POLYLINE
  8
LAYER_2
 40
0.0882
 41
0.0882
 66
1
 10
0
 20
0
 30
0
  0
VERTEX
  8
LAYER_2
 10
147.5441
 20
83.8767
  0
VERTEX
  8
LAYER_2
 10
148.197
 20
83.7952
  0
SEQEND
  0
POLYLINE
  8
LAYER_2
 40
0.0882
 41
0.0882
 66
1
 10
0
 20
0
 30
0
  0
VERTEX
  8
LAYER_2
 10
148.5232
 20
83.7543
  0
VERTEX
  8
LAYER_2
 10
149.1353
 20
83.7136
  0
SEQEND
  0
POLYLINE
  8
LAYER_2
 40
0.0882
 41
0.0882
 66
1
 10
0
 20
0
 30
0
  0
VERTEX
  8
LAYER_2
 10
149.4616
 20
83.6727
  0
VERTEX
  8
LAYER_2
 10
149.8697
 20
83.632
  0
VERTEX
  8
LAYER_2
 10
150.0737
 20
83.632
  0
SEQEND
  0
POLYLINE
  8
LAYER_2
 40
0.0882
 41
0.0882
 66
1
 10
0
 20
0
 30
0
  0
VERTEX
  8
LAYER_2
 10
150.3999
 20
83.5911
  0
VERTEX
  8
LAYER_2
 10
151.0528
 20
83.5504
  0
SEQEND
  0
POLYLINE
  8
LAYER_2
 40
0.0882
 41
0.0882
 66
1
 10
0
 20
0
 30
0
  0
VERTEX
  8
LAYER_2
 10
151.3382
 20
83.5503
  0
VERTEX
  8
LAYER_2
 10
151.9911
 20
83.5096
  0
SEQEND
  0
POLYLINE
  8
LAYER_2
 40
0.0882
 41
0.0882
 66
1
 10
0
 20
0
 30
0
  0
VERTEX
  8
LAYER_2
 10
152.3174
 20
83.5095
  0
VERTEX
  8
LAYER_2
 10
152.8884
 20
83.4688
  0
VERTEX
  8
LAYER_2
 10
152.9295
 20
83.4688
  0
SEQEND
  0
POLYLINE
  8
LAYER_2
 40
0.0882
 41
0.0882
 66
1
 10
0
 20
0
 30
0
  0
VERTEX
  8
LAYER_2
 10
153.2557
 20
83.4687
  0
VERTEX
  8
LAYER_2
 10
153.9086
 20
83.428
  0
SEQEND
  0
POLYLINE
  8
LAYER_2
 40
0.0882
 41
0.0882
 66
1
 10
0
 20
0
 30
0
  0
VERTEX
  8
LAYER_2
 10
154.1941
 20
83.4279
  0
VERTEX
  8
LAYER_2
 10
154.847
 20
83.4279
  0
SEQEND
  0
POLYLINE
  8
LAYER_2
 40
0.0882
 41
0.0882
 66
1
 10
0
 20
0
 30
0
  0
VERTEX
  8
LAYER_2
 10
155.1733
 20
83.4279
  0
VERTEX
  8
LAYER_2
 10
155.9076
 20
83.3872
  0
SEQEND
  0
POLYLINE
  8
LAYER_2
 40
0.0882
 41
0.0882
 66
1
 10
0
 20
0
 30
0
  0
VERTEX
  8
LAYER_2
 10
162.5576
 20
83.3871
  0
VERTEX
  8
LAYER_2
 10
163.1698
 20
83.4278
  0
SEQEND
  0
POLYLINE
  8
LAYER_2
 40
0.0882
 41
0.0882
 66
1
 10
0
 20
0
 30
0
  0
VERTEX
  8
LAYER_2
 10
163.496
 20
83.4687
  0
VERTEX
  8
LAYER_2
 10
164.1081
 20
83.5094
  0
SEQEND
  0
POLYLINE
  8
LAYER_2
 40
0.0882
 41
0.0882
 66
1
 10
0
 20
0
 30
0
  0
VERTEX
  8
LAYER_2
 10
164.4343
 20
83.5095
  0
VERTEX
  8
LAYER_2
 10
165.0872
 20
83.5502
  0
SEQEND
  0
POLYLINE
  8
LAYER_2
 40
0.0882
 41
0.0882
 66
1
 10
0
 20
0
 30
0
  0
VERTEX
  8
LAYER_2
 10
165.3727
 20
83.5911
  0
VERTEX
  8
LAYER_2
 10
165.9437
 20
83.6318
  0
VERTEX
  8
LAYER_2
 10
166.0255
 20
83.6318
  0
SEQEND
  0
POLYLINE
  8
LAYER_2
 40
0.0882
 41
0.0882
 66
1
 10
0
 20
0
 30
0
  0
VERTEX
  8
LAYER_2
 10
166.3518
 20
83.6727
  0
VERTEX
  8
LAYER_2
 10
166.9639
 20
83.7134
  0
SEQEND
  0
POLYLINE
  8
LAYER_2
 40
0.0882
 41
0.0882
 66
1
 10
0
 20
0
 30
0
  0
VERTEX
  8
LAYER_2
 10
167.2902
 20
83.7543
  0
VERTEX
  8
LAYER_2
 10
167.9023
 20
83.8358
  0
SEQEND
  0
POLYLINE
  8
LAYER_2
 40
0.0882
 41
0.0882
 66
1
 10
0
 20
0
 30
0
  0
VERTEX
  8
LAYER_2
 10
168.2285
 20
83.8359
  0
VERTEX
  8
LAYER_2
 10
168.8407
 20
83.9173
  0
SEQEND
  0
POLYLINE
  8
LAYER_2
 40
0.0882
 41
0.0882
 66
1
 10
0
 20
0
 30
0
  0
VERTEX
  8
LAYER_2
 10
169.1669
 20
83.9583
  0
VERTEX
  8
LAYER_2
 10
169.2895
 20
83.9583
  0
VERTEX
  8
LAYER_2
 10
169.8197
 20
84.0397
  0
SEQEND
  0
POLYLINE
  8
LAYER_2
 40
0.0882
 41
0.0882
 66
1
 10
0
 20
0
 30
0
  0
VERTEX
  8
LAYER_2
 10
170.1052
 20
84.0807
  0
VERTEX
  8
LAYER_2
 10
170.7581
 20
84.1621
  0
SEQEND
  0
POLYLINE
  8
LAYER_2
 40
0.0882
 41
0.0882
 66
1
 10
0
 20
0
 30
0
  0
VERTEX
  8
LAYER_2
 10
171.0844
 20
84.2031
  0
VERTEX
  8
LAYER_2
 10
171.6965
 20
84.2845
  0
SEQEND
  0
POLYLINE
  8
LAYER_2
 40
0.0882
 41
0.0882
 66
1
 10
0
 20
0
 30
0
  0
VERTEX
  8
LAYER_2
 10
172.0227
 20
84.3255
  0
VERTEX
  8
LAYER_2
 10
172.5937
 20
84.4069
  0
SEQEND
  0
POLYLINE
  8
LAYER_2
 40
0.0882
 41
0.0882
 66
1
 10
0
 20
0
 30
0
  0
VERTEX
  8
LAYER_2
 10
174.7154
 20
100.3998
  0
VERTEX
  8
LAYER_2
 10
174.7154
 20
99.951
  0
SEQEND
  0
POLYLINE
  8
LAYER_2
 40
0.0882
 41
0.0882
 66
1
 10
0
 20
0
 30
0
  0
VERTEX
  8
LAYER_2
 10
174.7154
 20
99.6246
  0
VERTEX
  8
LAYER_2
 10
174.7154
 20
98.9717
  0
SEQEND
  0
POLYLINE
  8
LAYER_2
 40
0.0882
 41
0.0882
 66
1
 10
0
 20
0
 30
0
  0
VERTEX
  8
LAYER_2
 10
174.7154
 20
98.6454
  0
VERTEX
  8
LAYER_2
 10
174.7154
 20
98.0333
  0
SEQEND
  0
POLYLINE
  8
LAYER_2
 40
0.0882
 41
0.0882
 66
1
 10
0
 20
0
 30
0
  0
VERTEX
  8
LAYER_2
 10
174.7154
 20
97.7071
  0
VERTEX
  8
LAYER_2
 10
174.7154
 20
97.095
  0
SEQEND
  0
POLYLINE
  8
LAYER_2
 40
0.0882
 41
0.0882
 66
1
 10
0
 20
0
 30
0
  0
VERTEX
  8
LAYER_2
 10
174.7154
 20
96.7688
  0
VERTEX
  8
LAYER_2
 10
174.7154
 20
96.1159
  0
SEQEND
  0
POLYLINE
  8
LAYER_2
 40
0.0882
 41
0.0882
 66
1
 10
0
 20
0
 30
0
  0
VERTEX
  8
LAYER_2
 10
174.7154
 20
95.7896
  0
VERTEX
  8
LAYER_2
 10
174.7154
 20
95.1775
  0
SEQEND
  0
POLYLINE
  8
LAYER_2
 40
0.0882
 41
0.0882
 66
1
 10
0
 20
0
 30
0
  0
VERTEX
  8
LAYER_2
 10
174.7154
 20
94.8513
  0
VERTEX
  8
LAYER_2
 10
174.7154
 20
94.2392
  0
SEQEND
  0
POLYLINE
  8
LAYER_2
 40
0.0882
 41
0.0882
 66
1
 10
0
 20
0
 30
0
  0
VERTEX
  8
LAYER_2
 10
174.7154
 20
93.9129
  0
VERTEX
  8
LAYER_2
 10
174.7154
 20
93.2601
  0
SEQEND
  0
POLYLINE
  8
LAYER_2
 40
0.0882
 41
0.0882
 66
1
 10
0
 20
0
 30
0
  0
VERTEX
  8
LAYER_2
 10
174.7154
 20
92.9338
  0
VERTEX
  8
LAYER_2
 10
174.7154
 20
92.3216
  0
SEQEND
  0
POLYLINE
  8
LAYER_2
 40
0.0882
 41
0.0882
 66
1
 10
0
 20
0
 30
0
  0
VERTEX
  8
LAYER_2
 10
174.7154
 20
91.9954
  0
VERTEX
  8
LAYER_2
 10
174.7154
 20
91.3833
  0
SEQEND
  0
POLYLINE
  8
LAYER_2
 40
0.0882
 41
0.0882
 66
1
 10
0
 20
0
 30
0
  0
VERTEX
  8
LAYER_2
 10
174.7154
 20
91.0571
  0
VERTEX
  8
LAYER_2
 10
174.7154
 20
90.4042
  0
SEQEND
  0
POLYLINE
  8
LAYER_2
 40
0.0882
 41
0.0882
 66
1
 10
0
 20
0
 30
0
  0
VERTEX
  8
LAYER_2
 10
174.7154
 20
90.0779
  0
VERTEX
  8
LAYER_2
 10
174.7154
 20
89.4658
  0
SEQEND
  0
POLYLINE
  8
LAYER_2
 40
0.0882
 41
0.0882
 66
1
 10
0
 20
0
 30
0
  0
VERTEX
  8
LAYER_2
 10
174.7154
 20
89.1396
  0
VERTEX
  8
LAYER_2
 10
174.7154
 20
88.5275
  0
SEQEND
  0
POLYLINE
  8
LAYER_2
 40
0.0882
 41
0.0882
 66
1
 10
0
 20
0
 30
0
  0
VERTEX
  8
LAYER_2
 10
174.7154
 20
88.2012
  0
VERTEX
  8
LAYER_2
 10
174.7154
 20
87.5484
  0
SEQEND
  0
POLYLINE
  8
LAYER_2
 40
0.0882
 41
0.0882
 66
1
 10
0
 20
0
 30
0
  0
VERTEX
  8
LAYER_2
 10
174.7154
 20
87.2221
  0
VERTEX
  8
LAYER_2
 10
174.7154
 20
86.7733
  0
SEQEND
  0
POLYLINE
  8
LAYER_2
 40
0.0882
 41
0.0882
 66
1
 10
0
 20
0
 30
0
  0
VERTEX
  8
LAYER_2
 10
172.5939
 20
84.407
  0
VERTEX
  8
LAYER_2
 10
173.0834
 20
84.5296
  0
VERTEX
  8
LAYER_2
 10
173.1649
 20
84.5704
  0
SEQEND
  0
POLYLINE
  8
LAYER_2
 40
0.0882
 41
0.0882
 66
1
 10
0
 20
0
 30
0
  0
VERTEX
  8
LAYER_2
 10
173.4506
 20
84.7334
  0
VERTEX
  8
LAYER_2
 10
173.5321
 20
84.7334
  0
VERTEX
  8
LAYER_2
 10
173.8994
 20
85.0597
  0
VERTEX
  8
LAYER_2
 10
173.9809
 20
85.1008
  0
SEQEND
  0
POLYLINE
  8
LAYER_2
 40
0.0882
 41
0.0882
 66
1
 10
0
 20
0
 30
0
  0
VERTEX
  8
LAYER_2
 10
174.185
 20
85.3454
  0
VERTEX
  8
LAYER_2
 10
174.2257
 20
85.4269
  0
VERTEX
  8
LAYER_2
 10
174.4705
 20
85.8349
  0
VERTEX
  8
LAYER_2
 10
174.5112
 20
85.8757
  0
SEQEND
  0
POLYLINE
  8
LAYER_2
 40
0.0882
 41
0.0882
 66
1
 10
0
 20
0
 30
0
  0
VERTEX
  8
LAYER_2
 10
174.6338
 20
86.2021
  0
VERTEX
  8
LAYER_2
 10
174.6338
 20
86.2836
  0
VERTEX
  8
LAYER_2
 10
174.7152
 20
86.7731
  0
SEQEND
  0
POLYLINE
  8
LAYER_2
 40
0.2646
 41
0.2646
 66
1
 10
0
 20
0
 30
0
  0
VERTEX
  8
LAYER_2
 10
162.9656
 20
82.408
  0
VERTEX
  8
LAYER_2
 10
166.4743
 20
82.4894
  0
VERTEX
  8
LAYER_2
 10
169.9829
 20
82.7342
  0
VERTEX
  8
LAYER_2
 10
173.4505
 20
83.1423
  0
VERTEX
  8
LAYER_2
 10
176.9184
 20
83.6726
  0
VERTEX
  8
LAYER_2
 10
180.3456
 20
84.3662
  0
SEQEND
  0
POLYLINE
  8
LAYER_2
 40
0.2646
 41
0.2646
 66
1
 10
0
 20
0
 30
0
  0
VERTEX
  8
LAYER_2
 10
162.9827
 20
82.4487
 42
0.4005304991
  0
VERTEX
  8
LAYER_2
 10
162.4766
 20
81.9596
  0
SEQEND
  0
POLYLINE
  8
LAYER_2
 40
0.0882
 41
0.0882
 66
1
 10
0
 20
0
 30
0
  0
VERTEX
  8
LAYER_2
 10
156.9683
 20
82.408
  0
VERTEX
  8
LAYER_2
 10
156.5603
 20
82.7754
  0
SEQEND
  0
POLYLINE
  8
LAYER_2
 40
0.0882
 41
0.0882
 66
1
 10
0
 20
0
 30
0
  0
VERTEX
  8
LAYER_2
 10
156.3156
 20
83.0199
  0
VERTEX
  8
LAYER_2
 10
155.9075
 20
83.3873
  0
SEQEND
  0
POLYLINE
  8
LAYER_2
 40
0.0882
 41
0.0882
 66
1
 10
0
 20
0
 30
0
  0
VERTEX
  8
LAYER_2
 10
161.4969
 20
82.408
  0
VERTEX
  8
LAYER_2
 10
161.905
 20
82.7754
  0
SEQEND
  0
POLYLINE
  8
LAYER_2
 40
0.0882
 41
0.0882
 66
1
 10
0
 20
0
 30
0
  0
VERTEX
  8
LAYER_2
 10
162.1496
 20
83.0199
  0
VERTEX
  8
LAYER_2
 10
162.5577
 20
83.3873
  0
SEQEND
  0
POLYLINE
  8
LAYER_2
 40
0.0882
 41
0.0882
 66
1
 10
0
 20
0
 30
0
  0
VERTEX
  8
LAYER_2
 10
50.6085
 20
82.408
  0
VERTEX
  8
LAYER_2
 10
50.6085
 20
81.7959
  0
SEQEND
  0
POLYLINE
  8
LAYER_2
 40
0.0882
 41
0.0882
 66
1
 10
0
 20
0
 30
0
  0
VERTEX
  8
LAYER_2
 10
50.6085
 20
81.5104
  0
VERTEX
  8
LAYER_2
 10
50.6085
 20
80.8983
  0
SEQEND
  0
POLYLINE
  8
LAYER_2
 40
0.0882
 41
0.0882
 66
1
 10
0
 20
0
 30
0
  0
VERTEX
  8
LAYER_2
 10
46.1207
 20
80.8985
  0
VERTEX
  8
LAYER_2
 10
46.1207
 20
81.5106
  0
SEQEND
  0
POLYLINE
  8
LAYER_2
 40
0.0882
 41
0.0882
 66
1
 10
0
 20
0
 30
0
  0
VERTEX
  8
LAYER_2
 10
46.1207
 20
81.796
  0
VERTEX
  8
LAYER_2
 10
46.1207
 20
82.4081
  0
VERTEX
  8
LAYER_2
 10
45.7127
 20
82.7751
  0
SEQEND
  0
POLYLINE
  8
LAYER_2
 40
0.0882
 41
0.0882
 66
1
 10
0
 20
0
 30
0
  0
VERTEX
  8
LAYER_2
 10
45.468
 20
83.0199
  0
VERTEX
  8
LAYER_2
 10
45.0599
 20
83.3873
  0
SEQEND
  0
POLYLINE
  8
LAYER_2
 40
0.0882
 41
0.0882
 66
1
 10
0
 20
0
 30
0
  0
VERTEX
  8
LAYER_2
 10
50.6085
 20
82.408
  0
VERTEX
  8
LAYER_2
 10
51.0573
 20
82.7754
  0
SEQEND
  0
POLYLINE
  8
LAYER_2
 40
0.0882
 41
0.0882
 66
1
 10
0
 20
0
 30
0
  0
VERTEX
  8
LAYER_2
 10
51.302
 20
83.0199
  0
VERTEX
  8
LAYER_2
 10
51.7101
 20
83.3873
  0
SEQEND
  0
POLYLINE
  8
LAYER_2
 40
0.2646
 41
0.2646
 66
1
 10
0
 20
0
 30
0
  0
VERTEX
  8
LAYER_2
 10
156.03
 20
81.9388
 42
0.4127208269
  0
VERTEX
  8
LAYER_2
 10
155.5234
 20
82.4487
  0
SEQEND
  0
POLYLINE
  8
LAYER_2
 40
0.2646
 41
0.2646
 66
1
 10
0
 20
0
 30
0
  0
VERTEX
  8
LAYER_2
 10
45.1416
 20
81.9388
 42
0.4029238706
  0
VERTEX
  8
LAYER_2
 10
44.6516
 20
82.4483
  0
SEQEND
  0
POLYLINE
  8
LAYER_2
 40
0.2646
 41
0.2646
 66
1
 10
0
 20
0
 30
0
  0
VERTEX
  8
LAYER_2
 10
155.4996
 20
82.408
  0
VERTEX
  8
LAYER_2
 10
162.9658
 20
82.408
  0
SEQEND
  0
POLYLINE
  8
LAYER_2
 40
0.0882
 41
0.0882
 66
1
 10
0
 20
0
 30
0
  0
VERTEX
  8
LAYER_2
 10
51.7916
 20
83.3871
  0
VERTEX
  8
LAYER_2
 10
54.1579
 20
83.3871
  0
SEQEND
  0
POLYLINE
  8
LAYER_2
 40
0.0882
 41
0.0882
 66
1
 10
0
 20
0
 30
0
  0
VERTEX
  8
LAYER_2
 10
51.7916
 20
100.3998
  0
VERTEX
  8
LAYER_2
 10
54.1579
 20
100.3998
  0
SEQEND
  0
POLYLINE
  8
LAYER_2
 40
0.0882
 41
0.0882
 66
1
 10
0
 20
0
 30
0
  0
VERTEX
  8
LAYER_2
 10
54.0355
 20
84.8966
  0
VERTEX
  8
LAYER_2
 10
54.0355
 20
89.1803
  0
SEQEND
  0
POLYLINE
  8
LAYER_2
 40
0.0882
 41
0.0882
 66
1
 10
0
 20
0
 30
0
  0
VERTEX
  8
LAYER_2
 10
54.0355
 20
98.8902
  0
VERTEX
  8
LAYER_2
 10
54.0355
 20
94.6065
  0
SEQEND
  0
POLYLINE
  8
LAYER_2
 40
0.05
 41
0.05
 66
1
 10
0
 20
0
 30
0
 70
1
  0
VERTEX
  8
LAYER_2
 10
53.7907
 20
84.8966
  0
VERTEX
  8
LAYER_2
 10
54.2803
 20
84.8966
  0
VERTEX
  8
LAYER_2
 10
54.0355
 20
83.3873
  0
SEQEND
  0
POLYLINE
  8
LAYER_2
 66
1
 10
0
 20
0
 30
0
 70
1
  0
VERTEX
  8
LAYER_2
 10
53.7907
 20
84.8966
  0
VERTEX
  8
LAYER_2
 10
54.2803
 20
84.8966
  0
VERTEX
  8
LAYER_2
 10
54.0355
 20
83.3873
  0
SEQEND
  0
POLYLINE
  8
LAYER_2
 40
0.05
 41
0.05
 66
1
 10
0
 20
0
 30
0
 70
1
  0
VERTEX
  8
LAYER_2
 10
53.7907
 20
98.8902
  0
VERTEX
  8
LAYER_2
 10
54.2803
 20
98.8902
  0
VERTEX
  8
LAYER_2
 10
54.0355
 20
100.3996
  0
SEQEND
  0
POLYLINE
  8
LAYER_2
 66
1
 10
0
 20
0
 30
0
 70
1
  0
VERTEX
  8
LAYER_2
 10
53.7907
 20
98.8902
  0
VERTEX
  8
LAYER_2
 10
54.2803
 20
98.8902
  0
VERTEX
  8
LAYER_2
 10
54.0355
 20
100.3996
  0
SEQEND
  0
TEXT
  8
LAYER_2
 10
55.2596
 20
88.8538
 11
55.2596
 21
88.8538
 40
3.7001
 41
0.5
 50
89.99999999
  1
165
  0
POLYLINE
  8
LAYER_2
 40
0.0882
 41
0.0882
 66
1
 10
0
 20
0
 30
0
  0
VERTEX
  8
LAYER_2
 10
152.399
 20
83.3871
  0
VERTEX
  8
LAYER_2
 10
154.7652
 20
83.3871
  0
SEQEND
  0
POLYLINE
  8
LAYER_2
 40
0.0882
 41
0.0882
 66
1
 10
0
 20
0
 30
0
  0
VERTEX
  8
LAYER_2
 10
152.399
 20
100.3998
  0
VERTEX
  8
LAYER_2
 10
154.7652
 20
100.3998
  0
SEQEND
  0
POLYLINE
  8
LAYER_2
 40
0.0882
 41
0.0882
 66
1
 10
0
 20
0
 30
0
  0
VERTEX
  8
LAYER_2
 10
154.6429
 20
84.8966
  0
VERTEX
  8
LAYER_2
 10
154.6429
 20
89.1803
  0
SEQEND
  0
POLYLINE
  8
LAYER_2
 40
0.0882
 41
0.0882
 66
1
 10
0
 20
0
 30
0
  0
VERTEX
  8
LAYER_2
 10
154.6429
 20
98.8902
  0
VERTEX
  8
LAYER_2
 10
154.6429
 20
94.6065
  0
SEQEND
  0
POLYLINE
  8
LAYER_2
 40
0.05
 41
0.05
 66
1
 10
0
 20
0
 30
0
 70
1
  0
VERTEX
  8
LAYER_2
 10
154.3573
 20
84.8966
  0
VERTEX
  8
LAYER_2
 10
154.8876
 20
84.8966
  0
VERTEX
  8
LAYER_2
 10
154.6428
 20
83.3873
  0
SEQEND
  0
POLYLINE
  8
LAYER_2
 66
1
 10
0
 20
0
 30
0
 70
1
  0
VERTEX
  8
LAYER_2
 10
154.3573
 20
84.8966
  0
VERTEX
  8
LAYER_2
 10
154.8876
 20
84.8966
  0
VERTEX
  8
LAYER_2
 10
154.6428
 20
83.3873
  0
SEQEND
  0
POLYLINE
  8
LAYER_2
 40
0.05
 41
0.05
 66
1
 10
0
 20
0
 30
0
 70
1
  0
VERTEX
  8
LAYER_2
 10
154.3573
 20
98.8902
  0
VERTEX
  8
LAYER_2
 10
154.8876
 20
98.8902
  0
VERTEX
  8
LAYER_2
 10
154.6428
 20
100.3996
  0
SEQEND
  0
POLYLINE
  8
LAYER_2
 66
1
 10
0
 20
0
 30
0
 70
1
  0
VERTEX
  8
LAYER_2
 10
154.3573
 20
98.8902
  0
VERTEX
  8
LAYER_2
 10
154.8876
 20
98.8902
  0
VERTEX
  8
LAYER_2
 10
154.6428
 20
100.3996
  0
SEQEND
  0
TEXT
  8
LAYER_2
 10
155.867
 20
88.8541
 11
155.867
 21
88.8541
 40
3.7001
 41
0.5
 50
89.99999999
  1
165
  0
POLYLINE
  8
LAYER_2
 40
0.0882
 41
0.0882
 66
1
 10
0
 20
0
 30
0
  0
VERTEX
  8
LAYER_2
 10
51.7916
 20
83.3871
  0
VERTEX
  8
LAYER_2
 10
54.1579
 20
83.3871
  0
SEQEND
  0
POLYLINE
  8
LAYER_2
 40
0.0882
 41
0.0882
 66
1
 10
0
 20
0
 30
0
  0
VERTEX
  8
LAYER_2
 10
51.7916
 20
100.3998
  0
VERTEX
  8
LAYER_2
 10
54.1579
 20
100.3998
  0
SEQEND
  0
POLYLINE
  8
LAYER_2
 40
0.0882
 41
0.0882
 66
1
 10
0
 20
0
 30
0
  0
VERTEX
  8
LAYER_2
 10
54.0355
 20
84.8966
  0
VERTEX
  8
LAYER_2
 10
54.0355
 20
89.1803
  0
SEQEND
  0
POLYLINE
  8
LAYER_2
 40
0.0882
 41
0.0882
 66
1
 10
0
 20
0
 30
0
  0
VERTEX
  8
LAYER_2
 10
54.0355
 20
98.8902
  0
VERTEX
  8
LAYER_2
 10
54.0355
 20
94.6065
  0
SEQEND
  0
POLYLINE
  8
LAYER_2
 40
0.05
 41
0.05
 66
1
 10
0
 20
0
 30
0
 70
1
  0
VERTEX
  8
LAYER_2
 10
53.7907
 20
84.8966
  0
VERTEX
  8
LAYER_2
 10
54.2803
 20
84.8966
  0
VERTEX
  8
LAYER_2
 10
54.0355
 20
83.3873
  0
SEQEND
  0
POLYLINE
  8
LAYER_2
 66
1
 10
0
 20
0
 30
0
 70
1
  0
VERTEX
  8
LAYER_2
 10
53.7907
 20
84.8966
  0
VERTEX
  8
LAYER_2
 10
54.2803
 20
84.8966
  0
VERTEX
  8
LAYER_2
 10
54.0355
 20
83.3873
  0
SEQEND
  0
POLYLINE
  8
LAYER_2
 40
0.05
 41
0.05
 66
1
 10
0
 20
0
 30
0
 70
1
  0
VERTEX
  8
LAYER_2
 10
53.7907
 20
98.8902
  0
VERTEX
  8
LAYER_2
 10
54.2803
 20
98.8902
  0
VERTEX
  8
LAYER_2
 10
54.0355
 20
100.3996
  0
SEQEND
  0
POLYLINE
  8
LAYER_2
 66
1
 10
0
 20
0
 30
0
 70
1
  0
VERTEX
  8
LAYER_2
 10
53.7907
 20
98.8902
  0
VERTEX
  8
LAYER_2
 10
54.2803
 20
98.8902
  0
VERTEX
  8
LAYER_2
 10
54.0355
 20
100.3996
  0
SEQEND
  0
TEXT
  8
LAYER_2
 10
55.2596
 20
88.8538
 11
55.2596
 21
88.8538
 40
3.7001
 41
0.5
 50
89.99999999
  1
165
  0
POLYLINE
  8
LAYER_2
 40
0.0882
 41
0.0882
 66
1
 10
0
 20
0
 30
0
  0
VERTEX
  8
LAYER_2
 10
51.7916
 20
83.3871
  0
VERTEX
  8
LAYER_2
 10
54.1579
 20
83.3871
  0
SEQEND
  0
POLYLINE
  8
LAYER_2
 40
0.0882
 41
0.0882
 66
1
 10
0
 20
0
 30
0
  0
VERTEX
  8
LAYER_2
 10
51.7916
 20
100.3998
  0
VERTEX
  8
LAYER_2
 10
54.1579
 20
100.3998
  0
SEQEND
  0
POLYLINE
  8
LAYER_2
 40
0.0882
 41
0.0882
 66
1
 10
0
 20
0
 30
0
  0
VERTEX
  8
LAYER_2
 10
54.0355
 20
84.8966
  0
VERTEX
  8
LAYER_2
 10
54.0355
 20
89.1803
  0
SEQEND
  0
POLYLINE
  8
LAYER_2
 40
0.0882
 41
0.0882
 66
1
 10
0
 20
0
 30
0
  0
VERTEX
  8
LAYER_2
 10
54.0355
 20
98.8902
  0
VERTEX
  8
LAYER_2
 10
54.0355
 20
94.6065
  0
SEQEND
  0
POLYLINE
  8
LAYER_2
 40
0.05
 41
0.05
 66
1
 10
0
 20
0
 30
0
 70
1
  0
VERTEX
  8
LAYER_2
 10
53.7907
 20
84.8966
  0
VERTEX
  8
LAYER_2
 10
54.2803
 20
84.8966
  0
VERTEX
  8
LAYER_2
 10
54.0355
 20
83.3873
  0
SEQEND
  0
POLYLINE
  8
LAYER_2
 66
1
 10
0
 20
0
 30
0
 70
1
  0
VERTEX
  8
LAYER_2
 10
53.7907
 20
84.8966
  0
VERTEX
  8
LAYER_2
 10
54.2803
 20
84.8966
  0
VERTEX
  8
LAYER_2
 10
54.0355
 20
83.3873
  0
SEQEND
  0
POLYLINE
  8
LAYER_2
 40
0.05
 41
0.05
 66
1
 10
0
 20
0
 30
0
 70
1
  0
VERTEX
  8
LAYER_2
 10
53.7907
 20
98.8902
  0
VERTEX
  8
LAYER_2
 10
54.2803
 20
98.8902
  0
VERTEX
  8
LAYER_2
 10
54.0355
 20
100.3996
  0
SEQEND
  0
POLYLINE
  8
LAYER_2
 66
1
 10
0
 20
0
 30
0
 70
1
  0
VERTEX
  8
LAYER_2
 10
53.7907
 20
98.8902
  0
VERTEX
  8
LAYER_2
 10
54.2803
 20
98.8902
  0
VERTEX
  8
LAYER_2
 10
54.0355
 20
100.3996
  0
SEQEND
  0
TEXT
  8
LAYER_2
 10
55.2596
 20
88.8538
 11
55.2596
 21
88.8538
 40
3.7001
 41
0.5
 50
89.99999999
  1
165
  0
POLYLINE
  8
LAYER_2
 40
0.0882
 41
0.0882
 66
1
 10
0
 20
0
 30
0
  0
VERTEX
  8
LAYER_2
 10
18.3374
 20
80.8987
  0
VERTEX
  8
LAYER_2
 10
18.3374
 20
82.4284
  0
SEQEND
  0
POLYLINE
  8
LAYER_2
 40
0.0882
 41
0.0882
 66
1
 10
0
 20
0
 30
0
  0
VERTEX
  8
LAYER_2
 10
18.3373
 20
83.4538
  0
VERTEX
  8
LAYER_2
 10
18.3373
 20
83.9612
  0
SEQEND
  0
POLYLINE
  8
LAYER_2
 40
0.05
 41
0.05
 66
1
 10
0
 20
0
 30
0
 70
1
  0
VERTEX
  8
LAYER_2
 10
18.1592
 20
83.4539
  0
VERTEX
  8
LAYER_2
 10
18.3371
 20
82.3555
  0
VERTEX
  8
LAYER_2
 10
18.5158
 20
83.4539
  0
SEQEND
  0
POLYLINE
  8
LAYER_2
 66
1
 10
0
 20
0
 30
0
 70
1
  0
VERTEX
  8
LAYER_2
 10
18.5155
 20
83.4538
  0
VERTEX
  8
LAYER_2
 10
18.1594
 20
83.4538
  0
VERTEX
  8
LAYER_2
 10
18.3372
 20
82.355
  0
SEQEND
  0
POLYLINE
  8
LAYER_2
 40
0.0882
 41
0.0882
 66
1
 10
0
 20
0
 30
0
  0
VERTEX
  8
LAYER_2
 10
18.3374
 20
79.8002
  0
VERTEX
  8
LAYER_2
 10
18.3374
 20
79.2927
  0
SEQEND
  0
POLYLINE
  8
LAYER_2
 40
0.05
 41
0.05
 66
1
 10
0
 20
0
 30
0
 70
1
  0
VERTEX
  8
LAYER_2
 10
18.1592
 20
79.8002
  0
VERTEX
  8
LAYER_2
 10
18.5158
 20
79.8002
  0
VERTEX
  8
LAYER_2
 10
18.3371
 20
80.8985
  0
SEQEND
  0
POLYLINE
  8
LAYER_2
 66
1
 10
0
 20
0
 30
0
 70
1
  0
VERTEX
  8
LAYER_2
 10
18.1592
 20
79.8002
  0
VERTEX
  8
LAYER_2
 10
18.5153
 20
79.8002
  0
VERTEX
  8
LAYER_2
 10
18.3375
 20
80.8989
  0
SEQEND
  0
TEXT
  8
LAYER_2
 10
19.5066
 20
75.0827
 11
19.5066
 21
75.0827
 40
3.7001
 41
0.5
 50
89.99999999
  1
15
  0
POLYLINE
  8
LAYER_2
 40
0.0882
 41
0.0882
 66
1
 10
0
 20
0
 30
0
  0
VERTEX
  8
LAYER_2
 10
10.3404
 20
79.4419
  0
VERTEX
  8
LAYER_2
 10
10.3404
 20
78.7446
  0
SEQEND
  0
POLYLINE
  8
LAYER_2
 40
0.0882
 41
0.0882
 66
1
 10
0
 20
0
 30
0
  0
VERTEX
  8
LAYER_2
 10
10.3404
 20
80.8987
  0
VERTEX
  8
LAYER_2
 10
10.3404
 20
84.4477
  0
SEQEND
  0
POLYLINE
  8
LAYER_2
 40
0.05
 41
0.05
 66
1
 10
0
 20
0
 30
0
 70
1
  0
VERTEX
  8
LAYER_2
 10
10.0956
 20
79.4419
  0
VERTEX
  8
LAYER_2
 10
10.5851
 20
79.4419
  0
VERTEX
  8
LAYER_2
 10
10.3404
 20
80.9513
  0
SEQEND
  0
POLYLINE
  8
LAYER_2
 66
1
 10
0
 20
0
 30
0
 70
1
  0
VERTEX
  8
LAYER_2
 10
10.0956
 20
79.4419
  0
VERTEX
  8
LAYER_2
 10
10.5851
 20
79.4419
  0
VERTEX
  8
LAYER_2
 10
10.3404
 20
80.9513
  0
SEQEND
  0
TEXT
  8
LAYER_2
 10
11.4828
 20
74.7765
 11
11.4828
 21
74.7765
 40
3.7001
 41
0.5
 50
89.99999999
  1
35
  0
POLYLINE
  8
LAYER_2
 40
0.1764
 41
0.1764
 62
1
 66
1
 10
0
 20
0
 30
0
 70
1
  0
VERTEX
  8
LAYER_2
 10
196.1761
 20
136.5169
  0
VERTEX
  8
LAYER_2
 10
148.0201
 20
136.5169
 42
-0.4142103159
  0
VERTEX
  8
LAYER_2
 10
143.7234
 20
140.8135
  0
VERTEX
  8
LAYER_2
 10
143.7234
 20
179.5187
 42
-0.4142150238
  0
VERTEX
  8
LAYER_2
 10
149.042
 20
184.8373
  0
VERTEX
  8
LAYER_2
 10
196.0316
 20
184.8373
 42
-0.4142115588
  0
VERTEX
  8
LAYER_2
 10
201.9051
 20
178.9637
  0
VERTEX
  8
LAYER_2
 10
201.9051
 20
142.2459
 42
-0.1228396821
  0
VERTEX
  8
LAYER_2
 10
201.3255
 20
139.9621
 42
-0.05294801147
  0
VERTEX
  8
LAYER_2
 10
200.6108
 20
138.8933
 42
-0.1006009139
  0
VERTEX
  8
LAYER_2
 10
198.4207
 20
137.1427
 42
-0.05410833248
  0
VERTEX
  8
LAYER_2
 10
197.1943
 20
136.6688
 42
-0.05730224131
  0
SEQEND
  0
INSERT
  8
LAYER_2
  2
AIGNBL02010028
 10
0
 20
0
 30
0
  0
INSERT
  8
LAYER_2
  2
AIGNBL02010029
 10
0
 20
0
 30
0
  0
POLYLINE
  8
LAYER_2
 40
0.1446
 41
0.1446
 66
1
 10
0
 20
0
 30
0
  0
VERTEX
  8
LAYER_2
 10
145.6167
 20
136.6882
  0
VERTEX
  8
LAYER_2
 10
142.7077
 20
130.7317
  0
SEQEND
  0
TEXT
  8
LAYER_2
 10
140.4397
 20
127.3216
 11
140.4397
 21
127.3216
 40
3.7001
 41
0.5
  1
R35
  0
INSERT
  8
LAYER_2
  2
AIGNBL0201002A
 10
0
 20
0
 30
0
  0
POLYLINE
  8
LAYER_2
 40
0.1446
 41
0.1446
 66
1
 10
0
 20
0
 30
0
  0
VERTEX
  8
LAYER_2
 10
170.467
 20
135.7245
  0
VERTEX
  8
LAYER_2
 10
172.6466
 20
129.118
  0
VERTEX
  8
LAYER_2
 10
188.2937
 20
129.118
  0
SEQEND
  0
POLYLINE
  8
LAYER_2
 40
0.05
 41
0.05
 66
1
 10
0
 20
0
 30
0
  0
VERTEX
  8
LAYER_2
 10
170.2013
 20
135.6733
  0
VERTEX
  8
LAYER_2
 10
170.0724
 20
136.3183
  0
VERTEX
  8
LAYER_2
 10
170.631
 20
135.8881
  0
VERTEX
  8
LAYER_2
 10
170.2013
 20
135.6733
  0
SEQEND
  0
POLYLINE
  8
LAYER_2
 40
0.1446
 41
0.1446
 66
1
 10
0
 20
0
 30
0
  0
VERTEX
  8
LAYER_2
 10
145.2557
 20
136.4804
  0
VERTEX
  8
LAYER_2
 10
145.7397
 20
136.9258
  0
VERTEX
  8
LAYER_2
 10
145.6626
 20
136.2251
  0
VERTEX
  8
LAYER_2
 10
145.2557
 20
136.4804
  0
SEQEND
  0
POLYLINE
  8
LAYER_2
 40
0.0353
 41
0.0353
 66
1
 10
0
 20
0
 30
0
  0
VERTEX
  8
LAYER_2
 10
148.2559
 20
134.8861
  0
VERTEX
  8
LAYER_2
 10
139.6016
 20
134.8861
  0
SEQEND
  0
POLYLINE
  8
LAYER_2
 40
0.0353
 41
0.0353
 66
1
 10
0
 20
0
 30
0
  0
VERTEX
  8
LAYER_2
 10
148.2559
 20
136.4479
  0
VERTEX
  8
LAYER_2
 10
139.6016
 20
136.4479
  0
SEQEND
  0
POLYLINE
  8
LAYER_2
 40
0.0353
 41
0.0353
 66
1
 10
0
 20
0
 30
0
  0
VERTEX
  8
LAYER_2
 10
139.7736
 20
138.1243
  0
VERTEX
  8
LAYER_2
 10
139.7736
 20
139.7579
  0
SEQEND
  0
POLYLINE
  8
LAYER_2
 40
0.0353
 41
0.0353
 66
1
 10
0
 20
0
 30
0
  0
VERTEX
  8
LAYER_2
 10
139.7736
 20
134.4706
  0
VERTEX
  8
LAYER_2
 10
139.7736
 20
136.4478
  0
SEQEND
  0
POLYLINE
  8
LAYER_2
 40
0.05
 41
0.05
 66
1
 10
0
 20
0
 30
0
 70
1
  0
VERTEX
  8
LAYER_2
 10
139.4727
 20
132.8371
  0
VERTEX
  8
LAYER_2
 10
140.0316
 20
132.8371
  0
VERTEX
  8
LAYER_2
 10
139.7735
 20
134.4707
  0
SEQEND
  0
POLYLINE
  8
LAYER_2
 40
0.05
 41
0.05
 66
1
 10
0
 20
0
 30
0
 70
1
  0
VERTEX
  8
LAYER_2
 10
139.4727
 20
138.1243
  0
VERTEX
  8
LAYER_2
 10
140.0316
 20
138.1243
  0
VERTEX
  8
LAYER_2
 10
139.7735
 20
136.4479
  0
SEQEND
  0
POLYLINE
  8
LAYER_2
 40
0.0353
 41
0.0353
 66
1
 10
0
 20
0
 30
0
  0
VERTEX
  8
LAYER_2
 10
141.746
 20
181.5178
  0
VERTEX
  8
LAYER_2
 10
141.746
 20
187.661
  0
SEQEND
  0
POLYLINE
  8
LAYER_2
 40
0.0353
 41
0.0353
 66
1
 10
0
 20
0
 30
0
  0
VERTEX
  8
LAYER_2
 10
143.7407
 20
180.9031
  0
VERTEX
  8
LAYER_2
 10
143.7407
 20
187.661
  0
SEQEND
  0
POLYLINE
  8
LAYER_2
 40
0.0353
 41
0.0353
 66
1
 10
0
 20
0
 30
0
  0
VERTEX
  8
LAYER_2
 10
145.4171
 20
187.4891
  0
VERTEX
  8
LAYER_2
 10
147.0507
 20
187.4891
  0
SEQEND
  0
POLYLINE
  8
LAYER_2
 40
0.0353
 41
0.0353
 66
1
 10
0
 20
0
 30
0
  0
VERTEX
  8
LAYER_2
 10
141.7633
 20
187.4891
  0
VERTEX
  8
LAYER_2
 10
143.7406
 20
187.4891
  0
SEQEND
  0
POLYLINE
  8
LAYER_2
 40
0.05
 41
0.05
 66
1
 10
0
 20
0
 30
0
 70
1
  0
VERTEX
  8
LAYER_2
 10
140.1299
 20
187.79
  0
VERTEX
  8
LAYER_2
 10
140.1299
 20
187.2311
  0
VERTEX
  8
LAYER_2
 10
141.7635
 20
187.4891
  0
SEQEND
  0
POLYLINE
  8
LAYER_2
 40
0.05
 41
0.05
 66
1
 10
0
 20
0
 30
0
 70
1
  0
VERTEX
  8
LAYER_2
 10
145.4171
 20
187.79
  0
VERTEX
  8
LAYER_2
 10
145.4171
 20
187.2311
  0
VERTEX
  8
LAYER_2
 10
143.7407
 20
187.4891
  0
SEQEND
  0
TEXT
  8
LAYER_2
 10
174.7602
 20
130.778
 11
174.7602
 21
130.778
 40
2.6086
 41
0.5
  1
カウンター開口
  0
TEXT
  8
LAYER_2
 10
139.7519
 20
188.3062
 11
139.7519
 21
188.3062
 40
3.7001
 41
0.5
  1
20
  0
TEXT
  8
LAYER_2
 10
134.9748
 20
134.7101
 11
134.9748
 21
134.7101
 40
3.7001
 41
0.5
  1
20
  0
TEXT
  8
LAYER_2
 10
8.664
 20
220.5809
 11
8.664
 21
220.5809
 40
2.5977
 41
0.5
  1
※陶器製品は寸法公差が発生します。カウンター切り込みの際は必ず現物を合わせてご確認ください。
  0
TEXT
  8
LAYER_2
 10
8.664
 20
215.831
 11
8.664
 21
215.831
 40
2.9614
 41
0.5
  1
※壁面には50mm以上の補強材を入れてください。
  0
TEXT
  8
LAYER_2
 10
8.664
 20
211.0809
 11
8.664
 21
211.0809
 40
2.5977
 41
0.5
  1
※製品と接する部分には必ずコーキング処理を行ってください。
  0
TEXT
  8
LAYER_2
 10
8.664
 20
206.3309
 11
8.664
 21
206.3309
 40
2.5977
 41
0.5
  1
※カウンター開口が大きくなっておりますので、十分に強固なカウンターをご用意ください。
  0
ENDSEC
  0
EOF
