  0
SECTION
  2
HEADER
  9
$ACADVER
  1
AC1015
  9
$ACADMAINTVER
 70
     6
  9
$DWGCODEPAGE
  3
DOS932
  9
$INSBASE
 10
0.0
 20
0.0
 30
0.0
  9
$EXTMIN
 10
0.0
 20
0.0
 30
0.0
  9
$EXTMAX
 10
420.0
 20
297.0
 30
0.0
  9
$LIMMIN
 10
0.0
 20
0.0
  9
$LIMMAX
 10
420.0
 20
297.0
  9
$ORTHOMODE
 70
     0
  9
$REGENMODE
 70
     1
  9
$FILLMODE
 70
     1
  9
$QTEXTMODE
 70
     0
  9
$MIRRTEXT
 70
     1
  9
$LTSCALE
 40
1.0
  9
$ATTMODE
 70
     1
  9
$TEXTSIZE
 40
3.8805555556
  9
$TRACEWID
 40
1.0
  9
$TEXTSTYLE
  7
Standard
  9
$CLAYER
  8
0
  9
$CELTYPE
  6
ByLayer
  9
$CECOLOR
 62
   256
  9
$CELTSCALE
 40
1.0
  9
$DISPSILH
 70
     0
  9
$DIMSCALE
 40
1.0
  9
$DIMASZ
 40
3.0
  9
$DIMEXO
 40
0.0
  9
$DIMDLI
 40
3.75
  9
$DIMRND
 40
0.0
  9
$DIMDLE
 40
0.0
  9
$DIMEXE
 40
1.0
  9
$DIMTP
 40
0.0
  9
$DIMTM
 40
0.0
  9
$DIMTXT
 40
3.5277777778
  9
$DIMCEN
 40
2.5
  9
$DIMTSZ
 40
0.0
  9
$DIMTOL
 70
     0
  9
$DIMLIM
 70
     0
  9
$DIMTIH
 70
     1
  9
$DIMTOH
 70
     1
  9
$DIMSE1
 70
     0
  9
$DIMSE2
 70
     0
  9
$DIMTAD
 70
     1
  9
$DIMZIN
 70
     0
  9
$DIMBLK
  1

  9
$DIMASO
 70
     1
  9
$DIMSHO
 70
     1
  9
$DIMPOST
  1

  9
$DIMAPOST
  1

  9
$DIMALT
 70
     0
  9
$DIMALTD
 70
     3
  9
$DIMALTF
 40
0.0393700787
  9
$DIMLFAC
 40
1.0
  9
$DIMTOFL
 70
     1
  9
$DIMTVP
 40
0.0
  9
$DIMTIX
 70
     0
  9
$DIMSOXD
 70
     0
  9
$DIMSAH
 70
     0
  9
$DIMBLK1
  1

  9
$DIMBLK2
  1

  9
$DIMSTYLE
  2
ISO-25
  9
$DIMCLRD
 70
     0
  9
$DIMCLRE
 70
     0
  9
$DIMCLRT
 70
     0
  9
$DIMTFAC
 40
1.0
  9
$DIMGAP
 40
1.0
  9
$DIMJUST
 70
     0
  9
$DIMSD1
 70
     0
  9
$DIMSD2
 70
     0
  9
$DIMTOLJ
 70
     0
  9
$DIMTZIN
 70
     0
  9
$DIMALTZ
 70
     0
  9
$DIMALTTZ
 70
     0
  9
$DIMUPT
 70
     0
  9
$DIMDEC
 70
     2
  9
$DIMTDEC
 70
     2
  9
$DIMALTU
 70
     2
  9
$DIMALTTD
 70
     3
  9
$DIMTXSTY
  7
Standard
  9
$DIMAUNIT
 70
     0
  9
$DIMADEC
 70
     2
  9
$DIMALTRND
 40
0.0
  9
$DIMAZIN
 70
     0
  9
$DIMDSEP
 70
    44
  9
$DIMATFIT
 70
     3
  9
$DIMFRAC
 70
     0
  9
$DIMLDRBLK
  1

  9
$DIMLUNIT
 70
     2
  9
$DIMLWD
 70
    -2
  9
$DIMLWE
 70
    -2
  9
$DIMTMOVE
 70
     0
  9
$LUNITS
 70
     2
  9
$LUPREC
 70
     2
  9
$SKETCHINC
 40
1.0
  9
$FILLETRAD
 40
10.0
  9
$AUNITS
 70
     0
  9
$AUPREC
 70
     2
  9
$MENU
  1
.
  9
$ELEVATION
 40
0.0
  9
$PELEVATION
 40
0.0
  9
$THICKNESS
 40
0.0
  9
$LIMCHECK
 70
     0
  9
$CHAMFERA
 40
0.0
  9
$CHAMFERB
 40
0.0
  9
$CHAMFERC
 40
0.0
  9
$CHAMFERD
 40
0.0
  9
$SKPOLY
 70
     0
  9
$TDCREATE
 40
2459317.495511447
  9
$TDUCREATE
 40
2459317.120511447
  9
$TDUPDATE
 40
2459317.495512477
  9
$TDUUPDATE
 40
2459317.120512477
  9
$TDINDWG
 40
0.0000000116
  9
$TDUSRTIMER
 40
0.0000000116
  9
$USRTIMER
 70
     1
  9
$ANGBASE
 50
0.0
  9
$ANGDIR
 70
     0
  9
$PDMODE
 70
     0
  9
$PDSIZE
 40
-1.0
  9
$PLINEWID
 40
0.0
  9
$SPLFRAME
 70
     0
  9
$SPLINETYPE
 70
     6
  9
$SPLINESEGS
 70
     8
  9
$HANDSEED
  5
103
  9
$SURFTAB1
 70
     6
  9
$SURFTAB2
 70
     6
  9
$SURFTYPE
 70
     6
  9
$SURFU
 70
     6
  9
$SURFV
 70
     6
  9
$UCSBASE
  2

  9
$UCSNAME
  2

  9
$UCSORG
 10
0.0
 20
0.0
 30
0.0
  9
$UCSXDIR
 10
1.0
 20
0.0
 30
0.0
  9
$UCSYDIR
 10
0.0
 20
1.0
 30
0.0
  9
$UCSORTHOREF
  2

  9
$UCSORTHOVIEW
 70
     0
  9
$UCSORGTOP
 10
0.0
 20
0.0
 30
0.0
  9
$UCSORGBOTTOM
 10
0.0
 20
0.0
 30
0.0
  9
$UCSORGLEFT
 10
0.0
 20
0.0
 30
0.0
  9
$UCSORGRIGHT
 10
0.0
 20
0.0
 30
0.0
  9
$UCSORGFRONT
 10
0.0
 20
0.0
 30
0.0
  9
$UCSORGBACK
 10
0.0
 20
0.0
 30
0.0
  9
$PUCSBASE
  2

  9
$PUCSNAME
  2

  9
$PUCSORG
 10
0.0
 20
0.0
 30
0.0
  9
$PUCSXDIR
 10
1.0
 20
0.0
 30
0.0
  9
$PUCSYDIR
 10
0.0
 20
1.0
 30
0.0
  9
$PUCSORTHOREF
  2

  9
$PUCSORTHOVIEW
 70
     0
  9
$PUCSORGTOP
 10
0.0
 20
0.0
 30
0.0
  9
$PUCSORGBOTTOM
 10
0.0
 20
0.0
 30
0.0
  9
$PUCSORGLEFT
 10
0.0
 20
0.0
 30
0.0
  9
$PUCSORGRIGHT
 10
0.0
 20
0.0
 30
0.0
  9
$PUCSORGFRONT
 10
0.0
 20
0.0
 30
0.0
  9
$PUCSORGBACK
 10
0.0
 20
0.0
 30
0.0
  9
$USERI1
 70
     0
  9
$USERI2
 70
     0
  9
$USERI3
 70
     0
  9
$USERI4
 70
     0
  9
$USERI5
 70
     0
  9
$USERR1
 40
0.0
  9
$USERR2
 40
0.0
  9
$USERR3
 40
0.0
  9
$USERR4
 40
0.0
  9
$USERR5
 40
0.0
  9
$WORLDVIEW
 70
     1
  9
$SHADEDGE
 70
     3
  9
$SHADEDIF
 70
    70
  9
$TILEMODE
 70
     1
  9
$MAXACTVP
 70
    64
  9
$PINSBASE
 10
0.0
 20
0.0
 30
0.0
  9
$PLIMCHECK
 70
     0
  9
$PEXTMIN
 10
1.0000000000E+20
 20
1.0000000000E+20
 30
1.0000000000E+20
  9
$PEXTMAX
 10
-1.0000000000E+20
 20
-1.0000000000E+20
 30
-1.0000000000E+20
  9
$PLIMMIN
 10
0.0
 20
0.0
  9
$PLIMMAX
 10
420.0
 20
297.0
  9
$UNITMODE
 70
     0
  9
$VISRETAIN
 70
     1
  9
$PLINEGEN
 70
     0
  9
$PSLTSCALE
 70
     1
  9
$TREEDEPTH
 70
  3020
  9
$CMLSTYLE
  2
Standard
  9
$CMLJUST
 70
     0
  9
$CMLSCALE
 40
20.0
  9
$PROXYGRAPHICS
 70
     1
  9
$MEASUREMENT
 70
     1
  9
$CELWEIGHT
370
    -1
  9
$ENDCAPS
280
     0
  9
$JOINSTYLE
280
     0
  9
$LWDISPLAY
290
     1
  9
$INSUNITS
 70
     4
  9
$HYPERLINKBASE
  1

  9
$STYLESHEET
  1

  9
$XEDIT
290
     1
  9
$CEPSNTYPE
380
     0
  9
$PSTYLEMODE
290
     1
  9
$FINGERPRINTGUID
  2
{211532fe-9c5e-4c8f-b4a5-2db5174b3a35}
  9
$VERSIONGUID
  2
{FAEB1C32-E019-11D5-929B-00C0DF256EC4}
  9
$EXTNAMES
290
     1
  9
$PSVPSCALE
 40
0.0
  9
$OLESTARTUP
290
     0
  0
ENDSEC
  0
SECTION
  2
CLASSES
  0
CLASS
  1
ACDBDICTIONARYWDFLT
  2
AcDbDictionaryWithDefault
  3
ObjectDBX Classes
 90
        0
280
     0
281
     0
  0
CLASS
  1
VISUALSTYLE
  2
AcDbVisualStyle
  3
ObjectDBX Classes
 90
     4095
280
     0
281
     0
  0
CLASS
  1
MATERIAL
  2
AcDbMaterial
  3
ObjectDBX Classes
 90
     1153
280
     0
281
     0
  0
CLASS
  1
SCALE
  2
AcDbScale
  3
ObjectDBX Classes
 90
     1153
280
     0
281
     0
  0
CLASS
  1
TABLESTYLE
  2
AcDbTableStyle
  3
ObjectDBX Classes
 90
     4095
280
     0
281
     0
  0
CLASS
  1
MLEADERSTYLE
  2
AcDbMLeaderStyle
  3
ACDB_MLEADERSTYLE_CLASS
 90
     4095
280
     0
281
     0
  0
CLASS
  1
SUN
  2
AcDbSun
  3
SCENEOE
 90
     1153
280
     0
281
     0
  0
CLASS
  1
ACDBPLACEHOLDER
  2
AcDbPlaceHolder
  3
ObjectDBX Classes
 90
        0
280
     0
281
     0
  0
CLASS
  1
LAYOUT
  2
AcDbLayout
  3
ObjectDBX Classes
 90
        0
280
     0
281
     0
  0
ENDSEC
  0
SECTION
  2
TABLES
  0
TABLE
  2
VPORT
  5
8
330
0
100
AcDbSymbolTable
 70
     1
  0
VPORT
  5
29
330
8
100
AcDbSymbolTableRecord
100
AcDbViewportTableRecord
  2
*Active
 70
     0
 10
0.0
 20
0.0
 11
1.0
 21
1.0
 12
210.0
 22
148.5
 13
0.0
 23
0.0
 14
10.0
 24
10.0
 15
10.0
 25
10.0
 16
0.0
 26
0.0
 36
1.0
 17
0.0
 27
0.0
 37
0.0
 40
297.0
 41
1.4141414141
 42
50.0
 43
0.0
 44
0.0
 50
0.0
 51
0.0
 71
     0
 72
  2000
 73
     1
 74
     3
 75
     0
 76
     0
 77
     0
 78
     0
281
     0
 65
     1
110
0.0
120
0.0
130
0.0
111
1.0
121
0.0
131
0.0
112
0.0
122
1.0
132
0.0
 79
     0
146
0.0
  0
ENDTAB
  0
TABLE
  2
LTYPE
  5
5
330
0
100
AcDbSymbolTable
 70
     6
  0
LTYPE
  5
14
330
5
100
AcDbSymbolTableRecord
100
AcDbLinetypeTableRecord
  2
ByBlock
 70
     0
  3

 72
    65
 73
     0
 40
0.0
  0
LTYPE
  5
15
330
5
100
AcDbSymbolTableRecord
100
AcDbLinetypeTableRecord
  2
ByLayer
 70
     0
  3

 72
    65
 73
     0
 40
0.0
  0
LTYPE
  5
16
330
5
100
AcDbSymbolTableRecord
100
AcDbLinetypeTableRecord
  2
Continuous
 70
     0
  3
Solid line
 72
    65
 73
     0
 40
0.0
  0
LTYPE
  5
6E
330
5
100
AcDbSymbolTableRecord
100
AcDbLinetypeTableRecord
  2
HIDDEN
 70
     0
  3
Hidden __ __ __ __ __ __ __ __ __ __ __ __ __ __
 72
    65
 73
     2
 40
1.905
 49
1.27
 74
     0
 49
-0.635
 74
     0
  0
LTYPE
  5
6F
330
5
100
AcDbSymbolTableRecord
100
AcDbLinetypeTableRecord
  2
PHANTOM
 70
     0
  3
Phantom ______  __  __  ______  __  __  ______
 72
    65
 73
     6
 40
12.7
 49
6.35
 74
     0
 49
-1.27
 74
     0
 49
1.27
 74
     0
 49
-1.27
 74
     0
 49
1.27
 74
     0
 49
-1.27
 74
     0
  0
LTYPE
  5
70
330
5
100
AcDbSymbolTableRecord
100
AcDbLinetypeTableRecord
  2
CENTER
 70
     0
  3
Center ____ _ ____ _ ____ _ ____ _ ____ _ ____
 72
    65
 73
     4
 40
10.16
 49
6.35
 74
     0
 49
-1.27
 74
     0
 49
1.27
 74
     0
 49
-1.27
 74
     0
  0
LTYPE
  5
71
330
5
100
AcDbSymbolTableRecord
100
AcDbLinetypeTableRecord
  2
CENTERX2
 70
     0
  3
Center (2x) ________  __  ________  __  _____
 72
    65
 73
     4
 40
20.32
 49
12.7
 74
     0
 49
-2.54
 74
     0
 49
2.54
 74
     0
 49
-2.54
 74
     0
  0
LTYPE
  5
72
330
5
100
AcDbSymbolTableRecord
100
AcDbLinetypeTableRecord
  2
DOT2
 70
     0
  3
Dot (.5x) ........................................
 72
    65
 73
     2
 40
0.635
 49
0.0
 74
     0
 49
-0.635
 74
     0
  0
ENDTAB
  0
TABLE
  2
LAYER
  5
2
330
0
100
AcDbSymbolTable
 70
     6
  0
LAYER
  5
10
330
2
100
AcDbSymbolTableRecord
100
AcDbLayerTableRecord
  2
0
 70
     0
 62
     7
  6
Continuous
370
    -3
390
F
  0
LAYER
  5
73
330
2
100
AcDbSymbolTableRecord
100
AcDbLayerTableRecord
  2
SLD-0
 70
     0
 62
     7
  6
Continuous
370
    -3
390
F
  0
LAYER
  5
74
330
2
100
AcDbSymbolTableRecord
100
AcDbLayerTableRecord
  2
8
 70
     0
 62
     7
  6
Continuous
370
    25
390
F
  0
LAYER
  5
75
330
2
100
AcDbSymbolTableRecord
100
AcDbLayerTableRecord
  2
9
 70
     0
 62
     7
  6
Continuous
370
    -3
390
F
  0
LAYER
  5
76
330
2
100
AcDbSymbolTableRecord
100
AcDbLayerTableRecord
  2
10
 70
     0
 62
     1
  6
Continuous
370
    -3
390
F
  0
LAYER
  5
77
330
2
100
AcDbSymbolTableRecord
100
AcDbLayerTableRecord
  2
11
 70
     0
 62
     7
  6
Continuous
370
    -3
390
F
  0
ENDTAB
  0
TABLE
  2
STYLE
  5
3
330
0
100
AcDbSymbolTable
 70
     2
  0
STYLE
  5
11
330
3
100
AcDbSymbolTableRecord
100
AcDbTextStyleTableRecord
  2
Standard
 70
     0
 40
0.0
 41
1.0
 50
0.0
 71
     0
 42
3.8805555556
  3
txt
  4
bigfont
  0
STYLE
  5
78
330
3
100
AcDbSymbolTableRecord
100
AcDbTextStyleTableRecord
  2
SLDTEXTSTYLE0
 70
     0
 40
0.0
 41
0.7
 50
0.0
 71
     0
 42
3.8805555556
  3
TXT
  4
bigfont
  0
ENDTAB
  0
TABLE
  2
VIEW
  5
6
330
0
100
AcDbSymbolTable
 70
     0
  0
ENDTAB
  0
TABLE
  2
UCS
  5
7
330
0
100
AcDbSymbolTable
 70
     0
  0
ENDTAB
  0
TABLE
  2
APPID
  5
9
330
0
100
AcDbSymbolTable
 70
     1
  0
APPID
  5
12
330
9
100
AcDbSymbolTableRecord
100
AcDbRegAppTableRecord
  2
ACAD
 70
     0
  0
ENDTAB
  0
TABLE
  2
DIMSTYLE
  5
A
330
0
100
AcDbSymbolTable
 70
     1
100
AcDbDimStyleTable
  0
DIMSTYLE
105
27
330
A
100
AcDbSymbolTableRecord
100
AcDbDimStyleTableRecord
  2
ISO-25
 70
     0
 41
2.5
 42
0.625
 43
3.75
 44
1.25
 73
     0
 74
     0
 77
     1
 78
     8
140
2.5
141
2.5
143
0.0393700787
147
0.625
171
     3
172
     1
178
     0
271
     2
272
     2
274
     3
278
    44
283
     0
284
     8
340
11
  0
ENDTAB
  0
TABLE
  2
BLOCK_RECORD
  5
1
330
0
100
AcDbSymbolTable
 70
     1
  0
BLOCK_RECORD
  5
1F
330
1
100
AcDbSymbolTableRecord
100
AcDbBlockTableRecord
  2
*Model_Space
340
22
  0
BLOCK_RECORD
  5
1B
330
1
100
AcDbSymbolTableRecord
100
AcDbBlockTableRecord
  2
*Paper_Space
340
1E
  0
BLOCK_RECORD
  5
23
330
1
100
AcDbSymbolTableRecord
100
AcDbBlockTableRecord
  2
*Paper_Space0
340
26
  0
ENDTAB
  0
ENDSEC
  0
SECTION
  2
BLOCKS
  0
BLOCK
  5
20
330
1F
100
AcDbEntity
  8
0
100
AcDbBlockBegin
  2
*Model_Space
 70
     0
 10
0.0
 20
0.0
 30
0.0
  3
*Model_Space
  1

  0
ENDBLK
  5
21
330
1F
100
AcDbEntity
  8
0
100
AcDbBlockEnd
  0
BLOCK
  5
1C
330
1B
100
AcDbEntity
 67
     1
  8
0
100
AcDbBlockBegin
  2
*Paper_Space
 70
     0
 10
0.0
 20
0.0
 30
0.0
  3
*Paper_Space
  1

  0
ENDBLK
  5
1D
330
1B
100
AcDbEntity
 67
     1
  8
0
100
AcDbBlockEnd
  0
BLOCK
  5
24
330
23
100
AcDbEntity
  8
0
100
AcDbBlockBegin
  2
*Paper_Space0
 70
     0
 10
0.0
 20
0.0
 30
0.0
  3
*Paper_Space0
  1

  0
ENDBLK
  5
25
330
23
100
AcDbEntity
  8
0
100
AcDbBlockEnd
  0
ENDSEC
  0
SECTION
  2
ENTITIES
  0
MTEXT
  5
79
330
1F
100
AcDbEntity
  8
9
 62
     7
100
AcDbMText
 10
22.9810592731
 20
14.7698939359
 30
0.0
 40
3.7041666667
 41
0.0
 71
     1
 72
     1
  1
2021/03/09
  7
SLDTEXTSTYLE0
 73
     1
 44
1.0
  0
MTEXT
  5
7A
330
1F
100
AcDbEntity
  8
9
 62
     7
100
AcDbMText
 10
22.9810592731
 20
39.3097759652
 30
0.0
 40
3.7041666667
 41
0.0
 71
     1
 72
     1
  1
12-8001-002
  7
SLDTEXTSTYLE0
 73
     1
 44
1.0
  0
MTEXT
  5
7B
330
1F
100
AcDbEntity
  8
9
 62
     7
100
AcDbMText
 10
22.9810592731
 20
22.271836236
 30
0.0
 40
3.7041666667
 41
0.0
 71
     1
 72
     1
  1
-
  7
SLDTEXTSTYLE0
 73
     1
 44
1.0
  0
MTEXT
  5
7C
330
1F
100
AcDbEntity
  8
9
 62
     7
100
AcDbMText
 10
22.9810592731
 20
30.9293045781
 30
0.0
 40
3.7041666667
 41
0.0
 71
     1
 72
     1
  1
1:1
  7
SLDTEXTSTYLE0
 73
     1
 44
1.0
  0
ARC
  5
7D
330
1F
100
AcDbEntity
  8
0
  6
Continuous
 62
     7
370
    35
100
AcDbCircle
 10
162.6050868872
 20
172.6430792303
 30
0.0
 40
0.5
100
AcDbArc
 50
90.0
 51
180.0
  0
ARC
  5
7E
330
1F
100
AcDbEntity
  8
0
  6
Continuous
 62
     7
370
    35
100
AcDbCircle
 10
165.6050868872
 20
172.6430792303
 30
0.0
 40
0.5
100
AcDbArc
 50
0.0
 51
90.0
  0
LINE
  5
7F
330
1F
100
AcDbEntity
  8
0
  6
Continuous
 62
     7
370
    35
100
AcDbLine
 10
166.1050868872
 20
168.9410382014
 30
0.0
 11
166.1050868872
 21
172.6430792303
 31
0.0
  0
LINE
  5
80
330
1F
100
AcDbEntity
  8
0
  6
Continuous
 62
     7
370
    35
100
AcDbLine
 10
162.1050868872
 20
172.6430792303
 30
0.0
 11
162.1050868872
 21
168.9410382014
 31
0.0
  0
LINE
  5
81
330
1F
100
AcDbEntity
  8
0
  6
Continuous
 62
     7
370
    35
100
AcDbLine
 10
165.6050868872
 20
173.1430792303
 30
0.0
 11
165.4955033486
 21
173.1430792303
 31
0.0
  0
LWPOLYLINE
  5
82
330
1F
100
AcDbEntity
  8
0
  6
Continuous
 62
     7
370
    35
100
AcDbPolyline
 90
       27
 70
   128
 43
0.0
 10
165.4955033486
 20
173.1430792303
 10
165.2448000754
 20
173.1430792302
 10
164.9407921888
 20
173.1430792295
 10
164.6474053307
 20
173.1430792264
 10
164.4030773722
 20
173.143079218
 10
164.2266505735
 20
173.1430792003
 10
164.1251111047
 20
173.1430791682
 10
164.1116658717
 20
173.1430791572
 10
164.1067389434
 20
173.1430791512
 10
164.105694289
 20
173.1430791496
 10
164.1052000243
 20
173.1430791488
 10
164.1051395566
 20
173.1430791487
 10
164.1051094324
 20
173.1430791487
 10
164.1050943977
 20
173.1430791486
 10
164.1050868872
 20
173.1430791486
 10
163.8470847094
 20
173.1430789805
 10
163.5431445398
 20
173.1430792297
 10
163.2219598261
 20
173.1430790559
 10
163.1537198607
 20
173.1430788225
 10
163.0388011681
 20
173.1430791718
 10
162.9532413447
 20
173.1430792301
 10
162.8232681225
 20
173.1430791735
 10
162.7517446492
 20
173.1430790699
 10
162.7205702129
 20
173.1430790999
 10
162.6854454777
 20
173.1430791489
 10
162.6051501829
 20
173.1430792252
 10
162.6072878817
 20
173.1430792257
  0
ARC
  5
83
330
1F
100
AcDbEntity
  8
0
  6
Continuous
 62
     7
370
    35
100
AcDbCircle
 10
164.1050868872
 20
159.1430792303
 30
0.0
 40
10.00000000000001
100
AcDbArc
 50
98.2701165202
 51
81.7298834798
  0
SPLINE
  5
84
330
1F
100
AcDbEntity
  8
0
  6
Continuous
 62
   144
370
    18
100
AcDbSpline
210
0.0
220
0.0
230
1.0
 70
     8
 71
     3
 72
    21
 73
    17
 74
     0
 42
0.00000001
 43
0.00000001
 40
0.0
 40
0.0
 40
0.0
 40
0.0
 40
0.042079022447375
 40
0.0837666750593225
 40
0.1252446283488926
 40
0.1666973165545634
 40
0.2083095502792027
 40
0.2502641048634255
 40
0.3751343607476912
 40
0.4998439661466197
 40
0.5000696099226264
 40
0.6246708078416038
 40
0.7494898389339971
 40
0.8331248545457691
 40
0.9161341522831683
 40
1.0
 40
1.0
 40
1.0
 40
1.0
 10
165.5434876797816
 20
169.0390886866315
 30
0.0
 10
165.5117050679827
 20
169.0435899666446
 30
0.0
 10
165.4484354490548
 20
169.0525506610306
 30
0.0
 10
165.3461442660435
 20
169.0654094282001
 30
0.0
 10
165.2391846243436
 20
169.077621746913
 30
0.0
 10
165.1270094196536
 20
169.0890568228173
 30
0.0
 10
165.0097630697951
 20
169.0996075918606
 30
0.0
 10
164.8075642736903
 20
169.1153743278543
 30
0.0
 10
164.5077520642724
 20
169.1317123281081
 30
0.0
 10
164.2392097048674
 20
169.1366163547071
 30
0.0
 10
163.9718056439335
 20
169.1366248614798
 30
0.0
 10
163.7034307546356
 20
169.1317409812517
 30
0.0
 10
163.3608419538855
 20
169.1131292520571
 30
0.0
 10
163.082292537941
 20
169.0896253429715
 30
0.0
 10
162.8597949168656
 20
169.0657499588887
 30
0.0
 10
162.731275593435
 20
169.0480061363503
 30
0.0
 10
162.6666860946324
 20
169.0390886866315
 30
0.0
  0
ARC
  5
85
330
1F
100
AcDbEntity
  8
0
  6
Continuous
 62
     7
370
    35
100
AcDbCircle
 10
222.8051606589
 20
172.6430792303
 30
0.0
 40
0.5
100
AcDbArc
 50
90.0
 51
180.0
  0
ARC
  5
86
330
1F
100
AcDbEntity
  8
0
  6
Continuous
 62
     7
370
    35
100
AcDbCircle
 10
225.8051606589
 20
172.6430792303
 30
0.0
 40
0.5
100
AcDbArc
 50
0.0
 51
90.0
  0
LINE
  5
87
330
1F
100
AcDbEntity
  8
0
  6
Continuous
 62
     7
370
    35
100
AcDbLine
 10
226.3051606589
 20
169.1430792303
 30
0.0
 11
226.3051606589
 21
172.6430792303
 31
0.0
  0
LINE
  5
88
330
1F
100
AcDbEntity
  8
0
  6
Continuous
 62
     7
370
    35
100
AcDbLine
 10
222.3051606589
 20
172.6430792303
 30
0.0
 11
222.3051606589
 21
169.136620614
 31
0.0
  0
ARC
  5
89
330
1F
100
AcDbEntity
  8
0
  6
Continuous
 62
     7
370
    35
100
AcDbCircle
 10
252.861669205
 20
177.9900694812
 30
0.0
 40
28.84699025085677
100
AcDbArc
 50
270.3703842156
 51
276.8161817707
  0
ARC
  5
8A
330
1F
100
AcDbEntity
  8
0
  6
Continuous
 62
     7
370
    35
100
AcDbCircle
 10
252.861669205
 20
140.2960889794
 30
0.0
 40
28.84699025085681
100
AcDbArc
 50
83.1838182293
 51
90.0
  0
LINE
  5
8B
330
1F
100
AcDbEntity
  8
0
  6
Continuous
 62
     7
370
    35
100
AcDbLine
 10
252.861669205
 20
169.1430792303
 30
0.0
 11
226.3051606589
 21
169.1430792303
 31
0.0
  0
LINE
  5
8C
330
1F
100
AcDbEntity
  8
0
  6
Continuous
 62
     7
370
    35
100
AcDbLine
 10
222.9155552617
 20
149.1430792303
 30
0.0
 11
247.5556082987
 21
149.1430792303
 31
0.0
  0
ARC
  5
8D
330
1F
100
AcDbEntity
  8
0
  6
Continuous
 62
     7
370
    35
100
AcDbCircle
 10
222.9155552617
 20
177.9900694812
 30
0.0
 40
28.84699025085794
100
AcDbArc
 50
263.1838182293
 51
270.0
  0
ARC
  5
8E
330
1F
100
AcDbEntity
  8
0
  6
Continuous
 62
     7
370
    35
100
AcDbCircle
 10
222.9155552617
 20
140.2960889794
 30
0.0
 40
28.84699025085797
100
AcDbArc
 50
91.2125522062
 51
96.8161817707
  0
ARC
  5
8F
330
1F
100
AcDbEntity
  8
0
  6
Continuous
 62
     7
370
    35
100
AcDbCircle
 10
255.1475266734
 20
159.4199254179
 30
0.0
 40
9.587024921379056
100
AcDbArc
 50
66.6573662957
 51
83.1838182293
  0
ARC
  5
90
330
1F
100
AcDbEntity
  8
0
  6
Continuous
 62
     7
370
    35
100
AcDbCircle
 10
255.1475266734
 20
158.8662330426
 30
0.0
 40
9.587024921379042
100
AcDbArc
 50
276.8161817707
 51
293.3426337043
  0
ARC
  5
91
330
1F
100
AcDbEntity
  8
0
  6
Continuous
 62
     7
370
    35
100
AcDbCircle
 10
220.6296977933
 20
159.4199254179
 30
0.0
 40
9.587024921379223
100
AcDbArc
 50
96.8161817707
 51
113.3426337043
  0
ARC
  5
92
330
1F
100
AcDbEntity
  8
0
  6
Continuous
 62
     7
370
    35
100
AcDbCircle
 10
220.6296977933
 20
158.8662330426
 30
0.0
 40
9.587024921379196
100
AcDbArc
 50
246.6573662957
 51
263.1838182293
  0
ARC
  5
93
330
1F
100
AcDbEntity
  8
0
  6
Continuous
 62
     7
370
    35
100
AcDbCircle
 10
256.968486922
 20
163.6395023445
 30
0.0
 40
4.991295853394199
100
AcDbArc
 50
29.6750409913
 51
66.6573662957
  0
ARC
  5
94
330
1F
100
AcDbEntity
  8
0
  6
Continuous
 62
     7
370
    35
100
AcDbCircle
 10
256.968486922
 20
154.6466561161
 30
0.0
 40
4.99129585339418
100
AcDbArc
 50
293.3426337043
 51
330.3249590087
  0
ARC
  5
95
330
1F
100
AcDbEntity
  8
0
  6
Continuous
 62
     7
370
    35
100
AcDbCircle
 10
218.8087375447
 20
163.6395023445
 30
0.0
 40
4.991295853394221
100
AcDbArc
 50
113.3426337043
 51
156.6573662957
  0
ARC
  5
96
330
1F
100
AcDbEntity
  8
0
  6
Continuous
 62
     7
370
    35
100
AcDbCircle
 10
218.8087375447
 20
154.6466561161
 30
0.0
 40
4.991295853394195
100
AcDbArc
 50
203.3426337043
 51
246.6573662957
  0
ARC
  5
97
330
1F
100
AcDbEntity
  8
0
  6
Continuous
 62
     7
370
    35
100
AcDbCircle
 10
223.0283144713
 20
161.818542096
 30
0.0
 40
9.587024921378026
100
AcDbArc
 50
156.6573662957
 51
173.1838182293
  0
ARC
  5
98
330
1F
100
AcDbEntity
  8
0
  6
Continuous
 62
     7
370
    35
100
AcDbCircle
 10
223.0283144713
 20
156.4676163646
 30
0.0
 40
9.587024921378026
100
AcDbArc
 50
186.8161817707
 51
203.3426337043
  0
ARC
  5
99
330
1F
100
AcDbEntity
  8
0
  6
Continuous
 62
     7
370
    35
100
AcDbCircle
 10
242.1521509098
 20
159.5326846275
 30
0.0
 40
28.84699025086561
100
AcDbArc
 50
173.1838182293
 51
180.0
  0
ARC
  5
9A
330
1F
100
AcDbEntity
  8
0
  6
Continuous
 62
     7
370
    35
100
AcDbCircle
 10
242.1521509098
 20
158.7534738331
 30
0.0
 40
28.8469902508656
100
AcDbArc
 50
180.0
 51
186.8161817707
  0
LINE
  5
9B
330
1F
100
AcDbEntity
  8
0
  6
Continuous
 62
     7
370
    35
100
AcDbLine
 10
225.8051606589
 20
173.1430792303
 30
0.0
 11
223.7423622368
 21
173.1430792303
 31
0.0
  0
SPLINE
  5
9C
330
1F
100
AcDbEntity
  8
0
  6
Continuous
 62
     7
370
    35
100
AcDbSpline
210
0.0
220
0.0
230
1.0
 70
     8
 71
     3
 72
    31
 73
    27
 74
     0
 42
0.00000001
 43
0.00000001
 40
0.0
 40
0.0
 40
0.0
 40
0.0
 40
0.0729566486358108
 40
0.1431933933808831
 40
0.210710091087195
 40
0.275506600830151
 40
0.3375827839085648
 40
0.3969385038446624
 40
0.4535736263841343
 40
0.5074880194962534
 40
0.558681553374053
 40
0.6071541004345898
 40
0.6529055353192933
 40
0.6959357348944685
 40
0.7362445782519486
 40
0.77383194671001
 40
0.8086977238146172
 40
0.8408417953411804
 40
0.8702640492970861
 40
0.896964375925461
 40
0.9209426677110036
 40
0.9421988193894391
 40
0.9607327279637895
 40
0.9765442927344592
 40
0.9896334153603665
 40
1.0
 40
1.0
 40
1.0
 40
1.0
 10
223.7423622368264
 20
173.1430792302939
 30
0.0
 10
223.7030930987401
 20
173.143079230294
 30
0.0
 10
223.6260188191115
 20
173.1430792302941
 30
0.0
 10
223.5183753563161
 20
173.1430792302925
 30
0.0
 10
223.4196736881835
 20
173.1430792302825
 30
0.0
 10
223.330245145202
 20
173.1430792302529
 30
0.0
 10
223.2498408718628
 20
173.1430792301882
 30
0.0
 10
223.1782007247677
 20
173.1430792300685
 30
0.0
 10
223.1149383913023
 20
173.143079229869
 30
0.0
 10
223.059596942108
 20
173.1430792295609
 30
0.0
 10
223.0116594488394
 20
173.1430792291108
 30
0.0
 10
222.9705685534394
 20
173.1430792284808
 30
0.0
 10
222.9357414108473
 20
173.1430792276288
 30
0.0
 10
222.9065833894988
 20
173.1430792265082
 30
0.0
 10
222.8824997501983
 20
173.143079225068
 30
0.0
 10
222.8629056134953
 20
173.143079223253
 30
0.0
 10
222.8472342830295
 20
173.1430792210038
 30
0.0
 10
222.8349441153003
 20
173.1430792182568
 30
0.0
 10
222.8255239888366
 20
173.1430792149455
 30
0.0
 10
222.8184978713994
 20
173.1430792109963
 30
0.0
 10
222.8134275609714
 20
173.1430792063443
 30
0.0
 10
222.8099172257287
 20
173.1430792008854
 30
0.0
 10
222.8076090120598
 20
173.1430791946315
 30
0.0
 10
222.8062032246418
 20
173.1430791872484
 30
0.0
 10
222.8054038290025
 20
173.143079179431
 30
0.0
 10
222.8051550547607
 20
173.1430791716399
 30
0.0
 10
222.8050451054335
 20
173.1430791681965
 30
0.0
  0
SPLINE
  5
9D
330
1F
100
AcDbEntity
  8
0
  6
Continuous
 62
     7
370
    35
100
AcDbSpline
210
0.0
220
0.0
230
1.0
 70
     8
 71
     3
 72
    10
 73
     6
 74
     0
 42
0.00000001
 43
0.00000001
 40
0.0
 40
0.0
 40
0.0
 40
0.0
 40
0.4306086320329278
 40
0.8764970525396018
 40
1.0
 40
1.0
 40
1.0
 40
1.0
 10
252.8616692050255
 20
149.1834724569439
 30
0.0
 10
252.9087026353443
 20
149.1738786067762
 30
0.0
 10
253.0044384380631
 20
149.1543504766622
 30
0.0
 10
253.0579606229465
 20
149.14299515
 30
0.0
 10
253.0497908827575
 20
149.1447161379319
 30
0.0
 10
253.0480188379917
 20
149.1450894261377
 30
0.0
  0
SPLINE
  5
9E
330
1F
100
AcDbEntity
  8
0
  6
Continuous
 62
     7
370
    35
100
AcDbSpline
210
0.0
220
0.0
230
1.0
 70
     8
 71
     3
 72
    25
 73
    21
 74
     0
 42
0.00000001
 43
0.00000001
 40
0.0
 40
0.0
 40
0.0
 40
0.0
 40
0.0006494711388788
 40
0.0499513499381743
 40
0.1007116508453351
 40
0.1497837705572909
 40
0.2000654352680474
 40
0.253553924613842
 40
0.308280213006714
 40
0.368324315985238
 40
0.4298324568139447
 40
0.4953064299922243
 40
0.5625524663682796
 40
0.6302571119648634
 40
0.6999193578950398
 40
0.7676366597328158
 40
0.8374544294315976
 40
0.902624558238796
 40
0.9701329546714837
 40
1.0
 40
1.0
 40
1.0
 40
1.0
 10
247.5556082986883
 20
149.1431751652781
 30
0.0
 10
247.5554590917839
 20
149.1431431892619
 30
0.0
 10
247.5439834682346
 20
149.1406838880256
 30
0.0
 10
247.581530915788
 20
149.1487806524174
 30
0.0
 10
247.6652060873236
 20
149.1665393358851
 30
0.0
 10
247.8131714201954
 20
149.196692996713
 30
0.0
 10
248.0112118636387
 20
149.2345527433879
 30
0.0
 10
248.2635365097851
 20
149.2785932098332
 30
0.0
 10
248.5737090710172
 20
149.3261245342209
 30
0.0
 10
248.9368427433766
 20
149.3723084141529
 30
0.0
 10
249.3543039795634
 20
149.4123565819698
 30
0.0
 10
249.811796876726
 20
149.4399879690547
 30
0.0
 10
250.2970957683518
 20
149.4502156713126
 30
0.0
 10
250.792768642581
 20
149.4404533538676
 30
0.0
 10
251.2761339622445
 20
149.411207768822
 30
0.0
 10
251.7363036764148
 20
149.3656779137694
 30
0.0
 10
252.1456814917135
 20
149.310820227919
 30
0.0
 10
252.4979217390404
 20
149.2532582205396
 30
0.0
 10
252.7285028490386
 20
149.2101013433617
 30
0.0
 10
252.8304116771237
 20
149.1897229333051
 30
0.0
 10
252.8616692050255
 20
149.1834724569439
 30
0.0
  0
SPLINE
  5
9F
330
1F
100
AcDbEntity
  8
0
  6
Continuous
 62
   144
370
    18
100
AcDbSpline
210
0.0
220
0.0
230
1.0
 70
     8
 71
     3
 72
    14
 73
    10
 74
     0
 42
0.00000001
 43
0.00000001
 40
0.0
 40
0.0
 40
0.0
 40
0.0
 40
0.0006458507023939
 40
0.1671653535517541
 40
0.3335782732341846
 40
0.4998057661270228
 40
0.6666423659505427
 40
0.8331459301601601
 40
1.0
 40
1.0
 40
1.0
 40
1.0
 10
225.974212877794
 20
169.0821920559326
 30
0.0
 10
225.9738936280844
 20
169.082134612192
 30
0.0
 10
225.8912623165845
 20
169.0672664651497
 30
0.0
 10
225.5923523016835
 20
169.0218855063032
 30
0.0
 10
225.1042128695596
 20
168.9687151554696
 30
0.0
 10
224.5273137602209
 20
168.9375262696672
 30
0.0
 10
223.9374635120153
 20
168.9422193298886
 30
0.0
 10
223.3700421067635
 20
168.9803622669309
 30
0.0
 10
223.0671570319383
 20
169.0194994965786
 30
0.0
 10
222.915555261748
 20
169.0390886866315
 30
0.0
  0
SPLINE
  5
A0
330
1F
100
AcDbEntity
  8
0
  6
Continuous
 62
   144
370
    18
100
AcDbSpline
210
0.0
220
0.0
230
1.0
 70
     8
 71
     3
 72
    12
 73
     8
 74
     0
 42
0.00000001
 43
0.00000001
 40
0.0
 40
0.0
 40
0.0
 40
0.0
 40
0.2502346476232979
 40
0.5000153798224343
 40
0.7498731678395633
 40
0.9994095040055208
 40
1.0
 40
1.0
 40
1.0
 40
1.0
 10
222.915555261748
 20
169.0390886866315
 30
0.0
 10
222.8248160601332
 20
169.052293802535
 30
0.0
 10
222.6435022541072
 20
169.0786800808017
 30
0.0
 10
222.4515262810514
 20
169.1110178944733
 30
0.0
 10
222.3374785416756
 20
169.1306123280263
 30
0.0
 10
222.2919596823712
 20
169.138993232762
 30
0.0
 10
222.305223214392
 20
169.1366093714957
 30
0.0
 10
222.3052545267565
 20
169.1366037437087
 30
0.0
  0
LINE
  5
A1
330
1F
100
AcDbEntity
  8
0
  6
Continuous
 62
     7
370
    35
100
AcDbLine
 10
261.3051606589
 20
159.1430792303
 30
0.0
 11
261.3051606589
 21
166.110594248
 31
0.0
  0
LINE
  5
A2
330
1F
100
AcDbEntity
  8
0
  6
Continuous
 62
     7
370
    35
100
AcDbLine
 10
261.3051606589
 20
152.1755642125
 30
0.0
 11
261.3051606589
 21
159.1430792303
 31
0.0
  0
LINE
  5
A3
330
1F
100
AcDbEntity
  8
0
  6
Continuous
 62
     7
370
    35
100
AcDbLine
 10
213.3051606589
 20
159.5326846275
 30
0.0
 11
213.3051606589
 21
158.7534738331
 31
0.0
  0
ARC
  5
A4
330
1F
100
AcDbEntity
  8
0
  6
Continuous
 62
     7
370
    35
100
AcDbCircle
 10
252.861669205
 20
259.6726938025
 30
0.0
 40
28.84699025085678
100
AcDbArc
 50
270.0000000001
 51
276.8161817707
  0
ARC
  5
A5
330
1F
100
AcDbEntity
  8
0
  6
Continuous
 62
     7
370
    35
100
AcDbCircle
 10
252.861669205
 20
221.9787133008
 30
0.0
 40
28.84699025085675
100
AcDbArc
 50
83.1838182293
 51
90.0
  0
LINE
  5
A6
330
1F
100
AcDbEntity
  8
0
  6
Continuous
 62
     7
370
    35
100
AcDbLine
 10
252.861669205
 20
250.8257035516
 30
0.0
 11
222.9155552617
 21
250.8257035516
 31
0.0
  0
LINE
  5
A7
330
1F
100
AcDbEntity
  8
0
  6
Continuous
 62
     7
370
    35
100
AcDbLine
 10
222.9155552617
 20
230.8257035516
 30
0.0
 11
252.861669205
 21
230.8257035516
 31
0.0
  0
ARC
  5
A8
330
1F
100
AcDbEntity
  8
0
  6
Continuous
 62
     7
370
    35
100
AcDbCircle
 10
222.9155552617
 20
259.6726938025
 30
0.0
 40
28.84699025085797
100
AcDbArc
 50
263.1838182293
 51
270.0
  0
ARC
  5
A9
330
1F
100
AcDbEntity
  8
0
  6
Continuous
 62
     7
370
    35
100
AcDbCircle
 10
222.9155552617
 20
221.9787133008
 30
0.0
 40
28.84699025085791
100
AcDbArc
 50
90.0
 51
96.8161817707
  0
ARC
  5
AA
330
1F
100
AcDbEntity
  8
0
  6
Continuous
 62
     7
370
    35
100
AcDbCircle
 10
255.1475266734
 20
241.1025497393
 30
0.0
 40
9.587024921379069
100
AcDbArc
 50
66.6573662957
 51
83.1838182293
  0
ARC
  5
AB
330
1F
100
AcDbEntity
  8
0
  6
Continuous
 62
     7
370
    35
100
AcDbCircle
 10
255.1475266734
 20
240.548857364
 30
0.0
 40
9.587024921379056
100
AcDbArc
 50
276.8161817707
 51
293.3426337043
  0
ARC
  5
AC
330
1F
100
AcDbEntity
  8
0
  6
Continuous
 62
     7
370
    35
100
AcDbCircle
 10
220.6296977933
 20
241.1025497393
 30
0.0
 40
9.587024921379196
100
AcDbArc
 50
96.8161817707
 51
113.3426337043
  0
ARC
  5
AD
330
1F
100
AcDbEntity
  8
0
  6
Continuous
 62
     7
370
    35
100
AcDbCircle
 10
220.6296977933
 20
240.548857364
 30
0.0
 40
9.587024921379223
100
AcDbArc
 50
246.6573662957
 51
263.1838182293
  0
ARC
  5
AE
330
1F
100
AcDbEntity
  8
0
  6
Continuous
 62
     7
370
    35
100
AcDbCircle
 10
256.968486922
 20
245.3221266659
 30
0.0
 40
4.99129585339418
100
AcDbArc
 50
29.6750409913
 51
66.6573662957
  0
ARC
  5
AF
330
1F
100
AcDbEntity
  8
0
  6
Continuous
 62
     7
370
    35
100
AcDbCircle
 10
256.968486922
 20
236.3292804374
 30
0.0
 40
4.99129585339418
100
AcDbArc
 50
293.3426337043
 51
330.3249590087
  0
ARC
  5
B0
330
1F
100
AcDbEntity
  8
0
  6
Continuous
 62
     7
370
    35
100
AcDbCircle
 10
218.8087375447
 20
245.3221266659
 30
0.0
 40
4.991295853394195
100
AcDbArc
 50
113.3426337043
 51
156.6573662957
  0
ARC
  5
B1
330
1F
100
AcDbEntity
  8
0
  6
Continuous
 62
     7
370
    35
100
AcDbCircle
 10
218.8087375447
 20
236.3292804374
 30
0.0
 40
4.991295853394221
100
AcDbArc
 50
203.3426337043
 51
246.6573662957
  0
ARC
  5
B2
330
1F
100
AcDbEntity
  8
0
  6
Continuous
 62
     7
370
    35
100
AcDbCircle
 10
223.0283144713
 20
243.5011664173
 30
0.0
 40
9.587024921378022
100
AcDbArc
 50
156.6573662957
 51
173.1838182293
  0
ARC
  5
B3
330
1F
100
AcDbEntity
  8
0
  6
Continuous
 62
     7
370
    35
100
AcDbCircle
 10
223.0283144713
 20
238.150240686
 30
0.0
 40
9.58702492137803
100
AcDbArc
 50
186.8161817707
 51
203.3426337043
  0
ARC
  5
B4
330
1F
100
AcDbEntity
  8
0
  6
Continuous
 62
     7
370
    35
100
AcDbCircle
 10
242.1521509098
 20
241.2153089488
 30
0.0
 40
28.84699025086561
100
AcDbArc
 50
173.1838182293
 51
180.0
  0
ARC
  5
B5
330
1F
100
AcDbEntity
  8
0
  6
Continuous
 62
     7
370
    35
100
AcDbCircle
 10
242.1521509098
 20
240.4360981544
 30
0.0
 40
28.84699025086561
100
AcDbArc
 50
180.0
 51
186.8161817707
  0
CIRCLE
  5
B6
330
1F
100
AcDbEntity
  8
0
  6
Continuous
 62
     7
370
    35
100
AcDbCircle
 10
224.3051606589
 20
240.8257035516
 30
0.0
 40
2.000000000000026
  0
LINE
  5
B7
330
1F
100
AcDbEntity
  8
0
  6
Continuous
 62
   144
370
    18
100
AcDbLine
 10
223.0395817052
 20
239.298397614
 30
0.0
 11
222.9155552617
 21
239.387302759
 31
0.0
  0
LINE
  5
B8
330
1F
100
AcDbEntity
  8
0
  6
Continuous
 62
     7
370
    35
100
AcDbLine
 10
261.3051606589
 20
233.8581885339
 30
0.0
 11
261.3051606589
 21
247.7932185694
 31
0.0
  0
LINE
  5
B9
330
1F
100
AcDbEntity
  8
0
  6
Continuous
 62
     7
370
    35
100
AcDbLine
 10
213.3051606589
 20
240.8257035516
 30
0.0
 11
213.3051606589
 21
240.4360981544
 31
0.0
  0
LINE
  5
BA
330
1F
100
AcDbEntity
  8
0
  6
Continuous
 62
     7
370
    35
100
AcDbLine
 10
213.3051606589
 20
241.2153089488
 30
0.0
 11
213.3051606589
 21
240.8257035516
 31
0.0
  0
ARC
  5
BB
330
1F
100
AcDbEntity
  8
0
  6
Continuous
 62
     7
370
    35
100
AcDbCircle
 10
252.861669205
 20
100.2080341854
 30
0.0
 40
28.84699025085676
100
AcDbArc
 50
270.0000000001
 51
276.8161817707
  0
ARC
  5
BC
330
1F
100
AcDbEntity
  8
0
  6
Continuous
 62
     7
370
    35
100
AcDbCircle
 10
252.861669205
 20
62.5140536837
 30
0.0
 40
28.84699025085677
100
AcDbArc
 50
83.1838182293
 51
89.9999999999
  0
ARC
  5
BD
330
1F
100
AcDbEntity
  8
0
  6
Continuous
 62
     7
370
    35
100
AcDbCircle
 10
222.9155552617
 20
100.2080341854
 30
0.0
 40
28.84699025085794
100
AcDbArc
 50
263.1838182293
 51
270.0
  0
ARC
  5
BE
330
1F
100
AcDbEntity
  8
0
  6
Continuous
 62
     7
370
    35
100
AcDbCircle
 10
222.9155552617
 20
62.5140536837
 30
0.0
 40
28.84699025085795
100
AcDbArc
 50
90.0
 51
96.8161817707
  0
LINE
  5
BF
330
1F
100
AcDbEntity
  8
0
  6
Continuous
 62
     7
370
    35
100
AcDbLine
 10
252.861669205
 20
91.3610439345
 30
0.0
 11
222.9155552617
 21
91.3610439345
 31
0.0
  0
LINE
  5
C0
330
1F
100
AcDbEntity
  8
0
  6
Continuous
 62
     7
370
    35
100
AcDbLine
 10
222.9155552617
 20
71.3610439345
 30
0.0
 11
252.861669205
 21
71.3610439345
 31
0.0
  0
ARC
  5
C1
330
1F
100
AcDbEntity
  8
0
  6
Continuous
 62
     7
370
    35
100
AcDbCircle
 10
220.6296977933
 20
81.6378901222
 30
0.0
 40
9.587024921379186
100
AcDbArc
 50
96.8161817707
 51
113.3426337043
  0
ARC
  5
C2
330
1F
100
AcDbEntity
  8
0
  6
Continuous
 62
     7
370
    35
100
AcDbCircle
 10
220.6296977933
 20
81.0841977469
 30
0.0
 40
9.5870249213792
100
AcDbArc
 50
246.6573662957
 51
263.1838182293
  0
ARC
  5
C3
330
1F
100
AcDbEntity
  8
0
  6
Continuous
 62
     7
370
    35
100
AcDbCircle
 10
255.1475266734
 20
81.6378901222
 30
0.0
 40
9.587024921379042
100
AcDbArc
 50
66.6573662957
 51
83.1838182293
  0
ARC
  5
C4
330
1F
100
AcDbEntity
  8
0
  6
Continuous
 62
     7
370
    35
100
AcDbCircle
 10
255.1475266734
 20
81.0841977469
 30
0.0
 40
9.587024921379042
100
AcDbArc
 50
276.8161817707
 51
293.3426337043
  0
ARC
  5
C5
330
1F
100
AcDbEntity
  8
0
  6
Continuous
 62
     7
370
    35
100
AcDbCircle
 10
218.8087375447
 20
85.8574670488
 30
0.0
 40
4.991295853394209
100
AcDbArc
 50
113.3426337043
 51
156.6573662957
  0
ARC
  5
C6
330
1F
100
AcDbEntity
  8
0
  6
Continuous
 62
     7
370
    35
100
AcDbCircle
 10
218.8087375447
 20
76.8646208203
 30
0.0
 40
4.991295853394221
100
AcDbArc
 50
203.3426337043
 51
246.6573662957
  0
ARC
  5
C7
330
1F
100
AcDbEntity
  8
0
  6
Continuous
 62
     7
370
    35
100
AcDbCircle
 10
256.968486922
 20
85.8574670488
 30
0.0
 40
4.99129585339418
100
AcDbArc
 50
29.6750409913
 51
66.6573662957
  0
ARC
  5
C8
330
1F
100
AcDbEntity
  8
0
  6
Continuous
 62
     7
370
    35
100
AcDbCircle
 10
256.968486922
 20
76.8646208203
 30
0.0
 40
4.99129585339418
100
AcDbArc
 50
293.3426337043
 51
330.3249590087
  0
ARC
  5
C9
330
1F
100
AcDbEntity
  8
0
  6
Continuous
 62
     7
370
    35
100
AcDbCircle
 10
223.0283144713
 20
84.0365068002
 30
0.0
 40
9.587024921378026
100
AcDbArc
 50
156.6573662957
 51
173.1838182293
  0
ARC
  5
CA
330
1F
100
AcDbEntity
  8
0
  6
Continuous
 62
     7
370
    35
100
AcDbCircle
 10
223.0283144713
 20
78.6855810689
 30
0.0
 40
9.587024921378026
100
AcDbArc
 50
186.8161817707
 51
203.3426337043
  0
ARC
  5
CB
330
1F
100
AcDbEntity
  8
0
  6
Continuous
 62
     7
370
    35
100
AcDbCircle
 10
242.1521509098
 20
81.7506493317
 30
0.0
 40
28.84699025086561
100
AcDbArc
 50
173.1838182293
 51
180.0
  0
ARC
  5
CC
330
1F
100
AcDbEntity
  8
0
  6
Continuous
 62
     7
370
    35
100
AcDbCircle
 10
242.1521509098
 20
80.9714385373
 30
0.0
 40
28.84699025086561
100
AcDbArc
 50
180.0
 51
186.8161817707
  0
LINE
  5
CD
330
1F
100
AcDbEntity
  8
0
  6
Continuous
 62
     7
370
    35
100
AcDbLine
 10
251.6620391985
 20
81.8531963115
 30
0.0
 11
250.5573834677
 21
82.7822114081
 31
0.0
  0
LINE
  5
CE
330
1F
100
AcDbEntity
  8
0
  6
Continuous
 62
     7
370
    35
100
AcDbLine
 10
249.2005049281
 20
82.2900590311
 30
0.0
 11
250.5573834677
 21
82.7822114081
 31
0.0
  0
LINE
  5
CF
330
1F
100
AcDbEntity
  8
0
  6
Continuous
 62
     7
370
    35
100
AcDbLine
 10
248.9482821194
 20
80.8688915575
 30
0.0
 11
249.2005049281
 21
82.2900590311
 31
0.0
  0
LINE
  5
D0
330
1F
100
AcDbEntity
  8
0
  6
Continuous
 62
     7
370
    35
100
AcDbLine
 10
248.9482821194
 20
80.8688915575
 30
0.0
 11
250.0529378502
 21
79.9398764609
 31
0.0
  0
LINE
  5
D1
330
1F
100
AcDbEntity
  8
0
  6
Continuous
 62
     7
370
    35
100
AcDbLine
 10
251.4098163898
 20
80.4320288379
 30
0.0
 11
250.0529378502
 21
79.9398764609
 31
0.0
  0
LINE
  5
D2
330
1F
100
AcDbEntity
  8
0
  6
Continuous
 62
     7
370
    35
100
AcDbLine
 10
251.6620391985
 20
81.8531963115
 30
0.0
 11
251.4098163898
 21
80.4320288379
 31
0.0
  0
SPLINE
  5
D3
330
1F
100
AcDbEntity
  8
0
  6
Continuous
 62
   144
370
    18
100
AcDbSpline
210
0.0
220
0.0
230
1.0
 70
    11
 71
     3
 72
    39
 73
    35
 74
     0
 42
0.00000001
 43
0.00000001
 40
0.0
 40
0.0
 40
0.0
 40
0.0
 40
0.0299906510435012
 40
0.0600016076657317
 40
0.092479833086941
 40
0.1249996127101322
 40
0.1574778568314216
 40
0.1899976551781268
 40
0.2199780674374701
 40
0.2499996211736272
 40
0.279980045256804
 40
0.3100016072694151
 40
0.3424798326907136
 40
0.3749996123138205
 40
0.4074778564351885
 40
0.4399976547818099
 40
0.4699780670411876
 40
0.4999996207773129
 40
0.5299800448604431
 40
0.5600016068730954
 40
0.5924798322942411
 40
0.6249996119175024
 40
0.6574778560388366
 40
0.6899976543854954
 40
0.7199780666448412
 40
0.7499996203809955
 40
0.7799800444641584
 40
0.8100016064767831
 40
0.8424798318979639
 40
0.8749996115211847
 40
0.9074778556424457
 40
0.9399976539891783
 40
0.9699886861535777
 40
1.0
 40
1.0
 40
1.0
 40
1.0
 10
248.373310586232
 20
80.66034407260548
 30
0.0
 10
248.4173449257586
 20
80.53897847118508
 30
0.0
 10
248.527776220774
 20
80.30427282488328
 30
0.0
 10
248.7642641733925
 20
79.98198905402205
 30
0.0
 10
249.0660064213726
 20
79.70264010891418
 30
0.0
 10
249.4285568284077
 20
79.4870365854418
 30
0.0
 10
249.8265923235646
 20
79.34689249825942
 30
0.0
 10
250.2342982347395
 20
79.29437910959125
 30
0.0
 10
250.6334300729977
 20
79.31941171591485
 30
0.0
 10
251.0097467665388
 20
79.41796220104797
 30
0.0
 10
251.3619138146974
 20
79.583600841359
 30
0.0
 10
251.6841775986847
 20
79.82012363317202
 30
0.0
 10
251.9635663580251
 20
80.12188696197066
 30
0.0
 10
252.1791675064002
 20
80.48444083628719
 30
0.0
 10
252.3193122301026
 20
80.88247540222032
 30
0.0
 10
252.3718254508456
 20
81.29018155854111
 30
0.0
 10
252.3467928861134
 20
81.68931333608211
 30
0.0
 10
252.2482423901312
 20
82.06563004546095
 30
0.0
 10
252.0826037527225
 20
82.41779708938078
 30
0.0
 10
251.8460809601204
 20
82.74006087452436
 30
0.0
 10
251.5443176315429
 20
83.01944963353002
 30
0.0
 10
251.1817637571933
 20
83.23505078199989
 30
0.0
 10
250.7837291911653
 20
83.37519550566772
 30
0.0
 10
250.3760230352452
 20
83.4277087264556
 30
0.0
 10
249.9768912563054
 20
83.40267616158773
 30
0.0
 10
249.6005745520633
 20
83.30412566609718
 30
0.0
 10
249.2484074889679
 20
83.13848702685603
 30
0.0
 10
248.9261437774198
 20
82.90196424128744
 30
0.0
 10
248.6467547216171
 20
82.60020088434258
 30
0.0
 10
248.431154699358
 20
82.23764711763376
 30
0.0
 10
248.2910057778428
 20
81.83961215038731
 30
0.0
 10
248.2385019595388
 20
81.43186186714357
 30
0.0
 10
248.2634947946181
 20
81.03272306949344
 30
0.0
 10
248.3292459081551
 20
80.78179329186736
 30
0.0
 10
248.373310586232
 20
80.6603440726055
 30
0.0
  0
SPLINE
  5
D4
330
1F
100
AcDbEntity
  8
0
  6
Continuous
 62
     7
370
    35
100
AcDbSpline
210
0.0
220
0.0
230
1.0
 70
     8
 71
     3
 72
    14
 73
    10
 74
     0
 42
0.00000001
 43
0.00000001
 40
0.0
 40
0.0
 40
0.0
 40
0.0
 40
0.2500000000000001
 40
0.2500000000000001
 40
0.5000000000000001
 40
0.5000000000000001
 40
0.75
 40
0.75
 40
1.0
 40
1.0
 40
1.0
 40
1.0
 10
252.8616692050387
 20
82.25894867348457
 30
0.0
 10
252.9249935399418
 20
82.11721267822006
 30
0.0
 10
252.9727342879184
 20
81.97155798088951
 30
0.0
 10
253.0374710159456
 20
81.67248779829315
 30
0.0
 10
253.054413545446
 20
81.51713544521533
 30
0.0
 10
253.0546176007934
 20
81.20781661424056
 30
0.0
 10
253.0383467105423
 20
81.055147204946
 30
0.0
 10
252.9737364810077
 20
80.7537010208562
 30
0.0
 10
252.9250161060491
 20
80.60492569952449
 30
0.0
 10
252.8616692050365
 20
80.4631391955584
 30
0.0
  0
SPLINE
  5
D5
330
1F
100
AcDbEntity
  8
0
  6
Continuous
 62
     7
370
    35
100
AcDbSpline
210
0.0
220
0.0
230
1.0
 70
     8
 71
     3
 72
    58
 73
    54
 74
     0
 42
0.00000001
 43
0.00000001
 40
0.0
 40
0.0
 40
0.0
 40
0.0
 40
0.0312499999999999
 40
0.0312499999999999
 40
0.0624999999999999
 40
0.0624999999999999
 40
0.0937499999999998
 40
0.0937499999999998
 40
0.1249999999999998
 40
0.1249999999999998
 40
0.1562499999999997
 40
0.1562499999999997
 40
0.1874999999999997
 40
0.1874999999999997
 40
0.2187499999999996
 40
0.2187499999999996
 40
0.2499999999999996
 40
0.2499999999999996
 40
0.3124999999999994
 40
0.3124999999999994
 40
0.3749999999999993
 40
0.3749999999999993
 40
0.4062499999999993
 40
0.4062499999999993
 40
0.4374999999999992
 40
0.4374999999999992
 40
0.4687499999999992
 40
0.4687499999999992
 40
0.4999999999999991
 40
0.4999999999999991
 40
0.5312499999999991
 40
0.5312499999999991
 40
0.562499999999999
 40
0.562499999999999
 40
0.624999999999999
 40
0.624999999999999
 40
0.687499999999999
 40
0.687499999999999
 40
0.749999999999999
 40
0.749999999999999
 40
0.812499999999999
 40
0.812499999999999
 40
0.8437499999999991
 40
0.8437499999999991
 40
0.8749999999999993
 40
0.8749999999999993
 40
0.9062499999999994
 40
0.9062499999999994
 40
0.9374999999999997
 40
0.9374999999999997
 40
0.9687499999999998
 40
0.9687499999999998
 40
1.0
 40
1.0
 40
1.0
 40
1.0
 10
252.8616692050365
 20
80.4631391955584
 30
0.0
 10
252.7995050282749
 20
80.32399992980021
 30
0.0
 10
252.7247428933528
 20
80.1935564550226
 30
0.0
 10
252.552570372757
 20
79.9481462754395
 30
0.0
 10
252.454227602726
 20
79.83234477201019
 30
0.0
 10
252.2394157039506
 20
79.62028125015128
 30
0.0
 10
252.1239010351831
 20
79.52460181141038
 30
0.0
 10
251.8776522489754
 20
79.3524009072243
 30
0.0
 10
251.7458170297788
 20
79.27547940097831
 30
0.0
 10
251.4744558967257
 20
79.14457444874232
 30
0.0
 10
251.3345089292806
 20
79.09007730942442
 30
0.0
 10
251.04628494041
 20
79.00223581979157
 30
0.0
 10
250.8967764378322
 20
78.96880624221467
 30
0.0
 10
250.5975659788317
 20
78.9250805683306
 30
0.0
 10
250.4474293453154
 20
78.91445048692154
 30
0.0
 10
250.1461086779553
 20
78.91527592550064
 30
0.0
 10
249.9937240598718
 20
78.92694240029486
 30
0.0
 10
249.5441075851432
 20
78.9955956224856
 30
0.0
 10
249.2569831354294
 20
79.08415129221332
 30
0.0
 10
248.7117901341176
 20
79.35126362376599
 30
0.0
 10
248.4675105929604
 20
79.5227007597657
 30
0.0
 10
248.1467891561899
 20
79.84271363576275
 30
0.0
 10
248.0493383200767
 20
79.95880721281958
 30
0.0
 10
247.8791180044363
 20
80.2042161749185
 30
0.0
 10
247.8054396436064
 20
80.3343769102859
 30
0.0
 10
247.6832595621441
 20
80.61128201205833
 30
0.0
 10
247.6357398224017
 20
80.75687864732377
 30
0.0
 10
247.5723607737415
 20
81.05069507942007
 30
0.0
 10
247.5557040674217
 20
81.20054816607993
 30
0.0
 10
247.5546431692638
 20
81.50658598721387
 30
0.0
 10
247.5703257770471
 20
81.65733894471342
 30
0.0
 10
247.6321484386562
 20
81.95278345662945
 30
0.0
 10
247.6791026951491
 20
82.09928368025841
 30
0.0
 10
247.8600071508432
 20
82.51533663688154
 30
0.0
 10
248.036260930112
 20
82.76781689338698
 30
0.0
 10
248.4602989934627
 20
83.19343267739407
 30
0.0
 10
248.7115715868377
 20
83.370326366182
 30
0.0
 10
249.2512030573197
 20
83.63549116543338
 30
0.0
 10
249.5456474935988
 20
83.72668972850771
 30
0.0
 10
250.1413138538767
 20
83.81771897961347
 30
0.0
 10
250.4505941092666
 20
83.81861456982746
 30
0.0
 10
250.8973831356773
 20
83.75312791614269
 30
0.0
 10
251.0444365558981
 20
83.720367867477
 30
0.0
 10
251.3346525455256
 20
83.63201402217956
 30
0.0
 10
251.4765055956514
 20
83.57661479031869
 30
0.0
 10
251.7465929778069
 20
83.44614305447766
 30
0.0
 10
251.8759383302915
 20
83.37076527904745
 30
0.0
 10
252.1226818872974
 20
83.19845740248341
 30
0.0
 10
252.2403630062055
 20
83.10088675866015
 30
0.0
 10
252.4535490664522
 20
82.89039761064915
 30
0.0
 10
252.5503583233841
 20
82.77673152350916
 30
0.0
 10
252.7231117755511
 20
82.5312114369939
 30
0.0
 10
252.7993988290271
 20
82.39832564022265
 30
0.0
 10
252.8616692050388
 20
82.25894867348461
 30
0.0
  0
LINE
  5
D6
330
1F
100
AcDbEntity
  8
0
  6
Continuous
 62
     7
370
    35
100
AcDbLine
 10
261.3051606589
 20
74.3935289168
 30
0.0
 11
261.3051606589
 21
88.3285589523
 31
0.0
  0
LINE
  5
D7
330
1F
100
AcDbEntity
  8
0
  6
Continuous
 62
     7
370
    35
100
AcDbLine
 10
213.3051606589
 20
81.7506493317
 30
0.0
 11
213.3051606589
 21
80.9714385373
 31
0.0
  0
LINE
  5
D8
330
1F
100
AcDbEntity
  8
0
  6
Continuous
 62
     7
370
    35
100
AcDbLine
 10
325.5652835512
 20
168.9410382014
 30
0.0
 11
325.5652835512
 21
172.6430792303
 31
0.0
  0
LINE
  5
D9
330
1F
100
AcDbEntity
  8
0
  6
Continuous
 62
     7
370
    35
100
AcDbLine
 10
321.5652835512
 20
172.6430792303
 30
0.0
 11
321.5652835512
 21
168.9410382014
 31
0.0
  0
ARC
  5
DA
330
1F
100
AcDbEntity
  8
0
  6
Continuous
 62
     7
370
    35
100
AcDbCircle
 10
322.0652835512
 20
172.6430792303
 30
0.0
 40
0.5
100
AcDbArc
 50
90.0
 51
180.0
  0
ARC
  5
DB
330
1F
100
AcDbEntity
  8
0
  6
Continuous
 62
     7
370
    35
100
AcDbCircle
 10
325.0652835512
 20
172.6430792303
 30
0.0
 40
0.5
100
AcDbArc
 50
0.0
 51
90.0
  0
LINE
  5
DC
330
1F
100
AcDbEntity
  8
0
  6
Continuous
 62
     7
370
    35
100
AcDbLine
 10
324.9557000126
 20
173.1430792303
 30
0.0
 11
322.0652835512
 21
173.1430792303
 31
0.0
  0
SPLINE
  5
DD
330
1F
100
AcDbEntity
  8
0
  6
Continuous
 62
     7
370
    35
100
AcDbSpline
210
0.0
220
0.0
230
1.0
 70
     8
 71
     3
 72
     9
 73
     5
 74
     0
 42
0.00000001
 43
0.00000001
 40
0.0
 40
0.0
 40
0.0
 40
0.0
 40
0.4560490687347033
 40
1.0
 40
1.0
 40
1.0
 40
1.0
 10
325.0635966568918
 20
173.1430792255437
 30
0.0
 10
325.060397172057
 20
173.1430792273377
 30
0.0
 10
325.0533815128788
 20
173.1430792312716
 30
0.0
 10
324.9901142818456
 20
173.1430792306384
 30
0.0
 10
324.9557000126066
 20
173.1430792302939
 30
0.0
  0
CIRCLE
  5
DE
330
1F
100
AcDbEntity
  8
0
  6
Continuous
 62
     7
370
    35
100
AcDbCircle
 10
323.5652835512
 20
159.1430792303
 30
0.0
 40
6.5
  0
CIRCLE
  5
DF
330
1F
100
AcDbEntity
  8
0
  6
Continuous
 62
     7
370
    35
100
AcDbCircle
 10
323.5652835512
 20
159.1430792303
 30
0.0
 40
3.000000000042746
  0
CIRCLE
  5
E0
330
1F
100
AcDbEntity
  8
0
  6
Continuous
 62
     7
370
    35
100
AcDbCircle
 10
323.5652835512
 20
159.1430792303
 30
0.0
 40
2.499999999940883
  0
CIRCLE
  5
E1
330
1F
100
AcDbEntity
  8
0
  6
Continuous
 62
     7
370
    35
100
AcDbCircle
 10
323.5652835512
 20
159.1430792303
 30
0.0
 40
6.967515017750543
  0
ARC
  5
E2
330
1F
100
AcDbEntity
  8
0
  6
Continuous
 62
     7
370
    35
100
AcDbCircle
 10
323.5652835512
 20
159.1430792303
 30
0.0
 40
10.0
100
AcDbArc
 50
275.1515533264
 51
264.8484466736
  0
SPLINE
  5
E3
330
1F
100
AcDbEntity
  8
0
  6
Continuous
 62
     7
370
    35
100
AcDbSpline
210
0.0
220
0.0
230
1.0
 70
     8
 71
     3
 72
    14
 73
    10
 74
     0
 42
0.00000001
 43
0.00000001
 40
0.0
 40
0.0
 40
0.0
 40
0.0
 40
0.2500000000000001
 40
0.2500000000000001
 40
0.5000000000000001
 40
0.5000000000000001
 40
0.75
 40
0.75
 40
1.0
 40
1.0
 40
1.0
 40
1.0
 10
322.6673788122718
 20
149.1834724569443
 30
0.0
 10
322.8091148075363
 20
149.1706942996612
 30
0.0
 10
322.9547695048669
 20
149.1608066531545
 30
0.0
 10
323.2538396874633
 20
149.1473272137719
 30
0.0
 10
323.4091920405411
 20
149.1437454112434
 30
0.0
 10
323.7185108715158
 20
149.1437024751563
 30
0.0
 10
323.8711802808104
 20
149.1471435072263
 30
0.0
 10
324.1726264649002
 20
149.1605993078995
 30
0.0
 10
324.3214017862319
 20
149.1706897460679
 30
0.0
 10
324.463188290198
 20
149.1834724569448
 30
0.0
  0
ARC
  5
E4
330
1F
100
AcDbEntity
  8
0
  6
Continuous
 62
     7
370
    35
100
AcDbCircle
 10
93.0706685183
 20
172.6430792303
 30
0.0
 40
0.5
100
AcDbArc
 50
90.0
 51
180.0
  0
ARC
  5
E5
330
1F
100
AcDbEntity
  8
0
  6
Continuous
 62
     7
370
    35
100
AcDbCircle
 10
96.0706685183
 20
172.6430792303
 30
0.0
 40
0.5
100
AcDbArc
 50
0.0
 51
90.0
  0
LINE
  5
E6
330
1F
100
AcDbEntity
  8
0
  6
Continuous
 62
     7
370
    35
100
AcDbLine
 10
96.5706685183
 20
169.136620614
 30
0.0
 11
96.5706685183
 21
172.6430792303
 31
0.0
  0
LINE
  5
E7
330
1F
100
AcDbEntity
  8
0
  6
Continuous
 62
     7
370
    35
100
AcDbLine
 10
92.5706685183
 20
172.6430792303
 30
0.0
 11
92.5706685183
 21
169.1430792303
 31
0.0
  0
ARC
  5
E8
330
1F
100
AcDbEntity
  8
0
  6
Continuous
 62
     7
370
    35
100
AcDbCircle
 10
66.0141599722
 20
140.2960889794
 30
0.0
 40
28.84699025085681
100
AcDbArc
 50
90.0
 51
96.8161817707
  0
ARC
  5
E9
330
1F
100
AcDbEntity
  8
0
  6
Continuous
 62
     7
370
    35
100
AcDbCircle
 10
66.0141599722
 20
177.9900694812
 30
0.0
 40
28.84699025085678
100
AcDbArc
 50
263.1838182293
 51
269.6299383587
  0
LINE
  5
EA
330
1F
100
AcDbEntity
  8
0
  6
Continuous
 62
     7
370
    35
100
AcDbLine
 10
71.3202208785
 20
149.1430792303
 30
0.0
 11
95.9602739155
 21
149.1430792303
 31
0.0
  0
LINE
  5
EB
330
1F
100
AcDbEntity
  8
0
  6
Continuous
 62
     7
370
    35
100
AcDbLine
 10
92.5706685183
 20
169.1430792303
 30
0.0
 11
66.0141599722
 21
169.1430792303
 31
0.0
  0
ARC
  5
EC
330
1F
100
AcDbEntity
  8
0
  6
Continuous
 62
     7
370
    35
100
AcDbCircle
 10
95.9602739155
 20
140.2960889794
 30
0.0
 40
28.84699025085798
100
AcDbArc
 50
83.1838182293
 51
88.7876196564
  0
ARC
  5
ED
330
1F
100
AcDbEntity
  8
0
  6
Continuous
 62
     7
370
    35
100
AcDbCircle
 10
95.9602739155
 20
177.9900694812
 30
0.0
 40
28.84699025085794
100
AcDbArc
 50
270.0
 51
276.8161817707
  0
ARC
  5
EE
330
1F
100
AcDbEntity
  8
0
  6
Continuous
 62
     7
370
    35
100
AcDbCircle
 10
63.7283025038
 20
158.8662330426
 30
0.0
 40
9.587024921379047
100
AcDbArc
 50
246.6573662957
 51
263.1838182293
  0
ARC
  5
EF
330
1F
100
AcDbEntity
  8
0
  6
Continuous
 62
     7
370
    35
100
AcDbCircle
 10
63.7283025038
 20
159.4199254179
 30
0.0
 40
9.587024921379067
100
AcDbArc
 50
96.8161817707
 51
113.3426337043
  0
ARC
  5
F0
330
1F
100
AcDbEntity
  8
0
  6
Continuous
 62
     7
370
    35
100
AcDbCircle
 10
98.2461313839
 20
158.8662330426
 30
0.0
 40
9.587024921379196
100
AcDbArc
 50
276.8161817707
 51
293.3426337043
  0
ARC
  5
F1
330
1F
100
AcDbEntity
  8
0
  6
Continuous
 62
     7
370
    35
100
AcDbCircle
 10
98.2461313839
 20
159.4199254179
 30
0.0
 40
9.587024921379223
100
AcDbArc
 50
66.6573662957
 51
83.1838182293
  0
ARC
  5
F2
330
1F
100
AcDbEntity
  8
0
  6
Continuous
 62
     7
370
    35
100
AcDbCircle
 10
61.9073422552
 20
154.6466561161
 30
0.0
 40
4.991295853394193
100
AcDbArc
 50
209.6750409913
 51
246.6573662957
  0
ARC
  5
F3
330
1F
100
AcDbEntity
  8
0
  6
Continuous
 62
     7
370
    35
100
AcDbCircle
 10
61.9073422552
 20
163.6395023445
 30
0.0
 40
4.991295853394221
100
AcDbArc
 50
113.3426337043
 51
150.3249590087
  0
ARC
  5
F4
330
1F
100
AcDbEntity
  8
0
  6
Continuous
 62
     7
370
    35
100
AcDbCircle
 10
100.0670916325
 20
154.6466561161
 30
0.0
 40
4.991295853394202
100
AcDbArc
 50
293.3426337043
 51
336.6573662957
  0
ARC
  5
F5
330
1F
100
AcDbEntity
  8
0
  6
Continuous
 62
     7
370
    35
100
AcDbCircle
 10
100.0670916325
 20
163.6395023445
 30
0.0
 40
4.991295853394227
100
AcDbArc
 50
23.3426337043
 51
66.6573662957
  0
ARC
  5
F6
330
1F
100
AcDbEntity
  8
0
  6
Continuous
 62
     7
370
    35
100
AcDbCircle
 10
95.8475147059
 20
156.4676163646
 30
0.0
 40
9.587024921378013
100
AcDbArc
 50
336.6573662957
 51
353.1838182293
  0
ARC
  5
F7
330
1F
100
AcDbEntity
  8
0
  6
Continuous
 62
     7
370
    35
100
AcDbCircle
 10
95.8475147059
 20
161.818542096
 30
0.0
 40
9.587024921378013
100
AcDbArc
 50
6.8161817707
 51
23.3426337043
  0
ARC
  5
F8
330
1F
100
AcDbEntity
  8
0
  6
Continuous
 62
     7
370
    35
100
AcDbCircle
 10
76.7236782674
 20
158.7534738331
 30
0.0
 40
28.8469902508656
100
AcDbArc
 50
353.1838182293
 51
360.0
  0
ARC
  5
F9
330
1F
100
AcDbEntity
  8
0
  6
Continuous
 62
     7
370
    35
100
AcDbCircle
 10
76.7236782674
 20
159.5326846275
 30
0.0
 40
28.84699025086561
100
AcDbArc
 50
0.0
 51
6.8161817707
  0
LINE
  5
FA
330
1F
100
AcDbEntity
  8
0
  6
Continuous
 62
     7
370
    35
100
AcDbLine
 10
94.0078700962
 20
173.1430792303
 30
0.0
 11
93.0706685183
 21
173.1430792303
 31
0.0
  0
SPLINE
  5
FB
330
1F
100
AcDbEntity
  8
0
  6
Continuous
 62
     7
370
    35
100
AcDbSpline
210
0.0
220
0.0
230
1.0
 70
     8
 71
     3
 72
    23
 73
    19
 74
     0
 42
0.00000001
 43
0.00000001
 40
0.0
 40
0.0
 40
0.0
 40
0.0
 40
0.0351668673460551
 40
0.0753167795746124
 40
0.1204448315357982
 40
0.1705443840563514
 40
0.2562970129870383
 40
0.3420627299600926
 40
0.4060294324947527
 40
0.4684893498346136
 40
0.5498645777656708
 40
0.5828217630423128
 40
0.6356886965716396
 40
0.6952241110132368
 40
0.7614254636230114
 40
0.8342902300749024
 40
0.9138159045979439
 40
1.0
 40
1.0
 40
1.0
 40
1.0
 10
96.07095438265438
 20
173.1430791485754
 30
0.0
 10
96.07034205967177
 20
173.1430790906057
 30
0.0
 10
96.06903064928493
 20
173.1430789664521
 30
0.0
 10
96.05586504327515
 20
173.1430789323144
 30
0.0
 10
96.03071937737926
 20
173.1430790810871
 30
0.0
 10
95.98062007002139
 20
173.1430792537349
 30
0.0
 10
95.89214739512656
 20
173.1430794348877
 30
0.0
 10
95.7656363952224
 20
173.1430784927015
 30
0.0
 10
95.6260946411788
 20
173.1430793134773
 30
0.0
 10
95.47247550350956
 20
173.1430792121911
 30
0.0
 10
95.32700915587853
 20
173.1430791760848
 30
0.0
 10
95.1808818458831
 20
173.1430790179971
 30
0.0
 10
95.04862352019596
 20
173.1430791843139
 30
0.0
 10
94.88004944880885
 20
173.1430791951718
 30
0.0
 10
94.68748959683559
 20
173.143079225103
 30
0.0
 10
94.4733899490477
 20
173.1430792286106
 30
0.0
 10
94.24076884772728
 20
173.1430792305776
 30
0.0
 10
94.08755511825265
 20
173.143079230391
 30
0.0
 10
94.007870096157
 20
173.1430792302939
 30
0.0
  0
SPLINE
  5
FC
330
1F
100
AcDbEntity
  8
0
  6
Continuous
 62
     7
370
    35
100
AcDbSpline
210
0.0
220
0.0
230
1.0
 70
     8
 71
     3
 72
    10
 73
     6
 74
     0
 42
0.00000001
 43
0.00000001
 40
0.0
 40
0.0
 40
0.0
 40
0.0
 40
0.2665487856495968
 40
0.668436105593124
 40
1.0
 40
1.0
 40
1.0
 40
1.0
 10
65.8278117376486
 20
149.1450897198561
 30
0.0
 10
65.82806905888488
 20
149.1451422995119
 30
0.0
 10
65.82871435465928
 20
149.1452741558257
 30
0.0
 10
65.89342303903035
 20
149.1589012247456
 30
0.0
 10
65.97657176575848
 20
149.1758228627077
 30
0.0
 10
66.01415997218523
 20
149.1834724569448
 30
0.0
  0
SPLINE
  5
FD
330
1F
100
AcDbEntity
  8
0
  6
Continuous
 62
     7
370
    35
100
AcDbSpline
210
0.0
220
0.0
230
1.0
 70
     8
 71
     3
 72
    23
 73
    19
 74
     0
 42
0.00000001
 43
0.00000001
 40
0.0
 40
0.0
 40
0.0
 40
0.0
 40
0.0548825134273284
 40
0.1113502252242287
 40
0.166868472652666
 40
0.2236663211410082
 40
0.2860285520663035
 40
0.3499710050425383
 40
0.41663393052721
 40
0.4851566412830163
 40
0.5530614772768027
 40
0.6229664209380478
 40
0.6901960325887126
 40
0.7596123517715855
 40
0.8227155041190195
 40
0.8881881799935729
 40
0.9434092639257816
 40
1.0
 40
1.0
 40
1.0
 40
1.0
 10
66.01415997218523
 20
149.1834724569448
 30
0.0
 10
66.07423827270179
 20
149.1954153448897
 30
0.0
 10
66.19613014455395
 20
149.2196460730297
 30
0.0
 10
66.45115367148186
 20
149.2656042142226
 30
0.0
 10
66.75095271107999
 20
149.3133365066398
 30
0.0
 10
67.10157185154353
 20
149.3605080997747
 30
0.0
 10
67.50257057337552
 20
149.4025622253812
 30
0.0
 10
67.95172765965427
 20
149.4340880389517
 30
0.0
 10
68.43148402101274
 20
149.4494236702799
 30
0.0
 10
68.92475698132868
 20
149.4450741984697
 30
0.0
 10
69.41590143758665
 20
149.4206930480728
 30
0.0
 10
69.880226358745
 20
149.3793391746298
 30
0.0
 10
70.30960834352348
 20
149.3257117654602
 30
0.0
 10
70.67391899111051
 20
149.2687495752289
 30
0.0
 10
70.97110916129353
 20
149.2148541894517
 30
0.0
 10
71.1738224529912
 20
149.1742824133938
 30
0.0
 10
71.29819092364454
 20
149.1479595267939
 30
0.0
 10
71.31281783554014
 20
149.1447829231775
 30
0.0
 10
71.32022087853343
 20
149.1431751652781
 30
0.0
  0
SPLINE
  5
FE
330
1F
100
AcDbEntity
  8
0
  6
Continuous
 62
   144
370
    18
100
AcDbSpline
210
0.0
220
0.0
230
1.0
 70
     8
 71
     3
 72
    16
 73
    12
 74
     0
 42
0.00000001
 43
0.00000001
 40
0.0
 40
0.0
 40
0.0
 40
0.0
 40
0.1248227957717191
 40
0.2497116667703222
 40
0.3752039584800044
 40
0.5001533497795452
 40
0.625069966599176
 40
0.7498730070333188
 40
0.874691091271915
 40
0.9996108431794397
 40
1.0
 40
1.0
 40
1.0
 40
1.0
 10
95.96027391547376
 20
169.0390886866315
 30
0.0
 10
95.80925206104091
 20
169.019572952843
 30
0.0
 10
95.50712840841783
 20
168.9805311545686
 30
0.0
 10
94.94077888010213
 20
168.9422769046508
 30
0.0
 10
94.34957587441455
 20
168.9375577288583
 30
0.0
 10
93.77562155064123
 20
168.9682693606296
 30
0.0
 10
93.27408946417805
 20
169.0230207861595
 30
0.0
 10
92.87667566440328
 20
169.0848096183587
 30
0.0
 10
92.64196289325953
 20
169.1286354679511
 30
0.0
 10
92.54245979938958
 20
169.1486063381039
 30
0.0
 10
92.57084487798458
 20
169.1430446740468
 30
0.0
 10
92.5709330301124
 20
169.1430274018551
 30
0.0
  0
SPLINE
  5
FF
330
1F
100
AcDbEntity
  8
0
  6
Continuous
 62
   144
370
    18
100
AcDbSpline
210
0.0
220
0.0
230
1.0
 70
     8
 71
     3
 72
    11
 73
     7
 74
     0
 42
0.00000001
 43
0.00000001
 40
0.0
 40
0.0
 40
0.0
 40
0.0
 40
0.2487445954032683
 40
0.4987325692315381
 40
0.749107134071985
 40
1.0
 40
1.0
 40
1.0
 40
1.0
 10
96.57054473718952
 20
169.1365983675584
 30
0.0
 10
96.5631004312753
 20
169.1352032630573
 30
0.0
 10
96.54817460822888
 20
169.1324060804649
 30
0.0
 10
96.4222940625938
 20
169.1106458381791
 30
0.0
 10
96.23352068261245
 20
169.0788773529975
 30
0.0
 10
96.05141893444657
 20
169.0523607146551
 30
0.0
 10
95.96027391547376
 20
169.0390886866315
 30
0.0
  0
LINE
  5
100
330
1F
100
AcDbEntity
  8
0
  6
Continuous
 62
     7
370
    35
100
AcDbLine
 10
57.5706685183
 20
166.110594248
 30
0.0
 11
57.5706685183
 21
152.1755642125
 31
0.0
  0
LINE
  5
101
330
1F
100
AcDbEntity
  8
0
  6
Continuous
 62
     7
370
    35
100
AcDbLine
 10
105.5706685183
 20
158.75347388
 30
0.0
 11
105.5706685183
 21
159.5326846275
 31
0.0
  0
ENDSEC
  0
SECTION
  2
OBJECTS
  0
DICTIONARY
  5
C
330
0
100
AcDbDictionary
281
     1
  3
ACAD_GROUP
350
D
  3
ACAD_LAYOUT
350
1A
  3
ACAD_MLINESTYLE
350
17
  3
ACAD_PLOTSETTINGS
350
19
  3
ACAD_PLOTSTYLENAME
350
E
  3
ACAD_SCALELIST
350
47
  3
DWGPROPS
350
102
  0
DICTIONARY
  5
D
102
{ACAD_REACTORS
330
C
102
}
330
C
100
AcDbDictionary
281
     1
  0
DICTIONARY
  5
1A
102
{ACAD_REACTORS
330
C
102
}
330
C
100
AcDbDictionary
281
     1
  3
Layout1
350
1E
  3
Layout2
350
26
  3
Model
350
22
  0
DICTIONARY
  5
17
102
{ACAD_REACTORS
330
C
102
}
330
C
100
AcDbDictionary
281
     1
  3
Standard
350
18
  0
DICTIONARY
  5
19
102
{ACAD_REACTORS
330
C
102
}
330
C
100
AcDbDictionary
281
     1
  0
ACDBDICTIONARYWDFLT
  5
E
102
{ACAD_REACTORS
330
C
102
}
330
C
100
AcDbDictionary
281
     1
  3
Normal
350
F
100
AcDbDictionaryWithDefault
340
F
  0
DICTIONARY
  5
47
102
{ACAD_REACTORS
330
C
102
}
330
C
100
AcDbDictionary
281
     1
  3
A0
350
48
  3
A1
350
49
  3
A2
350
4A
  3
A3
350
4B
  3
A4
350
4C
  3
A5
350
4D
  3
A6
350
4E
  3
A7
350
4F
  3
A8
350
50
  3
A9
350
51
  3
B0
350
52
  3
B1
350
53
  3
B2
350
54
  3
B3
350
55
  3
B4
350
56
  3
B5
350
57
  3
B6
350
58
  3
B7
350
59
  3
B8
350
5A
  3
B9
350
5B
  3
C0
350
5C
  3
C1
350
5D
  3
C2
350
5E
  3
C3
350
5F
  3
C4
350
60
  3
C5
350
61
  3
C6
350
62
  3
C7
350
63
  3
C8
350
64
  3
C9
350
65
  3
D0
350
66
  3
D1
350
67
  3
D2
350
68
  0
XRECORD
  5
102
102
{ACAD_REACTORS
330
C
102
}
330
C
100
AcDbXrecord
280
     1
  1
DWGPROPS COOKIE
  2

  3

  4

  6

  7

  8
y_harada
  9

300
=
301
=
302
=
303
=
304
=
305
=
306
=
307
=
308
=
309
=
 40
0.0
 41
2459317.120511447
 42
2459317.120512477
  1

 90
        0
  0
LAYOUT
  5
1E
102
{ACAD_REACTORS
330
1A
102
}
330
1A
100
AcDbPlotSettings
  1

  2
none_device
  4

  6

 40
0.0
 41
0.0
 42
0.0
 43
0.0
 44
0.0
 45
0.0
 46
0.0
 47
0.0
 48
0.0
 49
0.0
140
0.0
141
0.0
142
1.0
143
1.0
 70
   688
 72
     1
 73
     0
 74
     5
  7

 75
    16
147
1.0
148
0.0
149
0.0
100
AcDbLayout
  1
Layout1
 70
     1
 71
     1
 10
0.0
 20
0.0
 11
420.0
 21
297.0
 12
0.0
 22
0.0
 32
0.0
 14
1.0000000000E+20
 24
1.0000000000E+20
 34
1.0000000000E+20
 15
-1.0000000000E+20
 25
-1.0000000000E+20
 35
-1.0000000000E+20
146
0.0
 13
0.0
 23
0.0
 33
0.0
 16
1.0
 26
0.0
 36
0.0
 17
0.0
 27
1.0
 37
0.0
 76
     0
330
1B
  0
LAYOUT
  5
26
102
{ACAD_REACTORS
330
1A
102
}
330
1A
100
AcDbPlotSettings
  1

  2
none_device
  4

  6

 40
0.0
 41
0.0
 42
0.0
 43
0.0
 44
0.0
 45
0.0
 46
0.0
 47
0.0
 48
0.0
 49
0.0
140
0.0
141
0.0
142
1.0
143
1.0
 70
   688
 72
     1
 73
     0
 74
     5
  7

 75
    16
147
1.0
148
0.0
149
0.0
100
AcDbLayout
  1
Layout2
 70
     1
 71
     2
 10
0.0
 20
0.0
 11
0.0
 21
0.0
 12
0.0
 22
0.0
 32
0.0
 14
0.0
 24
0.0
 34
0.0
 15
0.0
 25
0.0
 35
0.0
146
0.0
 13
0.0
 23
0.0
 33
0.0
 16
1.0
 26
0.0
 36
0.0
 17
0.0
 27
1.0
 37
0.0
 76
     0
330
23
  0
LAYOUT
  5
22
102
{ACAD_REACTORS
330
1A
102
}
330
1A
100
AcDbPlotSettings
  1

  2
none_device
  4
Letter_(8.50_x_11.00_Inches)
  6

 40
6.35
 41
6.35
 42
6.35000508
 43
6.35000508
 44
215.9
 45
279.4
 46
0.0
 47
0.0
 48
0.0
 49
0.0
140
0.0
141
0.0
142
1.0
143
1.0
 70
  1712
 72
     1
 73
     0
 74
     0
  7

 75
     0
147
1.0
148
0.0
149
0.0
100
AcDbLayout
  1
Model
 70
     1
 71
     0
 10
0.0
 20
0.0
 11
420.0
 21
297.0
 12
0.0
 22
0.0
 32
0.0
 14
0.0
 24
0.0
 34
0.0
 15
420.0
 25
297.0
 35
0.0
146
0.0
 13
0.0
 23
0.0
 33
0.0
 16
1.0
 26
0.0
 36
0.0
 17
0.0
 27
1.0
 37
0.0
 76
     0
330
1F
331
29
  0
MLINESTYLE
  5
18
102
{ACAD_REACTORS
330
17
102
}
330
17
100
AcDbMlineStyle
  2
Standard
 70
     0
  3

 62
   256
 51
90.0
 52
90.0
 71
     2
 49
0.5
 62
   256
  6
BYLAYER
 49
-0.5
 62
   256
  6
BYLAYER
  0
ACDBPLACEHOLDER
  5
F
102
{ACAD_REACTORS
330
E
102
}
330
E
  0
SCALE
  5
48
102
{ACAD_REACTORS
330
47
102
}
330
47
100
AcDbScale
 70
     0
300
1:1
140
1.0
141
1.0
290
     1
  0
SCALE
  5
49
102
{ACAD_REACTORS
330
47
102
}
330
47
100
AcDbScale
 70
     0
300
1:2
140
1.0
141
2.0
290
     0
  0
SCALE
  5
4A
102
{ACAD_REACTORS
330
47
102
}
330
47
100
AcDbScale
 70
     0
300
1:4
140
1.0
141
4.0
290
     0
  0
SCALE
  5
4B
102
{ACAD_REACTORS
330
47
102
}
330
47
100
AcDbScale
 70
     0
300
1:5
140
1.0
141
5.0
290
     0
  0
SCALE
  5
4C
102
{ACAD_REACTORS
330
47
102
}
330
47
100
AcDbScale
 70
     0
300
1:8
140
1.0
141
8.0
290
     0
  0
SCALE
  5
4D
102
{ACAD_REACTORS
330
47
102
}
330
47
100
AcDbScale
 70
     0
300
1:10
140
1.0
141
10.0
290
     0
  0
SCALE
  5
4E
102
{ACAD_REACTORS
330
47
102
}
330
47
100
AcDbScale
 70
     0
300
1:16
140
1.0
141
16.0
290
     0
  0
SCALE
  5
4F
102
{ACAD_REACTORS
330
47
102
}
330
47
100
AcDbScale
 70
     0
300
1:20
140
1.0
141
20.0
290
     0
  0
SCALE
  5
50
102
{ACAD_REACTORS
330
47
102
}
330
47
100
AcDbScale
 70
     0
300
1:30
140
1.0
141
30.0
290
     0
  0
SCALE
  5
51
102
{ACAD_REACTORS
330
47
102
}
330
47
100
AcDbScale
 70
     0
300
1:40
140
1.0
141
40.0
290
     0
  0
SCALE
  5
52
102
{ACAD_REACTORS
330
47
102
}
330
47
100
AcDbScale
 70
     0
300
1:50
140
1.0
141
50.0
290
     0
  0
SCALE
  5
53
102
{ACAD_REACTORS
330
47
102
}
330
47
100
AcDbScale
 70
     0
300
1:100
140
1.0
141
100.0
290
     0
  0
SCALE
  5
54
102
{ACAD_REACTORS
330
47
102
}
330
47
100
AcDbScale
 70
     0
300
2:1
140
2.0
141
1.0
290
     0
  0
SCALE
  5
55
102
{ACAD_REACTORS
330
47
102
}
330
47
100
AcDbScale
 70
     0
300
4:1
140
4.0
141
1.0
290
     0
  0
SCALE
  5
56
102
{ACAD_REACTORS
330
47
102
}
330
47
100
AcDbScale
 70
     0
300
8:1
140
8.0
141
1.0
290
     0
  0
SCALE
  5
57
102
{ACAD_REACTORS
330
47
102
}
330
47
100
AcDbScale
 70
     0
300
10:1
140
10.0
141
1.0
290
     0
  0
SCALE
  5
58
102
{ACAD_REACTORS
330
47
102
}
330
47
100
AcDbScale
 70
     0
300
100:1
140
100.0
141
1.0
290
     0
  0
SCALE
  5
59
102
{ACAD_REACTORS
330
47
102
}
330
47
100
AcDbScale
 70
     0
300
1/128" = 1'-0"
140
0.0078125
141
12.0
290
     0
  0
SCALE
  5
5A
102
{ACAD_REACTORS
330
47
102
}
330
47
100
AcDbScale
 70
     0
300
1/64" = 1'-0"
140
0.015625
141
12.0
290
     0
  0
SCALE
  5
5B
102
{ACAD_REACTORS
330
47
102
}
330
47
100
AcDbScale
 70
     0
300
1/32" = 1'-0"
140
0.03125
141
12.0
290
     0
  0
SCALE
  5
5C
102
{ACAD_REACTORS
330
47
102
}
330
47
100
AcDbScale
 70
     0
300
1/16" = 1'-0"
140
0.0625
141
12.0
290
     0
  0
SCALE
  5
5D
102
{ACAD_REACTORS
330
47
102
}
330
47
100
AcDbScale
 70
     0
300
3/32" = 1'-0"
140
0.09375
141
12.0
290
     0
  0
SCALE
  5
5E
102
{ACAD_REACTORS
330
47
102
}
330
47
100
AcDbScale
 70
     0
300
1/8" = 1'-0"
140
0.125
141
12.0
290
     0
  0
SCALE
  5
5F
102
{ACAD_REACTORS
330
47
102
}
330
47
100
AcDbScale
 70
     0
300
3/16" = 1'-0"
140
0.1875
141
12.0
290
     0
  0
SCALE
  5
60
102
{ACAD_REACTORS
330
47
102
}
330
47
100
AcDbScale
 70
     0
300
1/4" = 1'-0"
140
0.25
141
12.0
290
     0
  0
SCALE
  5
61
102
{ACAD_REACTORS
330
47
102
}
330
47
100
AcDbScale
 70
     0
300
3/8" = 1'-0"
140
0.375
141
12.0
290
     0
  0
SCALE
  5
62
102
{ACAD_REACTORS
330
47
102
}
330
47
100
AcDbScale
 70
     0
300
1/2" = 1'-0"
140
0.5
141
12.0
290
     0
  0
SCALE
  5
63
102
{ACAD_REACTORS
330
47
102
}
330
47
100
AcDbScale
 70
     0
300
3/4" = 1'-0"
140
0.75
141
12.0
290
     0
  0
SCALE
  5
64
102
{ACAD_REACTORS
330
47
102
}
330
47
100
AcDbScale
 70
     0
300
1" = 1'-0"
140
1.0
141
12.0
290
     0
  0
SCALE
  5
65
102
{ACAD_REACTORS
330
47
102
}
330
47
100
AcDbScale
 70
     0
300
1-1/2" = 1'-0"
140
1.5
141
12.0
290
     0
  0
SCALE
  5
66
102
{ACAD_REACTORS
330
47
102
}
330
47
100
AcDbScale
 70
     0
300
3" = 1'-0"
140
3.0
141
12.0
290
     0
  0
SCALE
  5
67
102
{ACAD_REACTORS
330
47
102
}
330
47
100
AcDbScale
 70
     0
300
6" = 1'-0"
140
6.0
141
12.0
290
     0
  0
SCALE
  5
68
102
{ACAD_REACTORS
330
47
102
}
330
47
100
AcDbScale
 70
     0
300
1'-0" = 1'-0"
140
12.0
141
12.0
290
     0
  0
ENDSEC
  0
EOF
