  0
SECTION
  2
HEADER
  9
$ACADVER
  1
AC1015
  9
$ACADMAINTVER
 70
     6
  9
$DWGCODEPAGE
  3
DOS932
  9
$INSBASE
 10
0.0
 20
0.0
 30
0.0
  9
$EXTMIN
 10
0.0
 20
0.0
 30
0.0
  9
$EXTMAX
 10
420.0
 20
297.0
 30
0.0
  9
$LIMMIN
 10
0.0
 20
0.0
  9
$LIMMAX
 10
420.0
 20
297.0
  9
$ORTHOMODE
 70
     0
  9
$REGENMODE
 70
     1
  9
$FILLMODE
 70
     1
  9
$QTEXTMODE
 70
     0
  9
$MIRRTEXT
 70
     1
  9
$LTSCALE
 40
1.0
  9
$ATTMODE
 70
     1
  9
$TEXTSIZE
 40
3.8805555556
  9
$TRACEWID
 40
1.0
  9
$TEXTSTYLE
  7
Standard
  9
$CLAYER
  8
0
  9
$CELTYPE
  6
ByLayer
  9
$CECOLOR
 62
   256
  9
$CELTSCALE
 40
1.0
  9
$DISPSILH
 70
     0
  9
$DIMSCALE
 40
1.0
  9
$DIMASZ
 40
3.0
  9
$DIMEXO
 40
0.0
  9
$DIMDLI
 40
3.75
  9
$DIMRND
 40
0.0
  9
$DIMDLE
 40
0.0
  9
$DIMEXE
 40
1.0
  9
$DIMTP
 40
0.0
  9
$DIMTM
 40
0.0
  9
$DIMTXT
 40
3.5277777778
  9
$DIMCEN
 40
2.5
  9
$DIMTSZ
 40
0.0
  9
$DIMTOL
 70
     0
  9
$DIMLIM
 70
     0
  9
$DIMTIH
 70
     1
  9
$DIMTOH
 70
     1
  9
$DIMSE1
 70
     0
  9
$DIMSE2
 70
     0
  9
$DIMTAD
 70
     1
  9
$DIMZIN
 70
     0
  9
$DIMBLK
  1

  9
$DIMASO
 70
     1
  9
$DIMSHO
 70
     1
  9
$DIMPOST
  1

  9
$DIMAPOST
  1

  9
$DIMALT
 70
     0
  9
$DIMALTD
 70
     3
  9
$DIMALTF
 40
0.0393700787
  9
$DIMLFAC
 40
1.0
  9
$DIMTOFL
 70
     1
  9
$DIMTVP
 40
0.0
  9
$DIMTIX
 70
     0
  9
$DIMSOXD
 70
     0
  9
$DIMSAH
 70
     0
  9
$DIMBLK1
  1

  9
$DIMBLK2
  1

  9
$DIMSTYLE
  2
ISO-25
  9
$DIMCLRD
 70
     0
  9
$DIMCLRE
 70
     0
  9
$DIMCLRT
 70
     0
  9
$DIMTFAC
 40
1.0
  9
$DIMGAP
 40
1.0
  9
$DIMJUST
 70
     0
  9
$DIMSD1
 70
     0
  9
$DIMSD2
 70
     0
  9
$DIMTOLJ
 70
     0
  9
$DIMTZIN
 70
     0
  9
$DIMALTZ
 70
     0
  9
$DIMALTTZ
 70
     0
  9
$DIMUPT
 70
     0
  9
$DIMDEC
 70
     2
  9
$DIMTDEC
 70
     2
  9
$DIMALTU
 70
     2
  9
$DIMALTTD
 70
     3
  9
$DIMTXSTY
  7
Standard
  9
$DIMAUNIT
 70
     0
  9
$DIMADEC
 70
     2
  9
$DIMALTRND
 40
0.0
  9
$DIMAZIN
 70
     0
  9
$DIMDSEP
 70
    44
  9
$DIMATFIT
 70
     3
  9
$DIMFRAC
 70
     0
  9
$DIMLDRBLK
  1

  9
$DIMLUNIT
 70
     2
  9
$DIMLWD
 70
    -2
  9
$DIMLWE
 70
    -2
  9
$DIMTMOVE
 70
     0
  9
$LUNITS
 70
     2
  9
$LUPREC
 70
     2
  9
$SKETCHINC
 40
1.0
  9
$FILLETRAD
 40
10.0
  9
$AUNITS
 70
     0
  9
$AUPREC
 70
     2
  9
$MENU
  1
.
  9
$ELEVATION
 40
0.0
  9
$PELEVATION
 40
0.0
  9
$THICKNESS
 40
0.0
  9
$LIMCHECK
 70
     0
  9
$CHAMFERA
 40
0.0
  9
$CHAMFERB
 40
0.0
  9
$CHAMFERC
 40
0.0
  9
$CHAMFERD
 40
0.0
  9
$SKPOLY
 70
     0
  9
$TDCREATE
 40
2459317.497216805
  9
$TDUCREATE
 40
2459317.122216805
  9
$TDUPDATE
 40
2459317.497217824
  9
$TDUUPDATE
 40
2459317.122217824
  9
$TDINDWG
 40
0.0000000116
  9
$TDUSRTIMER
 40
0.0000000116
  9
$USRTIMER
 70
     1
  9
$ANGBASE
 50
0.0
  9
$ANGDIR
 70
     0
  9
$PDMODE
 70
     0
  9
$PDSIZE
 40
-1.0
  9
$PLINEWID
 40
0.0
  9
$SPLFRAME
 70
     0
  9
$SPLINETYPE
 70
     6
  9
$SPLINESEGS
 70
     8
  9
$HANDSEED
  5
E2
  9
$SURFTAB1
 70
     6
  9
$SURFTAB2
 70
     6
  9
$SURFTYPE
 70
     6
  9
$SURFU
 70
     6
  9
$SURFV
 70
     6
  9
$UCSBASE
  2

  9
$UCSNAME
  2

  9
$UCSORG
 10
0.0
 20
0.0
 30
0.0
  9
$UCSXDIR
 10
1.0
 20
0.0
 30
0.0
  9
$UCSYDIR
 10
0.0
 20
1.0
 30
0.0
  9
$UCSORTHOREF
  2

  9
$UCSORTHOVIEW
 70
     0
  9
$UCSORGTOP
 10
0.0
 20
0.0
 30
0.0
  9
$UCSORGBOTTOM
 10
0.0
 20
0.0
 30
0.0
  9
$UCSORGLEFT
 10
0.0
 20
0.0
 30
0.0
  9
$UCSORGRIGHT
 10
0.0
 20
0.0
 30
0.0
  9
$UCSORGFRONT
 10
0.0
 20
0.0
 30
0.0
  9
$UCSORGBACK
 10
0.0
 20
0.0
 30
0.0
  9
$PUCSBASE
  2

  9
$PUCSNAME
  2

  9
$PUCSORG
 10
0.0
 20
0.0
 30
0.0
  9
$PUCSXDIR
 10
1.0
 20
0.0
 30
0.0
  9
$PUCSYDIR
 10
0.0
 20
1.0
 30
0.0
  9
$PUCSORTHOREF
  2

  9
$PUCSORTHOVIEW
 70
     0
  9
$PUCSORGTOP
 10
0.0
 20
0.0
 30
0.0
  9
$PUCSORGBOTTOM
 10
0.0
 20
0.0
 30
0.0
  9
$PUCSORGLEFT
 10
0.0
 20
0.0
 30
0.0
  9
$PUCSORGRIGHT
 10
0.0
 20
0.0
 30
0.0
  9
$PUCSORGFRONT
 10
0.0
 20
0.0
 30
0.0
  9
$PUCSORGBACK
 10
0.0
 20
0.0
 30
0.0
  9
$USERI1
 70
     0
  9
$USERI2
 70
     0
  9
$USERI3
 70
     0
  9
$USERI4
 70
     0
  9
$USERI5
 70
     0
  9
$USERR1
 40
0.0
  9
$USERR2
 40
0.0
  9
$USERR3
 40
0.0
  9
$USERR4
 40
0.0
  9
$USERR5
 40
0.0
  9
$WORLDVIEW
 70
     1
  9
$SHADEDGE
 70
     3
  9
$SHADEDIF
 70
    70
  9
$TILEMODE
 70
     1
  9
$MAXACTVP
 70
    64
  9
$PINSBASE
 10
0.0
 20
0.0
 30
0.0
  9
$PLIMCHECK
 70
     0
  9
$PEXTMIN
 10
1.0000000000E+20
 20
1.0000000000E+20
 30
1.0000000000E+20
  9
$PEXTMAX
 10
-1.0000000000E+20
 20
-1.0000000000E+20
 30
-1.0000000000E+20
  9
$PLIMMIN
 10
0.0
 20
0.0
  9
$PLIMMAX
 10
420.0
 20
297.0
  9
$UNITMODE
 70
     0
  9
$VISRETAIN
 70
     1
  9
$PLINEGEN
 70
     0
  9
$PSLTSCALE
 70
     1
  9
$TREEDEPTH
 70
  3020
  9
$CMLSTYLE
  2
Standard
  9
$CMLJUST
 70
     0
  9
$CMLSCALE
 40
20.0
  9
$PROXYGRAPHICS
 70
     1
  9
$MEASUREMENT
 70
     1
  9
$CELWEIGHT
370
    -1
  9
$ENDCAPS
280
     0
  9
$JOINSTYLE
280
     0
  9
$LWDISPLAY
290
     1
  9
$INSUNITS
 70
     4
  9
$HYPERLINKBASE
  1

  9
$STYLESHEET
  1

  9
$XEDIT
290
     1
  9
$CEPSNTYPE
380
     0
  9
$PSTYLEMODE
290
     1
  9
$FINGERPRINTGUID
  2
{bced774d-e58f-4479-8dd2-293422b89337}
  9
$VERSIONGUID
  2
{FAEB1C32-E019-11D5-929B-00C0DF256EC4}
  9
$EXTNAMES
290
     1
  9
$PSVPSCALE
 40
0.0
  9
$OLESTARTUP
290
     0
  0
ENDSEC
  0
SECTION
  2
CLASSES
  0
CLASS
  1
ACDBDICTIONARYWDFLT
  2
AcDbDictionaryWithDefault
  3
ObjectDBX Classes
 90
        0
280
     0
281
     0
  0
CLASS
  1
VISUALSTYLE
  2
AcDbVisualStyle
  3
ObjectDBX Classes
 90
     4095
280
     0
281
     0
  0
CLASS
  1
MATERIAL
  2
AcDbMaterial
  3
ObjectDBX Classes
 90
     1153
280
     0
281
     0
  0
CLASS
  1
SCALE
  2
AcDbScale
  3
ObjectDBX Classes
 90
     1153
280
     0
281
     0
  0
CLASS
  1
TABLESTYLE
  2
AcDbTableStyle
  3
ObjectDBX Classes
 90
     4095
280
     0
281
     0
  0
CLASS
  1
MLEADERSTYLE
  2
AcDbMLeaderStyle
  3
ACDB_MLEADERSTYLE_CLASS
 90
     4095
280
     0
281
     0
  0
CLASS
  1
SUN
  2
AcDbSun
  3
SCENEOE
 90
     1153
280
     0
281
     0
  0
CLASS
  1
ACDBPLACEHOLDER
  2
AcDbPlaceHolder
  3
ObjectDBX Classes
 90
        0
280
     0
281
     0
  0
CLASS
  1
LAYOUT
  2
AcDbLayout
  3
ObjectDBX Classes
 90
        0
280
     0
281
     0
  0
ENDSEC
  0
SECTION
  2
TABLES
  0
TABLE
  2
VPORT
  5
8
330
0
100
AcDbSymbolTable
 70
     1
  0
VPORT
  5
29
330
8
100
AcDbSymbolTableRecord
100
AcDbViewportTableRecord
  2
*Active
 70
     0
 10
0.0
 20
0.0
 11
1.0
 21
1.0
 12
210.0
 22
148.5
 13
0.0
 23
0.0
 14
10.0
 24
10.0
 15
10.0
 25
10.0
 16
0.0
 26
0.0
 36
1.0
 17
0.0
 27
0.0
 37
0.0
 40
297.0
 41
1.4141414141
 42
50.0
 43
0.0
 44
0.0
 50
0.0
 51
0.0
 71
     0
 72
  2000
 73
     1
 74
     3
 75
     0
 76
     0
 77
     0
 78
     0
281
     0
 65
     1
110
0.0
120
0.0
130
0.0
111
1.0
121
0.0
131
0.0
112
0.0
122
1.0
132
0.0
 79
     0
146
0.0
  0
ENDTAB
  0
TABLE
  2
LTYPE
  5
5
330
0
100
AcDbSymbolTable
 70
     6
  0
LTYPE
  5
14
330
5
100
AcDbSymbolTableRecord
100
AcDbLinetypeTableRecord
  2
ByBlock
 70
     0
  3

 72
    65
 73
     0
 40
0.0
  0
LTYPE
  5
15
330
5
100
AcDbSymbolTableRecord
100
AcDbLinetypeTableRecord
  2
ByLayer
 70
     0
  3

 72
    65
 73
     0
 40
0.0
  0
LTYPE
  5
16
330
5
100
AcDbSymbolTableRecord
100
AcDbLinetypeTableRecord
  2
Continuous
 70
     0
  3
Solid line
 72
    65
 73
     0
 40
0.0
  0
LTYPE
  5
6E
330
5
100
AcDbSymbolTableRecord
100
AcDbLinetypeTableRecord
  2
HIDDEN
 70
     0
  3
Hidden __ __ __ __ __ __ __ __ __ __ __ __ __ __
 72
    65
 73
     2
 40
1.905
 49
1.27
 74
     0
 49
-0.635
 74
     0
  0
LTYPE
  5
6F
330
5
100
AcDbSymbolTableRecord
100
AcDbLinetypeTableRecord
  2
PHANTOM
 70
     0
  3
Phantom ______  __  __  ______  __  __  ______
 72
    65
 73
     6
 40
12.7
 49
6.35
 74
     0
 49
-1.27
 74
     0
 49
1.27
 74
     0
 49
-1.27
 74
     0
 49
1.27
 74
     0
 49
-1.27
 74
     0
  0
LTYPE
  5
70
330
5
100
AcDbSymbolTableRecord
100
AcDbLinetypeTableRecord
  2
CENTER
 70
     0
  3
Center ____ _ ____ _ ____ _ ____ _ ____ _ ____
 72
    65
 73
     4
 40
10.16
 49
6.35
 74
     0
 49
-1.27
 74
     0
 49
1.27
 74
     0
 49
-1.27
 74
     0
  0
LTYPE
  5
71
330
5
100
AcDbSymbolTableRecord
100
AcDbLinetypeTableRecord
  2
CENTERX2
 70
     0
  3
Center (2x) ________  __  ________  __  _____
 72
    65
 73
     4
 40
20.32
 49
12.7
 74
     0
 49
-2.54
 74
     0
 49
2.54
 74
     0
 49
-2.54
 74
     0
  0
LTYPE
  5
72
330
5
100
AcDbSymbolTableRecord
100
AcDbLinetypeTableRecord
  2
DOT2
 70
     0
  3
Dot (.5x) ........................................
 72
    65
 73
     2
 40
0.635
 49
0.0
 74
     0
 49
-0.635
 74
     0
  0
ENDTAB
  0
TABLE
  2
LAYER
  5
2
330
0
100
AcDbSymbolTable
 70
     6
  0
LAYER
  5
10
330
2
100
AcDbSymbolTableRecord
100
AcDbLayerTableRecord
  2
0
 70
     0
 62
     7
  6
Continuous
370
    -3
390
F
  0
LAYER
  5
73
330
2
100
AcDbSymbolTableRecord
100
AcDbLayerTableRecord
  2
SLD-0
 70
     0
 62
     7
  6
Continuous
370
    -3
390
F
  0
LAYER
  5
74
330
2
100
AcDbSymbolTableRecord
100
AcDbLayerTableRecord
  2
8
 70
     0
 62
     7
  6
Continuous
370
    25
390
F
  0
LAYER
  5
75
330
2
100
AcDbSymbolTableRecord
100
AcDbLayerTableRecord
  2
9
 70
     0
 62
     7
  6
Continuous
370
    -3
390
F
  0
LAYER
  5
76
330
2
100
AcDbSymbolTableRecord
100
AcDbLayerTableRecord
  2
10
 70
     0
 62
     1
  6
Continuous
370
    -3
390
F
  0
LAYER
  5
77
330
2
100
AcDbSymbolTableRecord
100
AcDbLayerTableRecord
  2
11
 70
     0
 62
     7
  6
Continuous
370
    -3
390
F
  0
ENDTAB
  0
TABLE
  2
STYLE
  5
3
330
0
100
AcDbSymbolTable
 70
     2
  0
STYLE
  5
11
330
3
100
AcDbSymbolTableRecord
100
AcDbTextStyleTableRecord
  2
Standard
 70
     0
 40
0.0
 41
1.0
 50
0.0
 71
     0
 42
3.8805555556
  3
txt
  4
bigfont
  0
STYLE
  5
78
330
3
100
AcDbSymbolTableRecord
100
AcDbTextStyleTableRecord
  2
SLDTEXTSTYLE0
 70
     0
 40
0.0
 41
0.7
 50
0.0
 71
     0
 42
3.8805555556
  3
TXT
  4
bigfont
  0
ENDTAB
  0
TABLE
  2
VIEW
  5
6
330
0
100
AcDbSymbolTable
 70
     0
  0
ENDTAB
  0
TABLE
  2
UCS
  5
7
330
0
100
AcDbSymbolTable
 70
     0
  0
ENDTAB
  0
TABLE
  2
APPID
  5
9
330
0
100
AcDbSymbolTable
 70
     1
  0
APPID
  5
12
330
9
100
AcDbSymbolTableRecord
100
AcDbRegAppTableRecord
  2
ACAD
 70
     0
  0
ENDTAB
  0
TABLE
  2
DIMSTYLE
  5
A
330
0
100
AcDbSymbolTable
 70
     1
100
AcDbDimStyleTable
  0
DIMSTYLE
105
27
330
A
100
AcDbSymbolTableRecord
100
AcDbDimStyleTableRecord
  2
ISO-25
 70
     0
 41
2.5
 42
0.625
 43
3.75
 44
1.25
 73
     0
 74
     0
 77
     1
 78
     8
140
2.5
141
2.5
143
0.0393700787
147
0.625
171
     3
172
     1
178
     0
271
     2
272
     2
274
     3
278
    44
283
     0
284
     8
340
11
  0
ENDTAB
  0
TABLE
  2
BLOCK_RECORD
  5
1
330
0
100
AcDbSymbolTable
 70
     1
  0
BLOCK_RECORD
  5
1F
330
1
100
AcDbSymbolTableRecord
100
AcDbBlockTableRecord
  2
*Model_Space
340
22
  0
BLOCK_RECORD
  5
1B
330
1
100
AcDbSymbolTableRecord
100
AcDbBlockTableRecord
  2
*Paper_Space
340
1E
  0
BLOCK_RECORD
  5
23
330
1
100
AcDbSymbolTableRecord
100
AcDbBlockTableRecord
  2
*Paper_Space0
340
26
  0
ENDTAB
  0
ENDSEC
  0
SECTION
  2
BLOCKS
  0
BLOCK
  5
20
330
1F
100
AcDbEntity
  8
0
100
AcDbBlockBegin
  2
*Model_Space
 70
     0
 10
0.0
 20
0.0
 30
0.0
  3
*Model_Space
  1

  0
ENDBLK
  5
21
330
1F
100
AcDbEntity
  8
0
100
AcDbBlockEnd
  0
BLOCK
  5
1C
330
1B
100
AcDbEntity
 67
     1
  8
0
100
AcDbBlockBegin
  2
*Paper_Space
 70
     0
 10
0.0
 20
0.0
 30
0.0
  3
*Paper_Space
  1

  0
ENDBLK
  5
1D
330
1B
100
AcDbEntity
 67
     1
  8
0
100
AcDbBlockEnd
  0
BLOCK
  5
24
330
23
100
AcDbEntity
  8
0
100
AcDbBlockBegin
  2
*Paper_Space0
 70
     0
 10
0.0
 20
0.0
 30
0.0
  3
*Paper_Space0
  1

  0
ENDBLK
  5
25
330
23
100
AcDbEntity
  8
0
100
AcDbBlockEnd
  0
ENDSEC
  0
SECTION
  2
ENTITIES
  0
MTEXT
  5
79
330
1F
100
AcDbEntity
  8
9
 62
     7
100
AcDbMText
 10
22.9810592731
 20
14.7698939359
 30
0.0
 40
3.7041666667
 41
0.0
 71
     1
 72
     1
  1
2021/03/09
  7
SLDTEXTSTYLE0
 73
     1
 44
1.0
  0
MTEXT
  5
7A
330
1F
100
AcDbEntity
  8
9
 62
     7
100
AcDbMText
 10
22.9810592731
 20
39.3097759652
 30
0.0
 40
3.7041666667
 41
0.0
 71
     1
 72
     1
  1
12-8001-003
  7
SLDTEXTSTYLE0
 73
     1
 44
1.0
  0
MTEXT
  5
7B
330
1F
100
AcDbEntity
  8
9
 62
     7
100
AcDbMText
 10
22.9810592731
 20
22.271836236
 30
0.0
 40
3.7041666667
 41
0.0
 71
     1
 72
     1
  1
-
  7
SLDTEXTSTYLE0
 73
     1
 44
1.0
  0
MTEXT
  5
7C
330
1F
100
AcDbEntity
  8
9
 62
     7
100
AcDbMText
 10
22.9810592731
 20
30.9293045781
 30
0.0
 40
3.7041666667
 41
0.0
 71
     1
 72
     1
  1
1:1
  7
SLDTEXTSTYLE0
 73
     1
 44
1.0
  0
SPLINE
  5
7D
330
1F
100
AcDbEntity
  8
0
  6
Continuous
 62
     7
370
    35
100
AcDbSpline
210
0.0
220
0.0
230
1.0
 70
     8
 71
     3
 72
    26
 73
    22
 74
     0
 42
0.00000001
 43
0.00000001
 40
0.0
 40
0.0
 40
0.0
 40
0.0
 40
0.0411130729674287
 40
0.0998764546071916
 40
0.1603931284630114
 40
0.2182115945413517
 40
0.277866384600551
 40
0.332948353041657
 40
0.3898759185991598
 40
0.4410190839020329
 40
0.4938356253226815
 40
0.5420308783702785
 40
0.5916467746048181
 40
0.6395848373336105
 40
0.6887977406964596
 40
0.7390017150324887
 40
0.7904838035338113
 40
0.8441611885565218
 40
0.8992319252727489
 40
0.9559899640450716
 40
1.0
 40
1.0
 40
1.0
 40
1.0
 10
161.6729725669782
 20
151.4508828767081
 30
0.0
 10
161.6749572267131
 20
151.4527431181565
 30
0.0
 10
161.6797785831239
 20
151.4572622238124
 30
0.0
 10
161.7776594755734
 20
151.4509012020634
 30
0.0
 10
161.9502011040491
 20
151.4352897723536
 30
0.0
 10
162.1982959402549
 20
151.4116324624899
 30
0.0
 10
162.502205324395
 20
151.3849825853906
 30
0.0
 10
162.8595101684619
 20
151.3587333289452
 30
0.0
 10
163.2414425057537
 20
151.337594357879
 30
0.0
 10
163.6466271077312
 20
151.3234753917544
 30
0.0
 10
164.0447205298252
 20
151.3180412287335
 30
0.0
 10
164.4401221618334
 20
151.3210283955628
 30
0.0
 10
164.8132371068247
 20
151.3313881693639
 30
0.0
 10
165.1687421858906
 20
151.3480195627342
 30
0.0
 10
165.4969056484963
 20
151.3689816964801
 30
0.0
 10
165.7953054544786
 20
151.3924372703073
 30
0.0
 10
166.056532450156
 20
151.415860468187
 30
0.0
 10
166.2726341003888
 20
151.4364732458701
 30
0.0
 10
166.4320364735038
 20
151.4508030213178
 30
0.0
 10
166.528055462587
 20
151.4571034253503
 30
0.0
 10
166.5357046606935
 20
151.4529677164301
 30
0.0
 10
166.5390454160329
 20
151.4511614628248
 30
0.0
  0
ARC
  5
7E
330
1F
100
AcDbEntity
  8
0
  6
Continuous
 62
     7
370
    35
100
AcDbCircle
 10
164.1050868872
 20
161.1430792303
 30
0.0
 40
10.00000000000002
100
AcDbArc
 50
283.7958612669
 51
256.2041387331
  0
SPLINE
  5
7F
330
1F
100
AcDbEntity
  8
0
  6
Continuous
 62
     7
370
    35
100
AcDbSpline
210
0.0
220
0.0
230
1.0
 70
     8
 71
     3
 72
    14
 73
    10
 74
     0
 42
0.00000001
 43
0.00000001
 40
0.0
 40
0.0
 40
0.0
 40
0.0
 40
0.25
 40
0.25
 40
0.5
 40
0.5
 40
0.75
 40
0.75
 40
1.0
 40
1.0
 40
1.0
 40
1.0
 10
163.2071821482944
 20
151.1834724569188
 30
0.0
 10
163.0115171732506
 20
151.2011125618275
 30
0.0
 10
162.8329023202053
 20
151.2229525821865
 30
0.0
 10
162.5054757009446
 20
151.2704600064106
 30
0.0
 10
162.3581874863698
 20
151.2960062711942
 30
0.0
 10
162.1058039535656
 20
151.3441317801988
 30
0.0
 10
161.9979935671007
 20
151.3672007867878
 30
0.0
 10
161.8274144991608
 20
151.4055307659948
 30
0.0
 10
161.7633290558068
 20
151.4210362668824
 30
0.0
 10
161.7204538118312
 20
151.4315641530141
 30
0.0
  0
SPLINE
  5
80
330
1F
100
AcDbEntity
  8
0
  6
Continuous
 62
     7
370
    35
100
AcDbSpline
210
0.0
220
0.0
230
1.0
 70
     8
 71
     3
 72
    14
 73
    10
 74
     0
 42
0.00000001
 43
0.00000001
 40
0.0
 40
0.0
 40
0.0
 40
0.0
 40
0.2500000000000001
 40
0.2500000000000001
 40
0.5000000000000001
 40
0.5000000000000001
 40
0.7500000000000002
 40
0.7500000000000002
 40
1.0
 40
1.0
 40
1.0
 40
1.0
 10
165.0029916261196
 20
151.1834724569188
 30
0.0
 10
164.8612556308629
 20
151.1706942996368
 30
0.0
 10
164.7156009335416
 20
151.1608066531312
 30
0.0
 10
164.4165307509626
 20
151.1473272137497
 30
0.0
 10
164.2611783978941
 20
151.1437454112215
 30
0.0
 10
163.9518595669371
 20
151.1437024751343
 30
0.0
 10
163.7991901576514
 20
151.1471435072039
 30
0.0
 10
163.4977439735792
 20
151.1605993078757
 30
0.0
 10
163.3489686522528
 20
151.1706897460431
 30
0.0
 10
163.2071821482944
 20
151.1834724569188
 30
0.0
  0
SPLINE
  5
81
330
1F
100
AcDbEntity
  8
0
  6
Continuous
 62
     7
370
    35
100
AcDbSpline
210
0.0
220
0.0
230
1.0
 70
     8
 71
     3
 72
    14
 73
    10
 74
     0
 42
0.00000001
 43
0.00000001
 40
0.0
 40
0.0
 40
0.0
 40
0.0
 40
0.25
 40
0.25
 40
0.5
 40
0.5
 40
0.75
 40
0.75
 40
1.0
 40
1.0
 40
1.0
 40
1.0
 10
166.4897199625811
 20
151.431564153007
 30
0.0
 10
166.4468181203266
 20
151.4210297357487
 30
0.0
 10
166.3827269904863
 20
151.4055246254334
 30
0.0
 10
166.2124553754775
 20
151.3672615060648
 30
0.0
 10
166.1044703642057
 20
151.3441562469125
 30
0.0
 10
165.8526817356936
 20
151.2961336039649
 30
0.0
 10
165.7087284755773
 20
151.2711012458595
 30
0.0
 10
165.3798292652029
 20
151.2232683682436
 30
0.0
 10
165.1987911528957
 20
151.2011246922901
 30
0.0
 10
165.0029916261196
 20
151.1834724569188
 30
0.0
  0
ARC
  5
82
330
1F
100
AcDbEntity
  8
0
  6
Continuous
 62
     7
370
    35
100
AcDbCircle
 10
238.861669205
 20
179.9900694811
 30
0.0
 40
28.84699025085792
100
AcDbArc
 50
270.3701303691
 51
276.8161817707
  0
ARC
  5
83
330
1F
100
AcDbEntity
  8
0
  6
Continuous
 62
     7
370
    35
100
AcDbCircle
 10
238.861669205
 20
142.2960889794
 30
0.0
 40
28.84699025085792
100
AcDbArc
 50
83.1838182293
 51
90.0
  0
LINE
  5
84
330
1F
100
AcDbEntity
  8
0
  6
Continuous
 62
     7
370
    35
100
AcDbLine
 10
238.861669205
 20
171.1430792303
 30
0.0
 11
236.9155552617
 21
171.1430792303
 31
0.0
  0
ARC
  5
85
330
1F
100
AcDbEntity
  8
0
  6
Continuous
 62
     7
370
    35
100
AcDbCircle
 10
236.9155552617
 20
179.9900694811
 30
0.0
 40
28.84699025085719
100
AcDbArc
 50
263.1838182293
 51
263.6697700841
  0
ARC
  5
86
330
1F
100
AcDbEntity
  8
0
  6
Continuous
 62
     7
370
    35
100
AcDbCircle
 10
236.9155552617
 20
142.2960889794
 30
0.0
 40
28.84699025085715
100
AcDbArc
 50
90.0
 51
96.8161817707
  0
ARC
  5
87
330
1F
100
AcDbEntity
  8
0
  6
Continuous
 62
     7
370
    35
100
AcDbCircle
 10
241.1475266734
 20
161.4199254179
 30
0.0
 40
9.587024921379134
100
AcDbArc
 50
66.6573662957
 51
83.1838182293
  0
ARC
  5
88
330
1F
100
AcDbEntity
  8
0
  6
Continuous
 62
     7
370
    35
100
AcDbCircle
 10
241.1475266734
 20
160.8662330426
 30
0.0
 40
9.587024921379125
100
AcDbArc
 50
276.8161817707
 51
293.3426337043
  0
ARC
  5
89
330
1F
100
AcDbEntity
  8
0
  6
Continuous
 62
     7
370
    35
100
AcDbCircle
 10
234.6296977933
 20
161.4199254179
 30
0.0
 40
9.587024921379186
100
AcDbArc
 50
96.8161817707
 51
113.3426337043
  0
ARC
  5
8A
330
1F
100
AcDbEntity
  8
0
  6
Continuous
 62
     7
370
    35
100
AcDbCircle
 10
234.6296977933
 20
160.8662330426
 30
0.0
 40
9.587024921379186
100
AcDbArc
 50
246.6573662957
 51
263.1838182293
  0
ARC
  5
8B
330
1F
100
AcDbEntity
  8
0
  6
Continuous
 62
     7
370
    35
100
AcDbCircle
 10
242.968486922
 20
165.6395023445
 30
0.0
 40
4.991295853394185
100
AcDbArc
 50
29.6750409913
 51
66.6573662957
  0
ARC
  5
8C
330
1F
100
AcDbEntity
  8
0
  6
Continuous
 62
     7
370
    35
100
AcDbCircle
 10
242.968486922
 20
156.646656116
 30
0.0
 40
4.99129585339418
100
AcDbArc
 50
293.3426337043
 51
330.3249590087
  0
ARC
  5
8D
330
1F
100
AcDbEntity
  8
0
  6
Continuous
 62
     7
370
    35
100
AcDbCircle
 10
232.8087375447
 20
165.6395023445
 30
0.0
 40
4.991295853394173
100
AcDbArc
 50
113.3426337043
 51
156.6573662957
  0
ARC
  5
8E
330
1F
100
AcDbEntity
  8
0
  6
Continuous
 62
     7
370
    35
100
AcDbCircle
 10
232.8087375447
 20
156.646656116
 30
0.0
 40
4.991295853394173
100
AcDbArc
 50
203.3426337043
 51
246.6573662957
  0
ARC
  5
8F
330
1F
100
AcDbEntity
  8
0
  6
Continuous
 62
     7
370
    35
100
AcDbCircle
 10
237.0283144713
 20
163.8185420959
 30
0.0
 40
9.58702492137872
100
AcDbArc
 50
156.6573662957
 51
173.1838182293
  0
ARC
  5
90
330
1F
100
AcDbEntity
  8
0
  6
Continuous
 62
     7
370
    35
100
AcDbCircle
 10
237.0283144713
 20
158.4676163646
 30
0.0
 40
9.58702492137872
100
AcDbArc
 50
186.8161817707
 51
203.3426337043
  0
ARC
  5
91
330
1F
100
AcDbEntity
  8
0
  6
Continuous
 62
     7
370
    35
100
AcDbCircle
 10
256.1521509098
 20
161.5326846275
 30
0.0
 40
28.84699025085831
100
AcDbArc
 50
173.1838182293
 51
180.0
  0
ARC
  5
92
330
1F
100
AcDbEntity
  8
0
  6
Continuous
 62
     7
370
    35
100
AcDbCircle
 10
256.1521509098
 20
160.7534738331
 30
0.0
 40
28.84699025085831
100
AcDbArc
 50
180.0
 51
186.8161817707
  0
SPLINE
  5
93
330
1F
100
AcDbEntity
  8
0
  6
Continuous
 62
     7
370
    35
100
AcDbSpline
210
0.0
220
0.0
230
1.0
 70
     8
 71
     3
 72
    10
 73
     6
 74
     0
 42
0.00000001
 43
0.00000001
 40
0.0
 40
0.0
 40
0.0
 40
0.0
 40
0.4306227663616355
 40
0.8765258227445683
 40
0.9999999999999999
 40
0.9999999999999999
 40
0.9999999999999999
 40
0.9999999999999999
 10
238.8616692049634
 20
151.1834724569193
 30
0.0
 10
238.9087025152818
 20
151.1738786321692
 30
0.0
 10
239.004438073742
 20
151.1543505537923
 30
0.0
 10
239.057959924655
 20
151.1429952984419
 30
0.0
 10
239.0497912191077
 20
151.1447160677523
 30
0.0
 10
239.0480197675338
 20
151.1450892308545
 30
0.0
  0
SPLINE
  5
94
330
1F
100
AcDbEntity
  8
0
  6
Continuous
 62
     7
370
    35
100
AcDbSpline
210
0.0
220
0.0
230
1.0
 70
     8
 71
     3
 72
    14
 73
    10
 74
     0
 42
0.00000001
 43
0.00000001
 40
0.0
 40
0.0
 40
0.0
 40
0.0
 40
0.25
 40
0.25
 40
0.5
 40
0.5
 40
0.75
 40
0.75
 40
1.0
 40
1.0
 40
1.0
 40
1.0
 10
236.9155552617382
 20
151.431564153007
 30
0.0
 10
237.1256419472344
 20
151.4210297357487
 30
0.0
 10
237.3271435544106
 20
151.4055246254334
 30
0.0
 10
237.7133221543698
 20
151.3672615060648
 30
0.0
 10
237.8999121356356
 20
151.3441562469125
 30
0.0
 10
238.2374642109104
 20
151.2961336039649
 30
0.0
 10
238.3903047516174
 20
151.2711012458595
 30
0.0
 10
238.6605047079441
 20
151.2232683682436
 30
0.0
 10
238.7741905458734
 20
151.2011246922901
 30
0.0
 10
238.8616692049397
 20
151.1834724569188
 30
0.0
  0
SPLINE
  5
95
330
1F
100
AcDbEntity
  8
0
  6
Continuous
 62
     7
370
    35
100
AcDbSpline
210
0.0
220
0.0
230
1.0
 70
     8
 71
     3
 72
    18
 73
    14
 74
     0
 42
0.00000001
 43
0.00000001
 40
0.0
 40
0.0
 40
0.0
 40
0.0
 40
0.0727216869230009
 40
0.1585368421284534
 40
0.2414500333741303
 40
0.3265681761610763
 40
0.4134004653373372
 40
0.5024433679215766
 40
0.5952832332939989
 40
0.6905330257444225
 40
0.7887011588640915
 40
0.8895490240000865
 40
1.0
 40
1.0
 40
1.0
 40
1.0
 10
233.7349506669107
 20
151.3197683451368
 30
0.0
 10
233.7382098816087
 20
151.3201615677873
 30
0.0
 10
233.7453151294088
 20
151.3210188124402
 30
0.0
 10
233.8343602256865
 20
151.3315112859294
 30
0.0
 10
233.982260946653
 20
151.3479858576315
 30
0.0
 10
234.1875301264763
 20
151.3689920205121
 30
0.0
 10
234.4478343636169
 20
151.392430567121
 30
0.0
 10
234.7608521170744
 20
151.4158773460969
 30
0.0
 10
235.1221451538877
 20
151.436409262001
 30
0.0
 10
235.5261351760795
 20
151.451050811006
 30
0.0
 10
235.9624286539266
 20
151.456715174325
 30
0.0
 10
236.433074224303
 20
151.4521314292578
 30
0.0
 10
236.7499281233601
 20
151.4386245322719
 30
0.0
 10
236.9155552617396
 20
151.4315641530157
 30
0.0
  0
LINE
  5
96
330
1F
100
AcDbEntity
  8
0
  6
Continuous
 62
     7
370
    35
100
AcDbLine
 10
247.3051606589
 20
161.1430792303
 30
0.0
 11
247.3051606589
 21
154.1755642125
 31
0.0
  0
LINE
  5
97
330
1F
100
AcDbEntity
  8
0
  6
Continuous
 62
     7
370
    35
100
AcDbLine
 10
247.3051606589
 20
168.110594248
 30
0.0
 11
247.3051606589
 21
161.1430792303
 31
0.0
  0
LINE
  5
98
330
1F
100
AcDbEntity
  8
0
  6
Continuous
 62
     7
370
    35
100
AcDbLine
 10
227.3051606589
 20
161.5326846275
 30
0.0
 11
227.3051606589
 21
160.7534738331
 31
0.0
  0
ARC
  5
99
330
1F
100
AcDbEntity
  8
0
  6
Continuous
 62
     7
370
    35
100
AcDbCircle
 10
238.861669205
 20
259.6726938025
 30
0.0
 40
28.84699025085794
100
AcDbArc
 50
270.0
 51
276.8161817707
  0
ARC
  5
9A
330
1F
100
AcDbEntity
  8
0
  6
Continuous
 62
     7
370
    35
100
AcDbCircle
 10
238.861669205
 20
221.9787133008
 30
0.0
 40
28.8469902508579
100
AcDbArc
 50
83.1838182293
 51
90.0
  0
LINE
  5
9B
330
1F
100
AcDbEntity
  8
0
  6
Continuous
 62
     7
370
    35
100
AcDbLine
 10
238.861669205
 20
250.8257035516
 30
0.0
 11
236.9155552617
 21
250.8257035516
 31
0.0
  0
LINE
  5
9C
330
1F
100
AcDbEntity
  8
0
  6
Continuous
 62
     7
370
    35
100
AcDbLine
 10
236.9155552617
 20
230.8257035516
 30
0.0
 11
238.861669205
 21
230.8257035516
 31
0.0
  0
ARC
  5
9D
330
1F
100
AcDbEntity
  8
0
  6
Continuous
 62
     7
370
    35
100
AcDbCircle
 10
236.9155552617
 20
259.6726938025
 30
0.0
 40
28.84699025085715
100
AcDbArc
 50
263.1838182293
 51
270.0
  0
ARC
  5
9E
330
1F
100
AcDbEntity
  8
0
  6
Continuous
 62
     7
370
    35
100
AcDbCircle
 10
236.9155552617
 20
221.9787133008
 30
0.0
 40
28.84699025085717
100
AcDbArc
 50
90.0
 51
96.8161817707
  0
ARC
  5
9F
330
1F
100
AcDbEntity
  8
0
  6
Continuous
 62
     7
370
    35
100
AcDbCircle
 10
241.1475266734
 20
241.1025497393
 30
0.0
 40
9.587024921379134
100
AcDbArc
 50
66.6573662957
 51
83.1838182293
  0
ARC
  5
A0
330
1F
100
AcDbEntity
  8
0
  6
Continuous
 62
     7
370
    35
100
AcDbCircle
 10
241.1475266734
 20
240.548857364
 30
0.0
 40
9.587024921379134
100
AcDbArc
 50
276.8161817707
 51
293.3426337043
  0
ARC
  5
A1
330
1F
100
AcDbEntity
  8
0
  6
Continuous
 62
     7
370
    35
100
AcDbCircle
 10
234.6296977933
 20
241.1025497393
 30
0.0
 40
9.58702492137916
100
AcDbArc
 50
96.8161817707
 51
113.3426337043
  0
ARC
  5
A2
330
1F
100
AcDbEntity
  8
0
  6
Continuous
 62
     7
370
    35
100
AcDbCircle
 10
234.6296977933
 20
240.548857364
 30
0.0
 40
9.587024921379186
100
AcDbArc
 50
246.6573662957
 51
263.1838182293
  0
ARC
  5
A3
330
1F
100
AcDbEntity
  8
0
  6
Continuous
 62
     7
370
    35
100
AcDbCircle
 10
242.968486922
 20
245.3221266659
 30
0.0
 40
4.99129585339418
100
AcDbArc
 50
29.6750409913
 51
66.6573662957
  0
ARC
  5
A4
330
1F
100
AcDbEntity
  8
0
  6
Continuous
 62
     7
370
    35
100
AcDbCircle
 10
242.968486922
 20
236.3292804374
 30
0.0
 40
4.991295853394185
100
AcDbArc
 50
293.3426337043
 51
330.3249590087
  0
ARC
  5
A5
330
1F
100
AcDbEntity
  8
0
  6
Continuous
 62
     7
370
    35
100
AcDbCircle
 10
232.8087375447
 20
245.3221266659
 30
0.0
 40
4.991295853394173
100
AcDbArc
 50
113.3426337043
 51
156.6573662957
  0
ARC
  5
A6
330
1F
100
AcDbEntity
  8
0
  6
Continuous
 62
     7
370
    35
100
AcDbCircle
 10
232.8087375447
 20
236.3292804374
 30
0.0
 40
4.991295853394195
100
AcDbArc
 50
203.3426337043
 51
246.6573662957
  0
ARC
  5
A7
330
1F
100
AcDbEntity
  8
0
  6
Continuous
 62
     7
370
    35
100
AcDbCircle
 10
237.0283144713
 20
243.5011664173
 30
0.0
 40
9.587024921378731
100
AcDbArc
 50
156.6573662957
 51
173.1838182293
  0
ARC
  5
A8
330
1F
100
AcDbEntity
  8
0
  6
Continuous
 62
     7
370
    35
100
AcDbCircle
 10
237.0283144713
 20
238.150240686
 30
0.0
 40
9.587024921378742
100
AcDbArc
 50
186.8161817707
 51
203.3426337043
  0
ARC
  5
A9
330
1F
100
AcDbEntity
  8
0
  6
Continuous
 62
     7
370
    35
100
AcDbCircle
 10
256.1521509098
 20
241.2153089488
 30
0.0
 40
28.84699025085831
100
AcDbArc
 50
173.1838182293
 51
180.0
  0
ARC
  5
AA
330
1F
100
AcDbEntity
  8
0
  6
Continuous
 62
     7
370
    35
100
AcDbCircle
 10
256.1521509098
 20
240.4360981544
 30
0.0
 40
28.84699025085831
100
AcDbArc
 50
180.0
 51
186.8161817707
  0
LINE
  5
AB
330
1F
100
AcDbEntity
  8
0
  6
Continuous
 62
     7
370
    35
100
AcDbLine
 10
247.3051606589
 20
247.7932185694
 30
0.0
 11
247.3051606589
 21
233.8581885339
 31
0.0
  0
LINE
  5
AC
330
1F
100
AcDbEntity
  8
0
  6
Continuous
 62
     7
370
    35
100
AcDbLine
 10
227.3051606589
 20
240.8257035516
 30
0.0
 11
227.3051606589
 21
240.4360981544
 31
0.0
  0
LINE
  5
AD
330
1F
100
AcDbEntity
  8
0
  6
Continuous
 62
     7
370
    35
100
AcDbLine
 10
227.3051606589
 20
241.2153089488
 30
0.0
 11
227.3051606589
 21
240.8257035516
 31
0.0
  0
ARC
  5
AE
330
1F
100
AcDbEntity
  8
0
  6
Continuous
 62
     7
370
    35
100
AcDbCircle
 10
238.861669205
 20
100.2080341854
 30
0.0
 40
28.84699025085791
100
AcDbArc
 50
270.0
 51
276.8161817707
  0
ARC
  5
AF
330
1F
100
AcDbEntity
  8
0
  6
Continuous
 62
     7
370
    35
100
AcDbCircle
 10
238.861669205
 20
62.5140536837
 30
0.0
 40
28.84699025085792
100
AcDbArc
 50
83.1838182293
 51
90.0
  0
LINE
  5
B0
330
1F
100
AcDbEntity
  8
0
  6
Continuous
 62
     7
370
    35
100
AcDbLine
 10
238.861669205
 20
91.3610439345
 30
0.0
 11
236.9155552617
 21
91.3610439345
 31
0.0
  0
LINE
  5
B1
330
1F
100
AcDbEntity
  8
0
  6
Continuous
 62
     7
370
    35
100
AcDbLine
 10
236.9155552617
 20
71.3610439345
 30
0.0
 11
238.861669205
 21
71.3610439345
 31
0.0
  0
ARC
  5
B2
330
1F
100
AcDbEntity
  8
0
  6
Continuous
 62
     7
370
    35
100
AcDbCircle
 10
236.9155552617
 20
100.2080341854
 30
0.0
 40
28.84699025085715
100
AcDbArc
 50
263.1838182293
 51
270.0
  0
ARC
  5
B3
330
1F
100
AcDbEntity
  8
0
  6
Continuous
 62
     7
370
    35
100
AcDbCircle
 10
236.9155552617
 20
62.5140536837
 30
0.0
 40
28.84699025085719
100
AcDbArc
 50
90.0
 51
96.8161817707
  0
ARC
  5
B4
330
1F
100
AcDbEntity
  8
0
  6
Continuous
 62
     7
370
    35
100
AcDbCircle
 10
234.6296977933
 20
81.6378901222
 30
0.0
 40
9.587024921379172
100
AcDbArc
 50
96.8161817707
 51
113.3426337043
  0
ARC
  5
B5
330
1F
100
AcDbEntity
  8
0
  6
Continuous
 62
     7
370
    35
100
AcDbCircle
 10
234.6296977933
 20
81.0841977469
 30
0.0
 40
9.58702492137916
100
AcDbArc
 50
246.6573662957
 51
263.1838182293
  0
ARC
  5
B6
330
1F
100
AcDbEntity
  8
0
  6
Continuous
 62
     7
370
    35
100
AcDbCircle
 10
241.1475266734
 20
81.6378901222
 30
0.0
 40
9.58702492137914
100
AcDbArc
 50
66.6573662957
 51
83.1838182293
  0
ARC
  5
B7
330
1F
100
AcDbEntity
  8
0
  6
Continuous
 62
     7
370
    35
100
AcDbCircle
 10
241.1475266734
 20
81.0841977469
 30
0.0
 40
9.587024921379125
100
AcDbArc
 50
276.8161817707
 51
293.3426337043
  0
ARC
  5
B8
330
1F
100
AcDbEntity
  8
0
  6
Continuous
 62
     7
370
    35
100
AcDbCircle
 10
232.8087375447
 20
85.8574670488
 30
0.0
 40
4.991295853394178
100
AcDbArc
 50
113.3426337043
 51
156.6573662957
  0
ARC
  5
B9
330
1F
100
AcDbEntity
  8
0
  6
Continuous
 62
     7
370
    35
100
AcDbCircle
 10
232.8087375447
 20
76.8646208203
 30
0.0
 40
4.991295853394173
100
AcDbArc
 50
203.3426337043
 51
246.6573662957
  0
ARC
  5
BA
330
1F
100
AcDbEntity
  8
0
  6
Continuous
 62
     7
370
    35
100
AcDbCircle
 10
242.968486922
 20
85.8574670488
 30
0.0
 40
4.991295853394166
100
AcDbArc
 50
29.6750409913
 51
66.6573662957
  0
ARC
  5
BB
330
1F
100
AcDbEntity
  8
0
  6
Continuous
 62
     7
370
    35
100
AcDbCircle
 10
242.968486922
 20
76.8646208203
 30
0.0
 40
4.991295853394173
100
AcDbArc
 50
293.3426337043
 51
330.3249590087
  0
ARC
  5
BC
330
1F
100
AcDbEntity
  8
0
  6
Continuous
 62
     7
370
    35
100
AcDbCircle
 10
237.0283144713
 20
84.0365068002
 30
0.0
 40
9.587024921378726
100
AcDbArc
 50
156.6573662957
 51
173.1838182293
  0
ARC
  5
BD
330
1F
100
AcDbEntity
  8
0
  6
Continuous
 62
     7
370
    35
100
AcDbCircle
 10
237.0283144713
 20
78.6855810689
 30
0.0
 40
9.587024921378726
100
AcDbArc
 50
186.8161817707
 51
203.3426337043
  0
ARC
  5
BE
330
1F
100
AcDbEntity
  8
0
  6
Continuous
 62
     7
370
    35
100
AcDbCircle
 10
256.1521509098
 20
81.7506493317
 30
0.0
 40
28.84699025085831
100
AcDbArc
 50
173.1838182293
 51
180.0
  0
ARC
  5
BF
330
1F
100
AcDbEntity
  8
0
  6
Continuous
 62
     7
370
    35
100
AcDbCircle
 10
256.1521509098
 20
80.9714385373
 30
0.0
 40
28.84699025085831
100
AcDbArc
 50
180.0
 51
186.8161817707
  0
SPLINE
  5
C0
330
1F
100
AcDbEntity
  8
0
  6
Continuous
 62
     7
370
    35
100
AcDbSpline
210
0.0
220
0.0
230
1.0
 70
     8
 71
     3
 72
    14
 73
    10
 74
     0
 42
0.00000001
 43
0.00000001
 40
0.0
 40
0.0
 40
0.0
 40
0.0
 40
0.2500000000000001
 40
0.2500000000000001
 40
0.5000000000000001
 40
0.5000000000000001
 40
0.7500000000000002
 40
0.7500000000000002
 40
1.0
 40
1.0
 40
1.0
 40
1.0
 10
238.8616692049397
 20
82.25894867343649
 30
0.0
 10
238.924993539838
 20
82.11721267817978
 30
0.0
 10
238.9727342878107
 20
81.9715579808585
 30
0.0
 10
239.0374710158334
 20
81.67248779827946
 30
0.0
 10
239.0544135453327
 20
81.51713544521103
 30
0.0
 10
239.0546176006808
 20
81.20781661425407
 30
0.0
 10
239.0383467104313
 20
81.05514720496834
 30
0.0
 10
238.9737364809026
 20
80.75370102089612
 30
0.0
 10
238.9250161059472
 20
80.60492569956975
 30
0.0
 10
238.8616692049397
 20
80.4631391956113
 30
0.0
  0
CIRCLE
  5
C1
330
1F
100
AcDbEntity
  8
0
  6
Continuous
 62
     7
370
    35
100
AcDbCircle
 10
236.3051606589
 20
81.3610439345
 30
0.0
 40
2.0
  0
SPLINE
  5
C2
330
1F
100
AcDbEntity
  8
0
  6
Continuous
 62
     7
370
    35
100
AcDbSpline
210
0.0
220
0.0
230
1.0
 70
     8
 71
     3
 72
    36
 73
    32
 74
     0
 42
0.00000001
 43
0.00000001
 40
0.0
 40
0.0
 40
0.0
 40
0.0
 40
0.0625
 40
0.0625
 40
0.125
 40
0.125
 40
0.1875
 40
0.1875
 40
0.25
 40
0.25
 40
0.3125
 40
0.3125
 40
0.375
 40
0.375
 40
0.4375
 40
0.4375
 40
0.5
 40
0.5
 40
0.5625
 40
0.5625
 40
0.625
 40
0.625
 40
0.6875
 40
0.6875
 40
0.75
 40
0.75
 40
0.8125
 40
0.8125
 40
0.875
 40
0.875
 40
1.0
 40
1.0
 40
1.0
 40
1.0
 10
236.9155552617382
 20
78.9764108591498
 30
0.0
 10
236.7286303776554
 20
78.938238892795
 30
0.0
 10
236.5409643819463
 20
78.91963820227055
 30
0.0
 10
236.1642046624261
 20
78.9198510699583
 30
0.0
 10
235.9729057897273
 20
78.93927209511583
 30
0.0
 10
235.6023989646784
 20
79.01574316570478
 30
0.0
 10
235.4228930822453
 20
79.07223193139008
 30
0.0
 10
235.0756493568952
 20
79.22267288037463
 30
0.0
 10
234.9085009279052
 20
79.31703884071412
 30
0.0
 10
234.6029520356031
 20
79.5359561869968
 30
0.0
 10
234.4616687615326
 20
79.66201229812181
 30
0.0
 10
234.2084769207056
 20
79.94639540906115
 30
0.0
 10
234.100305667171
 20
80.10022572148206
 30
0.0
 10
233.9212829152812
 20
80.43158248935947
 30
0.0
 10
233.8503439820107
 20
80.61135404264259
 30
0.0
 10
233.7564099150495
 20
80.9764873761488
 30
0.0
 10
233.7318890635274
 20
81.16481836297821
 30
0.0
 10
233.7309850467599
 20
81.54653688542392
 30
0.0
 10
233.7543310489017
 20
81.73379908016535
 30
0.0
 10
233.8470334246071
 20
82.10137761270181
 30
0.0
 10
233.9168837653447
 20
82.28056551762396
 30
0.0
 10
234.0947762502786
 20
82.61332783728488
 30
0.0
 10
234.205086415794
 20
82.77106595466995
 30
0.0
 10
234.4556982997385
 20
83.05415795520712
 30
0.0
 10
234.595875025125
 20
83.18049357924856
 30
0.0
 10
234.9054682917127
 20
83.40342562751869
 30
0.0
 10
235.0701245846647
 20
83.49651159063806
 30
0.0
 10
235.4162828967424
 20
83.64748439444271
 30
0.0
 10
235.5999147815659
 20
83.7056385972876
 30
0.0
 10
236.1549849760139
 20
83.82077870033183
 30
0.0
 10
236.541546387862
 20
83.82205343361716
 30
0.0
 10
236.9155552617384
 20
83.74567700990002
 30
0.0
  0
SPLINE
  5
C3
330
1F
100
AcDbEntity
  8
0
  6
Continuous
 62
     7
370
    35
100
AcDbSpline
210
0.0
220
0.0
230
1.0
 70
     8
 71
     3
 72
    14
 73
    10
 74
     0
 42
0.00000001
 43
0.00000001
 40
0.0
 40
0.0
 40
0.0
 40
0.0
 40
0.25
 40
0.25
 40
0.5
 40
0.5
 40
0.75
 40
0.75
 40
1.0
 40
1.0
 40
1.0
 40
1.0
 10
238.8616692049397
 20
80.4631391956113
 30
0.0
 10
238.7742506604473
 20
80.26747422056756
 30
0.0
 10
238.6621341498214
 20
80.08885936752223
 30
0.0
 10
238.3940783065681
 20
79.76143274826148
 30
0.0
 10
238.2383100841632
 20
79.6141445336867
 30
0.0
 10
237.9001331090469
 20
79.36176100088254
 30
0.0
 10
237.7138919768071
 20
79.2539506144176
 30
0.0
 10
237.327124517977
 20
79.08337154647772
 30
0.0
 10
237.1255116977182
 20
79.0192861031237
 30
0.0
 10
236.91555526174
 20
78.97641085914812
 30
0.0
  0
SPLINE
  5
C4
330
1F
100
AcDbEntity
  8
0
  6
Continuous
 62
     7
370
    35
100
AcDbSpline
210
0.0
220
0.0
230
1.0
 70
     8
 71
     3
 72
    14
 73
    10
 74
     0
 42
0.00000001
 43
0.00000001
 40
0.0
 40
0.0
 40
0.0
 40
0.0
 40
0.25
 40
0.25
 40
0.5
 40
0.5
 40
0.75
 40
0.75
 40
1.0
 40
1.0
 40
1.0
 40
1.0
 10
236.9155552617382
 20
83.74567700989803
 30
0.0
 10
237.1256419472344
 20
83.70277516764354
 30
0.0
 10
237.3271435544106
 20
83.63868403780326
 30
0.0
 10
237.7133221543698
 20
83.4684124227944
 30
0.0
 10
237.8999121356356
 20
83.36042741152264
 30
0.0
 10
238.2374642109104
 20
83.1086387830105
 30
0.0
 10
238.3903047516174
 20
82.96468552289427
 30
0.0
 10
238.6605047079441
 20
82.6357863125198
 30
0.0
 10
238.7741905458734
 20
82.45474820021258
 30
0.0
 10
238.8616692049397
 20
82.25894867343649
 30
0.0
  0
LINE
  5
C5
330
1F
100
AcDbEntity
  8
0
  6
Continuous
 62
     7
370
    35
100
AcDbLine
 10
247.3051606589
 20
88.3285589523
 30
0.0
 11
247.3051606589
 21
74.3935289168
 31
0.0
  0
LINE
  5
C6
330
1F
100
AcDbEntity
  8
0
  6
Continuous
 62
     7
370
    35
100
AcDbLine
 10
227.3051606589
 20
81.7506493317
 30
0.0
 11
227.3051606589
 21
80.9714385373
 31
0.0
  0
CIRCLE
  5
C7
330
1F
100
AcDbEntity
  8
0
  6
Continuous
 62
     7
370
    35
100
AcDbCircle
 10
323.5652835512
 20
161.1430792303
 30
0.0
 40
6.9675150177506
  0
CIRCLE
  5
C8
330
1F
100
AcDbEntity
  8
0
  6
Continuous
 62
     7
370
    35
100
AcDbCircle
 10
323.5652835512
 20
161.1430792303
 30
0.0
 40
6.5
  0
ARC
  5
C9
330
1F
100
AcDbEntity
  8
0
  6
Continuous
 62
     7
370
    35
100
AcDbCircle
 10
323.5652835512
 20
161.1430792303
 30
0.0
 40
10.00000000000001
100
AcDbArc
 50
275.1515533262
 51
264.8484466738
  0
SPLINE
  5
CA
330
1F
100
AcDbEntity
  8
0
  6
Continuous
 62
     7
370
    35
100
AcDbSpline
210
0.0
220
0.0
230
1.0
 70
     8
 71
     3
 72
    14
 73
    10
 74
     0
 42
0.00000001
 43
0.00000001
 40
0.0
 40
0.0
 40
0.0
 40
0.0
 40
0.2500000000000001
 40
0.2500000000000001
 40
0.5000000000000001
 40
0.5000000000000001
 40
0.7500000000000002
 40
0.7500000000000002
 40
1.0
 40
1.0
 40
1.0
 40
1.0
 10
322.66737881232
 20
151.1834724569188
 30
0.0
 10
322.8091148075766
 20
151.1706942996368
 30
0.0
 10
322.9547695048979
 20
151.1608066531312
 30
0.0
 10
323.253839687477
 20
151.1473272137497
 30
0.0
 10
323.4091920405454
 20
151.1437454112215
 30
0.0
 10
323.7185108715024
 20
151.1437024751343
 30
0.0
 10
323.8711802807881
 20
151.1471435072039
 30
0.0
 10
324.1726264648603
 20
151.1605993078757
 30
0.0
 10
324.3214017861867
 20
151.1706897460431
 30
0.0
 10
324.4631882901451
 20
151.1834724569188
 30
0.0
  0
ARC
  5
CB
330
1F
100
AcDbEntity
  8
0
  6
Continuous
 62
     7
370
    35
100
AcDbCircle
 10
80.0141599722
 20
142.2960889794
 30
0.0
 40
28.84699025085793
100
AcDbArc
 50
90.0
 51
96.8161817707
  0
ARC
  5
CC
330
1F
100
AcDbEntity
  8
0
  6
Continuous
 62
     7
370
    35
100
AcDbCircle
 10
80.0141599722
 20
179.9900694811
 30
0.0
 40
28.84699025085793
100
AcDbArc
 50
263.1838182293
 51
269.6297503163
  0
LINE
  5
CD
330
1F
100
AcDbEntity
  8
0
  6
Continuous
 62
     7
370
    35
100
AcDbLine
 10
81.9602739155
 20
171.1430792303
 30
0.0
 11
80.0141599723
 21
171.1430792303
 31
0.0
  0
ARC
  5
CE
330
1F
100
AcDbEntity
  8
0
  6
Continuous
 62
     7
370
    35
100
AcDbCircle
 10
81.9602739155
 20
142.2960889794
 30
0.0
 40
28.84699025085715
100
AcDbArc
 50
83.1838182293
 51
90.0
  0
ARC
  5
CF
330
1F
100
AcDbEntity
  8
0
  6
Continuous
 62
     7
370
    35
100
AcDbCircle
 10
81.9602739155
 20
179.9900694811
 30
0.0
 40
28.8469902508572
100
AcDbArc
 50
276.3303660665
 51
276.8161817707
  0
ARC
  5
D0
330
1F
100
AcDbEntity
  8
0
  6
Continuous
 62
     7
370
    35
100
AcDbCircle
 10
77.7283025038
 20
160.8662330426
 30
0.0
 40
9.587024921379129
100
AcDbArc
 50
246.6573662957
 51
263.1838182293
  0
ARC
  5
D1
330
1F
100
AcDbEntity
  8
0
  6
Continuous
 62
     7
370
    35
100
AcDbCircle
 10
77.7283025038
 20
161.4199254179
 30
0.0
 40
9.58702492137914
100
AcDbArc
 50
96.8161817707
 51
113.3426337043
  0
ARC
  5
D2
330
1F
100
AcDbEntity
  8
0
  6
Continuous
 62
     7
370
    35
100
AcDbCircle
 10
84.2461313839
 20
160.8662330426
 30
0.0
 40
9.587024921379186
100
AcDbArc
 50
276.8161817707
 51
293.3426337043
  0
ARC
  5
D3
330
1F
100
AcDbEntity
  8
0
  6
Continuous
 62
     7
370
    35
100
AcDbCircle
 10
84.2461313839
 20
161.4199254179
 30
0.0
 40
9.587024921379191
100
AcDbArc
 50
66.6573662957
 51
83.1838182293
  0
ARC
  5
D4
330
1F
100
AcDbEntity
  8
0
  6
Continuous
 62
     7
370
    35
100
AcDbCircle
 10
75.9073422552
 20
156.646656116
 30
0.0
 40
4.99129585339418
100
AcDbArc
 50
209.6750409913
 51
246.6573662957
  0
ARC
  5
D5
330
1F
100
AcDbEntity
  8
0
  6
Continuous
 62
     7
370
    35
100
AcDbCircle
 10
75.9073422552
 20
165.6395023445
 30
0.0
 40
4.991295853394195
100
AcDbArc
 50
113.3426337043
 51
150.3249590087
  0
ARC
  5
D6
330
1F
100
AcDbEntity
  8
0
  6
Continuous
 62
     7
370
    35
100
AcDbCircle
 10
86.0670916325
 20
156.646656116
 30
0.0
 40
4.991295853394147
100
AcDbArc
 50
293.3426337043
 51
336.6573662957
  0
ARC
  5
D7
330
1F
100
AcDbEntity
  8
0
  6
Continuous
 62
     7
370
    35
100
AcDbCircle
 10
86.0670916325
 20
165.6395023445
 30
0.0
 40
4.991295853394164
100
AcDbArc
 50
23.3426337043
 51
66.6573662957
  0
ARC
  5
D8
330
1F
100
AcDbEntity
  8
0
  6
Continuous
 62
     7
370
    35
100
AcDbCircle
 10
81.8475147059
 20
158.4676163646
 30
0.0
 40
9.587024921378728
100
AcDbArc
 50
336.6573662957
 51
353.1838182293
  0
ARC
  5
D9
330
1F
100
AcDbEntity
  8
0
  6
Continuous
 62
     7
370
    35
100
AcDbCircle
 10
81.8475147059
 20
163.8185420959
 30
0.0
 40
9.587024921378728
100
AcDbArc
 50
6.8161817707
 51
23.3426337043
  0
ARC
  5
DA
330
1F
100
AcDbEntity
  8
0
  6
Continuous
 62
     7
370
    35
100
AcDbCircle
 10
62.7236782674
 20
160.7534738331
 30
0.0
 40
28.84699025085832
100
AcDbArc
 50
353.1838182293
 51
0.0
  0
ARC
  5
DB
330
1F
100
AcDbEntity
  8
0
  6
Continuous
 62
     7
370
    35
100
AcDbCircle
 10
62.7236782674
 20
161.5326846275
 30
0.0
 40
28.84699025085831
100
AcDbArc
 50
0.0
 51
6.8161817707
  0
SPLINE
  5
DC
330
1F
100
AcDbEntity
  8
0
  6
Continuous
 62
     7
370
    35
100
AcDbSpline
210
0.0
220
0.0
230
1.0
 70
     8
 71
     3
 72
    10
 73
     6
 74
     0
 42
0.00000001
 43
0.00000001
 40
0.0
 40
0.0
 40
0.0
 40
0.0
 40
0.2666315551492445
 40
0.6684735223887377
 40
1.0
 40
1.0
 40
1.0
 40
1.0
 10
79.82780854210203
 20
151.14508904863
 30
0.0
 10
79.82806543144864
 20
151.1451415366009
 30
0.0
 10
79.82870948022331
 20
151.1452731294978
 30
0.0
 10
79.89342247341105
 20
151.1589011055298
 30
0.0
 10
79.97657158972021
 20
151.1758228255759
 30
0.0
 10
80.01415997225838
 20
151.1834724569193
 30
0.0
  0
SPLINE
  5
DD
330
1F
100
AcDbEntity
  8
0
  6
Continuous
 62
     7
370
    35
100
AcDbSpline
210
0.0
220
0.0
230
1.0
 70
     8
 71
     3
 72
    14
 73
    10
 74
     0
 42
0.00000001
 43
0.00000001
 40
0.0
 40
0.0
 40
0.0
 40
0.0
 40
0.25
 40
0.25
 40
0.5
 40
0.5
 40
0.75
 40
0.75
 40
1.0
 40
1.0
 40
1.0
 40
1.0
 10
80.01415997228206
 20
151.1834724569188
 30
0.0
 10
80.10157851677447
 20
151.2011125618275
 30
0.0
 10
80.21369502740036
 20
151.2229525821865
 30
0.0
 10
80.48175087065363
 20
151.2704600064106
 30
0.0
 10
80.6375190930585
 20
151.2960062711942
 30
0.0
 10
80.97569606817484
 20
151.3441317801988
 30
0.0
 10
81.16193720041466
 20
151.3672007867878
 30
0.0
 10
81.54870465924472
 20
151.4055307659948
 30
0.0
 10
81.75031747950352
 20
151.4210362668824
 30
0.0
 10
81.96027391548178
 20
151.4315641530141
 30
0.0
  0
SPLINE
  5
DE
330
1F
100
AcDbEntity
  8
0
  6
Continuous
 62
     7
370
    35
100
AcDbSpline
210
0.0
220
0.0
230
1.0
 70
     8
 71
     3
 72
    18
 73
    14
 74
     0
 42
0.00000001
 43
0.00000001
 40
0.0
 40
0.0
 40
0.0
 40
0.0
 40
0.1016886187475143
 40
0.2063265061147765
 40
0.3079690182081387
 40
0.412644184657001
 40
0.512652284490567
 40
0.6158366580038201
 40
0.711111461583417
 40
0.8095785785048979
 40
0.8980404684222848
 40
0.9893967825123716
 40
1.0
 40
1.0
 40
1.0
 40
1.0
 10
81.96027391548215
 20
151.4315641530157
 30
0.0
 10
82.11259016766805
 20
151.4381413390918
 30
0.0
 10
82.42164029073093
 20
151.4514864689586
 30
0.0
 10
82.89044691303438
 20
151.4568646945128
 30
0.0
 10
83.3521166889369
 20
151.4512207828997
 30
0.0
 10
83.78391647162225
 20
151.4352066427885
 30
0.0
 10
84.18066817618961
 20
151.4116579777304
 30
0.0
 10
84.51735581159045
 20
151.3849655093406
 30
0.0
 10
84.79206197659903
 20
151.3587746388219
 30
0.0
 10
84.98955815952701
 20
151.3374461202314
 30
0.0
 10
85.1059175004957
 20
151.3239716157441
 30
0.0
 10
85.15288656927409
 20
151.318338833255
 30
0.0
 10
85.14201830025657
 20
151.3196326583448
 30
0.0
 10
85.14088806144197
 20
151.3197672088729
 30
0.0
  0
LINE
  5
DF
330
1F
100
AcDbEntity
  8
0
  6
Continuous
 62
     7
370
    35
100
AcDbLine
 10
71.5706685183
 20
154.1755642125
 30
0.0
 11
71.5706685183
 21
168.110594248
 31
0.0
  0
LINE
  5
E0
330
1F
100
AcDbEntity
  8
0
  6
Continuous
 62
     7
370
    35
100
AcDbLine
 10
91.5706685183
 20
160.75347388
 30
0.0
 11
91.5706685183
 21
161.5326846275
 31
0.0
  0
ENDSEC
  0
SECTION
  2
OBJECTS
  0
DICTIONARY
  5
C
330
0
100
AcDbDictionary
281
     1
  3
ACAD_GROUP
350
D
  3
ACAD_LAYOUT
350
1A
  3
ACAD_MLINESTYLE
350
17
  3
ACAD_PLOTSETTINGS
350
19
  3
ACAD_PLOTSTYLENAME
350
E
  3
ACAD_SCALELIST
350
47
  3
DWGPROPS
350
E1
  0
DICTIONARY
  5
D
102
{ACAD_REACTORS
330
C
102
}
330
C
100
AcDbDictionary
281
     1
  0
DICTIONARY
  5
1A
102
{ACAD_REACTORS
330
C
102
}
330
C
100
AcDbDictionary
281
     1
  3
Layout1
350
1E
  3
Layout2
350
26
  3
Model
350
22
  0
DICTIONARY
  5
17
102
{ACAD_REACTORS
330
C
102
}
330
C
100
AcDbDictionary
281
     1
  3
Standard
350
18
  0
DICTIONARY
  5
19
102
{ACAD_REACTORS
330
C
102
}
330
C
100
AcDbDictionary
281
     1
  0
ACDBDICTIONARYWDFLT
  5
E
102
{ACAD_REACTORS
330
C
102
}
330
C
100
AcDbDictionary
281
     1
  3
Normal
350
F
100
AcDbDictionaryWithDefault
340
F
  0
DICTIONARY
  5
47
102
{ACAD_REACTORS
330
C
102
}
330
C
100
AcDbDictionary
281
     1
  3
A0
350
48
  3
A1
350
49
  3
A2
350
4A
  3
A3
350
4B
  3
A4
350
4C
  3
A5
350
4D
  3
A6
350
4E
  3
A7
350
4F
  3
A8
350
50
  3
A9
350
51
  3
B0
350
52
  3
B1
350
53
  3
B2
350
54
  3
B3
350
55
  3
B4
350
56
  3
B5
350
57
  3
B6
350
58
  3
B7
350
59
  3
B8
350
5A
  3
B9
350
5B
  3
C0
350
5C
  3
C1
350
5D
  3
C2
350
5E
  3
C3
350
5F
  3
C4
350
60
  3
C5
350
61
  3
C6
350
62
  3
C7
350
63
  3
C8
350
64
  3
C9
350
65
  3
D0
350
66
  3
D1
350
67
  3
D2
350
68
  0
XRECORD
  5
E1
102
{ACAD_REACTORS
330
C
102
}
330
C
100
AcDbXrecord
280
     1
  1
DWGPROPS COOKIE
  2

  3

  4

  6

  7

  8
y_harada
  9

300
=
301
=
302
=
303
=
304
=
305
=
306
=
307
=
308
=
309
=
 40
0.0
 41
2459317.122216805
 42
2459317.122217824
  1

 90
        0
  0
LAYOUT
  5
1E
102
{ACAD_REACTORS
330
1A
102
}
330
1A
100
AcDbPlotSettings
  1

  2
none_device
  4

  6

 40
0.0
 41
0.0
 42
0.0
 43
0.0
 44
0.0
 45
0.0
 46
0.0
 47
0.0
 48
0.0
 49
0.0
140
0.0
141
0.0
142
1.0
143
1.0
 70
   688
 72
     1
 73
     0
 74
     5
  7

 75
    16
147
1.0
148
0.0
149
0.0
100
AcDbLayout
  1
Layout1
 70
     1
 71
     1
 10
0.0
 20
0.0
 11
420.0
 21
297.0
 12
0.0
 22
0.0
 32
0.0
 14
1.0000000000E+20
 24
1.0000000000E+20
 34
1.0000000000E+20
 15
-1.0000000000E+20
 25
-1.0000000000E+20
 35
-1.0000000000E+20
146
0.0
 13
0.0
 23
0.0
 33
0.0
 16
1.0
 26
0.0
 36
0.0
 17
0.0
 27
1.0
 37
0.0
 76
     0
330
1B
  0
LAYOUT
  5
26
102
{ACAD_REACTORS
330
1A
102
}
330
1A
100
AcDbPlotSettings
  1

  2
none_device
  4

  6

 40
0.0
 41
0.0
 42
0.0
 43
0.0
 44
0.0
 45
0.0
 46
0.0
 47
0.0
 48
0.0
 49
0.0
140
0.0
141
0.0
142
1.0
143
1.0
 70
   688
 72
     1
 73
     0
 74
     5
  7

 75
    16
147
1.0
148
0.0
149
0.0
100
AcDbLayout
  1
Layout2
 70
     1
 71
     2
 10
0.0
 20
0.0
 11
0.0
 21
0.0
 12
0.0
 22
0.0
 32
0.0
 14
0.0
 24
0.0
 34
0.0
 15
0.0
 25
0.0
 35
0.0
146
0.0
 13
0.0
 23
0.0
 33
0.0
 16
1.0
 26
0.0
 36
0.0
 17
0.0
 27
1.0
 37
0.0
 76
     0
330
23
  0
LAYOUT
  5
22
102
{ACAD_REACTORS
330
1A
102
}
330
1A
100
AcDbPlotSettings
  1

  2
none_device
  4
Letter_(8.50_x_11.00_Inches)
  6

 40
6.35
 41
6.35
 42
6.35000508
 43
6.35000508
 44
215.9
 45
279.4
 46
0.0
 47
0.0
 48
0.0
 49
0.0
140
0.0
141
0.0
142
1.0
143
1.0
 70
  1712
 72
     1
 73
     0
 74
     0
  7

 75
     0
147
1.0
148
0.0
149
0.0
100
AcDbLayout
  1
Model
 70
     1
 71
     0
 10
0.0
 20
0.0
 11
420.0
 21
297.0
 12
0.0
 22
0.0
 32
0.0
 14
0.0
 24
0.0
 34
0.0
 15
420.0
 25
297.0
 35
0.0
146
0.0
 13
0.0
 23
0.0
 33
0.0
 16
1.0
 26
0.0
 36
0.0
 17
0.0
 27
1.0
 37
0.0
 76
     0
330
1F
331
29
  0
MLINESTYLE
  5
18
102
{ACAD_REACTORS
330
17
102
}
330
17
100
AcDbMlineStyle
  2
Standard
 70
     0
  3

 62
   256
 51
90.0
 52
90.0
 71
     2
 49
0.5
 62
   256
  6
BYLAYER
 49
-0.5
 62
   256
  6
BYLAYER
  0
ACDBPLACEHOLDER
  5
F
102
{ACAD_REACTORS
330
E
102
}
330
E
  0
SCALE
  5
48
102
{ACAD_REACTORS
330
47
102
}
330
47
100
AcDbScale
 70
     0
300
1:1
140
1.0
141
1.0
290
     1
  0
SCALE
  5
49
102
{ACAD_REACTORS
330
47
102
}
330
47
100
AcDbScale
 70
     0
300
1:2
140
1.0
141
2.0
290
     0
  0
SCALE
  5
4A
102
{ACAD_REACTORS
330
47
102
}
330
47
100
AcDbScale
 70
     0
300
1:4
140
1.0
141
4.0
290
     0
  0
SCALE
  5
4B
102
{ACAD_REACTORS
330
47
102
}
330
47
100
AcDbScale
 70
     0
300
1:5
140
1.0
141
5.0
290
     0
  0
SCALE
  5
4C
102
{ACAD_REACTORS
330
47
102
}
330
47
100
AcDbScale
 70
     0
300
1:8
140
1.0
141
8.0
290
     0
  0
SCALE
  5
4D
102
{ACAD_REACTORS
330
47
102
}
330
47
100
AcDbScale
 70
     0
300
1:10
140
1.0
141
10.0
290
     0
  0
SCALE
  5
4E
102
{ACAD_REACTORS
330
47
102
}
330
47
100
AcDbScale
 70
     0
300
1:16
140
1.0
141
16.0
290
     0
  0
SCALE
  5
4F
102
{ACAD_REACTORS
330
47
102
}
330
47
100
AcDbScale
 70
     0
300
1:20
140
1.0
141
20.0
290
     0
  0
SCALE
  5
50
102
{ACAD_REACTORS
330
47
102
}
330
47
100
AcDbScale
 70
     0
300
1:30
140
1.0
141
30.0
290
     0
  0
SCALE
  5
51
102
{ACAD_REACTORS
330
47
102
}
330
47
100
AcDbScale
 70
     0
300
1:40
140
1.0
141
40.0
290
     0
  0
SCALE
  5
52
102
{ACAD_REACTORS
330
47
102
}
330
47
100
AcDbScale
 70
     0
300
1:50
140
1.0
141
50.0
290
     0
  0
SCALE
  5
53
102
{ACAD_REACTORS
330
47
102
}
330
47
100
AcDbScale
 70
     0
300
1:100
140
1.0
141
100.0
290
     0
  0
SCALE
  5
54
102
{ACAD_REACTORS
330
47
102
}
330
47
100
AcDbScale
 70
     0
300
2:1
140
2.0
141
1.0
290
     0
  0
SCALE
  5
55
102
{ACAD_REACTORS
330
47
102
}
330
47
100
AcDbScale
 70
     0
300
4:1
140
4.0
141
1.0
290
     0
  0
SCALE
  5
56
102
{ACAD_REACTORS
330
47
102
}
330
47
100
AcDbScale
 70
     0
300
8:1
140
8.0
141
1.0
290
     0
  0
SCALE
  5
57
102
{ACAD_REACTORS
330
47
102
}
330
47
100
AcDbScale
 70
     0
300
10:1
140
10.0
141
1.0
290
     0
  0
SCALE
  5
58
102
{ACAD_REACTORS
330
47
102
}
330
47
100
AcDbScale
 70
     0
300
100:1
140
100.0
141
1.0
290
     0
  0
SCALE
  5
59
102
{ACAD_REACTORS
330
47
102
}
330
47
100
AcDbScale
 70
     0
300
1/128" = 1'-0"
140
0.0078125
141
12.0
290
     0
  0
SCALE
  5
5A
102
{ACAD_REACTORS
330
47
102
}
330
47
100
AcDbScale
 70
     0
300
1/64" = 1'-0"
140
0.015625
141
12.0
290
     0
  0
SCALE
  5
5B
102
{ACAD_REACTORS
330
47
102
}
330
47
100
AcDbScale
 70
     0
300
1/32" = 1'-0"
140
0.03125
141
12.0
290
     0
  0
SCALE
  5
5C
102
{ACAD_REACTORS
330
47
102
}
330
47
100
AcDbScale
 70
     0
300
1/16" = 1'-0"
140
0.0625
141
12.0
290
     0
  0
SCALE
  5
5D
102
{ACAD_REACTORS
330
47
102
}
330
47
100
AcDbScale
 70
     0
300
3/32" = 1'-0"
140
0.09375
141
12.0
290
     0
  0
SCALE
  5
5E
102
{ACAD_REACTORS
330
47
102
}
330
47
100
AcDbScale
 70
     0
300
1/8" = 1'-0"
140
0.125
141
12.0
290
     0
  0
SCALE
  5
5F
102
{ACAD_REACTORS
330
47
102
}
330
47
100
AcDbScale
 70
     0
300
3/16" = 1'-0"
140
0.1875
141
12.0
290
     0
  0
SCALE
  5
60
102
{ACAD_REACTORS
330
47
102
}
330
47
100
AcDbScale
 70
     0
300
1/4" = 1'-0"
140
0.25
141
12.0
290
     0
  0
SCALE
  5
61
102
{ACAD_REACTORS
330
47
102
}
330
47
100
AcDbScale
 70
     0
300
3/8" = 1'-0"
140
0.375
141
12.0
290
     0
  0
SCALE
  5
62
102
{ACAD_REACTORS
330
47
102
}
330
47
100
AcDbScale
 70
     0
300
1/2" = 1'-0"
140
0.5
141
12.0
290
     0
  0
SCALE
  5
63
102
{ACAD_REACTORS
330
47
102
}
330
47
100
AcDbScale
 70
     0
300
3/4" = 1'-0"
140
0.75
141
12.0
290
     0
  0
SCALE
  5
64
102
{ACAD_REACTORS
330
47
102
}
330
47
100
AcDbScale
 70
     0
300
1" = 1'-0"
140
1.0
141
12.0
290
     0
  0
SCALE
  5
65
102
{ACAD_REACTORS
330
47
102
}
330
47
100
AcDbScale
 70
     0
300
1-1/2" = 1'-0"
140
1.5
141
12.0
290
     0
  0
SCALE
  5
66
102
{ACAD_REACTORS
330
47
102
}
330
47
100
AcDbScale
 70
     0
300
3" = 1'-0"
140
3.0
141
12.0
290
     0
  0
SCALE
  5
67
102
{ACAD_REACTORS
330
47
102
}
330
47
100
AcDbScale
 70
     0
300
6" = 1'-0"
140
6.0
141
12.0
290
     0
  0
SCALE
  5
68
102
{ACAD_REACTORS
330
47
102
}
330
47
100
AcDbScale
 70
     0
300
1'-0" = 1'-0"
140
12.0
141
12.0
290
     0
  0
ENDSEC
  0
EOF
