  0
SECTION
  2
HEADER
  9
$ACADVER
  1
AC1015
  9
$ACADMAINTVER
 70
     6
  9
$DWGCODEPAGE
  3
DOS932
  9
$INSBASE
 10
0.0
 20
0.0
 30
0.0
  9
$EXTMIN
 10
0.0
 20
0.0
 30
0.0
  9
$EXTMAX
 10
420.0
 20
297.0
 30
0.0
  9
$LIMMIN
 10
0.0
 20
0.0
  9
$LIMMAX
 10
420.0
 20
297.0
  9
$ORTHOMODE
 70
     0
  9
$REGENMODE
 70
     1
  9
$FILLMODE
 70
     1
  9
$QTEXTMODE
 70
     0
  9
$MIRRTEXT
 70
     1
  9
$LTSCALE
 40
1.0
  9
$ATTMODE
 70
     1
  9
$TEXTSIZE
 40
3.8805555556
  9
$TRACEWID
 40
1.0
  9
$TEXTSTYLE
  7
Standard
  9
$CLAYER
  8
0
  9
$CELTYPE
  6
ByLayer
  9
$CECOLOR
 62
   256
  9
$CELTSCALE
 40
1.0
  9
$DISPSILH
 70
     0
  9
$DIMSCALE
 40
1.0
  9
$DIMASZ
 40
3.0
  9
$DIMEXO
 40
0.0
  9
$DIMDLI
 40
3.75
  9
$DIMRND
 40
0.0
  9
$DIMDLE
 40
0.0
  9
$DIMEXE
 40
1.0
  9
$DIMTP
 40
0.0
  9
$DIMTM
 40
0.0
  9
$DIMTXT
 40
3.5277777778
  9
$DIMCEN
 40
2.5
  9
$DIMTSZ
 40
0.0
  9
$DIMTOL
 70
     0
  9
$DIMLIM
 70
     0
  9
$DIMTIH
 70
     1
  9
$DIMTOH
 70
     1
  9
$DIMSE1
 70
     0
  9
$DIMSE2
 70
     0
  9
$DIMTAD
 70
     1
  9
$DIMZIN
 70
     0
  9
$DIMBLK
  1

  9
$DIMASO
 70
     1
  9
$DIMSHO
 70
     1
  9
$DIMPOST
  1

  9
$DIMAPOST
  1

  9
$DIMALT
 70
     0
  9
$DIMALTD
 70
     3
  9
$DIMALTF
 40
0.0393700787
  9
$DIMLFAC
 40
1.0
  9
$DIMTOFL
 70
     1
  9
$DIMTVP
 40
0.0
  9
$DIMTIX
 70
     0
  9
$DIMSOXD
 70
     0
  9
$DIMSAH
 70
     0
  9
$DIMBLK1
  1

  9
$DIMBLK2
  1

  9
$DIMSTYLE
  2
ISO-25
  9
$DIMCLRD
 70
     0
  9
$DIMCLRE
 70
     0
  9
$DIMCLRT
 70
     0
  9
$DIMTFAC
 40
1.0
  9
$DIMGAP
 40
1.0
  9
$DIMJUST
 70
     0
  9
$DIMSD1
 70
     0
  9
$DIMSD2
 70
     0
  9
$DIMTOLJ
 70
     0
  9
$DIMTZIN
 70
     0
  9
$DIMALTZ
 70
     0
  9
$DIMALTTZ
 70
     0
  9
$DIMUPT
 70
     0
  9
$DIMDEC
 70
     2
  9
$DIMTDEC
 70
     2
  9
$DIMALTU
 70
     2
  9
$DIMALTTD
 70
     3
  9
$DIMTXSTY
  7
Standard
  9
$DIMAUNIT
 70
     0
  9
$DIMADEC
 70
     2
  9
$DIMALTRND
 40
0.0
  9
$DIMAZIN
 70
     0
  9
$DIMDSEP
 70
    44
  9
$DIMATFIT
 70
     3
  9
$DIMFRAC
 70
     0
  9
$DIMLDRBLK
  1

  9
$DIMLUNIT
 70
     2
  9
$DIMLWD
 70
    -2
  9
$DIMLWE
 70
    -2
  9
$DIMTMOVE
 70
     0
  9
$LUNITS
 70
     2
  9
$LUPREC
 70
     2
  9
$SKETCHINC
 40
1.0
  9
$FILLETRAD
 40
10.0
  9
$AUNITS
 70
     0
  9
$AUPREC
 70
     2
  9
$MENU
  1
.
  9
$ELEVATION
 40
0.0
  9
$PELEVATION
 40
0.0
  9
$THICKNESS
 40
0.0
  9
$LIMCHECK
 70
     0
  9
$CHAMFERA
 40
0.0
  9
$CHAMFERB
 40
0.0
  9
$CHAMFERC
 40
0.0
  9
$CHAMFERD
 40
0.0
  9
$SKPOLY
 70
     0
  9
$TDCREATE
 40
2459317.493347025
  9
$TDUCREATE
 40
2459317.118347025
  9
$TDUPDATE
 40
2459317.493347917
  9
$TDUUPDATE
 40
2459317.118347917
  9
$TDINDWG
 40
0.0000000116
  9
$TDUSRTIMER
 40
0.0000000116
  9
$USRTIMER
 70
     1
  9
$ANGBASE
 50
0.0
  9
$ANGDIR
 70
     0
  9
$PDMODE
 70
     0
  9
$PDSIZE
 40
-1.0
  9
$PLINEWID
 40
0.0
  9
$SPLFRAME
 70
     0
  9
$SPLINETYPE
 70
     6
  9
$SPLINESEGS
 70
     8
  9
$HANDSEED
  5
12F
  9
$SURFTAB1
 70
     6
  9
$SURFTAB2
 70
     6
  9
$SURFTYPE
 70
     6
  9
$SURFU
 70
     6
  9
$SURFV
 70
     6
  9
$UCSBASE
  2

  9
$UCSNAME
  2

  9
$UCSORG
 10
0.0
 20
0.0
 30
0.0
  9
$UCSXDIR
 10
1.0
 20
0.0
 30
0.0
  9
$UCSYDIR
 10
0.0
 20
1.0
 30
0.0
  9
$UCSORTHOREF
  2

  9
$UCSORTHOVIEW
 70
     0
  9
$UCSORGTOP
 10
0.0
 20
0.0
 30
0.0
  9
$UCSORGBOTTOM
 10
0.0
 20
0.0
 30
0.0
  9
$UCSORGLEFT
 10
0.0
 20
0.0
 30
0.0
  9
$UCSORGRIGHT
 10
0.0
 20
0.0
 30
0.0
  9
$UCSORGFRONT
 10
0.0
 20
0.0
 30
0.0
  9
$UCSORGBACK
 10
0.0
 20
0.0
 30
0.0
  9
$PUCSBASE
  2

  9
$PUCSNAME
  2

  9
$PUCSORG
 10
0.0
 20
0.0
 30
0.0
  9
$PUCSXDIR
 10
1.0
 20
0.0
 30
0.0
  9
$PUCSYDIR
 10
0.0
 20
1.0
 30
0.0
  9
$PUCSORTHOREF
  2

  9
$PUCSORTHOVIEW
 70
     0
  9
$PUCSORGTOP
 10
0.0
 20
0.0
 30
0.0
  9
$PUCSORGBOTTOM
 10
0.0
 20
0.0
 30
0.0
  9
$PUCSORGLEFT
 10
0.0
 20
0.0
 30
0.0
  9
$PUCSORGRIGHT
 10
0.0
 20
0.0
 30
0.0
  9
$PUCSORGFRONT
 10
0.0
 20
0.0
 30
0.0
  9
$PUCSORGBACK
 10
0.0
 20
0.0
 30
0.0
  9
$USERI1
 70
     0
  9
$USERI2
 70
     0
  9
$USERI3
 70
     0
  9
$USERI4
 70
     0
  9
$USERI5
 70
     0
  9
$USERR1
 40
0.0
  9
$USERR2
 40
0.0
  9
$USERR3
 40
0.0
  9
$USERR4
 40
0.0
  9
$USERR5
 40
0.0
  9
$WORLDVIEW
 70
     1
  9
$SHADEDGE
 70
     3
  9
$SHADEDIF
 70
    70
  9
$TILEMODE
 70
     1
  9
$MAXACTVP
 70
    64
  9
$PINSBASE
 10
0.0
 20
0.0
 30
0.0
  9
$PLIMCHECK
 70
     0
  9
$PEXTMIN
 10
1.0000000000E+20
 20
1.0000000000E+20
 30
1.0000000000E+20
  9
$PEXTMAX
 10
-1.0000000000E+20
 20
-1.0000000000E+20
 30
-1.0000000000E+20
  9
$PLIMMIN
 10
0.0
 20
0.0
  9
$PLIMMAX
 10
420.0
 20
297.0
  9
$UNITMODE
 70
     0
  9
$VISRETAIN
 70
     1
  9
$PLINEGEN
 70
     0
  9
$PSLTSCALE
 70
     1
  9
$TREEDEPTH
 70
  3020
  9
$CMLSTYLE
  2
Standard
  9
$CMLJUST
 70
     0
  9
$CMLSCALE
 40
20.0
  9
$PROXYGRAPHICS
 70
     1
  9
$MEASUREMENT
 70
     1
  9
$CELWEIGHT
370
    -1
  9
$ENDCAPS
280
     0
  9
$JOINSTYLE
280
     0
  9
$LWDISPLAY
290
     1
  9
$INSUNITS
 70
     4
  9
$HYPERLINKBASE
  1

  9
$STYLESHEET
  1

  9
$XEDIT
290
     1
  9
$CEPSNTYPE
380
     0
  9
$PSTYLEMODE
290
     1
  9
$FINGERPRINTGUID
  2
{376c7cfe-3157-4bb3-bfce-8d936b2544b3}
  9
$VERSIONGUID
  2
{FAEB1C32-E019-11D5-929B-00C0DF256EC4}
  9
$EXTNAMES
290
     1
  9
$PSVPSCALE
 40
0.0
  9
$OLESTARTUP
290
     0
  0
ENDSEC
  0
SECTION
  2
CLASSES
  0
CLASS
  1
ACDBDICTIONARYWDFLT
  2
AcDbDictionaryWithDefault
  3
ObjectDBX Classes
 90
        0
280
     0
281
     0
  0
CLASS
  1
VISUALSTYLE
  2
AcDbVisualStyle
  3
ObjectDBX Classes
 90
     4095
280
     0
281
     0
  0
CLASS
  1
MATERIAL
  2
AcDbMaterial
  3
ObjectDBX Classes
 90
     1153
280
     0
281
     0
  0
CLASS
  1
SCALE
  2
AcDbScale
  3
ObjectDBX Classes
 90
     1153
280
     0
281
     0
  0
CLASS
  1
TABLESTYLE
  2
AcDbTableStyle
  3
ObjectDBX Classes
 90
     4095
280
     0
281
     0
  0
CLASS
  1
MLEADERSTYLE
  2
AcDbMLeaderStyle
  3
ACDB_MLEADERSTYLE_CLASS
 90
     4095
280
     0
281
     0
  0
CLASS
  1
SUN
  2
AcDbSun
  3
SCENEOE
 90
     1153
280
     0
281
     0
  0
CLASS
  1
ACDBPLACEHOLDER
  2
AcDbPlaceHolder
  3
ObjectDBX Classes
 90
        0
280
     0
281
     0
  0
CLASS
  1
LAYOUT
  2
AcDbLayout
  3
ObjectDBX Classes
 90
        0
280
     0
281
     0
  0
ENDSEC
  0
SECTION
  2
TABLES
  0
TABLE
  2
VPORT
  5
8
330
0
100
AcDbSymbolTable
 70
     1
  0
VPORT
  5
29
330
8
100
AcDbSymbolTableRecord
100
AcDbViewportTableRecord
  2
*Active
 70
     0
 10
0.0
 20
0.0
 11
1.0
 21
1.0
 12
210.0
 22
148.5
 13
0.0
 23
0.0
 14
10.0
 24
10.0
 15
10.0
 25
10.0
 16
0.0
 26
0.0
 36
1.0
 17
0.0
 27
0.0
 37
0.0
 40
297.0
 41
1.4141414141
 42
50.0
 43
0.0
 44
0.0
 50
0.0
 51
0.0
 71
     0
 72
  2000
 73
     1
 74
     3
 75
     0
 76
     0
 77
     0
 78
     0
281
     0
 65
     1
110
0.0
120
0.0
130
0.0
111
1.0
121
0.0
131
0.0
112
0.0
122
1.0
132
0.0
 79
     0
146
0.0
  0
ENDTAB
  0
TABLE
  2
LTYPE
  5
5
330
0
100
AcDbSymbolTable
 70
     6
  0
LTYPE
  5
14
330
5
100
AcDbSymbolTableRecord
100
AcDbLinetypeTableRecord
  2
ByBlock
 70
     0
  3

 72
    65
 73
     0
 40
0.0
  0
LTYPE
  5
15
330
5
100
AcDbSymbolTableRecord
100
AcDbLinetypeTableRecord
  2
ByLayer
 70
     0
  3

 72
    65
 73
     0
 40
0.0
  0
LTYPE
  5
16
330
5
100
AcDbSymbolTableRecord
100
AcDbLinetypeTableRecord
  2
Continuous
 70
     0
  3
Solid line
 72
    65
 73
     0
 40
0.0
  0
LTYPE
  5
6E
330
5
100
AcDbSymbolTableRecord
100
AcDbLinetypeTableRecord
  2
HIDDEN
 70
     0
  3
Hidden __ __ __ __ __ __ __ __ __ __ __ __ __ __
 72
    65
 73
     2
 40
1.905
 49
1.27
 74
     0
 49
-0.635
 74
     0
  0
LTYPE
  5
6F
330
5
100
AcDbSymbolTableRecord
100
AcDbLinetypeTableRecord
  2
PHANTOM
 70
     0
  3
Phantom ______  __  __  ______  __  __  ______
 72
    65
 73
     6
 40
12.7
 49
6.35
 74
     0
 49
-1.27
 74
     0
 49
1.27
 74
     0
 49
-1.27
 74
     0
 49
1.27
 74
     0
 49
-1.27
 74
     0
  0
LTYPE
  5
70
330
5
100
AcDbSymbolTableRecord
100
AcDbLinetypeTableRecord
  2
CENTER
 70
     0
  3
Center ____ _ ____ _ ____ _ ____ _ ____ _ ____
 72
    65
 73
     4
 40
10.16
 49
6.35
 74
     0
 49
-1.27
 74
     0
 49
1.27
 74
     0
 49
-1.27
 74
     0
  0
LTYPE
  5
71
330
5
100
AcDbSymbolTableRecord
100
AcDbLinetypeTableRecord
  2
CENTERX2
 70
     0
  3
Center (2x) ________  __  ________  __  _____
 72
    65
 73
     4
 40
20.32
 49
12.7
 74
     0
 49
-2.54
 74
     0
 49
2.54
 74
     0
 49
-2.54
 74
     0
  0
LTYPE
  5
72
330
5
100
AcDbSymbolTableRecord
100
AcDbLinetypeTableRecord
  2
DOT2
 70
     0
  3
Dot (.5x) ........................................
 72
    65
 73
     2
 40
0.635
 49
0.0
 74
     0
 49
-0.635
 74
     0
  0
ENDTAB
  0
TABLE
  2
LAYER
  5
2
330
0
100
AcDbSymbolTable
 70
     6
  0
LAYER
  5
10
330
2
100
AcDbSymbolTableRecord
100
AcDbLayerTableRecord
  2
0
 70
     0
 62
     7
  6
Continuous
370
    -3
390
F
  0
LAYER
  5
73
330
2
100
AcDbSymbolTableRecord
100
AcDbLayerTableRecord
  2
SLD-0
 70
     0
 62
     7
  6
Continuous
370
    -3
390
F
  0
LAYER
  5
74
330
2
100
AcDbSymbolTableRecord
100
AcDbLayerTableRecord
  2
8
 70
     0
 62
     7
  6
Continuous
370
    25
390
F
  0
LAYER
  5
75
330
2
100
AcDbSymbolTableRecord
100
AcDbLayerTableRecord
  2
9
 70
     0
 62
     7
  6
Continuous
370
    -3
390
F
  0
LAYER
  5
76
330
2
100
AcDbSymbolTableRecord
100
AcDbLayerTableRecord
  2
10
 70
     0
 62
     1
  6
Continuous
370
    -3
390
F
  0
LAYER
  5
77
330
2
100
AcDbSymbolTableRecord
100
AcDbLayerTableRecord
  2
11
 70
     0
 62
     7
  6
Continuous
370
    -3
390
F
  0
ENDTAB
  0
TABLE
  2
STYLE
  5
3
330
0
100
AcDbSymbolTable
 70
     2
  0
STYLE
  5
11
330
3
100
AcDbSymbolTableRecord
100
AcDbTextStyleTableRecord
  2
Standard
 70
     0
 40
0.0
 41
1.0
 50
0.0
 71
     0
 42
3.8805555556
  3
txt
  4
bigfont
  0
STYLE
  5
78
330
3
100
AcDbSymbolTableRecord
100
AcDbTextStyleTableRecord
  2
SLDTEXTSTYLE0
 70
     0
 40
0.0
 41
0.7
 50
0.0
 71
     0
 42
3.8805555556
  3
TXT
  4
bigfont
  0
ENDTAB
  0
TABLE
  2
VIEW
  5
6
330
0
100
AcDbSymbolTable
 70
     0
  0
ENDTAB
  0
TABLE
  2
UCS
  5
7
330
0
100
AcDbSymbolTable
 70
     0
  0
ENDTAB
  0
TABLE
  2
APPID
  5
9
330
0
100
AcDbSymbolTable
 70
     1
  0
APPID
  5
12
330
9
100
AcDbSymbolTableRecord
100
AcDbRegAppTableRecord
  2
ACAD
 70
     0
  0
ENDTAB
  0
TABLE
  2
DIMSTYLE
  5
A
330
0
100
AcDbSymbolTable
 70
     1
100
AcDbDimStyleTable
  0
DIMSTYLE
105
27
330
A
100
AcDbSymbolTableRecord
100
AcDbDimStyleTableRecord
  2
ISO-25
 70
     0
 41
2.5
 42
0.625
 43
3.75
 44
1.25
 73
     0
 74
     0
 77
     1
 78
     8
140
2.5
141
2.5
143
0.0393700787
147
0.625
171
     3
172
     1
178
     0
271
     2
272
     2
274
     3
278
    44
283
     0
284
     8
340
11
  0
ENDTAB
  0
TABLE
  2
BLOCK_RECORD
  5
1
330
0
100
AcDbSymbolTable
 70
     1
  0
BLOCK_RECORD
  5
1F
330
1
100
AcDbSymbolTableRecord
100
AcDbBlockTableRecord
  2
*Model_Space
340
22
  0
BLOCK_RECORD
  5
1B
330
1
100
AcDbSymbolTableRecord
100
AcDbBlockTableRecord
  2
*Paper_Space
340
1E
  0
BLOCK_RECORD
  5
23
330
1
100
AcDbSymbolTableRecord
100
AcDbBlockTableRecord
  2
*Paper_Space0
340
26
  0
ENDTAB
  0
ENDSEC
  0
SECTION
  2
BLOCKS
  0
BLOCK
  5
20
330
1F
100
AcDbEntity
  8
0
100
AcDbBlockBegin
  2
*Model_Space
 70
     0
 10
0.0
 20
0.0
 30
0.0
  3
*Model_Space
  1

  0
ENDBLK
  5
21
330
1F
100
AcDbEntity
  8
0
100
AcDbBlockEnd
  0
BLOCK
  5
1C
330
1B
100
AcDbEntity
 67
     1
  8
0
100
AcDbBlockBegin
  2
*Paper_Space
 70
     0
 10
0.0
 20
0.0
 30
0.0
  3
*Paper_Space
  1

  0
ENDBLK
  5
1D
330
1B
100
AcDbEntity
 67
     1
  8
0
100
AcDbBlockEnd
  0
BLOCK
  5
24
330
23
100
AcDbEntity
  8
0
100
AcDbBlockBegin
  2
*Paper_Space0
 70
     0
 10
0.0
 20
0.0
 30
0.0
  3
*Paper_Space0
  1

  0
ENDBLK
  5
25
330
23
100
AcDbEntity
  8
0
100
AcDbBlockEnd
  0
ENDSEC
  0
SECTION
  2
ENTITIES
  0
MTEXT
  5
79
330
1F
100
AcDbEntity
  8
9
 62
     7
100
AcDbMText
 10
22.9810592731
 20
14.7698939359
 30
0.0
 40
3.7041666667
 41
0.0
 71
     1
 72
     1
  1
2021/03/09
  7
SLDTEXTSTYLE0
 73
     1
 44
1.0
  0
MTEXT
  5
7A
330
1F
100
AcDbEntity
  8
9
 62
     7
100
AcDbMText
 10
22.9810592731
 20
39.3097759652
 30
0.0
 40
3.7041666667
 41
0.0
 71
     1
 72
     1
  1
12-8001-001
  7
SLDTEXTSTYLE0
 73
     1
 44
1.0
  0
MTEXT
  5
7B
330
1F
100
AcDbEntity
  8
9
 62
     7
100
AcDbMText
 10
22.9810592731
 20
22.271836236
 30
0.0
 40
3.7041666667
 41
0.0
 71
     1
 72
     1
  1
-
  7
SLDTEXTSTYLE0
 73
     1
 44
1.0
  0
MTEXT
  5
7C
330
1F
100
AcDbEntity
  8
9
 62
     7
100
AcDbMText
 10
22.9810592731
 20
30.9293045781
 30
0.0
 40
3.7041666667
 41
0.0
 71
     1
 72
     1
  1
1:1
  7
SLDTEXTSTYLE0
 73
     1
 44
1.0
  0
CIRCLE
  5
7D
330
1F
100
AcDbEntity
  8
0
  6
Continuous
 62
     7
370
    35
100
AcDbCircle
 10
164.1050868872
 20
161.1430792303
 30
0.0
 40
10.0
  0
LINE
  5
7E
330
1F
100
AcDbEntity
  8
0
  6
Continuous
 62
     7
370
    35
100
AcDbLine
 10
222.0414974586
 20
171.1430792303
 30
0.0
 11
221.1655552617
 21
171.1430792303
 31
0.0
  0
LINE
  5
7F
330
1F
100
AcDbEntity
  8
0
  6
Continuous
 62
     7
370
    35
100
AcDbLine
 10
221.1655552617
 20
151.1430792303
 30
0.0
 11
222.0414974586
 21
151.1430792303
 31
0.0
  0
ARC
  5
80
330
1F
100
AcDbEntity
  8
0
  6
Continuous
 62
     7
370
    35
100
AcDbCircle
 10
221.1655552617
 20
179.9900694811
 30
0.0
 40
28.84699025082909
100
AcDbArc
 50
263.1838182293
 51
270.0
  0
ARC
  5
81
330
1F
100
AcDbEntity
  8
0
  6
Continuous
 62
     7
370
    35
100
AcDbCircle
 10
221.1655552617
 20
142.2960889795
 30
0.0
 40
28.84699025082909
100
AcDbArc
 50
90.0
 51
96.8161817707
  0
ARC
  5
82
330
1F
100
AcDbEntity
  8
0
  6
Continuous
 62
     7
370
    35
100
AcDbCircle
 10
222.0414974586
 20
179.9900694811
 30
0.0
 40
28.84699025082818
100
AcDbArc
 50
270.0
 51
276.8161817707
  0
ARC
  5
83
330
1F
100
AcDbEntity
  8
0
  6
Continuous
 62
     7
370
    35
100
AcDbCircle
 10
222.0414974586
 20
142.2960889795
 30
0.0
 40
28.84699025082818
100
AcDbArc
 50
83.1838182293
 51
90.0
  0
ARC
  5
84
330
1F
100
AcDbEntity
  8
0
  6
Continuous
 62
     7
370
    35
100
AcDbCircle
 10
218.8796977933
 20
161.4199254179
 30
0.0
 40
9.58702492138661
100
AcDbArc
 50
96.8161817707
 51
113.3426337043
  0
ARC
  5
85
330
1F
100
AcDbEntity
  8
0
  6
Continuous
 62
     7
370
    35
100
AcDbCircle
 10
218.8796977933
 20
160.8662330427
 30
0.0
 40
9.587024921386579
100
AcDbArc
 50
246.6573662957
 51
263.1838182293
  0
ARC
  5
86
330
1F
100
AcDbEntity
  8
0
  6
Continuous
 62
     7
370
    35
100
AcDbCircle
 10
224.327354927
 20
161.4199254179
 30
0.0
 40
9.587024921386256
100
AcDbArc
 50
66.6573662957
 51
83.1838182292
  0
ARC
  5
87
330
1F
100
AcDbEntity
  8
0
  6
Continuous
 62
     7
370
    35
100
AcDbCircle
 10
224.327354927
 20
160.8662330427
 30
0.0
 40
9.58702492138626
100
AcDbArc
 50
276.8161817708
 51
293.3426337043
  0
ARC
  5
88
330
1F
100
AcDbEntity
  8
0
  6
Continuous
 62
     7
370
    35
100
AcDbCircle
 10
217.0587375447
 20
165.6395023445
 30
0.0
 40
4.991295853394078
100
AcDbArc
 50
113.3426337043
 51
156.6573662957
  0
ARC
  5
89
330
1F
100
AcDbEntity
  8
0
  6
Continuous
 62
     7
370
    35
100
AcDbCircle
 10
217.0587375447
 20
156.6466561161
 30
0.0
 40
4.991295853394078
100
AcDbArc
 50
203.3426337043
 51
246.6573662957
  0
ARC
  5
8A
330
1F
100
AcDbEntity
  8
0
  6
Continuous
 62
     7
370
    35
100
AcDbCircle
 10
226.1483151756
 20
165.6395023445
 30
0.0
 40
4.991295853394859
100
AcDbArc
 50
23.3426337043
 51
66.6573662957
  0
ARC
  5
8B
330
1F
100
AcDbEntity
  8
0
  6
Continuous
 62
     7
370
    35
100
AcDbCircle
 10
226.1483151756
 20
156.6466561161
 30
0.0
 40
4.991295853394859
100
AcDbArc
 50
293.3426337043
 51
336.6573662957
  0
ARC
  5
8C
330
1F
100
AcDbEntity
  8
0
  6
Continuous
 62
     7
370
    35
100
AcDbCircle
 10
221.2783144713
 20
163.818542096
 30
0.0
 40
9.58702492138775
100
AcDbArc
 50
156.6573662957
 51
173.1838182293
  0
ARC
  5
8D
330
1F
100
AcDbEntity
  8
0
  6
Continuous
 62
     7
370
    35
100
AcDbCircle
 10
221.2783144713
 20
158.4676163646
 30
0.0
 40
9.58702492138773
100
AcDbArc
 50
186.8161817707
 51
203.3426337043
  0
ARC
  5
8E
330
1F
100
AcDbEntity
  8
0
  6
Continuous
 62
     7
370
    35
100
AcDbCircle
 10
221.928738249
 20
163.818542096
 30
0.0
 40
9.587024921390437
100
AcDbArc
 50
6.8161817707
 51
23.3426337042
  0
ARC
  5
8F
330
1F
100
AcDbEntity
  8
0
  6
Continuous
 62
     7
370
    35
100
AcDbCircle
 10
221.928738249
 20
158.4676163646
 30
0.0
 40
9.587024921390437
100
AcDbArc
 50
336.6573662958
 51
353.1838182293
  0
ARC
  5
90
330
1F
100
AcDbEntity
  8
0
  6
Continuous
 62
     7
370
    35
100
AcDbCircle
 10
240.4021509098
 20
161.5326846275
 30
0.0
 40
28.84699025082891
100
AcDbArc
 50
173.1838182293
 51
180.0
  0
ARC
  5
91
330
1F
100
AcDbEntity
  8
0
  6
Continuous
 62
     7
370
    35
100
AcDbCircle
 10
240.4021509098
 20
160.7534738331
 30
0.0
 40
28.84699025082892
100
AcDbArc
 50
180.0
 51
186.8161817707
  0
ARC
  5
92
330
1F
100
AcDbEntity
  8
0
  6
Continuous
 62
     7
370
    35
100
AcDbCircle
 10
254.611669205
 20
179.9900694812
 30
0.0
 40
28.84699025085641
100
AcDbArc
 50
270.3702637112
 51
276.8161817707
  0
ARC
  5
93
330
1F
100
AcDbEntity
  8
0
  6
Continuous
 62
     7
370
    35
100
AcDbCircle
 10
254.611669205
 20
142.2960889794
 30
0.0
 40
28.84699025085641
100
AcDbArc
 50
83.1838182293
 51
90.0
  0
LINE
  5
94
330
1F
100
AcDbEntity
  8
0
  6
Continuous
 62
     7
370
    35
100
AcDbLine
 10
254.611669205
 20
171.1430792303
 30
0.0
 11
241.0688238593
 21
171.1430792303
 31
0.0
  0
LINE
  5
95
330
1F
100
AcDbEntity
  8
0
  6
Continuous
 62
     7
370
    35
100
AcDbLine
 10
241.0688238593
 20
151.1430792303
 30
0.0
 11
249.3056082987
 21
151.1430792303
 31
0.0
  0
ARC
  5
96
330
1F
100
AcDbEntity
  8
0
  6
Continuous
 62
     7
370
    35
100
AcDbCircle
 10
241.0688238593
 20
179.9900694812
 30
0.0
 40
28.8469902508572
100
AcDbArc
 50
263.1838182293
 51
270.0
  0
ARC
  5
97
330
1F
100
AcDbEntity
  8
0
  6
Continuous
 62
     7
370
    35
100
AcDbCircle
 10
241.0688238593
 20
142.2960889794
 30
0.0
 40
28.84699025085723
100
AcDbArc
 50
90.0
 51
96.8161817707
  0
ARC
  5
98
330
1F
100
AcDbEntity
  8
0
  6
Continuous
 62
     7
370
    35
100
AcDbCircle
 10
256.8975266734
 20
161.4199254179
 30
0.0
 40
9.587024921379125
100
AcDbArc
 50
66.6573662957
 51
83.1838182293
  0
ARC
  5
99
330
1F
100
AcDbEntity
  8
0
  6
Continuous
 62
     7
370
    35
100
AcDbCircle
 10
256.8975266734
 20
160.8662330427
 30
0.0
 40
9.587024921379134
100
AcDbArc
 50
276.8161817707
 51
293.3426337043
  0
ARC
  5
9A
330
1F
100
AcDbEntity
  8
0
  6
Continuous
 62
     7
370
    35
100
AcDbCircle
 10
238.7829663909
 20
161.4199254179
 30
0.0
 40
9.587024921378433
100
AcDbArc
 50
96.8161817707
 51
113.3426337043
  0
ARC
  5
9B
330
1F
100
AcDbEntity
  8
0
  6
Continuous
 62
     7
370
    35
100
AcDbCircle
 10
238.7829663909
 20
160.8662330427
 30
0.0
 40
9.587024921378426
100
AcDbArc
 50
246.6573662957
 51
263.1838182293
  0
ARC
  5
9C
330
1F
100
AcDbEntity
  8
0
  6
Continuous
 62
     7
370
    35
100
AcDbCircle
 10
258.718486922
 20
165.6395023445
 30
0.0
 40
4.991295853394166
100
AcDbArc
 50
29.6750409913
 51
66.6573662957
  0
ARC
  5
9D
330
1F
100
AcDbEntity
  8
0
  6
Continuous
 62
     7
370
    35
100
AcDbCircle
 10
258.718486922
 20
156.6466561161
 30
0.0
 40
4.99129585339417
100
AcDbArc
 50
293.3426337043
 51
330.3249590087
  0
ARC
  5
9E
330
1F
100
AcDbEntity
  8
0
  6
Continuous
 62
     7
370
    35
100
AcDbCircle
 10
236.9620061423
 20
165.6395023445
 30
0.0
 40
4.991295853394173
100
AcDbArc
 50
113.3426337043
 51
156.6573662957
  0
ARC
  5
9F
330
1F
100
AcDbEntity
  8
0
  6
Continuous
 62
     7
370
    35
100
AcDbCircle
 10
236.9620061423
 20
156.6466561161
 30
0.0
 40
4.991295853394181
100
AcDbArc
 50
203.3426337043
 51
246.6573662957
  0
ARC
  5
A0
330
1F
100
AcDbEntity
  8
0
  6
Continuous
 62
     7
370
    35
100
AcDbCircle
 10
241.1815830689
 20
163.818542096
 30
0.0
 40
9.58702492137862
100
AcDbArc
 50
156.6573662957
 51
173.1838182293
  0
ARC
  5
A1
330
1F
100
AcDbEntity
  8
0
  6
Continuous
 62
     7
370
    35
100
AcDbCircle
 10
241.1815830689
 20
158.4676163646
 30
0.0
 40
9.58702492137862
100
AcDbArc
 50
186.8161817707
 51
203.3426337043
  0
LINE
  5
A2
330
1F
100
AcDbEntity
  8
0
  6
Continuous
 62
   144
370
    18
100
AcDbLine
 10
231.448002349
 20
161.1430792303
 30
0.0
 11
231.448002349
 21
164.9563724161
 31
0.0
  0
LINE
  5
A3
330
1F
100
AcDbEntity
  8
0
  6
Continuous
 62
   144
370
    18
100
AcDbLine
 10
231.448002349
 20
157.3297860445
 30
0.0
 11
231.448002349
 21
161.1430792303
 31
0.0
  0
LINE
  5
A4
330
1F
100
AcDbEntity
  8
0
  6
Continuous
 62
     7
370
    35
100
AcDbLine
 10
211.5551606589
 20
161.5326846275
 30
0.0
 11
211.5551606589
 21
160.7534738331
 31
0.0
  0
SPLINE
  5
A5
330
1F
100
AcDbEntity
  8
0
  6
Continuous
 62
     7
370
    35
100
AcDbSpline
210
0.0
220
0.0
230
1.0
 70
     8
 71
     3
 72
    10
 73
     6
 74
     0
 42
0.00000001
 43
0.00000001
 40
0.0
 40
0.0
 40
0.0
 40
0.0
 40
0.4305911145325356
 40
0.8764613959439962
 40
1.0
 40
1.0
 40
1.0
 40
1.0
 10
254.6116692050232
 20
151.1834724569465
 30
0.0
 10
254.6587027840346
 20
151.1738785752799
 30
0.0
 10
254.7544388894146
 20
151.1543503810506
 30
0.0
 10
254.8079614883668
 20
151.1429949659769
 30
0.0
 10
254.7997904658
 20
151.1447162248771
 30
0.0
 10
254.7980176857339
 20
151.1450896681569
 30
0.0
  0
SPLINE
  5
A6
330
1F
100
AcDbEntity
  8
0
  6
Continuous
 62
     7
370
    35
100
AcDbSpline
210
0.0
220
0.0
230
1.0
 70
     8
 71
     3
 72
    25
 73
    21
 74
     0
 42
0.00000001
 43
0.00000001
 40
0.0
 40
0.0
 40
0.0
 40
0.0
 40
0.0006494711376666
 40
0.0499513499369903
 40
0.1007116508441838
 40
0.1497837705561028
 40
0.2000654352668234
 40
0.25355392461254
 40
0.3082802130053319
 40
0.36832431598377
 40
0.429832456812387
 40
0.4953064299906105
 40
0.5625524663666064
 40
0.6302571119631684
 40
0.6999193578933213
 40
0.767636659731096
 40
0.837454429429873
 40
0.9026245582371151
 40
0.9701329546698437
 40
1.0
 40
1.0
 40
1.0
 40
1.0
 10
249.3056082986899
 20
151.1431751652809
 30
0.0
 10
249.3054590917857
 20
151.1431431892647
 30
0.0
 10
249.2939834682364
 20
151.1406838880284
 30
0.0
 10
249.3315309157892
 20
151.1487806524201
 30
0.0
 10
249.4152060873232
 20
151.1665393358874
 30
0.0
 10
249.5631714201938
 20
151.1966929967151
 30
0.0
 10
249.7612118636359
 20
151.2345527433899
 30
0.0
 10
250.013536509781
 20
151.2785932098351
 30
0.0
 10
250.3237090710118
 20
151.3261245342227
 30
0.0
 10
250.6868427433699
 20
151.3723084141548
 30
0.0
 10
251.1043039795557
 20
151.412356581972
 30
0.0
 10
251.5617968767174
 20
151.4399879690572
 30
0.0
 10
252.0470957683428
 20
151.4502156713156
 30
0.0
 10
252.542768642572
 20
151.440453353871
 30
0.0
 10
253.026133962236
 20
151.4112077688258
 30
0.0
 10
253.4863036764069
 20
151.3656779137735
 30
0.0
 10
253.8956814917074
 20
151.3108202279232
 30
0.0
 10
254.2479217390344
 20
151.2532582205438
 30
0.0
 10
254.4785028490412
 20
151.2101013433654
 30
0.0
 10
254.5804116771217
 20
151.1897229333081
 30
0.0
 10
254.6116692050232
 20
151.1834724569465
 30
0.0
  0
LINE
  5
A7
330
1F
100
AcDbEntity
  8
0
  6
Continuous
 62
     7
370
    35
100
AcDbLine
 10
263.0551606589
 20
161.1430792303
 30
0.0
 11
263.0551606589
 21
154.1755642125
 31
0.0
  0
LINE
  5
A8
330
1F
100
AcDbEntity
  8
0
  6
Continuous
 62
     7
370
    35
100
AcDbLine
 10
263.0551606589
 20
168.110594248
 30
0.0
 11
263.0551606589
 21
161.1430792303
 31
0.0
  0
LINE
  5
A9
330
1F
100
AcDbEntity
  8
0
  6
Continuous
 62
   144
370
    18
100
AcDbLine
 10
231.6623189689
 20
161.1430792303
 30
0.0
 11
231.6623189689
 21
157.3297860445
 31
0.0
  0
LINE
  5
AA
330
1F
100
AcDbEntity
  8
0
  6
Continuous
 62
   144
370
    18
100
AcDbLine
 10
231.6623189689
 20
164.9563724161
 30
0.0
 11
231.6623189689
 21
161.1430792303
 31
0.0
  0
LINE
  5
AB
330
1F
100
AcDbEntity
  8
0
  6
Continuous
 62
     7
370
    35
100
AcDbLine
 10
222.0414974586
 20
250.8257035516
 30
0.0
 11
221.1655552617
 21
250.8257035516
 31
0.0
  0
LINE
  5
AC
330
1F
100
AcDbEntity
  8
0
  6
Continuous
 62
     7
370
    35
100
AcDbLine
 10
221.1655552617
 20
230.8257035516
 30
0.0
 11
222.0414974586
 21
230.8257035516
 31
0.0
  0
ARC
  5
AD
330
1F
100
AcDbEntity
  8
0
  6
Continuous
 62
     7
370
    35
100
AcDbCircle
 10
221.1655552617
 20
259.6726938024
 30
0.0
 40
28.84699025082908
100
AcDbArc
 50
263.1838182293
 51
270.0
  0
ARC
  5
AE
330
1F
100
AcDbEntity
  8
0
  6
Continuous
 62
     7
370
    35
100
AcDbCircle
 10
221.1655552617
 20
221.9787133008
 30
0.0
 40
28.84699025082909
100
AcDbArc
 50
90.0
 51
96.8161817707
  0
ARC
  5
AF
330
1F
100
AcDbEntity
  8
0
  6
Continuous
 62
     7
370
    35
100
AcDbCircle
 10
222.0414974586
 20
259.6726938024
 30
0.0
 40
28.84699025082818
100
AcDbArc
 50
270.0
 51
276.8161817707
  0
ARC
  5
B0
330
1F
100
AcDbEntity
  8
0
  6
Continuous
 62
     7
370
    35
100
AcDbCircle
 10
222.0414974586
 20
221.9787133008
 30
0.0
 40
28.84699025082818
100
AcDbArc
 50
83.1838182293
 51
90.0
  0
ARC
  5
B1
330
1F
100
AcDbEntity
  8
0
  6
Continuous
 62
     7
370
    35
100
AcDbCircle
 10
218.8796977933
 20
241.1025497393
 30
0.0
 40
9.587024921386579
100
AcDbArc
 50
96.8161817707
 51
113.3426337043
  0
ARC
  5
B2
330
1F
100
AcDbEntity
  8
0
  6
Continuous
 62
     7
370
    35
100
AcDbCircle
 10
218.8796977933
 20
240.548857364
 30
0.0
 40
9.58702492138661
100
AcDbArc
 50
246.6573662957
 51
263.1838182293
  0
ARC
  5
B3
330
1F
100
AcDbEntity
  8
0
  6
Continuous
 62
     7
370
    35
100
AcDbCircle
 10
224.327354927
 20
241.1025497393
 30
0.0
 40
9.587024921386256
100
AcDbArc
 50
66.6573662957
 51
83.1838182292
  0
ARC
  5
B4
330
1F
100
AcDbEntity
  8
0
  6
Continuous
 62
     7
370
    35
100
AcDbCircle
 10
224.327354927
 20
240.548857364
 30
0.0
 40
9.58702492138626
100
AcDbArc
 50
276.8161817708
 51
293.3426337043
  0
ARC
  5
B5
330
1F
100
AcDbEntity
  8
0
  6
Continuous
 62
     7
370
    35
100
AcDbCircle
 10
217.0587375447
 20
245.3221266659
 30
0.0
 40
4.991295853394067
100
AcDbArc
 50
113.3426337043
 51
156.6573662957
  0
ARC
  5
B6
330
1F
100
AcDbEntity
  8
0
  6
Continuous
 62
     7
370
    35
100
AcDbCircle
 10
217.0587375447
 20
236.3292804374
 30
0.0
 40
4.991295853394055
100
AcDbArc
 50
203.3426337043
 51
246.6573662957
  0
ARC
  5
B7
330
1F
100
AcDbEntity
  8
0
  6
Continuous
 62
     7
370
    35
100
AcDbCircle
 10
226.1483151756
 20
245.3221266659
 30
0.0
 40
4.99129585339487
100
AcDbArc
 50
23.3426337043
 51
66.6573662957
  0
ARC
  5
B8
330
1F
100
AcDbEntity
  8
0
  6
Continuous
 62
     7
370
    35
100
AcDbCircle
 10
226.1483151756
 20
236.3292804374
 30
0.0
 40
4.991295853394867
100
AcDbArc
 50
293.3426337043
 51
336.6573662957
  0
ARC
  5
B9
330
1F
100
AcDbEntity
  8
0
  6
Continuous
 62
     7
370
    35
100
AcDbCircle
 10
221.2783144713
 20
243.5011664173
 30
0.0
 40
9.58702492138773
100
AcDbArc
 50
156.6573662957
 51
173.1838182293
  0
ARC
  5
BA
330
1F
100
AcDbEntity
  8
0
  6
Continuous
 62
     7
370
    35
100
AcDbCircle
 10
221.2783144713
 20
238.150240686
 30
0.0
 40
9.587024921387727
100
AcDbArc
 50
186.8161817707
 51
203.3426337043
  0
ARC
  5
BB
330
1F
100
AcDbEntity
  8
0
  6
Continuous
 62
     7
370
    35
100
AcDbCircle
 10
221.928738249
 20
243.5011664173
 30
0.0
 40
9.587024921390432
100
AcDbArc
 50
6.8161817707
 51
23.3426337042
  0
ARC
  5
BC
330
1F
100
AcDbEntity
  8
0
  6
Continuous
 62
     7
370
    35
100
AcDbCircle
 10
221.928738249
 20
238.150240686
 30
0.0
 40
9.587024921390432
100
AcDbArc
 50
336.6573662958
 51
353.1838182293
  0
ARC
  5
BD
330
1F
100
AcDbEntity
  8
0
  6
Continuous
 62
     7
370
    35
100
AcDbCircle
 10
240.4021509098
 20
241.2153089488
 30
0.0
 40
28.84699025082892
100
AcDbArc
 50
173.1838182293
 51
180.0
  0
ARC
  5
BE
330
1F
100
AcDbEntity
  8
0
  6
Continuous
 62
     7
370
    35
100
AcDbCircle
 10
240.4021509098
 20
240.4360981544
 30
0.0
 40
28.84699025082892
100
AcDbArc
 50
180.0
 51
186.8161817707
  0
ARC
  5
BF
330
1F
100
AcDbEntity
  8
0
  6
Continuous
 62
     7
370
    35
100
AcDbCircle
 10
254.611669205
 20
259.6726938025
 30
0.0
 40
28.84699025085635
100
AcDbArc
 50
270.0
 51
276.8161817707
  0
ARC
  5
C0
330
1F
100
AcDbEntity
  8
0
  6
Continuous
 62
     7
370
    35
100
AcDbCircle
 10
254.611669205
 20
221.9787133008
 30
0.0
 40
28.84699025085641
100
AcDbArc
 50
83.1838182293
 51
90.0
  0
LINE
  5
C1
330
1F
100
AcDbEntity
  8
0
  6
Continuous
 62
     7
370
    35
100
AcDbLine
 10
254.611669205
 20
250.8257035516
 30
0.0
 11
241.0688238593
 21
250.8257035516
 31
0.0
  0
LINE
  5
C2
330
1F
100
AcDbEntity
  8
0
  6
Continuous
 62
     7
370
    35
100
AcDbLine
 10
241.0688238593
 20
230.8257035516
 30
0.0
 11
254.611669205
 21
230.8257035516
 31
0.0
  0
ARC
  5
C3
330
1F
100
AcDbEntity
  8
0
  6
Continuous
 62
     7
370
    35
100
AcDbCircle
 10
241.0688238593
 20
259.6726938025
 30
0.0
 40
28.84699025085723
100
AcDbArc
 50
263.1838182293
 51
270.0
  0
ARC
  5
C4
330
1F
100
AcDbEntity
  8
0
  6
Continuous
 62
     7
370
    35
100
AcDbCircle
 10
241.0688238593
 20
221.9787133008
 30
0.0
 40
28.84699025085726
100
AcDbArc
 50
90.0
 51
96.8161817707
  0
ARC
  5
C5
330
1F
100
AcDbEntity
  8
0
  6
Continuous
 62
     7
370
    35
100
AcDbCircle
 10
256.8975266734
 20
241.1025497393
 30
0.0
 40
9.587024921379108
100
AcDbArc
 50
66.6573662957
 51
83.1838182293
  0
ARC
  5
C6
330
1F
100
AcDbEntity
  8
0
  6
Continuous
 62
     7
370
    35
100
AcDbCircle
 10
256.8975266734
 20
240.548857364
 30
0.0
 40
9.587024921379134
100
AcDbArc
 50
276.8161817707
 51
293.3426337043
  0
ARC
  5
C7
330
1F
100
AcDbEntity
  8
0
  6
Continuous
 62
     7
370
    35
100
AcDbCircle
 10
238.7829663909
 20
241.1025497393
 30
0.0
 40
9.587024921378433
100
AcDbArc
 50
96.8161817707
 51
113.3426337043
  0
ARC
  5
C8
330
1F
100
AcDbEntity
  8
0
  6
Continuous
 62
     7
370
    35
100
AcDbCircle
 10
238.7829663909
 20
240.548857364
 30
0.0
 40
9.587024921378426
100
AcDbArc
 50
246.6573662957
 51
263.1838182293
  0
ARC
  5
C9
330
1F
100
AcDbEntity
  8
0
  6
Continuous
 62
     7
370
    35
100
AcDbCircle
 10
258.718486922
 20
245.3221266659
 30
0.0
 40
4.991295853394152
100
AcDbArc
 50
29.6750409913
 51
66.6573662957
  0
ARC
  5
CA
330
1F
100
AcDbEntity
  8
0
  6
Continuous
 62
     7
370
    35
100
AcDbCircle
 10
258.718486922
 20
236.3292804374
 30
0.0
 40
4.99129585339417
100
AcDbArc
 50
293.3426337043
 51
330.3249590087
  0
ARC
  5
CB
330
1F
100
AcDbEntity
  8
0
  6
Continuous
 62
     7
370
    35
100
AcDbCircle
 10
236.9620061423
 20
245.3221266659
 30
0.0
 40
4.991295853394173
100
AcDbArc
 50
113.3426337043
 51
156.6573662957
  0
ARC
  5
CC
330
1F
100
AcDbEntity
  8
0
  6
Continuous
 62
     7
370
    35
100
AcDbCircle
 10
236.9620061423
 20
236.3292804374
 30
0.0
 40
4.991295853394185
100
AcDbArc
 50
203.3426337043
 51
246.6573662957
  0
ARC
  5
CD
330
1F
100
AcDbEntity
  8
0
  6
Continuous
 62
     7
370
    35
100
AcDbCircle
 10
241.1815830689
 20
243.5011664173
 30
0.0
 40
9.58702492137862
100
AcDbArc
 50
156.6573662957
 51
173.1838182293
  0
ARC
  5
CE
330
1F
100
AcDbEntity
  8
0
  6
Continuous
 62
     7
370
    35
100
AcDbCircle
 10
241.1815830689
 20
238.150240686
 30
0.0
 40
9.587024921378642
100
AcDbArc
 50
186.8161817707
 51
203.3426337043
  0
LINE
  5
CF
330
1F
100
AcDbEntity
  8
0
  6
Continuous
 62
   144
370
    18
100
AcDbLine
 10
231.448002349
 20
237.0124103658
 30
0.0
 11
231.448002349
 21
244.6389967374
 31
0.0
  0
LINE
  5
D0
330
1F
100
AcDbEntity
  8
0
  6
Continuous
 62
     7
370
    35
100
AcDbLine
 10
211.5551606589
 20
240.8257035516
 30
0.0
 11
211.5551606589
 21
240.4360981544
 31
0.0
  0
LINE
  5
D1
330
1F
100
AcDbEntity
  8
0
  6
Continuous
 62
     7
370
    35
100
AcDbLine
 10
211.5551606589
 20
241.2153089488
 30
0.0
 11
211.5551606589
 21
240.8257035516
 31
0.0
  0
LINE
  5
D2
330
1F
100
AcDbEntity
  8
0
  6
Continuous
 62
     7
370
    35
100
AcDbLine
 10
263.0551606589
 20
247.7932185694
 30
0.0
 11
263.0551606589
 21
233.8581885339
 31
0.0
  0
LINE
  5
D3
330
1F
100
AcDbEntity
  8
0
  6
Continuous
 62
   144
370
    18
100
AcDbLine
 10
231.6623189689
 20
244.6389967374
 30
0.0
 11
231.6623189689
 21
237.0124103658
 31
0.0
  0
ARC
  5
D4
330
1F
100
AcDbEntity
  8
0
  6
Continuous
 62
     7
370
    35
100
AcDbCircle
 10
221.1655552617
 20
100.2080341854
 30
0.0
 40
28.84699025082909
100
AcDbArc
 50
263.1838182293
 51
270.0
  0
ARC
  5
D5
330
1F
100
AcDbEntity
  8
0
  6
Continuous
 62
     7
370
    35
100
AcDbCircle
 10
221.1655552617
 20
62.5140536837
 30
0.0
 40
28.8469902508291
100
AcDbArc
 50
90.0
 51
96.8161817707
  0
LINE
  5
D6
330
1F
100
AcDbEntity
  8
0
  6
Continuous
 62
     7
370
    35
100
AcDbLine
 10
222.0414974586
 20
91.3610439345
 30
0.0
 11
221.1655552617
 21
91.3610439345
 31
0.0
  0
LINE
  5
D7
330
1F
100
AcDbEntity
  8
0
  6
Continuous
 62
     7
370
    35
100
AcDbLine
 10
221.1655552617
 20
71.3610439345
 30
0.0
 11
222.0414974586
 21
71.3610439345
 31
0.0
  0
ARC
  5
D8
330
1F
100
AcDbEntity
  8
0
  6
Continuous
 62
     7
370
    35
100
AcDbCircle
 10
222.0414974586
 20
100.2080341854
 30
0.0
 40
28.84699025082818
100
AcDbArc
 50
270.0
 51
276.8161817707
  0
ARC
  5
D9
330
1F
100
AcDbEntity
  8
0
  6
Continuous
 62
     7
370
    35
100
AcDbCircle
 10
222.0414974586
 20
62.5140536837
 30
0.0
 40
28.84699025082816
100
AcDbArc
 50
83.1838182293
 51
90.0
  0
ARC
  5
DA
330
1F
100
AcDbEntity
  8
0
  6
Continuous
 62
     7
370
    35
100
AcDbCircle
 10
218.8796977933
 20
81.6378901222
 30
0.0
 40
9.587024921386595
100
AcDbArc
 50
96.8161817707
 51
113.3426337043
  0
ARC
  5
DB
330
1F
100
AcDbEntity
  8
0
  6
Continuous
 62
     7
370
    35
100
AcDbCircle
 10
218.8796977933
 20
81.0841977469
 30
0.0
 40
9.58702492138661
100
AcDbArc
 50
246.6573662957
 51
263.1838182293
  0
ARC
  5
DC
330
1F
100
AcDbEntity
  8
0
  6
Continuous
 62
     7
370
    35
100
AcDbCircle
 10
224.327354927
 20
81.6378901222
 30
0.0
 40
9.58702492138627
100
AcDbArc
 50
66.6573662957
 51
83.1838182292
  0
ARC
  5
DD
330
1F
100
AcDbEntity
  8
0
  6
Continuous
 62
     7
370
    35
100
AcDbCircle
 10
224.327354927
 20
81.0841977469
 30
0.0
 40
9.58702492138626
100
AcDbArc
 50
276.8161817708
 51
293.3426337043
  0
ARC
  5
DE
330
1F
100
AcDbEntity
  8
0
  6
Continuous
 62
     7
370
    35
100
AcDbCircle
 10
217.0587375447
 20
85.8574670488
 30
0.0
 40
4.991295853394073
100
AcDbArc
 50
113.3426337043
 51
156.6573662957
  0
ARC
  5
DF
330
1F
100
AcDbEntity
  8
0
  6
Continuous
 62
     7
370
    35
100
AcDbCircle
 10
217.0587375447
 20
76.8646208203
 30
0.0
 40
4.991295853394073
100
AcDbArc
 50
203.3426337043
 51
246.6573662957
  0
ARC
  5
E0
330
1F
100
AcDbEntity
  8
0
  6
Continuous
 62
     7
370
    35
100
AcDbCircle
 10
226.1483151756
 20
85.8574670488
 30
0.0
 40
4.991295853394859
100
AcDbArc
 50
23.3426337043
 51
66.6573662957
  0
ARC
  5
E1
330
1F
100
AcDbEntity
  8
0
  6
Continuous
 62
     7
370
    35
100
AcDbCircle
 10
226.1483151756
 20
76.8646208203
 30
0.0
 40
4.991295853394864
100
AcDbArc
 50
293.3426337043
 51
336.6573662957
  0
ARC
  5
E2
330
1F
100
AcDbEntity
  8
0
  6
Continuous
 62
     7
370
    35
100
AcDbCircle
 10
221.2783144713
 20
84.0365068002
 30
0.0
 40
9.587024921387728
100
AcDbArc
 50
156.6573662957
 51
173.1838182293
  0
ARC
  5
E3
330
1F
100
AcDbEntity
  8
0
  6
Continuous
 62
     7
370
    35
100
AcDbCircle
 10
221.2783144713
 20
78.6855810689
 30
0.0
 40
9.587024921387728
100
AcDbArc
 50
186.8161817707
 51
203.3426337043
  0
ARC
  5
E4
330
1F
100
AcDbEntity
  8
0
  6
Continuous
 62
     7
370
    35
100
AcDbCircle
 10
221.928738249
 20
84.0365068002
 30
0.0
 40
9.587024921390432
100
AcDbArc
 50
6.8161817707
 51
23.3426337042
  0
ARC
  5
E5
330
1F
100
AcDbEntity
  8
0
  6
Continuous
 62
     7
370
    35
100
AcDbCircle
 10
221.928738249
 20
78.6855810689
 30
0.0
 40
9.587024921390432
100
AcDbArc
 50
336.6573662958
 51
353.1838182293
  0
ARC
  5
E6
330
1F
100
AcDbEntity
  8
0
  6
Continuous
 62
     7
370
    35
100
AcDbCircle
 10
240.4021509098
 20
81.7506493317
 30
0.0
 40
28.84699025082892
100
AcDbArc
 50
173.1838182293
 51
180.0
  0
ARC
  5
E7
330
1F
100
AcDbEntity
  8
0
  6
Continuous
 62
     7
370
    35
100
AcDbCircle
 10
240.4021509098
 20
80.9714385373
 30
0.0
 40
28.84699025082892
100
AcDbArc
 50
180.0
 51
186.8161817707
  0
ARC
  5
E8
330
1F
100
AcDbEntity
  8
0
  6
Continuous
 62
     7
370
    35
100
AcDbCircle
 10
254.611669205
 20
100.2080341854
 30
0.0
 40
28.8469902508564
100
AcDbArc
 50
270.0
 51
276.8161817707
  0
ARC
  5
E9
330
1F
100
AcDbEntity
  8
0
  6
Continuous
 62
     7
370
    35
100
AcDbCircle
 10
254.611669205
 20
62.5140536837
 30
0.0
 40
28.84699025085639
100
AcDbArc
 50
83.1838182293
 51
90.0
  0
ARC
  5
EA
330
1F
100
AcDbEntity
  8
0
  6
Continuous
 62
     7
370
    35
100
AcDbCircle
 10
241.0688238593
 20
100.2080341854
 30
0.0
 40
28.84699025085721
100
AcDbArc
 50
263.1838182293
 51
270.0
  0
ARC
  5
EB
330
1F
100
AcDbEntity
  8
0
  6
Continuous
 62
     7
370
    35
100
AcDbCircle
 10
241.0688238593
 20
62.5140536837
 30
0.0
 40
28.84699025085721
100
AcDbArc
 50
90.0
 51
96.8161817707
  0
LINE
  5
EC
330
1F
100
AcDbEntity
  8
0
  6
Continuous
 62
     7
370
    35
100
AcDbLine
 10
254.611669205
 20
91.3610439345
 30
0.0
 11
241.0688238593
 21
91.3610439345
 31
0.0
  0
LINE
  5
ED
330
1F
100
AcDbEntity
  8
0
  6
Continuous
 62
     7
370
    35
100
AcDbLine
 10
241.0688238593
 20
71.3610439345
 30
0.0
 11
254.611669205
 21
71.3610439345
 31
0.0
  0
ARC
  5
EE
330
1F
100
AcDbEntity
  8
0
  6
Continuous
 62
     7
370
    35
100
AcDbCircle
 10
238.7829663909
 20
81.6378901222
 30
0.0
 40
9.587024921378411
100
AcDbArc
 50
96.8161817707
 51
113.3426337043
  0
ARC
  5
EF
330
1F
100
AcDbEntity
  8
0
  6
Continuous
 62
     7
370
    35
100
AcDbCircle
 10
238.7829663909
 20
81.0841977469
 30
0.0
 40
9.587024921378411
100
AcDbArc
 50
246.6573662957
 51
263.1838182293
  0
ARC
  5
F0
330
1F
100
AcDbEntity
  8
0
  6
Continuous
 62
     7
370
    35
100
AcDbCircle
 10
256.8975266734
 20
81.6378901222
 30
0.0
 40
9.587024921379111
100
AcDbArc
 50
66.6573662957
 51
83.1838182293
  0
ARC
  5
F1
330
1F
100
AcDbEntity
  8
0
  6
Continuous
 62
     7
370
    35
100
AcDbCircle
 10
256.8975266734
 20
81.0841977469
 30
0.0
 40
9.58702492137912
100
AcDbArc
 50
276.8161817707
 51
293.3426337043
  0
ARC
  5
F2
330
1F
100
AcDbEntity
  8
0
  6
Continuous
 62
     7
370
    35
100
AcDbCircle
 10
236.9620061423
 20
85.8574670488
 30
0.0
 40
4.991295853394178
100
AcDbArc
 50
113.3426337043
 51
156.6573662957
  0
ARC
  5
F3
330
1F
100
AcDbEntity
  8
0
  6
Continuous
 62
     7
370
    35
100
AcDbCircle
 10
236.9620061423
 20
76.8646208203
 30
0.0
 40
4.991295853394173
100
AcDbArc
 50
203.3426337043
 51
246.6573662957
  0
ARC
  5
F4
330
1F
100
AcDbEntity
  8
0
  6
Continuous
 62
     7
370
    35
100
AcDbCircle
 10
258.718486922
 20
85.8574670488
 30
0.0
 40
4.991295853394159
100
AcDbArc
 50
29.6750409913
 51
66.6573662957
  0
ARC
  5
F5
330
1F
100
AcDbEntity
  8
0
  6
Continuous
 62
     7
370
    35
100
AcDbCircle
 10
258.718486922
 20
76.8646208203
 30
0.0
 40
4.991295853394166
100
AcDbArc
 50
293.3426337043
 51
330.3249590087
  0
ARC
  5
F6
330
1F
100
AcDbEntity
  8
0
  6
Continuous
 62
     7
370
    35
100
AcDbCircle
 10
241.1815830689
 20
84.0365068002
 30
0.0
 40
9.587024921378624
100
AcDbArc
 50
156.6573662957
 51
173.1838182293
  0
ARC
  5
F7
330
1F
100
AcDbEntity
  8
0
  6
Continuous
 62
     7
370
    35
100
AcDbCircle
 10
241.1815830689
 20
78.6855810689
 30
0.0
 40
9.587024921378624
100
AcDbArc
 50
186.8161817707
 51
203.3426337043
  0
LINE
  5
F8
330
1F
100
AcDbEntity
  8
0
  6
Continuous
 62
   144
370
    18
100
AcDbLine
 10
231.448002349
 20
77.5477507487
 30
0.0
 11
231.448002349
 21
85.1743371203
 31
0.0
  0
LINE
  5
F9
330
1F
100
AcDbEntity
  8
0
  6
Continuous
 62
     7
370
    35
100
AcDbLine
 10
211.5551606589
 20
81.7506493317
 30
0.0
 11
211.5551606589
 21
80.9714385373
 31
0.0
  0
SPLINE
  5
FA
330
1F
100
AcDbEntity
  8
0
  6
Continuous
 62
     7
370
    35
100
AcDbSpline
210
0.0
220
0.0
230
1.0
 70
     8
 71
     3
 72
    14
 73
    10
 74
     0
 42
0.00000001
 43
0.00000001
 40
0.0
 40
0.0
 40
0.0
 40
0.0
 40
0.2500000000000001
 40
0.2500000000000001
 40
0.5000000000000001
 40
0.5000000000000001
 40
0.75
 40
0.75
 40
1.0
 40
1.0
 40
1.0
 40
1.0
 10
254.6116692050423
 20
82.25894867348192
 30
0.0
 10
254.6749935399448
 20
82.11721267821812
 30
0.0
 10
254.722734287921
 20
81.97155798088863
 30
0.0
 10
254.7874710159478
 20
81.67248779829397
 30
0.0
 10
254.8044135454482
 20
81.51713544521715
 30
0.0
 10
254.804617600796
 20
81.20781661424405
 30
0.0
 10
254.7883467105452
 20
81.0551472049503
 30
0.0
 10
254.7237364810118
 20
80.75370102086217
 30
0.0
 10
254.6750161060543
 20
80.60492569953225
 30
0.0
 10
254.6116692050426
 20
80.46313919556671
 30
0.0
  0
CIRCLE
  5
FB
330
1F
100
AcDbEntity
  8
0
  6
Continuous
 62
     7
370
    35
100
AcDbCircle
 10
252.0551606589
 20
81.3610439345
 30
0.0
 40
2.0
  0
SPLINE
  5
FC
330
1F
100
AcDbEntity
  8
0
  6
Continuous
 62
     7
370
    35
100
AcDbSpline
210
0.0
220
0.0
230
1.0
 70
     8
 71
     3
 72
    58
 73
    54
 74
     0
 42
0.00000001
 43
0.00000001
 40
0.0
 40
0.0
 40
0.0
 40
0.0
 40
0.0312500000000002
 40
0.0312500000000002
 40
0.0625000000000003
 40
0.0625000000000003
 40
0.0937500000000005
 40
0.0937500000000005
 40
0.1250000000000006
 40
0.1250000000000006
 40
0.1562500000000008
 40
0.1562500000000008
 40
0.1875000000000009
 40
0.1875000000000009
 40
0.2187500000000011
 40
0.2187500000000011
 40
0.2500000000000012
 40
0.2500000000000012
 40
0.3125000000000012
 40
0.3125000000000012
 40
0.3750000000000012
 40
0.3750000000000012
 40
0.4062500000000011
 40
0.4062500000000011
 40
0.437500000000001
 40
0.437500000000001
 40
0.4687500000000009
 40
0.4687500000000009
 40
0.5000000000000009
 40
0.5000000000000009
 40
0.5312500000000008
 40
0.5312500000000008
 40
0.5625000000000008
 40
0.5625000000000008
 40
0.6250000000000004
 40
0.6250000000000004
 40
0.6875000000000002
 40
0.6875000000000002
 40
0.75
 40
0.75
 40
0.8124999999999998
 40
0.8124999999999998
 40
0.8437499999999998
 40
0.8437499999999998
 40
0.8749999999999998
 40
0.8749999999999998
 40
0.9062499999999999
 40
0.9062499999999999
 40
0.9374999999999999
 40
0.9374999999999999
 40
0.96875
 40
0.96875
 40
1.0
 40
1.0
 40
1.0
 40
1.0
 10
254.6116692050426
 20
80.46313919556671
 30
0.0
 10
254.5495050282815
 20
80.32399992980822
 30
0.0
 10
254.4747428933569
 20
80.19355645502533
 30
0.0
 10
254.3025703727613
 20
79.94814627544193
 30
0.0
 10
254.2042276027304
 20
79.8323447720124
 30
0.0
 10
253.9894157039552
 20
79.62028125015324
 30
0.0
 10
253.8739010351878
 20
79.5246018114122
 30
0.0
 10
253.6276522489802
 20
79.35240090722577
 30
0.0
 10
253.4958170297836
 20
79.27547940097963
 30
0.0
 10
253.2244558967306
 20
79.14457444874337
 30
0.0
 10
253.0845089292855
 20
79.09007730942533
 30
0.0
 10
252.7962849404148
 20
79.00223581979219
 30
0.0
 10
252.646776437837
 20
78.96880624221514
 30
0.0
 10
252.3475659788365
 20
78.92508056833084
 30
0.0
 10
252.1974293453202
 20
78.91445048692165
 30
0.0
 10
251.89610867796
 20
78.91527592550052
 30
0.0
 10
251.7437240598763
 20
78.92694240029466
 30
0.0
 10
251.2941075851477
 20
78.99559562248507
 30
0.0
 10
251.0069831354334
 20
79.08415129221275
 30
0.0
 10
250.4617901341216
 20
79.351263623765
 30
0.0
 10
250.2175105929641
 20
79.52270075976458
 30
0.0
 10
249.8967891561932
 20
79.8427136357617
 30
0.0
 10
249.7993383200801
 20
79.95880721281837
 30
0.0
 10
249.6291180044395
 20
80.20421617491724
 30
0.0
 10
249.5554396436094
 20
80.33437691028463
 30
0.0
 10
249.4332595621469
 20
80.61128201205725
 30
0.0
 10
249.3857398224044
 20
80.75687864732257
 30
0.0
 10
249.322360773744
 20
81.05069507941886
 30
0.0
 10
249.3057040674242
 20
81.2005481660788
 30
0.0
 10
249.3046431692661
 20
81.50658598721304
 30
0.0
 10
249.3203257770494
 20
81.65733894471241
 30
0.0
 10
249.3821484386584
 20
81.95278345662858
 30
0.0
 10
249.4291026951512
 20
82.09928368025768
 30
0.0
 10
249.6100071508452
 20
82.51533663688087
 30
0.0
 10
249.786260930114
 20
82.7678168933865
 30
0.0
 10
250.2102989934648
 20
83.19343267739379
 30
0.0
 10
250.4615715868398
 20
83.3703263661818
 30
0.0
 10
251.0012030573219
 20
83.63549116543332
 30
0.0
 10
251.2956474936011
 20
83.72668972850768
 30
0.0
 10
251.8913138538791
 20
83.81771897961347
 30
0.0
 10
252.2005941092692
 20
83.81861456982745
 30
0.0
 10
252.64738313568
 20
83.7531279161426
 30
0.0
 10
252.7944365559008
 20
83.72036786747688
 30
0.0
 10
253.0846525455287
 20
83.63201402217933
 30
0.0
 10
253.2265055956543
 20
83.57661479031847
 30
0.0
 10
253.4965929778099
 20
83.44614305447736
 30
0.0
 10
253.6259383302944
 20
83.3707652790471
 30
0.0
 10
253.8726818873005
 20
83.19845740248284
 30
0.0
 10
253.9903630062085
 20
83.10088675865957
 30
0.0
 10
254.2035490664551
 20
82.8903976106485
 30
0.0
 10
254.3003583233871
 20
82.77673152350845
 30
0.0
 10
254.4731117755541
 20
82.53121143699292
 30
0.0
 10
254.5493988290308
 20
82.39832564022011
 30
0.0
 10
254.6116692050423
 20
82.25894867348195
 30
0.0
  0
LINE
  5
FD
330
1F
100
AcDbEntity
  8
0
  6
Continuous
 62
     7
370
    35
100
AcDbLine
 10
263.0551606589
 20
88.3285589523
 30
0.0
 11
263.0551606589
 21
74.3935289168
 31
0.0
  0
LINE
  5
FE
330
1F
100
AcDbEntity
  8
0
  6
Continuous
 62
   144
370
    18
100
AcDbLine
 10
231.6623189689
 20
85.1743371203
 30
0.0
 11
231.6623189689
 21
77.5477507487
 31
0.0
  0
CIRCLE
  5
FF
330
1F
100
AcDbEntity
  8
0
  6
Continuous
 62
     7
370
    35
100
AcDbCircle
 10
323.5652835512
 20
161.1430792303
 30
0.0
 40
6.9675150177506
  0
CIRCLE
  5
100
330
1F
100
AcDbEntity
  8
0
  6
Continuous
 62
     7
370
    35
100
AcDbCircle
 10
323.5652835512
 20
161.1430792303
 30
0.0
 40
6.5
  0
ARC
  5
101
330
1F
100
AcDbEntity
  8
0
  6
Continuous
 62
     7
370
    35
100
AcDbCircle
 10
323.5652835512
 20
161.1430792303
 30
0.0
 40
9.999999999999973
100
AcDbArc
 50
275.1515533264
 51
264.8484466736
  0
SPLINE
  5
102
330
1F
100
AcDbEntity
  8
0
  6
Continuous
 62
     7
370
    35
100
AcDbSpline
210
0.0
220
0.0
230
1.0
 70
     8
 71
     3
 72
    14
 73
    10
 74
     0
 42
0.00000001
 43
0.00000001
 40
0.0
 40
0.0
 40
0.0
 40
0.0
 40
0.2500000000000001
 40
0.2500000000000001
 40
0.5000000000000001
 40
0.5000000000000001
 40
0.75
 40
0.75
 40
1.0
 40
1.0
 40
1.0
 40
1.0
 10
322.6673788122745
 20
151.183472456947
 30
0.0
 10
322.8091148075383
 20
151.170694299664
 30
0.0
 10
322.9547695048677
 20
151.1608066531574
 30
0.0
 10
323.2538396874624
 20
151.1473272137749
 30
0.0
 10
323.4091920405393
 20
151.1437454112464
 30
0.0
 10
323.7185108715123
 20
151.1437024751592
 30
0.0
 10
323.8711802808061
 20
151.1471435072291
 30
0.0
 10
324.1726264648942
 20
151.1605993079021
 30
0.0
 10
324.3214017862242
 20
151.1706897460702
 30
0.0
 10
324.4631882901897
 20
151.183472456947
 30
0.0
  0
CIRCLE
  5
103
330
1F
100
AcDbEntity
  8
0
  6
Continuous
 62
   144
370
    18
100
AcDbCircle
 10
323.5652835512
 20
161.1430792303
 30
0.0
 40
3.813293185803388
  0
LINE
  5
104
330
1F
100
AcDbEntity
  8
0
  6
Continuous
 62
     7
370
    35
100
AcDbLine
 10
96.8343317187
 20
151.1430792303
 30
0.0
 11
97.7102739155
 21
151.1430792303
 31
0.0
  0
LINE
  5
105
330
1F
100
AcDbEntity
  8
0
  6
Continuous
 62
     7
370
    35
100
AcDbLine
 10
97.7102739155
 20
171.1430792303
 30
0.0
 11
96.8343317187
 21
171.1430792303
 31
0.0
  0
ARC
  5
106
330
1F
100
AcDbEntity
  8
0
  6
Continuous
 62
     7
370
    35
100
AcDbCircle
 10
97.7102739155
 20
142.2960889795
 30
0.0
 40
28.84699025082909
100
AcDbArc
 50
83.1838182293
 51
90.0
  0
ARC
  5
107
330
1F
100
AcDbEntity
  8
0
  6
Continuous
 62
     7
370
    35
100
AcDbCircle
 10
97.7102739155
 20
179.9900694811
 30
0.0
 40
28.84699025082909
100
AcDbArc
 50
270.0
 51
276.8161817707
  0
ARC
  5
108
330
1F
100
AcDbEntity
  8
0
  6
Continuous
 62
     7
370
    35
100
AcDbCircle
 10
96.8343317187
 20
142.2960889795
 30
0.0
 40
28.84699025082818
100
AcDbArc
 50
90.0
 51
96.8161817707
  0
ARC
  5
109
330
1F
100
AcDbEntity
  8
0
  6
Continuous
 62
     7
370
    35
100
AcDbCircle
 10
96.8343317187
 20
179.9900694811
 30
0.0
 40
28.84699025082818
100
AcDbArc
 50
263.1838182293
 51
270.0
  0
ARC
  5
10A
330
1F
100
AcDbEntity
  8
0
  6
Continuous
 62
     7
370
    35
100
AcDbCircle
 10
99.9961313839
 20
160.8662330427
 30
0.0
 40
9.587024921386586
100
AcDbArc
 50
276.8161817707
 51
293.3426337043
  0
ARC
  5
10B
330
1F
100
AcDbEntity
  8
0
  6
Continuous
 62
     7
370
    35
100
AcDbCircle
 10
99.9961313839
 20
161.4199254179
 30
0.0
 40
9.58702492138661
100
AcDbArc
 50
66.6573662957
 51
83.1838182293
  0
ARC
  5
10C
330
1F
100
AcDbEntity
  8
0
  6
Continuous
 62
     7
370
    35
100
AcDbCircle
 10
94.5484742502
 20
160.8662330427
 30
0.0
 40
9.58702492138626
100
AcDbArc
 50
246.6573662957
 51
263.1838182292
  0
ARC
  5
10D
330
1F
100
AcDbEntity
  8
0
  6
Continuous
 62
     7
370
    35
100
AcDbCircle
 10
94.5484742502
 20
161.4199254179
 30
0.0
 40
9.587024921386256
100
AcDbArc
 50
96.8161817708
 51
113.3426337043
  0
ARC
  5
10E
330
1F
100
AcDbEntity
  8
0
  6
Continuous
 62
     7
370
    35
100
AcDbCircle
 10
101.8170916325
 20
156.6466561161
 30
0.0
 40
4.991295853394078
100
AcDbArc
 50
293.3426337043
 51
336.6573662957
  0
ARC
  5
10F
330
1F
100
AcDbEntity
  8
0
  6
Continuous
 62
     7
370
    35
100
AcDbCircle
 10
101.8170916325
 20
165.6395023445
 30
0.0
 40
4.991295853394078
100
AcDbArc
 50
23.3426337043
 51
66.6573662957
  0
ARC
  5
110
330
1F
100
AcDbEntity
  8
0
  6
Continuous
 62
     7
370
    35
100
AcDbCircle
 10
92.7275140016
 20
156.6466561161
 30
0.0
 40
4.991295853394859
100
AcDbArc
 50
203.3426337043
 51
246.6573662957
  0
ARC
  5
111
330
1F
100
AcDbEntity
  8
0
  6
Continuous
 62
     7
370
    35
100
AcDbCircle
 10
92.7275140016
 20
165.6395023445
 30
0.0
 40
4.991295853394859
100
AcDbArc
 50
113.3426337043
 51
156.6573662957
  0
ARC
  5
112
330
1F
100
AcDbEntity
  8
0
  6
Continuous
 62
     7
370
    35
100
AcDbCircle
 10
97.5975147059
 20
158.4676163646
 30
0.0
 40
9.587024921387744
100
AcDbArc
 50
336.6573662957
 51
353.1838182293
  0
ARC
  5
113
330
1F
100
AcDbEntity
  8
0
  6
Continuous
 62
     7
370
    35
100
AcDbCircle
 10
97.5975147059
 20
163.818542096
 30
0.0
 40
9.58702492138775
100
AcDbArc
 50
6.8161817707
 51
23.3426337043
  0
ARC
  5
114
330
1F
100
AcDbEntity
  8
0
  6
Continuous
 62
     7
370
    35
100
AcDbCircle
 10
96.9470909282
 20
158.4676163646
 30
0.0
 40
9.58702492139045
100
AcDbArc
 50
186.8161817707
 51
203.3426337042
  0
ARC
  5
115
330
1F
100
AcDbEntity
  8
0
  6
Continuous
 62
     7
370
    35
100
AcDbCircle
 10
96.9470909282
 20
163.818542096
 30
0.0
 40
9.58702492139045
100
AcDbArc
 50
156.6573662958
 51
173.1838182293
  0
ARC
  5
116
330
1F
100
AcDbEntity
  8
0
  6
Continuous
 62
     7
370
    35
100
AcDbCircle
 10
78.4736782674
 20
160.7534738331
 30
0.0
 40
28.84699025082892
100
AcDbArc
 50
353.1838182293
 51
0.0
  0
ARC
  5
117
330
1F
100
AcDbEntity
  8
0
  6
Continuous
 62
     7
370
    35
100
AcDbCircle
 10
78.4736782674
 20
161.5326846275
 30
0.0
 40
28.84699025082891
100
AcDbArc
 50
0.0
 51
6.8161817707
  0
ARC
  5
118
330
1F
100
AcDbEntity
  8
0
  6
Continuous
 62
     7
370
    35
100
AcDbCircle
 10
64.2641599722
 20
142.2960889794
 30
0.0
 40
28.84699025085641
100
AcDbArc
 50
90.0
 51
96.8161817707
  0
ARC
  5
119
330
1F
100
AcDbEntity
  8
0
  6
Continuous
 62
     7
370
    35
100
AcDbCircle
 10
64.2641599722
 20
179.9900694812
 30
0.0
 40
28.84699025085642
100
AcDbArc
 50
263.1838182293
 51
269.6297633403
  0
LINE
  5
11A
330
1F
100
AcDbEntity
  8
0
  6
Continuous
 62
     7
370
    35
100
AcDbLine
 10
69.5702208785
 20
151.1430792303
 30
0.0
 11
77.8070053179
 21
151.1430792303
 31
0.0
  0
LINE
  5
11B
330
1F
100
AcDbEntity
  8
0
  6
Continuous
 62
     7
370
    35
100
AcDbLine
 10
77.8070053179
 20
171.1430792303
 30
0.0
 11
64.2641599722
 21
171.1430792303
 31
0.0
  0
ARC
  5
11C
330
1F
100
AcDbEntity
  8
0
  6
Continuous
 62
     7
370
    35
100
AcDbCircle
 10
77.8070053179
 20
142.2960889794
 30
0.0
 40
28.84699025085723
100
AcDbArc
 50
83.1838182293
 51
90.0
  0
ARC
  5
11D
330
1F
100
AcDbEntity
  8
0
  6
Continuous
 62
     7
370
    35
100
AcDbCircle
 10
77.8070053179
 20
179.9900694812
 30
0.0
 40
28.8469902508572
100
AcDbArc
 50
270.0
 51
276.8161817707
  0
ARC
  5
11E
330
1F
100
AcDbEntity
  8
0
  6
Continuous
 62
     7
370
    35
100
AcDbCircle
 10
61.9783025038
 20
160.8662330427
 30
0.0
 40
9.587024921379134
100
AcDbArc
 50
246.6573662957
 51
263.1838182293
  0
ARC
  5
11F
330
1F
100
AcDbEntity
  8
0
  6
Continuous
 62
     7
370
    35
100
AcDbCircle
 10
61.9783025038
 20
161.4199254179
 30
0.0
 40
9.587024921379127
100
AcDbArc
 50
96.8161817707
 51
113.3426337043
  0
ARC
  5
120
330
1F
100
AcDbEntity
  8
0
  6
Continuous
 62
     7
370
    35
100
AcDbCircle
 10
80.0928627864
 20
160.8662330427
 30
0.0
 40
9.587024921378413
100
AcDbArc
 50
276.8161817707
 51
293.3426337043
  0
ARC
  5
121
330
1F
100
AcDbEntity
  8
0
  6
Continuous
 62
     7
370
    35
100
AcDbCircle
 10
80.0928627864
 20
161.4199254179
 30
0.0
 40
9.587024921378433
100
AcDbArc
 50
66.6573662957
 51
83.1838182293
  0
ARC
  5
122
330
1F
100
AcDbEntity
  8
0
  6
Continuous
 62
     7
370
    35
100
AcDbCircle
 10
60.1573422552
 20
156.6466561161
 30
0.0
 40
4.991295853394155
100
AcDbArc
 50
209.6750409913
 51
246.6573662957
  0
ARC
  5
123
330
1F
100
AcDbEntity
  8
0
  6
Continuous
 62
     7
370
    35
100
AcDbCircle
 10
60.1573422552
 20
165.6395023445
 30
0.0
 40
4.991295853394147
100
AcDbArc
 50
113.3426337043
 51
150.3249590087
  0
ARC
  5
124
330
1F
100
AcDbEntity
  8
0
  6
Continuous
 62
     7
370
    35
100
AcDbCircle
 10
81.9138230349
 20
156.6466561161
 30
0.0
 40
4.991295853394164
100
AcDbArc
 50
293.3426337043
 51
336.6573662957
  0
ARC
  5
125
330
1F
100
AcDbEntity
  8
0
  6
Continuous
 62
     7
370
    35
100
AcDbCircle
 10
81.9138230349
 20
165.6395023445
 30
0.0
 40
4.991295853394147
100
AcDbArc
 50
23.3426337043
 51
66.6573662957
  0
ARC
  5
126
330
1F
100
AcDbEntity
  8
0
  6
Continuous
 62
     7
370
    35
100
AcDbCircle
 10
77.6942461083
 20
158.4676163646
 30
0.0
 40
9.587024921378624
100
AcDbArc
 50
336.6573662957
 51
353.1838182293
  0
ARC
  5
127
330
1F
100
AcDbEntity
  8
0
  6
Continuous
 62
     7
370
    35
100
AcDbCircle
 10
77.6942461083
 20
163.818542096
 30
0.0
 40
9.587024921378624
100
AcDbArc
 50
6.8161817707
 51
23.3426337043
  0
LINE
  5
128
330
1F
100
AcDbEntity
  8
0
  6
Continuous
 62
   144
370
    18
100
AcDbLine
 10
87.4278268282
 20
164.9563724161
 30
0.0
 11
87.4278268282
 21
157.3297860445
 31
0.0
  0
LINE
  5
129
330
1F
100
AcDbEntity
  8
0
  6
Continuous
 62
     7
370
    35
100
AcDbLine
 10
107.3206685183
 20
160.75347388
 30
0.0
 11
107.3206685183
 21
161.5326846275
 31
0.0
  0
SPLINE
  5
12A
330
1F
100
AcDbEntity
  8
0
  6
Continuous
 62
     7
370
    35
100
AcDbSpline
210
0.0
220
0.0
230
1.0
 70
     8
 71
     3
 72
    10
 73
     6
 74
     0
 42
0.00000001
 43
0.00000001
 40
0.0
 40
0.0
 40
0.0
 40
0.0
 40
0.2665523589323067
 40
0.668437720937339
 40
1.0
 40
1.0
 40
1.0
 40
1.0
 10
64.07781159969983
 20
151.1450896908853
 30
0.0
 10
64.07806890229855
 20
151.1451422665845
 30
0.0
 10
64.07871414424416
 20
151.1452741115272
 30
0.0
 10
64.14342301459635
 20
151.1589012196027
 30
0.0
 10
64.22657175816117
 20
151.1758228611079
 30
0.0
 10
64.2641599721984
 20
151.1834724569465
 30
0.0
  0
SPLINE
  5
12B
330
1F
100
AcDbEntity
  8
0
  6
Continuous
 62
     7
370
    35
100
AcDbSpline
210
0.0
220
0.0
230
1.0
 70
     8
 71
     3
 72
    23
 73
    19
 74
     0
 42
0.00000001
 43
0.00000001
 40
0.0
 40
0.0
 40
0.0
 40
0.0
 40
0.0548825134267255
 40
0.111350225223609
 40
0.1668684726519291
 40
0.2236663211401507
 40
0.286028552065336
 40
0.3499710050414557
 40
0.416633930526052
 40
0.4851566412817791
 40
0.5530614772755161
 40
0.6229664209367093
 40
0.6901960325873505
 40
0.7596123517701944
 40
0.8227155041176609
 40
0.8881881799922454
 40
0.9434092639245089
 40
0.9999999999999999
 40
0.9999999999999999
 40
0.9999999999999999
 40
0.9999999999999999
 10
64.2641599721984
 20
151.1834724569465
 30
0.0
 10
64.32423827270664
 20
151.1954153448916
 30
0.0
 10
64.4461301445426
 20
151.2196460730321
 30
0.0
 10
64.70115367147456
 20
151.2656042142245
 30
0.0
 10
65.00095271106986
 20
151.3133365066417
 30
0.0
 10
65.35157185153255
 20
151.3605080997766
 30
0.0
 10
65.75257057336326
 20
151.4025622253833
 30
0.0
 10
66.20172765964115
 20
151.4340880389541
 30
0.0
 10
66.68148402099905
 20
151.4494236702828
 30
0.0
 10
67.17475698131489
 20
151.445074198473
 30
0.0
 10
67.66590143757315
 20
151.4206930480765
 30
0.0
 10
68.13022635873226
 20
151.3793391746339
 30
0.0
 10
68.55960834351187
 20
151.3257117654645
 30
0.0
 10
68.92391899110044
 20
151.2687495752332
 30
0.0
 10
69.22110916128533
 20
151.2148541894558
 30
0.0
 10
69.4238224529851
 20
151.1742824133975
 30
0.0
 10
69.54819092364107
 20
151.1479595267971
 30
0.0
 10
69.56281783553789
 20
151.1447829231805
 30
0.0
 10
69.57022087853186
 20
151.1431751652809
 30
0.0
  0
LINE
  5
12C
330
1F
100
AcDbEntity
  8
0
  6
Continuous
 62
     7
370
    35
100
AcDbLine
 10
55.8206685183
 20
154.1755642125
 30
0.0
 11
55.8206685183
 21
168.110594248
 31
0.0
  0
LINE
  5
12D
330
1F
100
AcDbEntity
  8
0
  6
Continuous
 62
   144
370
    18
100
AcDbLine
 10
87.2135102083
 20
157.3297860445
 30
0.0
 11
87.2135102083
 21
164.9563724161
 31
0.0
  0
ENDSEC
  0
SECTION
  2
OBJECTS
  0
DICTIONARY
  5
C
330
0
100
AcDbDictionary
281
     1
  3
ACAD_GROUP
350
D
  3
ACAD_LAYOUT
350
1A
  3
ACAD_MLINESTYLE
350
17
  3
ACAD_PLOTSETTINGS
350
19
  3
ACAD_PLOTSTYLENAME
350
E
  3
ACAD_SCALELIST
350
47
  3
DWGPROPS
350
12E
  0
DICTIONARY
  5
D
102
{ACAD_REACTORS
330
C
102
}
330
C
100
AcDbDictionary
281
     1
  0
DICTIONARY
  5
1A
102
{ACAD_REACTORS
330
C
102
}
330
C
100
AcDbDictionary
281
     1
  3
Layout1
350
1E
  3
Layout2
350
26
  3
Model
350
22
  0
DICTIONARY
  5
17
102
{ACAD_REACTORS
330
C
102
}
330
C
100
AcDbDictionary
281
     1
  3
Standard
350
18
  0
DICTIONARY
  5
19
102
{ACAD_REACTORS
330
C
102
}
330
C
100
AcDbDictionary
281
     1
  0
ACDBDICTIONARYWDFLT
  5
E
102
{ACAD_REACTORS
330
C
102
}
330
C
100
AcDbDictionary
281
     1
  3
Normal
350
F
100
AcDbDictionaryWithDefault
340
F
  0
DICTIONARY
  5
47
102
{ACAD_REACTORS
330
C
102
}
330
C
100
AcDbDictionary
281
     1
  3
A0
350
48
  3
A1
350
49
  3
A2
350
4A
  3
A3
350
4B
  3
A4
350
4C
  3
A5
350
4D
  3
A6
350
4E
  3
A7
350
4F
  3
A8
350
50
  3
A9
350
51
  3
B0
350
52
  3
B1
350
53
  3
B2
350
54
  3
B3
350
55
  3
B4
350
56
  3
B5
350
57
  3
B6
350
58
  3
B7
350
59
  3
B8
350
5A
  3
B9
350
5B
  3
C0
350
5C
  3
C1
350
5D
  3
C2
350
5E
  3
C3
350
5F
  3
C4
350
60
  3
C5
350
61
  3
C6
350
62
  3
C7
350
63
  3
C8
350
64
  3
C9
350
65
  3
D0
350
66
  3
D1
350
67
  3
D2
350
68
  0
XRECORD
  5
12E
102
{ACAD_REACTORS
330
C
102
}
330
C
100
AcDbXrecord
280
     1
  1
DWGPROPS COOKIE
  2

  3

  4

  6

  7

  8
y_harada
  9

300
=
301
=
302
=
303
=
304
=
305
=
306
=
307
=
308
=
309
=
 40
0.0
 41
2459317.118347025
 42
2459317.118347917
  1

 90
        0
  0
LAYOUT
  5
1E
102
{ACAD_REACTORS
330
1A
102
}
330
1A
100
AcDbPlotSettings
  1

  2
none_device
  4

  6

 40
0.0
 41
0.0
 42
0.0
 43
0.0
 44
0.0
 45
0.0
 46
0.0
 47
0.0
 48
0.0
 49
0.0
140
0.0
141
0.0
142
1.0
143
1.0
 70
   688
 72
     1
 73
     0
 74
     5
  7

 75
    16
147
1.0
148
0.0
149
0.0
100
AcDbLayout
  1
Layout1
 70
     1
 71
     1
 10
0.0
 20
0.0
 11
420.0
 21
297.0
 12
0.0
 22
0.0
 32
0.0
 14
1.0000000000E+20
 24
1.0000000000E+20
 34
1.0000000000E+20
 15
-1.0000000000E+20
 25
-1.0000000000E+20
 35
-1.0000000000E+20
146
0.0
 13
0.0
 23
0.0
 33
0.0
 16
1.0
 26
0.0
 36
0.0
 17
0.0
 27
1.0
 37
0.0
 76
     0
330
1B
  0
LAYOUT
  5
26
102
{ACAD_REACTORS
330
1A
102
}
330
1A
100
AcDbPlotSettings
  1

  2
none_device
  4

  6

 40
0.0
 41
0.0
 42
0.0
 43
0.0
 44
0.0
 45
0.0
 46
0.0
 47
0.0
 48
0.0
 49
0.0
140
0.0
141
0.0
142
1.0
143
1.0
 70
   688
 72
     1
 73
     0
 74
     5
  7

 75
    16
147
1.0
148
0.0
149
0.0
100
AcDbLayout
  1
Layout2
 70
     1
 71
     2
 10
0.0
 20
0.0
 11
0.0
 21
0.0
 12
0.0
 22
0.0
 32
0.0
 14
0.0
 24
0.0
 34
0.0
 15
0.0
 25
0.0
 35
0.0
146
0.0
 13
0.0
 23
0.0
 33
0.0
 16
1.0
 26
0.0
 36
0.0
 17
0.0
 27
1.0
 37
0.0
 76
     0
330
23
  0
LAYOUT
  5
22
102
{ACAD_REACTORS
330
1A
102
}
330
1A
100
AcDbPlotSettings
  1

  2
none_device
  4
Letter_(8.50_x_11.00_Inches)
  6

 40
6.35
 41
6.35
 42
6.35000508
 43
6.35000508
 44
215.9
 45
279.4
 46
0.0
 47
0.0
 48
0.0
 49
0.0
140
0.0
141
0.0
142
1.0
143
1.0
 70
  1712
 72
     1
 73
     0
 74
     0
  7

 75
     0
147
1.0
148
0.0
149
0.0
100
AcDbLayout
  1
Model
 70
     1
 71
     0
 10
0.0
 20
0.0
 11
420.0
 21
297.0
 12
0.0
 22
0.0
 32
0.0
 14
0.0
 24
0.0
 34
0.0
 15
420.0
 25
297.0
 35
0.0
146
0.0
 13
0.0
 23
0.0
 33
0.0
 16
1.0
 26
0.0
 36
0.0
 17
0.0
 27
1.0
 37
0.0
 76
     0
330
1F
331
29
  0
MLINESTYLE
  5
18
102
{ACAD_REACTORS
330
17
102
}
330
17
100
AcDbMlineStyle
  2
Standard
 70
     0
  3

 62
   256
 51
90.0
 52
90.0
 71
     2
 49
0.5
 62
   256
  6
BYLAYER
 49
-0.5
 62
   256
  6
BYLAYER
  0
ACDBPLACEHOLDER
  5
F
102
{ACAD_REACTORS
330
E
102
}
330
E
  0
SCALE
  5
48
102
{ACAD_REACTORS
330
47
102
}
330
47
100
AcDbScale
 70
     0
300
1:1
140
1.0
141
1.0
290
     1
  0
SCALE
  5
49
102
{ACAD_REACTORS
330
47
102
}
330
47
100
AcDbScale
 70
     0
300
1:2
140
1.0
141
2.0
290
     0
  0
SCALE
  5
4A
102
{ACAD_REACTORS
330
47
102
}
330
47
100
AcDbScale
 70
     0
300
1:4
140
1.0
141
4.0
290
     0
  0
SCALE
  5
4B
102
{ACAD_REACTORS
330
47
102
}
330
47
100
AcDbScale
 70
     0
300
1:5
140
1.0
141
5.0
290
     0
  0
SCALE
  5
4C
102
{ACAD_REACTORS
330
47
102
}
330
47
100
AcDbScale
 70
     0
300
1:8
140
1.0
141
8.0
290
     0
  0
SCALE
  5
4D
102
{ACAD_REACTORS
330
47
102
}
330
47
100
AcDbScale
 70
     0
300
1:10
140
1.0
141
10.0
290
     0
  0
SCALE
  5
4E
102
{ACAD_REACTORS
330
47
102
}
330
47
100
AcDbScale
 70
     0
300
1:16
140
1.0
141
16.0
290
     0
  0
SCALE
  5
4F
102
{ACAD_REACTORS
330
47
102
}
330
47
100
AcDbScale
 70
     0
300
1:20
140
1.0
141
20.0
290
     0
  0
SCALE
  5
50
102
{ACAD_REACTORS
330
47
102
}
330
47
100
AcDbScale
 70
     0
300
1:30
140
1.0
141
30.0
290
     0
  0
SCALE
  5
51
102
{ACAD_REACTORS
330
47
102
}
330
47
100
AcDbScale
 70
     0
300
1:40
140
1.0
141
40.0
290
     0
  0
SCALE
  5
52
102
{ACAD_REACTORS
330
47
102
}
330
47
100
AcDbScale
 70
     0
300
1:50
140
1.0
141
50.0
290
     0
  0
SCALE
  5
53
102
{ACAD_REACTORS
330
47
102
}
330
47
100
AcDbScale
 70
     0
300
1:100
140
1.0
141
100.0
290
     0
  0
SCALE
  5
54
102
{ACAD_REACTORS
330
47
102
}
330
47
100
AcDbScale
 70
     0
300
2:1
140
2.0
141
1.0
290
     0
  0
SCALE
  5
55
102
{ACAD_REACTORS
330
47
102
}
330
47
100
AcDbScale
 70
     0
300
4:1
140
4.0
141
1.0
290
     0
  0
SCALE
  5
56
102
{ACAD_REACTORS
330
47
102
}
330
47
100
AcDbScale
 70
     0
300
8:1
140
8.0
141
1.0
290
     0
  0
SCALE
  5
57
102
{ACAD_REACTORS
330
47
102
}
330
47
100
AcDbScale
 70
     0
300
10:1
140
10.0
141
1.0
290
     0
  0
SCALE
  5
58
102
{ACAD_REACTORS
330
47
102
}
330
47
100
AcDbScale
 70
     0
300
100:1
140
100.0
141
1.0
290
     0
  0
SCALE
  5
59
102
{ACAD_REACTORS
330
47
102
}
330
47
100
AcDbScale
 70
     0
300
1/128" = 1'-0"
140
0.0078125
141
12.0
290
     0
  0
SCALE
  5
5A
102
{ACAD_REACTORS
330
47
102
}
330
47
100
AcDbScale
 70
     0
300
1/64" = 1'-0"
140
0.015625
141
12.0
290
     0
  0
SCALE
  5
5B
102
{ACAD_REACTORS
330
47
102
}
330
47
100
AcDbScale
 70
     0
300
1/32" = 1'-0"
140
0.03125
141
12.0
290
     0
  0
SCALE
  5
5C
102
{ACAD_REACTORS
330
47
102
}
330
47
100
AcDbScale
 70
     0
300
1/16" = 1'-0"
140
0.0625
141
12.0
290
     0
  0
SCALE
  5
5D
102
{ACAD_REACTORS
330
47
102
}
330
47
100
AcDbScale
 70
     0
300
3/32" = 1'-0"
140
0.09375
141
12.0
290
     0
  0
SCALE
  5
5E
102
{ACAD_REACTORS
330
47
102
}
330
47
100
AcDbScale
 70
     0
300
1/8" = 1'-0"
140
0.125
141
12.0
290
     0
  0
SCALE
  5
5F
102
{ACAD_REACTORS
330
47
102
}
330
47
100
AcDbScale
 70
     0
300
3/16" = 1'-0"
140
0.1875
141
12.0
290
     0
  0
SCALE
  5
60
102
{ACAD_REACTORS
330
47
102
}
330
47
100
AcDbScale
 70
     0
300
1/4" = 1'-0"
140
0.25
141
12.0
290
     0
  0
SCALE
  5
61
102
{ACAD_REACTORS
330
47
102
}
330
47
100
AcDbScale
 70
     0
300
3/8" = 1'-0"
140
0.375
141
12.0
290
     0
  0
SCALE
  5
62
102
{ACAD_REACTORS
330
47
102
}
330
47
100
AcDbScale
 70
     0
300
1/2" = 1'-0"
140
0.5
141
12.0
290
     0
  0
SCALE
  5
63
102
{ACAD_REACTORS
330
47
102
}
330
47
100
AcDbScale
 70
     0
300
3/4" = 1'-0"
140
0.75
141
12.0
290
     0
  0
SCALE
  5
64
102
{ACAD_REACTORS
330
47
102
}
330
47
100
AcDbScale
 70
     0
300
1" = 1'-0"
140
1.0
141
12.0
290
     0
  0
SCALE
  5
65
102
{ACAD_REACTORS
330
47
102
}
330
47
100
AcDbScale
 70
     0
300
1-1/2" = 1'-0"
140
1.5
141
12.0
290
     0
  0
SCALE
  5
66
102
{ACAD_REACTORS
330
47
102
}
330
47
100
AcDbScale
 70
     0
300
3" = 1'-0"
140
3.0
141
12.0
290
     0
  0
SCALE
  5
67
102
{ACAD_REACTORS
330
47
102
}
330
47
100
AcDbScale
 70
     0
300
6" = 1'-0"
140
6.0
141
12.0
290
     0
  0
SCALE
  5
68
102
{ACAD_REACTORS
330
47
102
}
330
47
100
AcDbScale
 70
     0
300
1'-0" = 1'-0"
140
12.0
141
12.0
290
     0
  0
ENDSEC
  0
EOF
