  0
SECTION
  2
HEADER
  9
$ACADVER
  1
AC1015
  9
$ACADMAINTVER
 70
     6
  9
$DWGCODEPAGE
  3
DOS932
  9
$INSBASE
 10
0.0
 20
0.0
 30
0.0
  9
$EXTMIN
 10
0.0
 20
0.0
 30
0.0
  9
$EXTMAX
 10
420.0
 20
297.0
 30
0.0
  9
$LIMMIN
 10
0.0
 20
0.0
  9
$LIMMAX
 10
420.0
 20
297.0
  9
$ORTHOMODE
 70
     0
  9
$REGENMODE
 70
     1
  9
$FILLMODE
 70
     1
  9
$QTEXTMODE
 70
     0
  9
$MIRRTEXT
 70
     1
  9
$LTSCALE
 40
1.0
  9
$ATTMODE
 70
     1
  9
$TEXTSIZE
 40
3.8805555556
  9
$TRACEWID
 40
1.0
  9
$TEXTSTYLE
  7
Standard
  9
$CLAYER
  8
0
  9
$CELTYPE
  6
ByLayer
  9
$CECOLOR
 62
   256
  9
$CELTSCALE
 40
1.0
  9
$DISPSILH
 70
     0
  9
$DIMSCALE
 40
1.0
  9
$DIMASZ
 40
3.0
  9
$DIMEXO
 40
0.0
  9
$DIMDLI
 40
3.75
  9
$DIMRND
 40
0.0
  9
$DIMDLE
 40
0.0
  9
$DIMEXE
 40
1.0
  9
$DIMTP
 40
0.0
  9
$DIMTM
 40
0.0
  9
$DIMTXT
 40
3.5277777778
  9
$DIMCEN
 40
2.5
  9
$DIMTSZ
 40
0.0
  9
$DIMTOL
 70
     0
  9
$DIMLIM
 70
     0
  9
$DIMTIH
 70
     1
  9
$DIMTOH
 70
     1
  9
$DIMSE1
 70
     0
  9
$DIMSE2
 70
     0
  9
$DIMTAD
 70
     1
  9
$DIMZIN
 70
     0
  9
$DIMBLK
  1

  9
$DIMASO
 70
     1
  9
$DIMSHO
 70
     1
  9
$DIMPOST
  1

  9
$DIMAPOST
  1

  9
$DIMALT
 70
     0
  9
$DIMALTD
 70
     3
  9
$DIMALTF
 40
0.0393700787
  9
$DIMLFAC
 40
1.0
  9
$DIMTOFL
 70
     1
  9
$DIMTVP
 40
0.0
  9
$DIMTIX
 70
     0
  9
$DIMSOXD
 70
     0
  9
$DIMSAH
 70
     0
  9
$DIMBLK1
  1

  9
$DIMBLK2
  1

  9
$DIMSTYLE
  2
ISO-25
  9
$DIMCLRD
 70
     0
  9
$DIMCLRE
 70
     0
  9
$DIMCLRT
 70
     0
  9
$DIMTFAC
 40
1.0
  9
$DIMGAP
 40
1.0
  9
$DIMJUST
 70
     0
  9
$DIMSD1
 70
     0
  9
$DIMSD2
 70
     0
  9
$DIMTOLJ
 70
     0
  9
$DIMTZIN
 70
     0
  9
$DIMALTZ
 70
     0
  9
$DIMALTTZ
 70
     0
  9
$DIMUPT
 70
     0
  9
$DIMDEC
 70
     2
  9
$DIMTDEC
 70
     2
  9
$DIMALTU
 70
     2
  9
$DIMALTTD
 70
     3
  9
$DIMTXSTY
  7
Standard
  9
$DIMAUNIT
 70
     0
  9
$DIMADEC
 70
     2
  9
$DIMALTRND
 40
0.0
  9
$DIMAZIN
 70
     0
  9
$DIMDSEP
 70
    44
  9
$DIMATFIT
 70
     3
  9
$DIMFRAC
 70
     0
  9
$DIMLDRBLK
  1

  9
$DIMLUNIT
 70
     2
  9
$DIMLWD
 70
    -2
  9
$DIMLWE
 70
    -2
  9
$DIMTMOVE
 70
     0
  9
$LUNITS
 70
     2
  9
$LUPREC
 70
     2
  9
$SKETCHINC
 40
1.0
  9
$FILLETRAD
 40
10.0
  9
$AUNITS
 70
     0
  9
$AUPREC
 70
     2
  9
$MENU
  1
.
  9
$ELEVATION
 40
0.0
  9
$PELEVATION
 40
0.0
  9
$THICKNESS
 40
0.0
  9
$LIMCHECK
 70
     0
  9
$CHAMFERA
 40
0.0
  9
$CHAMFERB
 40
0.0
  9
$CHAMFERC
 40
0.0
  9
$CHAMFERD
 40
0.0
  9
$SKPOLY
 70
     0
  9
$TDCREATE
 40
2459317.54549963
  9
$TDUCREATE
 40
2459317.17049963
  9
$TDUPDATE
 40
2459317.545500996
  9
$TDUUPDATE
 40
2459317.170500996
  9
$TDINDWG
 40
0.0000000116
  9
$TDUSRTIMER
 40
0.0000000116
  9
$USRTIMER
 70
     1
  9
$ANGBASE
 50
0.0
  9
$ANGDIR
 70
     0
  9
$PDMODE
 70
     0
  9
$PDSIZE
 40
-1.0
  9
$PLINEWID
 40
0.0
  9
$SPLFRAME
 70
     0
  9
$SPLINETYPE
 70
     6
  9
$SPLINESEGS
 70
     8
  9
$HANDSEED
  5
1F5
  9
$SURFTAB1
 70
     6
  9
$SURFTAB2
 70
     6
  9
$SURFTYPE
 70
     6
  9
$SURFU
 70
     6
  9
$SURFV
 70
     6
  9
$UCSBASE
  2

  9
$UCSNAME
  2

  9
$UCSORG
 10
0.0
 20
0.0
 30
0.0
  9
$UCSXDIR
 10
1.0
 20
0.0
 30
0.0
  9
$UCSYDIR
 10
0.0
 20
1.0
 30
0.0
  9
$UCSORTHOREF
  2

  9
$UCSORTHOVIEW
 70
     0
  9
$UCSORGTOP
 10
0.0
 20
0.0
 30
0.0
  9
$UCSORGBOTTOM
 10
0.0
 20
0.0
 30
0.0
  9
$UCSORGLEFT
 10
0.0
 20
0.0
 30
0.0
  9
$UCSORGRIGHT
 10
0.0
 20
0.0
 30
0.0
  9
$UCSORGFRONT
 10
0.0
 20
0.0
 30
0.0
  9
$UCSORGBACK
 10
0.0
 20
0.0
 30
0.0
  9
$PUCSBASE
  2

  9
$PUCSNAME
  2

  9
$PUCSORG
 10
0.0
 20
0.0
 30
0.0
  9
$PUCSXDIR
 10
1.0
 20
0.0
 30
0.0
  9
$PUCSYDIR
 10
0.0
 20
1.0
 30
0.0
  9
$PUCSORTHOREF
  2

  9
$PUCSORTHOVIEW
 70
     0
  9
$PUCSORGTOP
 10
0.0
 20
0.0
 30
0.0
  9
$PUCSORGBOTTOM
 10
0.0
 20
0.0
 30
0.0
  9
$PUCSORGLEFT
 10
0.0
 20
0.0
 30
0.0
  9
$PUCSORGRIGHT
 10
0.0
 20
0.0
 30
0.0
  9
$PUCSORGFRONT
 10
0.0
 20
0.0
 30
0.0
  9
$PUCSORGBACK
 10
0.0
 20
0.0
 30
0.0
  9
$USERI1
 70
     0
  9
$USERI2
 70
     0
  9
$USERI3
 70
     0
  9
$USERI4
 70
     0
  9
$USERI5
 70
     0
  9
$USERR1
 40
0.0
  9
$USERR2
 40
0.0
  9
$USERR3
 40
0.0
  9
$USERR4
 40
0.0
  9
$USERR5
 40
0.0
  9
$WORLDVIEW
 70
     1
  9
$SHADEDGE
 70
     3
  9
$SHADEDIF
 70
    70
  9
$TILEMODE
 70
     1
  9
$MAXACTVP
 70
    64
  9
$PINSBASE
 10
0.0
 20
0.0
 30
0.0
  9
$PLIMCHECK
 70
     0
  9
$PEXTMIN
 10
1.0000000000E+20
 20
1.0000000000E+20
 30
1.0000000000E+20
  9
$PEXTMAX
 10
-1.0000000000E+20
 20
-1.0000000000E+20
 30
-1.0000000000E+20
  9
$PLIMMIN
 10
0.0
 20
0.0
  9
$PLIMMAX
 10
420.0
 20
297.0
  9
$UNITMODE
 70
     0
  9
$VISRETAIN
 70
     1
  9
$PLINEGEN
 70
     0
  9
$PSLTSCALE
 70
     1
  9
$TREEDEPTH
 70
  3020
  9
$CMLSTYLE
  2
Standard
  9
$CMLJUST
 70
     0
  9
$CMLSCALE
 40
20.0
  9
$PROXYGRAPHICS
 70
     1
  9
$MEASUREMENT
 70
     1
  9
$CELWEIGHT
370
    -1
  9
$ENDCAPS
280
     0
  9
$JOINSTYLE
280
     0
  9
$LWDISPLAY
290
     1
  9
$INSUNITS
 70
     4
  9
$HYPERLINKBASE
  1

  9
$STYLESHEET
  1

  9
$XEDIT
290
     1
  9
$CEPSNTYPE
380
     0
  9
$PSTYLEMODE
290
     1
  9
$FINGERPRINTGUID
  2
{56599cc2-cd99-4e5b-9a2f-5b0567a960b2}
  9
$VERSIONGUID
  2
{FAEB1C32-E019-11D5-929B-00C0DF256EC4}
  9
$EXTNAMES
290
     1
  9
$PSVPSCALE
 40
0.0
  9
$OLESTARTUP
290
     0
  0
ENDSEC
  0
SECTION
  2
CLASSES
  0
CLASS
  1
ACDBDICTIONARYWDFLT
  2
AcDbDictionaryWithDefault
  3
ObjectDBX Classes
 90
        0
280
     0
281
     0
  0
CLASS
  1
VISUALSTYLE
  2
AcDbVisualStyle
  3
ObjectDBX Classes
 90
     4095
280
     0
281
     0
  0
CLASS
  1
MATERIAL
  2
AcDbMaterial
  3
ObjectDBX Classes
 90
     1153
280
     0
281
     0
  0
CLASS
  1
SCALE
  2
AcDbScale
  3
ObjectDBX Classes
 90
     1153
280
     0
281
     0
  0
CLASS
  1
TABLESTYLE
  2
AcDbTableStyle
  3
ObjectDBX Classes
 90
     4095
280
     0
281
     0
  0
CLASS
  1
MLEADERSTYLE
  2
AcDbMLeaderStyle
  3
ACDB_MLEADERSTYLE_CLASS
 90
     4095
280
     0
281
     0
  0
CLASS
  1
SUN
  2
AcDbSun
  3
SCENEOE
 90
     1153
280
     0
281
     0
  0
CLASS
  1
ACDBPLACEHOLDER
  2
AcDbPlaceHolder
  3
ObjectDBX Classes
 90
        0
280
     0
281
     0
  0
CLASS
  1
LAYOUT
  2
AcDbLayout
  3
ObjectDBX Classes
 90
        0
280
     0
281
     0
  0
ENDSEC
  0
SECTION
  2
TABLES
  0
TABLE
  2
VPORT
  5
8
330
0
100
AcDbSymbolTable
 70
     1
  0
VPORT
  5
29
330
8
100
AcDbSymbolTableRecord
100
AcDbViewportTableRecord
  2
*Active
 70
     0
 10
0.0
 20
0.0
 11
1.0
 21
1.0
 12
210.0
 22
148.5
 13
0.0
 23
0.0
 14
10.0
 24
10.0
 15
10.0
 25
10.0
 16
0.0
 26
0.0
 36
1.0
 17
0.0
 27
0.0
 37
0.0
 40
297.0
 41
1.4141414141
 42
50.0
 43
0.0
 44
0.0
 50
0.0
 51
0.0
 71
     0
 72
  2000
 73
     1
 74
     3
 75
     0
 76
     0
 77
     0
 78
     0
281
     0
 65
     1
110
0.0
120
0.0
130
0.0
111
1.0
121
0.0
131
0.0
112
0.0
122
1.0
132
0.0
 79
     0
146
0.0
  0
ENDTAB
  0
TABLE
  2
LTYPE
  5
5
330
0
100
AcDbSymbolTable
 70
     6
  0
LTYPE
  5
14
330
5
100
AcDbSymbolTableRecord
100
AcDbLinetypeTableRecord
  2
ByBlock
 70
     0
  3

 72
    65
 73
     0
 40
0.0
  0
LTYPE
  5
15
330
5
100
AcDbSymbolTableRecord
100
AcDbLinetypeTableRecord
  2
ByLayer
 70
     0
  3

 72
    65
 73
     0
 40
0.0
  0
LTYPE
  5
16
330
5
100
AcDbSymbolTableRecord
100
AcDbLinetypeTableRecord
  2
Continuous
 70
     0
  3
Solid line
 72
    65
 73
     0
 40
0.0
  0
LTYPE
  5
6E
330
5
100
AcDbSymbolTableRecord
100
AcDbLinetypeTableRecord
  2
HIDDEN
 70
     0
  3
Hidden __ __ __ __ __ __ __ __ __ __ __ __ __ __
 72
    65
 73
     2
 40
1.905
 49
1.27
 74
     0
 49
-0.635
 74
     0
  0
LTYPE
  5
6F
330
5
100
AcDbSymbolTableRecord
100
AcDbLinetypeTableRecord
  2
PHANTOM
 70
     0
  3
Phantom ______  __  __  ______  __  __  ______
 72
    65
 73
     6
 40
12.7
 49
6.35
 74
     0
 49
-1.27
 74
     0
 49
1.27
 74
     0
 49
-1.27
 74
     0
 49
1.27
 74
     0
 49
-1.27
 74
     0
  0
LTYPE
  5
70
330
5
100
AcDbSymbolTableRecord
100
AcDbLinetypeTableRecord
  2
CENTER
 70
     0
  3
Center ____ _ ____ _ ____ _ ____ _ ____ _ ____
 72
    65
 73
     4
 40
10.16
 49
6.35
 74
     0
 49
-1.27
 74
     0
 49
1.27
 74
     0
 49
-1.27
 74
     0
  0
LTYPE
  5
71
330
5
100
AcDbSymbolTableRecord
100
AcDbLinetypeTableRecord
  2
CENTERX2
 70
     0
  3
Center (2x) ________  __  ________  __  _____
 72
    65
 73
     4
 40
20.32
 49
12.7
 74
     0
 49
-2.54
 74
     0
 49
2.54
 74
     0
 49
-2.54
 74
     0
  0
LTYPE
  5
72
330
5
100
AcDbSymbolTableRecord
100
AcDbLinetypeTableRecord
  2
DOT2
 70
     0
  3
Dot (.5x) ........................................
 72
    65
 73
     2
 40
0.635
 49
0.0
 74
     0
 49
-0.635
 74
     0
  0
ENDTAB
  0
TABLE
  2
LAYER
  5
2
330
0
100
AcDbSymbolTable
 70
     6
  0
LAYER
  5
10
330
2
100
AcDbSymbolTableRecord
100
AcDbLayerTableRecord
  2
0
 70
     0
 62
     7
  6
Continuous
370
    -3
390
F
  0
LAYER
  5
73
330
2
100
AcDbSymbolTableRecord
100
AcDbLayerTableRecord
  2
SLD-0
 70
     0
 62
     7
  6
Continuous
370
    -3
390
F
  0
LAYER
  5
74
330
2
100
AcDbSymbolTableRecord
100
AcDbLayerTableRecord
  2
8
 70
     0
 62
     7
  6
Continuous
370
    25
390
F
  0
LAYER
  5
75
330
2
100
AcDbSymbolTableRecord
100
AcDbLayerTableRecord
  2
9
 70
     0
 62
     7
  6
Continuous
370
    -3
390
F
  0
LAYER
  5
76
330
2
100
AcDbSymbolTableRecord
100
AcDbLayerTableRecord
  2
10
 70
     0
 62
     1
  6
Continuous
370
    -3
390
F
  0
LAYER
  5
77
330
2
100
AcDbSymbolTableRecord
100
AcDbLayerTableRecord
  2
11
 70
     0
 62
     7
  6
Continuous
370
    -3
390
F
  0
ENDTAB
  0
TABLE
  2
STYLE
  5
3
330
0
100
AcDbSymbolTable
 70
     2
  0
STYLE
  5
11
330
3
100
AcDbSymbolTableRecord
100
AcDbTextStyleTableRecord
  2
Standard
 70
     0
 40
0.0
 41
1.0
 50
0.0
 71
     0
 42
3.8805555556
  3
txt
  4
bigfont
  0
STYLE
  5
78
330
3
100
AcDbSymbolTableRecord
100
AcDbTextStyleTableRecord
  2
SLDTEXTSTYLE0
 70
     0
 40
0.0
 41
0.7
 50
0.0
 71
     0
 42
3.8805555556
  3
TXT
  4
bigfont
  0
ENDTAB
  0
TABLE
  2
VIEW
  5
6
330
0
100
AcDbSymbolTable
 70
     0
  0
ENDTAB
  0
TABLE
  2
UCS
  5
7
330
0
100
AcDbSymbolTable
 70
     0
  0
ENDTAB
  0
TABLE
  2
APPID
  5
9
330
0
100
AcDbSymbolTable
 70
     1
  0
APPID
  5
12
330
9
100
AcDbSymbolTableRecord
100
AcDbRegAppTableRecord
  2
ACAD
 70
     0
  0
ENDTAB
  0
TABLE
  2
DIMSTYLE
  5
A
330
0
100
AcDbSymbolTable
 70
     1
100
AcDbDimStyleTable
  0
DIMSTYLE
105
27
330
A
100
AcDbSymbolTableRecord
100
AcDbDimStyleTableRecord
  2
ISO-25
 70
     0
 41
2.5
 42
0.625
 43
3.75
 44
1.25
 73
     0
 74
     0
 77
     1
 78
     8
140
2.5
141
2.5
143
0.0393700787
147
0.625
171
     3
172
     1
178
     0
271
     2
272
     2
274
     3
278
    44
283
     0
284
     8
340
11
  0
ENDTAB
  0
TABLE
  2
BLOCK_RECORD
  5
1
330
0
100
AcDbSymbolTable
 70
     1
  0
BLOCK_RECORD
  5
1F
330
1
100
AcDbSymbolTableRecord
100
AcDbBlockTableRecord
  2
*Model_Space
340
22
  0
BLOCK_RECORD
  5
1B
330
1
100
AcDbSymbolTableRecord
100
AcDbBlockTableRecord
  2
*Paper_Space
340
1E
  0
BLOCK_RECORD
  5
23
330
1
100
AcDbSymbolTableRecord
100
AcDbBlockTableRecord
  2
*Paper_Space0
340
26
  0
ENDTAB
  0
ENDSEC
  0
SECTION
  2
BLOCKS
  0
BLOCK
  5
20
330
1F
100
AcDbEntity
  8
0
100
AcDbBlockBegin
  2
*Model_Space
 70
     0
 10
0.0
 20
0.0
 30
0.0
  3
*Model_Space
  1

  0
ENDBLK
  5
21
330
1F
100
AcDbEntity
  8
0
100
AcDbBlockEnd
  0
BLOCK
  5
1C
330
1B
100
AcDbEntity
 67
     1
  8
0
100
AcDbBlockBegin
  2
*Paper_Space
 70
     0
 10
0.0
 20
0.0
 30
0.0
  3
*Paper_Space
  1

  0
ENDBLK
  5
1D
330
1B
100
AcDbEntity
 67
     1
  8
0
100
AcDbBlockEnd
  0
BLOCK
  5
24
330
23
100
AcDbEntity
  8
0
100
AcDbBlockBegin
  2
*Paper_Space0
 70
     0
 10
0.0
 20
0.0
 30
0.0
  3
*Paper_Space0
  1

  0
ENDBLK
  5
25
330
23
100
AcDbEntity
  8
0
100
AcDbBlockEnd
  0
ENDSEC
  0
SECTION
  2
ENTITIES
  0
MTEXT
  5
79
330
1F
100
AcDbEntity
  8
9
 62
     7
100
AcDbMText
 10
22.9810592731
 20
14.7698939359
 30
0.0
 40
3.7041666667
 41
0.0
 71
     1
 72
     1
  1
2021/03/09
  7
SLDTEXTSTYLE0
 73
     1
 44
1.0
  0
MTEXT
  5
7A
330
1F
100
AcDbEntity
  8
9
 62
     7
100
AcDbMText
 10
22.9810592731
 20
39.3097759652
 30
0.0
 40
3.7041666667
 41
0.0
 71
     1
 72
     1
  1
12-8002-02-001
  7
SLDTEXTSTYLE0
 73
     1
 44
1.0
  0
MTEXT
  5
7B
330
1F
100
AcDbEntity
  8
9
 62
     7
100
AcDbMText
 10
22.9810592731
 20
22.271836236
 30
0.0
 40
3.7041666667
 41
0.0
 71
     1
 72
     1
  1
-
  7
SLDTEXTSTYLE0
 73
     1
 44
1.0
  0
MTEXT
  5
7C
330
1F
100
AcDbEntity
  8
9
 62
     7
100
AcDbMText
 10
22.9810592731
 20
30.9293045781
 30
0.0
 40
3.7041666667
 41
0.0
 71
     1
 72
     1
  1
1:1
  7
SLDTEXTSTYLE0
 73
     1
 44
1.0
  0
ARC
  5
7D
330
1F
100
AcDbEntity
  8
0
  6
Continuous
 62
     7
370
    35
100
AcDbCircle
 10
107.7775772584
 20
201.2878658312
 30
0.0
 40
0.5
100
AcDbArc
 50
90.0
 51
180.0
  0
ARC
  5
7E
330
1F
100
AcDbEntity
  8
0
  6
Continuous
 62
     7
370
    35
100
AcDbCircle
 10
110.7775772584
 20
201.2878658312
 30
0.0
 40
0.5
100
AcDbArc
 50
0.0
 51
90.0
  0
LINE
  5
7F
330
1F
100
AcDbEntity
  8
0
  6
Continuous
 62
     7
370
    35
100
AcDbLine
 10
111.2775772584
 20
197.7878658312
 30
0.0
 11
111.2775772584
 21
201.2878658312
 31
0.0
  0
LINE
  5
80
330
1F
100
AcDbEntity
  8
0
  6
Continuous
 62
     7
370
    35
100
AcDbLine
 10
107.2775772584
 20
201.2878658312
 30
0.0
 11
107.2775772584
 21
197.7878658312
 31
0.0
  0
LINE
  5
81
330
1F
100
AcDbEntity
  8
0
  6
Continuous
 62
     7
370
    35
100
AcDbLine
 10
36.7775772584
 20
210.2878658312
 30
0.0
 11
36.3775772584
 21
210.2878658312
 31
0.0
  0
LINE
  5
82
330
1F
100
AcDbEntity
  8
0
  6
Continuous
 62
     7
370
    35
100
AcDbLine
 10
36.3775772584
 20
165.2878658312
 30
0.0
 11
36.7775772584
 21
165.2878658312
 31
0.0
  0
LINE
  5
83
330
1F
100
AcDbEntity
  8
0
  6
Continuous
 62
     7
370
    35
100
AcDbLine
 10
97.7775772584
 20
177.7878658312
 30
0.0
 11
128.1671826556
 21
177.7878658312
 31
0.0
  0
LINE
  5
84
330
1F
100
AcDbEntity
  8
0
  6
Continuous
 62
     7
370
    35
100
AcDbLine
 10
128.1671826556
 20
197.7878658312
 30
0.0
 11
97.7775772584
 21
197.7878658312
 31
0.0
  0
ARC
  5
85
330
1F
100
AcDbEntity
  8
0
  6
Continuous
 62
     7
370
    35
100
AcDbCircle
 10
128.1671826556
 20
168.9408755804
 30
0.0
 40
28.84699025082937
100
AcDbArc
 50
83.1838182293
 51
90.0
  0
ARC
  5
86
330
1F
100
AcDbEntity
  8
0
  6
Continuous
 62
     7
370
    35
100
AcDbCircle
 10
128.1671826556
 20
206.634856082
 30
0.0
 40
28.84699025082934
100
AcDbArc
 50
270.0
 51
276.8161817707
  0
ARC
  5
87
330
1F
100
AcDbEntity
  8
0
  6
Continuous
 62
     7
370
    35
100
AcDbCircle
 10
130.453040124
 20
187.5110196436
 30
0.0
 40
9.587024921386496
100
AcDbArc
 50
276.8161817707
 51
293.3426337043
  0
ARC
  5
88
330
1F
100
AcDbEntity
  8
0
  6
Continuous
 62
     7
370
    35
100
AcDbCircle
 10
130.453040124
 20
188.0647120189
 30
0.0
 40
9.587024921386496
100
AcDbArc
 50
66.6573662957
 51
83.1838182293
  0
ARC
  5
89
330
1F
100
AcDbEntity
  8
0
  6
Continuous
 62
     7
370
    35
100
AcDbCircle
 10
132.2740003726
 20
183.291442717
 30
0.0
 40
4.991295853394056
100
AcDbArc
 50
293.3426337043
 51
336.6573662957
  0
ARC
  5
8A
330
1F
100
AcDbEntity
  8
0
  6
Continuous
 62
     7
370
    35
100
AcDbCircle
 10
132.2740003726
 20
192.2842889455
 30
0.0
 40
4.991295853394029
100
AcDbArc
 50
23.3426337043
 51
66.6573662957
  0
ARC
  5
8B
330
1F
100
AcDbEntity
  8
0
  6
Continuous
 62
     7
370
    35
100
AcDbCircle
 10
128.054423446
 20
185.1124029656
 30
0.0
 40
9.587024921386542
100
AcDbArc
 50
336.6573662957
 51
353.1838182293
  0
ARC
  5
8C
330
1F
100
AcDbEntity
  8
0
  6
Continuous
 62
     7
370
    35
100
AcDbCircle
 10
128.054423446
 20
190.4633286969
 30
0.0
 40
9.587024921386542
100
AcDbArc
 50
6.8161817707
 51
23.3426337043
  0
ARC
  5
8D
330
1F
100
AcDbEntity
  8
0
  6
Continuous
 62
     7
370
    35
100
AcDbCircle
 10
108.9305870076
 20
187.398260434
 30
0.0
 40
28.84699025083219
100
AcDbArc
 50
353.1838182293
 51
0.0
  0
ARC
  5
8E
330
1F
100
AcDbEntity
  8
0
  6
Continuous
 62
     7
370
    35
100
AcDbCircle
 10
108.9305870076
 20
188.1774712284
 30
0.0
 40
28.84699025083219
100
AcDbArc
 50
0.0
 51
6.8161817707
  0
LINE
  5
8F
330
1F
100
AcDbEntity
  8
0
  6
Continuous
 62
     7
370
    35
100
AcDbLine
 10
97.7775772584
 20
197.7878658312
 30
0.0
 11
52.7879718612
 21
197.7878658312
 31
0.0
  0
LINE
  5
90
330
1F
100
AcDbEntity
  8
0
  6
Continuous
 62
     7
370
    35
100
AcDbLine
 10
58.7775772584
 20
177.7878658312
 30
0.0
 11
97.7775772584
 21
177.7878658312
 31
0.0
  0
LINE
  5
91
330
1F
100
AcDbEntity
  8
0
  6
Continuous
 62
     7
370
    35
100
AcDbLine
 10
52.7879718612
 20
177.7878658312
 30
0.0
 11
54.7775772584
 21
177.7878658312
 31
0.0
  0
ARC
  5
92
330
1F
100
AcDbEntity
  8
0
  6
Continuous
 62
     7
370
    35
100
AcDbCircle
 10
52.7879718612
 20
206.634856082
 30
0.0
 40
28.84699025082948
100
AcDbArc
 50
263.1838182293
 51
270.0
  0
ARC
  5
93
330
1F
100
AcDbEntity
  8
0
  6
Continuous
 62
     7
370
    35
100
AcDbCircle
 10
52.7879718612
 20
168.9408755804
 30
0.0
 40
28.84699025082948
100
AcDbArc
 50
90.0
 51
96.8161817707
  0
ARC
  5
94
330
1F
100
AcDbEntity
  8
0
  6
Continuous
 62
     7
370
    35
100
AcDbCircle
 10
50.5021143927
 20
188.0647120189
 30
0.0
 40
9.587024921386323
100
AcDbArc
 50
96.8161817707
 51
113.3426337043
  0
ARC
  5
95
330
1F
100
AcDbEntity
  8
0
  6
Continuous
 62
     7
370
    35
100
AcDbCircle
 10
50.5021143927
 20
187.5110196436
 30
0.0
 40
9.587024921386323
100
AcDbArc
 50
246.6573662957
 51
263.1838182293
  0
ARC
  5
96
330
1F
100
AcDbEntity
  8
0
  6
Continuous
 62
     7
370
    35
100
AcDbCircle
 10
48.6811541442
 20
192.2842889455
 30
0.0
 40
4.991295853394025
100
AcDbArc
 50
113.3426337043
 51
156.6573662957
  0
ARC
  5
97
330
1F
100
AcDbEntity
  8
0
  6
Continuous
 62
     7
370
    35
100
AcDbCircle
 10
48.6811541442
 20
183.291442717
 30
0.0
 40
4.991295853394021
100
AcDbArc
 50
203.3426337043
 51
246.6573662957
  0
LINE
  5
98
330
1F
100
AcDbEntity
  8
0
  6
Continuous
 62
     7
370
    35
100
AcDbLine
 10
36.7775772584
 20
157.7878658312
 30
0.0
 11
38.0113404967
 21
157.7878658312
 31
0.0
  0
LINE
  5
99
330
1F
100
AcDbEntity
  8
0
  6
Continuous
 62
     7
370
    35
100
AcDbLine
 10
38.0113404967
 20
217.7878658312
 30
0.0
 11
36.7775772584
 21
217.7878658312
 31
0.0
  0
ARC
  5
9A
330
1F
100
AcDbEntity
  8
0
  6
Continuous
 62
     7
370
    35
100
AcDbCircle
 10
38.0113404967
 20
175.0960599817
 30
0.0
 40
17.30819415051645
100
AcDbArc
 50
270.0
 51
276.8161817707
  0
ARC
  5
9B
330
1F
100
AcDbEntity
  8
0
  6
Continuous
 62
     7
370
    35
100
AcDbCircle
 10
38.0113404967
 20
200.4796716807
 30
0.0
 40
17.30819415051645
100
AcDbArc
 50
83.1838182293
 51
90.0
  0
ARC
  5
9C
330
1F
100
AcDbEntity
  8
0
  6
Continuous
 62
     7
370
    35
100
AcDbCircle
 10
39.3828549778
 20
163.6217581186
 30
0.0
 40
5.752214952826437
100
AcDbArc
 50
276.8161817707
 51
293.3426337043
  0
ARC
  5
9D
330
1F
100
AcDbEntity
  8
0
  6
Continuous
 62
     7
370
    35
100
AcDbCircle
 10
39.3828549778
 20
211.9539735438
 30
0.0
 40
5.752214952826463
100
AcDbArc
 50
66.6573662957
 51
83.1838182293
  0
ARC
  5
9E
330
1F
100
AcDbEntity
  8
0
  6
Continuous
 62
     7
370
    35
100
AcDbCircle
 10
40.4754311269
 20
161.0900119627
 30
0.0
 40
2.994777512036401
100
AcDbArc
 50
293.3426337043
 51
336.6573662957
  0
ARC
  5
9F
330
1F
100
AcDbEntity
  8
0
  6
Continuous
 62
     7
370
    35
100
AcDbCircle
 10
40.4754311269
 20
214.4857196998
 30
0.0
 40
2.994777512036412
100
AcDbArc
 50
23.3426337043
 51
66.6573662957
  0
ARC
  5
A0
330
1F
100
AcDbEntity
  8
0
  6
Continuous
 62
     7
370
    35
100
AcDbCircle
 10
37.943684971
 20
162.1825881118
 30
0.0
 40
5.752214952824672
100
AcDbArc
 50
336.6573662957
 51
353.1838182293
  0
ARC
  5
A1
330
1F
100
AcDbEntity
  8
0
  6
Continuous
 62
     7
370
    35
100
AcDbCircle
 10
37.943684971
 20
213.3931435506
 30
0.0
 40
5.752214952824672
100
AcDbArc
 50
6.8161817707
 51
23.3426337043
  0
ARC
  5
A2
330
1F
100
AcDbEntity
  8
0
  6
Continuous
 62
     7
370
    35
100
AcDbCircle
 10
26.4693831079
 20
163.5541025929
 30
0.0
 40
17.30819415051367
100
AcDbArc
 50
353.1838182293
 51
0.0
  0
ARC
  5
A3
330
1F
100
AcDbEntity
  8
0
  6
Continuous
 62
     7
370
    35
100
AcDbCircle
 10
26.4693831079
 20
212.0216290695
 30
0.0
 40
17.30819415051367
100
AcDbArc
 50
0.0
 51
6.8161817707
  0
LINE
  5
A4
330
1F
100
AcDbEntity
  8
0
  6
Continuous
 62
     7
370
    35
100
AcDbLine
 10
110.7775772584
 20
201.7878658312
 30
0.0
 11
109.3814950773
 21
201.7878658312
 31
0.0
  0
SPLINE
  5
A5
330
1F
100
AcDbEntity
  8
0
  6
Continuous
 62
     7
370
    35
100
AcDbSpline
210
0.0
220
0.0
230
1.0
 70
     8
 71
     3
 72
    12
 73
     8
 74
     0
 42
0.00000001
 43
0.00000001
 40
0.0
 40
0.0
 40
0.0
 40
0.0
 40
0.2396668594836714
 40
0.4793337189673409
 40
0.7190005784510137
 40
0.9586674379346883
 40
1.0
 40
1.0
 40
1.0
 40
1.0
 10
109.3814950773156
 20
201.7878658312161
 30
0.0
 10
109.1842458128704
 20
201.7878658299316
 30
0.0
 10
108.7897472839798
 20
201.7878658273625
 30
0.0
 10
108.2651487929138
 20
201.787865846631
 30
0.0
 10
107.9073363686939
 20
201.7878657734105
 30
0.0
 10
107.7677926142766
 20
201.7878659715483
 30
0.0
 10
107.7839575036058
 20
201.7878657818199
 30
0.0
 10
107.7863352177228
 20
201.7878657539125
 30
0.0
  0
LINE
  5
A6
330
1F
100
AcDbEntity
  8
0
  6
Continuous
 62
     7
370
    35
100
AcDbLine
 10
36.7775772584
 20
181.7878658312
 30
0.0
 11
36.3775772584
 21
181.7878658312
 31
0.0
  0
LINE
  5
A7
330
1F
100
AcDbEntity
  8
0
  6
Continuous
 62
     7
370
    35
100
AcDbLine
 10
36.3775772584
 20
181.7878658312
 30
0.0
 11
36.3775772584
 21
179.0073780263
 31
0.0
  0
LINE
  5
A8
330
1F
100
AcDbEntity
  8
0
  6
Continuous
 62
     7
370
    35
100
AcDbLine
 10
36.3775772584
 20
179.0073780263
 30
0.0
 11
36.3775772584
 21
165.2878658312
 31
0.0
  0
LINE
  5
A9
330
1F
100
AcDbEntity
  8
0
  6
Continuous
 62
     7
370
    35
100
AcDbLine
 10
36.3775772584
 20
193.7878658312
 30
0.0
 11
36.3775772584
 21
181.7878658312
 31
0.0
  0
LINE
  5
AA
330
1F
100
AcDbEntity
  8
0
  6
Continuous
 62
     7
370
    35
100
AcDbLine
 10
36.3775772584
 20
196.5683536361
 30
0.0
 11
36.3775772584
 21
193.7878658312
 31
0.0
  0
LINE
  5
AB
330
1F
100
AcDbEntity
  8
0
  6
Continuous
 62
     7
370
    35
100
AcDbLine
 10
36.3775772584
 20
210.2878658312
 30
0.0
 11
36.3775772584
 21
196.5683536361
 31
0.0
  0
LINE
  5
AC
330
1F
100
AcDbEntity
  8
0
  6
Continuous
 62
     7
370
    35
100
AcDbLine
 10
36.3775772584
 20
193.7878658312
 30
0.0
 11
36.7775772584
 21
193.7878658312
 31
0.0
  0
LINE
  5
AD
330
1F
100
AcDbEntity
  8
0
  6
Continuous
 62
   144
370
    18
100
AcDbLine
 10
97.7775772584
 20
177.7878658312
 30
0.0
 11
97.7775772584
 21
197.7878658312
 31
0.0
  0
LINE
  5
AE
330
1F
100
AcDbEntity
  8
0
  6
Continuous
 62
     7
370
    35
100
AcDbLine
 10
137.7775772584
 20
187.398260434
 30
0.0
 11
137.7775772584
 21
188.1774712284
 31
0.0
  0
LINE
  5
AF
330
1F
100
AcDbEntity
  8
0
  6
Continuous
 62
     7
370
    35
100
AcDbLine
 10
97.7775772584
 20
177.7878658312
 30
0.0
 11
97.7775772584
 21
197.7878658312
 31
0.0
  0
SPLINE
  5
B0
330
1F
100
AcDbEntity
  8
0
  6
Continuous
 62
     7
370
    35
100
AcDbSpline
210
0.0
220
0.0
230
1.0
 70
     8
 71
     3
 72
    23
 73
    19
 74
     0
 42
0.00000001
 43
0.00000001
 40
0.0
 40
0.0
 40
0.0
 40
0.0
 40
0.0520256687590469
 40
0.1044186119084759
 40
0.1579654762732677
 40
0.2119084390155555
 40
0.2639329008030921
 40
0.3697142245601034
 40
0.4235868577364797
 40
0.4762679679182711
 40
0.5833878371337285
 40
0.6379530306539722
 40
0.6910551819358709
 40
0.744531992999246
 40
0.7992014233075384
 40
0.8542881036302253
 40
0.9066815619543903
 40
0.9999999999999999
 40
0.9999999999999999
 40
0.9999999999999999
 40
0.9999999999999999
 10
56.77757725839061
 20
177.9899068600834
 30
0.0
 10
56.83217973782961
 20
177.989642546382
 30
0.0
 10
56.94177016205246
 20
177.9891120530609
 30
0.0
 10
57.10639943354352
 20
177.9848170753754
 30
0.0
 10
57.27064845366197
 20
177.9779735316417
 30
0.0
 10
57.43093421568361
 20
177.9685631496083
 30
0.0
 10
57.63741086651223
 20
177.9531653594431
 30
0.0
 10
57.83286046943701
 20
177.933989909311
 30
0.0
 10
58.01306987168822
 20
177.9126040197534
 30
0.0
 10
58.18286462750847
 20
177.8902346581853
 30
0.0
 10
58.33437831663012
 20
177.8673889384394
 30
0.0
 10
58.46337597472004
 20
177.8460729891667
 30
0.0
 10
58.54829074935957
 20
177.8312869978864
 30
0.0
 10
58.62080207928938
 20
177.8181088862751
 30
0.0
 10
58.68104239071413
 20
177.8067696160322
 30
0.0
 10
58.72649310512107
 20
177.7979823667853
 30
0.0
 10
58.76771456456553
 20
177.7898506774197
 30
0.0
 10
58.77185195217216
 20
177.7890139895418
 30
0.0
 10
58.7745016640945
 20
177.788478148558
 30
0.0
  0
SPLINE
  5
B1
330
1F
100
AcDbEntity
  8
0
  6
Continuous
 62
     7
370
    35
100
AcDbSpline
210
0.0
220
0.0
230
1.0
 70
     8
 71
     3
 72
    22
 73
    18
 74
     0
 42
0.00000001
 43
0.00000001
 40
0.0
 40
0.0
 40
0.0
 40
0.0
 40
0.0388099537369951
 40
0.1442955916975786
 40
0.1980490136605354
 40
0.2498192976909259
 40
0.3550714947589607
 40
0.4086675680960991
 40
0.4612740291316254
 40
0.5682374080828861
 40
0.6227190576211158
 40
0.6758366884551101
 40
0.7293280658296477
 40
0.7840090008018771
 40
0.8391062482477403
 40
0.9188828404385974
 40
1.0
 40
1.0
 40
1.0
 40
1.0
 10
54.77883164175261
 20
177.788116533271
 30
0.0
 10
54.77911330839475
 20
177.7881727132512
 30
0.0
 10
54.78016054630344
 20
177.7883815906835
 30
0.0
 10
54.81258156456592
 20
177.7948643653761
 30
0.0
 10
54.87110899744206
 20
177.8061929161026
 30
0.0
 10
54.94743896348808
 20
177.8205886975174
 30
0.0
 10
55.04882921871872
 20
177.8388691614222
 30
0.0
 10
55.1737621105695
 20
177.8596738819981
 30
0.0
 10
55.31443852002369
 20
177.8817204628565
 30
0.0
 10
55.47694395909758
 20
177.9046386438271
 30
0.0
 10
55.65741863895375
 20
177.9264097978349
 30
0.0
 10
55.80097276872105
 20
177.9417144849803
 30
0.0
 10
55.95168823689429
 20
177.955560790389
 30
0.0
 10
56.11039519578361
 20
177.9676766457533
 30
0.0
 10
56.30050217678625
 20
177.9789692398924
 30
0.0
 10
56.52348826851726
 20
177.9879893365454
 30
0.0
 10
56.69241177133685
 20
177.989264145001
 30
0.0
 10
56.77757725839061
 20
177.9899068600834
 30
0.0
  0
LINE
  5
B2
330
1F
100
AcDbEntity
  8
0
  6
Continuous
 62
   144
370
    18
100
AcDbLine
 10
44.0983868606
 20
194.2619841497
 30
0.0
 11
44.0983868606
 21
181.3137475127
 31
0.0
  0
LINE
  5
B3
330
1F
100
AcDbEntity
  8
0
  6
Continuous
 62
     7
370
    35
100
AcDbLine
 10
36.7775772584
 20
217.7878658312
 30
0.0
 11
36.7775772584
 21
157.7878658312
 31
0.0
  0
SPLINE
  5
B4
330
1F
100
AcDbEntity
  8
0
  6
Continuous
 62
     7
370
    35
100
AcDbSpline
210
0.0
220
0.0
230
1.0
 70
    24
 71
     3
 72
    37
 73
    33
 74
     0
 42
0.00000001
 43
0.00000001
 40
0.0
 40
0.0
 40
0.0
 40
0.0
 40
0.0201878491610741
 40
0.0547963897957699
 40
0.0894125554337276
 40
0.1149213162634701
 40
0.1403709537818075
 40
0.1658866421873337
 40
0.1935672051645986
 40
0.2211712127554576
 40
0.2488586754321064
 40
0.2928154585203021
 40
0.3367800115472647
 40
0.3820948893208958
 40
0.4274177771158961
 40
0.4727326553742188
 40
0.5180555436547202
 40
0.5620123280295687
 40
0.6059768823449008
 40
0.6336574438387653
 40
0.6612614514296243
 40
0.6889489127765832
 40
0.7144576745265007
 40
0.7399073120448381
 40
0.7654230014489559
 40
0.8000315421112801
 40
0.8346477079472949
 40
0.8655944055553368
 40
0.896550051406563
 40
0.9331486961727333
 40
0.9676474714729316
 40
1.0
 40
1.0
 40
1.0
 40
1.0
 10
43.77757725839062
 20
163.5738127067125
 30
0.0
 10
43.77757725839061
 20
163.5733608585894
 30
0.0
 10
43.77757725839061
 20
163.5721343957958
 30
0.0
 10
43.77757725839059
 20
163.796013743247
 30
0.0
 10
43.77757725839062
 20
164.2036276107303
 30
0.0
 10
43.77757725839062
 20
164.7289971715459
 30
0.0
 10
43.77757725839064
 20
165.3103223413763
 30
0.0
 10
43.77757725839061
 20
166.0219619404048
 30
0.0
 10
43.77757725839062
 20
166.8691431969473
 30
0.0
 10
43.77757725839061
 20
167.8601810488921
 30
0.0
 10
43.77757725839064
 20
169.1831213948486
 30
0.0
 10
43.77757725839062
 20
170.9186875243533
 30
0.0
 10
43.77757725839064
 20
173.1688221731644
 30
0.0
 10
43.77757725839059
 20
175.6603901485239
 30
0.0
 10
43.77757725839064
 20
178.3663135517384
 30
0.0
 10
43.77757725839062
 20
181.2162334494947
 30
0.0
 10
43.77757725839059
 20
184.1392492288355
 30
0.0
 10
43.77757725839064
 20
187.0858978956056
 30
0.0
 10
43.77757725839064
 20
189.6520560202422
 30
0.0
 10
43.77757725839059
 20
191.8340945540849
 30
0.0
 10
43.77757725839064
 20
193.6351997288732
 30
0.0
 10
43.77757725839061
 20
195.3561415469283
 30
0.0
 10
43.77757725839062
 20
196.9916084328735
 30
0.0
 10
43.77757725839059
 20
198.5367970200764
 30
0.0
 10
43.77757725839062
 20
200.2067086038609
 30
0.0
 10
43.77757725839062
 20
201.9692883843948
 30
0.0
 10
43.77757725839061
 20
203.7087629156753
 30
0.0
 10
43.77757725839062
 20
205.2584010262658
 30
0.0
 10
43.77757725839064
 20
206.7065974566381
 30
0.0
 10
43.77757725839065
 20
208.0412267451856
 30
0.0
 10
43.77757725839059
 20
209.2207793013731
 30
0.0
 10
43.77757725839064
 20
209.8303595404371
 30
0.0
 10
43.77757725839062
 20
210.1253644385437
 30
0.0
  0
SPLINE
  5
B5
330
1F
100
AcDbEntity
  8
0
  6
Continuous
 62
     7
370
    35
100
AcDbSpline
210
0.0
220
0.0
230
1.0
 70
    24
 71
     3
 72
    13
 73
     9
 74
     0
 42
0.00000001
 43
0.00000001
 40
0.0
 40
0.0
 40
0.0
 40
0.0
 40
0.1671569953483748
 40
0.3343453561184496
 40
0.5234758236270851
 40
0.7126731196609908
 40
0.9258320637159113
 40
1.0
 40
1.0
 40
1.0
 40
1.0
 10
43.77757725839061
 20
210.1253644385437
 30
0.0
 10
43.77757725839061
 20
210.3243942381838
 30
0.0
 10
43.77757725839059
 20
210.7224911835144
 30
0.0
 10
43.77757725839065
 20
211.2113641856062
 30
0.0
 10
43.77757725839061
 20
211.6113621435363
 30
0.0
 10
43.77757725839062
 20
211.8908444511633
 30
0.0
 10
43.77757725839061
 20
212.0282628611151
 30
0.0
 10
43.77757725839062
 20
212.0073239380514
 30
0.0
 10
43.77757725839062
 20
212.0019189557197
 30
0.0
  0
LINE
  5
B6
330
1F
100
AcDbEntity
  8
0
  6
Continuous
 62
     7
370
    35
100
AcDbLine
 10
-176.5821679823
 20
197.7878658312
 30
0.0
 11
-176.5821679823
 21
201.2878658312
 31
0.0
  0
LINE
  5
B7
330
1F
100
AcDbEntity
  8
0
  6
Continuous
 62
     7
370
    35
100
AcDbLine
 10
-180.5821679823
 20
201.2878658312
 30
0.0
 11
-180.5821679823
 21
197.7814072149
 31
0.0
  0
ARC
  5
B8
330
1F
100
AcDbEntity
  8
0
  6
Continuous
 62
     7
370
    35
100
AcDbCircle
 10
-180.0821679823
 20
201.2878658312
 30
0.0
 40
0.5
100
AcDbArc
 50
90.0
 51
180.0
  0
ARC
  5
B9
330
1F
100
AcDbEntity
  8
0
  6
Continuous
 62
     7
370
    35
100
AcDbCircle
 10
-177.0821679823
 20
201.2878658312
 30
0.0
 40
0.5
100
AcDbArc
 50
0.0
 51
90.0
  0
LINE
  5
BA
330
1F
100
AcDbEntity
  8
0
  6
Continuous
 62
     7
370
    35
100
AcDbLine
 10
-121.5821679823
 20
177.7878658312
 30
0.0
 11
-73.904772602
 21
177.7878658312
 31
0.0
  0
LINE
  5
BB
330
1F
100
AcDbEntity
  8
0
  6
Continuous
 62
     7
370
    35
100
AcDbLine
 10
-73.904772602
 20
197.7878658312
 30
0.0
 11
-121.5821679823
 21
197.7878658312
 31
0.0
  0
ARC
  5
BC
330
1F
100
AcDbEntity
  8
0
  6
Continuous
 62
     7
370
    35
100
AcDbCircle
 10
-179.9717733795
 20
206.634856082
 30
0.0
 40
28.8469902508294
100
AcDbArc
 50
263.1838182293
 51
270.0
  0
ARC
  5
BD
330
1F
100
AcDbEntity
  8
0
  6
Continuous
 62
     7
370
    35
100
AcDbCircle
 10
-179.9717733795
 20
168.9408755804
 30
0.0
 40
28.84699025082942
100
AcDbArc
 50
91.2100105838
 51
96.8161817707
  0
LINE
  5
BE
330
1F
100
AcDbEntity
  8
0
  6
Continuous
 62
     7
370
    35
100
AcDbLine
 10
-121.5821679823
 20
197.7878658312
 30
0.0
 11
-176.5821679823
 21
197.7878658312
 31
0.0
  0
LINE
  5
BF
330
1F
100
AcDbEntity
  8
0
  6
Continuous
 62
     7
370
    35
100
AcDbLine
 10
-179.9717733795
 20
177.7878658312
 30
0.0
 11
-121.5821679823
 21
177.7878658312
 31
0.0
  0
ARC
  5
C0
330
1F
100
AcDbEntity
  8
0
  6
Continuous
 62
     7
370
    35
100
AcDbCircle
 10
-182.257630848
 20
188.0647120189
 30
0.0
 40
9.587024921384803
100
AcDbArc
 50
96.8161817707
 51
113.3426337043
  0
ARC
  5
C1
330
1F
100
AcDbEntity
  8
0
  6
Continuous
 62
     7
370
    35
100
AcDbCircle
 10
-182.257630848
 20
187.5110196436
 30
0.0
 40
9.587024921384803
100
AcDbArc
 50
246.6573662957
 51
263.1838182293
  0
ARC
  5
C2
330
1F
100
AcDbEntity
  8
0
  6
Continuous
 62
     7
370
    35
100
AcDbCircle
 10
-184.0785910965
 20
192.2842889455
 30
0.0
 40
4.991295853393969
100
AcDbArc
 50
113.3426337043
 51
156.6573662957
  0
ARC
  5
C3
330
1F
100
AcDbEntity
  8
0
  6
Continuous
 62
     7
370
    35
100
AcDbCircle
 10
-184.0785910965
 20
183.291442717
 30
0.0
 40
4.991295853393969
100
AcDbArc
 50
203.3426337043
 51
246.6573662957
  0
ARC
  5
C4
330
1F
100
AcDbEntity
  8
0
  6
Continuous
 62
     7
370
    35
100
AcDbCircle
 10
-179.85901417
 20
190.4633286969
 30
0.0
 40
9.587024921385488
100
AcDbArc
 50
156.6573662957
 51
173.1838182293
  0
ARC
  5
C5
330
1F
100
AcDbEntity
  8
0
  6
Continuous
 62
     7
370
    35
100
AcDbCircle
 10
-179.85901417
 20
185.1124029656
 30
0.0
 40
9.587024921385504
100
AcDbArc
 50
186.8161817707
 51
203.3426337043
  0
ARC
  5
C6
330
1F
100
AcDbEntity
  8
0
  6
Continuous
 62
     7
370
    35
100
AcDbCircle
 10
-160.7351777315
 20
188.1774712284
 30
0.0
 40
28.84699025085329
100
AcDbArc
 50
173.1838182293
 51
180.0
  0
ARC
  5
C7
330
1F
100
AcDbEntity
  8
0
  6
Continuous
 62
     7
370
    35
100
AcDbCircle
 10
-160.7351777315
 20
187.398260434
 30
0.0
 40
28.8469902508533
100
AcDbArc
 50
180.0
 51
186.8161817707
  0
LINE
  5
C8
330
1F
100
AcDbEntity
  8
0
  6
Continuous
 62
     7
370
    35
100
AcDbLine
 10
-180.0785640151
 20
201.7878658312
 30
0.0
 11
-180.0821679823
 21
201.7878658312
 31
0.0
  0
SPLINE
  5
C9
330
1F
100
AcDbEntity
  8
0
  6
Continuous
 62
     7
370
    35
100
AcDbSpline
210
0.0
220
0.0
230
1.0
 70
     8
 71
     3
 72
    37
 73
    33
 74
     0
 42
0.00000001
 43
0.00000001
 40
0.0
 40
0.0
 40
0.0
 40
0.0
 40
0.0263263643562234
 40
0.0526527287124467
 40
0.0789790930686703
 40
0.105305457424894
 40
0.1316318217811174
 40
0.1579581861373412
 40
0.1842845504935649
 40
0.2106109148497883
 40
0.2369372792060092
 40
0.2632636435622325
 40
0.2895900079184562
 40
0.3159163722746815
 40
0.3422427366309067
 40
0.3685691009871266
 40
0.3948954653433501
 40
0.4212218296995729
 40
0.4475481940557999
 40
0.4738745584120215
 40
0.5002009227682451
 40
0.5222823980762846
 40
0.5965104012474738
 40
0.6707359568886618
 40
0.7042147154346007
 40
0.7376964069663173
 40
0.7711596281320663
 40
0.8033002637538654
 40
0.8524743620559925
 40
0.9016501877359632
 40
0.9508259854864034
 40
1.0
 40
1.0
 40
1.0
 40
1.0
 10
-177.0857719495353
 20
201.7878658312161
 30
0.0
 10
-177.0838929247719
 20
201.7878658312161
 30
0.0
 10
-177.0801348752452
 20
201.7878658312161
 30
0.0
 10
-177.0874971605654
 20
201.7878658312161
 30
0.0
 10
-177.104335663614
 20
201.7878658312161
 30
0.0
 10
-177.131465907696
 20
201.7878658312161
 30
0.0
 10
-177.1684532263227
 20
201.7878658312161
 30
0.0
 10
-177.2151117688962
 20
201.7878658312161
 30
0.0
 10
-177.2711049084996
 20
201.7878658312161
 30
0.0
 10
-177.3360549519602
 20
201.7878658312161
 30
0.0
 10
-177.409516939394
 20
201.7878658312161
 30
0.0
 10
-177.4909893951052
 20
201.7878658312161
 30
0.0
 10
-177.5799156881667
 20
201.7878658312162
 30
0.0
 10
-177.6756883834293
 20
201.787865831216
 30
0.0
 10
-177.7776532613051
 20
201.7878658312166
 30
0.0
 10
-177.8851137565523
 20
201.7878658312144
 30
0.0
 10
-177.9973359669317
 20
201.7878658312226
 30
0.0
 10
-178.1135526950617
 20
201.7878658311921
 30
0.0
 10
-178.2329723245122
 20
201.7878658313059
 30
0.0
 10
-178.3547706573555
 20
201.7878658308811
 30
0.0
 10
-178.4715160708629
 20
201.7878658323813
 30
0.0
 10
-178.6639726552317
 20
201.7878658241334
 30
0.0
 10
-178.9326311662859
 20
201.7878653135789
 30
0.0
 10
-179.2033213216354
 20
201.7878658435831
 30
0.0
 10
-179.3956793488385
 20
201.7878658875962
 30
0.0
 10
-179.5243680392541
 20
201.7878655448503
 30
0.0
 10
-179.6401309707593
 20
201.7878658617161
 30
0.0
 10
-179.7613868978854
 20
201.7878658194068
 30
0.0
 10
-179.879535653761
 20
201.7878658279956
 30
0.0
 10
-179.9812902526479
 20
201.7878658157308
 30
0.0
 10
-180.052262691649
 20
201.7878658251777
 30
0.0
 10
-180.0697970132504
 20
201.7878658292034
 30
0.0
 10
-180.0785640150887
 20
201.7878658312161
 30
0.0
  0
ARC
  5
CA
330
1F
100
AcDbEntity
  8
0
  6
Continuous
 62
     7
370
    35
100
AcDbCircle
 10
-64.4950874427
 20
195.7878658312
 30
0.0
 40
2.0
100
AcDbArc
 50
157.0303234277
 51
270.0
  0
LINE
  5
CB
330
1F
100
AcDbEntity
  8
0
  6
Continuous
 62
     7
370
    35
100
AcDbLine
 10
-63.6205013546
 20
193.7878658312
 30
0.0
 11
-64.4950874427
 21
193.7878658312
 31
0.0
  0
ARC
  5
CC
330
1F
100
AcDbEntity
  8
0
  6
Continuous
 62
     7
370
    35
100
AcDbCircle
 10
-63.6205013546
 20
187.7878658312
 30
0.0
 40
6.0
100
AcDbArc
 50
270.0
 51
90.0
  0
LINE
  5
CD
330
1F
100
AcDbEntity
  8
0
  6
Continuous
 62
     7
370
    35
100
AcDbLine
 10
-64.4950874427
 20
181.7878658312
 30
0.0
 11
-63.6205013546
 21
181.7878658312
 31
0.0
  0
ARC
  5
CE
330
1F
100
AcDbEntity
  8
0
  6
Continuous
 62
     7
370
    35
100
AcDbCircle
 10
-64.4950874427
 20
179.7878658312
 30
0.0
 40
2.0
100
AcDbArc
 50
90.0
 51
202.9696765723
  0
ARC
  5
CF
330
1F
100
AcDbEntity
  8
0
  6
Continuous
 62
     7
370
    35
100
AcDbCircle
 10
-45.6205013546
 20
187.7878658312
 30
0.0
 40
22.50000000000001
100
AcDbArc
 50
202.9696765723
 51
337.0303234277
  0
ARC
  5
D0
330
1F
100
AcDbEntity
  8
0
  6
Continuous
 62
     7
370
    35
100
AcDbCircle
 10
-26.7459152664
 20
179.7878658312
 30
0.0
 40
2.0
100
AcDbArc
 50
337.0303234277
 51
90.0
  0
LINE
  5
D1
330
1F
100
AcDbEntity
  8
0
  6
Continuous
 62
     7
370
    35
100
AcDbLine
 10
-27.6205013546
 20
181.7878658312
 30
0.0
 11
-26.7459152664
 21
181.7878658312
 31
0.0
  0
ARC
  5
D2
330
1F
100
AcDbEntity
  8
0
  6
Continuous
 62
     7
370
    35
100
AcDbCircle
 10
-27.6205013546
 20
187.7878658312
 30
0.0
 40
6.0
100
AcDbArc
 50
90.0
 51
270.0
  0
LINE
  5
D3
330
1F
100
AcDbEntity
  8
0
  6
Continuous
 62
     7
370
    35
100
AcDbLine
 10
-26.7459152664
 20
193.7878658312
 30
0.0
 11
-27.6205013546
 21
193.7878658312
 31
0.0
  0
ARC
  5
D4
330
1F
100
AcDbEntity
  8
0
  6
Continuous
 62
     7
370
    35
100
AcDbCircle
 10
-26.7459152664
 20
195.7878658312
 30
0.0
 40
2.000000000000002
100
AcDbArc
 50
270.0
 51
22.9696765723
  0
ARC
  5
D5
330
1F
100
AcDbEntity
  8
0
  6
Continuous
 62
     7
370
    35
100
AcDbCircle
 10
-45.6205013546
 20
187.7878658312
 30
0.0
 40
22.5
100
AcDbArc
 50
22.9696765723
 51
157.0303234277
  0
LINE
  5
D6
330
1F
100
AcDbEntity
  8
0
  6
Continuous
 62
     7
370
    35
100
AcDbLine
 10
-121.5821679823
 20
197.7878658312
 30
0.0
 11
-121.5821679823
 21
177.7878658312
 31
0.0
  0
LINE
  5
D7
330
1F
100
AcDbEntity
  8
0
  6
Continuous
 62
     7
370
    35
100
AcDbLine
 10
-69.878906895
 20
186.5294602908
 30
0.0
 11
-68.6205013546
 21
187.7878658312
 31
0.0
  0
LINE
  5
D8
330
1F
100
AcDbEntity
  8
0
  6
Continuous
 62
     7
370
    35
100
AcDbLine
 10
-68.6205013546
 20
187.7878658312
 30
0.0
 11
-69.878906895
 21
189.0462713717
 31
0.0
  0
ARC
  5
D9
330
1F
100
AcDbEntity
  8
0
  6
Continuous
 62
     7
370
    35
100
AcDbCircle
 10
-68.4646933326
 20
185.1152467284
 30
0.0
 40
2.00000000000002
100
AcDbArc
 50
135.0
 51
186.6728919552
  0
ARC
  5
DA
330
1F
100
AcDbEntity
  8
0
  6
Continuous
 62
     7
370
    35
100
AcDbCircle
 10
-45.6205013546
 20
187.7878658312
 30
0.0
 40
25.00000000000001
100
AcDbArc
 50
186.6728919552
 51
263.3271080448
  0
ARC
  5
DB
330
1F
100
AcDbEntity
  8
0
  6
Continuous
 62
     7
370
    35
100
AcDbCircle
 10
-63.4665088593
 20
190.1373372912
 30
0.0
 40
2.500000000000004
100
AcDbArc
 50
352.5
 51
172.5
  0
ARC
  5
DC
330
1F
100
AcDbEntity
  8
0
  6
Continuous
 62
     7
370
    35
100
AcDbCircle
 10
-45.6205013546
 20
187.7878658312
 30
0.0
 40
15.5
100
AcDbArc
 50
172.5
 51
187.5
  0
ARC
  5
DD
330
1F
100
AcDbEntity
  8
0
  6
Continuous
 62
     7
370
    35
100
AcDbCircle
 10
-63.4665088593
 20
185.4383943713
 30
0.0
 40
2.500000000000008
100
AcDbArc
 50
187.5
 51
7.5
  0
ARC
  5
DE
330
1F
100
AcDbEntity
  8
0
  6
Continuous
 62
     7
370
    35
100
AcDbCircle
 10
-45.6205013546
 20
187.7878658312
 30
0.0
 40
20.49999999999999
100
AcDbArc
 50
172.5
 51
187.5
  0
ARC
  5
DF
330
1F
100
AcDbEntity
  8
0
  6
Continuous
 62
     7
370
    35
100
AcDbCircle
 10
-48.2931204574
 20
164.9436738531
 30
0.0
 40
2.000000000000019
100
AcDbArc
 50
263.3271080448
 51
315.0
  0
LINE
  5
E0
330
1F
100
AcDbEntity
  8
0
  6
Continuous
 62
     7
370
    35
100
AcDbLine
 10
-45.6205013546
 20
164.7878658312
 30
0.0
 11
-46.878906895
 21
163.5294602908
 31
0.0
  0
LINE
  5
E1
330
1F
100
AcDbEntity
  8
0
  6
Continuous
 62
     7
370
    35
100
AcDbLine
 10
-44.3620958141
 20
163.5294602908
 30
0.0
 11
-45.6205013546
 21
164.7878658312
 31
0.0
  0
ARC
  5
E2
330
1F
100
AcDbEntity
  8
0
  6
Continuous
 62
     7
370
    35
100
AcDbCircle
 10
-42.9478822517
 20
164.9436738531
 30
0.0
 40
2.000000000000018
100
AcDbArc
 50
225.0
 51
276.6728919552
  0
ARC
  5
E3
330
1F
100
AcDbEntity
  8
0
  6
Continuous
 62
     7
370
    35
100
AcDbCircle
 10
-45.6205013546
 20
187.7878658312
 30
0.0
 40
25.00000000000001
100
AcDbArc
 50
276.6728919552
 51
353.3271080448
  0
ARC
  5
E4
330
1F
100
AcDbEntity
  8
0
  6
Continuous
 62
     7
370
    35
100
AcDbCircle
 10
-22.7763093765
 20
185.1152467284
 30
0.0
 40
2.000000000000014
100
AcDbArc
 50
353.3271080448
 51
45.0
  0
LINE
  5
E5
330
1F
100
AcDbEntity
  8
0
  6
Continuous
 62
     7
370
    35
100
AcDbLine
 10
-22.6205013546
 20
187.7878658312
 30
0.0
 11
-21.3620958141
 21
186.5294602908
 31
0.0
  0
LINE
  5
E6
330
1F
100
AcDbEntity
  8
0
  6
Continuous
 62
     7
370
    35
100
AcDbLine
 10
-21.3620958141
 20
189.0462713717
 30
0.0
 11
-22.6205013546
 21
187.7878658312
 31
0.0
  0
ARC
  5
E7
330
1F
100
AcDbEntity
  8
0
  6
Continuous
 62
     7
370
    35
100
AcDbCircle
 10
-22.7763093765
 20
190.460484934
 30
0.0
 40
1.999999999999999
100
AcDbArc
 50
315.0
 51
6.6728919552
  0
ARC
  5
E8
330
1F
100
AcDbEntity
  8
0
  6
Continuous
 62
     7
370
    35
100
AcDbCircle
 10
-45.6205013546
 20
187.7878658312
 30
0.0
 40
25.00000000000001
100
AcDbArc
 50
6.6728919552
 51
83.3271080448
  0
ARC
  5
E9
330
1F
100
AcDbEntity
  8
0
  6
Continuous
 62
     7
370
    35
100
AcDbCircle
 10
-42.9478822517
 20
210.6320578093
 30
0.0
 40
2.000000000000018
100
AcDbArc
 50
83.3271080448
 51
135.0
  0
LINE
  5
EA
330
1F
100
AcDbEntity
  8
0
  6
Continuous
 62
     7
370
    35
100
AcDbLine
 10
-45.6205013546
 20
210.7878658312
 30
0.0
 11
-44.3620958141
 21
212.0462713717
 31
0.0
  0
LINE
  5
EB
330
1F
100
AcDbEntity
  8
0
  6
Continuous
 62
     7
370
    35
100
AcDbLine
 10
-46.878906895
 20
212.0462713717
 30
0.0
 11
-45.6205013546
 21
210.7878658312
 31
0.0
  0
ARC
  5
EC
330
1F
100
AcDbEntity
  8
0
  6
Continuous
 62
     7
370
    35
100
AcDbCircle
 10
-48.2931204574
 20
210.6320578093
 30
0.0
 40
2.000000000000018
100
AcDbArc
 50
45.0
 51
96.6728919552
  0
ARC
  5
ED
330
1F
100
AcDbEntity
  8
0
  6
Continuous
 62
     7
370
    35
100
AcDbCircle
 10
-45.6205013546
 20
187.7878658312
 30
0.0
 40
25.00000000000001
100
AcDbArc
 50
96.6728919552
 51
173.3271080448
  0
ARC
  5
EE
330
1F
100
AcDbEntity
  8
0
  6
Continuous
 62
     7
370
    35
100
AcDbCircle
 10
-68.4646933326
 20
190.460484934
 30
0.0
 40
2.000000000000006
100
AcDbArc
 50
173.3271080448
 51
225.0
  0
CIRCLE
  5
EF
330
1F
100
AcDbEntity
  8
0
  6
Continuous
 62
     7
370
    35
100
AcDbCircle
 10
-27.6205013546
 20
187.7878658312
 30
0.0
 40
2.5
  0
SPLINE
  5
F0
330
1F
100
AcDbEntity
  8
0
  6
Continuous
 62
   144
370
    18
100
AcDbSpline
210
0.0
220
0.0
230
1.0
 70
     8
 71
     3
 72
    12
 73
     8
 74
     0
 42
0.00000001
 43
0.00000001
 40
0.0
 40
0.0
 40
0.0
 40
0.0
 40
0.2498681309970428
 40
0.4992836997203056
 40
0.7493214047949148
 40
0.999037243020975
 40
0.9999999999999999
 40
0.9999999999999999
 40
0.9999999999999999
 40
0.9999999999999999
 10
-179.9717733795096
 20
197.6838752875536
 30
0.0
 10
-180.0624507436784
 20
197.6970711174426
 30
0.0
 10
-180.2436412367693
 20
197.7234388768747
 30
0.0
 10
-180.4356908425869
 20
197.7557850805506
 30
0.0
 10
-180.5498984985078
 20
197.7754064260628
 30
0.0
 10
-180.5954353369498
 20
197.7837919339725
 30
0.0
 10
-180.5820658176997
 20
197.7813888529654
 30
0.0
 10
-180.5820144706832
 20
197.7813796236852
 30
0.0
  0
SPLINE
  5
F1
330
1F
100
AcDbEntity
  8
0
  6
Continuous
 62
   144
370
    18
100
AcDbSpline
210
0.0
220
0.0
230
1.0
 70
     8
 71
     3
 72
    15
 73
    11
 74
     0
 42
0.00000001
 43
0.00000001
 40
0.0
 40
0.0
 40
0.0
 40
0.0
 40
0.0005786881645994
 40
0.1433295634265578
 40
0.2860740902834525
 40
0.4287272514836119
 40
0.5712214603755278
 40
0.714237810392891
 40
0.8569686742640631
 40
1.0
 40
1.0
 40
1.0
 40
1.0
 10
-176.6665253969072
 20
197.7713378913844
 30
0.0
 10
-176.6666394708546
 20
197.7713155363613
 30
0.0
 10
-176.6948933216709
 20
197.7657786412082
 30
0.0
 10
-176.9032368461628
 20
197.7267194913929
 30
0.0
 10
-177.2800321397283
 20
197.6687875531116
 30
0.0
 10
-177.7871134401131
 20
197.6129358611755
 30
0.0
 10
-178.358940147496
 20
197.5824650059109
 30
0.0
 10
-178.9501515075441
 20
197.5869653921532
 30
0.0
 10
-179.5172148238115
 20
197.6251590189531
 30
0.0
 10
-179.8201476890089
 20
197.6642894835718
 30
0.0
 10
-179.9717733795096
 20
197.6838752875536
 30
0.0
  0
LINE
  5
F2
330
1F
100
AcDbEntity
  8
0
  6
Continuous
 62
     7
370
    35
100
AcDbLine
 10
-189.5821679823
 20
188.1774711815
 30
0.0
 11
-189.5821679823
 21
187.398260434
 31
0.0
  0
CIRCLE
  5
F3
330
1F
100
AcDbEntity
  8
0
  6
Continuous
 62
     7
370
    35
100
AcDbCircle
 10
-45.6205013546
 20
187.7878658312
 30
0.0
 40
29.99999999999997
  0
CIRCLE
  5
F4
330
1F
100
AcDbEntity
  8
0
  6
Continuous
 62
     7
370
    35
100
AcDbCircle
 10
-45.6205013546
 20
187.7878658312
 30
0.0
 40
29.29999999999995
  0
LINE
  5
F5
330
1F
100
AcDbEntity
  8
0
  6
Continuous
 62
     7
370
    35
100
AcDbLine
 10
328.1105814775
 20
197.7814072149
 30
0.0
 11
328.1105814775
 21
201.2878658312
 31
0.0
  0
LINE
  5
F6
330
1F
100
AcDbEntity
  8
0
  6
Continuous
 62
     7
370
    35
100
AcDbLine
 10
324.1105814775
 20
201.2878658312
 30
0.0
 11
324.1105814775
 21
197.7878658312
 31
0.0
  0
ARC
  5
F7
330
1F
100
AcDbEntity
  8
0
  6
Continuous
 62
     7
370
    35
100
AcDbCircle
 10
324.6105814775
 20
201.2878658312
 30
0.0
 40
0.5
100
AcDbArc
 50
90.0
 51
180.0
  0
ARC
  5
F8
330
1F
100
AcDbEntity
  8
0
  6
Continuous
 62
     7
370
    35
100
AcDbCircle
 10
327.6105814775
 20
201.2878658312
 30
0.0
 40
0.5
100
AcDbArc
 50
360.0
 51
90.0
  0
LINE
  5
F9
330
1F
100
AcDbEntity
  8
0
  6
Continuous
 62
     7
370
    35
100
AcDbLine
 10
269.1105814775
 20
197.7878658312
 30
0.0
 11
211.7209760803
 21
197.7878658312
 31
0.0
  0
LINE
  5
FA
330
1F
100
AcDbEntity
  8
0
  6
Continuous
 62
     7
370
    35
100
AcDbLine
 10
211.7209760803
 20
177.7878658312
 30
0.0
 11
269.1105814775
 21
177.7878658312
 31
0.0
  0
ARC
  5
FB
330
1F
100
AcDbEntity
  8
0
  6
Continuous
 62
     7
370
    35
100
AcDbCircle
 10
211.7209760803
 20
206.634856082
 30
0.0
 40
28.84699025082857
100
AcDbArc
 50
263.1838182293
 51
270.0
  0
ARC
  5
FC
330
1F
100
AcDbEntity
  8
0
  6
Continuous
 62
     7
370
    35
100
AcDbCircle
 10
211.7209760803
 20
168.9408755804
 30
0.0
 40
28.84699025082854
100
AcDbArc
 50
90.0
 51
96.8161817707
  0
ARC
  5
FD
330
1F
100
AcDbEntity
  8
0
  6
Continuous
 62
     7
370
    35
100
AcDbCircle
 10
209.4351186119
 20
188.0647120189
 30
0.0
 40
9.58702492138653
100
AcDbArc
 50
96.8161817707
 51
113.3426337043
  0
ARC
  5
FE
330
1F
100
AcDbEntity
  8
0
  6
Continuous
 62
     7
370
    35
100
AcDbCircle
 10
209.4351186119
 20
187.5110196436
 30
0.0
 40
9.587024921386515
100
AcDbArc
 50
246.6573662957
 51
263.1838182293
  0
ARC
  5
FF
330
1F
100
AcDbEntity
  8
0
  6
Continuous
 62
     7
370
    35
100
AcDbCircle
 10
207.6141583633
 20
192.2842889455
 30
0.0
 40
4.991295853394044
100
AcDbArc
 50
113.3426337043
 51
156.6573662957
  0
ARC
  5
100
330
1F
100
AcDbEntity
  8
0
  6
Continuous
 62
     7
370
    35
100
AcDbCircle
 10
207.6141583633
 20
183.291442717
 30
0.0
 40
4.991295853394018
100
AcDbArc
 50
203.3426337043
 51
246.6573662957
  0
ARC
  5
101
330
1F
100
AcDbEntity
  8
0
  6
Continuous
 62
     7
370
    35
100
AcDbCircle
 10
211.8337352899
 20
190.4633286969
 30
0.0
 40
9.587024921385735
100
AcDbArc
 50
156.6573662957
 51
172.3184419407
  0
ARC
  5
102
330
1F
100
AcDbEntity
  8
0
  6
Continuous
 62
     7
370
    35
100
AcDbCircle
 10
211.8337352899
 20
185.1124029656
 30
0.0
 40
9.587024921385735
100
AcDbArc
 50
187.6815580593
 51
203.3426337043
  0
LINE
  5
103
330
1F
100
AcDbEntity
  8
0
  6
Continuous
 62
     7
370
    35
100
AcDbLine
 10
195.1489148498
 20
177.9888303017
 30
0.0
 11
195.1489148498
 21
177.9899068601
 31
0.0
  0
ARC
  5
104
330
1F
100
AcDbEntity
  8
0
  6
Continuous
 62
     7
370
    35
100
AcDbCircle
 10
327.5001868747
 20
168.9408755804
 30
0.0
 40
28.84699025082943
100
AcDbArc
 50
83.1838182293
 51
88.7893530537
  0
ARC
  5
105
330
1F
100
AcDbEntity
  8
0
  6
Continuous
 62
     7
370
    35
100
AcDbCircle
 10
327.5001868747
 20
206.634856082
 30
0.0
 40
28.8469902508294
100
AcDbArc
 50
270.0
 51
276.8161817707
  0
LINE
  5
106
330
1F
100
AcDbEntity
  8
0
  6
Continuous
 62
     7
370
    35
100
AcDbLine
 10
269.1105814775
 20
177.7878658312
 30
0.0
 11
327.5001868747
 21
177.7878658312
 31
0.0
  0
LINE
  5
107
330
1F
100
AcDbEntity
  8
0
  6
Continuous
 62
     7
370
    35
100
AcDbLine
 10
324.1105814775
 20
197.7878658312
 30
0.0
 11
269.1105814775
 21
197.7878658312
 31
0.0
  0
ARC
  5
108
330
1F
100
AcDbEntity
  8
0
  6
Continuous
 62
     7
370
    35
100
AcDbCircle
 10
329.7860443432
 20
187.5110196436
 30
0.0
 40
9.587024921384812
100
AcDbArc
 50
276.8161817707
 51
293.3426337043
  0
ARC
  5
109
330
1F
100
AcDbEntity
  8
0
  6
Continuous
 62
     7
370
    35
100
AcDbCircle
 10
329.7860443432
 20
188.0647120189
 30
0.0
 40
9.587024921384812
100
AcDbArc
 50
66.6573662957
 51
83.1838182293
  0
ARC
  5
10A
330
1F
100
AcDbEntity
  8
0
  6
Continuous
 62
     7
370
    35
100
AcDbCircle
 10
331.6070045918
 20
183.291442717
 30
0.0
 40
4.991295853393943
100
AcDbArc
 50
293.3426337043
 51
336.6573662957
  0
ARC
  5
10B
330
1F
100
AcDbEntity
  8
0
  6
Continuous
 62
     7
370
    35
100
AcDbCircle
 10
331.6070045918
 20
192.2842889455
 30
0.0
 40
4.991295853393943
100
AcDbArc
 50
23.3426337043
 51
66.6573662957
  0
ARC
  5
10C
330
1F
100
AcDbEntity
  8
0
  6
Continuous
 62
     7
370
    35
100
AcDbCircle
 10
327.3874276652
 20
185.1124029656
 30
0.0
 40
9.587024921385511
100
AcDbArc
 50
336.6573662957
 51
353.1838182293
  0
ARC
  5
10D
330
1F
100
AcDbEntity
  8
0
  6
Continuous
 62
     7
370
    35
100
AcDbCircle
 10
327.3874276652
 20
190.4633286969
 30
0.0
 40
9.587024921385463
100
AcDbArc
 50
6.8161817707
 51
23.3426337043
  0
ARC
  5
10E
330
1F
100
AcDbEntity
  8
0
  6
Continuous
 62
     7
370
    35
100
AcDbCircle
 10
308.2635912267
 20
187.398260434
 30
0.0
 40
28.84699025085336
100
AcDbArc
 50
353.1838182293
 51
0.0
  0
ARC
  5
10F
330
1F
100
AcDbEntity
  8
0
  6
Continuous
 62
     7
370
    35
100
AcDbCircle
 10
308.2635912267
 20
188.1774712284
 30
0.0
 40
28.84699025085329
100
AcDbArc
 50
0.0
 51
6.8161817707
  0
LINE
  5
110
330
1F
100
AcDbEntity
  8
0
  6
Continuous
 62
     7
370
    35
100
AcDbLine
 10
327.6105814775
 20
201.7878658312
 30
0.0
 11
324.6141854447
 21
201.7878658312
 31
0.0
  0
CIRCLE
  5
111
330
1F
100
AcDbEntity
  8
0
  6
Continuous
 62
     7
370
    35
100
AcDbCircle
 10
193.1489148498
 20
187.7878658312
 30
0.0
 40
10.0
  0
LINE
  5
112
330
1F
100
AcDbEntity
  8
0
  6
Continuous
 62
     7
370
    35
100
AcDbLine
 10
269.1105814775
 20
177.7878658312
 30
0.0
 11
269.1105814775
 21
197.7878658312
 31
0.0
  0
SPLINE
  5
113
330
1F
100
AcDbEntity
  8
0
  6
Continuous
 62
   144
370
    18
100
AcDbSpline
210
0.0
220
0.0
230
1.0
 70
     8
 71
     3
 72
    12
 73
     8
 74
     0
 42
0.00000001
 43
0.00000001
 40
0.0
 40
0.0
 40
0.0
 40
0.0
 40
0.0005220555073675
 40
0.2500082758643583
 40
0.4999389904536463
 40
0.7497113345002969
 40
1.0
 40
1.0
 40
1.0
 40
1.0
 10
328.1104980521846
 20
197.7813922209136
 30
0.0
 10
328.1105259117213
 20
197.7813972282324
 30
0.0
 10
328.12386762466
 20
197.7837951938482
 30
0.0
 10
328.0783981369979
 20
197.7754222585646
 30
0.0
 10
327.9644213886756
 20
197.7558406291049
 30
0.0
 10
327.7724041026332
 20
197.723488303505
 30
0.0
 10
327.5909883889568
 20
197.6970887122123
 30
0.0
 10
327.5001868747217
 20
197.6838752875536
 30
0.0
  0
SPLINE
  5
114
330
1F
100
AcDbEntity
  8
0
  6
Continuous
 62
   144
370
    18
100
AcDbSpline
210
0.0
220
0.0
230
1.0
 70
     8
 71
     3
 72
    16
 73
    12
 74
     0
 42
0.00000001
 43
0.00000001
 40
0.0
 40
0.0
 40
0.0
 40
0.0
 40
0.1248227957717237
 40
0.2497116667703201
 40
0.3752039584799963
 40
0.5001533497795413
 40
0.625069966599177
 40
0.749873007033312
 40
0.8746910912719155
 40
0.9996108431794405
 40
1.0
 40
1.0
 40
1.0
 40
1.0
 10
327.5001868747217
 20
197.6838752875536
 30
0.0
 10
327.3491650202889
 20
197.6643595537651
 30
0.0
 10
327.0470413676658
 20
197.6253177554907
 30
0.0
 10
326.4806918393501
 20
197.587063505573
 30
0.0
 10
325.8894888336626
 20
197.5823443297804
 30
0.0
 10
325.3155345098892
 20
197.6130559615518
 30
0.0
 10
324.8140024234261
 20
197.6678073870817
 30
0.0
 10
324.4165886236515
 20
197.7295962192809
 30
0.0
 10
324.1818758525074
 20
197.7734220688734
 30
0.0
 10
324.0823727586378
 20
197.7933929390258
 30
0.0
 10
324.1107578372327
 20
197.787831274969
 30
0.0
 10
324.1108459893605
 20
197.7878140027772
 30
0.0
  0
LINE
  5
115
330
1F
100
AcDbEntity
  8
0
  6
Continuous
 62
     7
370
    35
100
AcDbLine
 10
337.1105814775
 20
187.398260434
 30
0.0
 11
337.1105814775
 21
188.1774712284
 31
0.0
  0
ARC
  5
116
330
1F
100
AcDbEntity
  8
0
  6
Continuous
 62
     7
370
    35
100
AcDbCircle
 10
193.1489148498
 20
187.7878658312
 30
0.0
 40
29.99999999999995
100
AcDbArc
 50
112.816557418
 51
340.5287793655
  0
ARC
  5
117
330
1F
100
AcDbEntity
  8
0
  6
Continuous
 62
     7
370
    35
100
AcDbCircle
 10
193.1489148498
 20
187.7878658312
 30
0.0
 40
29.99999999999994
100
AcDbArc
 50
19.4712206345
 51
112.816557418
  0
ARC
  5
118
330
1F
100
AcDbEntity
  8
0
  6
Continuous
 62
     7
370
    35
100
AcDbCircle
 10
403.6046993625
 20
201.2878658312
 30
0.0
 40
0.5
100
AcDbArc
 50
90.0
 51
180.0
  0
ARC
  5
119
330
1F
100
AcDbEntity
  8
0
  6
Continuous
 62
     7
370
    35
100
AcDbCircle
 10
406.6046993625
 20
201.2878658312
 30
0.0
 40
0.5
100
AcDbArc
 50
360.0
 51
90.0
  0
LINE
  5
11A
330
1F
100
AcDbEntity
  8
0
  6
Continuous
 62
     7
370
    35
100
AcDbLine
 10
407.1046993625
 20
197.5858248023
 30
0.0
 11
407.1046993625
 21
201.2878658312
 31
0.0
  0
LINE
  5
11B
330
1F
100
AcDbEntity
  8
0
  6
Continuous
 62
     7
370
    35
100
AcDbLine
 10
403.1046993625
 20
201.2878658312
 30
0.0
 11
403.1046993625
 21
197.5858248023
 31
0.0
  0
LINE
  5
11C
330
1F
100
AcDbEntity
  8
0
  6
Continuous
 62
     7
370
    35
100
AcDbLine
 10
478.0046993625
 20
210.2878658312
 30
0.0
 11
477.6046993625
 21
210.2878658312
 31
0.0
  0
LINE
  5
11D
330
1F
100
AcDbEntity
  8
0
  6
Continuous
 62
     7
370
    35
100
AcDbLine
 10
477.6046993625
 20
165.2878658312
 30
0.0
 11
478.0046993625
 21
165.2878658312
 31
0.0
  0
LINE
  5
11E
330
1F
100
AcDbEntity
  8
0
  6
Continuous
 62
     7
370
    35
100
AcDbLine
 10
416.6046993625
 20
197.7878658312
 30
0.0
 11
407.1046993625
 21
197.7878658312
 31
0.0
  0
LINE
  5
11F
330
1F
100
AcDbEntity
  8
0
  6
Continuous
 62
     7
370
    35
100
AcDbLine
 10
403.1046993625
 20
197.7878658312
 30
0.0
 11
386.2150939653
 21
197.7878658312
 31
0.0
  0
LINE
  5
120
330
1F
100
AcDbEntity
  8
0
  6
Continuous
 62
     7
370
    35
100
AcDbLine
 10
386.2150939653
 20
177.7878658312
 30
0.0
 11
416.6046993625
 21
177.7878658312
 31
0.0
  0
ARC
  5
121
330
1F
100
AcDbEntity
  8
0
  6
Continuous
 62
     7
370
    35
100
AcDbCircle
 10
386.2150939653
 20
206.634856082
 30
0.0
 40
28.84699025082934
100
AcDbArc
 50
263.1838182293
 51
270.0
  0
ARC
  5
122
330
1F
100
AcDbEntity
  8
0
  6
Continuous
 62
     7
370
    35
100
AcDbCircle
 10
386.2150939653
 20
168.9408755804
 30
0.0
 40
28.84699025082937
100
AcDbArc
 50
90.0
 51
96.8161817707
  0
ARC
  5
123
330
1F
100
AcDbEntity
  8
0
  6
Continuous
 62
     7
370
    35
100
AcDbCircle
 10
383.9292364968
 20
188.0647120189
 30
0.0
 40
9.587024921386496
100
AcDbArc
 50
96.8161817707
 51
113.3426337043
  0
ARC
  5
124
330
1F
100
AcDbEntity
  8
0
  6
Continuous
 62
     7
370
    35
100
AcDbCircle
 10
383.9292364968
 20
187.5110196436
 30
0.0
 40
9.587024921386496
100
AcDbArc
 50
246.6573662957
 51
263.1838182293
  0
ARC
  5
125
330
1F
100
AcDbEntity
  8
0
  6
Continuous
 62
     7
370
    35
100
AcDbCircle
 10
382.1082762482
 20
192.2842889455
 30
0.0
 40
4.991295853394029
100
AcDbArc
 50
113.3426337043
 51
156.6573662957
  0
ARC
  5
126
330
1F
100
AcDbEntity
  8
0
  6
Continuous
 62
     7
370
    35
100
AcDbCircle
 10
382.1082762482
 20
183.291442717
 30
0.0
 40
4.991295853394056
100
AcDbArc
 50
203.3426337043
 51
246.6573662957
  0
ARC
  5
127
330
1F
100
AcDbEntity
  8
0
  6
Continuous
 62
     7
370
    35
100
AcDbCircle
 10
386.3278531748
 20
190.4633286969
 30
0.0
 40
9.587024921386515
100
AcDbArc
 50
156.6573662957
 51
173.1838182293
  0
ARC
  5
128
330
1F
100
AcDbEntity
  8
0
  6
Continuous
 62
     7
370
    35
100
AcDbCircle
 10
386.3278531748
 20
185.1124029656
 30
0.0
 40
9.587024921386515
100
AcDbArc
 50
186.8161817707
 51
203.3426337043
  0
ARC
  5
129
330
1F
100
AcDbEntity
  8
0
  6
Continuous
 62
     7
370
    35
100
AcDbCircle
 10
405.4516896133
 20
188.1774712284
 30
0.0
 40
28.84699025083222
100
AcDbArc
 50
173.1838182293
 51
180.0
  0
ARC
  5
12A
330
1F
100
AcDbEntity
  8
0
  6
Continuous
 62
     7
370
    35
100
AcDbCircle
 10
405.4516896133
 20
187.398260434
 30
0.0
 40
28.84699025083222
100
AcDbArc
 50
180.0
 51
186.8161817707
  0
ARC
  5
12B
330
1F
100
AcDbEntity
  8
0
  6
Continuous
 62
     7
370
    35
100
AcDbCircle
 10
461.5943047597
 20
168.9408755804
 30
0.0
 40
28.84699025082948
100
AcDbArc
 50
83.1838182293
 51
90.0
  0
ARC
  5
12C
330
1F
100
AcDbEntity
  8
0
  6
Continuous
 62
     7
370
    35
100
AcDbCircle
 10
461.5943047597
 20
206.634856082
 30
0.0
 40
28.84699025082948
100
AcDbArc
 50
270.0
 51
276.8161817707
  0
LINE
  5
12D
330
1F
100
AcDbEntity
  8
0
  6
Continuous
 62
     7
370
    35
100
AcDbLine
 10
459.6046993625
 20
177.7878658312
 30
0.0
 11
461.5943047597
 21
177.7878658312
 31
0.0
  0
LINE
  5
12E
330
1F
100
AcDbEntity
  8
0
  6
Continuous
 62
     7
370
    35
100
AcDbLine
 10
416.6046993625
 20
177.7878658312
 30
0.0
 11
455.6046993625
 21
177.7878658312
 31
0.0
  0
LINE
  5
12F
330
1F
100
AcDbEntity
  8
0
  6
Continuous
 62
     7
370
    35
100
AcDbLine
 10
461.5943047597
 20
197.7878658312
 30
0.0
 11
416.6046993625
 21
197.7878658312
 31
0.0
  0
ARC
  5
130
330
1F
100
AcDbEntity
  8
0
  6
Continuous
 62
     7
370
    35
100
AcDbCircle
 10
463.8801622281
 20
187.5110196436
 30
0.0
 40
9.587024921386336
100
AcDbArc
 50
276.8161817707
 51
293.3426337043
  0
ARC
  5
131
330
1F
100
AcDbEntity
  8
0
  6
Continuous
 62
     7
370
    35
100
AcDbCircle
 10
463.8801622281
 20
188.0647120189
 30
0.0
 40
9.587024921386336
100
AcDbArc
 50
66.6573662957
 51
83.1838182293
  0
ARC
  5
132
330
1F
100
AcDbEntity
  8
0
  6
Continuous
 62
     7
370
    35
100
AcDbCircle
 10
465.7011224767
 20
183.291442717
 30
0.0
 40
4.991295853394029
100
AcDbArc
 50
293.3426337043
 51
336.6573662957
  0
ARC
  5
133
330
1F
100
AcDbEntity
  8
0
  6
Continuous
 62
     7
370
    35
100
AcDbCircle
 10
465.7011224767
 20
192.2842889455
 30
0.0
 40
4.991295853394018
100
AcDbArc
 50
23.3426337043
 51
66.6573662957
  0
LINE
  5
134
330
1F
100
AcDbEntity
  8
0
  6
Continuous
 62
     7
370
    35
100
AcDbLine
 10
477.6046993625
 20
217.7878658312
 30
0.0
 11
476.3709361241
 21
217.7878658312
 31
0.0
  0
LINE
  5
135
330
1F
100
AcDbEntity
  8
0
  6
Continuous
 62
     7
370
    35
100
AcDbLine
 10
476.3709361241
 20
157.7878658312
 30
0.0
 11
477.6046993625
 21
157.7878658312
 31
0.0
  0
ARC
  5
136
330
1F
100
AcDbEntity
  8
0
  6
Continuous
 62
     7
370
    35
100
AcDbCircle
 10
476.3709361241
 20
200.4796716807
 30
0.0
 40
17.30819415051645
100
AcDbArc
 50
90.0
 51
96.8161817707
  0
ARC
  5
137
330
1F
100
AcDbEntity
  8
0
  6
Continuous
 62
     7
370
    35
100
AcDbCircle
 10
476.3709361241
 20
175.0960599817
 30
0.0
 40
17.30819415051645
100
AcDbArc
 50
263.1838182293
 51
270.0
  0
ARC
  5
138
330
1F
100
AcDbEntity
  8
0
  6
Continuous
 62
     7
370
    35
100
AcDbCircle
 10
474.9994216431
 20
211.9539735438
 30
0.0
 40
5.752214952826457
100
AcDbArc
 50
96.8161817707
 51
113.3426337043
  0
ARC
  5
139
330
1F
100
AcDbEntity
  8
0
  6
Continuous
 62
     7
370
    35
100
AcDbCircle
 10
474.9994216431
 20
163.6217581186
 30
0.0
 40
5.752214952826431
100
AcDbArc
 50
246.6573662957
 51
263.1838182293
  0
ARC
  5
13A
330
1F
100
AcDbEntity
  8
0
  6
Continuous
 62
     7
370
    35
100
AcDbCircle
 10
473.9068454939
 20
214.4857196998
 30
0.0
 40
2.994777512036399
100
AcDbArc
 50
113.3426337043
 51
156.6573662957
  0
ARC
  5
13B
330
1F
100
AcDbEntity
  8
0
  6
Continuous
 62
     7
370
    35
100
AcDbCircle
 10
473.9068454939
 20
161.0900119627
 30
0.0
 40
2.994777512036372
100
AcDbArc
 50
203.3426337043
 51
246.6573662957
  0
ARC
  5
13C
330
1F
100
AcDbEntity
  8
0
  6
Continuous
 62
     7
370
    35
100
AcDbCircle
 10
476.4385916499
 20
213.3931435506
 30
0.0
 40
5.752214952824715
100
AcDbArc
 50
156.6573662957
 51
173.1838182293
  0
ARC
  5
13D
330
1F
100
AcDbEntity
  8
0
  6
Continuous
 62
     7
370
    35
100
AcDbCircle
 10
476.4385916499
 20
162.1825881118
 30
0.0
 40
5.752214952824715
100
AcDbArc
 50
186.8161817707
 51
203.3426337043
  0
ARC
  5
13E
330
1F
100
AcDbEntity
  8
0
  6
Continuous
 62
     7
370
    35
100
AcDbCircle
 10
487.912893513
 20
212.0216290695
 30
0.0
 40
17.30819415051366
100
AcDbArc
 50
173.1838182293
 51
180.0
  0
ARC
  5
13F
330
1F
100
AcDbEntity
  8
0
  6
Continuous
 62
     7
370
    35
100
AcDbCircle
 10
487.912893513
 20
163.5541025929
 30
0.0
 40
17.30819415051366
100
AcDbArc
 50
180.0
 51
186.8161817707
  0
LINE
  5
140
330
1F
100
AcDbEntity
  8
0
  6
Continuous
 62
     7
370
    35
100
AcDbLine
 10
405.2086171814
 20
201.7878658312
 30
0.0
 11
403.6046993625
 21
201.7878658312
 31
0.0
  0
SPLINE
  5
141
330
1F
100
AcDbEntity
  8
0
  6
Continuous
 62
     7
370
    35
100
AcDbSpline
210
0.0
220
0.0
230
1.0
 70
     8
 71
     3
 72
    13
 73
     9
 74
     0
 42
0.00000001
 43
0.00000001
 40
0.0
 40
0.0
 40
0.0
 40
0.0
 40
0.1173413890741389
 40
0.2784200670976195
 40
0.4268812058264405
 40
0.5728229426406893
 40
0.7872461438876178
 40
1.0
 40
1.0
 40
1.0
 40
1.0
 10
406.5959421543839
 20
201.7878657539237
 30
0.0
 10
406.595336168514
 20
201.7878656554406
 30
0.0
 10
406.5938983243918
 20
201.7878654217663
 30
0.0
 10
406.4911069920326
 20
201.7878658697242
 30
0.0
 10
406.3200581773229
 20
201.7878657762576
 30
0.0
 10
406.0576381804119
 20
201.7878658565809
 30
0.0
 10
405.6860133107264
 20
201.7878658056507
 30
0.0
 10
405.3673341073438
 20
201.7878658227166
 30
0.0
 10
405.208617181389
 20
201.7878658312161
 30
0.0
  0
LINE
  5
142
330
1F
100
AcDbEntity
  8
0
  6
Continuous
 62
     7
370
    35
100
AcDbLine
 10
477.6046993625
 20
193.7878658312
 30
0.0
 11
478.0046993625
 21
193.7878658312
 31
0.0
  0
LINE
  5
143
330
1F
100
AcDbEntity
  8
0
  6
Continuous
 62
     7
370
    35
100
AcDbLine
 10
478.0046993625
 20
193.7878658312
 30
0.0
 11
478.0046993625
 21
196.5683536361
 31
0.0
  0
LINE
  5
144
330
1F
100
AcDbEntity
  8
0
  6
Continuous
 62
     7
370
    35
100
AcDbLine
 10
478.0046993625
 20
181.7878658312
 30
0.0
 11
478.0046993625
 21
193.7878658312
 31
0.0
  0
LINE
  5
145
330
1F
100
AcDbEntity
  8
0
  6
Continuous
 62
     7
370
    35
100
AcDbLine
 10
478.0046993625
 20
179.0073780263
 30
0.0
 11
478.0046993625
 21
181.7878658312
 31
0.0
  0
LINE
  5
146
330
1F
100
AcDbEntity
  8
0
  6
Continuous
 62
     7
370
    35
100
AcDbLine
 10
478.0046993625
 20
165.2878658312
 30
0.0
 11
478.0046993625
 21
179.0073780263
 31
0.0
  0
LINE
  5
147
330
1F
100
AcDbEntity
  8
0
  6
Continuous
 62
     7
370
    35
100
AcDbLine
 10
478.0046993625
 20
196.5683536361
 30
0.0
 11
478.0046993625
 21
210.2878658312
 31
0.0
  0
LINE
  5
148
330
1F
100
AcDbEntity
  8
0
  6
Continuous
 62
     7
370
    35
100
AcDbLine
 10
478.0046993625
 20
181.7878658312
 30
0.0
 11
477.6046993625
 21
181.7878658312
 31
0.0
  0
LINE
  5
149
330
1F
100
AcDbEntity
  8
0
  6
Continuous
 62
   144
370
    18
100
AcDbLine
 10
416.6046993625
 20
197.7878658312
 30
0.0
 11
416.6046993625
 21
177.7878658312
 31
0.0
  0
LINE
  5
14A
330
1F
100
AcDbEntity
  8
0
  6
Continuous
 62
     7
370
    35
100
AcDbLine
 10
376.6046993625
 20
188.1774711815
 30
0.0
 11
376.6046993625
 21
187.398260434
 31
0.0
  0
LINE
  5
14B
330
1F
100
AcDbEntity
  8
0
  6
Continuous
 62
     7
370
    35
100
AcDbLine
 10
416.6046993625
 20
197.7878658312
 30
0.0
 11
416.6046993625
 21
177.7878658312
 31
0.0
  0
SPLINE
  5
14C
330
1F
100
AcDbEntity
  8
0
  6
Continuous
 62
     7
370
    35
100
AcDbSpline
210
0.0
220
0.0
230
1.0
 70
     8
 71
     3
 72
    37
 73
    33
 74
     0
 42
0.00000001
 43
0.00000001
 40
0.0
 40
0.0
 40
0.0
 40
0.0
 40
0.0066494886004192
 40
0.0338307839207771
 40
0.0596730759088084
 40
0.1122284146542158
 40
0.1390003707156294
 40
0.1650172510884531
 40
0.21790809306331
 40
0.2448400552324687
 40
0.2713004791979133
 40
0.3251141031884179
 40
0.3525332555988791
 40
0.3790317290093954
 40
0.4329558225250456
 40
0.4604527099117862
 40
0.4865006784896939
 40
0.5394993908019149
 40
0.5665147136212377
 40
0.5923318848949614
 40
0.644825431789578
 40
0.6715589869480757
 40
0.6977179840301913
 40
0.750899652484885
 40
0.7779822391792888
 40
0.8045264454209297
 40
0.858523226656238
 40
0.8860445379827383
 40
0.9124226897788346
 40
0.9661038123378785
 40
0.9934767301236902
 40
1.0
 40
1.0
 40
1.0
 40
1.0
 10
455.60777495676
 20
177.788478148558
 30
0.0
 10
455.6067281761552
 20
177.7882698150535
 30
0.0
 10
455.601402442015
 20
177.7872098710191
 30
0.0
 10
455.6148895651061
 20
177.7899038952077
 30
0.0
 10
455.6450413428526
 20
177.7958819948983
 30
0.0
 10
455.7052708689426
 20
177.8076244117258
 30
0.0
 10
455.7900960602468
 20
177.8233687820382
 30
0.0
 10
455.8918876974414
 20
177.8415658070289
 30
0.0
 10
456.0177356099645
 20
177.8626565797184
 30
0.0
 10
456.165370425635
 20
177.8849745863163
 30
0.0
 10
456.327694222533
 20
177.9076444453854
 30
0.0
 10
456.5098420807229
 20
177.9297576150134
 30
0.0
 10
456.706933666973
 20
177.9492467394348
 30
0.0
 10
456.9129093734246
 20
177.9664750289181
 30
0.0
 10
457.1304037305258
 20
177.9795486772161
 30
0.0
 10
457.3528471660824
 20
177.9871449293309
 30
0.0
 10
457.5757951337416
 20
177.9909628617135
 30
0.0
 10
457.799423345811
 20
177.9890752479367
 30
0.0
 10
458.0184940590736
 20
177.9816202575395
 30
0.0
 10
458.2325672539444
 20
177.9708008603396
 30
0.0
 10
458.4384258476892
 20
177.9553617288106
 30
0.0
 10
458.6322102007504
 20
177.9365148601284
 30
0.0
 10
458.8176963027933
 20
177.9158293817274
 30
0.0
 10
458.987846440728
 20
177.8932869245914
 30
0.0
 10
459.1383609214398
 20
177.8707930229071
 30
0.0
 10
459.2756162719953
 20
177.8488225893626
 30
0.0
 10
459.3904629165415
 20
177.8286920434136
 30
0.0
 10
459.4787900533568
 20
177.812342353268
 30
0.0
 10
459.5494357149072
 20
177.7988530374379
 30
0.0
 10
459.59082557264
 20
177.7906392676131
 30
0.0
 10
459.6057556589058
 20
177.7876548133201
 30
0.0
 10
459.6038178982076
 20
177.7880420165894
 30
0.0
 10
459.6034449791019
 20
177.788116533271
 30
0.0
  0
LINE
  5
14D
330
1F
100
AcDbEntity
  8
0
  6
Continuous
 62
   144
370
    18
100
AcDbLine
 10
470.2838897602
 20
187.7878658312
 30
0.0
 11
470.2838897602
 21
194.2619841497
 31
0.0
  0
LINE
  5
14E
330
1F
100
AcDbEntity
  8
0
  6
Continuous
 62
   144
370
    18
100
AcDbLine
 10
470.2838897602
 20
181.3137475127
 30
0.0
 11
470.2838897602
 21
187.7878658312
 31
0.0
  0
ARC
  5
14F
330
1F
100
AcDbEntity
  8
0
  6
Continuous
 62
     7
370
    35
100
AcDbCircle
 10
405.1046993625
 20
187.7878658312
 30
0.0
 40
9.999999999999977
100
AcDbArc
 50
98.2701165202
 51
81.7298834798
  0
SPLINE
  5
150
330
1F
100
AcDbEntity
  8
0
  6
Continuous
 62
   144
370
    18
100
AcDbSpline
210
0.0
220
0.0
230
1.0
 70
     8
 71
     3
 72
    20
 73
    16
 74
     0
 42
0.00000001
 43
0.00000001
 40
0.0
 40
0.0
 40
0.0
 40
0.0
 40
0.0420481540898927
 40
0.083705796421962
 40
0.1251542019569308
 40
0.1665773991379056
 40
0.2081597912776915
 40
0.2500837538139647
 40
0.3751371403423885
 40
0.5000295489918549
 40
0.6247719423034794
 40
0.7497365814540549
 40
0.833289928202246
 40
0.9162184820324242
 40
1.0
 40
1.0
 40
1.0
 40
1.0
 10
406.5431001550385
 20
197.6838752875536
 30
0.0
 10
406.5113413545324
 20
197.6883732803278
 30
0.0
 10
406.4481187054695
 20
197.6973274918887
 30
0.0
 10
406.3459081001952
 20
197.710177555884
 30
0.0
 10
406.2390346547424
 20
197.7223823661766
 30
0.0
 10
406.1269527569231
 20
197.7338113831486
 30
0.0
 10
406.0098037801069
 20
197.7443577608778
 30
0.0
 10
405.8075233301489
 20
197.7601413444249
 30
0.0
 10
405.5072464821906
 20
197.7765055625125
 30
0.0
 10
405.1049878298647
 20
197.7838523043802
 30
0.0
 10
404.7028238608347
 20
197.7765209850413
 30
0.0
 10
404.3599154198386
 20
197.7578812281495
 30
0.0
 10
404.0814572667387
 20
197.7343666989332
 30
0.0
 10
403.8592069079459
 20
197.7105103973956
 30
0.0
 10
403.7308203105438
 20
197.6927838897781
 30
0.0
 10
403.6662985698893
 20
197.6838752875536
 30
0.0
  0
LINE
  5
151
330
1F
100
AcDbEntity
  8
0
  6
Continuous
 62
     7
370
    35
100
AcDbLine
 10
477.6046993625
 20
157.7878658312
 30
0.0
 11
477.6046993625
 21
217.7878658312
 31
0.0
  0
SPLINE
  5
152
330
1F
100
AcDbEntity
  8
0
  6
Continuous
 62
     7
370
    35
100
AcDbSpline
210
0.0
220
0.0
230
1.0
 70
    24
 71
     3
 72
    13
 73
     9
 74
     0
 42
0.00000001
 43
0.00000001
 40
0.0
 40
0.0
 40
0.0
 40
0.0
 40
0.167156995347103
 40
0.3343453561184419
 40
0.5234758236321814
 40
0.7126731196610231
 40
0.9258320637244544
 40
1.0
 40
1.0
 40
1.0
 40
1.0
 10
470.6046993624639
 20
165.4503672238885
 30
0.0
 10
470.6046993624639
 20
165.2513374242502
 30
0.0
 10
470.6046993624639
 20
164.85324047892
 30
0.0
 10
470.6046993624639
 20
164.3643674768239
 30
0.0
 10
470.6046993624639
 20
163.9643695188839
 30
0.0
 10
470.6046993624639
 20
163.684887211265
 30
0.0
 10
470.6046993624639
 20
163.5474688013194
 30
0.0
 10
470.6046993624639
 20
163.5684077243818
 30
0.0
 10
470.6046993624639
 20
163.5738127067125
 30
0.0
  0
SPLINE
  5
153
330
1F
100
AcDbEntity
  8
0
  6
Continuous
 62
     7
370
    35
100
AcDbSpline
210
0.0
220
0.0
230
1.0
 70
    24
 71
     3
 72
    37
 73
    33
 74
     0
 42
0.00000001
 43
0.00000001
 40
0.0
 40
0.0
 40
0.0
 40
0.0
 40
0.0201878491610741
 40
0.0547963897954568
 40
0.0894125554337301
 40
0.1149213162638388
 40
0.1403709537821762
 40
0.1658866421873414
 40
0.1935672051645271
 40
0.2211712127553859
 40
0.2488586754320997
 40
0.2928154585197154
 40
0.3367800115472636
 40
0.3820948893209204
 40
0.4274177771158978
 40
0.472732655374637
 40
0.5180555436547245
 40
0.5620123280298699
 40
0.6059768823449003
 40
0.6336574438386141
 40
0.661261451429473
 40
0.6889489127765798
 40
0.7144576745265909
 40
0.7399073120449284
 40
0.7654230014489578
 40
0.8000315421119978
 40
0.8346477079472981
 40
0.8655944055561791
 40
0.8965500514065655
 40
0.9331486961725403
 40
0.9676474714723868
 40
1.0
 40
1.0
 40
1.0
 40
1.0
 10
470.6046993624639
 20
212.0019189557197
 30
0.0
 10
470.6046993624639
 20
212.0023708038427
 30
0.0
 10
470.6046993624638
 20
212.003597266636
 30
0.0
 10
470.6046993624639
 20
211.7797179191899
 30
0.0
 10
470.6046993624639
 20
211.3721040517011
 30
0.0
 10
470.6046993624639
 20
210.8467344908832
 30
0.0
 10
470.6046993624639
 20
210.2654093210538
 30
0.0
 10
470.6046993624638
 20
209.5537697220246
 30
0.0
 10
470.6046993624639
 20
208.7065884654804
 30
0.0
 10
470.6046993624638
 20
207.7155506135356
 30
0.0
 10
470.6046993624639
 20
206.3926102675945
 30
0.0
 10
470.6046993624639
 20
204.6570441380914
 30
0.0
 10
470.6046993624639
 20
202.406909489277
 30
0.0
 10
470.6046993624639
 20
199.9153415139096
 30
0.0
 10
470.6046993624639
 20
197.2094181106845
 30
0.0
 10
470.6046993624639
 20
194.3594982129294
 30
0.0
 10
470.6046993624639
 20
191.436482433581
 30
0.0
 10
470.6046993624638
 20
188.4898337668199
 30
0.0
 10
470.6046993624639
 20
185.9236756421867
 30
0.0
 10
470.6046993624639
 20
183.741637108354
 30
0.0
 10
470.6046993624639
 20
181.9405319335659
 30
0.0
 10
470.6046993624639
 20
180.2195901155052
 30
0.0
 10
470.6046993624639
 20
178.5841232295539
 30
0.0
 10
470.6046993624638
 20
177.0389346423504
 30
0.0
 10
470.6046993624639
 20
175.3690230585566
 30
0.0
 10
470.6046993624639
 20
173.6064432780232
 30
0.0
 10
470.6046993624639
 20
171.866968746731
 30
0.0
 10
470.6046993624639
 20
170.3173306361541
 30
0.0
 10
470.6046993624639
 20
168.8691342057841
 30
0.0
 10
470.6046993624639
 20
167.5345049172644
 30
0.0
 10
470.6046993624639
 20
166.3549523610604
 30
0.0
 10
470.6046993624639
 20
165.7453721219983
 30
0.0
 10
470.6046993624639
 20
165.4503672238885
 30
0.0
  0
LINE
  5
154
330
1F
100
AcDbEntity
  8
0
  6
Continuous
 62
     7
370
    35
100
AcDbLine
 10
214.0235009379
 20
341.7472531433
 30
0.0
 11
214.0235009379
 21
342.1472531433
 31
0.0
  0
LINE
  5
155
330
1F
100
AcDbEntity
  8
0
  6
Continuous
 62
     7
370
    35
100
AcDbLine
 10
172.2743287616
 20
342.1472531433
 30
0.0
 11
172.2743287616
 21
341.7472531433
 31
0.0
  0
LINE
  5
156
330
1F
100
AcDbEntity
  8
0
  6
Continuous
 62
     7
370
    35
100
AcDbLine
 10
183.1489148498
 20
280.7472531433
 30
0.0
 11
183.1489148498
 21
250.3576477461
 31
0.0
  0
LINE
  5
157
330
1F
100
AcDbEntity
  8
0
  6
Continuous
 62
     7
370
    35
100
AcDbLine
 10
203.1489148498
 20
250.3576477461
 30
0.0
 11
203.1489148498
 21
262.5204411255
 31
0.0
  0
LINE
  5
158
330
1F
100
AcDbEntity
  8
0
  6
Continuous
 62
     7
370
    35
100
AcDbLine
 10
203.1489148498
 20
275.9740651611
 30
0.0
 11
203.1489148498
 21
280.7472531433
 31
0.0
  0
ARC
  5
159
330
1F
100
AcDbEntity
  8
0
  6
Continuous
 62
     7
370
    35
100
AcDbCircle
 10
174.3019245989
 20
250.3576477461
 30
0.0
 40
28.84699025082932
100
AcDbArc
 50
353.1838182293
 51
0.0
  0
ARC
  5
15A
330
1F
100
AcDbEntity
  8
0
  6
Continuous
 62
     7
370
    35
100
AcDbCircle
 10
211.9959051006
 20
250.3576477461
 30
0.0
 40
28.84699025082932
100
AcDbArc
 50
180.0
 51
186.8161817707
  0
ARC
  5
15B
330
1F
100
AcDbEntity
  8
0
  6
Continuous
 62
     7
370
    35
100
AcDbCircle
 10
192.8720686621
 20
248.0717902776
 30
0.0
 40
9.587024921386456
100
AcDbArc
 50
186.8161817707
 51
203.3426337043
  0
ARC
  5
15C
330
1F
100
AcDbEntity
  8
0
  6
Continuous
 62
     7
370
    35
100
AcDbCircle
 10
193.4257610374
 20
248.0717902776
 30
0.0
 40
9.587024921386496
100
AcDbArc
 50
336.6573662957
 51
353.1838182293
  0
ARC
  5
15D
330
1F
100
AcDbEntity
  8
0
  6
Continuous
 62
     7
370
    35
100
AcDbCircle
 10
188.6524917355
 20
246.250830029
 30
0.0
 40
4.991295853394019
100
AcDbArc
 50
203.3426337043
 51
246.6573662957
  0
ARC
  5
15E
330
1F
100
AcDbEntity
  8
0
  6
Continuous
 62
     7
370
    35
100
AcDbCircle
 10
197.645337964
 20
246.250830029
 30
0.0
 40
4.991295853394041
100
AcDbArc
 50
293.3426337043
 51
336.6573662957
  0
ARC
  5
15F
330
1F
100
AcDbEntity
  8
0
  6
Continuous
 62
     7
370
    35
100
AcDbCircle
 10
190.4734519841
 20
250.4704069556
 30
0.0
 40
9.587024921386568
100
AcDbArc
 50
246.6573662957
 51
263.1838182293
  0
ARC
  5
160
330
1F
100
AcDbEntity
  8
0
  6
Continuous
 62
     7
370
    35
100
AcDbCircle
 10
195.8243777154
 20
250.4704069556
 30
0.0
 40
9.587024921386565
100
AcDbArc
 50
276.8161817707
 51
293.3426337043
  0
ARC
  5
161
330
1F
100
AcDbEntity
  8
0
  6
Continuous
 62
     7
370
    35
100
AcDbCircle
 10
192.7593094526
 20
269.5942433941
 30
0.0
 40
28.84699025083222
100
AcDbArc
 50
263.1838182293
 51
270.0
  0
ARC
  5
162
330
1F
100
AcDbEntity
  8
0
  6
Continuous
 62
     7
370
    35
100
AcDbCircle
 10
193.538520247
 20
269.5942433941
 30
0.0
 40
28.84699025083222
100
AcDbArc
 50
270.0
 51
276.8161817707
  0
LINE
  5
163
330
1F
100
AcDbEntity
  8
0
  6
Continuous
 62
     7
370
    35
100
AcDbLine
 10
269.1105814775
 20
279.2472531433
 30
0.0
 11
211.7209760803
 21
279.2472531433
 31
0.0
  0
LINE
  5
164
330
1F
100
AcDbEntity
  8
0
  6
Continuous
 62
     7
370
    35
100
AcDbLine
 10
211.7209760803
 20
259.2472531433
 30
0.0
 11
269.1105814775
 21
259.2472531433
 31
0.0
  0
ARC
  5
165
330
1F
100
AcDbEntity
  8
0
  6
Continuous
 62
     7
370
    35
100
AcDbCircle
 10
211.7209760803
 20
288.0942433941
 30
0.0
 40
28.84699025082854
100
AcDbArc
 50
263.1838182293
 51
270.0
  0
ARC
  5
166
330
1F
100
AcDbEntity
  8
0
  6
Continuous
 62
     7
370
    35
100
AcDbCircle
 10
211.7209760803
 20
250.4002628925
 30
0.0
 40
28.84699025082854
100
AcDbArc
 50
90.0
 51
96.8161817707
  0
ARC
  5
167
330
1F
100
AcDbEntity
  8
0
  6
Continuous
 62
     7
370
    35
100
AcDbCircle
 10
209.4351186119
 20
269.5240993309
 30
0.0
 40
9.5870249213865
100
AcDbArc
 50
96.8161817707
 51
113.3426337043
  0
ARC
  5
168
330
1F
100
AcDbEntity
  8
0
  6
Continuous
 62
     7
370
    35
100
AcDbCircle
 10
209.4351186119
 20
268.9704069556
 30
0.0
 40
9.587024921386515
100
AcDbArc
 50
246.6573662957
 51
263.1838182293
  0
ARC
  5
169
330
1F
100
AcDbEntity
  8
0
  6
Continuous
 62
     7
370
    35
100
AcDbCircle
 10
207.6141583633
 20
273.7436762575
 30
0.0
 40
4.991295853394004
100
AcDbArc
 50
113.3426337043
 51
153.4578740949
  0
ARC
  5
16A
330
1F
100
AcDbEntity
  8
0
  6
Continuous
 62
     7
370
    35
100
AcDbCircle
 10
207.6141583633
 20
264.750830029
 30
0.0
 40
4.991295853394004
100
AcDbArc
 50
206.5421259051
 51
246.6573662957
  0
ARC
  5
16B
330
1F
100
AcDbEntity
  8
0
  6
Continuous
 62
     7
370
    35
100
AcDbCircle
 10
211.9959051006
 20
325.7368585405
 30
0.0
 40
28.84699025082946
100
AcDbArc
 50
173.1838182293
 51
180.0
  0
ARC
  5
16C
330
1F
100
AcDbEntity
  8
0
  6
Continuous
 62
     7
370
    35
100
AcDbCircle
 10
174.3019245989
 20
325.7368585405
 30
0.0
 40
28.84699025082948
100
AcDbArc
 50
0.0
 51
6.8161817707
  0
LINE
  5
16D
330
1F
100
AcDbEntity
  8
0
  6
Continuous
 62
     7
370
    35
100
AcDbLine
 10
203.1489148498
 20
280.7472531433
 30
0.0
 11
203.1489148498
 21
325.7368585405
 31
0.0
  0
LINE
  5
16E
330
1F
100
AcDbEntity
  8
0
  6
Continuous
 62
     7
370
    35
100
AcDbLine
 10
183.1489148498
 20
325.7368585405
 30
0.0
 11
183.1489148498
 21
280.7472531433
 31
0.0
  0
ARC
  5
16F
330
1F
100
AcDbEntity
  8
0
  6
Continuous
 62
     7
370
    35
100
AcDbCircle
 10
193.4257610374
 20
328.0227160089
 30
0.0
 40
9.58702492138632
100
AcDbArc
 50
6.8161817707
 51
23.3426337043
  0
ARC
  5
170
330
1F
100
AcDbEntity
  8
0
  6
Continuous
 62
     7
370
    35
100
AcDbCircle
 10
192.8720686621
 20
328.0227160089
 30
0.0
 40
9.58702492138632
100
AcDbArc
 50
156.6573662957
 51
173.1838182293
  0
ARC
  5
171
330
1F
100
AcDbEntity
  8
0
  6
Continuous
 62
     7
370
    35
100
AcDbCircle
 10
197.645337964
 20
329.8436762575
 30
0.0
 40
4.991295853394007
100
AcDbArc
 50
23.3426337043
 51
66.6573662957
  0
ARC
  5
172
330
1F
100
AcDbEntity
  8
0
  6
Continuous
 62
     7
370
    35
100
AcDbCircle
 10
188.6524917355
 20
329.8436762575
 30
0.0
 40
4.991295853394007
100
AcDbArc
 50
113.3426337043
 51
156.6573662957
  0
ARC
  5
173
330
1F
100
AcDbEntity
  8
0
  6
Continuous
 62
     7
370
    35
100
AcDbCircle
 10
327.5001868747
 20
250.4002628925
 30
0.0
 40
28.84699025082943
100
AcDbArc
 50
83.1838182293
 51
90.0
  0
ARC
  5
174
330
1F
100
AcDbEntity
  8
0
  6
Continuous
 62
     7
370
    35
100
AcDbCircle
 10
327.5001868747
 20
288.0942433941
 30
0.0
 40
28.8469902508294
100
AcDbArc
 50
270.0
 51
276.8161817707
  0
LINE
  5
175
330
1F
100
AcDbEntity
  8
0
  6
Continuous
 62
     7
370
    35
100
AcDbLine
 10
269.1105814775
 20
259.2472531433
 30
0.0
 11
327.5001868747
 21
259.2472531433
 31
0.0
  0
LINE
  5
176
330
1F
100
AcDbEntity
  8
0
  6
Continuous
 62
     7
370
    35
100
AcDbLine
 10
327.5001868747
 20
279.2472531433
 30
0.0
 11
269.1105814775
 21
279.2472531433
 31
0.0
  0
ARC
  5
177
330
1F
100
AcDbEntity
  8
0
  6
Continuous
 62
     7
370
    35
100
AcDbCircle
 10
329.7860443432
 20
268.9704069556
 30
0.0
 40
9.587024921384838
100
AcDbArc
 50
276.8161817707
 51
293.3426337043
  0
ARC
  5
178
330
1F
100
AcDbEntity
  8
0
  6
Continuous
 62
     7
370
    35
100
AcDbCircle
 10
329.7860443432
 20
269.5240993309
 30
0.0
 40
9.587024921384785
100
AcDbArc
 50
66.6573662957
 51
83.1838182293
  0
ARC
  5
179
330
1F
100
AcDbEntity
  8
0
  6
Continuous
 62
     7
370
    35
100
AcDbCircle
 10
331.6070045918
 20
264.750830029
 30
0.0
 40
4.991295853393943
100
AcDbArc
 50
293.3426337043
 51
336.6573662957
  0
ARC
  5
17A
330
1F
100
AcDbEntity
  8
0
  6
Continuous
 62
     7
370
    35
100
AcDbCircle
 10
331.6070045918
 20
273.7436762575
 30
0.0
 40
4.991295853393981
100
AcDbArc
 50
23.3426337043
 51
66.6573662957
  0
ARC
  5
17B
330
1F
100
AcDbEntity
  8
0
  6
Continuous
 62
     7
370
    35
100
AcDbCircle
 10
327.3874276652
 20
266.5717902776
 30
0.0
 40
9.587024921385515
100
AcDbArc
 50
336.6573662957
 51
353.1838182293
  0
ARC
  5
17C
330
1F
100
AcDbEntity
  8
0
  6
Continuous
 62
     7
370
    35
100
AcDbCircle
 10
327.3874276652
 20
271.9227160089
 30
0.0
 40
9.587024921385494
100
AcDbArc
 50
6.8161817707
 51
23.3426337043
  0
ARC
  5
17D
330
1F
100
AcDbEntity
  8
0
  6
Continuous
 62
     7
370
    35
100
AcDbCircle
 10
308.2635912267
 20
268.8576477461
 30
0.0
 40
28.84699025085333
100
AcDbArc
 50
353.1838182293
 51
0.0
  0
ARC
  5
17E
330
1F
100
AcDbEntity
  8
0
  6
Continuous
 62
     7
370
    35
100
AcDbCircle
 10
308.2635912267
 20
269.6368585405
 30
0.0
 40
28.84699025085333
100
AcDbArc
 50
0.0
 51
6.8161817707
  0
LINE
  5
17F
330
1F
100
AcDbEntity
  8
0
  6
Continuous
 62
     7
370
    35
100
AcDbLine
 10
163.1489148498
 20
341.7472531433
 30
0.0
 11
163.1489148498
 21
340.513489905
 31
0.0
  0
LINE
  5
180
330
1F
100
AcDbEntity
  8
0
  6
Continuous
 62
     7
370
    35
100
AcDbLine
 10
223.1489148498
 20
340.513489905
 30
0.0
 11
223.1489148498
 21
341.7472531433
 31
0.0
  0
ARC
  5
181
330
1F
100
AcDbEntity
  8
0
  6
Continuous
 62
     7
370
    35
100
AcDbCircle
 10
180.4571090003
 20
340.513489905
 30
0.0
 40
17.30819415051645
100
AcDbArc
 50
180.0
 51
186.8161817707
  0
ARC
  5
182
330
1F
100
AcDbEntity
  8
0
  6
Continuous
 62
     7
370
    35
100
AcDbCircle
 10
205.8407206993
 20
340.513489905
 30
0.0
 40
17.30819415051642
100
AcDbArc
 50
353.1838182293
 51
360.0
  0
ARC
  5
183
330
1F
100
AcDbEntity
  8
0
  6
Continuous
 62
     7
370
    35
100
AcDbCircle
 10
168.9828071372
 20
339.1419754239
 30
0.0
 40
5.752214952826447
100
AcDbArc
 50
186.8161817707
 51
203.3426337043
  0
ARC
  5
184
330
1F
100
AcDbEntity
  8
0
  6
Continuous
 62
     7
370
    35
100
AcDbCircle
 10
217.3150225624
 20
339.1419754239
 30
0.0
 40
5.752214952826406
100
AcDbArc
 50
336.6573662957
 51
353.1838182293
  0
ARC
  5
185
330
1F
100
AcDbEntity
  8
0
  6
Continuous
 62
     7
370
    35
100
AcDbCircle
 10
166.4510609812
 20
338.0493992747
 30
0.0
 40
2.994777512036432
100
AcDbArc
 50
203.3426337043
 51
246.6573662957
  0
ARC
  5
186
330
1F
100
AcDbEntity
  8
0
  6
Continuous
 62
     7
370
    35
100
AcDbCircle
 10
219.8467687183
 20
338.0493992747
 30
0.0
 40
2.994777512036409
100
AcDbArc
 50
293.3426337043
 51
336.6573662957
  0
ARC
  5
187
330
1F
100
AcDbEntity
  8
0
  6
Continuous
 62
     7
370
    35
100
AcDbCircle
 10
167.5436371304
 20
340.5811454307
 30
0.0
 40
5.752214952824658
100
AcDbArc
 50
246.6573662957
 51
263.1838182293
  0
ARC
  5
188
330
1F
100
AcDbEntity
  8
0
  6
Continuous
 62
     7
370
    35
100
AcDbCircle
 10
218.7541925692
 20
340.5811454307
 30
0.0
 40
5.752214952824661
100
AcDbArc
 50
276.8161817707
 51
293.3426337043
  0
ARC
  5
189
330
1F
100
AcDbEntity
  8
0
  6
Continuous
 62
     7
370
    35
100
AcDbCircle
 10
168.9151516115
 20
352.0554472938
 30
0.0
 40
17.30819415051366
100
AcDbArc
 50
263.1838182293
 51
270.0
  0
ARC
  5
18A
330
1F
100
AcDbEntity
  8
0
  6
Continuous
 62
     7
370
    35
100
AcDbCircle
 10
217.3826780881
 20
352.0554472938
 30
0.0
 40
17.30819415051366
100
AcDbArc
 50
270.0
 51
276.8161817707
  0
CIRCLE
  5
18B
330
1F
100
AcDbEntity
  8
0
  6
Continuous
 62
     7
370
    35
100
AcDbCircle
 10
326.1105814775
 20
269.2472531433
 30
0.0
 40
1.999999999999998
  0
LINE
  5
18C
330
1F
100
AcDbEntity
  8
0
  6
Continuous
 62
     7
370
    35
100
AcDbLine
 10
214.0235009379
 20
342.1472531433
 30
0.0
 11
213.8649239709
 21
342.1472531433
 31
0.0
  0
LINE
  5
18D
330
1F
100
AcDbEntity
  8
0
  6
Continuous
 62
     7
370
    35
100
AcDbLine
 10
172.4329057286
 20
342.1472531433
 30
0.0
 11
172.2743287616
 21
342.1472531433
 31
0.0
  0
LINE
  5
18E
330
1F
100
AcDbEntity
  8
0
  6
Continuous
 62
     7
370
    35
100
AcDbLine
 10
213.8649239709
 20
342.1472531433
 30
0.0
 11
172.4329057286
 21
342.1472531433
 31
0.0
  0
LINE
  5
18F
330
1F
100
AcDbEntity
  8
0
  6
Continuous
 62
   144
370
    18
100
AcDbLine
 10
183.1489148498
 20
280.7472531433
 30
0.0
 11
203.1489148498
 21
280.7472531433
 31
0.0
  0
LINE
  5
190
330
1F
100
AcDbEntity
  8
0
  6
Continuous
 62
     7
370
    35
100
AcDbLine
 10
192.7593094526
 20
240.7472531433
 30
0.0
 11
193.538520247
 21
240.7472531433
 31
0.0
  0
LINE
  5
191
330
1F
100
AcDbEntity
  8
0
  6
Continuous
 62
     7
370
    35
100
AcDbLine
 10
269.1105814775
 20
269.2472531433
 30
0.0
 11
269.1105814775
 21
279.2472531433
 31
0.0
  0
LINE
  5
192
330
1F
100
AcDbEntity
  8
0
  6
Continuous
 62
     7
370
    35
100
AcDbLine
 10
269.1105814775
 20
259.2472531433
 30
0.0
 11
269.1105814775
 21
269.2472531433
 31
0.0
  0
LINE
  5
193
330
1F
100
AcDbEntity
  8
0
  6
Continuous
 62
     7
370
    35
100
AcDbLine
 10
193.1489148498
 20
280.7472531433
 30
0.0
 11
203.1489148498
 21
280.7472531433
 31
0.0
  0
LINE
  5
194
330
1F
100
AcDbEntity
  8
0
  6
Continuous
 62
     7
370
    35
100
AcDbLine
 10
183.1489148498
 20
280.7472531433
 30
0.0
 11
193.1489148498
 21
280.7472531433
 31
0.0
  0
LINE
  5
195
330
1F
100
AcDbEntity
  8
0
  6
Continuous
 62
   144
370
    18
100
AcDbLine
 10
199.6230331683
 20
334.4264435411
 30
0.0
 11
186.6747965313
 21
334.4264435411
 31
0.0
  0
LINE
  5
196
330
1F
100
AcDbEntity
  8
0
  6
Continuous
 62
   144
370
    18
100
AcDbLine
 10
327.5001868747
 20
270.6856539359
 30
0.0
 11
327.5551668047
 21
270.6208419123
 31
0.0
  0
LINE
  5
197
330
1F
100
AcDbEntity
  8
0
  6
Continuous
 62
   144
370
    18
100
AcDbLine
 10
328.0884695706
 20
269.4686708634
 30
0.0
 11
328.1006425449
 21
269.3468467748
 31
0.0
  0
LINE
  5
198
330
1F
100
AcDbEntity
  8
0
  6
Continuous
 62
   144
370
    18
100
AcDbLine
 10
327.5663186308
 20
267.8868281648
 30
0.0
 11
327.5001868747
 21
267.8088523507
 31
0.0
  0
LINE
  5
199
330
1F
100
AcDbEntity
  8
0
  6
Continuous
 62
     7
370
    35
100
AcDbLine
 10
269.1105814775
 20
279.2472531433
 30
0.0
 11
269.1105814775
 21
259.2472531433
 31
0.0
  0
SPLINE
  5
19A
330
1F
100
AcDbEntity
  8
0
  6
Continuous
 62
   144
370
    18
100
AcDbSpline
210
0.0
220
0.0
230
1.0
 70
     8
 71
     3
 72
     9
 73
     5
 74
     0
 42
0.00000001
 43
0.00000001
 40
0.0
 40
0.0
 40
0.0
 40
0.0
 40
0.9268563631685482
 40
1.0
 40
1.0
 40
1.0
 40
1.0
 10
327.5001868747217
 20
267.8088523507066
 30
0.0
 10
327.3551188688741
 20
267.6729009891714
 30
0.0
 10
327.1986027013079
 20
267.5262209134469
 30
0.0
 10
326.999537592643
 20
267.4602153056675
 30
0.0
 10
326.984977246629
 20
267.4553874154633
 30
0.0
  0
SPLINE
  5
19B
330
1F
100
AcDbEntity
  8
0
  6
Continuous
 62
   144
370
    18
100
AcDbSpline
210
0.0
220
0.0
230
1.0
 70
     8
 71
     3
 72
     9
 73
     5
 74
     0
 42
0.00000001
 43
0.00000001
 40
0.0
 40
0.0
 40
0.0
 40
0.0
 40
0.0904739371857761
 40
1.0
 40
1.0
 40
1.0
 40
1.0
 10
326.9715257922981
 20
271.0439900935124
 30
0.0
 10
326.9899769610976
 20
271.0379484099847
 30
0.0
 10
327.1939160110986
 20
270.9711702447407
 30
0.0
 10
327.3543070471716
 20
270.8216481646576
 30
0.0
 10
327.5001868747217
 20
270.6856539358558
 30
0.0
  0
LINE
  5
19C
330
1F
100
AcDbEntity
  8
0
  6
Continuous
 62
     7
370
    35
100
AcDbLine
 10
337.1105814775
 20
268.8576477461
 30
0.0
 11
337.1105814775
 21
269.6368585405
 31
0.0
  0
LINE
  5
19D
330
1F
100
AcDbEntity
  8
0
  6
Continuous
 62
     7
370
    35
100
AcDbLine
 10
223.1489148498
 20
341.7472531433
 30
0.0
 11
163.1489148498
 21
341.7472531433
 31
0.0
  0
SPLINE
  5
19E
330
1F
100
AcDbEntity
  8
0
  6
Continuous
 62
     7
370
    35
100
AcDbSpline
210
0.0
220
0.0
230
1.0
 70
    24
 71
     3
 72
    21
 73
    17
 74
     0
 42
0.00000001
 43
0.00000001
 40
0.0
 40
0.0
 40
0.0
 40
0.0
 40
0.0782212792184749
 40
0.1429772577919534
 40
0.2075541459628099
 40
0.2723262660708173
 40
0.3320015305946152
 40
0.3915384797350994
 40
0.451229950831407
 40
0.5321932621459398
 40
0.6131744118119176
 40
0.6855711978261921
 40
0.7579889173841752
 40
0.8436078834886666
 40
0.9243144094255072
 40
0.9999999999999999
 40
0.9999999999999999
 40
0.9999999999999999
 40
0.9999999999999999
 10
168.9467578068018
 20
334.7472531432811
 30
0.0
 10
168.9525901432483
 20
334.7472531432811
 30
0.0
 10
168.9632508161491
 20
334.7472531432811
 30
0.0
 10
169.2347561533809
 20
334.7472531432812
 30
0.0
 10
169.6057485000847
 20
334.7472531432811
 30
0.0
 10
170.1050889466981
 20
334.7472531432812
 30
0.0
 10
170.709085374424
 20
334.7472531432811
 30
0.0
 10
171.407032644072
 20
334.7472531432811
 30
0.0
 10
172.3071237710987
 20
334.7472531432812
 30
0.0
 10
173.4523682276359
 20
334.7472531432811
 30
0.0
 10
174.8355379710864
 20
334.7472531432811
 30
0.0
 10
176.3121776419711
 20
334.7472531432811
 30
0.0
 10
177.9480236473814
 20
334.7472531432811
 30
0.0
 10
179.7765866748624
 20
334.7472531432811
 30
0.0
 10
181.7471890611898
 20
334.7472531432811
 30
0.0
 10
183.0978494822932
 20
334.7472531432811
 30
0.0
 10
183.7514983612595
 20
334.7472531432811
 30
0.0
  0
SPLINE
  5
19F
330
1F
100
AcDbEntity
  8
0
  6
Continuous
 62
     7
370
    35
100
AcDbSpline
210
0.0
220
0.0
230
1.0
 70
    24
 71
     3
 72
    29
 73
    25
 74
     0
 42
0.00000001
 43
0.00000001
 40
0.0
 40
0.0
 40
0.0
 40
0.0
 40
0.033812652942068
 40
0.0676316505071422
 40
0.1058891152654231
 40
0.144160098152137
 40
0.1872780626848538
 40
0.2304084932624172
 40
0.2786284870072647
 40
0.3268591046511028
 40
0.3624003977862617
 40
0.3978593145579124
 40
0.4334102598661987
 40
0.4719775195410463
 40
0.5104381147861852
 40
0.5490149877952558
 40
0.6102598645417396
 40
0.6715155671262415
 40
0.7346526738271071
 40
0.7978009408707925
 40
0.8609380482475221
 40
0.9240863159671102
 40
0.985331194507506
 40
1.0
 40
1.0
 40
1.0
 40
1.0
 10
183.7514983612595
 20
334.7472531432811
 30
0.0
 10
184.251110435457
 20
334.7472531432811
 30
0.0
 10
185.2504283313098
 20
334.7472531432811
 30
0.0
 10
186.8631823739589
 20
334.7472531432812
 30
0.0
 10
188.5732835800858
 20
334.7472531432811
 30
0.0
 10
190.4555425507664
 20
334.7472531432811
 30
0.0
 10
192.4324805183903
 20
334.7472531432811
 30
0.0
 10
194.5727134931251
 20
334.7472531432811
 30
0.0
 10
196.7835886548539
 20
334.7472531432811
 30
0.0
 10
198.8442787063879
 20
334.7472531432811
 30
0.0
 10
200.6674959882206
 20
334.7472531432811
 30
0.0
 10
202.2600910247408
 20
334.7472531432811
 30
0.0
 10
203.8518184064855
 20
334.7472531432811
 30
0.0
 10
205.430441882442
 20
334.7472531432811
 30
0.0
 10
206.9805463803883
 20
334.7472531432811
 30
0.0
 10
208.7388052322013
 20
334.7472531432811
 30
0.0
 10
210.6310704526527
 20
334.7472531432811
 30
0.0
 10
212.5516591991677
 20
334.7472531432812
 30
0.0
 10
214.2040888972799
 20
334.7472531432811
 30
0.0
 10
215.5419763379314
 20
334.7472531432811
 30
0.0
 10
216.5461415630766
 20
334.7472531432811
 30
0.0
 10
217.1485509583432
 20
334.7472531432812
 30
0.0
 10
217.4115562546574
 20
334.7472531432811
 30
0.0
 10
217.3608666482694
 20
334.7472531432811
 30
0.0
 10
217.351071892738
 20
334.7472531432811
 30
0.0
  0
LINE
  5
1A0
330
1F
100
AcDbEntity
  8
0
  6
Continuous
 62
     7
370
    35
100
AcDbLine
 10
214.0235009379
 20
16.1946820038
 30
0.0
 11
214.0235009379
 21
16.5946820038
 31
0.0
  0
LINE
  5
1A1
330
1F
100
AcDbEntity
  8
0
  6
Continuous
 62
     7
370
    35
100
AcDbLine
 10
172.2743287616
 20
16.5946820038
 30
0.0
 11
172.2743287616
 21
16.1946820038
 31
0.0
  0
LINE
  5
1A2
330
1F
100
AcDbEntity
  8
0
  6
Continuous
 62
     7
370
    35
100
AcDbLine
 10
203.1489148498
 20
77.5946820038
 30
0.0
 11
203.1489148498
 21
82.367869986
 31
0.0
  0
LINE
  5
1A3
330
1F
100
AcDbEntity
  8
0
  6
Continuous
 62
     7
370
    35
100
AcDbLine
 10
203.1489148498
 20
95.8214940215
 30
0.0
 11
203.1489148498
 21
107.984287401
 31
0.0
  0
LINE
  5
1A4
330
1F
100
AcDbEntity
  8
0
  6
Continuous
 62
     7
370
    35
100
AcDbLine
 10
183.1489148498
 20
107.984287401
 30
0.0
 11
183.1489148498
 21
77.5946820038
 31
0.0
  0
ARC
  5
1A5
330
1F
100
AcDbEntity
  8
0
  6
Continuous
 62
     7
370
    35
100
AcDbCircle
 10
211.9959051006
 20
107.984287401
 30
0.0
 40
28.84699025082932
100
AcDbArc
 50
173.1838182293
 51
180.0
  0
ARC
  5
1A6
330
1F
100
AcDbEntity
  8
0
  6
Continuous
 62
     7
370
    35
100
AcDbCircle
 10
174.3019245989
 20
107.984287401
 30
0.0
 40
28.84699025082932
100
AcDbArc
 50
0.0
 51
6.8161817707
  0
ARC
  5
1A7
330
1F
100
AcDbEntity
  8
0
  6
Continuous
 62
     7
370
    35
100
AcDbCircle
 10
193.4257610374
 20
110.2701448694
 30
0.0
 40
9.587024921386496
100
AcDbArc
 50
6.8161817707
 51
23.3426337043
  0
ARC
  5
1A8
330
1F
100
AcDbEntity
  8
0
  6
Continuous
 62
     7
370
    35
100
AcDbCircle
 10
192.8720686621
 20
110.2701448694
 30
0.0
 40
9.587024921386467
100
AcDbArc
 50
156.6573662957
 51
173.1838182293
  0
ARC
  5
1A9
330
1F
100
AcDbEntity
  8
0
  6
Continuous
 62
     7
370
    35
100
AcDbCircle
 10
197.645337964
 20
112.091105118
 30
0.0
 40
4.991295853394053
100
AcDbArc
 50
23.3426337043
 51
66.6573662957
  0
ARC
  5
1AA
330
1F
100
AcDbEntity
  8
0
  6
Continuous
 62
     7
370
    35
100
AcDbCircle
 10
188.6524917355
 20
112.091105118
 30
0.0
 40
4.991295853394031
100
AcDbArc
 50
113.3426337043
 51
156.6573662957
  0
ARC
  5
1AB
330
1F
100
AcDbEntity
  8
0
  6
Continuous
 62
     7
370
    35
100
AcDbCircle
 10
195.8243777154
 20
107.8715281914
 30
0.0
 40
9.587024921386522
100
AcDbArc
 50
66.6573662957
 51
83.1838182293
  0
ARC
  5
1AC
330
1F
100
AcDbEntity
  8
0
  6
Continuous
 62
     7
370
    35
100
AcDbCircle
 10
190.4734519841
 20
107.8715281914
 30
0.0
 40
9.587024921386528
100
AcDbArc
 50
96.8161817707
 51
113.3426337043
  0
ARC
  5
1AD
330
1F
100
AcDbEntity
  8
0
  6
Continuous
 62
     7
370
    35
100
AcDbCircle
 10
193.538520247
 20
88.7476917529
 30
0.0
 40
28.84699025083219
100
AcDbArc
 50
83.1838182293
 51
90.0
  0
ARC
  5
1AE
330
1F
100
AcDbEntity
  8
0
  6
Continuous
 62
     7
370
    35
100
AcDbCircle
 10
192.7593094526
 20
88.7476917529
 30
0.0
 40
28.84699025083219
100
AcDbArc
 50
90.0
 51
96.8161817707
  0
ARC
  5
1AF
330
1F
100
AcDbEntity
  8
0
  6
Continuous
 62
     7
370
    35
100
AcDbCircle
 10
211.7209760803
 20
107.9416722546
 30
0.0
 40
28.84699025082855
100
AcDbArc
 50
263.1838182293
 51
270.0
  0
ARC
  5
1B0
330
1F
100
AcDbEntity
  8
0
  6
Continuous
 62
     7
370
    35
100
AcDbCircle
 10
211.7209760803
 20
70.2476917529
 30
0.0
 40
28.84699025082855
100
AcDbArc
 50
90.0
 51
96.8161817707
  0
LINE
  5
1B1
330
1F
100
AcDbEntity
  8
0
  6
Continuous
 62
     7
370
    35
100
AcDbLine
 10
269.1105814775
 20
99.0946820038
 30
0.0
 11
211.7209760803
 21
99.0946820038
 31
0.0
  0
LINE
  5
1B2
330
1F
100
AcDbEntity
  8
0
  6
Continuous
 62
     7
370
    35
100
AcDbLine
 10
211.7209760803
 20
79.0946820038
 30
0.0
 11
269.1105814775
 21
79.0946820038
 31
0.0
  0
ARC
  5
1B3
330
1F
100
AcDbEntity
  8
0
  6
Continuous
 62
     7
370
    35
100
AcDbCircle
 10
209.4351186119
 20
89.3715281914
 30
0.0
 40
9.587024921386515
100
AcDbArc
 50
96.8161817707
 51
113.3426337043
  0
ARC
  5
1B4
330
1F
100
AcDbEntity
  8
0
  6
Continuous
 62
     7
370
    35
100
AcDbCircle
 10
209.4351186119
 20
88.8178358161
 30
0.0
 40
9.587024921386515
100
AcDbArc
 50
246.6573662957
 51
263.1838182293
  0
ARC
  5
1B5
330
1F
100
AcDbEntity
  8
0
  6
Continuous
 62
     7
370
    35
100
AcDbCircle
 10
207.6141583633
 20
93.591105118
 30
0.0
 40
4.991295853394017
100
AcDbArc
 50
113.3426337043
 51
153.4578740949
  0
ARC
  5
1B6
330
1F
100
AcDbEntity
  8
0
  6
Continuous
 62
     7
370
    35
100
AcDbCircle
 10
207.6141583633
 20
84.5982588895
 30
0.0
 40
4.991295853394006
100
AcDbArc
 50
206.5421259051
 51
246.6573662957
  0
ARC
  5
1B7
330
1F
100
AcDbEntity
  8
0
  6
Continuous
 62
     7
370
    35
100
AcDbCircle
 10
174.3019245989
 20
32.6050766066
 30
0.0
 40
28.84699025082948
100
AcDbArc
 50
353.1838182293
 51
0.0
  0
ARC
  5
1B8
330
1F
100
AcDbEntity
  8
0
  6
Continuous
 62
     7
370
    35
100
AcDbCircle
 10
211.9959051006
 20
32.6050766066
 30
0.0
 40
28.84699025082946
100
AcDbArc
 50
180.0
 51
186.8161817707
  0
LINE
  5
1B9
330
1F
100
AcDbEntity
  8
0
  6
Continuous
 62
     7
370
    35
100
AcDbLine
 10
183.1489148498
 20
77.5946820038
 30
0.0
 11
183.1489148498
 21
32.6050766066
 31
0.0
  0
LINE
  5
1BA
330
1F
100
AcDbEntity
  8
0
  6
Continuous
 62
     7
370
    35
100
AcDbLine
 10
203.1489148498
 20
32.6050766066
 30
0.0
 11
203.1489148498
 21
77.5946820038
 31
0.0
  0
ARC
  5
1BB
330
1F
100
AcDbEntity
  8
0
  6
Continuous
 62
     7
370
    35
100
AcDbCircle
 10
192.8720686621
 20
30.3192191381
 30
0.0
 40
9.587024921386323
100
AcDbArc
 50
186.8161817707
 51
203.3426337043
  0
ARC
  5
1BC
330
1F
100
AcDbEntity
  8
0
  6
Continuous
 62
     7
370
    35
100
AcDbCircle
 10
193.4257610374
 20
30.3192191381
 30
0.0
 40
9.587024921386323
100
AcDbArc
 50
336.6573662957
 51
353.1838182293
  0
ARC
  5
1BD
330
1F
100
AcDbEntity
  8
0
  6
Continuous
 62
     7
370
    35
100
AcDbCircle
 10
188.6524917355
 20
28.4982588895
 30
0.0
 40
4.991295853394021
100
AcDbArc
 50
203.3426337043
 51
246.6573662957
  0
ARC
  5
1BE
330
1F
100
AcDbEntity
  8
0
  6
Continuous
 62
     7
370
    35
100
AcDbCircle
 10
197.645337964
 20
28.4982588895
 30
0.0
 40
4.991295853394022
100
AcDbArc
 50
293.3426337043
 51
336.6573662957
  0
LINE
  5
1BF
330
1F
100
AcDbEntity
  8
0
  6
Continuous
 62
     7
370
    35
100
AcDbLine
 10
269.1105814775
 20
79.0946820038
 30
0.0
 11
327.5001868747
 21
79.0946820038
 31
0.0
  0
LINE
  5
1C0
330
1F
100
AcDbEntity
  8
0
  6
Continuous
 62
     7
370
    35
100
AcDbLine
 10
327.5001868747
 20
99.0946820038
 30
0.0
 11
269.1105814775
 21
99.0946820038
 31
0.0
  0
ARC
  5
1C1
330
1F
100
AcDbEntity
  8
0
  6
Continuous
 62
     7
370
    35
100
AcDbCircle
 10
327.5001868747
 20
70.2476917529
 30
0.0
 40
28.84699025082941
100
AcDbArc
 50
83.1838182293
 51
90.0
  0
ARC
  5
1C2
330
1F
100
AcDbEntity
  8
0
  6
Continuous
 62
     7
370
    35
100
AcDbCircle
 10
327.5001868747
 20
107.9416722546
 30
0.0
 40
28.84699025082941
100
AcDbArc
 50
270.0
 51
276.8161817707
  0
ARC
  5
1C3
330
1F
100
AcDbEntity
  8
0
  6
Continuous
 62
     7
370
    35
100
AcDbCircle
 10
329.7860443432
 20
88.8178358161
 30
0.0
 40
9.5870249213848
100
AcDbArc
 50
276.8161817707
 51
293.3426337043
  0
ARC
  5
1C4
330
1F
100
AcDbEntity
  8
0
  6
Continuous
 62
     7
370
    35
100
AcDbCircle
 10
329.7860443432
 20
89.3715281914
 30
0.0
 40
9.5870249213848
100
AcDbArc
 50
66.6573662957
 51
83.1838182293
  0
ARC
  5
1C5
330
1F
100
AcDbEntity
  8
0
  6
Continuous
 62
     7
370
    35
100
AcDbCircle
 10
331.6070045918
 20
84.5982588895
 30
0.0
 40
4.991295853393955
100
AcDbArc
 50
293.3426337043
 51
336.6573662957
  0
ARC
  5
1C6
330
1F
100
AcDbEntity
  8
0
  6
Continuous
 62
     7
370
    35
100
AcDbCircle
 10
331.6070045918
 20
93.591105118
 30
0.0
 40
4.991295853393955
100
AcDbArc
 50
23.3426337043
 51
66.6573662957
  0
ARC
  5
1C7
330
1F
100
AcDbEntity
  8
0
  6
Continuous
 62
     7
370
    35
100
AcDbCircle
 10
327.3874276652
 20
86.4192191381
 30
0.0
 40
9.587024921385494
100
AcDbArc
 50
336.6573662957
 51
353.1838182293
  0
ARC
  5
1C8
330
1F
100
AcDbEntity
  8
0
  6
Continuous
 62
     7
370
    35
100
AcDbCircle
 10
327.3874276652
 20
91.7701448694
 30
0.0
 40
9.587024921385494
100
AcDbArc
 50
6.8161817707
 51
23.3426337043
  0
ARC
  5
1C9
330
1F
100
AcDbEntity
  8
0
  6
Continuous
 62
     7
370
    35
100
AcDbCircle
 10
308.2635912267
 20
88.7050766066
 30
0.0
 40
28.84699025085333
100
AcDbArc
 50
353.1838182293
 51
0.0
  0
ARC
  5
1CA
330
1F
100
AcDbEntity
  8
0
  6
Continuous
 62
     7
370
    35
100
AcDbCircle
 10
308.2635912267
 20
89.484287401
 30
0.0
 40
28.84699025085333
100
AcDbArc
 50
0.0
 51
6.8161817707
  0
LINE
  5
1CB
330
1F
100
AcDbEntity
  8
0
  6
Continuous
 62
     7
370
    35
100
AcDbLine
 10
223.1489148498
 20
16.5946820038
 30
0.0
 11
223.1489148498
 21
17.8284452421
 31
0.0
  0
LINE
  5
1CC
330
1F
100
AcDbEntity
  8
0
  6
Continuous
 62
     7
370
    35
100
AcDbLine
 10
163.1489148498
 20
17.8284452421
 30
0.0
 11
163.1489148498
 21
16.5946820038
 31
0.0
  0
ARC
  5
1CD
330
1F
100
AcDbEntity
  8
0
  6
Continuous
 62
     7
370
    35
100
AcDbCircle
 10
205.8407206993
 20
17.8284452421
 30
0.0
 40
17.30819415051642
100
AcDbArc
 50
0.0
 51
6.8161817707
  0
ARC
  5
1CE
330
1F
100
AcDbEntity
  8
0
  6
Continuous
 62
     7
370
    35
100
AcDbCircle
 10
180.4571090003
 20
17.8284452421
 30
0.0
 40
17.30819415051645
100
AcDbArc
 50
173.1838182293
 51
180.0
  0
ARC
  5
1CF
330
1F
100
AcDbEntity
  8
0
  6
Continuous
 62
     7
370
    35
100
AcDbCircle
 10
217.3150225624
 20
19.1999597232
 30
0.0
 40
5.752214952826409
100
AcDbArc
 50
6.8161817707
 51
23.3426337043
  0
ARC
  5
1D0
330
1F
100
AcDbEntity
  8
0
  6
Continuous
 62
     7
370
    35
100
AcDbCircle
 10
168.9828071372
 20
19.1999597232
 30
0.0
 40
5.752214952826451
100
AcDbArc
 50
156.6573662957
 51
173.1838182293
  0
ARC
  5
1D1
330
1F
100
AcDbEntity
  8
0
  6
Continuous
 62
     7
370
    35
100
AcDbCircle
 10
219.8467687183
 20
20.2925358723
 30
0.0
 40
2.994777512036393
100
AcDbArc
 50
23.3426337043
 51
66.6573662957
  0
ARC
  5
1D2
330
1F
100
AcDbEntity
  8
0
  6
Continuous
 62
     7
370
    35
100
AcDbCircle
 10
166.4510609812
 20
20.2925358723
 30
0.0
 40
2.994777512036416
100
AcDbArc
 50
113.3426337043
 51
156.6573662957
  0
ARC
  5
1D3
330
1F
100
AcDbEntity
  8
0
  6
Continuous
 62
     7
370
    35
100
AcDbCircle
 10
218.7541925692
 20
17.7607897163
 30
0.0
 40
5.752214952824676
100
AcDbArc
 50
66.6573662957
 51
83.1838182293
  0
ARC
  5
1D4
330
1F
100
AcDbEntity
  8
0
  6
Continuous
 62
     7
370
    35
100
AcDbCircle
 10
167.5436371304
 20
17.7607897163
 30
0.0
 40
5.752214952824672
100
AcDbArc
 50
96.8161817707
 51
113.3426337043
  0
ARC
  5
1D5
330
1F
100
AcDbEntity
  8
0
  6
Continuous
 62
     7
370
    35
100
AcDbCircle
 10
217.3826780881
 20
6.2864878532
 30
0.0
 40
17.30819415051367
100
AcDbArc
 50
83.1838182293
 51
90.0
  0
ARC
  5
1D6
330
1F
100
AcDbEntity
  8
0
  6
Continuous
 62
     7
370
    35
100
AcDbCircle
 10
168.9151516115
 20
6.2864878532
 30
0.0
 40
17.30819415051367
100
AcDbArc
 50
90.0
 51
96.8161817707
  0
LINE
  5
1D7
330
1F
100
AcDbEntity
  8
0
  6
Continuous
 62
     7
370
    35
100
AcDbLine
 10
191.9124027765
 20
36.2404471422
 30
0.0
 11
192.3977781575
 21
36.0839117401
 31
0.0
  0
LINE
  5
1D8
330
1F
100
AcDbEntity
  8
0
  6
Continuous
 62
     7
370
    35
100
AcDbLine
 10
192.2238824241
 20
37.4884154405
 30
0.0
 11
192.3310064799
 21
36.9898003291
 31
0.0
  0
LINE
  5
1D9
330
1F
100
AcDbEntity
  8
0
  6
Continuous
 62
     7
370
    35
100
AcDbLine
 10
193.7323630221
 20
37.290872224
 30
0.0
 11
193.6252389664
 21
37.7894873353
 31
0.0
  0
SPLINE
  5
1DA
330
1F
100
AcDbEntity
  8
0
  6
Continuous
 62
   144
370
    18
100
AcDbSpline
210
0.0
220
0.0
230
1.0
 70
     8
 71
     3
 72
    22
 73
    18
 74
     0
 42
0.00000001
 43
0.00000001
 40
0.0
 40
0.0
 40
0.0
 40
0.0
 40
0.0959299971197946
 40
0.1480902531011741
 40
0.2003190818756677
 40
0.2524793687142275
 40
0.3047082283879458
 40
0.4006382255077395
 40
0.496568222627534
 40
0.5487284786087233
 40
0.6009573073833989
 40
0.6531175942224315
 40
0.7053464538957108
 40
0.8012764510155055
 40
0.8972064481353001
 40
0.949366704116582
 40
1.0
 40
1.0
 40
1.0
 40
1.0
 10
195.1042960715572
 20
37.01478232216132
 30
0.0
 10
195.1308590716233
 20
36.76326174391772
 30
0.0
 10
195.1718652377969
 20
36.37498125595173
 30
0.0
 10
195.0263654401021
 20
35.86684704839324
 30
0.0
 10
194.8404895640897
 20
35.50191889324255
 30
0.0
 10
194.5839640971615
 20
35.18067493212185
 30
0.0
 10
194.1789367022245
 20
34.84702067429361
 30
0.0
 10
193.5791961768641
 20
34.59183792922571
 30
0.0
 10
192.9278286896384
 20
34.57819250688528
 30
0.0
 10
192.4213533322192
 20
34.71595224358667
 30
0.0
 10
192.0560825543211
 20
34.90344677790252
 30
0.0
 10
191.7349113752097
 20
35.15955266079717
 30
0.0
 10
191.4013228057224
 20
35.56465759402737
 30
0.0
 10
191.1454915478633
 20
36.16475075676294
 30
0.0
 10
191.1341445939795
 20
36.81468976201702
 30
0.0
 10
191.2658624846715
 20
37.32023577372463
 30
0.0
 10
191.398290406315
 20
37.55403024353553
 30
0.0
 10
191.4635207833004
 20
37.66919101336106
 30
0.0
  0
ARC
  5
1DB
330
1F
100
AcDbEntity
  8
0
  6
Continuous
 62
   144
370
    18
100
AcDbCircle
 10
193.1487165703
 20
36.5948995682
 30
0.0
 40
2.000148172735208
100
AcDbArc
 50
12.1180053987
 51
135.4325394715
  0
SPLINE
  5
1DC
330
1F
100
AcDbEntity
  8
0
  6
Continuous
 62
   144
370
    18
100
AcDbSpline
210
0.0
220
0.0
230
1.0
 70
     8
 71
     3
 72
    13
 73
     9
 74
     0
 42
0.00000001
 43
0.00000001
 40
0.0
 40
0.0
 40
0.0
 40
0.0
 40
0.1247670926189428
 40
0.2510576851232215
 40
0.4999458998954519
 40
0.7488341146676804
 40
0.8736715808168308
 40
1.0
 40
1.0
 40
1.0
 40
1.0
 10
193.6252389663858
 20
37.78948733534021
 30
0.0
 10
193.6227780766295
 20
37.7978346268447
 30
0.0
 10
193.6178262478051
 20
37.81463113655073
 30
0.0
 10
193.5975077830392
 20
37.84334230585047
 30
0.0
 10
193.5596312275785
 20
37.8682599884746
 30
0.0
 10
193.5144998819963
 20
37.87008174335742
 30
0.0
 10
193.4811398730501
 20
37.85889401525151
 30
0.0
 10
193.4673369345959
 20
37.8480862585405
 30
0.0
 10
193.4603944973589
 20
37.84265030206728
 30
0.0
  0
LINE
  5
1DD
330
1F
100
AcDbEntity
  8
0
  6
Continuous
 62
   144
370
    18
100
AcDbLine
 10
193.4603944974
 20
37.8426503021
 30
0.0
 11
193.0821431721
 21
37.5005705927
 31
0.0
  0
SPLINE
  5
1DE
330
1F
100
AcDbEntity
  8
0
  6
Continuous
 62
   144
370
    18
100
AcDbSpline
210
0.0
220
0.0
230
1.0
 70
     8
 71
     3
 72
    12
 73
     8
 74
     0
 42
0.00000001
 43
0.00000001
 40
0.0
 40
0.0
 40
0.0
 40
0.0
 40
0.1669756453701018
 40
0.332035604710021
 40
0.5003421117289257
 40
0.7494254851402874
 40
1.0
 40
1.0
 40
1.0
 40
1.0
 10
193.0821431720976
 20
37.50057059274405
 30
0.0
 10
193.0708716034513
 20
37.49132016062792
 30
0.0
 10
193.0484577831411
 20
37.47292542518792
 30
0.0
 10
193.0091505924348
 20
37.45324059663955
 30
0.0
 10
192.9605595664327
 20
37.43839099297045
 30
0.0
 10
192.9015746718011
 20
37.43235979231554
 30
0.0
 10
192.8590475417741
 20
37.44281489892305
 30
0.0
 10
192.8377205193754
 20
37.44805805294401
 30
0.0
  0
LINE
  5
1DF
330
1F
100
AcDbEntity
  8
0
  6
Continuous
 62
   144
370
    18
100
AcDbLine
 10
192.8377205194
 20
37.4480580529
 30
0.0
 11
192.3523451384
 21
37.604593455
 31
0.0
  0
SPLINE
  5
1E0
330
1F
100
AcDbEntity
  8
0
  6
Continuous
 62
   144
370
    18
100
AcDbSpline
210
0.0
220
0.0
230
1.0
 70
     8
 71
     3
 72
    13
 73
     9
 74
     0
 42
0.00000001
 43
0.00000001
 40
0.0
 40
0.0
 40
0.0
 40
0.0
 40
0.1247670926199494
 40
0.2510576851232504
 40
0.4999458998954864
 40
0.7488341146677294
 40
0.8736715808172623
 40
1.0
 40
1.0
 40
1.0
 40
1.0
 10
192.3523451383516
 20
37.60459345497377
 30
0.0
 10
192.3438857269777
 20
37.60663590768118
 30
0.0
 10
192.3268636084652
 20
37.61074575297712
 30
0.0
 10
192.2918397740964
 20
37.6075050309737
 30
0.0
 10
192.2513221502101
 20
37.58716181304896
 30
0.0
 10
192.227178791411
 20
37.54898779870916
 30
0.0
 10
192.2201876436883
 20
37.51450331943837
 30
0.0
 10
192.2226459663308
 20
37.49714574573463
 30
0.0
 10
192.223882424112
 20
37.48841544048662
 30
0.0
  0
LINE
  5
1E1
330
1F
100
AcDbEntity
  8
0
  6
Continuous
 62
     7
370
    35
100
AcDbLine
 10
213.8649239709
 20
16.1946820038
 30
0.0
 11
214.0235009379
 21
16.1946820038
 31
0.0
  0
LINE
  5
1E2
330
1F
100
AcDbEntity
  8
0
  6
Continuous
 62
     7
370
    35
100
AcDbLine
 10
172.4329057286
 20
16.1946820038
 30
0.0
 11
213.8649239709
 21
16.1946820038
 31
0.0
  0
LINE
  5
1E3
330
1F
100
AcDbEntity
  8
0
  6
Continuous
 62
     7
370
    35
100
AcDbLine
 10
172.2743287616
 20
16.1946820038
 30
0.0
 11
172.4329057286
 21
16.1946820038
 31
0.0
  0
LINE
  5
1E4
330
1F
100
AcDbEntity
  8
0
  6
Continuous
 62
   144
370
    18
100
AcDbLine
 10
193.1489148498
 20
77.5946820038
 30
0.0
 11
183.1489148498
 21
77.5946820038
 31
0.0
  0
LINE
  5
1E5
330
1F
100
AcDbEntity
  8
0
  6
Continuous
 62
   144
370
    18
100
AcDbLine
 10
203.1489148498
 20
77.5946820038
 30
0.0
 11
193.1489148498
 21
77.5946820038
 31
0.0
  0
LINE
  5
1E6
330
1F
100
AcDbEntity
  8
0
  6
Continuous
 62
     7
370
    35
100
AcDbLine
 10
193.1489148498
 20
117.5946820038
 30
0.0
 11
192.7593094526
 21
117.5946820038
 31
0.0
  0
LINE
  5
1E7
330
1F
100
AcDbEntity
  8
0
  6
Continuous
 62
     7
370
    35
100
AcDbLine
 10
193.538520247
 20
117.5946820038
 30
0.0
 11
193.1489148498
 21
117.5946820038
 31
0.0
  0
LINE
  5
1E8
330
1F
100
AcDbEntity
  8
0
  6
Continuous
 62
     7
370
    35
100
AcDbLine
 10
269.1105814775
 20
79.0946820038
 30
0.0
 11
269.1105814775
 21
99.0946820038
 31
0.0
  0
LINE
  5
1E9
330
1F
100
AcDbEntity
  8
0
  6
Continuous
 62
     7
370
    35
100
AcDbLine
 10
203.1489148498
 20
77.5946820038
 30
0.0
 11
183.1489148498
 21
77.5946820038
 31
0.0
  0
SPLINE
  5
1EA
330
1F
100
AcDbEntity
  8
0
  6
Continuous
 62
     7
370
    35
100
AcDbSpline
210
0.0
220
0.0
230
1.0
 70
    11
 71
     3
 72
    58
 73
    54
 74
     0
 42
0.00000001
 43
0.00000001
 40
0.0
 40
0.0
 40
0.0
 40
0.0
 40
0.0312499999999996
 40
0.0312499999999996
 40
0.0624999999999993
 40
0.0624999999999993
 40
0.0937499999999989
 40
0.0937499999999989
 40
0.1249999999999986
 40
0.1249999999999986
 40
0.1874999999999978
 40
0.1874999999999978
 40
0.2499999999999971
 40
0.2499999999999971
 40
0.2812499999999968
 40
0.2812499999999968
 40
0.3124999999999964
 40
0.3124999999999964
 40
0.3749999999999957
 40
0.3749999999999957
 40
0.4062499999999948
 40
0.4062499999999948
 40
0.4374999999999938
 40
0.4374999999999938
 40
0.468749999999993
 40
0.468749999999993
 40
0.499999999999992
 40
0.499999999999992
 40
0.5624999999999919
 40
0.5624999999999919
 40
0.5937499999999925
 40
0.5937499999999925
 40
0.6249999999999931
 40
0.6249999999999931
 40
0.6562499999999938
 40
0.6562499999999938
 40
0.6874999999999943
 40
0.6874999999999943
 40
0.7499999999999957
 40
0.7499999999999957
 40
0.7812499999999963
 40
0.7812499999999963
 40
0.8124999999999969
 40
0.8124999999999969
 40
0.8437499999999976
 40
0.8437499999999976
 40
0.8749999999999982
 40
0.8749999999999982
 40
0.9374999999999983
 40
0.9374999999999983
 40
0.9687499999999992
 40
0.9687499999999992
 40
1.0
 40
1.0
 40
1.0
 40
1.0
 10
191.1489148497703
 20
36.59468200375898
 30
0.0
 10
191.1489148497703
 20
36.72717042208926
 30
0.0
 10
191.1619490350581
 20
36.85737624596844
 30
0.0
 10
191.2129549181822
 20
37.11343103461115
 30
0.0
 10
191.2515691822842
 20
37.24062981939162
 30
0.0
 10
191.3520650284629
 20
37.48265716226076
 30
0.0
 10
191.4135127771351
 20
37.59739453240076
 30
0.0
 10
191.5586312835876
 20
37.8145389412442
 30
0.0
 10
191.6428681580973
 20
37.9170840559829
 30
0.0
 10
191.9188665786732
 20
38.19301756041551
 30
0.0
 10
192.1414632711777
 20
38.3419252157548
 30
0.0
 10
192.6224828682872
 20
38.5416506460196
 30
0.0
 10
192.8861277588376
 20
38.59452675092394
 30
0.0
 10
193.2785320131995
 20
38.59475910425425
 30
0.0
 10
193.4114341844545
 20
38.58169480194627
 30
0.0
 10
193.6681958902982
 20
38.53052380054697
 30
0.0
 10
193.7930320364342
 20
38.49266675552832
 30
0.0
 10
194.1568757129186
 20
38.34195049222322
 30
0.0
 10
194.376937066626
 20
38.19501573921415
 30
0.0
 10
194.6558182318282
 20
37.91624125503161
 30
0.0
 10
194.7383244649336
 20
37.81562876038666
 30
0.0
 10
194.8831361758706
 20
37.59937613601619
 30
0.0
 10
194.9459281849439
 20
37.48229925891181
 30
0.0
 10
195.0462584668471
 20
37.24059880736061
 30
0.0
 10
195.0842345699971
 20
37.11594294390587
 30
0.0
 10
195.1357074218557
 20
36.85893692372813
 30
0.0
 10
195.1488615139208
 20
36.72619158730699
 30
0.0
 10
195.1490210249503
 20
36.33410378507473
 30
0.0
 10
195.0964631168955
 20
36.07027976684336
 30
0.0
 10
194.9468672343154
 20
35.70904510715584
 30
0.0
 10
194.8845049276419
 20
35.5922470318086
 30
0.0
 10
194.7389749455495
 20
35.37449444309222
 30
0.0
 10
194.6565002856514
 20
35.27400731239612
 30
0.0
 10
194.4722998015692
 20
35.08947512221762
 30
0.0
 10
194.3696918534889
 20
35.0051324674866
 30
0.0
 10
194.1532214582027
 20
34.86022749085553
 30
0.0
 10
194.0385493043117
 20
34.79862516125137
 30
0.0
 10
193.6745574833774
 20
34.64717631733938
 30
0.0
 10
193.4144436094521
 20
34.59486781345981
 30
0.0
 10
193.0182553485278
 20
34.59458983732762
 30
0.0
 10
192.888167160393
 20
34.60745119613655
 30
0.0
 10
192.6318087602471
 20
34.65827374813282
 30
0.0
 10
192.5042690353723
 20
34.69691020382091
 30
0.0
 10
192.2626065510592
 20
34.79702696724703
 30
0.0
 10
192.1477600856871
 20
34.85835695850334
 30
0.0
 10
191.9299809947307
 20
35.00366478780352
 30
0.0
 10
191.8276951717117
 20
35.08760621999481
 30
0.0
 10
191.551736515266
 20
35.3631720401042
 30
0.0
 10
191.4025715190257
 20
35.58564580600589
 30
0.0
 10
191.25241206268
 20
35.94641936573212
 30
0.0
 10
191.2135921587832
 20
36.07328762941682
 30
0.0
 10
191.1619512932348
 20
36.33142958336188
 30
0.0
 10
191.1489148497703
 20
36.46219358542868
 30
0.0
 10
191.1489148497703
 20
36.59468200375898
 30
0.0
  0
LINE
  5
1EB
330
1F
100
AcDbEntity
  8
0
  6
Continuous
 62
   144
370
    18
100
AcDbLine
 10
186.6747965313
 20
23.915491606
 30
0.0
 11
199.6230331683
 21
23.915491606
 31
0.0
  0
LINE
  5
1EC
330
1F
100
AcDbEntity
  8
0
  6
Continuous
 62
     7
370
    35
100
AcDbLine
 10
269.1105814775
 20
89.0946820038
 30
0.0
 11
269.1105814775
 21
79.0946820038
 31
0.0
  0
LINE
  5
1ED
330
1F
100
AcDbEntity
  8
0
  6
Continuous
 62
     7
370
    35
100
AcDbLine
 10
269.1105814775
 20
99.0946820038
 30
0.0
 11
269.1105814775
 21
89.0946820038
 31
0.0
  0
LINE
  5
1EE
330
1F
100
AcDbEntity
  8
0
  6
Continuous
 62
     7
370
    35
100
AcDbLine
 10
337.1105814775
 20
89.0946820038
 30
0.0
 11
337.1105814775
 21
89.484287401
 31
0.0
  0
LINE
  5
1EF
330
1F
100
AcDbEntity
  8
0
  6
Continuous
 62
     7
370
    35
100
AcDbLine
 10
337.1105814775
 20
88.7050766066
 30
0.0
 11
337.1105814775
 21
89.0946820038
 31
0.0
  0
LINE
  5
1F0
330
1F
100
AcDbEntity
  8
0
  6
Continuous
 62
     7
370
    35
100
AcDbLine
 10
193.1489148498
 20
16.5946820038
 30
0.0
 11
223.1489148498
 21
16.5946820038
 31
0.0
  0
LINE
  5
1F1
330
1F
100
AcDbEntity
  8
0
  6
Continuous
 62
     7
370
    35
100
AcDbLine
 10
163.1489148498
 20
16.5946820038
 30
0.0
 11
193.1489148498
 21
16.5946820038
 31
0.0
  0
SPLINE
  5
1F2
330
1F
100
AcDbEntity
  8
0
  6
Continuous
 62
     7
370
    35
100
AcDbSpline
210
0.0
220
0.0
230
1.0
 70
    24
 71
     3
 72
    29
 73
    25
 74
     0
 42
0.00000001
 43
0.00000001
 40
0.0
 40
0.0
 40
0.0
 40
0.0
 40
0.0338126529418111
 40
0.0676316505071412
 40
0.1058891152664549
 40
0.1441600981521447
 40
0.1872780626865834
 40
0.2304084932624189
 40
0.2786284870077026
 40
0.3268591046511007
 40
0.3624003977857492
 40
0.3978593145573999
 40
0.4334102598661891
 40
0.471977519541147
 40
0.510438114786286
 40
0.5490149877952659
 40
0.6102598645425577
 40
0.6715155671262433
 40
0.7346526738270729
 40
0.7978009408707901
 40
0.8609380482469393
 40
0.924086315967104
 40
0.985331194507086
 40
0.9999999999999999
 40
0.9999999999999999
 40
0.9999999999999999
 40
0.9999999999999999
 10
202.5463313382812
 20
23.59468200375897
 30
0.0
 10
202.0467192640875
 20
23.59468200375897
 30
0.0
 10
201.0474013682345
 20
23.59468200375897
 30
0.0
 10
199.4346473255697
 20
23.59468200375896
 30
0.0
 10
197.7245461194405
 20
23.594682003759
 30
0.0
 10
195.8422871487306
 20
23.59468200375896
 30
0.0
 10
193.8653491811227
 20
23.59468200375897
 30
0.0
 10
191.7251162063812
 20
23.59468200375897
 30
0.0
 10
189.5142410446804
 20
23.59468200375896
 30
0.0
 10
187.4535509931538
 20
23.59468200375899
 30
0.0
 10
185.630333711336
 20
23.59468200375894
 30
0.0
 10
184.0377386748164
 20
23.59468200375899
 30
0.0
 10
182.4460112930609
 20
23.59468200375897
 30
0.0
 10
180.8673878170923
 20
23.59468200375899
 30
0.0
 10
179.3172833191452
 20
23.59468200375897
 30
0.0
 10
177.5590244673296
 20
23.59468200375897
 30
0.0
 10
175.6667592468825
 20
23.59468200375896
 30
0.0
 10
173.7461705003646
 20
23.59468200375897
 30
0.0
 10
172.0937408022641
 20
23.59468200375897
 30
0.0
 10
170.7558533616122
 20
23.59468200375896
 30
0.0
 10
169.751688136469
 20
23.59468200375897
 30
0.0
 10
169.1492787412004
 20
23.59468200375899
 30
0.0
 10
168.8862734448808
 20
23.59468200375897
 30
0.0
 10
168.9369630512699
 20
23.59468200375897
 30
0.0
 10
168.9467578068018
 20
23.59468200375897
 30
0.0
  0
SPLINE
  5
1F3
330
1F
100
AcDbEntity
  8
0
  6
Continuous
 62
     7
370
    35
100
AcDbSpline
210
0.0
220
0.0
230
1.0
 70
    24
 71
     3
 72
    21
 73
    17
 74
     0
 42
0.00000001
 43
0.00000001
 40
0.0
 40
0.0
 40
0.0
 40
0.0
 40
0.0782212792184743
 40
0.1429772577916001
 40
0.2075541459624563
 40
0.2723262660708098
 40
0.3320015305948269
 40
0.391538479735311
 40
0.4512299508314122
 40
0.5321932621476193
 40
0.6131744118119257
 40
0.6855711978281631
 40
0.7579889173841817
 40
0.8436078834882157
 40
0.9243144094242332
 40
1.0
 40
1.0
 40
1.0
 40
1.0
 10
217.351071892738
 20
23.59468200375897
 30
0.0
 10
217.345239556292
 20
23.59468200375897
 30
0.0
 10
217.3345788833921
 20
23.59468200375899
 30
0.0
 10
217.0630735461601
 20
23.59468200375894
 30
0.0
 10
216.6920811994558
 20
23.59468200375897
 30
0.0
 10
216.1927407528428
 20
23.59468200375896
 30
0.0
 10
215.5887443251179
 20
23.59468200375896
 30
0.0
 10
214.8907970554704
 20
23.59468200375899
 30
0.0
 10
213.9907059284318
 20
23.59468200375897
 30
0.0
 10
212.8454614718974
 20
23.59468200375896
 30
0.0
 10
211.4622917284315
 20
23.59468200375897
 30
0.0
 10
209.9856520575555
 20
23.59468200375897
 30
0.0
 10
208.3498060521488
 20
23.59468200375899
 30
0.0
 10
206.5212430246861
 20
23.59468200375897
 30
0.0
 10
204.5506406383688
 20
23.59468200375897
 30
0.0
 10
203.1999802172595
 20
23.59468200375897
 30
0.0
 10
202.5463313382812
 20
23.59468200375897
 30
0.0
  0
ENDSEC
  0
SECTION
  2
OBJECTS
  0
DICTIONARY
  5
C
330
0
100
AcDbDictionary
281
     1
  3
ACAD_GROUP
350
D
  3
ACAD_LAYOUT
350
1A
  3
ACAD_MLINESTYLE
350
17
  3
ACAD_PLOTSETTINGS
350
19
  3
ACAD_PLOTSTYLENAME
350
E
  3
ACAD_SCALELIST
350
47
  3
DWGPROPS
350
1F4
  0
DICTIONARY
  5
D
102
{ACAD_REACTORS
330
C
102
}
330
C
100
AcDbDictionary
281
     1
  0
DICTIONARY
  5
1A
102
{ACAD_REACTORS
330
C
102
}
330
C
100
AcDbDictionary
281
     1
  3
Layout1
350
1E
  3
Layout2
350
26
  3
Model
350
22
  0
DICTIONARY
  5
17
102
{ACAD_REACTORS
330
C
102
}
330
C
100
AcDbDictionary
281
     1
  3
Standard
350
18
  0
DICTIONARY
  5
19
102
{ACAD_REACTORS
330
C
102
}
330
C
100
AcDbDictionary
281
     1
  0
ACDBDICTIONARYWDFLT
  5
E
102
{ACAD_REACTORS
330
C
102
}
330
C
100
AcDbDictionary
281
     1
  3
Normal
350
F
100
AcDbDictionaryWithDefault
340
F
  0
DICTIONARY
  5
47
102
{ACAD_REACTORS
330
C
102
}
330
C
100
AcDbDictionary
281
     1
  3
A0
350
48
  3
A1
350
49
  3
A2
350
4A
  3
A3
350
4B
  3
A4
350
4C
  3
A5
350
4D
  3
A6
350
4E
  3
A7
350
4F
  3
A8
350
50
  3
A9
350
51
  3
B0
350
52
  3
B1
350
53
  3
B2
350
54
  3
B3
350
55
  3
B4
350
56
  3
B5
350
57
  3
B6
350
58
  3
B7
350
59
  3
B8
350
5A
  3
B9
350
5B
  3
C0
350
5C
  3
C1
350
5D
  3
C2
350
5E
  3
C3
350
5F
  3
C4
350
60
  3
C5
350
61
  3
C6
350
62
  3
C7
350
63
  3
C8
350
64
  3
C9
350
65
  3
D0
350
66
  3
D1
350
67
  3
D2
350
68
  0
XRECORD
  5
1F4
102
{ACAD_REACTORS
330
C
102
}
330
C
100
AcDbXrecord
280
     1
  1
DWGPROPS COOKIE
  2

  3

  4

  6

  7

  8
y_harada
  9

300
=
301
=
302
=
303
=
304
=
305
=
306
=
307
=
308
=
309
=
 40
0.0
 41
2459317.17049963
 42
2459317.170500996
  1

 90
        0
  0
LAYOUT
  5
1E
102
{ACAD_REACTORS
330
1A
102
}
330
1A
100
AcDbPlotSettings
  1

  2
none_device
  4

  6

 40
0.0
 41
0.0
 42
0.0
 43
0.0
 44
0.0
 45
0.0
 46
0.0
 47
0.0
 48
0.0
 49
0.0
140
0.0
141
0.0
142
1.0
143
1.0
 70
   688
 72
     1
 73
     0
 74
     5
  7

 75
    16
147
1.0
148
0.0
149
0.0
100
AcDbLayout
  1
Layout1
 70
     1
 71
     1
 10
0.0
 20
0.0
 11
420.0
 21
297.0
 12
0.0
 22
0.0
 32
0.0
 14
1.0000000000E+20
 24
1.0000000000E+20
 34
1.0000000000E+20
 15
-1.0000000000E+20
 25
-1.0000000000E+20
 35
-1.0000000000E+20
146
0.0
 13
0.0
 23
0.0
 33
0.0
 16
1.0
 26
0.0
 36
0.0
 17
0.0
 27
1.0
 37
0.0
 76
     0
330
1B
  0
LAYOUT
  5
26
102
{ACAD_REACTORS
330
1A
102
}
330
1A
100
AcDbPlotSettings
  1

  2
none_device
  4

  6

 40
0.0
 41
0.0
 42
0.0
 43
0.0
 44
0.0
 45
0.0
 46
0.0
 47
0.0
 48
0.0
 49
0.0
140
0.0
141
0.0
142
1.0
143
1.0
 70
   688
 72
     1
 73
     0
 74
     5
  7

 75
    16
147
1.0
148
0.0
149
0.0
100
AcDbLayout
  1
Layout2
 70
     1
 71
     2
 10
0.0
 20
0.0
 11
0.0
 21
0.0
 12
0.0
 22
0.0
 32
0.0
 14
0.0
 24
0.0
 34
0.0
 15
0.0
 25
0.0
 35
0.0
146
0.0
 13
0.0
 23
0.0
 33
0.0
 16
1.0
 26
0.0
 36
0.0
 17
0.0
 27
1.0
 37
0.0
 76
     0
330
23
  0
LAYOUT
  5
22
102
{ACAD_REACTORS
330
1A
102
}
330
1A
100
AcDbPlotSettings
  1

  2
none_device
  4
Letter_(8.50_x_11.00_Inches)
  6

 40
6.35
 41
6.35
 42
6.35000508
 43
6.35000508
 44
215.9
 45
279.4
 46
0.0
 47
0.0
 48
0.0
 49
0.0
140
0.0
141
0.0
142
1.0
143
1.0
 70
  1712
 72
     1
 73
     0
 74
     0
  7

 75
     0
147
1.0
148
0.0
149
0.0
100
AcDbLayout
  1
Model
 70
     1
 71
     0
 10
0.0
 20
0.0
 11
420.0
 21
297.0
 12
0.0
 22
0.0
 32
0.0
 14
0.0
 24
0.0
 34
0.0
 15
420.0
 25
297.0
 35
0.0
146
0.0
 13
0.0
 23
0.0
 33
0.0
 16
1.0
 26
0.0
 36
0.0
 17
0.0
 27
1.0
 37
0.0
 76
     0
330
1F
331
29
  0
MLINESTYLE
  5
18
102
{ACAD_REACTORS
330
17
102
}
330
17
100
AcDbMlineStyle
  2
Standard
 70
     0
  3

 62
   256
 51
90.0
 52
90.0
 71
     2
 49
0.5
 62
   256
  6
BYLAYER
 49
-0.5
 62
   256
  6
BYLAYER
  0
ACDBPLACEHOLDER
  5
F
102
{ACAD_REACTORS
330
E
102
}
330
E
  0
SCALE
  5
48
102
{ACAD_REACTORS
330
47
102
}
330
47
100
AcDbScale
 70
     0
300
1:1
140
1.0
141
1.0
290
     1
  0
SCALE
  5
49
102
{ACAD_REACTORS
330
47
102
}
330
47
100
AcDbScale
 70
     0
300
1:2
140
1.0
141
2.0
290
     0
  0
SCALE
  5
4A
102
{ACAD_REACTORS
330
47
102
}
330
47
100
AcDbScale
 70
     0
300
1:4
140
1.0
141
4.0
290
     0
  0
SCALE
  5
4B
102
{ACAD_REACTORS
330
47
102
}
330
47
100
AcDbScale
 70
     0
300
1:5
140
1.0
141
5.0
290
     0
  0
SCALE
  5
4C
102
{ACAD_REACTORS
330
47
102
}
330
47
100
AcDbScale
 70
     0
300
1:8
140
1.0
141
8.0
290
     0
  0
SCALE
  5
4D
102
{ACAD_REACTORS
330
47
102
}
330
47
100
AcDbScale
 70
     0
300
1:10
140
1.0
141
10.0
290
     0
  0
SCALE
  5
4E
102
{ACAD_REACTORS
330
47
102
}
330
47
100
AcDbScale
 70
     0
300
1:16
140
1.0
141
16.0
290
     0
  0
SCALE
  5
4F
102
{ACAD_REACTORS
330
47
102
}
330
47
100
AcDbScale
 70
     0
300
1:20
140
1.0
141
20.0
290
     0
  0
SCALE
  5
50
102
{ACAD_REACTORS
330
47
102
}
330
47
100
AcDbScale
 70
     0
300
1:30
140
1.0
141
30.0
290
     0
  0
SCALE
  5
51
102
{ACAD_REACTORS
330
47
102
}
330
47
100
AcDbScale
 70
     0
300
1:40
140
1.0
141
40.0
290
     0
  0
SCALE
  5
52
102
{ACAD_REACTORS
330
47
102
}
330
47
100
AcDbScale
 70
     0
300
1:50
140
1.0
141
50.0
290
     0
  0
SCALE
  5
53
102
{ACAD_REACTORS
330
47
102
}
330
47
100
AcDbScale
 70
     0
300
1:100
140
1.0
141
100.0
290
     0
  0
SCALE
  5
54
102
{ACAD_REACTORS
330
47
102
}
330
47
100
AcDbScale
 70
     0
300
2:1
140
2.0
141
1.0
290
     0
  0
SCALE
  5
55
102
{ACAD_REACTORS
330
47
102
}
330
47
100
AcDbScale
 70
     0
300
4:1
140
4.0
141
1.0
290
     0
  0
SCALE
  5
56
102
{ACAD_REACTORS
330
47
102
}
330
47
100
AcDbScale
 70
     0
300
8:1
140
8.0
141
1.0
290
     0
  0
SCALE
  5
57
102
{ACAD_REACTORS
330
47
102
}
330
47
100
AcDbScale
 70
     0
300
10:1
140
10.0
141
1.0
290
     0
  0
SCALE
  5
58
102
{ACAD_REACTORS
330
47
102
}
330
47
100
AcDbScale
 70
     0
300
100:1
140
100.0
141
1.0
290
     0
  0
SCALE
  5
59
102
{ACAD_REACTORS
330
47
102
}
330
47
100
AcDbScale
 70
     0
300
1/128" = 1'-0"
140
0.0078125
141
12.0
290
     0
  0
SCALE
  5
5A
102
{ACAD_REACTORS
330
47
102
}
330
47
100
AcDbScale
 70
     0
300
1/64" = 1'-0"
140
0.015625
141
12.0
290
     0
  0
SCALE
  5
5B
102
{ACAD_REACTORS
330
47
102
}
330
47
100
AcDbScale
 70
     0
300
1/32" = 1'-0"
140
0.03125
141
12.0
290
     0
  0
SCALE
  5
5C
102
{ACAD_REACTORS
330
47
102
}
330
47
100
AcDbScale
 70
     0
300
1/16" = 1'-0"
140
0.0625
141
12.0
290
     0
  0
SCALE
  5
5D
102
{ACAD_REACTORS
330
47
102
}
330
47
100
AcDbScale
 70
     0
300
3/32" = 1'-0"
140
0.09375
141
12.0
290
     0
  0
SCALE
  5
5E
102
{ACAD_REACTORS
330
47
102
}
330
47
100
AcDbScale
 70
     0
300
1/8" = 1'-0"
140
0.125
141
12.0
290
     0
  0
SCALE
  5
5F
102
{ACAD_REACTORS
330
47
102
}
330
47
100
AcDbScale
 70
     0
300
3/16" = 1'-0"
140
0.1875
141
12.0
290
     0
  0
SCALE
  5
60
102
{ACAD_REACTORS
330
47
102
}
330
47
100
AcDbScale
 70
     0
300
1/4" = 1'-0"
140
0.25
141
12.0
290
     0
  0
SCALE
  5
61
102
{ACAD_REACTORS
330
47
102
}
330
47
100
AcDbScale
 70
     0
300
3/8" = 1'-0"
140
0.375
141
12.0
290
     0
  0
SCALE
  5
62
102
{ACAD_REACTORS
330
47
102
}
330
47
100
AcDbScale
 70
     0
300
1/2" = 1'-0"
140
0.5
141
12.0
290
     0
  0
SCALE
  5
63
102
{ACAD_REACTORS
330
47
102
}
330
47
100
AcDbScale
 70
     0
300
3/4" = 1'-0"
140
0.75
141
12.0
290
     0
  0
SCALE
  5
64
102
{ACAD_REACTORS
330
47
102
}
330
47
100
AcDbScale
 70
     0
300
1" = 1'-0"
140
1.0
141
12.0
290
     0
  0
SCALE
  5
65
102
{ACAD_REACTORS
330
47
102
}
330
47
100
AcDbScale
 70
     0
300
1-1/2" = 1'-0"
140
1.5
141
12.0
290
     0
  0
SCALE
  5
66
102
{ACAD_REACTORS
330
47
102
}
330
47
100
AcDbScale
 70
     0
300
3" = 1'-0"
140
3.0
141
12.0
290
     0
  0
SCALE
  5
67
102
{ACAD_REACTORS
330
47
102
}
330
47
100
AcDbScale
 70
     0
300
6" = 1'-0"
140
6.0
141
12.0
290
     0
  0
SCALE
  5
68
102
{ACAD_REACTORS
330
47
102
}
330
47
100
AcDbScale
 70
     0
300
1'-0" = 1'-0"
140
12.0
141
12.0
290
     0
  0
ENDSEC
  0
EOF
