  0
SECTION
  2
HEADER
  9
$ACADVER
  1
AC1015
  9
$ACADMAINTVER
 70
     6
  9
$DWGCODEPAGE
  3
DOS932
  9
$INSBASE
 10
0.0
 20
0.0
 30
0.0
  9
$EXTMIN
 10
0.0
 20
0.0
 30
0.0
  9
$EXTMAX
 10
420.0
 20
297.0
 30
0.0
  9
$LIMMIN
 10
0.0
 20
0.0
  9
$LIMMAX
 10
420.0
 20
297.0
  9
$ORTHOMODE
 70
     0
  9
$REGENMODE
 70
     1
  9
$FILLMODE
 70
     1
  9
$QTEXTMODE
 70
     0
  9
$MIRRTEXT
 70
     1
  9
$LTSCALE
 40
1.0
  9
$ATTMODE
 70
     1
  9
$TEXTSIZE
 40
3.8805555556
  9
$TRACEWID
 40
1.0
  9
$TEXTSTYLE
  7
Standard
  9
$CLAYER
  8
0
  9
$CELTYPE
  6
ByLayer
  9
$CECOLOR
 62
   256
  9
$CELTSCALE
 40
1.0
  9
$DISPSILH
 70
     0
  9
$DIMSCALE
 40
1.0
  9
$DIMASZ
 40
3.0
  9
$DIMEXO
 40
0.0
  9
$DIMDLI
 40
3.75
  9
$DIMRND
 40
0.0
  9
$DIMDLE
 40
0.0
  9
$DIMEXE
 40
1.0
  9
$DIMTP
 40
0.0
  9
$DIMTM
 40
0.0
  9
$DIMTXT
 40
3.5277777778
  9
$DIMCEN
 40
2.5
  9
$DIMTSZ
 40
0.0
  9
$DIMTOL
 70
     0
  9
$DIMLIM
 70
     0
  9
$DIMTIH
 70
     1
  9
$DIMTOH
 70
     1
  9
$DIMSE1
 70
     0
  9
$DIMSE2
 70
     0
  9
$DIMTAD
 70
     1
  9
$DIMZIN
 70
     0
  9
$DIMBLK
  1

  9
$DIMASO
 70
     1
  9
$DIMSHO
 70
     1
  9
$DIMPOST
  1

  9
$DIMAPOST
  1

  9
$DIMALT
 70
     0
  9
$DIMALTD
 70
     3
  9
$DIMALTF
 40
0.0393700787
  9
$DIMLFAC
 40
1.0
  9
$DIMTOFL
 70
     1
  9
$DIMTVP
 40
0.0
  9
$DIMTIX
 70
     0
  9
$DIMSOXD
 70
     0
  9
$DIMSAH
 70
     0
  9
$DIMBLK1
  1

  9
$DIMBLK2
  1

  9
$DIMSTYLE
  2
ISO-25
  9
$DIMCLRD
 70
     0
  9
$DIMCLRE
 70
     0
  9
$DIMCLRT
 70
     0
  9
$DIMTFAC
 40
1.0
  9
$DIMGAP
 40
1.0
  9
$DIMJUST
 70
     0
  9
$DIMSD1
 70
     0
  9
$DIMSD2
 70
     0
  9
$DIMTOLJ
 70
     0
  9
$DIMTZIN
 70
     0
  9
$DIMALTZ
 70
     0
  9
$DIMALTTZ
 70
     0
  9
$DIMUPT
 70
     0
  9
$DIMDEC
 70
     2
  9
$DIMTDEC
 70
     2
  9
$DIMALTU
 70
     2
  9
$DIMALTTD
 70
     3
  9
$DIMTXSTY
  7
Standard
  9
$DIMAUNIT
 70
     0
  9
$DIMADEC
 70
     2
  9
$DIMALTRND
 40
0.0
  9
$DIMAZIN
 70
     0
  9
$DIMDSEP
 70
    44
  9
$DIMATFIT
 70
     3
  9
$DIMFRAC
 70
     0
  9
$DIMLDRBLK
  1

  9
$DIMLUNIT
 70
     2
  9
$DIMLWD
 70
    -2
  9
$DIMLWE
 70
    -2
  9
$DIMTMOVE
 70
     0
  9
$LUNITS
 70
     2
  9
$LUPREC
 70
     2
  9
$SKETCHINC
 40
1.0
  9
$FILLETRAD
 40
10.0
  9
$AUNITS
 70
     0
  9
$AUPREC
 70
     2
  9
$MENU
  1
.
  9
$ELEVATION
 40
0.0
  9
$PELEVATION
 40
0.0
  9
$THICKNESS
 40
0.0
  9
$LIMCHECK
 70
     0
  9
$CHAMFERA
 40
0.0
  9
$CHAMFERB
 40
0.0
  9
$CHAMFERC
 40
0.0
  9
$CHAMFERD
 40
0.0
  9
$SKPOLY
 70
     0
  9
$TDCREATE
 40
2459317.543691123
  9
$TDUCREATE
 40
2459317.168691123
  9
$TDUPDATE
 40
2459317.543692118
  9
$TDUUPDATE
 40
2459317.168692118
  9
$TDINDWG
 40
0.0000000116
  9
$TDUSRTIMER
 40
0.0000000116
  9
$USRTIMER
 70
     1
  9
$ANGBASE
 50
0.0
  9
$ANGDIR
 70
     0
  9
$PDMODE
 70
     0
  9
$PDSIZE
 40
-1.0
  9
$PLINEWID
 40
0.0
  9
$SPLFRAME
 70
     0
  9
$SPLINETYPE
 70
     6
  9
$SPLINESEGS
 70
     8
  9
$HANDSEED
  5
19A
  9
$SURFTAB1
 70
     6
  9
$SURFTAB2
 70
     6
  9
$SURFTYPE
 70
     6
  9
$SURFU
 70
     6
  9
$SURFV
 70
     6
  9
$UCSBASE
  2

  9
$UCSNAME
  2

  9
$UCSORG
 10
0.0
 20
0.0
 30
0.0
  9
$UCSXDIR
 10
1.0
 20
0.0
 30
0.0
  9
$UCSYDIR
 10
0.0
 20
1.0
 30
0.0
  9
$UCSORTHOREF
  2

  9
$UCSORTHOVIEW
 70
     0
  9
$UCSORGTOP
 10
0.0
 20
0.0
 30
0.0
  9
$UCSORGBOTTOM
 10
0.0
 20
0.0
 30
0.0
  9
$UCSORGLEFT
 10
0.0
 20
0.0
 30
0.0
  9
$UCSORGRIGHT
 10
0.0
 20
0.0
 30
0.0
  9
$UCSORGFRONT
 10
0.0
 20
0.0
 30
0.0
  9
$UCSORGBACK
 10
0.0
 20
0.0
 30
0.0
  9
$PUCSBASE
  2

  9
$PUCSNAME
  2

  9
$PUCSORG
 10
0.0
 20
0.0
 30
0.0
  9
$PUCSXDIR
 10
1.0
 20
0.0
 30
0.0
  9
$PUCSYDIR
 10
0.0
 20
1.0
 30
0.0
  9
$PUCSORTHOREF
  2

  9
$PUCSORTHOVIEW
 70
     0
  9
$PUCSORGTOP
 10
0.0
 20
0.0
 30
0.0
  9
$PUCSORGBOTTOM
 10
0.0
 20
0.0
 30
0.0
  9
$PUCSORGLEFT
 10
0.0
 20
0.0
 30
0.0
  9
$PUCSORGRIGHT
 10
0.0
 20
0.0
 30
0.0
  9
$PUCSORGFRONT
 10
0.0
 20
0.0
 30
0.0
  9
$PUCSORGBACK
 10
0.0
 20
0.0
 30
0.0
  9
$USERI1
 70
     0
  9
$USERI2
 70
     0
  9
$USERI3
 70
     0
  9
$USERI4
 70
     0
  9
$USERI5
 70
     0
  9
$USERR1
 40
0.0
  9
$USERR2
 40
0.0
  9
$USERR3
 40
0.0
  9
$USERR4
 40
0.0
  9
$USERR5
 40
0.0
  9
$WORLDVIEW
 70
     1
  9
$SHADEDGE
 70
     3
  9
$SHADEDIF
 70
    70
  9
$TILEMODE
 70
     1
  9
$MAXACTVP
 70
    64
  9
$PINSBASE
 10
0.0
 20
0.0
 30
0.0
  9
$PLIMCHECK
 70
     0
  9
$PEXTMIN
 10
1.0000000000E+20
 20
1.0000000000E+20
 30
1.0000000000E+20
  9
$PEXTMAX
 10
-1.0000000000E+20
 20
-1.0000000000E+20
 30
-1.0000000000E+20
  9
$PLIMMIN
 10
0.0
 20
0.0
  9
$PLIMMAX
 10
420.0
 20
297.0
  9
$UNITMODE
 70
     0
  9
$VISRETAIN
 70
     1
  9
$PLINEGEN
 70
     0
  9
$PSLTSCALE
 70
     1
  9
$TREEDEPTH
 70
  3020
  9
$CMLSTYLE
  2
Standard
  9
$CMLJUST
 70
     0
  9
$CMLSCALE
 40
20.0
  9
$PROXYGRAPHICS
 70
     1
  9
$MEASUREMENT
 70
     1
  9
$CELWEIGHT
370
    -1
  9
$ENDCAPS
280
     0
  9
$JOINSTYLE
280
     0
  9
$LWDISPLAY
290
     1
  9
$INSUNITS
 70
     4
  9
$HYPERLINKBASE
  1

  9
$STYLESHEET
  1

  9
$XEDIT
290
     1
  9
$CEPSNTYPE
380
     0
  9
$PSTYLEMODE
290
     1
  9
$FINGERPRINTGUID
  2
{5dd38285-955a-4880-ad76-3386421e58dc}
  9
$VERSIONGUID
  2
{FAEB1C32-E019-11D5-929B-00C0DF256EC4}
  9
$EXTNAMES
290
     1
  9
$PSVPSCALE
 40
0.0
  9
$OLESTARTUP
290
     0
  0
ENDSEC
  0
SECTION
  2
CLASSES
  0
CLASS
  1
ACDBDICTIONARYWDFLT
  2
AcDbDictionaryWithDefault
  3
ObjectDBX Classes
 90
        0
280
     0
281
     0
  0
CLASS
  1
VISUALSTYLE
  2
AcDbVisualStyle
  3
ObjectDBX Classes
 90
     4095
280
     0
281
     0
  0
CLASS
  1
MATERIAL
  2
AcDbMaterial
  3
ObjectDBX Classes
 90
     1153
280
     0
281
     0
  0
CLASS
  1
SCALE
  2
AcDbScale
  3
ObjectDBX Classes
 90
     1153
280
     0
281
     0
  0
CLASS
  1
TABLESTYLE
  2
AcDbTableStyle
  3
ObjectDBX Classes
 90
     4095
280
     0
281
     0
  0
CLASS
  1
MLEADERSTYLE
  2
AcDbMLeaderStyle
  3
ACDB_MLEADERSTYLE_CLASS
 90
     4095
280
     0
281
     0
  0
CLASS
  1
SUN
  2
AcDbSun
  3
SCENEOE
 90
     1153
280
     0
281
     0
  0
CLASS
  1
ACDBPLACEHOLDER
  2
AcDbPlaceHolder
  3
ObjectDBX Classes
 90
        0
280
     0
281
     0
  0
CLASS
  1
LAYOUT
  2
AcDbLayout
  3
ObjectDBX Classes
 90
        0
280
     0
281
     0
  0
ENDSEC
  0
SECTION
  2
TABLES
  0
TABLE
  2
VPORT
  5
8
330
0
100
AcDbSymbolTable
 70
     1
  0
VPORT
  5
29
330
8
100
AcDbSymbolTableRecord
100
AcDbViewportTableRecord
  2
*Active
 70
     0
 10
0.0
 20
0.0
 11
1.0
 21
1.0
 12
210.0
 22
148.5
 13
0.0
 23
0.0
 14
10.0
 24
10.0
 15
10.0
 25
10.0
 16
0.0
 26
0.0
 36
1.0
 17
0.0
 27
0.0
 37
0.0
 40
297.0
 41
1.4141414141
 42
50.0
 43
0.0
 44
0.0
 50
0.0
 51
0.0
 71
     0
 72
  2000
 73
     1
 74
     3
 75
     0
 76
     0
 77
     0
 78
     0
281
     0
 65
     1
110
0.0
120
0.0
130
0.0
111
1.0
121
0.0
131
0.0
112
0.0
122
1.0
132
0.0
 79
     0
146
0.0
  0
ENDTAB
  0
TABLE
  2
LTYPE
  5
5
330
0
100
AcDbSymbolTable
 70
     6
  0
LTYPE
  5
14
330
5
100
AcDbSymbolTableRecord
100
AcDbLinetypeTableRecord
  2
ByBlock
 70
     0
  3

 72
    65
 73
     0
 40
0.0
  0
LTYPE
  5
15
330
5
100
AcDbSymbolTableRecord
100
AcDbLinetypeTableRecord
  2
ByLayer
 70
     0
  3

 72
    65
 73
     0
 40
0.0
  0
LTYPE
  5
16
330
5
100
AcDbSymbolTableRecord
100
AcDbLinetypeTableRecord
  2
Continuous
 70
     0
  3
Solid line
 72
    65
 73
     0
 40
0.0
  0
LTYPE
  5
6E
330
5
100
AcDbSymbolTableRecord
100
AcDbLinetypeTableRecord
  2
HIDDEN
 70
     0
  3
Hidden __ __ __ __ __ __ __ __ __ __ __ __ __ __
 72
    65
 73
     2
 40
1.905
 49
1.27
 74
     0
 49
-0.635
 74
     0
  0
LTYPE
  5
6F
330
5
100
AcDbSymbolTableRecord
100
AcDbLinetypeTableRecord
  2
PHANTOM
 70
     0
  3
Phantom ______  __  __  ______  __  __  ______
 72
    65
 73
     6
 40
12.7
 49
6.35
 74
     0
 49
-1.27
 74
     0
 49
1.27
 74
     0
 49
-1.27
 74
     0
 49
1.27
 74
     0
 49
-1.27
 74
     0
  0
LTYPE
  5
70
330
5
100
AcDbSymbolTableRecord
100
AcDbLinetypeTableRecord
  2
CENTER
 70
     0
  3
Center ____ _ ____ _ ____ _ ____ _ ____ _ ____
 72
    65
 73
     4
 40
10.16
 49
6.35
 74
     0
 49
-1.27
 74
     0
 49
1.27
 74
     0
 49
-1.27
 74
     0
  0
LTYPE
  5
71
330
5
100
AcDbSymbolTableRecord
100
AcDbLinetypeTableRecord
  2
CENTERX2
 70
     0
  3
Center (2x) ________  __  ________  __  _____
 72
    65
 73
     4
 40
20.32
 49
12.7
 74
     0
 49
-2.54
 74
     0
 49
2.54
 74
     0
 49
-2.54
 74
     0
  0
LTYPE
  5
72
330
5
100
AcDbSymbolTableRecord
100
AcDbLinetypeTableRecord
  2
DOT2
 70
     0
  3
Dot (.5x) ........................................
 72
    65
 73
     2
 40
0.635
 49
0.0
 74
     0
 49
-0.635
 74
     0
  0
ENDTAB
  0
TABLE
  2
LAYER
  5
2
330
0
100
AcDbSymbolTable
 70
     6
  0
LAYER
  5
10
330
2
100
AcDbSymbolTableRecord
100
AcDbLayerTableRecord
  2
0
 70
     0
 62
     7
  6
Continuous
370
    -3
390
F
  0
LAYER
  5
73
330
2
100
AcDbSymbolTableRecord
100
AcDbLayerTableRecord
  2
SLD-0
 70
     0
 62
     7
  6
Continuous
370
    -3
390
F
  0
LAYER
  5
74
330
2
100
AcDbSymbolTableRecord
100
AcDbLayerTableRecord
  2
8
 70
     0
 62
     7
  6
Continuous
370
    25
390
F
  0
LAYER
  5
75
330
2
100
AcDbSymbolTableRecord
100
AcDbLayerTableRecord
  2
9
 70
     0
 62
     7
  6
Continuous
370
    -3
390
F
  0
LAYER
  5
76
330
2
100
AcDbSymbolTableRecord
100
AcDbLayerTableRecord
  2
10
 70
     0
 62
     1
  6
Continuous
370
    -3
390
F
  0
LAYER
  5
77
330
2
100
AcDbSymbolTableRecord
100
AcDbLayerTableRecord
  2
11
 70
     0
 62
     7
  6
Continuous
370
    -3
390
F
  0
ENDTAB
  0
TABLE
  2
STYLE
  5
3
330
0
100
AcDbSymbolTable
 70
     2
  0
STYLE
  5
11
330
3
100
AcDbSymbolTableRecord
100
AcDbTextStyleTableRecord
  2
Standard
 70
     0
 40
0.0
 41
1.0
 50
0.0
 71
     0
 42
3.8805555556
  3
txt
  4
bigfont
  0
STYLE
  5
78
330
3
100
AcDbSymbolTableRecord
100
AcDbTextStyleTableRecord
  2
SLDTEXTSTYLE0
 70
     0
 40
0.0
 41
0.7
 50
0.0
 71
     0
 42
3.8805555556
  3
TXT
  4
bigfont
  0
ENDTAB
  0
TABLE
  2
VIEW
  5
6
330
0
100
AcDbSymbolTable
 70
     0
  0
ENDTAB
  0
TABLE
  2
UCS
  5
7
330
0
100
AcDbSymbolTable
 70
     0
  0
ENDTAB
  0
TABLE
  2
APPID
  5
9
330
0
100
AcDbSymbolTable
 70
     1
  0
APPID
  5
12
330
9
100
AcDbSymbolTableRecord
100
AcDbRegAppTableRecord
  2
ACAD
 70
     0
  0
ENDTAB
  0
TABLE
  2
DIMSTYLE
  5
A
330
0
100
AcDbSymbolTable
 70
     1
100
AcDbDimStyleTable
  0
DIMSTYLE
105
27
330
A
100
AcDbSymbolTableRecord
100
AcDbDimStyleTableRecord
  2
ISO-25
 70
     0
 41
2.5
 42
0.625
 43
3.75
 44
1.25
 73
     0
 74
     0
 77
     1
 78
     8
140
2.5
141
2.5
143
0.0393700787
147
0.625
171
     3
172
     1
178
     0
271
     2
272
     2
274
     3
278
    44
283
     0
284
     8
340
11
  0
ENDTAB
  0
TABLE
  2
BLOCK_RECORD
  5
1
330
0
100
AcDbSymbolTable
 70
     1
  0
BLOCK_RECORD
  5
1F
330
1
100
AcDbSymbolTableRecord
100
AcDbBlockTableRecord
  2
*Model_Space
340
22
  0
BLOCK_RECORD
  5
1B
330
1
100
AcDbSymbolTableRecord
100
AcDbBlockTableRecord
  2
*Paper_Space
340
1E
  0
BLOCK_RECORD
  5
23
330
1
100
AcDbSymbolTableRecord
100
AcDbBlockTableRecord
  2
*Paper_Space0
340
26
  0
ENDTAB
  0
ENDSEC
  0
SECTION
  2
BLOCKS
  0
BLOCK
  5
20
330
1F
100
AcDbEntity
  8
0
100
AcDbBlockBegin
  2
*Model_Space
 70
     0
 10
0.0
 20
0.0
 30
0.0
  3
*Model_Space
  1

  0
ENDBLK
  5
21
330
1F
100
AcDbEntity
  8
0
100
AcDbBlockEnd
  0
BLOCK
  5
1C
330
1B
100
AcDbEntity
 67
     1
  8
0
100
AcDbBlockBegin
  2
*Paper_Space
 70
     0
 10
0.0
 20
0.0
 30
0.0
  3
*Paper_Space
  1

  0
ENDBLK
  5
1D
330
1B
100
AcDbEntity
 67
     1
  8
0
100
AcDbBlockEnd
  0
BLOCK
  5
24
330
23
100
AcDbEntity
  8
0
100
AcDbBlockBegin
  2
*Paper_Space0
 70
     0
 10
0.0
 20
0.0
 30
0.0
  3
*Paper_Space0
  1

  0
ENDBLK
  5
25
330
23
100
AcDbEntity
  8
0
100
AcDbBlockEnd
  0
ENDSEC
  0
SECTION
  2
ENTITIES
  0
MTEXT
  5
79
330
1F
100
AcDbEntity
  8
9
 62
     7
100
AcDbMText
 10
22.9810592731
 20
14.7698939359
 30
0.0
 40
3.7041666667
 41
0.0
 71
     1
 72
     1
  1
2021/03/09
  7
SLDTEXTSTYLE0
 73
     1
 44
1.0
  0
MTEXT
  5
7A
330
1F
100
AcDbEntity
  8
9
 62
     7
100
AcDbMText
 10
22.9810592731
 20
39.3097759652
 30
0.0
 40
3.7041666667
 41
0.0
 71
     1
 72
     1
  1
12-8002-02-002
  7
SLDTEXTSTYLE0
 73
     1
 44
1.0
  0
MTEXT
  5
7B
330
1F
100
AcDbEntity
  8
9
 62
     7
100
AcDbMText
 10
22.9810592731
 20
22.271836236
 30
0.0
 40
3.7041666667
 41
0.0
 71
     1
 72
     1
  1
-
  7
SLDTEXTSTYLE0
 73
     1
 44
1.0
  0
MTEXT
  5
7C
330
1F
100
AcDbEntity
  8
9
 62
     7
100
AcDbMText
 10
22.9810592731
 20
30.9293045781
 30
0.0
 40
3.7041666667
 41
0.0
 71
     1
 72
     1
  1
1:1
  7
SLDTEXTSTYLE0
 73
     1
 44
1.0
  0
ARC
  5
7D
330
1F
100
AcDbEntity
  8
0
  6
Continuous
 62
     7
370
    35
100
AcDbCircle
 10
143.0057570595
 20
174.796730821
 30
0.0
 40
28.84699025082298
100
AcDbArc
 50
353.1838182293
 51
0.0
  0
ARC
  5
7E
330
1F
100
AcDbEntity
  8
0
  6
Continuous
 62
     7
370
    35
100
AcDbCircle
 10
180.6997375611
 20
174.796730821
 30
0.0
 40
28.84699025082298
100
AcDbArc
 50
180.0
 51
186.8161817707
  0
LINE
  5
7F
330
1F
100
AcDbEntity
  8
0
  6
Continuous
 62
     7
370
    35
100
AcDbLine
 10
151.8527473103
 20
232.1863362182
 30
0.0
 11
151.8527473103
 21
174.796730821
 31
0.0
  0
LINE
  5
80
330
1F
100
AcDbEntity
  8
0
  6
Continuous
 62
     7
370
    35
100
AcDbLine
 10
171.8527473103
 20
174.796730821
 30
0.0
 11
171.8527473103
 21
232.1863362182
 31
0.0
  0
LINE
  5
81
330
1F
100
AcDbEntity
  8
0
  6
Continuous
 62
     7
370
    35
100
AcDbLine
 10
171.8527473103
 20
232.1863362182
 30
0.0
 11
171.8527473103
 21
275.5759416154
 31
0.0
  0
LINE
  5
82
330
1F
100
AcDbEntity
  8
0
  6
Continuous
 62
     7
370
    35
100
AcDbLine
 10
151.8527473103
 20
275.5759416154
 30
0.0
 11
151.8527473103
 21
232.1863362182
 31
0.0
  0
ARC
  5
83
330
1F
100
AcDbEntity
  8
0
  6
Continuous
 62
     7
370
    35
100
AcDbCircle
 10
180.6997375611
 20
275.5759416154
 30
0.0
 40
28.84699025083288
100
AcDbArc
 50
173.1838182293
 51
180.0
  0
ARC
  5
84
330
1F
100
AcDbEntity
  8
0
  6
Continuous
 62
     7
370
    35
100
AcDbCircle
 10
143.0057570595
 20
275.5759416154
 30
0.0
 40
28.84699025083282
100
AcDbArc
 50
0.0
 51
6.8161817707
  0
ARC
  5
85
330
1F
100
AcDbEntity
  8
0
  6
Continuous
 62
     7
370
    35
100
AcDbCircle
 10
161.5759011227
 20
172.5108733525
 30
0.0
 40
9.58702492138621
100
AcDbArc
 50
186.8161817707
 51
203.3426337043
  0
ARC
  5
86
330
1F
100
AcDbEntity
  8
0
  6
Continuous
 62
     7
370
    35
100
AcDbCircle
 10
162.1295934979
 20
172.5108733525
 30
0.0
 40
9.587024921386206
100
AcDbArc
 50
336.6573662957
 51
353.1838182293
  0
ARC
  5
87
330
1F
100
AcDbEntity
  8
0
  6
Continuous
 62
     7
370
    35
100
AcDbCircle
 10
162.1295934979
 20
277.8617990838
 30
0.0
 40
9.587024921386826
100
AcDbArc
 50
6.8161817707
 51
23.3426337043
  0
ARC
  5
88
330
1F
100
AcDbEntity
  8
0
  6
Continuous
 62
     7
370
    35
100
AcDbCircle
 10
161.5759011227
 20
277.8617990838
 30
0.0
 40
9.587024921386854
100
AcDbArc
 50
156.6573662957
 51
173.1838182293
  0
ARC
  5
89
330
1F
100
AcDbEntity
  8
0
  6
Continuous
 62
     7
370
    35
100
AcDbCircle
 10
157.3563241961
 20
170.6899131039
 30
0.0
 40
4.991295853394056
100
AcDbArc
 50
203.3426337043
 51
243.5638055062
  0
ARC
  5
8A
330
1F
100
AcDbEntity
  8
0
  6
Continuous
 62
     7
370
    35
100
AcDbCircle
 10
166.3491704245
 20
170.6899131039
 30
0.0
 40
4.991295853394056
100
AcDbArc
 50
296.4361944938
 51
336.6573662957
  0
ARC
  5
8B
330
1F
100
AcDbEntity
  8
0
  6
Continuous
 62
     7
370
    35
100
AcDbCircle
 10
166.3491704245
 20
279.6827593324
 30
0.0
 40
4.991295853393614
100
AcDbArc
 50
23.3426337043
 51
66.6573662957
  0
ARC
  5
8C
330
1F
100
AcDbEntity
  8
0
  6
Continuous
 62
     7
370
    35
100
AcDbCircle
 10
157.3563241961
 20
279.6827593324
 30
0.0
 40
4.991295853393611
100
AcDbArc
 50
113.3426337043
 51
156.6573662957
  0
ARC
  5
8D
330
1F
100
AcDbEntity
  8
0
  6
Continuous
 62
     7
370
    35
100
AcDbCircle
 10
164.5282101759
 20
275.4631824058
 30
0.0
 40
9.587024921385998
100
AcDbArc
 50
66.6573662957
 51
83.1838182293
  0
ARC
  5
8E
330
1F
100
AcDbEntity
  8
0
  6
Continuous
 62
     7
370
    35
100
AcDbCircle
 10
159.1772844446
 20
275.4631824058
 30
0.0
 40
9.587024921385991
100
AcDbArc
 50
96.8161817707
 51
113.3426337043
  0
ARC
  5
8F
330
1F
100
AcDbEntity
  8
0
  6
Continuous
 62
     7
370
    35
100
AcDbCircle
 10
162.2423527075
 20
256.3393459673
 30
0.0
 40
28.84699025082989
100
AcDbArc
 50
83.1838182293
 51
90.0
  0
ARC
  5
90
330
1F
100
AcDbEntity
  8
0
  6
Continuous
 62
     7
370
    35
100
AcDbCircle
 10
161.4631419131
 20
256.3393459673
 30
0.0
 40
28.84699025082989
100
AcDbArc
 50
90.0
 51
96.8161817707
  0
ARC
  5
91
330
1F
100
AcDbEntity
  8
0
  6
Continuous
 62
     7
370
    35
100
AcDbCircle
 10
91.8527473103
 20
130.7205535656
 30
0.0
 40
4.500000000000014
100
AcDbArc
 50
270.0
 51
0.0
  0
ARC
  5
92
330
1F
100
AcDbEntity
  8
0
  6
Continuous
 62
     7
370
    35
100
AcDbCircle
 10
91.8527473103
 20
181.7205535656
 30
0.0
 40
4.5
100
AcDbArc
 50
0.0
 51
90.0
  0
LINE
  5
93
330
1F
100
AcDbEntity
  8
0
  6
Continuous
 62
     7
370
    35
100
AcDbLine
 10
89.3527473103
 20
126.2205535656
 30
0.0
 11
91.8527473103
 21
126.2205535656
 31
0.0
  0
LINE
  5
94
330
1F
100
AcDbEntity
  8
0
  6
Continuous
 62
     7
370
    35
100
AcDbLine
 10
91.8527473103
 20
186.2205535656
 30
0.0
 11
89.3527473103
 21
186.2205535656
 31
0.0
  0
LINE
  5
95
330
1F
100
AcDbEntity
  8
0
  6
Continuous
 62
     7
370
    35
100
AcDbLine
 10
89.3527473103
 20
178.7205535656
 30
0.0
 11
88.9527473103
 21
178.7205535656
 31
0.0
  0
LINE
  5
96
330
1F
100
AcDbEntity
  8
0
  6
Continuous
 62
     7
370
    35
100
AcDbLine
 10
88.9527473103
 20
133.7205535656
 30
0.0
 11
89.3527473103
 21
133.7205535656
 31
0.0
  0
ARC
  5
97
330
1F
100
AcDbEntity
  8
0
  6
Continuous
 62
     7
370
    35
100
AcDbCircle
 10
190.7423527075
 20
137.3735633148
 30
0.0
 40
28.84699025083071
100
AcDbArc
 50
83.1838182293
 51
90.0
  0
ARC
  5
98
330
1F
100
AcDbEntity
  8
0
  6
Continuous
 62
     7
370
    35
100
AcDbCircle
 10
190.7423527075
 20
175.0675438165
 30
0.0
 40
28.84699025083069
100
AcDbArc
 50
270.0
 51
276.8161817707
  0
LINE
  5
99
330
1F
100
AcDbEntity
  8
0
  6
Continuous
 62
     7
370
    35
100
AcDbLine
 10
150.3527473103
 20
146.2205535656
 30
0.0
 11
190.7423527075
 21
146.2205535656
 31
0.0
  0
LINE
  5
9A
330
1F
100
AcDbEntity
  8
0
  6
Continuous
 62
     7
370
    35
100
AcDbLine
 10
190.7423527075
 20
166.2205535656
 30
0.0
 11
168.5712999468
 21
166.2205535656
 31
0.0
  0
LINE
  5
9B
330
1F
100
AcDbEntity
  8
0
  6
Continuous
 62
     7
370
    35
100
AcDbLine
 10
155.1341946738
 20
166.2205535656
 30
0.0
 11
150.3527473103
 21
166.2205535656
 31
0.0
  0
ARC
  5
9C
330
1F
100
AcDbEntity
  8
0
  6
Continuous
 62
     7
370
    35
100
AcDbCircle
 10
105.3631419131
 20
175.0675438165
 30
0.0
 40
28.84699025082932
100
AcDbArc
 50
263.1838182293
 51
270.0
  0
ARC
  5
9D
330
1F
100
AcDbEntity
  8
0
  6
Continuous
 62
     7
370
    35
100
AcDbCircle
 10
105.3631419131
 20
137.3735633148
 30
0.0
 40
28.84699025082935
100
AcDbArc
 50
90.0
 51
96.8161817707
  0
LINE
  5
9E
330
1F
100
AcDbEntity
  8
0
  6
Continuous
 62
     7
370
    35
100
AcDbLine
 10
150.3527473103
 20
166.2205535656
 30
0.0
 11
105.3631419131
 21
166.2205535656
 31
0.0
  0
LINE
  5
9F
330
1F
100
AcDbEntity
  8
0
  6
Continuous
 62
     7
370
    35
100
AcDbLine
 10
111.3527473103
 20
146.2205535656
 30
0.0
 11
150.3527473103
 21
146.2205535656
 31
0.0
  0
LINE
  5
A0
330
1F
100
AcDbEntity
  8
0
  6
Continuous
 62
     7
370
    35
100
AcDbLine
 10
105.3631419131
 20
146.2205535656
 30
0.0
 11
107.3527473103
 21
146.2205535656
 31
0.0
  0
ARC
  5
A1
330
1F
100
AcDbEntity
  8
0
  6
Continuous
 62
     7
370
    35
100
AcDbCircle
 10
103.0772844446
 20
156.4973997533
 30
0.0
 40
9.58702492138614
100
AcDbArc
 50
96.8161817707
 51
113.3426337043
  0
ARC
  5
A2
330
1F
100
AcDbEntity
  8
0
  6
Continuous
 62
     7
370
    35
100
AcDbCircle
 10
103.0772844446
 20
155.943707378
 30
0.0
 40
9.587024921386147
100
AcDbArc
 50
246.6573662957
 51
263.1838182293
  0
ARC
  5
A3
330
1F
100
AcDbEntity
  8
0
  6
Continuous
 62
     7
370
    35
100
AcDbCircle
 10
193.0282101759
 20
155.943707378
 30
0.0
 40
9.587024921386583
100
AcDbArc
 50
276.8161817707
 51
293.3426337043
  0
ARC
  5
A4
330
1F
100
AcDbEntity
  8
0
  6
Continuous
 62
     7
370
    35
100
AcDbCircle
 10
193.0282101759
 20
156.4973997533
 30
0.0
 40
9.587024921386583
100
AcDbArc
 50
66.6573662957
 51
83.1838182293
  0
ARC
  5
A5
330
1F
100
AcDbEntity
  8
0
  6
Continuous
 62
     7
370
    35
100
AcDbCircle
 10
101.2563241961
 20
160.7169766799
 30
0.0
 40
4.991295853394024
100
AcDbArc
 50
113.3426337043
 51
156.6573662957
  0
ARC
  5
A6
330
1F
100
AcDbEntity
  8
0
  6
Continuous
 62
     7
370
    35
100
AcDbCircle
 10
101.2563241961
 20
151.7241304514
 30
0.0
 40
4.991295853394024
100
AcDbArc
 50
203.3426337043
 51
246.6573662957
  0
ARC
  5
A7
330
1F
100
AcDbEntity
  8
0
  6
Continuous
 62
     7
370
    35
100
AcDbCircle
 10
194.8491704245
 20
151.7241304514
 30
0.0
 40
4.991295853393749
100
AcDbArc
 50
293.3426337043
 51
336.6573662957
  0
ARC
  5
A8
330
1F
100
AcDbEntity
  8
0
  6
Continuous
 62
     7
370
    35
100
AcDbCircle
 10
194.8491704245
 20
160.7169766799
 30
0.0
 40
4.991295853393749
100
AcDbArc
 50
23.3426337043
 51
66.6573662957
  0
ARC
  5
A9
330
1F
100
AcDbEntity
  8
0
  6
Continuous
 62
     7
370
    35
100
AcDbCircle
 10
190.6295934979
 20
153.5450907
 30
0.0
 40
9.587024921389201
100
AcDbArc
 50
336.6573662957
 51
353.1838182293
  0
ARC
  5
AA
330
1F
100
AcDbEntity
  8
0
  6
Continuous
 62
     7
370
    35
100
AcDbCircle
 10
190.6295934979
 20
158.8960164313
 30
0.0
 40
9.587024921389201
100
AcDbArc
 50
6.8161817707
 51
23.3426337043
  0
ARC
  5
AB
330
1F
100
AcDbEntity
  8
0
  6
Continuous
 62
     7
370
    35
100
AcDbCircle
 10
171.5057570595
 20
155.8309481685
 30
0.0
 40
28.84699025082998
100
AcDbArc
 50
353.1838182293
 51
0.0
  0
ARC
  5
AC
330
1F
100
AcDbEntity
  8
0
  6
Continuous
 62
     7
370
    35
100
AcDbCircle
 10
171.5057570595
 20
156.6101589628
 30
0.0
 40
28.84699025082998
100
AcDbArc
 50
0.0
 51
6.8161817707
  0
LINE
  5
AD
330
1F
100
AcDbEntity
  8
0
  6
Continuous
 62
   144
370
    18
100
AcDbLine
 10
162.2423527075
 20
285.1863362182
 30
0.0
 11
161.4631419131
 21
285.1863362182
 31
0.0
  0
SPLINE
  5
AE
330
1F
100
AcDbEntity
  8
0
  6
Continuous
 62
     7
370
    35
100
AcDbSpline
210
0.0
220
0.0
230
1.0
 70
     8
 71
     3
 72
    35
 73
    31
 74
     0
 42
0.00000001
 43
0.00000001
 40
0.0
 40
0.0
 40
0.0
 40
0.0
 40
0.0524065411033578
 40
0.103219349264829
 40
0.1524382829477344
 40
0.2232340128017774
 40
0.2904490868743405
 40
0.3067075393467502
 40
0.3246437422454896
 40
0.3504177357659535
 40
0.3761917915481586
 40
0.4277172594537395
 40
0.4792428986536744
 40
0.5307686573862829
 40
0.5822944838898818
 40
0.6338203264027897
 40
0.6853461331633256
 40
0.7368718524098098
 40
0.7883974323805595
 40
0.8399228213138935
 40
0.8914479674481312
 40
0.9154835393654767
 40
0.9238338671557896
 40
0.9331850316446749
 40
0.9435370190063272
 40
0.9548898142005671
 40
0.9672434009728879
 40
0.9805977618544952
 40
0.9949528781623441
 40
1.0
 40
1.0
 40
1.0
 40
1.0
 10
96.35274731028909
 20
139.0593795537723
 30
0.0
 10
96.35274731029055
 20
139.8443752642417
 30
0.0
 10
96.3527473102935
 20
141.3904942162734
 30
0.0
 10
96.35274731022564
 20
143.9458304812561
 30
0.0
 10
96.35274730971094
 20
146.9753981871082
 30
0.0
 10
96.35274730778137
 20
150.4966669103594
 30
0.0
 10
96.35274730279998
 20
153.50409408583
 30
0.0
 10
96.35274729684411
 20
155.4912590030852
 30
0.0
 10
96.35274729240193
 20
156.6679069301946
 30
0.0
 10
96.3527472868002
 20
158.0306377008287
 30
0.0
 10
96.35274727828788
 20
160.0432658176488
 30
0.0
 10
96.3527472677931
 20
162.5312862726705
 30
0.0
 10
96.35274725715901
 20
165.426594701702
 30
0.0
 10
96.35274724969672
 20
168.1919676824357
 30
0.0
 10
96.35274724620263
 20
170.7880133702831
 30
0.0
 10
96.35274724703032
 20
173.1780942242283
 30
0.0
 10
96.35274725209591
 20
175.3283907637633
 30
0.0
 10
96.35274726088286
 20
177.2084958257572
 30
0.0
 10
96.35274727241739
 20
178.7918358057545
 30
0.0
 10
96.35274728536174
 20
180.0559662425511
 30
0.0
 10
96.35274729547791
 20
180.8183191342028
 30
0.0
 10
96.35274730132035
 20
181.1820626223046
 30
0.0
 10
96.35274730356709
 20
181.3329819831074
 30
0.0
 10
96.3527473046958
 20
181.4233414590208
 30
0.0
 10
96.35274730569138
 20
181.5097688248704
 30
0.0
 10
96.35274730654312
 20
181.5876158319439
 30
0.0
 10
96.35274730727667
 20
181.6540196217237
 30
0.0
 10
96.35274730787918
 20
181.6963764575242
 30
0.0
 10
96.35274730832091
 20
181.7300442683174
 30
0.0
 10
96.35274730845839
 20
181.7122454329885
 30
0.0
 10
96.35274730849414
 20
181.7076154057824
 30
0.0
  0
LINE
  5
AF
330
1F
100
AcDbEntity
  8
0
  6
Continuous
 62
     7
370
    35
100
AcDbLine
 10
96.3527473103
 20
130.7205535656
 30
0.0
 11
96.3527473103
 21
139.0593795538
 31
0.0
  0
LINE
  5
B0
330
1F
100
AcDbEntity
  8
0
  6
Continuous
 62
     7
370
    35
100
AcDbLine
 10
89.3527473103
 20
156.2205535656
 30
0.0
 11
89.3527473103
 21
126.2205535656
 31
0.0
  0
LINE
  5
B1
330
1F
100
AcDbEntity
  8
0
  6
Continuous
 62
     7
370
    35
100
AcDbLine
 10
89.3527473103
 20
186.2205535656
 30
0.0
 11
89.3527473103
 21
156.2205535656
 31
0.0
  0
LINE
  5
B2
330
1F
100
AcDbEntity
  8
0
  6
Continuous
 62
     7
370
    35
100
AcDbLine
 10
88.9527473103
 20
147.4400657608
 30
0.0
 11
88.9527473103
 21
133.7205535656
 31
0.0
  0
LINE
  5
B3
330
1F
100
AcDbEntity
  8
0
  6
Continuous
 62
     7
370
    35
100
AcDbLine
 10
88.9527473103
 20
150.2205535656
 30
0.0
 11
88.9527473103
 21
147.4400657608
 31
0.0
  0
LINE
  5
B4
330
1F
100
AcDbEntity
  8
0
  6
Continuous
 62
     7
370
    35
100
AcDbLine
 10
88.9527473103
 20
162.2205535656
 30
0.0
 11
88.9527473103
 21
150.2205535656
 31
0.0
  0
LINE
  5
B5
330
1F
100
AcDbEntity
  8
0
  6
Continuous
 62
     7
370
    35
100
AcDbLine
 10
88.9527473103
 20
165.0010413705
 30
0.0
 11
88.9527473103
 21
162.2205535656
 31
0.0
  0
LINE
  5
B6
330
1F
100
AcDbEntity
  8
0
  6
Continuous
 62
     7
370
    35
100
AcDbLine
 10
88.9527473103
 20
178.7205535656
 30
0.0
 11
88.9527473103
 21
165.0010413705
 31
0.0
  0
LINE
  5
B7
330
1F
100
AcDbEntity
  8
0
  6
Continuous
 62
     7
370
    35
100
AcDbLine
 10
88.9527473103
 20
162.2205535656
 30
0.0
 11
89.3527473103
 21
162.2205535656
 31
0.0
  0
LINE
  5
B8
330
1F
100
AcDbEntity
  8
0
  6
Continuous
 62
     7
370
    35
100
AcDbLine
 10
89.3527473103
 20
150.2205535656
 30
0.0
 11
88.9527473103
 21
150.2205535656
 31
0.0
  0
SPLINE
  5
B9
330
1F
100
AcDbEntity
  8
0
  6
Continuous
 62
     7
370
    35
100
AcDbSpline
210
0.0
220
0.0
230
1.0
 70
     8
 71
     3
 72
    23
 73
    19
 74
     0
 42
0.00000001
 43
0.00000001
 40
0.0
 40
0.0
 40
0.0
 40
0.0
 40
0.0520256687590437
 40
0.1044186119084738
 40
0.1579654762732667
 40
0.2119084390155536
 40
0.2639329008030878
 40
0.3697142245601011
 40
0.4235868577364778
 40
0.4762679679182697
 40
0.5833878371337263
 40
0.637953030653969
 40
0.6910551819358689
 40
0.7445319929992448
 40
0.7992014233075379
 40
0.8542881036302247
 40
0.9066815619543896
 40
1.0
 40
1.0
 40
1.0
 40
1.0
 10
109.3527473102891
 20
146.4225945945162
 30
0.0
 10
109.4073497897281
 20
146.4223302808149
 30
0.0
 10
109.5169402139509
 20
146.4217997874937
 30
0.0
 10
109.681569485442
 20
146.4175048098082
 30
0.0
 10
109.8458185055604
 20
146.4106612660746
 30
0.0
 10
110.0061042675821
 20
146.4012508840411
 30
0.0
 10
110.2125809184107
 20
146.3858530938759
 30
0.0
 10
110.4080305213355
 20
146.3666776437438
 30
0.0
 10
110.5882399235867
 20
146.3452917541862
 30
0.0
 10
110.7580346794069
 20
146.3229223926181
 30
0.0
 10
110.9095483685286
 20
146.3000766728723
 30
0.0
 10
111.0385460266185
 20
146.2787607235995
 30
0.0
 10
111.123460801258
 20
146.2639747323192
 30
0.0
 10
111.1959721311879
 20
146.2507966207079
 30
0.0
 10
111.2562124426126
 20
146.2394573504651
 30
0.0
 10
111.3016631570195
 20
146.2306701012181
 30
0.0
 10
111.342884616464
 20
146.2225384118525
 30
0.0
 10
111.3470220040706
 20
146.2217017239746
 30
0.0
 10
111.349671715993
 20
146.2211658829909
 30
0.0
  0
SPLINE
  5
BA
330
1F
100
AcDbEntity
  8
0
  6
Continuous
 62
     7
370
    35
100
AcDbSpline
210
0.0
220
0.0
230
1.0
 70
     8
 71
     3
 72
    22
 73
    18
 74
     0
 42
0.00000001
 43
0.00000001
 40
0.0
 40
0.0
 40
0.0
 40
0.0
 40
0.0388099537369935
 40
0.1442955916975766
 40
0.1980490136605337
 40
0.2498192976909235
 40
0.3550714947589599
 40
0.4086675680960974
 40
0.4612740291316227
 40
0.5682374080828846
 40
0.6227190576211149
 40
0.6758366884551062
 40
0.7293280658296458
 40
0.7840090008018753
 40
0.839106248247737
 40
0.9188828404385974
 40
1.0
 40
1.0
 40
1.0
 40
1.0
 10
107.3540016936511
 20
146.2208042677038
 30
0.0
 10
107.3542833602932
 20
146.220860447684
 30
0.0
 10
107.3553305982019
 20
146.2210693251164
 30
0.0
 10
107.3877516164644
 20
146.2275520998089
 30
0.0
 10
107.4462790493405
 20
146.2388806505354
 30
0.0
 10
107.5226090153865
 20
146.2532764319502
 30
0.0
 10
107.6239992706172
 20
146.271556895855
 30
0.0
 10
107.748932162468
 20
146.292361616431
 30
0.0
 10
107.8896085719221
 20
146.3144081972894
 30
0.0
 10
108.052114010996
 20
146.33732637826
 30
0.0
 10
108.2325886908522
 20
146.3590975322677
 30
0.0
 10
108.3761428206195
 20
146.3744022194132
 30
0.0
 10
108.5268582887928
 20
146.3882485248218
 30
0.0
 10
108.6855652476821
 20
146.4003643801862
 30
0.0
 10
108.8756722286847
 20
146.4116569743253
 30
0.0
 10
109.0986583204157
 20
146.4206770709783
 30
0.0
 10
109.2675818232353
 20
146.4219518794339
 30
0.0
 10
109.3527473102891
 20
146.4225945945162
 30
0.0
  0
LINE
  5
BB
330
1F
100
AcDbEntity
  8
0
  6
Continuous
 62
   144
370
    18
100
AcDbLine
 10
96.6735569125
 20
162.6946718842
 30
0.0
 11
96.6735569125
 21
149.7464352471
 31
0.0
  0
LINE
  5
BC
330
1F
100
AcDbEntity
  8
0
  6
Continuous
 62
     7
370
    35
100
AcDbLine
 10
200.3527473103
 20
156.2205535656
 30
0.0
 11
200.3527473103
 21
156.6101589628
 31
0.0
  0
LINE
  5
BD
330
1F
100
AcDbEntity
  8
0
  6
Continuous
 62
     7
370
    35
100
AcDbLine
 10
200.3527473103
 20
155.8309481685
 30
0.0
 11
200.3527473103
 21
156.2205535656
 31
0.0
  0
LINE
  5
BE
330
1F
100
AcDbEntity
  8
0
  6
Continuous
 62
     7
370
    35
100
AcDbLine
 10
25.0754645188
 20
232.1863362182
 30
0.0
 11
25.0754645188
 21
184.5048248131
 31
0.0
  0
LINE
  5
BF
330
1F
100
AcDbEntity
  8
0
  6
Continuous
 62
     7
370
    35
100
AcDbLine
 10
45.0754645188
 20
184.5048248131
 30
0.0
 11
45.0754645188
 21
232.1863362182
 31
0.0
  0
ARC
  5
C0
330
1F
100
AcDbEntity
  8
0
  6
Continuous
 62
     7
370
    35
100
AcDbCircle
 10
53.9224547697
 20
275.5759416154
 30
0.0
 40
28.84699025083287
100
AcDbArc
 50
173.1838182293
 51
180.0
  0
ARC
  5
C1
330
1F
100
AcDbEntity
  8
0
  6
Continuous
 62
     7
370
    35
100
AcDbCircle
 10
16.228474268
 20
275.5759416154
 30
0.0
 40
28.84699025083286
100
AcDbArc
 50
0.0
 51
6.8161817707
  0
LINE
  5
C2
330
1F
100
AcDbEntity
  8
0
  6
Continuous
 62
     7
370
    35
100
AcDbLine
 10
45.0754645188
 20
232.1863362182
 30
0.0
 11
45.0754645188
 21
275.5759416154
 31
0.0
  0
LINE
  5
C3
330
1F
100
AcDbEntity
  8
0
  6
Continuous
 62
     7
370
    35
100
AcDbLine
 10
25.0754645188
 20
275.5759416154
 30
0.0
 11
25.0754645188
 21
232.1863362182
 31
0.0
  0
ARC
  5
C4
330
1F
100
AcDbEntity
  8
0
  6
Continuous
 62
     7
370
    35
100
AcDbCircle
 10
35.3523107065
 20
277.8617990838
 30
0.0
 40
9.587024921386833
100
AcDbArc
 50
6.8161817707
 51
23.3426337043
  0
ARC
  5
C5
330
1F
100
AcDbEntity
  8
0
  6
Continuous
 62
     7
370
    35
100
AcDbCircle
 10
34.7986183312
 20
277.8617990838
 30
0.0
 40
9.58702492138683
100
AcDbArc
 50
156.6573662957
 51
173.1838182293
  0
ARC
  5
C6
330
1F
100
AcDbEntity
  8
0
  6
Continuous
 62
     7
370
    35
100
AcDbCircle
 10
39.5718876331
 20
279.6827593324
 30
0.0
 40
4.991295853393601
100
AcDbArc
 50
23.3426337043
 51
66.6573662957
  0
ARC
  5
C7
330
1F
100
AcDbEntity
  8
0
  6
Continuous
 62
     7
370
    35
100
AcDbCircle
 10
30.5790414046
 20
279.6827593324
 30
0.0
 40
4.991295853393606
100
AcDbArc
 50
113.3426337043
 51
156.6573662957
  0
ARC
  5
C8
330
1F
100
AcDbEntity
  8
0
  6
Continuous
 62
     7
370
    35
100
AcDbCircle
 10
37.7509273845
 20
275.4631824058
 30
0.0
 40
9.587024921385993
100
AcDbArc
 50
66.6573662957
 51
83.1838182293
  0
ARC
  5
C9
330
1F
100
AcDbEntity
  8
0
  6
Continuous
 62
     7
370
    35
100
AcDbCircle
 10
32.4000016532
 20
275.4631824058
 30
0.0
 40
9.587024921385987
100
AcDbArc
 50
96.8161817707
 51
113.3426337043
  0
ARC
  5
CA
330
1F
100
AcDbEntity
  8
0
  6
Continuous
 62
     7
370
    35
100
AcDbCircle
 10
35.465069916
 20
256.3393459673
 30
0.0
 40
28.84699025082986
100
AcDbArc
 50
83.1838182293
 51
90.0
  0
ARC
  5
CB
330
1F
100
AcDbEntity
  8
0
  6
Continuous
 62
     7
370
    35
100
AcDbCircle
 10
34.6858591216
 20
256.3393459673
 30
0.0
 40
28.84699025082989
100
AcDbArc
 50
90.0
 51
96.8161817707
  0
LINE
  5
CC
330
1F
100
AcDbEntity
  8
0
  6
Continuous
 62
   144
370
    18
100
AcDbLine
 10
35.465069916
 20
285.1863362182
 30
0.0
 11
34.6858591216
 21
285.1863362182
 31
0.0
  0
ARC
  5
CD
330
1F
100
AcDbEntity
  8
0
  6
Continuous
 62
     7
370
    35
100
AcDbCircle
 10
17.2294570141
 20
158.5700250256
 30
0.0
 40
2.500000000000002
100
AcDbArc
 50
352.5
 51
172.5
  0
ARC
  5
CE
330
1F
100
AcDbEntity
  8
0
  6
Continuous
 62
     7
370
    35
100
AcDbCircle
 10
35.0754645188
 20
156.2205535656
 30
0.0
 40
15.5
100
AcDbArc
 50
172.5
 51
187.5
  0
ARC
  5
CF
330
1F
100
AcDbEntity
  8
0
  6
Continuous
 62
     7
370
    35
100
AcDbCircle
 10
17.2294570141
 20
153.8710821057
 30
0.0
 40
2.500000000000004
100
AcDbArc
 50
187.5
 51
7.5
  0
ARC
  5
D0
330
1F
100
AcDbEntity
  8
0
  6
Continuous
 62
     7
370
    35
100
AcDbCircle
 10
35.0754645188
 20
156.2205535656
 30
0.0
 40
20.49999999999999
100
AcDbArc
 50
172.5
 51
187.5
  0
ARC
  5
D1
330
1F
100
AcDbEntity
  8
0
  6
Continuous
 62
     7
370
    35
100
AcDbCircle
 10
32.3312115813
 20
133.3848561641
 30
0.0
 40
2.000000000000002
100
AcDbArc
 50
263.1474091405
 51
315.0
  0
LINE
  5
D2
330
1F
100
AcDbEntity
  8
0
  6
Continuous
 62
     7
370
    35
100
AcDbLine
 10
35.0754645188
 20
133.3006819769
 30
0.0
 11
33.7454251437
 21
131.9706426017
 31
0.0
  0
LINE
  5
D3
330
1F
100
AcDbEntity
  8
0
  6
Continuous
 62
     7
370
    35
100
AcDbLine
 10
36.405503894
 20
131.9706426017
 30
0.0
 11
35.0754645188
 21
133.3006819769
 31
0.0
  0
ARC
  5
D4
330
1F
100
AcDbEntity
  8
0
  6
Continuous
 62
     7
370
    35
100
AcDbCircle
 10
37.8197174564
 20
133.3848561641
 30
0.0
 40
2.000000000000029
100
AcDbArc
 50
225.0
 51
276.8525908595
  0
ARC
  5
D5
330
1F
100
AcDbEntity
  8
0
  6
Continuous
 62
     7
370
    35
100
AcDbCircle
 10
35.0754645188
 20
156.2205535656
 30
0.0
 40
25.00000000000002
100
AcDbArc
 50
276.8525908595
 51
353.1474091405
  0
ARC
  5
D6
330
1F
100
AcDbEntity
  8
0
  6
Continuous
 62
     7
370
    35
100
AcDbCircle
 10
57.9111619204
 20
153.4763006281
 30
0.0
 40
2.000000000000008
100
AcDbArc
 50
353.1474091405
 51
45.0
  0
LINE
  5
D7
330
1F
100
AcDbEntity
  8
0
  6
Continuous
 62
     7
370
    35
100
AcDbLine
 10
57.9953361076
 20
156.2205535656
 30
0.0
 11
59.3253754827
 21
154.8905141905
 31
0.0
  0
LINE
  5
D8
330
1F
100
AcDbEntity
  8
0
  6
Continuous
 62
     7
370
    35
100
AcDbLine
 10
59.3253754827
 20
157.5505929408
 30
0.0
 11
57.9953361076
 21
156.2205535656
 31
0.0
  0
ARC
  5
D9
330
1F
100
AcDbEntity
  8
0
  6
Continuous
 62
     7
370
    35
100
AcDbCircle
 10
57.9111619204
 20
158.9648065032
 30
0.0
 40
2.000000000000004
100
AcDbArc
 50
315.0
 51
6.8525908595
  0
ARC
  5
DA
330
1F
100
AcDbEntity
  8
0
  6
Continuous
 62
     7
370
    35
100
AcDbCircle
 10
35.0754645188
 20
156.2205535656
 30
0.0
 40
25.0
100
AcDbArc
 50
6.8525908595
 51
83.1474091405
  0
ARC
  5
DB
330
1F
100
AcDbEntity
  8
0
  6
Continuous
 62
     7
370
    35
100
AcDbCircle
 10
37.8197174564
 20
179.0562509672
 30
0.0
 40
2.0
100
AcDbArc
 50
83.1474091405
 51
135.0
  0
LINE
  5
DC
330
1F
100
AcDbEntity
  8
0
  6
Continuous
 62
     7
370
    35
100
AcDbLine
 10
35.0754645188
 20
179.1404251544
 30
0.0
 11
36.405503894
 21
180.4704645296
 31
0.0
  0
LINE
  5
DD
330
1F
100
AcDbEntity
  8
0
  6
Continuous
 62
     7
370
    35
100
AcDbLine
 10
33.7454251437
 20
180.4704645296
 30
0.0
 11
35.0754645188
 21
179.1404251544
 31
0.0
  0
ARC
  5
DE
330
1F
100
AcDbEntity
  8
0
  6
Continuous
 62
     7
370
    35
100
AcDbCircle
 10
32.3312115813
 20
179.0562509672
 30
0.0
 40
2.000000000000001
100
AcDbArc
 50
45.0
 51
96.8525908595
  0
ARC
  5
DF
330
1F
100
AcDbEntity
  8
0
  6
Continuous
 62
     7
370
    35
100
AcDbCircle
 10
35.0754645188
 20
156.2205535656
 30
0.0
 40
25.0
100
AcDbArc
 50
96.8525908595
 51
173.1474091405
  0
ARC
  5
E0
330
1F
100
AcDbEntity
  8
0
  6
Continuous
 62
     7
370
    35
100
AcDbCircle
 10
12.2397671173
 20
158.9648065032
 30
0.0
 40
2.000000000000004
100
AcDbArc
 50
173.1474091405
 51
225.0
  0
LINE
  5
E1
330
1F
100
AcDbEntity
  8
0
  6
Continuous
 62
     7
370
    35
100
AcDbLine
 10
12.1555929301
 20
156.2205535656
 30
0.0
 11
10.8255535549
 21
157.5505929408
 31
0.0
  0
LINE
  5
E2
330
1F
100
AcDbEntity
  8
0
  6
Continuous
 62
     7
370
    35
100
AcDbLine
 10
10.8255535549
 20
154.8905141905
 30
0.0
 11
12.1555929301
 21
156.2205535656
 31
0.0
  0
ARC
  5
E3
330
1F
100
AcDbEntity
  8
0
  6
Continuous
 62
     7
370
    35
100
AcDbCircle
 10
12.2397671173
 20
153.4763006281
 30
0.0
 40
2.000000000000004
100
AcDbArc
 50
135.0
 51
186.8525908595
  0
ARC
  5
E4
330
1F
100
AcDbEntity
  8
0
  6
Continuous
 62
     7
370
    35
100
AcDbCircle
 10
35.0754645188
 20
156.2205535656
 30
0.0
 40
25.00000000000002
100
AcDbArc
 50
186.8525908595
 51
263.1474091405
  0
CIRCLE
  5
E5
330
1F
100
AcDbEntity
  8
0
  6
Continuous
 62
     7
370
    35
100
AcDbCircle
 10
53.0754645188
 20
156.2205535656
 30
0.0
 40
2.500000000000028
  0
CIRCLE
  5
E6
330
1F
100
AcDbEntity
  8
0
  6
Continuous
 62
     7
370
    35
100
AcDbCircle
 10
35.0754645188
 20
156.2205535656
 30
0.0
 40
30.00000000000002
  0
CIRCLE
  5
E7
330
1F
100
AcDbEntity
  8
0
  6
Continuous
 62
     7
370
    35
100
AcDbCircle
 10
35.0754645188
 20
156.2205535656
 30
0.0
 40
26.50000000000001
  0
ARC
  5
E8
330
1F
100
AcDbEntity
  8
0
  6
Continuous
 62
     7
370
    35
100
AcDbCircle
 10
16.2008784307
 20
148.2205535656
 30
0.0
 40
2.0
100
AcDbArc
 50
90.0
 51
202.9696765723
  0
ARC
  5
E9
330
1F
100
AcDbEntity
  8
0
  6
Continuous
 62
     7
370
    35
100
AcDbCircle
 10
16.2008784307
 20
164.2205535656
 30
0.0
 40
2.000000000000012
100
AcDbArc
 50
157.0303234277
 51
270.0
  0
LINE
  5
EA
330
1F
100
AcDbEntity
  8
0
  6
Continuous
 62
     7
370
    35
100
AcDbLine
 10
17.0754645188
 20
162.2205535656
 30
0.0
 11
16.2008784307
 21
162.2205535656
 31
0.0
  0
ARC
  5
EB
330
1F
100
AcDbEntity
  8
0
  6
Continuous
 62
     7
370
    35
100
AcDbCircle
 10
17.0754645188
 20
156.2205535656
 30
0.0
 40
6.000000000000028
100
AcDbArc
 50
270.0
 51
90.0
  0
LINE
  5
EC
330
1F
100
AcDbEntity
  8
0
  6
Continuous
 62
     7
370
    35
100
AcDbLine
 10
16.2008784307
 20
150.2205535656
 30
0.0
 11
17.0754645188
 21
150.2205535656
 31
0.0
  0
ARC
  5
ED
330
1F
100
AcDbEntity
  8
0
  6
Continuous
 62
     7
370
    35
100
AcDbCircle
 10
35.0754645188
 20
156.2205535656
 30
0.0
 40
22.50000000000002
100
AcDbArc
 50
202.9696765723
 51
337.0303234277
  0
ARC
  5
EE
330
1F
100
AcDbEntity
  8
0
  6
Continuous
 62
     7
370
    35
100
AcDbCircle
 10
53.950050607
 20
148.2205535656
 30
0.0
 40
2.000000000000005
100
AcDbArc
 50
337.0303234277
 51
90.0
  0
LINE
  5
EF
330
1F
100
AcDbEntity
  8
0
  6
Continuous
 62
     7
370
    35
100
AcDbLine
 10
53.0754645188
 20
150.2205535656
 30
0.0
 11
53.950050607
 21
150.2205535656
 31
0.0
  0
ARC
  5
F0
330
1F
100
AcDbEntity
  8
0
  6
Continuous
 62
     7
370
    35
100
AcDbCircle
 10
53.0754645188
 20
156.2205535656
 30
0.0
 40
6.000000000000028
100
AcDbArc
 50
90.0
 51
270.0
  0
LINE
  5
F1
330
1F
100
AcDbEntity
  8
0
  6
Continuous
 62
     7
370
    35
100
AcDbLine
 10
53.950050607
 20
162.2205535656
 30
0.0
 11
53.0754645188
 21
162.2205535656
 31
0.0
  0
ARC
  5
F2
330
1F
100
AcDbEntity
  8
0
  6
Continuous
 62
     7
370
    35
100
AcDbCircle
 10
53.950050607
 20
164.2205535656
 30
0.0
 40
2.000000000000005
100
AcDbArc
 50
270.0
 51
22.9696765723
  0
ARC
  5
F3
330
1F
100
AcDbEntity
  8
0
  6
Continuous
 62
     7
370
    35
100
AcDbCircle
 10
35.0754645188
 20
156.2205535656
 30
0.0
 40
22.50000000000001
100
AcDbArc
 50
22.9696765723
 51
157.0303234277
  0
ARC
  5
F4
330
1F
100
AcDbEntity
  8
0
  6
Continuous
 62
     7
370
    35
100
AcDbCircle
 10
233.141220471
 20
174.796730821
 30
0.0
 40
28.84699025082299
100
AcDbArc
 50
353.1838182293
 51
0.0
  0
ARC
  5
F5
330
1F
100
AcDbEntity
  8
0
  6
Continuous
 62
     7
370
    35
100
AcDbCircle
 10
270.8352009726
 20
174.796730821
 30
0.0
 40
28.84699025082298
100
AcDbArc
 50
180.0
 51
186.8161817707
  0
LINE
  5
F6
330
1F
100
AcDbEntity
  8
0
  6
Continuous
 62
     7
370
    35
100
AcDbLine
 10
241.9882107218
 20
232.1863362182
 30
0.0
 11
241.9882107218
 21
174.796730821
 31
0.0
  0
LINE
  5
F7
330
1F
100
AcDbEntity
  8
0
  6
Continuous
 62
     7
370
    35
100
AcDbLine
 10
261.9882107218
 20
174.796730821
 30
0.0
 11
261.9882107218
 21
232.1863362182
 31
0.0
  0
ARC
  5
F8
330
1F
100
AcDbEntity
  8
0
  6
Continuous
 62
     7
370
    35
100
AcDbCircle
 10
270.8352009726
 20
275.5759416154
 30
0.0
 40
28.84699025083287
100
AcDbArc
 50
173.1838182293
 51
180.0
  0
ARC
  5
F9
330
1F
100
AcDbEntity
  8
0
  6
Continuous
 62
     7
370
    35
100
AcDbCircle
 10
233.141220471
 20
275.5759416154
 30
0.0
 40
28.84699025083287
100
AcDbArc
 50
0.0
 51
6.8161817707
  0
LINE
  5
FA
330
1F
100
AcDbEntity
  8
0
  6
Continuous
 62
     7
370
    35
100
AcDbLine
 10
261.9882107218
 20
232.1863362182
 30
0.0
 11
261.9882107218
 21
275.5759416154
 31
0.0
  0
LINE
  5
FB
330
1F
100
AcDbEntity
  8
0
  6
Continuous
 62
     7
370
    35
100
AcDbLine
 10
241.9882107218
 20
275.5759416154
 30
0.0
 11
241.9882107218
 21
232.1863362182
 31
0.0
  0
ARC
  5
FC
330
1F
100
AcDbEntity
  8
0
  6
Continuous
 62
     7
370
    35
100
AcDbCircle
 10
251.7113645342
 20
172.5108733525
 30
0.0
 40
9.58702492138621
100
AcDbArc
 50
186.8161817707
 51
203.3426337043
  0
ARC
  5
FD
330
1F
100
AcDbEntity
  8
0
  6
Continuous
 62
     7
370
    35
100
AcDbCircle
 10
252.2650569094
 20
172.5108733525
 30
0.0
 40
9.58702492138621
100
AcDbArc
 50
336.6573662957
 51
353.1838182293
  0
ARC
  5
FE
330
1F
100
AcDbEntity
  8
0
  6
Continuous
 62
     7
370
    35
100
AcDbCircle
 10
252.2650569094
 20
277.8617990838
 30
0.0
 40
9.587024921386826
100
AcDbArc
 50
6.8161817707
 51
23.3426337043
  0
ARC
  5
FF
330
1F
100
AcDbEntity
  8
0
  6
Continuous
 62
     7
370
    35
100
AcDbCircle
 10
251.7113645342
 20
277.8617990838
 30
0.0
 40
9.587024921386854
100
AcDbArc
 50
156.6573662957
 51
173.1838182293
  0
ARC
  5
100
330
1F
100
AcDbEntity
  8
0
  6
Continuous
 62
     7
370
    35
100
AcDbCircle
 10
247.4917876076
 20
170.6899131039
 30
0.0
 40
4.991295853394029
100
AcDbArc
 50
203.3426337043
 51
246.6573662957
  0
ARC
  5
101
330
1F
100
AcDbEntity
  8
0
  6
Continuous
 62
     7
370
    35
100
AcDbCircle
 10
256.484633836
 20
170.6899131039
 30
0.0
 40
4.991295853394018
100
AcDbArc
 50
293.3426337043
 51
336.6573662957
  0
ARC
  5
102
330
1F
100
AcDbEntity
  8
0
  6
Continuous
 62
     7
370
    35
100
AcDbCircle
 10
256.484633836
 20
279.6827593324
 30
0.0
 40
4.991295853393614
100
AcDbArc
 50
23.3426337043
 51
66.6573662957
  0
ARC
  5
103
330
1F
100
AcDbEntity
  8
0
  6
Continuous
 62
     7
370
    35
100
AcDbCircle
 10
247.4917876076
 20
279.6827593324
 30
0.0
 40
4.991295853393592
100
AcDbArc
 50
113.3426337043
 51
156.6573662957
  0
ARC
  5
104
330
1F
100
AcDbEntity
  8
0
  6
Continuous
 62
     7
370
    35
100
AcDbCircle
 10
254.6636735875
 20
275.4631824058
 30
0.0
 40
9.587024921385998
100
AcDbArc
 50
66.6573662957
 51
83.1838182293
  0
ARC
  5
105
330
1F
100
AcDbEntity
  8
0
  6
Continuous
 62
     7
370
    35
100
AcDbCircle
 10
249.3127478562
 20
275.4631824058
 30
0.0
 40
9.587024921385991
100
AcDbArc
 50
96.8161817707
 51
113.3426337043
  0
ARC
  5
106
330
1F
100
AcDbEntity
  8
0
  6
Continuous
 62
     7
370
    35
100
AcDbCircle
 10
249.3127478562
 20
174.9094900305
 30
0.0
 40
9.587024921385444
100
AcDbArc
 50
246.6573662957
 51
262.3623815439
  0
ARC
  5
107
330
1F
100
AcDbEntity
  8
0
  6
Continuous
 62
     7
370
    35
100
AcDbCircle
 10
254.6636735875
 20
174.9094900305
 30
0.0
 40
9.587024921385458
100
AcDbArc
 50
277.6376184561
 51
293.3426337043
  0
ARC
  5
108
330
1F
100
AcDbEntity
  8
0
  6
Continuous
 62
     7
370
    35
100
AcDbCircle
 10
252.377816119
 20
256.3393459673
 30
0.0
 40
28.84699025082989
100
AcDbArc
 50
83.1838182293
 51
90.0
  0
ARC
  5
109
330
1F
100
AcDbEntity
  8
0
  6
Continuous
 62
     7
370
    35
100
AcDbCircle
 10
251.5986053246
 20
256.3393459673
 30
0.0
 40
28.84699025082986
100
AcDbArc
 50
90.0
 51
96.8161817707
  0
LINE
  5
10A
330
1F
100
AcDbEntity
  8
0
  6
Continuous
 62
     7
370
    35
100
AcDbLine
 10
253.9882107218
 20
146.4215180361
 30
0.0
 11
253.9882107218
 21
146.4225945945
 31
0.0
  0
LINE
  5
10B
330
1F
100
AcDbEntity
  8
0
  6
Continuous
 62
   144
370
    18
100
AcDbLine
 10
252.377816119
 20
285.1863362182
 30
0.0
 11
251.5986053246
 21
285.1863362182
 31
0.0
  0
ARC
  5
10C
330
1F
100
AcDbEntity
  8
0
  6
Continuous
 62
     7
370
    35
100
AcDbCircle
 10
251.9882107218
 20
156.2205535656
 30
0.0
 40
30.00000000000004
100
AcDbArc
 50
109.4712206345
 51
42.2980403619
  0
ARC
  5
10D
330
1F
100
AcDbEntity
  8
0
  6
Continuous
 62
     7
370
    35
100
AcDbCircle
 10
251.9882107218
 20
156.2205535656
 30
0.0
 40
30.00000000000004
100
AcDbArc
 50
42.2980403619
 51
70.5287793655
  0
CIRCLE
  5
10E
330
1F
100
AcDbEntity
  8
0
  6
Continuous
 62
     7
370
    35
100
AcDbCircle
 10
251.9882107218
 20
156.2205535656
 30
0.0
 40
9.999999999999972
  0
LINE
  5
10F
330
1F
100
AcDbEntity
  8
0
  6
Continuous
 62
     7
370
    35
100
AcDbLine
 10
323.5721787381
 20
232.1863362182
 30
0.0
 11
323.5721787381
 21
174.796730821
 31
0.0
  0
LINE
  5
110
330
1F
100
AcDbEntity
  8
0
  6
Continuous
 62
     7
370
    35
100
AcDbLine
 10
343.5721787381
 20
174.796730821
 30
0.0
 11
343.5721787381
 21
232.1863362182
 31
0.0
  0
ARC
  5
111
330
1F
100
AcDbEntity
  8
0
  6
Continuous
 62
     7
370
    35
100
AcDbCircle
 10
314.7251884873
 20
174.796730821
 30
0.0
 40
28.84699025082301
100
AcDbArc
 50
353.1838182293
 51
0.0
  0
ARC
  5
112
330
1F
100
AcDbEntity
  8
0
  6
Continuous
 62
     7
370
    35
100
AcDbCircle
 10
352.4191689889
 20
174.796730821
 30
0.0
 40
28.84699025082301
100
AcDbArc
 50
180.0
 51
186.8161817707
  0
LINE
  5
113
330
1F
100
AcDbEntity
  8
0
  6
Continuous
 62
     7
370
    35
100
AcDbLine
 10
343.5721787381
 20
232.1863362182
 30
0.0
 11
343.5721787381
 21
275.5759416154
 31
0.0
  0
LINE
  5
114
330
1F
100
AcDbEntity
  8
0
  6
Continuous
 62
     7
370
    35
100
AcDbLine
 10
323.5721787381
 20
275.5759416154
 30
0.0
 11
323.5721787381
 21
232.1863362182
 31
0.0
  0
ARC
  5
115
330
1F
100
AcDbEntity
  8
0
  6
Continuous
 62
     7
370
    35
100
AcDbCircle
 10
352.4191689889
 20
275.5759416154
 30
0.0
 40
28.84699025083285
100
AcDbArc
 50
173.1838182293
 51
180.0
  0
ARC
  5
116
330
1F
100
AcDbEntity
  8
0
  6
Continuous
 62
     7
370
    35
100
AcDbCircle
 10
314.7251884873
 20
275.5759416154
 30
0.0
 40
28.8469902508329
100
AcDbArc
 50
0.0
 51
6.8161817707
  0
ARC
  5
117
330
1F
100
AcDbEntity
  8
0
  6
Continuous
 62
     7
370
    35
100
AcDbCircle
 10
333.8490249257
 20
277.8617990838
 30
0.0
 40
9.587024921386854
100
AcDbArc
 50
6.8161817707
 51
23.3426337043
  0
ARC
  5
118
330
1F
100
AcDbEntity
  8
0
  6
Continuous
 62
     7
370
    35
100
AcDbCircle
 10
333.2953325505
 20
277.8617990838
 30
0.0
 40
9.5870249213868
100
AcDbArc
 50
156.6573662957
 51
173.1838182293
  0
ARC
  5
119
330
1F
100
AcDbEntity
  8
0
  6
Continuous
 62
     7
370
    35
100
AcDbCircle
 10
333.2953325505
 20
172.5108733525
 30
0.0
 40
9.587024921386206
100
AcDbArc
 50
186.8161817707
 51
203.3426337043
  0
ARC
  5
11A
330
1F
100
AcDbEntity
  8
0
  6
Continuous
 62
     7
370
    35
100
AcDbCircle
 10
333.8490249257
 20
172.5108733525
 30
0.0
 40
9.58702492138621
100
AcDbArc
 50
336.6573662957
 51
353.1838182293
  0
ARC
  5
11B
330
1F
100
AcDbEntity
  8
0
  6
Continuous
 62
     7
370
    35
100
AcDbCircle
 10
338.0686018523
 20
279.6827593324
 30
0.0
 40
4.991295853393638
100
AcDbArc
 50
23.3426337043
 51
66.6573662957
  0
ARC
  5
11C
330
1F
100
AcDbEntity
  8
0
  6
Continuous
 62
     7
370
    35
100
AcDbCircle
 10
329.0757556239
 20
279.6827593324
 30
0.0
 40
4.991295853393638
100
AcDbArc
 50
113.3426337043
 51
156.6573662957
  0
ARC
  5
11D
330
1F
100
AcDbEntity
  8
0
  6
Continuous
 62
     7
370
    35
100
AcDbCircle
 10
329.0757556239
 20
170.6899131039
 30
0.0
 40
4.991295853394056
100
AcDbArc
 50
203.3426337043
 51
243.5638055062
  0
ARC
  5
11E
330
1F
100
AcDbEntity
  8
0
  6
Continuous
 62
     7
370
    35
100
AcDbCircle
 10
338.0686018523
 20
170.6899131039
 30
0.0
 40
4.991295853394108
100
AcDbArc
 50
296.4361944938
 51
336.6573662957
  0
ARC
  5
11F
330
1F
100
AcDbEntity
  8
0
  6
Continuous
 62
     7
370
    35
100
AcDbCircle
 10
336.2476416038
 20
275.4631824058
 30
0.0
 40
9.587024921385986
100
AcDbArc
 50
66.6573662957
 51
83.1838182293
  0
ARC
  5
120
330
1F
100
AcDbEntity
  8
0
  6
Continuous
 62
     7
370
    35
100
AcDbCircle
 10
330.8967158724
 20
275.4631824058
 30
0.0
 40
9.587024921385986
100
AcDbArc
 50
96.8161817707
 51
113.3426337043
  0
ARC
  5
121
330
1F
100
AcDbEntity
  8
0
  6
Continuous
 62
     7
370
    35
100
AcDbCircle
 10
333.9617841353
 20
256.3393459673
 30
0.0
 40
28.84699025082989
100
AcDbArc
 50
83.1838182293
 51
90.0
  0
ARC
  5
122
330
1F
100
AcDbEntity
  8
0
  6
Continuous
 62
     7
370
    35
100
AcDbCircle
 10
333.1825733409
 20
256.3393459673
 30
0.0
 40
28.84699025082989
100
AcDbArc
 50
90.0
 51
96.8161817707
  0
LINE
  5
123
330
1F
100
AcDbEntity
  8
0
  6
Continuous
 62
     7
370
    35
100
AcDbLine
 10
406.0721787381
 20
186.2205535656
 30
0.0
 11
403.5721787381
 21
186.2205535656
 31
0.0
  0
LINE
  5
124
330
1F
100
AcDbEntity
  8
0
  6
Continuous
 62
     7
370
    35
100
AcDbLine
 10
403.5721787381
 20
126.2205535656
 30
0.0
 11
406.0721787381
 21
126.2205535656
 31
0.0
  0
ARC
  5
125
330
1F
100
AcDbEntity
  8
0
  6
Continuous
 62
     7
370
    35
100
AcDbCircle
 10
403.5721787381
 20
181.7205535656
 30
0.0
 40
4.5
100
AcDbArc
 50
90.0
 51
180.0
  0
ARC
  5
126
330
1F
100
AcDbEntity
  8
0
  6
Continuous
 62
     7
370
    35
100
AcDbCircle
 10
403.5721787381
 20
130.7205535656
 30
0.0
 40
4.500000000000014
100
AcDbArc
 50
180.0
 51
270.0
  0
LINE
  5
127
330
1F
100
AcDbEntity
  8
0
  6
Continuous
 62
     7
370
    35
100
AcDbLine
 10
406.4721787381
 20
178.7205535656
 30
0.0
 11
406.0721787381
 21
178.7205535656
 31
0.0
  0
LINE
  5
128
330
1F
100
AcDbEntity
  8
0
  6
Continuous
 62
     7
370
    35
100
AcDbLine
 10
406.0721787381
 20
133.7205535656
 30
0.0
 11
406.4721787381
 21
133.7205535656
 31
0.0
  0
ARC
  5
129
330
1F
100
AcDbEntity
  8
0
  6
Continuous
 62
     7
370
    35
100
AcDbCircle
 10
390.0617841353
 20
137.3735633148
 30
0.0
 40
28.84699025082935
100
AcDbArc
 50
83.1838182293
 51
90.0
  0
ARC
  5
12A
330
1F
100
AcDbEntity
  8
0
  6
Continuous
 62
     7
370
    35
100
AcDbCircle
 10
390.0617841353
 20
175.0675438165
 30
0.0
 40
28.84699025082932
100
AcDbArc
 50
270.0
 51
276.8161817707
  0
LINE
  5
12B
330
1F
100
AcDbEntity
  8
0
  6
Continuous
 62
     7
370
    35
100
AcDbLine
 10
388.0721787381
 20
146.2205535656
 30
0.0
 11
390.0617841353
 21
146.2205535656
 31
0.0
  0
LINE
  5
12C
330
1F
100
AcDbEntity
  8
0
  6
Continuous
 62
     7
370
    35
100
AcDbLine
 10
345.0721787381
 20
146.2205535656
 30
0.0
 11
384.0721787381
 21
146.2205535656
 31
0.0
  0
LINE
  5
12D
330
1F
100
AcDbEntity
  8
0
  6
Continuous
 62
     7
370
    35
100
AcDbLine
 10
390.0617841353
 20
166.2205535656
 30
0.0
 11
345.0721787381
 21
166.2205535656
 31
0.0
  0
LINE
  5
12E
330
1F
100
AcDbEntity
  8
0
  6
Continuous
 62
     7
370
    35
100
AcDbLine
 10
345.0721787381
 20
166.2205535656
 30
0.0
 11
340.2907313746
 21
166.2205535656
 31
0.0
  0
LINE
  5
12F
330
1F
100
AcDbEntity
  8
0
  6
Continuous
 62
     7
370
    35
100
AcDbLine
 10
326.8536261016
 20
166.2205535656
 30
0.0
 11
304.6825733409
 21
166.2205535656
 31
0.0
  0
LINE
  5
130
330
1F
100
AcDbEntity
  8
0
  6
Continuous
 62
     7
370
    35
100
AcDbLine
 10
304.6825733409
 20
146.2205535656
 30
0.0
 11
345.0721787381
 21
146.2205535656
 31
0.0
  0
ARC
  5
131
330
1F
100
AcDbEntity
  8
0
  6
Continuous
 62
     7
370
    35
100
AcDbCircle
 10
304.6825733409
 20
175.0675438165
 30
0.0
 40
28.84699025083069
100
AcDbArc
 50
263.1838182293
 51
270.0
  0
ARC
  5
132
330
1F
100
AcDbEntity
  8
0
  6
Continuous
 62
     7
370
    35
100
AcDbCircle
 10
304.6825733409
 20
137.3735633148
 30
0.0
 40
28.84699025083071
100
AcDbArc
 50
90.0
 51
96.8161817707
  0
ARC
  5
133
330
1F
100
AcDbEntity
  8
0
  6
Continuous
 62
     7
370
    35
100
AcDbCircle
 10
392.3476416038
 20
155.943707378
 30
0.0
 40
9.587024921386158
100
AcDbArc
 50
276.8161817707
 51
293.3426337043
  0
ARC
  5
134
330
1F
100
AcDbEntity
  8
0
  6
Continuous
 62
     7
370
    35
100
AcDbCircle
 10
392.3476416038
 20
156.4973997533
 30
0.0
 40
9.587024921386158
100
AcDbArc
 50
66.6573662957
 51
83.1838182293
  0
ARC
  5
135
330
1F
100
AcDbEntity
  8
0
  6
Continuous
 62
     7
370
    35
100
AcDbCircle
 10
302.3967158724
 20
156.4973997533
 30
0.0
 40
9.587024921386572
100
AcDbArc
 50
96.8161817707
 51
113.3426337043
  0
ARC
  5
136
330
1F
100
AcDbEntity
  8
0
  6
Continuous
 62
     7
370
    35
100
AcDbCircle
 10
302.3967158724
 20
155.943707378
 30
0.0
 40
9.587024921386572
100
AcDbArc
 50
246.6573662957
 51
263.1838182293
  0
ARC
  5
137
330
1F
100
AcDbEntity
  8
0
  6
Continuous
 62
     7
370
    35
100
AcDbCircle
 10
394.1686018523
 20
151.7241304514
 30
0.0
 40
4.991295853394029
100
AcDbArc
 50
293.3426337043
 51
336.6573662957
  0
ARC
  5
138
330
1F
100
AcDbEntity
  8
0
  6
Continuous
 62
     7
370
    35
100
AcDbCircle
 10
394.1686018523
 20
160.7169766799
 30
0.0
 40
4.991295853394029
100
AcDbArc
 50
23.3426337043
 51
66.6573662957
  0
ARC
  5
139
330
1F
100
AcDbEntity
  8
0
  6
Continuous
 62
     7
370
    35
100
AcDbCircle
 10
300.5757556239
 20
160.7169766799
 30
0.0
 40
4.991295853393749
100
AcDbArc
 50
113.3426337043
 51
156.6573662957
  0
ARC
  5
13A
330
1F
100
AcDbEntity
  8
0
  6
Continuous
 62
     7
370
    35
100
AcDbCircle
 10
300.5757556239
 20
151.7241304514
 30
0.0
 40
4.991295853393749
100
AcDbArc
 50
203.3426337043
 51
246.6573662957
  0
ARC
  5
13B
330
1F
100
AcDbEntity
  8
0
  6
Continuous
 62
     7
370
    35
100
AcDbCircle
 10
304.7953325505
 20
158.8960164313
 30
0.0
 40
9.587024921389238
100
AcDbArc
 50
156.6573662957
 51
173.1838182293
  0
ARC
  5
13C
330
1F
100
AcDbEntity
  8
0
  6
Continuous
 62
     7
370
    35
100
AcDbCircle
 10
304.7953325505
 20
153.5450907
 30
0.0
 40
9.587024921389238
100
AcDbArc
 50
186.8161817707
 51
203.3426337043
  0
ARC
  5
13D
330
1F
100
AcDbEntity
  8
0
  6
Continuous
 62
     7
370
    35
100
AcDbCircle
 10
323.9191689889
 20
156.6101589628
 30
0.0
 40
28.84699025083003
100
AcDbArc
 50
173.1838182293
 51
180.0
  0
ARC
  5
13E
330
1F
100
AcDbEntity
  8
0
  6
Continuous
 62
     7
370
    35
100
AcDbCircle
 10
323.9191689889
 20
155.8309481685
 30
0.0
 40
28.84699025083003
100
AcDbArc
 50
180.0
 51
186.8161817707
  0
LINE
  5
13F
330
1F
100
AcDbEntity
  8
0
  6
Continuous
 62
   144
370
    18
100
AcDbLine
 10
333.5721787381
 20
285.1863362182
 30
0.0
 11
333.1825733409
 21
285.1863362182
 31
0.0
  0
LINE
  5
140
330
1F
100
AcDbEntity
  8
0
  6
Continuous
 62
   144
370
    18
100
AcDbLine
 10
333.9617841353
 20
285.1863362182
 30
0.0
 11
333.5721787381
 21
285.1863362182
 31
0.0
  0
LINE
  5
141
330
1F
100
AcDbEntity
  8
0
  6
Continuous
 62
     7
370
    35
100
AcDbLine
 10
406.0721787381
 20
126.2205535656
 30
0.0
 11
406.0721787381
 21
186.2205535656
 31
0.0
  0
SPLINE
  5
142
330
1F
100
AcDbEntity
  8
0
  6
Continuous
 62
     7
370
    35
100
AcDbSpline
210
0.0
220
0.0
230
1.0
 70
     8
 71
     3
 72
    14
 73
    10
 74
     0
 42
0.00000001
 43
0.00000001
 40
0.0
 40
0.0
 40
0.0
 40
0.0
 40
0.1057043645080026
 40
0.2451199692785881
 40
0.4042384808358693
 40
0.5365528565741046
 40
0.6799533043504468
 40
0.8344367779557111
 40
0.9999999999999999
 40
0.9999999999999999
 40
0.9999999999999999
 40
0.9999999999999999
 10
399.0721787398955
 20
181.7076154057824
 30
0.0
 10
399.0721787395727
 20
181.6935749026144
 30
0.0
 10
399.0721787388244
 20
181.6610160984326
 30
0.0
 10
399.0721787384292
 20
181.2217618164169
 30
0.0
 10
399.0721787382031
 20
180.4124175753905
 30
0.0
 10
399.0721787381295
 20
179.2356724836119
 30
0.0
 10
399.0721787381037
 20
177.7529617454683
 30
0.0
 10
399.0721787381004
 20
175.8323097012734
 30
0.0
 10
399.0721787381005
 20
174.2172259014038
 30
0.0
 10
399.0721787381005
 20
173.3817275775256
 30
0.0
  0
LINE
  5
143
330
1F
100
AcDbEntity
  8
0
  6
Continuous
 62
     7
370
    35
100
AcDbLine
 10
399.0721787381
 20
173.3817275775
 30
0.0
 11
399.0721787381
 21
130.7205535656
 31
0.0
  0
LINE
  5
144
330
1F
100
AcDbEntity
  8
0
  6
Continuous
 62
     7
370
    35
100
AcDbLine
 10
406.4721787381
 20
162.2205535656
 30
0.0
 11
406.4721787381
 21
165.0010413705
 31
0.0
  0
LINE
  5
145
330
1F
100
AcDbEntity
  8
0
  6
Continuous
 62
     7
370
    35
100
AcDbLine
 10
406.4721787381
 20
150.2205535656
 30
0.0
 11
406.4721787381
 21
162.2205535656
 31
0.0
  0
LINE
  5
146
330
1F
100
AcDbEntity
  8
0
  6
Continuous
 62
     7
370
    35
100
AcDbLine
 10
406.4721787381
 20
147.4400657608
 30
0.0
 11
406.4721787381
 21
150.2205535656
 31
0.0
  0
LINE
  5
147
330
1F
100
AcDbEntity
  8
0
  6
Continuous
 62
     7
370
    35
100
AcDbLine
 10
406.4721787381
 20
133.7205535656
 30
0.0
 11
406.4721787381
 21
147.4400657608
 31
0.0
  0
LINE
  5
148
330
1F
100
AcDbEntity
  8
0
  6
Continuous
 62
     7
370
    35
100
AcDbLine
 10
406.4721787381
 20
165.0010413705
 30
0.0
 11
406.4721787381
 21
178.7205535656
 31
0.0
  0
LINE
  5
149
330
1F
100
AcDbEntity
  8
0
  6
Continuous
 62
     7
370
    35
100
AcDbLine
 10
406.0721787381
 20
162.2205535656
 30
0.0
 11
406.4721787381
 21
162.2205535656
 31
0.0
  0
LINE
  5
14A
330
1F
100
AcDbEntity
  8
0
  6
Continuous
 62
     7
370
    35
100
AcDbLine
 10
406.4721787381
 20
150.2205535656
 30
0.0
 11
406.0721787381
 21
150.2205535656
 31
0.0
  0
SPLINE
  5
14B
330
1F
100
AcDbEntity
  8
0
  6
Continuous
 62
     7
370
    35
100
AcDbSpline
210
0.0
220
0.0
230
1.0
 70
     8
 71
     3
 72
    37
 73
    33
 74
     0
 42
0.00000001
 43
0.00000001
 40
0.0
 40
0.0
 40
0.0
 40
0.0
 40
0.0066494886004186
 40
0.0338307839207767
 40
0.059673075908808
 40
0.1122284146542153
 40
0.1390003707156288
 40
0.165017251088452
 40
0.2179080930633094
 40
0.2448400552324679
 40
0.2713004791979119
 40
0.325114103188417
 40
0.3525332555988777
 40
0.3790317290093932
 40
0.4329558225250437
 40
0.4604527099117849
 40
0.4865006784896926
 40
0.5394993908019137
 40
0.5665147136212376
 40
0.5923318848949618
 40
0.6448254317895766
 40
0.6715589869480749
 40
0.6977179840301906
 40
0.7508996524848842
 40
0.7779822391792879
 40
0.8045264454209282
 40
0.8585232266562369
 40
0.8860445379827372
 40
0.9124226897788335
 40
0.9661038123378779
 40
0.9934767301236895
 40
0.9999999999999999
 40
0.9999999999999999
 40
0.9999999999999999
 40
0.9999999999999999
 10
384.0752543323966
 20
146.2211658829909
 30
0.0
 10
384.0742075517919
 20
146.2209575494864
 30
0.0
 10
384.0688818176517
 20
146.2198976054519
 30
0.0
 10
384.0823689407428
 20
146.2225916296405
 30
0.0
 10
384.1125207184893
 20
146.2285697293312
 30
0.0
 10
384.1727502445793
 20
146.2403121461586
 30
0.0
 10
384.2575754358834
 20
146.256056516471
 30
0.0
 10
384.359367073078
 20
146.2742535414617
 30
0.0
 10
384.4852149856012
 20
146.2953443141513
 30
0.0
 10
384.6328498012717
 20
146.3176623207492
 30
0.0
 10
384.7951735981696
 20
146.3403321798183
 30
0.0
 10
384.9773214563596
 20
146.3624453494463
 30
0.0
 10
385.1744130426098
 20
146.3819344738677
 30
0.0
 10
385.3803887490613
 20
146.399162763351
 30
0.0
 10
385.5978831061625
 20
146.4122364116489
 30
0.0
 10
385.8203265417191
 20
146.4198326637638
 30
0.0
 10
386.0432745093784
 20
146.4236505961463
 30
0.0
 10
386.2669027214477
 20
146.4217629823696
 30
0.0
 10
386.4859734347103
 20
146.4143079919723
 30
0.0
 10
386.7000466295811
 20
146.4034885947725
 30
0.0
 10
386.9059052233259
 20
146.3880494632434
 30
0.0
 10
387.099689576387
 20
146.3692025945612
 30
0.0
 10
387.2851756784299
 20
146.3485171161602
 30
0.0
 10
387.4553258163647
 20
146.3259746590242
 30
0.0
 10
387.6058402970765
 20
146.3034807573399
 30
0.0
 10
387.743095647632
 20
146.2815103237954
 30
0.0
 10
387.8579422921781
 20
146.2613797778465
 30
0.0
 10
387.9462694289934
 20
146.2450300877009
 30
0.0
 10
388.0169150905439
 20
146.2315407718707
 30
0.0
 10
388.0583049482767
 20
146.2233270020459
 30
0.0
 10
388.0732350345425
 20
146.2203425477529
 30
0.0
 10
388.0712972738443
 20
146.2207297510222
 30
0.0
 10
388.0709243547386
 20
146.2208042677038
 30
0.0
  0
LINE
  5
14C
330
1F
100
AcDbEntity
  8
0
  6
Continuous
 62
   144
370
    18
100
AcDbLine
 10
398.7513691359
 20
156.2205535656
 30
0.0
 11
398.7513691359
 21
162.6946718842
 31
0.0
  0
LINE
  5
14D
330
1F
100
AcDbEntity
  8
0
  6
Continuous
 62
   144
370
    18
100
AcDbLine
 10
398.7513691359
 20
149.7464352471
 30
0.0
 11
398.7513691359
 21
156.2205535656
 31
0.0
  0
LINE
  5
14E
330
1F
100
AcDbEntity
  8
0
  6
Continuous
 62
     7
370
    35
100
AcDbLine
 10
295.0721787381
 20
156.6101589628
 30
0.0
 11
295.0721787381
 21
155.8309481685
 31
0.0
  0
LINE
  5
14F
330
1F
100
AcDbEntity
  8
0
  6
Continuous
 62
     7
370
    35
100
AcDbLine
 10
221.9882107218
 20
427.5903744234
 30
0.0
 11
221.9882107218
 21
425.0903744234
 31
0.0
  0
LINE
  5
150
330
1F
100
AcDbEntity
  8
0
  6
Continuous
 62
     7
370
    35
100
AcDbLine
 10
281.9882107218
 20
425.0903744234
 30
0.0
 11
281.9882107218
 21
427.5903744234
 31
0.0
  0
ARC
  5
151
330
1F
100
AcDbEntity
  8
0
  6
Continuous
 62
     7
370
    35
100
AcDbCircle
 10
226.4882107218
 20
425.0903744234
 30
0.0
 40
4.500000000000028
100
AcDbArc
 50
180.0
 51
270.0
  0
ARC
  5
152
330
1F
100
AcDbEntity
  8
0
  6
Continuous
 62
     7
370
    35
100
AcDbCircle
 10
277.4882107218
 20
425.0903744234
 30
0.0
 40
4.5
100
AcDbArc
 50
270.0
 51
0.0
  0
LINE
  5
153
330
1F
100
AcDbEntity
  8
0
  6
Continuous
 62
     7
370
    35
100
AcDbLine
 10
272.86279681
 20
427.5903744234
 30
0.0
 11
272.86279681
 21
427.9903744234
 31
0.0
  0
LINE
  5
154
330
1F
100
AcDbEntity
  8
0
  6
Continuous
 62
     7
370
    35
100
AcDbLine
 10
231.1136246336
 20
427.9903744234
 30
0.0
 11
231.1136246336
 21
427.5903744234
 31
0.0
  0
ARC
  5
155
330
1F
100
AcDbEntity
  8
0
  6
Continuous
 62
     7
370
    35
100
AcDbCircle
 10
270.8352009726
 20
411.5799798206
 30
0.0
 40
28.84699025082932
100
AcDbArc
 50
173.1838182293
 51
180.0
  0
ARC
  5
156
330
1F
100
AcDbEntity
  8
0
  6
Continuous
 62
     7
370
    35
100
AcDbCircle
 10
233.141220471
 20
411.5799798206
 30
0.0
 40
28.84699025082939
100
AcDbArc
 50
0.0
 51
6.8161817707
  0
LINE
  5
157
330
1F
100
AcDbEntity
  8
0
  6
Continuous
 62
     7
370
    35
100
AcDbLine
 10
261.9882107218
 20
366.5903744234
 30
0.0
 11
261.9882107218
 21
411.5799798206
 31
0.0
  0
LINE
  5
158
330
1F
100
AcDbEntity
  8
0
  6
Continuous
 62
     7
370
    35
100
AcDbLine
 10
241.9882107218
 20
411.5799798206
 30
0.0
 11
241.9882107218
 21
366.5903744234
 31
0.0
  0
LINE
  5
159
330
1F
100
AcDbEntity
  8
0
  6
Continuous
 62
     7
370
    35
100
AcDbLine
 10
241.9882107218
 20
366.5903744234
 30
0.0
 11
241.9882107218
 21
326.2007690262
 31
0.0
  0
LINE
  5
15A
330
1F
100
AcDbEntity
  8
0
  6
Continuous
 62
     7
370
    35
100
AcDbLine
 10
261.9882107218
 20
326.2007690262
 30
0.0
 11
261.9882107218
 21
366.5903744234
 31
0.0
  0
ARC
  5
15B
330
1F
100
AcDbEntity
  8
0
  6
Continuous
 62
     7
370
    35
100
AcDbCircle
 10
233.141220471
 20
326.2007690262
 30
0.0
 40
28.84699025083066
100
AcDbArc
 50
353.1838182293
 51
0.0
  0
ARC
  5
15C
330
1F
100
AcDbEntity
  8
0
  6
Continuous
 62
     7
370
    35
100
AcDbCircle
 10
270.8352009726
 20
326.2007690262
 30
0.0
 40
28.84699025083069
100
AcDbArc
 50
180.0
 51
186.8161817707
  0
ARC
  5
15D
330
1F
100
AcDbEntity
  8
0
  6
Continuous
 62
     7
370
    35
100
AcDbCircle
 10
252.2650569094
 20
413.865837289
 30
0.0
 40
9.58702492138615
100
AcDbArc
 50
6.8161817707
 51
23.3426337043
  0
ARC
  5
15E
330
1F
100
AcDbEntity
  8
0
  6
Continuous
 62
     7
370
    35
100
AcDbCircle
 10
251.7113645342
 20
413.865837289
 30
0.0
 40
9.587024921386162
100
AcDbArc
 50
156.6573662957
 51
173.1838182293
  0
ARC
  5
15F
330
1F
100
AcDbEntity
  8
0
  6
Continuous
 62
     7
370
    35
100
AcDbCircle
 10
251.7113645342
 20
323.9149115577
 30
0.0
 40
9.587024921386568
100
AcDbArc
 50
186.8161817707
 51
203.3426337043
  0
ARC
  5
160
330
1F
100
AcDbEntity
  8
0
  6
Continuous
 62
     7
370
    35
100
AcDbCircle
 10
252.2650569094
 20
323.9149115577
 30
0.0
 40
9.587024921386568
100
AcDbArc
 50
336.6573662957
 51
353.1838182293
  0
ARC
  5
161
330
1F
100
AcDbEntity
  8
0
  6
Continuous
 62
     7
370
    35
100
AcDbCircle
 10
256.484633836
 20
415.6867975376
 30
0.0
 40
4.991295853393981
100
AcDbArc
 50
23.3426337043
 51
66.6573662957
  0
ARC
  5
162
330
1F
100
AcDbEntity
  8
0
  6
Continuous
 62
     7
370
    35
100
AcDbCircle
 10
247.4917876076
 20
415.6867975376
 30
0.0
 40
4.991295853394007
100
AcDbArc
 50
113.3426337043
 51
156.6573662957
  0
ARC
  5
163
330
1F
100
AcDbEntity
  8
0
  6
Continuous
 62
     7
370
    35
100
AcDbCircle
 10
247.4917876076
 20
322.0939513091
 30
0.0
 40
4.991295853393749
100
AcDbArc
 50
203.3426337043
 51
246.6573662957
  0
ARC
  5
164
330
1F
100
AcDbEntity
  8
0
  6
Continuous
 62
     7
370
    35
100
AcDbCircle
 10
256.484633836
 20
322.0939513091
 30
0.0
 40
4.991295853393772
100
AcDbArc
 50
293.3426337043
 51
336.6573662957
  0
ARC
  5
165
330
1F
100
AcDbEntity
  8
0
  6
Continuous
 62
     7
370
    35
100
AcDbCircle
 10
249.3127478562
 20
326.3135282357
 30
0.0
 40
9.587024921389185
100
AcDbArc
 50
246.6573662957
 51
263.1838182293
  0
ARC
  5
166
330
1F
100
AcDbEntity
  8
0
  6
Continuous
 62
     7
370
    35
100
AcDbCircle
 10
254.6636735875
 20
326.3135282357
 30
0.0
 40
9.587024921389181
100
AcDbArc
 50
276.8161817707
 51
293.3426337043
  0
ARC
  5
167
330
1F
100
AcDbEntity
  8
0
  6
Continuous
 62
     7
370
    35
100
AcDbCircle
 10
251.5986053246
 20
345.4373646742
 30
0.0
 40
28.84699025083
100
AcDbArc
 50
263.1838182293
 51
270.0
  0
ARC
  5
168
330
1F
100
AcDbEntity
  8
0
  6
Continuous
 62
     7
370
    35
100
AcDbCircle
 10
252.377816119
 20
345.4373646742
 30
0.0
 40
28.84699025083
100
AcDbArc
 50
270.0
 51
276.8161817707
  0
CIRCLE
  5
169
330
1F
100
AcDbEntity
  8
0
  6
Continuous
 62
   144
370
    18
100
AcDbCircle
 10
251.9882107218
 20
355.0903744234
 30
0.0
 40
0.3896053971984941
  0
CIRCLE
  5
16A
330
1F
100
AcDbEntity
  8
0
  6
Continuous
 62
     7
370
    35
100
AcDbCircle
 10
251.9882107218
 20
355.0903744234
 30
0.0
 40
9.999999999999943
  0
LINE
  5
16B
330
1F
100
AcDbEntity
  8
0
  6
Continuous
 62
     7
370
    35
100
AcDbLine
 10
281.9882107218
 20
427.5903744234
 30
0.0
 11
221.9882107218
 21
427.5903744234
 31
0.0
  0
SPLINE
  5
16C
330
1F
100
AcDbEntity
  8
0
  6
Continuous
 62
     7
370
    35
100
AcDbSpline
210
0.0
220
0.0
230
1.0
 70
     8
 71
     3
 72
    35
 73
    31
 74
     0
 42
0.00000001
 43
0.00000001
 40
0.0
 40
0.0
 40
0.0
 40
0.0
 40
0.0047911324452286
 40
0.0295528713796992
 40
0.054314670130627
 40
0.1038165132866531
 40
0.1533185210095737
 40
0.2028206435706104
 40
0.2523228312409818
 40
0.3018250342919085
 40
0.3513272029946111
 40
0.4008292876203118
 40
0.4503312384402299
 40
0.4998330057255859
 40
0.5493345397476009
 40
0.5724261323052485
 40
0.5804485071303533
 40
0.5894324115308579
 40
0.599377832223955
 40
0.6102847547601572
 40
0.6221531635233418
 40
0.6349830417307883
 40
0.6487743714332146
 40
0.6902368032725562
 40
0.738527124385068
 40
0.7936420738965678
 40
0.8394726945269854
 40
0.8891432725242814
 40
0.9426527527524834
 40
1.0
 40
1.0
 40
1.0
 40
1.0
 10
226.4922140516176
 20
420.5903744396568
 30
0.0
 10
226.4909729235684
 20
420.5903744400142
 30
0.0
 10
226.4833173435936
 20
420.5903744422191
 30
0.0
 10
226.5401493930512
 20
420.5903744469103
 30
0.0
 10
226.7385093231147
 20
420.5903744553629
 30
0.0
 10
227.2192255500919
 20
420.590374465887
 30
0.0
 10
228.1425177648167
 20
420.5903744765117
 30
0.0
 10
229.4039955134152
 20
420.5903744839765
 30
0.0
 10
230.9845462102812
 20
420.5903744874698
 30
0.0
 10
232.8621584751612
 20
420.5903744866423
 30
0.0
 10
235.0101929550296
 20
420.5903744815767
 30
0.0
 10
237.3982767243756
 20
420.5903744727898
 30
0.0
 10
239.9927032466563
 20
420.5903744612552
 30
0.0
 10
242.7565104344338
 20
420.5903744483109
 30
0.0
 10
245.1367681383115
 20
420.5903744381948
 30
0.0
 10
246.7428446117114
 20
420.5903744323523
 30
0.0
 10
247.5475828645847
 20
420.5903744301056
 30
0.0
 10
248.0904576233013
 20
420.5903744289768
 30
0.0
 10
248.6935619120446
 20
420.5903744279814
 30
0.0
 10
249.3571512322929
 20
420.5903744271288
 30
0.0
 10
250.0813046572429
 20
420.5903744263989
 30
0.0
 10
250.8659028337819
 20
420.5903744257811
 30
0.0
 10
252.2556570023252
 20
420.5903744249302
 30
0.0
 10
254.3721144076765
 20
420.590374424182
 30
0.0
 10
257.3049873004053
 20
420.590374423692
 30
0.0
 10
260.2502071198372
 20
420.5903744234908
 30
0.0
 10
263.0992088647009
 20
420.5903744234112
 30
0.0
 10
265.7619351366845
 20
420.5903744233871
 30
0.0
 10
268.4353890843776
 20
420.5903744233833
 30
0.0
 10
270.0263640240918
 20
420.5903744233834
 30
0.0
 10
270.8493906036232
 20
420.5903744233835
 30
0.0
  0
LINE
  5
16D
330
1F
100
AcDbEntity
  8
0
  6
Continuous
 62
     7
370
    35
100
AcDbLine
 10
270.8493906036
 20
420.5903744234
 30
0.0
 11
277.4882107218
 21
420.5903744234
 31
0.0
  0
LINE
  5
16E
330
1F
100
AcDbEntity
  8
0
  6
Continuous
 62
     7
370
    35
100
AcDbLine
 10
272.86279681
 20
427.9903744234
 30
0.0
 11
272.704219843
 21
427.9903744234
 31
0.0
  0
LINE
  5
16F
330
1F
100
AcDbEntity
  8
0
  6
Continuous
 62
     7
370
    35
100
AcDbLine
 10
231.2722016006
 20
427.9903744234
 30
0.0
 11
231.1136246336
 21
427.9903744234
 31
0.0
  0
LINE
  5
170
330
1F
100
AcDbEntity
  8
0
  6
Continuous
 62
     7
370
    35
100
AcDbLine
 10
272.704219843
 20
427.9903744234
 30
0.0
 11
231.2722016006
 21
427.9903744234
 31
0.0
  0
LINE
  5
171
330
1F
100
AcDbEntity
  8
0
  6
Continuous
 62
   144
370
    18
100
AcDbLine
 10
258.4623290403
 20
420.2695648212
 30
0.0
 11
245.5140924033
 21
420.2695648212
 31
0.0
  0
LINE
  5
172
330
1F
100
AcDbEntity
  8
0
  6
Continuous
 62
     7
370
    35
100
AcDbLine
 10
251.5986053246
 20
316.5903744234
 30
0.0
 11
252.377816119
 21
316.5903744234
 31
0.0
  0
LINE
  5
173
330
1F
100
AcDbEntity
  8
0
  6
Continuous
 62
     7
370
    35
100
AcDbLine
 10
281.9882107218
 20
-13.4945625314
 30
0.0
 11
281.9882107218
 21
-10.9945625314
 31
0.0
  0
LINE
  5
174
330
1F
100
AcDbEntity
  8
0
  6
Continuous
 62
     7
370
    35
100
AcDbLine
 10
221.9882107218
 20
-10.9945625314
 30
0.0
 11
221.9882107218
 21
-13.4945625314
 31
0.0
  0
ARC
  5
175
330
1F
100
AcDbEntity
  8
0
  6
Continuous
 62
     7
370
    35
100
AcDbCircle
 10
277.4882107218
 20
-10.9945625314
 30
0.0
 40
4.500000000000012
100
AcDbArc
 50
0.0
 51
90.0
  0
ARC
  5
176
330
1F
100
AcDbEntity
  8
0
  6
Continuous
 62
     7
370
    35
100
AcDbCircle
 10
226.4882107218
 20
-10.9945625314
 30
0.0
 40
4.500000000000028
100
AcDbArc
 50
90.0
 51
180.0
  0
LINE
  5
177
330
1F
100
AcDbEntity
  8
0
  6
Continuous
 62
     7
370
    35
100
AcDbLine
 10
272.86279681
 20
-13.8945625314
 30
0.0
 11
272.86279681
 21
-13.4945625314
 31
0.0
  0
LINE
  5
178
330
1F
100
AcDbEntity
  8
0
  6
Continuous
 62
     7
370
    35
100
AcDbLine
 10
231.1136246336
 20
-13.4945625314
 30
0.0
 11
231.1136246336
 21
-13.8945625314
 31
0.0
  0
ARC
  5
179
330
1F
100
AcDbEntity
  8
0
  6
Continuous
 62
     7
370
    35
100
AcDbCircle
 10
233.141220471
 20
2.5158320714
 30
0.0
 40
28.84699025082939
100
AcDbArc
 50
353.1838182293
 51
0.0
  0
ARC
  5
17A
330
1F
100
AcDbEntity
  8
0
  6
Continuous
 62
     7
370
    35
100
AcDbCircle
 10
270.8352009726
 20
2.5158320714
 30
0.0
 40
28.84699025082932
100
AcDbArc
 50
180.0
 51
186.8161817707
  0
LINE
  5
17B
330
1F
100
AcDbEntity
  8
0
  6
Continuous
 62
     7
370
    35
100
AcDbLine
 10
241.9882107218
 20
47.5054374686
 30
0.0
 11
241.9882107218
 21
2.5158320714
 31
0.0
  0
LINE
  5
17C
330
1F
100
AcDbEntity
  8
0
  6
Continuous
 62
     7
370
    35
100
AcDbLine
 10
261.9882107218
 20
2.5158320714
 30
0.0
 11
261.9882107218
 21
47.5054374686
 31
0.0
  0
LINE
  5
17D
330
1F
100
AcDbEntity
  8
0
  6
Continuous
 62
     7
370
    35
100
AcDbLine
 10
261.9882107218
 20
47.5054374686
 30
0.0
 11
261.9882107218
 21
87.8950428658
 31
0.0
  0
LINE
  5
17E
330
1F
100
AcDbEntity
  8
0
  6
Continuous
 62
     7
370
    35
100
AcDbLine
 10
241.9882107218
 20
87.8950428658
 30
0.0
 11
241.9882107218
 21
47.5054374686
 31
0.0
  0
ARC
  5
17F
330
1F
100
AcDbEntity
  8
0
  6
Continuous
 62
     7
370
    35
100
AcDbCircle
 10
270.8352009726
 20
87.8950428658
 30
0.0
 40
28.84699025083069
100
AcDbArc
 50
173.1838182293
 51
180.0
  0
ARC
  5
180
330
1F
100
AcDbEntity
  8
0
  6
Continuous
 62
     7
370
    35
100
AcDbCircle
 10
233.141220471
 20
87.8950428658
 30
0.0
 40
28.84699025083066
100
AcDbArc
 50
0.0
 51
6.8161817707
  0
ARC
  5
181
330
1F
100
AcDbEntity
  8
0
  6
Continuous
 62
     7
370
    35
100
AcDbCircle
 10
251.7113645342
 20
0.2299746029
 30
0.0
 40
9.58702492138617
100
AcDbArc
 50
186.8161817707
 51
203.3426337043
  0
ARC
  5
182
330
1F
100
AcDbEntity
  8
0
  6
Continuous
 62
     7
370
    35
100
AcDbCircle
 10
252.2650569094
 20
0.2299746029
 30
0.0
 40
9.587024921386146
100
AcDbArc
 50
336.6573662957
 51
353.1838182293
  0
ARC
  5
183
330
1F
100
AcDbEntity
  8
0
  6
Continuous
 62
     7
370
    35
100
AcDbCircle
 10
252.2650569094
 20
90.1809003342
 30
0.0
 40
9.587024921386574
100
AcDbArc
 50
6.8161817707
 51
23.3426337043
  0
ARC
  5
184
330
1F
100
AcDbEntity
  8
0
  6
Continuous
 62
     7
370
    35
100
AcDbCircle
 10
251.7113645342
 20
90.1809003342
 30
0.0
 40
9.587024921386574
100
AcDbArc
 50
156.6573662957
 51
173.1838182293
  0
ARC
  5
185
330
1F
100
AcDbEntity
  8
0
  6
Continuous
 62
     7
370
    35
100
AcDbCircle
 10
247.4917876076
 20
-1.5909856457
 30
0.0
 40
4.991295853394024
100
AcDbArc
 50
203.3426337043
 51
246.6573662957
  0
ARC
  5
186
330
1F
100
AcDbEntity
  8
0
  6
Continuous
 62
     7
370
    35
100
AcDbCircle
 10
256.484633836
 20
-1.5909856457
 30
0.0
 40
4.991295853394012
100
AcDbArc
 50
293.3426337043
 51
336.6573662957
  0
ARC
  5
187
330
1F
100
AcDbEntity
  8
0
  6
Continuous
 62
     7
370
    35
100
AcDbCircle
 10
256.484633836
 20
92.0018605828
 30
0.0
 40
4.991295853393745
100
AcDbArc
 50
23.3426337043
 51
66.6573662957
  0
ARC
  5
188
330
1F
100
AcDbEntity
  8
0
  6
Continuous
 62
     7
370
    35
100
AcDbCircle
 10
247.4917876076
 20
92.0018605828
 30
0.0
 40
4.991295853393727
100
AcDbArc
 50
113.3426337043
 51
156.6573662957
  0
ARC
  5
189
330
1F
100
AcDbEntity
  8
0
  6
Continuous
 62
     7
370
    35
100
AcDbCircle
 10
254.6636735875
 20
87.7822836562
 30
0.0
 40
9.587024921389213
100
AcDbArc
 50
66.6573662957
 51
83.1838182293
  0
ARC
  5
18A
330
1F
100
AcDbEntity
  8
0
  6
Continuous
 62
     7
370
    35
100
AcDbCircle
 10
249.3127478562
 20
87.7822836562
 30
0.0
 40
9.587024921389213
100
AcDbArc
 50
96.8161817707
 51
113.3426337043
  0
ARC
  5
18B
330
1F
100
AcDbEntity
  8
0
  6
Continuous
 62
     7
370
    35
100
AcDbCircle
 10
252.377816119
 20
68.6584472177
 30
0.0
 40
28.84699025082999
100
AcDbArc
 50
83.1838182293
 51
90.0
  0
ARC
  5
18C
330
1F
100
AcDbEntity
  8
0
  6
Continuous
 62
     7
370
    35
100
AcDbCircle
 10
251.5986053246
 20
68.6584472177
 30
0.0
 40
28.84699025082999
100
AcDbArc
 50
90.0
 51
96.8161817707
  0
LINE
  5
18D
330
1F
100
AcDbEntity
  8
0
  6
Continuous
 62
   144
370
    18
100
AcDbLine
 10
253.9435919436
 20
6.925537787
 30
0.0
 11
253.9607170186
 21
6.1858220712
 31
0.0
  0
LINE
  5
18E
330
1F
100
AcDbEntity
  8
0
  6
Continuous
 62
   144
370
    18
100
AcDbLine
 10
250.0323441741
 20
6.1063007482
 30
0.0
 11
250.0154916994
 21
6.834241522
 31
0.0
  0
ARC
  5
18F
330
1F
100
AcDbEntity
  8
0
  6
Continuous
 62
     7
370
    35
100
AcDbCircle
 10
252.3667657773
 20
7.6792377842
 30
0.0
 40
0.1000000000000101
100
AcDbArc
 50
12.1252917173
 51
132.1252917172
  0
LINE
  5
190
330
1F
100
AcDbEntity
  8
0
  6
Continuous
 62
     7
370
    35
100
AcDbLine
 10
221.9882107218
 20
-13.4945625314
 30
0.0
 11
281.9882107218
 21
-13.4945625314
 31
0.0
  0
SPLINE
  5
191
330
1F
100
AcDbEntity
  8
0
  6
Continuous
 62
     7
370
    35
100
AcDbSpline
210
0.0
220
0.0
230
1.0
 70
     8
 71
     3
 72
    14
 73
    10
 74
     0
 42
0.00000001
 43
0.00000001
 40
0.0
 40
0.0
 40
0.0
 40
0.0
 40
0.1639462993130007
 40
0.3229068351618531
 40
0.4768811647694855
 40
0.6983553867343009
 40
0.9086280439301389
 40
0.9594902656927023
 40
1.0
 40
1.0
 40
1.0
 40
1.0
 10
233.1270308399982
 20
-6.494562531445022
 30
0.0
 10
232.4613228595753
 20
-6.494562531443614
 30
0.0
 10
231.1501517138946
 20
-6.494562531440824
 30
0.0
 10
229.5766099592971
 20
-6.494562531507715
 30
0.0
 10
228.1331441994873
 20
-6.494562532026439
 30
0.0
 10
227.0263630295484
 20
-6.494562533934857
 30
0.0
 10
226.5921718181539
 20
-6.494562538976491
 30
0.0
 10
226.4937073300969
 20
-6.494562544566193
 30
0.0
 10
226.4926727378406
 20
-6.494562546750051
 30
0.0
 10
226.4922140516176
 20
-6.494562547718262
 30
0.0
  0
LINE
  5
192
330
1F
100
AcDbEntity
  8
0
  6
Continuous
 62
     7
370
    35
100
AcDbLine
 10
277.4882107218
 20
-6.4945625314
 30
0.0
 11
233.12703084
 21
-6.4945625314
 31
0.0
  0
LINE
  5
193
330
1F
100
AcDbEntity
  8
0
  6
Continuous
 62
     7
370
    35
100
AcDbLine
 10
272.704219843
 20
-13.8945625314
 30
0.0
 11
272.86279681
 21
-13.8945625314
 31
0.0
  0
LINE
  5
194
330
1F
100
AcDbEntity
  8
0
  6
Continuous
 62
     7
370
    35
100
AcDbLine
 10
231.2722016006
 20
-13.8945625314
 30
0.0
 11
272.704219843
 21
-13.8945625314
 31
0.0
  0
LINE
  5
195
330
1F
100
AcDbEntity
  8
0
  6
Continuous
 62
     7
370
    35
100
AcDbLine
 10
231.1136246336
 20
-13.8945625314
 30
0.0
 11
231.2722016006
 21
-13.8945625314
 31
0.0
  0
SPLINE
  5
196
330
1F
100
AcDbEntity
  8
0
  6
Continuous
 62
     7
370
    35
100
AcDbSpline
210
0.0
220
0.0
230
1.0
 70
    11
 71
     3
 72
    58
 73
    54
 74
     0
 42
0.00000001
 43
0.00000001
 40
0.0
 40
0.0
 40
0.0
 40
0.0
 40
0.03125
 40
0.03125
 40
0.0624999999999999
 40
0.0624999999999999
 40
0.0937499999999999
 40
0.0937499999999999
 40
0.1249999999999998
 40
0.1249999999999998
 40
0.1874999999999998
 40
0.1874999999999998
 40
0.2499999999999997
 40
0.2499999999999997
 40
0.2812499999999997
 40
0.2812499999999997
 40
0.3124999999999997
 40
0.3124999999999997
 40
0.3749999999999993
 40
0.3749999999999993
 40
0.4062499999999992
 40
0.4062499999999992
 40
0.4374999999999991
 40
0.4374999999999991
 40
0.4687499999999989
 40
0.4687499999999989
 40
0.4999999999999987
 40
0.4999999999999987
 40
0.5624999999999983
 40
0.5624999999999983
 40
0.5937499999999986
 40
0.5937499999999986
 40
0.6249999999999988
 40
0.6249999999999988
 40
0.6562499999999989
 40
0.6562499999999989
 40
0.6874999999999991
 40
0.6874999999999991
 40
0.7499999999999991
 40
0.7499999999999991
 40
0.7812499999999991
 40
0.7812499999999991
 40
0.812499999999999
 40
0.812499999999999
 40
0.843749999999999
 40
0.843749999999999
 40
0.8749999999999989
 40
0.8749999999999989
 40
0.9374999999999994
 40
0.9374999999999994
 40
0.9687499999999997
 40
0.9687499999999997
 40
1.0
 40
1.0
 40
1.0
 40
1.0
 10
249.9882107218107
 20
6.50543746855497
 30
0.0
 10
249.9882107218107
 20
6.637925886885256
 30
0.0
 10
250.0012449070985
 20
6.76813171076443
 30
0.0
 10
250.0522507902225
 20
7.02418649940715
 30
0.0
 10
250.0908650543246
 20
7.151385284187635
 30
0.0
 10
250.1913609005033
 20
7.393412627056777
 30
0.0
 10
250.2528086491755
 20
7.508149997196768
 30
0.0
 10
250.3979271556279
 20
7.725294406040202
 30
0.0
 10
250.4821640301376
 20
7.827839520778916
 30
0.0
 10
250.7581624507135
 20
8.103773025211536
 30
0.0
 10
250.980759143218
 20
8.252680680550815
 30
0.0
 10
251.4617787403276
 20
8.452406110815588
 30
0.0
 10
251.7254236308779
 20
8.505282215719937
 30
0.0
 10
252.1178278852398
 20
8.505514569050264
 30
0.0
 10
252.2507300564948
 20
8.492450266742244
 30
0.0
 10
252.5074917623385
 20
8.441279265342958
 30
0.0
 10
252.6323279084745
 20
8.403422220324343
 30
0.0
 10
252.996171584959
 20
8.25270595701922
 30
0.0
 10
253.2162329386664
 20
8.105771204010132
 30
0.0
 10
253.4951141038686
 20
7.826996719827596
 30
0.0
 10
253.5776203369739
 20
7.726384225182653
 30
0.0
 10
253.7224320479109
 20
7.510131600812188
 30
0.0
 10
253.7852240569843
 20
7.393054723707805
 30
0.0
 10
253.8855543388874
 20
7.151354272156595
 30
0.0
 10
253.9235304420375
 20
7.02669840870189
 30
0.0
 10
253.975003293896
 20
6.769692388524144
 30
0.0
 10
253.9881573859611
 20
6.636947052102986
 30
0.0
 10
253.9883168969907
 20
6.244859249870734
 30
0.0
 10
253.9357589889358
 20
5.981035231639391
 30
0.0
 10
253.7861631063557
 20
5.619800571951834
 30
0.0
 10
253.7238007996822
 20
5.503002496604632
 30
0.0
 10
253.5782708175898
 20
5.285249907888215
 30
0.0
 10
253.4957961576918
 20
5.184762777192119
 30
0.0
 10
253.3115956736095
 20
5.000230587013592
 30
0.0
 10
253.2089877255293
 20
4.915887932282592
 30
0.0
 10
252.992517330243
 20
4.770982955651558
 30
0.0
 10
252.877845176352
 20
4.709380626047373
 30
0.0
 10
252.5138533554178
 20
4.557931782135392
 30
0.0
 10
252.2537394814924
 20
4.505623278255822
 30
0.0
 10
251.8575512205681
 20
4.505345302123633
 30
0.0
 10
251.7274630324333
 20
4.518206660932576
 30
0.0
 10
251.4711046322874
 20
4.569029212928815
 30
0.0
 10
251.3435649074126
 20
4.607665668616937
 30
0.0
 10
251.1019024230995
 20
4.707782432043027
 30
0.0
 10
250.9870559577275
 20
4.769112423299339
 30
0.0
 10
250.769276866771
 20
4.914420252599541
 30
0.0
 10
250.666991043752
 20
4.998361684790821
 30
0.0
 10
250.3910323873063
 20
5.273927504900209
 30
0.0
 10
250.241867391066
 20
5.4964012708019
 30
0.0
 10
250.0917079347203
 20
5.857174830528125
 30
0.0
 10
250.0528880308235
 20
5.98404309421282
 30
0.0
 10
250.0012471652752
 20
6.242185048157892
 30
0.0
 10
249.9882107218107
 20
6.372949050224681
 30
0.0
 10
249.9882107218107
 20
6.50543746855497
 30
0.0
  0
LINE
  5
197
330
1F
100
AcDbEntity
  8
0
  6
Continuous
 62
   144
370
    18
100
AcDbLine
 10
245.5140924033
 20
-6.1737529292
 30
0.0
 11
258.4623290403
 21
-6.1737529292
 31
0.0
  0
LINE
  5
198
330
1F
100
AcDbEntity
  8
0
  6
Continuous
 62
     7
370
    35
100
AcDbLine
 10
252.3778160721
 20
97.5054374686
 30
0.0
 11
251.5986053246
 21
97.5054374686
 31
0.0
  0
ENDSEC
  0
SECTION
  2
OBJECTS
  0
DICTIONARY
  5
C
330
0
100
AcDbDictionary
281
     1
  3
ACAD_GROUP
350
D
  3
ACAD_LAYOUT
350
1A
  3
ACAD_MLINESTYLE
350
17
  3
ACAD_PLOTSETTINGS
350
19
  3
ACAD_PLOTSTYLENAME
350
E
  3
ACAD_SCALELIST
350
47
  3
DWGPROPS
350
199
  0
DICTIONARY
  5
D
102
{ACAD_REACTORS
330
C
102
}
330
C
100
AcDbDictionary
281
     1
  0
DICTIONARY
  5
1A
102
{ACAD_REACTORS
330
C
102
}
330
C
100
AcDbDictionary
281
     1
  3
Layout1
350
1E
  3
Layout2
350
26
  3
Model
350
22
  0
DICTIONARY
  5
17
102
{ACAD_REACTORS
330
C
102
}
330
C
100
AcDbDictionary
281
     1
  3
Standard
350
18
  0
DICTIONARY
  5
19
102
{ACAD_REACTORS
330
C
102
}
330
C
100
AcDbDictionary
281
     1
  0
ACDBDICTIONARYWDFLT
  5
E
102
{ACAD_REACTORS
330
C
102
}
330
C
100
AcDbDictionary
281
     1
  3
Normal
350
F
100
AcDbDictionaryWithDefault
340
F
  0
DICTIONARY
  5
47
102
{ACAD_REACTORS
330
C
102
}
330
C
100
AcDbDictionary
281
     1
  3
A0
350
48
  3
A1
350
49
  3
A2
350
4A
  3
A3
350
4B
  3
A4
350
4C
  3
A5
350
4D
  3
A6
350
4E
  3
A7
350
4F
  3
A8
350
50
  3
A9
350
51
  3
B0
350
52
  3
B1
350
53
  3
B2
350
54
  3
B3
350
55
  3
B4
350
56
  3
B5
350
57
  3
B6
350
58
  3
B7
350
59
  3
B8
350
5A
  3
B9
350
5B
  3
C0
350
5C
  3
C1
350
5D
  3
C2
350
5E
  3
C3
350
5F
  3
C4
350
60
  3
C5
350
61
  3
C6
350
62
  3
C7
350
63
  3
C8
350
64
  3
C9
350
65
  3
D0
350
66
  3
D1
350
67
  3
D2
350
68
  0
XRECORD
  5
199
102
{ACAD_REACTORS
330
C
102
}
330
C
100
AcDbXrecord
280
     1
  1
DWGPROPS COOKIE
  2

  3

  4

  6

  7

  8
y_harada
  9

300
=
301
=
302
=
303
=
304
=
305
=
306
=
307
=
308
=
309
=
 40
0.0
 41
2459317.168691123
 42
2459317.168692118
  1

 90
        0
  0
LAYOUT
  5
1E
102
{ACAD_REACTORS
330
1A
102
}
330
1A
100
AcDbPlotSettings
  1

  2
none_device
  4

  6

 40
0.0
 41
0.0
 42
0.0
 43
0.0
 44
0.0
 45
0.0
 46
0.0
 47
0.0
 48
0.0
 49
0.0
140
0.0
141
0.0
142
1.0
143
1.0
 70
   688
 72
     1
 73
     0
 74
     5
  7

 75
    16
147
1.0
148
0.0
149
0.0
100
AcDbLayout
  1
Layout1
 70
     1
 71
     1
 10
0.0
 20
0.0
 11
420.0
 21
297.0
 12
0.0
 22
0.0
 32
0.0
 14
1.0000000000E+20
 24
1.0000000000E+20
 34
1.0000000000E+20
 15
-1.0000000000E+20
 25
-1.0000000000E+20
 35
-1.0000000000E+20
146
0.0
 13
0.0
 23
0.0
 33
0.0
 16
1.0
 26
0.0
 36
0.0
 17
0.0
 27
1.0
 37
0.0
 76
     0
330
1B
  0
LAYOUT
  5
26
102
{ACAD_REACTORS
330
1A
102
}
330
1A
100
AcDbPlotSettings
  1

  2
none_device
  4

  6

 40
0.0
 41
0.0
 42
0.0
 43
0.0
 44
0.0
 45
0.0
 46
0.0
 47
0.0
 48
0.0
 49
0.0
140
0.0
141
0.0
142
1.0
143
1.0
 70
   688
 72
     1
 73
     0
 74
     5
  7

 75
    16
147
1.0
148
0.0
149
0.0
100
AcDbLayout
  1
Layout2
 70
     1
 71
     2
 10
0.0
 20
0.0
 11
0.0
 21
0.0
 12
0.0
 22
0.0
 32
0.0
 14
0.0
 24
0.0
 34
0.0
 15
0.0
 25
0.0
 35
0.0
146
0.0
 13
0.0
 23
0.0
 33
0.0
 16
1.0
 26
0.0
 36
0.0
 17
0.0
 27
1.0
 37
0.0
 76
     0
330
23
  0
LAYOUT
  5
22
102
{ACAD_REACTORS
330
1A
102
}
330
1A
100
AcDbPlotSettings
  1

  2
none_device
  4
Letter_(8.50_x_11.00_Inches)
  6

 40
6.35
 41
6.35
 42
6.35000508
 43
6.35000508
 44
215.9
 45
279.4
 46
0.0
 47
0.0
 48
0.0
 49
0.0
140
0.0
141
0.0
142
1.0
143
1.0
 70
  1712
 72
     1
 73
     0
 74
     0
  7

 75
     0
147
1.0
148
0.0
149
0.0
100
AcDbLayout
  1
Model
 70
     1
 71
     0
 10
0.0
 20
0.0
 11
420.0
 21
297.0
 12
0.0
 22
0.0
 32
0.0
 14
0.0
 24
0.0
 34
0.0
 15
420.0
 25
297.0
 35
0.0
146
0.0
 13
0.0
 23
0.0
 33
0.0
 16
1.0
 26
0.0
 36
0.0
 17
0.0
 27
1.0
 37
0.0
 76
     0
330
1F
331
29
  0
MLINESTYLE
  5
18
102
{ACAD_REACTORS
330
17
102
}
330
17
100
AcDbMlineStyle
  2
Standard
 70
     0
  3

 62
   256
 51
90.0
 52
90.0
 71
     2
 49
0.5
 62
   256
  6
BYLAYER
 49
-0.5
 62
   256
  6
BYLAYER
  0
ACDBPLACEHOLDER
  5
F
102
{ACAD_REACTORS
330
E
102
}
330
E
  0
SCALE
  5
48
102
{ACAD_REACTORS
330
47
102
}
330
47
100
AcDbScale
 70
     0
300
1:1
140
1.0
141
1.0
290
     1
  0
SCALE
  5
49
102
{ACAD_REACTORS
330
47
102
}
330
47
100
AcDbScale
 70
     0
300
1:2
140
1.0
141
2.0
290
     0
  0
SCALE
  5
4A
102
{ACAD_REACTORS
330
47
102
}
330
47
100
AcDbScale
 70
     0
300
1:4
140
1.0
141
4.0
290
     0
  0
SCALE
  5
4B
102
{ACAD_REACTORS
330
47
102
}
330
47
100
AcDbScale
 70
     0
300
1:5
140
1.0
141
5.0
290
     0
  0
SCALE
  5
4C
102
{ACAD_REACTORS
330
47
102
}
330
47
100
AcDbScale
 70
     0
300
1:8
140
1.0
141
8.0
290
     0
  0
SCALE
  5
4D
102
{ACAD_REACTORS
330
47
102
}
330
47
100
AcDbScale
 70
     0
300
1:10
140
1.0
141
10.0
290
     0
  0
SCALE
  5
4E
102
{ACAD_REACTORS
330
47
102
}
330
47
100
AcDbScale
 70
     0
300
1:16
140
1.0
141
16.0
290
     0
  0
SCALE
  5
4F
102
{ACAD_REACTORS
330
47
102
}
330
47
100
AcDbScale
 70
     0
300
1:20
140
1.0
141
20.0
290
     0
  0
SCALE
  5
50
102
{ACAD_REACTORS
330
47
102
}
330
47
100
AcDbScale
 70
     0
300
1:30
140
1.0
141
30.0
290
     0
  0
SCALE
  5
51
102
{ACAD_REACTORS
330
47
102
}
330
47
100
AcDbScale
 70
     0
300
1:40
140
1.0
141
40.0
290
     0
  0
SCALE
  5
52
102
{ACAD_REACTORS
330
47
102
}
330
47
100
AcDbScale
 70
     0
300
1:50
140
1.0
141
50.0
290
     0
  0
SCALE
  5
53
102
{ACAD_REACTORS
330
47
102
}
330
47
100
AcDbScale
 70
     0
300
1:100
140
1.0
141
100.0
290
     0
  0
SCALE
  5
54
102
{ACAD_REACTORS
330
47
102
}
330
47
100
AcDbScale
 70
     0
300
2:1
140
2.0
141
1.0
290
     0
  0
SCALE
  5
55
102
{ACAD_REACTORS
330
47
102
}
330
47
100
AcDbScale
 70
     0
300
4:1
140
4.0
141
1.0
290
     0
  0
SCALE
  5
56
102
{ACAD_REACTORS
330
47
102
}
330
47
100
AcDbScale
 70
     0
300
8:1
140
8.0
141
1.0
290
     0
  0
SCALE
  5
57
102
{ACAD_REACTORS
330
47
102
}
330
47
100
AcDbScale
 70
     0
300
10:1
140
10.0
141
1.0
290
     0
  0
SCALE
  5
58
102
{ACAD_REACTORS
330
47
102
}
330
47
100
AcDbScale
 70
     0
300
100:1
140
100.0
141
1.0
290
     0
  0
SCALE
  5
59
102
{ACAD_REACTORS
330
47
102
}
330
47
100
AcDbScale
 70
     0
300
1/128" = 1'-0"
140
0.0078125
141
12.0
290
     0
  0
SCALE
  5
5A
102
{ACAD_REACTORS
330
47
102
}
330
47
100
AcDbScale
 70
     0
300
1/64" = 1'-0"
140
0.015625
141
12.0
290
     0
  0
SCALE
  5
5B
102
{ACAD_REACTORS
330
47
102
}
330
47
100
AcDbScale
 70
     0
300
1/32" = 1'-0"
140
0.03125
141
12.0
290
     0
  0
SCALE
  5
5C
102
{ACAD_REACTORS
330
47
102
}
330
47
100
AcDbScale
 70
     0
300
1/16" = 1'-0"
140
0.0625
141
12.0
290
     0
  0
SCALE
  5
5D
102
{ACAD_REACTORS
330
47
102
}
330
47
100
AcDbScale
 70
     0
300
3/32" = 1'-0"
140
0.09375
141
12.0
290
     0
  0
SCALE
  5
5E
102
{ACAD_REACTORS
330
47
102
}
330
47
100
AcDbScale
 70
     0
300
1/8" = 1'-0"
140
0.125
141
12.0
290
     0
  0
SCALE
  5
5F
102
{ACAD_REACTORS
330
47
102
}
330
47
100
AcDbScale
 70
     0
300
3/16" = 1'-0"
140
0.1875
141
12.0
290
     0
  0
SCALE
  5
60
102
{ACAD_REACTORS
330
47
102
}
330
47
100
AcDbScale
 70
     0
300
1/4" = 1'-0"
140
0.25
141
12.0
290
     0
  0
SCALE
  5
61
102
{ACAD_REACTORS
330
47
102
}
330
47
100
AcDbScale
 70
     0
300
3/8" = 1'-0"
140
0.375
141
12.0
290
     0
  0
SCALE
  5
62
102
{ACAD_REACTORS
330
47
102
}
330
47
100
AcDbScale
 70
     0
300
1/2" = 1'-0"
140
0.5
141
12.0
290
     0
  0
SCALE
  5
63
102
{ACAD_REACTORS
330
47
102
}
330
47
100
AcDbScale
 70
     0
300
3/4" = 1'-0"
140
0.75
141
12.0
290
     0
  0
SCALE
  5
64
102
{ACAD_REACTORS
330
47
102
}
330
47
100
AcDbScale
 70
     0
300
1" = 1'-0"
140
1.0
141
12.0
290
     0
  0
SCALE
  5
65
102
{ACAD_REACTORS
330
47
102
}
330
47
100
AcDbScale
 70
     0
300
1-1/2" = 1'-0"
140
1.5
141
12.0
290
     0
  0
SCALE
  5
66
102
{ACAD_REACTORS
330
47
102
}
330
47
100
AcDbScale
 70
     0
300
3" = 1'-0"
140
3.0
141
12.0
290
     0
  0
SCALE
  5
67
102
{ACAD_REACTORS
330
47
102
}
330
47
100
AcDbScale
 70
     0
300
6" = 1'-0"
140
6.0
141
12.0
290
     0
  0
SCALE
  5
68
102
{ACAD_REACTORS
330
47
102
}
330
47
100
AcDbScale
 70
     0
300
1'-0" = 1'-0"
140
12.0
141
12.0
290
     0
  0
ENDSEC
  0
EOF
