  0
SECTION
  2
HEADER
  9
$ACADVER
  1
AC1015
  9
$ACADMAINTVER
 70
     6
  9
$DWGCODEPAGE
  3
DOS932
  9
$INSBASE
 10
0.0
 20
0.0
 30
0.0
  9
$EXTMIN
 10
0.0
 20
0.0
 30
0.0
  9
$EXTMAX
 10
420.0
 20
297.0
 30
0.0
  9
$LIMMIN
 10
0.0
 20
0.0
  9
$LIMMAX
 10
420.0
 20
297.0
  9
$ORTHOMODE
 70
     0
  9
$REGENMODE
 70
     1
  9
$FILLMODE
 70
     1
  9
$QTEXTMODE
 70
     0
  9
$MIRRTEXT
 70
     1
  9
$LTSCALE
 40
1.0
  9
$ATTMODE
 70
     1
  9
$TEXTSIZE
 40
3.8805555556
  9
$TRACEWID
 40
1.0
  9
$TEXTSTYLE
  7
Standard
  9
$CLAYER
  8
0
  9
$CELTYPE
  6
ByLayer
  9
$CECOLOR
 62
   256
  9
$CELTSCALE
 40
1.0
  9
$DISPSILH
 70
     0
  9
$DIMSCALE
 40
1.0
  9
$DIMASZ
 40
3.0
  9
$DIMEXO
 40
0.0
  9
$DIMDLI
 40
3.75
  9
$DIMRND
 40
0.0
  9
$DIMDLE
 40
0.0
  9
$DIMEXE
 40
1.0
  9
$DIMTP
 40
0.0
  9
$DIMTM
 40
0.0
  9
$DIMTXT
 40
3.5277777778
  9
$DIMCEN
 40
2.5
  9
$DIMTSZ
 40
0.0
  9
$DIMTOL
 70
     0
  9
$DIMLIM
 70
     0
  9
$DIMTIH
 70
     1
  9
$DIMTOH
 70
     1
  9
$DIMSE1
 70
     0
  9
$DIMSE2
 70
     0
  9
$DIMTAD
 70
     1
  9
$DIMZIN
 70
     0
  9
$DIMBLK
  1

  9
$DIMASO
 70
     1
  9
$DIMSHO
 70
     1
  9
$DIMPOST
  1

  9
$DIMAPOST
  1

  9
$DIMALT
 70
     0
  9
$DIMALTD
 70
     3
  9
$DIMALTF
 40
0.0393700787
  9
$DIMLFAC
 40
1.0
  9
$DIMTOFL
 70
     1
  9
$DIMTVP
 40
0.0
  9
$DIMTIX
 70
     0
  9
$DIMSOXD
 70
     0
  9
$DIMSAH
 70
     0
  9
$DIMBLK1
  1

  9
$DIMBLK2
  1

  9
$DIMSTYLE
  2
ISO-25
  9
$DIMCLRD
 70
     0
  9
$DIMCLRE
 70
     0
  9
$DIMCLRT
 70
     0
  9
$DIMTFAC
 40
1.0
  9
$DIMGAP
 40
1.0
  9
$DIMJUST
 70
     0
  9
$DIMSD1
 70
     0
  9
$DIMSD2
 70
     0
  9
$DIMTOLJ
 70
     0
  9
$DIMTZIN
 70
     0
  9
$DIMALTZ
 70
     0
  9
$DIMALTTZ
 70
     0
  9
$DIMUPT
 70
     0
  9
$DIMDEC
 70
     2
  9
$DIMTDEC
 70
     2
  9
$DIMALTU
 70
     2
  9
$DIMALTTD
 70
     3
  9
$DIMTXSTY
  7
Standard
  9
$DIMAUNIT
 70
     0
  9
$DIMADEC
 70
     2
  9
$DIMALTRND
 40
0.0
  9
$DIMAZIN
 70
     0
  9
$DIMDSEP
 70
    44
  9
$DIMATFIT
 70
     3
  9
$DIMFRAC
 70
     0
  9
$DIMLDRBLK
  1

  9
$DIMLUNIT
 70
     2
  9
$DIMLWD
 70
    -2
  9
$DIMLWE
 70
    -2
  9
$DIMTMOVE
 70
     0
  9
$LUNITS
 70
     2
  9
$LUPREC
 70
     2
  9
$SKETCHINC
 40
1.0
  9
$FILLETRAD
 40
10.0
  9
$AUNITS
 70
     0
  9
$AUPREC
 70
     2
  9
$MENU
  1
.
  9
$ELEVATION
 40
0.0
  9
$PELEVATION
 40
0.0
  9
$THICKNESS
 40
0.0
  9
$LIMCHECK
 70
     0
  9
$CHAMFERA
 40
0.0
  9
$CHAMFERB
 40
0.0
  9
$CHAMFERC
 40
0.0
  9
$CHAMFERD
 40
0.0
  9
$SKPOLY
 70
     0
  9
$TDCREATE
 40
2459317.55099478
  9
$TDUCREATE
 40
2459317.17599478
  9
$TDUPDATE
 40
2459317.550995891
  9
$TDUUPDATE
 40
2459317.175995891
  9
$TDINDWG
 40
0.0000000116
  9
$TDUSRTIMER
 40
0.0000000116
  9
$USRTIMER
 70
     1
  9
$ANGBASE
 50
0.0
  9
$ANGDIR
 70
     0
  9
$PDMODE
 70
     0
  9
$PDSIZE
 40
-1.0
  9
$PLINEWID
 40
0.0
  9
$SPLFRAME
 70
     0
  9
$SPLINETYPE
 70
     6
  9
$SPLINESEGS
 70
     8
  9
$HANDSEED
  5
152
  9
$SURFTAB1
 70
     6
  9
$SURFTAB2
 70
     6
  9
$SURFTYPE
 70
     6
  9
$SURFU
 70
     6
  9
$SURFV
 70
     6
  9
$UCSBASE
  2

  9
$UCSNAME
  2

  9
$UCSORG
 10
0.0
 20
0.0
 30
0.0
  9
$UCSXDIR
 10
1.0
 20
0.0
 30
0.0
  9
$UCSYDIR
 10
0.0
 20
1.0
 30
0.0
  9
$UCSORTHOREF
  2

  9
$UCSORTHOVIEW
 70
     0
  9
$UCSORGTOP
 10
0.0
 20
0.0
 30
0.0
  9
$UCSORGBOTTOM
 10
0.0
 20
0.0
 30
0.0
  9
$UCSORGLEFT
 10
0.0
 20
0.0
 30
0.0
  9
$UCSORGRIGHT
 10
0.0
 20
0.0
 30
0.0
  9
$UCSORGFRONT
 10
0.0
 20
0.0
 30
0.0
  9
$UCSORGBACK
 10
0.0
 20
0.0
 30
0.0
  9
$PUCSBASE
  2

  9
$PUCSNAME
  2

  9
$PUCSORG
 10
0.0
 20
0.0
 30
0.0
  9
$PUCSXDIR
 10
1.0
 20
0.0
 30
0.0
  9
$PUCSYDIR
 10
0.0
 20
1.0
 30
0.0
  9
$PUCSORTHOREF
  2

  9
$PUCSORTHOVIEW
 70
     0
  9
$PUCSORGTOP
 10
0.0
 20
0.0
 30
0.0
  9
$PUCSORGBOTTOM
 10
0.0
 20
0.0
 30
0.0
  9
$PUCSORGLEFT
 10
0.0
 20
0.0
 30
0.0
  9
$PUCSORGRIGHT
 10
0.0
 20
0.0
 30
0.0
  9
$PUCSORGFRONT
 10
0.0
 20
0.0
 30
0.0
  9
$PUCSORGBACK
 10
0.0
 20
0.0
 30
0.0
  9
$USERI1
 70
     0
  9
$USERI2
 70
     0
  9
$USERI3
 70
     0
  9
$USERI4
 70
     0
  9
$USERI5
 70
     0
  9
$USERR1
 40
0.0
  9
$USERR2
 40
0.0
  9
$USERR3
 40
0.0
  9
$USERR4
 40
0.0
  9
$USERR5
 40
0.0
  9
$WORLDVIEW
 70
     1
  9
$SHADEDGE
 70
     3
  9
$SHADEDIF
 70
    70
  9
$TILEMODE
 70
     1
  9
$MAXACTVP
 70
    64
  9
$PINSBASE
 10
0.0
 20
0.0
 30
0.0
  9
$PLIMCHECK
 70
     0
  9
$PEXTMIN
 10
1.0000000000E+20
 20
1.0000000000E+20
 30
1.0000000000E+20
  9
$PEXTMAX
 10
-1.0000000000E+20
 20
-1.0000000000E+20
 30
-1.0000000000E+20
  9
$PLIMMIN
 10
0.0
 20
0.0
  9
$PLIMMAX
 10
420.0
 20
297.0
  9
$UNITMODE
 70
     0
  9
$VISRETAIN
 70
     1
  9
$PLINEGEN
 70
     0
  9
$PSLTSCALE
 70
     1
  9
$TREEDEPTH
 70
  3020
  9
$CMLSTYLE
  2
Standard
  9
$CMLJUST
 70
     0
  9
$CMLSCALE
 40
20.0
  9
$PROXYGRAPHICS
 70
     1
  9
$MEASUREMENT
 70
     1
  9
$CELWEIGHT
370
    -1
  9
$ENDCAPS
280
     0
  9
$JOINSTYLE
280
     0
  9
$LWDISPLAY
290
     1
  9
$INSUNITS
 70
     4
  9
$HYPERLINKBASE
  1

  9
$STYLESHEET
  1

  9
$XEDIT
290
     1
  9
$CEPSNTYPE
380
     0
  9
$PSTYLEMODE
290
     1
  9
$FINGERPRINTGUID
  2
{399bd394-0e80-4bed-be57-e4234f825560}
  9
$VERSIONGUID
  2
{FAEB1C32-E019-11D5-929B-00C0DF256EC4}
  9
$EXTNAMES
290
     1
  9
$PSVPSCALE
 40
0.0
  9
$OLESTARTUP
290
     0
  0
ENDSEC
  0
SECTION
  2
CLASSES
  0
CLASS
  1
ACDBDICTIONARYWDFLT
  2
AcDbDictionaryWithDefault
  3
ObjectDBX Classes
 90
        0
280
     0
281
     0
  0
CLASS
  1
VISUALSTYLE
  2
AcDbVisualStyle
  3
ObjectDBX Classes
 90
     4095
280
     0
281
     0
  0
CLASS
  1
MATERIAL
  2
AcDbMaterial
  3
ObjectDBX Classes
 90
     1153
280
     0
281
     0
  0
CLASS
  1
SCALE
  2
AcDbScale
  3
ObjectDBX Classes
 90
     1153
280
     0
281
     0
  0
CLASS
  1
TABLESTYLE
  2
AcDbTableStyle
  3
ObjectDBX Classes
 90
     4095
280
     0
281
     0
  0
CLASS
  1
MLEADERSTYLE
  2
AcDbMLeaderStyle
  3
ACDB_MLEADERSTYLE_CLASS
 90
     4095
280
     0
281
     0
  0
CLASS
  1
SUN
  2
AcDbSun
  3
SCENEOE
 90
     1153
280
     0
281
     0
  0
CLASS
  1
ACDBPLACEHOLDER
  2
AcDbPlaceHolder
  3
ObjectDBX Classes
 90
        0
280
     0
281
     0
  0
CLASS
  1
LAYOUT
  2
AcDbLayout
  3
ObjectDBX Classes
 90
        0
280
     0
281
     0
  0
ENDSEC
  0
SECTION
  2
TABLES
  0
TABLE
  2
VPORT
  5
8
330
0
100
AcDbSymbolTable
 70
     1
  0
VPORT
  5
29
330
8
100
AcDbSymbolTableRecord
100
AcDbViewportTableRecord
  2
*Active
 70
     0
 10
0.0
 20
0.0
 11
1.0
 21
1.0
 12
210.0
 22
148.5
 13
0.0
 23
0.0
 14
10.0
 24
10.0
 15
10.0
 25
10.0
 16
0.0
 26
0.0
 36
1.0
 17
0.0
 27
0.0
 37
0.0
 40
297.0
 41
1.4141414141
 42
50.0
 43
0.0
 44
0.0
 50
0.0
 51
0.0
 71
     0
 72
  2000
 73
     1
 74
     3
 75
     0
 76
     0
 77
     0
 78
     0
281
     0
 65
     1
110
0.0
120
0.0
130
0.0
111
1.0
121
0.0
131
0.0
112
0.0
122
1.0
132
0.0
 79
     0
146
0.0
  0
ENDTAB
  0
TABLE
  2
LTYPE
  5
5
330
0
100
AcDbSymbolTable
 70
     6
  0
LTYPE
  5
14
330
5
100
AcDbSymbolTableRecord
100
AcDbLinetypeTableRecord
  2
ByBlock
 70
     0
  3

 72
    65
 73
     0
 40
0.0
  0
LTYPE
  5
15
330
5
100
AcDbSymbolTableRecord
100
AcDbLinetypeTableRecord
  2
ByLayer
 70
     0
  3

 72
    65
 73
     0
 40
0.0
  0
LTYPE
  5
16
330
5
100
AcDbSymbolTableRecord
100
AcDbLinetypeTableRecord
  2
Continuous
 70
     0
  3
Solid line
 72
    65
 73
     0
 40
0.0
  0
LTYPE
  5
6E
330
5
100
AcDbSymbolTableRecord
100
AcDbLinetypeTableRecord
  2
HIDDEN
 70
     0
  3
Hidden __ __ __ __ __ __ __ __ __ __ __ __ __ __
 72
    65
 73
     2
 40
1.905
 49
1.27
 74
     0
 49
-0.635
 74
     0
  0
LTYPE
  5
6F
330
5
100
AcDbSymbolTableRecord
100
AcDbLinetypeTableRecord
  2
PHANTOM
 70
     0
  3
Phantom ______  __  __  ______  __  __  ______
 72
    65
 73
     6
 40
12.7
 49
6.35
 74
     0
 49
-1.27
 74
     0
 49
1.27
 74
     0
 49
-1.27
 74
     0
 49
1.27
 74
     0
 49
-1.27
 74
     0
  0
LTYPE
  5
70
330
5
100
AcDbSymbolTableRecord
100
AcDbLinetypeTableRecord
  2
CENTER
 70
     0
  3
Center ____ _ ____ _ ____ _ ____ _ ____ _ ____
 72
    65
 73
     4
 40
10.16
 49
6.35
 74
     0
 49
-1.27
 74
     0
 49
1.27
 74
     0
 49
-1.27
 74
     0
  0
LTYPE
  5
71
330
5
100
AcDbSymbolTableRecord
100
AcDbLinetypeTableRecord
  2
CENTERX2
 70
     0
  3
Center (2x) ________  __  ________  __  _____
 72
    65
 73
     4
 40
20.32
 49
12.7
 74
     0
 49
-2.54
 74
     0
 49
2.54
 74
     0
 49
-2.54
 74
     0
  0
LTYPE
  5
72
330
5
100
AcDbSymbolTableRecord
100
AcDbLinetypeTableRecord
  2
DOT2
 70
     0
  3
Dot (.5x) ........................................
 72
    65
 73
     2
 40
0.635
 49
0.0
 74
     0
 49
-0.635
 74
     0
  0
ENDTAB
  0
TABLE
  2
LAYER
  5
2
330
0
100
AcDbSymbolTable
 70
     6
  0
LAYER
  5
10
330
2
100
AcDbSymbolTableRecord
100
AcDbLayerTableRecord
  2
0
 70
     0
 62
     7
  6
Continuous
370
    -3
390
F
  0
LAYER
  5
73
330
2
100
AcDbSymbolTableRecord
100
AcDbLayerTableRecord
  2
SLD-0
 70
     0
 62
     7
  6
Continuous
370
    -3
390
F
  0
LAYER
  5
74
330
2
100
AcDbSymbolTableRecord
100
AcDbLayerTableRecord
  2
8
 70
     0
 62
     7
  6
Continuous
370
    25
390
F
  0
LAYER
  5
75
330
2
100
AcDbSymbolTableRecord
100
AcDbLayerTableRecord
  2
9
 70
     0
 62
     7
  6
Continuous
370
    -3
390
F
  0
LAYER
  5
76
330
2
100
AcDbSymbolTableRecord
100
AcDbLayerTableRecord
  2
10
 70
     0
 62
     1
  6
Continuous
370
    -3
390
F
  0
LAYER
  5
77
330
2
100
AcDbSymbolTableRecord
100
AcDbLayerTableRecord
  2
11
 70
     0
 62
     7
  6
Continuous
370
    -3
390
F
  0
ENDTAB
  0
TABLE
  2
STYLE
  5
3
330
0
100
AcDbSymbolTable
 70
     2
  0
STYLE
  5
11
330
3
100
AcDbSymbolTableRecord
100
AcDbTextStyleTableRecord
  2
Standard
 70
     0
 40
0.0
 41
1.0
 50
0.0
 71
     0
 42
3.8805555556
  3
txt
  4
bigfont
  0
STYLE
  5
78
330
3
100
AcDbSymbolTableRecord
100
AcDbTextStyleTableRecord
  2
SLDTEXTSTYLE0
 70
     0
 40
0.0
 41
0.7
 50
0.0
 71
     0
 42
3.8805555556
  3
TXT
  4
bigfont
  0
ENDTAB
  0
TABLE
  2
VIEW
  5
6
330
0
100
AcDbSymbolTable
 70
     0
  0
ENDTAB
  0
TABLE
  2
UCS
  5
7
330
0
100
AcDbSymbolTable
 70
     0
  0
ENDTAB
  0
TABLE
  2
APPID
  5
9
330
0
100
AcDbSymbolTable
 70
     1
  0
APPID
  5
12
330
9
100
AcDbSymbolTableRecord
100
AcDbRegAppTableRecord
  2
ACAD
 70
     0
  0
ENDTAB
  0
TABLE
  2
DIMSTYLE
  5
A
330
0
100
AcDbSymbolTable
 70
     1
100
AcDbDimStyleTable
  0
DIMSTYLE
105
27
330
A
100
AcDbSymbolTableRecord
100
AcDbDimStyleTableRecord
  2
ISO-25
 70
     0
 41
2.5
 42
0.625
 43
3.75
 44
1.25
 73
     0
 74
     0
 77
     1
 78
     8
140
2.5
141
2.5
143
0.0393700787
147
0.625
171
     3
172
     1
178
     0
271
     2
272
     2
274
     3
278
    44
283
     0
284
     8
340
11
  0
ENDTAB
  0
TABLE
  2
BLOCK_RECORD
  5
1
330
0
100
AcDbSymbolTable
 70
     1
  0
BLOCK_RECORD
  5
1F
330
1
100
AcDbSymbolTableRecord
100
AcDbBlockTableRecord
  2
*Model_Space
340
22
  0
BLOCK_RECORD
  5
1B
330
1
100
AcDbSymbolTableRecord
100
AcDbBlockTableRecord
  2
*Paper_Space
340
1E
  0
BLOCK_RECORD
  5
23
330
1
100
AcDbSymbolTableRecord
100
AcDbBlockTableRecord
  2
*Paper_Space0
340
26
  0
ENDTAB
  0
ENDSEC
  0
SECTION
  2
BLOCKS
  0
BLOCK
  5
20
330
1F
100
AcDbEntity
  8
0
100
AcDbBlockBegin
  2
*Model_Space
 70
     0
 10
0.0
 20
0.0
 30
0.0
  3
*Model_Space
  1

  0
ENDBLK
  5
21
330
1F
100
AcDbEntity
  8
0
100
AcDbBlockEnd
  0
BLOCK
  5
1C
330
1B
100
AcDbEntity
 67
     1
  8
0
100
AcDbBlockBegin
  2
*Paper_Space
 70
     0
 10
0.0
 20
0.0
 30
0.0
  3
*Paper_Space
  1

  0
ENDBLK
  5
1D
330
1B
100
AcDbEntity
 67
     1
  8
0
100
AcDbBlockEnd
  0
BLOCK
  5
24
330
23
100
AcDbEntity
  8
0
100
AcDbBlockBegin
  2
*Paper_Space0
 70
     0
 10
0.0
 20
0.0
 30
0.0
  3
*Paper_Space0
  1

  0
ENDBLK
  5
25
330
23
100
AcDbEntity
  8
0
100
AcDbBlockEnd
  0
ENDSEC
  0
SECTION
  2
ENTITIES
  0
MTEXT
  5
79
330
1F
100
AcDbEntity
  8
9
 62
     7
100
AcDbMText
 10
22.9810592731
 20
14.7698939359
 30
0.0
 40
3.7041666667
 41
0.0
 71
     1
 72
     1
  1
2021/03/08
  7
SLDTEXTSTYLE0
 73
     1
 44
1.0
  0
MTEXT
  5
7A
330
1F
100
AcDbEntity
  8
9
 62
     7
100
AcDbMText
 10
22.9810592731
 20
39.3097759652
 30
0.0
 40
3.7041666667
 41
0.0
 71
     1
 72
     1
  1
12-8007
  7
SLDTEXTSTYLE0
 73
     1
 44
1.0
  0
MTEXT
  5
7B
330
1F
100
AcDbEntity
  8
9
 62
     7
100
AcDbMText
 10
22.9810592731
 20
22.271836236
 30
0.0
 40
3.7041666667
 41
0.0
 71
     1
 72
     1
  1
-
  7
SLDTEXTSTYLE0
 73
     1
 44
1.0
  0
MTEXT
  5
7C
330
1F
100
AcDbEntity
  8
9
 62
     7
100
AcDbMText
 10
22.9810592731
 20
30.9293045781
 30
0.0
 40
3.7041666667
 41
0.0
 71
     1
 72
     1
  1
1:1
  7
SLDTEXTSTYLE0
 73
     1
 44
1.0
  0
LINE
  5
7D
330
1F
100
AcDbEntity
  8
0
  6
Continuous
 62
     7
370
    35
100
AcDbLine
 10
270.1976526398
 20
155.7653580231
 30
0.0
 11
270.1976526398
 21
232.3237796119
 31
0.0
  0
LINE
  5
7E
330
1F
100
AcDbEntity
  8
0
  6
Continuous
 62
     7
370
    35
100
AcDbLine
 10
190.1976526398
 20
232.3237796119
 30
0.0
 11
190.1976526398
 21
155.7653580231
 31
0.0
  0
ARC
  5
7F
330
1F
100
AcDbEntity
  8
0
  6
Continuous
 62
     7
370
    35
100
AcDbCircle
 10
154.8096916365
 20
232.3237796119
 30
0.0
 40
115.3879610033131
100
AcDbArc
 50
0.0
 51
6.8161817707
  0
ARC
  5
80
330
1F
100
AcDbEntity
  8
0
  6
Continuous
 62
     7
370
    35
100
AcDbCircle
 10
305.5856136431
 20
232.3237796119
 30
0.0
 40
115.387961003313
100
AcDbArc
 50
176.1754094248
 51
180.0
  0
ARC
  5
81
330
1F
100
AcDbEntity
  8
0
  6
Continuous
 62
     7
370
    35
100
AcDbCircle
 10
231.3050373904
 20
241.4672094858
 30
0.0
 40
38.34809968554451
100
AcDbArc
 50
6.8161817708
 51
23.3426337043
  0
ARC
  5
82
330
1F
100
AcDbEntity
  8
0
  6
Continuous
 62
     7
370
    35
100
AcDbCircle
 10
229.0902678893
 20
241.4672094858
 30
0.0
 40
38.34809968554448
100
AcDbArc
 50
156.6573662957
 51
157.7432281181
  0
ARC
  5
83
330
1F
100
AcDbEntity
  8
0
  6
Continuous
 62
     7
370
    35
100
AcDbCircle
 10
248.1833450968
 20
248.7510504801
 30
0.0
 40
19.9651834135761
100
AcDbArc
 50
23.3426337043
 51
66.6573662957
  0
ARC
  5
84
330
1F
100
AcDbEntity
  8
0
  6
Continuous
 62
     7
370
    35
100
AcDbCircle
 10
212.2119601829
 20
248.7510504801
 30
0.0
 40
19.96518341357608
100
AcDbArc
 50
113.3426337043
 51
156.6573662957
  0
ARC
  5
85
330
1F
100
AcDbEntity
  8
0
  6
Continuous
 62
     7
370
    35
100
AcDbCircle
 10
240.8995041024
 20
231.8727427737
 30
0.0
 40
38.34809968554455
100
AcDbArc
 50
66.6573662957
 51
83.1838182293
  0
ARC
  5
86
330
1F
100
AcDbEntity
  8
0
  6
Continuous
 62
     7
370
    35
100
AcDbCircle
 10
219.4958011772
 20
231.8727427737
 30
0.0
 40
38.34809968554455
100
AcDbArc
 50
96.8161817707
 51
113.3426337043
  0
ARC
  5
87
330
1F
100
AcDbEntity
  8
0
  6
Continuous
 62
     7
370
    35
100
AcDbCircle
 10
231.7560742286
 20
155.3773970198
 30
0.0
 40
115.3879610033131
100
AcDbArc
 50
83.1838182293
 51
90.0
  0
ARC
  5
88
330
1F
100
AcDbEntity
  8
0
  6
Continuous
 62
     7
370
    35
100
AcDbCircle
 10
228.639231051
 20
155.3773970198
 30
0.0
 40
115.3879610033131
100
AcDbArc
 50
90.0
 51
96.8161817707
  0
LINE
  5
89
330
1F
100
AcDbEntity
  8
0
  6
Continuous
 62
     7
370
    35
100
AcDbLine
 10
250.1976526398
 20
119.7737796119
 30
0.0
 11
250.1976526398
 21
120.7737796119
 31
0.0
  0
LINE
  5
8A
330
1F
100
AcDbEntity
  8
0
  6
Continuous
 62
     7
370
    35
100
AcDbLine
 10
210.1976526398
 20
120.7737796119
 30
0.0
 11
210.1976526398
 21
119.7737796119
 31
0.0
  0
LINE
  5
8B
330
1F
100
AcDbEntity
  8
0
  6
Continuous
 62
     7
370
    35
100
AcDbLine
 10
185.0084482299
 20
259.3237796119
 30
0.0
 11
174.2292374355
 21
259.3237796119
 31
0.0
  0
LINE
  5
8C
330
1F
100
AcDbEntity
  8
0
  6
Continuous
 62
     7
370
    35
100
AcDbLine
 10
174.2292374355
 20
239.3237796119
 30
0.0
 11
185.0084482299
 21
239.3237796119
 31
0.0
  0
ARC
  5
8D
330
1F
100
AcDbEntity
  8
0
  6
Continuous
 62
     7
370
    35
100
AcDbCircle
 10
185.0084482299
 20
268.1707698628
 30
0.0
 40
28.84699025082818
100
AcDbArc
 50
270.0
 51
276.8161817707
  0
ARC
  5
8E
330
1F
100
AcDbEntity
  8
0
  6
Continuous
 62
     7
370
    35
100
AcDbCircle
 10
185.0084482299
 20
230.4767893611
 30
0.0
 40
28.84699025082818
100
AcDbArc
 50
83.1838182293
 51
90.0
  0
ARC
  5
8F
330
1F
100
AcDbEntity
  8
0
  6
Continuous
 62
     7
370
    35
100
AcDbCircle
 10
174.2292374355
 20
230.4767893611
 30
0.0
 40
28.84699025082818
100
AcDbArc
 50
90.0
 51
96.8161817707
  0
ARC
  5
90
330
1F
100
AcDbEntity
  8
0
  6
Continuous
 62
     7
370
    35
100
AcDbCircle
 10
174.2292374355
 20
268.1707698628
 30
0.0
 40
28.84699025082818
100
AcDbArc
 50
264.3073883335
 51
270.0
  0
ARC
  5
91
330
1F
100
AcDbEntity
  8
0
  6
Continuous
 62
     7
370
    35
100
AcDbCircle
 10
171.943379967
 20
249.6006257996
 30
0.0
 40
9.587024921386174
100
AcDbArc
 50
96.8161817707
 51
113.3426337043
  0
ARC
  5
92
330
1F
100
AcDbEntity
  8
0
  6
Continuous
 62
     7
370
    35
100
AcDbCircle
 10
187.2943056983
 20
249.0469334243
 30
0.0
 40
9.587024921386186
100
AcDbArc
 50
276.8161817707
 51
289.2272316686
  0
ARC
  5
93
330
1F
100
AcDbEntity
  8
0
  6
Continuous
 62
     7
370
    35
100
AcDbCircle
 10
187.2943056983
 20
249.6006257996
 30
0.0
 40
9.587024921386183
100
AcDbArc
 50
66.6573662957
 51
83.1838182293
  0
ARC
  5
94
330
1F
100
AcDbEntity
  8
0
  6
Continuous
 62
     7
370
    35
100
AcDbCircle
 10
189.1152659469
 20
253.8202027262
 30
0.0
 40
4.991295853393992
100
AcDbArc
 50
25.9350545757
 51
66.6573662957
  0
ARC
  5
95
330
1F
100
AcDbEntity
  8
0
  6
Continuous
 62
     7
370
    35
100
AcDbCircle
 10
170.1224197185
 20
253.8202027262
 30
0.0
 40
4.991295853393996
100
AcDbArc
 50
113.3426337043
 51
156.6573662957
  0
ARC
  5
96
330
1F
100
AcDbEntity
  8
0
  6
Continuous
 62
     7
370
    35
100
AcDbCircle
 10
170.1224197185
 20
244.8273564977
 30
0.0
 40
4.991295853394018
100
AcDbArc
 50
203.3426337043
 51
243.2603681268
  0
ARC
  5
97
330
1F
100
AcDbEntity
  8
0
  6
Continuous
 62
     7
370
    35
100
AcDbCircle
 10
174.341996645
 20
251.9992424776
 30
0.0
 40
9.587024921386181
100
AcDbArc
 50
156.6573662957
 51
173.1838182293
  0
ARC
  5
98
330
1F
100
AcDbEntity
  8
0
  6
Continuous
 62
     7
370
    35
100
AcDbCircle
 10
174.341996645
 20
246.6483167463
 30
0.0
 40
9.587024921386181
100
AcDbArc
 50
186.8161817707
 51
203.3426337043
  0
ARC
  5
99
330
1F
100
AcDbEntity
  8
0
  6
Continuous
 62
     7
370
    35
100
AcDbCircle
 10
193.4658330835
 20
249.7133850091
 30
0.0
 40
28.84699025082818
100
AcDbArc
 50
173.1838182293
 51
180.0
  0
ARC
  5
9A
330
1F
100
AcDbEntity
  8
0
  6
Continuous
 62
     7
370
    35
100
AcDbCircle
 10
193.4658330835
 20
248.9341742147
 30
0.0
 40
28.84699025082817
100
AcDbArc
 50
180.0
 51
186.8161817707
  0
ARC
  5
9B
330
1F
100
AcDbEntity
  8
0
  6
Continuous
 62
     7
370
    35
100
AcDbCircle
 10
302.7585651055
 20
155.7737988327
 30
0.0
 40
111.0609124656892
100
AcDbArc
 50
180.0
 51
186.8161817707
  0
ARC
  5
9C
330
1F
100
AcDbEntity
  8
0
  6
Continuous
 62
     7
370
    35
100
AcDbCircle
 10
157.6367401741
 20
155.7737988327
 30
0.0
 40
111.0609124656893
100
AcDbArc
 50
353.1838182293
 51
0.0
  0
ARC
  5
9D
330
1F
100
AcDbEntity
  8
0
  6
Continuous
 62
     7
370
    35
100
AcDbCircle
 10
229.1317948174
 20
146.9732475792
 30
0.0
 40
36.91004594733656
100
AcDbArc
 50
186.8161817707
 51
203.3426337043
  0
ARC
  5
9E
330
1F
100
AcDbEntity
  8
0
  6
Continuous
 62
     7
370
    35
100
AcDbCircle
 10
231.2635104622
 20
146.9732475792
 30
0.0
 40
36.91004594733658
100
AcDbArc
 50
336.6573662957
 51
353.1838182293
  0
ARC
  5
9F
330
1F
100
AcDbEntity
  8
0
  6
Continuous
 62
     7
370
    35
100
AcDbCircle
 10
212.88642365
 20
139.9625506221
 30
0.0
 40
19.21648903556699
100
AcDbArc
 50
203.3426337043
 51
246.6573662957
  0
ARC
  5
A0
330
1F
100
AcDbEntity
  8
0
  6
Continuous
 62
     7
370
    35
100
AcDbCircle
 10
247.5088816296
 20
139.9625506221
 30
0.0
 40
19.21648903556702
100
AcDbArc
 50
293.3426337043
 51
336.6573662957
  0
ARC
  5
A1
330
1F
100
AcDbEntity
  8
0
  6
Continuous
 62
     7
370
    35
100
AcDbCircle
 10
219.897120607
 20
156.2079217895
 30
0.0
 40
36.91004594733656
100
AcDbArc
 50
246.6573662957
 51
253.7425567893
  0
ARC
  5
A2
330
1F
100
AcDbEntity
  8
0
  6
Continuous
 62
     7
370
    35
100
AcDbCircle
 10
240.4981846726
 20
156.2079217895
 30
0.0
 40
36.91004594733657
100
AcDbArc
 50
286.2574432107
 51
293.3426337043
  0
LINE
  5
A3
330
1F
100
AcDbEntity
  8
0
  6
Continuous
 62
     7
370
    35
100
AcDbLine
 10
190.1976526398
 20
155.7653580231
 30
0.0
 11
270.1976526398
 21
155.7653580231
 31
0.0
  0
SPLINE
  5
A4
330
1F
100
AcDbEntity
  8
0
  6
Continuous
 62
     7
370
    35
100
AcDbSpline
210
0.0
220
0.0
230
1.0
 70
     8
 71
     3
 72
    14
 73
    10
 74
     0
 42
0.00000001
 43
0.00000001
 40
0.0
 40
0.0
 40
0.0
 40
0.0
 40
0.25
 40
0.25
 40
0.5
 40
0.5
 40
0.75
 40
0.75
 40
1.0
 40
1.0
 40
1.0
 40
1.0
 10
191.8431192584269
 20
246.0185307663551
 30
0.0
 10
191.7823002718855
 20
245.6834279296008
 30
0.0
 10
191.7201966026279
 20
245.3560939595326
 30
0.0
 10
191.5939730989614
 20
244.7172706895359
 30
0.0
 10
191.5298384264045
 20
244.4058015161571
 30
0.0
 10
191.4022879582267
 20
243.806938926499
 30
0.0
 10
191.3384074798721
 20
243.5175929755662
 30
0.0
 10
191.2132776669468
 20
242.9673777420545
 30
0.0
 10
191.1520009525695
 20
242.7062977004593
 30
0.0
 10
191.0925805605582
 20
242.4593519400358
 30
0.0
  0
SPLINE
  5
A5
330
1F
100
AcDbEntity
  8
0
  6
Continuous
 62
     7
370
    35
100
AcDbSpline
210
0.0
220
0.0
230
1.0
 70
     8
 71
     3
 72
    12
 73
     8
 74
     0
 42
0.00000001
 43
0.00000001
 40
0.0
 40
0.0
 40
0.0
 40
0.0
 40
0.2128946068570372
 40
0.4320234869240686
 40
0.6449662312059751
 40
0.8645606966713048
 40
1.0
 40
1.0
 40
1.0
 40
1.0
 10
191.0925805605582
 20
242.4593519400358
 30
0.0
 10
191.0157263504612
 20
242.1459543154524
 30
0.0
 10
190.8597673793953
 20
241.5099817252346
 30
0.0
 10
190.6711372459044
 20
240.7936339416135
 30
0.0
 10
190.5335163017964
 20
240.2850922271815
 30
0.0
 10
190.4594986447382
 20
240.0188469495408
 30
0.0
 10
190.4597456950132
 20
240.0197063191999
 30
0.0
 10
190.4598399404627
 20
240.0200341540093
 30
0.0
  0
SPLINE
  5
A6
330
1F
100
AcDbEntity
  8
0
  6
Continuous
 62
     7
370
    35
100
AcDbSpline
210
0.0
220
0.0
230
1.0
 70
     8
 71
     3
 72
    18
 73
    14
 74
     0
 42
0.00000001
 43
0.00000001
 40
0.0
 40
0.0
 40
0.0
 40
0.0
 40
0.0854448735012686
 40
0.1830445181071528
 40
0.2836139118325787
 40
0.3786989278096942
 40
0.4768425136170325
 40
0.5671257483233693
 40
0.6602080119711893
 40
0.7476866363794034
 40
0.8377355567357915
 40
0.9179051268098802
 40
0.9999999999999999
 40
0.9999999999999999
 40
0.9999999999999999
 40
0.9999999999999999
 10
193.6016236775873
 20
255.9900723469323
 30
0.0
 10
193.5995344304124
 20
255.977435210033
 30
0.0
 10
193.5950587348364
 20
255.9503632683332
 30
0.0
 10
193.5395565690979
 20
255.6149594006766
 30
0.0
 10
193.4448515436601
 20
255.0515325403835
 30
0.0
 10
193.3095306115493
 20
254.2567978583775
 30
0.0
 10
193.1431464834491
 20
253.2945310195903
 30
0.0
 10
192.9476326247986
 20
252.1768904626658
 30
0.0
 10
192.735596800648
 20
250.9789588680445
 30
0.0
 10
192.5072496982505
 20
249.698639628635
 30
0.0
 10
192.2804200005565
 20
248.4360568115578
 30
0.0
 10
192.055621826325
 20
247.1900893085062
 30
0.0
 10
191.914511549163
 20
246.4121271773711
 30
0.0
 10
191.8431192584283
 20
246.0185307663677
 30
0.0
  0
SPLINE
  5
A7
330
1F
100
AcDbEntity
  8
0
  6
Continuous
 62
     7
370
    35
100
AcDbSpline
210
0.0
220
0.0
230
1.0
 70
    24
 71
     3
 72
    10
 73
     6
 74
     0
 42
0.00000001
 43
0.00000001
 40
0.0
 40
0.0
 40
0.0
 40
0.0
 40
0.4999999999999999
 40
0.4999999999999999
 40
0.9999999999999999
 40
0.9999999999999999
 40
0.9999999999999999
 40
0.9999999999999999
 10
231.7560742286117
 20
270.7653580231431
 30
0.0
 10
231.7560742286117
 20
270.7653580231431
 30
0.0
 10
231.0577689064547
 20
270.7653580231431
 30
0.0
 10
229.3375363731674
 20
270.7653580231431
 30
0.0
 10
228.6392310510164
 20
270.7653580231431
 30
0.0
 10
228.6392310510237
 20
270.7653580231431
 30
0.0
  0
LINE
  5
A8
330
1F
100
AcDbEntity
  8
0
  6
Continuous
 62
     7
370
    35
100
AcDbLine
 10
210.1976526398
 20
119.7737796119
 30
0.0
 11
250.1976526398
 21
119.7737796119
 31
0.0
  0
SPLINE
  5
A9
330
1F
100
AcDbEntity
  8
0
  6
Continuous
 62
     7
370
    35
100
AcDbSpline
210
0.0
220
0.0
230
1.0
 70
     8
 71
     3
 72
    12
 73
     8
 74
     0
 42
0.00000001
 43
0.00000001
 40
0.0
 40
0.0
 40
0.0
 40
0.0
 40
0.2007576076191353
 40
0.4071969692437391
 40
0.6080005721517346
 40
0.8148984521887481
 40
1.0
 40
1.0
 40
1.0
 40
1.0
 10
170.805549646883
 20
239.6124692044387
 30
0.0
 10
170.8728518552091
 20
239.5958613798167
 30
0.0
 10
171.0093610295252
 20
239.5621757031839
 30
0.0
 10
171.1673261287947
 20
239.5207318669742
 30
0.0
 10
171.2849870671186
 20
239.4890800688805
 30
0.0
 10
171.3564637787881
 20
239.4693803933332
 30
0.0
 10
171.3640381941155
 20
239.4672773650239
 30
0.0
 10
171.367614821787
 20
239.4662843181787
 30
0.0
  0
SPLINE
  5
AA
330
1F
100
AcDbEntity
  8
0
  6
Continuous
 62
     7
370
    35
100
AcDbSpline
210
0.0
220
0.0
230
1.0
 70
     8
 71
     3
 72
    11
 73
     7
 74
     0
 42
0.00000001
 43
0.00000001
 40
0.0
 40
0.0
 40
0.0
 40
0.0
 40
0.1396060326211838
 40
0.4266948511003603
 40
0.7095117406992245
 40
1.0
 40
1.0
 40
1.0
 40
1.0
 10
171.3063539525671
 20
239.4831109495794
 30
0.0
 10
171.2955661733331
 20
239.4860730089317
 30
0.0
 10
171.2625941751498
 20
239.4951263102149
 30
0.0
 10
171.1600598090425
 20
239.5226567246129
 30
0.0
 10
171.0064238449556
 20
239.5628939774336
 30
0.0
 10
170.8731023690763
 20
239.5957973691822
 30
0.0
 10
170.805549646883
 20
239.6124692044387
 30
0.0
  0
SPLINE
  5
AB
330
1F
100
AcDbEntity
  8
0
  6
Continuous
 62
     7
370
    35
100
AcDbSpline
210
0.0
220
0.0
230
1.0
 70
     8
 71
     3
 72
    20
 73
    16
 74
     0
 42
0.00000001
 43
0.00000001
 40
0.0
 40
0.0
 40
0.0
 40
0.0
 40
0.1250000000000001
 40
0.1250000000000001
 40
0.2500000000000001
 40
0.2500000000000001
 40
0.4999999999999999
 40
0.4999999999999999
 40
0.6249999999999998
 40
0.6249999999999998
 40
0.7499999999999999
 40
0.7499999999999999
 40
0.8749999999999999
 40
0.8749999999999999
 40
1.0
 40
1.0
 40
1.0
 40
1.0
 10
168.1447245141704
 20
240.2937063510994
 30
0.0
 10
168.2150692550185
 20
240.2746673841895
 30
0.0
 10
168.2959528574412
 20
240.2528660533184
 30
0.0
 10
168.477550780127
 20
240.2042454332732
 30
0.0
 10
168.5795577554091
 20
240.1770862807604
 30
0.0
 10
168.9026119423114
 20
240.0917200975866
 30
0.0
 10
169.1478895054922
 20
240.0277617541248
 30
0.0
 10
169.5230175831344
 20
239.9315455700541
 30
0.0
 10
169.6515966779055
 20
239.8988198588621
 30
0.0
 10
169.903782169488
 20
239.8351192594846
 30
0.0
 10
170.0274946482841
 20
239.8041096144774
 30
0.0
 10
170.2700681549846
 20
239.7437246401742
 30
0.0
 10
170.3880761741694
 20
239.7145668752569
 30
0.0
 10
170.6073310095321
 20
239.6607148976804
 30
0.0
 10
170.7101202806903
 20
239.6356367245125
 30
0.0
 10
170.805549646883
 20
239.6124692044387
 30
0.0
  0
SPLINE
  5
AC
330
1F
100
AcDbEntity
  8
0
  6
Continuous
 62
     7
370
    35
100
AcDbSpline
210
0.0
220
0.0
230
1.0
 70
     8
 71
     3
 72
    11
 73
     7
 74
     0
 42
0.00000001
 43
0.00000001
 40
0.0
 40
0.0
 40
0.0
 40
0.0
 40
0.1556073112886488
 40
0.4345183279311757
 40
0.7213620660315654
 40
1.0
 40
1.0
 40
1.0
 40
1.0
 10
167.8749685111774
 20
240.371871784666
 30
0.0
 10
167.8739045748563
 20
240.3721989172257
 30
0.0
 10
167.8709336358471
 20
240.3731124031777
 30
0.0
 10
167.9176724322626
 20
240.3587200159763
 30
0.0
 10
168.0048723712668
 20
240.3324532806343
 30
0.0
 10
168.0985603072487
 20
240.3064964395135
 30
0.0
 10
168.1447245141704
 20
240.2937063510994
 30
0.0
  0
SPLINE
  5
AD
330
1F
100
AcDbEntity
  8
0
  6
Continuous
 62
     7
370
    35
100
AcDbSpline
210
0.0
220
0.0
230
1.0
 70
    24
 71
     3
 72
    10
 73
     6
 74
     0
 42
0.00000001
 43
0.00000001
 40
0.0
 40
0.0
 40
0.0
 40
0.0
 40
0.5
 40
0.5
 40
1.0
 40
1.0
 40
1.0
 40
1.0
 10
164.6188428326861
 20
248.9341742147351
 30
0.0
 10
164.6188428326861
 20
248.9341742147351
 30
0.0
 10
164.6188428326861
 20
249.1087505452729
 30
0.0
 10
164.6188428326861
 20
249.5388086785947
 30
0.0
 10
164.6188428326861
 20
249.7133850091323
 30
0.0
 10
164.6188428326861
 20
249.7133850091321
 30
0.0
  0
LINE
  5
AE
330
1F
100
AcDbEntity
  8
0
  6
Continuous
 62
     7
370
    35
100
AcDbLine
 10
230.1976526398
 20
120.7737796119
 30
0.0
 11
250.8312897225
 21
120.7737796119
 31
0.0
  0
LINE
  5
AF
330
1F
100
AcDbEntity
  8
0
  6
Continuous
 62
     7
370
    35
100
AcDbLine
 10
209.5640155571
 20
120.7737796119
 30
0.0
 11
230.1976526398
 21
120.7737796119
 31
0.0
  0
LINE
  5
B0
330
1F
100
AcDbEntity
  8
0
  6
Continuous
 62
     7
370
    35
100
AcDbLine
 10
128.0143185313
 20
155.7653580231
 30
0.0
 11
128.0143185313
 21
232.3237796119
 31
0.0
  0
LINE
  5
B1
330
1F
100
AcDbEntity
  8
0
  6
Continuous
 62
     7
370
    35
100
AcDbLine
 10
48.0143185313
 20
232.3237796119
 30
0.0
 11
48.0143185313
 21
155.7653580231
 31
0.0
  0
ARC
  5
B2
330
1F
100
AcDbEntity
  8
0
  6
Continuous
 62
     7
370
    35
100
AcDbCircle
 10
12.626357528
 20
232.3237796119
 30
0.0
 40
115.3879610033131
100
AcDbArc
 50
0.0
 51
6.8161817707
  0
ARC
  5
B3
330
1F
100
AcDbEntity
  8
0
  6
Continuous
 62
     7
370
    35
100
AcDbCircle
 10
163.4022795346
 20
232.3237796119
 30
0.0
 40
115.3879610033131
100
AcDbArc
 50
173.1838182293
 51
180.0
  0
ARC
  5
B4
330
1F
100
AcDbEntity
  8
0
  6
Continuous
 62
     7
370
    35
100
AcDbCircle
 10
89.1217032819
 20
241.4672094858
 30
0.0
 40
38.34809968554448
100
AcDbArc
 50
6.8161817708
 51
23.3426337043
  0
ARC
  5
B5
330
1F
100
AcDbEntity
  8
0
  6
Continuous
 62
     7
370
    35
100
AcDbCircle
 10
86.9069337808
 20
241.4672094858
 30
0.0
 40
38.34809968554448
100
AcDbArc
 50
156.6573662957
 51
173.1838182292
  0
ARC
  5
B6
330
1F
100
AcDbEntity
  8
0
  6
Continuous
 62
     7
370
    35
100
AcDbCircle
 10
106.0000109883
 20
248.7510504801
 30
0.0
 40
19.96518341357607
100
AcDbArc
 50
23.3426337043
 51
66.6573662957
  0
ARC
  5
B7
330
1F
100
AcDbEntity
  8
0
  6
Continuous
 62
     7
370
    35
100
AcDbCircle
 10
70.0286260744
 20
248.7510504801
 30
0.0
 40
19.96518341357608
100
AcDbArc
 50
113.3426337043
 51
156.6573662957
  0
ARC
  5
B8
330
1F
100
AcDbEntity
  8
0
  6
Continuous
 62
     7
370
    35
100
AcDbCircle
 10
98.7161699939
 20
231.8727427737
 30
0.0
 40
38.34809968554455
100
AcDbArc
 50
66.6573662957
 51
83.1838182293
  0
ARC
  5
B9
330
1F
100
AcDbEntity
  8
0
  6
Continuous
 62
     7
370
    35
100
AcDbCircle
 10
77.3124670687
 20
231.8727427737
 30
0.0
 40
38.34809968554455
100
AcDbArc
 50
96.8161817707
 51
113.3426337043
  0
ARC
  5
BA
330
1F
100
AcDbEntity
  8
0
  6
Continuous
 62
     7
370
    35
100
AcDbCircle
 10
89.5727401201
 20
155.3773970198
 30
0.0
 40
115.3879610033131
100
AcDbArc
 50
83.1838182293
 51
90.0
  0
ARC
  5
BB
330
1F
100
AcDbEntity
  8
0
  6
Continuous
 62
     7
370
    35
100
AcDbCircle
 10
86.4558969425
 20
155.3773970198
 30
0.0
 40
115.3879610033131
100
AcDbArc
 50
90.0
 51
96.8161817707
  0
LINE
  5
BC
330
1F
100
AcDbEntity
  8
0
  6
Continuous
 62
     7
370
    35
100
AcDbLine
 10
108.0143185313
 20
119.7737796119
 30
0.0
 11
108.0143185313
 21
120.7737796119
 31
0.0
  0
LINE
  5
BD
330
1F
100
AcDbEntity
  8
0
  6
Continuous
 62
     7
370
    35
100
AcDbLine
 10
68.0143185313
 20
120.7737796119
 30
0.0
 11
68.0143185313
 21
119.7737796119
 31
0.0
  0
ARC
  5
BE
330
1F
100
AcDbEntity
  8
0
  6
Continuous
 62
     7
370
    35
100
AcDbCircle
 10
160.575230997
 20
155.7737988327
 30
0.0
 40
111.0609124656892
100
AcDbArc
 50
180.0
 51
186.8161817707
  0
ARC
  5
BF
330
1F
100
AcDbEntity
  8
0
  6
Continuous
 62
     7
370
    35
100
AcDbCircle
 10
15.4534060656
 20
155.7737988327
 30
0.0
 40
111.0609124656892
100
AcDbArc
 50
353.1838182293
 51
0.0
  0
ARC
  5
C0
330
1F
100
AcDbEntity
  8
0
  6
Continuous
 62
     7
370
    35
100
AcDbCircle
 10
86.9484607089
 20
146.9732475792
 30
0.0
 40
36.91004594733656
100
AcDbArc
 50
186.8161817707
 51
203.3426337043
  0
ARC
  5
C1
330
1F
100
AcDbEntity
  8
0
  6
Continuous
 62
     7
370
    35
100
AcDbCircle
 10
89.0801763537
 20
146.9732475792
 30
0.0
 40
36.91004594733654
100
AcDbArc
 50
336.6573662957
 51
353.1838182293
  0
ARC
  5
C2
330
1F
100
AcDbEntity
  8
0
  6
Continuous
 62
     7
370
    35
100
AcDbCircle
 10
70.7030895415
 20
139.9625506221
 30
0.0
 40
19.21648903556697
100
AcDbArc
 50
203.3426337043
 51
246.6573662957
  0
ARC
  5
C3
330
1F
100
AcDbEntity
  8
0
  6
Continuous
 62
     7
370
    35
100
AcDbCircle
 10
105.3255475211
 20
139.9625506221
 30
0.0
 40
19.21648903556698
100
AcDbArc
 50
293.3426337043
 51
336.6573662957
  0
ARC
  5
C4
330
1F
100
AcDbEntity
  8
0
  6
Continuous
 62
     7
370
    35
100
AcDbCircle
 10
77.7137864985
 20
156.2079217895
 30
0.0
 40
36.91004594733658
100
AcDbArc
 50
246.6573662957
 51
253.7425567893
  0
ARC
  5
C5
330
1F
100
AcDbEntity
  8
0
  6
Continuous
 62
     7
370
    35
100
AcDbCircle
 10
98.3148505641
 20
156.2079217895
 30
0.0
 40
36.91004594733657
100
AcDbArc
 50
286.2574432107
 51
293.3426337043
  0
LINE
  5
C6
330
1F
100
AcDbEntity
  8
0
  6
Continuous
 62
     7
370
    35
100
AcDbLine
 10
48.0143185313
 20
155.7653580231
 30
0.0
 11
128.0143185313
 21
155.7653580231
 31
0.0
  0
LINE
  5
C7
330
1F
100
AcDbEntity
  8
0
  6
Continuous
 62
     7
370
    35
100
AcDbLine
 10
89.5727401201
 20
270.7653580231
 30
0.0
 11
86.4558969425
 21
270.7653580231
 31
0.0
  0
LINE
  5
C8
330
1F
100
AcDbEntity
  8
0
  6
Continuous
 62
     7
370
    35
100
AcDbLine
 10
68.0143185313
 20
119.7737796119
 30
0.0
 11
108.0143185313
 21
119.7737796119
 31
0.0
  0
SPLINE
  5
C9
330
1F
100
AcDbEntity
  8
0
  6
Continuous
 62
     7
370
    35
100
AcDbSpline
210
0.0
220
0.0
230
1.0
 70
     8
 71
     3
 72
    14
 73
    10
 74
     0
 42
0.00000001
 43
0.00000001
 40
0.0
 40
0.0
 40
0.0
 40
0.0
 40
0.25
 40
0.25
 40
0.5
 40
0.5
 40
0.75
 40
0.75
 40
1.0
 40
1.0
 40
1.0
 40
1.0
 10
87.07119861157723
 20
240.2937063510994
 30
0.0
 10
87.21128565699838
 20
240.3179637536485
 30
0.0
 10
87.36105427043081
 20
240.3380172217245
 30
0.0
 10
87.68035430750452
 20
240.3661617686198
 30
0.0
 10
87.84652569805644
 20
240.3737224974201
 30
0.0
 10
88.17885004766951
 20
240.3738186421938
 30
0.0
 10
88.3465978333333
 20
240.3662333076774
 30
0.0
 10
88.663957154677
 20
240.3384125018628
 30
0.0
 10
88.81732910048807
 20
240.3179676159978
 30
0.0
 10
88.95743845106372
 20
240.2937063510994
 30
0.0
  0
SPLINE
  5
CA
330
1F
100
AcDbEntity
  8
0
  6
Continuous
 62
     7
370
    35
100
AcDbSpline
210
0.0
220
0.0
230
1.0
 70
     8
 71
     3
 72
    20
 73
    16
 74
     0
 42
0.00000001
 43
0.00000001
 40
0.0
 40
0.0
 40
0.0
 40
0.0
 40
0.1250000000000001
 40
0.1250000000000001
 40
0.2500000000000001
 40
0.2500000000000001
 40
0.4999999999999999
 40
0.4999999999999999
 40
0.6249999999999998
 40
0.6249999999999998
 40
0.7499999999999999
 40
0.7499999999999999
 40
0.8749999999999999
 40
0.8749999999999999
 40
1.0
 40
1.0
 40
1.0
 40
1.0
 10
88.95743845106372
 20
240.2937063510994
 30
0.0
 10
89.06738891327396
 20
240.2746673841895
 30
0.0
 10
89.16705877594607
 20
240.2528660533184
 30
0.0
 10
89.34709773619596
 20
240.2042454332732
 30
0.0
 10
89.42802580451622
 20
240.1770862807604
 30
0.0
 10
89.63117975486956
 20
240.0917200975866
 30
0.0
 10
89.71850691114517
 20
240.0277617541248
 30
0.0
 10
89.76623356611225
 20
239.9315455700541
 30
0.0
 10
89.76858722538887
 20
239.8988198588621
 30
0.0
 10
89.74560159301431
 20
239.8351192594846
 30
0.0
 10
89.72068875174739
 20
239.8041096144774
 30
0.0
 10
89.64361323000104
 20
239.7437246401742
 30
0.0
 10
89.59129401413031
 20
239.7145668752569
 30
0.0
 10
89.46396080832143
 20
239.6607148976804
 30
0.0
 10
89.38853578011681
 20
239.6356367245125
 30
0.0
 10
89.30048606983887
 20
239.6124692044387
 30
0.0
  0
SPLINE
  5
CB
330
1F
100
AcDbEntity
  8
0
  6
Continuous
 62
     7
370
    35
100
AcDbSpline
210
0.0
220
0.0
230
1.0
 70
     8
 71
     3
 72
    20
 73
    16
 74
     0
 42
0.00000001
 43
0.00000001
 40
0.0
 40
0.0
 40
0.0
 40
0.0
 40
0.125
 40
0.125
 40
0.25
 40
0.25
 40
0.375
 40
0.375
 40
0.5
 40
0.5
 40
0.75
 40
0.75
 40
0.875
 40
0.875
 40
1.0
 40
1.0
 40
1.0
 40
1.0
 10
89.30048606983887
 20
239.6124692044387
 30
0.0
 10
89.21884565951075
 20
239.5909880906549
 30
0.0
 10
89.12940534352414
 20
239.5711297609711
 30
0.0
 10
88.93522843990058
 20
239.5353782987259
 30
0.0
 10
88.82909782897853
 20
239.5193452485688
 30
0.0
 10
88.60876180171196
 20
239.4933420622215
 30
0.0
 10
88.49444987348053
 20
239.483251212928
 30
0.0
 10
88.25732880732743
 20
239.4694851672751
 30
0.0
 10
88.13518186594843
 20
239.4659500340034
 30
0.0
 10
87.7734331949774
 20
239.4659339658712
 30
0.0
 10
87.53031641449653
 20
239.4803203639868
 30
0.0
 10
87.19984115781271
 20
239.5193035638214
 30
0.0
 10
87.09364527377765
 20
239.5353380190254
 30
0.0
 10
86.89927483526517
 20
239.5711185352332
 30
0.0
 10
86.80979448168762
 20
239.590987280629
 30
0.0
 10
86.72815099280209
 20
239.6124692044387
 30
0.0
  0
SPLINE
  5
CC
330
1F
100
AcDbEntity
  8
0
  6
Continuous
 62
     7
370
    35
100
AcDbSpline
210
0.0
220
0.0
230
1.0
 70
     8
 71
     3
 72
    20
 73
    16
 74
     0
 42
0.00000001
 43
0.00000001
 40
0.0
 40
0.0
 40
0.0
 40
0.0
 40
0.1250000000000039
 40
0.1250000000000039
 40
0.2500000000000078
 40
0.2500000000000078
 40
0.5000000000000097
 40
0.5000000000000097
 40
0.6250000000000072
 40
0.6250000000000072
 40
0.7500000000000048
 40
0.7500000000000048
 40
0.8750000000000024
 40
0.8750000000000024
 40
1.0
 40
1.0
 40
1.0
 40
1.0
 10
86.72815099280209
 20
239.6124692044387
 30
0.0
 10
86.64011111501263
 20
239.6356341374015
 30
0.0
 10
86.56451174547736
 20
239.6607577552373
 30
0.0
 10
86.4367696924709
 20
239.7148362314923
 30
0.0
 10
86.38437243288568
 20
239.7441493395635
 30
0.0
 10
86.26942610980964
 20
239.8344626382572
 30
0.0
 10
86.24649024028973
 20
239.8998282535967
 30
0.0
 10
86.29446203864022
 20
239.9959919436354
 30
0.0
 10
86.32440119523204
 20
240.0282894777813
 30
0.0
 10
86.4102224927604
 20
240.0905290976256
 30
0.0
 10
86.4655592511582
 20
240.12037496621
 30
0.0
 10
86.60138914211836
 20
240.1773746907197
 30
0.0
 10
86.68222628460992
 20
240.2044473668746
 30
0.0
 10
86.86175177841763
 20
240.252896410576
 30
0.0
 10
86.96124258003792
 20
240.2746664198072
 30
0.0
 10
87.07119861157723
 20
240.2937063510994
 30
0.0
  0
CIRCLE
  5
CD
330
1F
100
AcDbEntity
  8
0
  6
Continuous
 62
     7
370
    35
100
AcDbCircle
 10
88.0143185313
 20
249.3237796119
 30
0.0
 40
10.00000000000003
  0
LINE
  5
CE
330
1F
100
AcDbEntity
  8
0
  6
Continuous
 62
     7
370
    35
100
AcDbLine
 10
67.3806814486
 20
120.7737796119
 30
0.0
 11
108.647955614
 21
120.7737796119
 31
0.0
  0
LINE
  5
CF
330
1F
100
AcDbEntity
  8
0
  6
Continuous
 62
     7
370
    35
100
AcDbLine
 10
-27.0537216501
 20
155.7653580231
 30
0.0
 11
-27.0537216501
 21
232.3237796119
 31
0.0
  0
LINE
  5
D0
330
1F
100
AcDbEntity
  8
0
  6
Continuous
 62
     7
370
    35
100
AcDbLine
 10
-107.0537216501
 20
232.3237796119
 30
0.0
 11
-107.0537216501
 21
155.7653580231
 31
0.0
  0
ARC
  5
D1
330
1F
100
AcDbEntity
  8
0
  6
Continuous
 62
     7
370
    35
100
AcDbCircle
 10
-142.4416826534
 20
232.3237796119
 30
0.0
 40
115.3879610033131
100
AcDbArc
 50
0.0
 51
3.824475834
  0
ARC
  5
D2
330
1F
100
AcDbEntity
  8
0
  6
Continuous
 62
     7
370
    35
100
AcDbCircle
 10
8.3342393533
 20
232.3237796119
 30
0.0
 40
115.3879610033131
100
AcDbArc
 50
173.1838182293
 51
180.0
  0
ARC
  5
D3
330
1F
100
AcDbEntity
  8
0
  6
Continuous
 62
     7
370
    35
100
AcDbCircle
 10
-65.9463368995
 20
241.4672094858
 30
0.0
 40
38.34809968554449
100
AcDbArc
 50
22.2557825473
 51
23.3426337043
  0
ARC
  5
D4
330
1F
100
AcDbEntity
  8
0
  6
Continuous
 62
     7
370
    35
100
AcDbCircle
 10
-68.1611064006
 20
241.4672094858
 30
0.0
 40
38.34809968554448
100
AcDbArc
 50
156.6573662957
 51
173.1838182292
  0
ARC
  5
D5
330
1F
100
AcDbEntity
  8
0
  6
Continuous
 62
     7
370
    35
100
AcDbCircle
 10
-49.0680291931
 20
248.7510504801
 30
0.0
 40
19.96518341357608
100
AcDbArc
 50
23.3426337043
 51
66.6573662957
  0
ARC
  5
D6
330
1F
100
AcDbEntity
  8
0
  6
Continuous
 62
     7
370
    35
100
AcDbCircle
 10
-85.039414107
 20
248.7510504801
 30
0.0
 40
19.96518341357608
100
AcDbArc
 50
113.3426337043
 51
156.6573662957
  0
ARC
  5
D7
330
1F
100
AcDbEntity
  8
0
  6
Continuous
 62
     7
370
    35
100
AcDbCircle
 10
-56.3518701874
 20
231.8727427737
 30
0.0
 40
38.34809968554455
100
AcDbArc
 50
66.6573662957
 51
83.1838182293
  0
ARC
  5
D8
330
1F
100
AcDbEntity
  8
0
  6
Continuous
 62
     7
370
    35
100
AcDbCircle
 10
-77.7555731127
 20
231.8727427737
 30
0.0
 40
38.34809968554455
100
AcDbArc
 50
96.8161817707
 51
113.3426337043
  0
ARC
  5
D9
330
1F
100
AcDbEntity
  8
0
  6
Continuous
 62
     7
370
    35
100
AcDbCircle
 10
-65.4953000613
 20
155.3773970198
 30
0.0
 40
115.3879610033131
100
AcDbArc
 50
83.1838182293
 51
90.0
  0
ARC
  5
DA
330
1F
100
AcDbEntity
  8
0
  6
Continuous
 62
     7
370
    35
100
AcDbCircle
 10
-68.6121432388
 20
155.3773970198
 30
0.0
 40
115.3879610033131
100
AcDbArc
 50
90.0
 51
96.8161817707
  0
LINE
  5
DB
330
1F
100
AcDbEntity
  8
0
  6
Continuous
 62
     7
370
    35
100
AcDbLine
 10
-47.0537216501
 20
119.7737796119
 30
0.0
 11
-47.0537216501
 21
120.7737796119
 31
0.0
  0
LINE
  5
DC
330
1F
100
AcDbEntity
  8
0
  6
Continuous
 62
     7
370
    35
100
AcDbLine
 10
-87.0537216501
 20
120.7737796119
 30
0.0
 11
-87.0537216501
 21
119.7737796119
 31
0.0
  0
ARC
  5
DD
330
1F
100
AcDbEntity
  8
0
  6
Continuous
 62
     7
370
    35
100
AcDbCircle
 10
-21.8645172401
 20
230.4767893611
 30
0.0
 40
28.84699025082818
100
AcDbArc
 50
90.0
 51
96.8161817707
  0
ARC
  5
DE
330
1F
100
AcDbEntity
  8
0
  6
Continuous
 62
     7
370
    35
100
AcDbCircle
 10
-21.8645172401
 20
268.1707698628
 30
0.0
 40
28.84699025082818
100
AcDbArc
 50
263.1838182293
 51
270.0
  0
LINE
  5
DF
330
1F
100
AcDbEntity
  8
0
  6
Continuous
 62
     7
370
    35
100
AcDbLine
 10
-21.8645172401
 20
239.3237796119
 30
0.0
 11
-11.0853064457
 21
239.3237796119
 31
0.0
  0
LINE
  5
E0
330
1F
100
AcDbEntity
  8
0
  6
Continuous
 62
     7
370
    35
100
AcDbLine
 10
-11.0853064457
 20
259.3237796119
 30
0.0
 11
-21.8645172401
 21
259.3237796119
 31
0.0
  0
ARC
  5
E1
330
1F
100
AcDbEntity
  8
0
  6
Continuous
 62
     7
370
    35
100
AcDbCircle
 10
-11.0853064457
 20
268.1707698628
 30
0.0
 40
28.84699025082818
100
AcDbArc
 50
270.0
 51
275.6951854337
  0
ARC
  5
E2
330
1F
100
AcDbEntity
  8
0
  6
Continuous
 62
     7
370
    35
100
AcDbCircle
 10
-11.0853064457
 20
230.4767893611
 30
0.0
 40
28.84699025082818
100
AcDbArc
 50
83.1838182293
 51
90.0
  0
ARC
  5
E3
330
1F
100
AcDbEntity
  8
0
  6
Continuous
 62
     7
370
    35
100
AcDbCircle
 10
-24.1503747086
 20
249.6006257996
 30
0.0
 40
9.587024921386178
100
AcDbArc
 50
96.8161817707
 51
113.3426337043
  0
ARC
  5
E4
330
1F
100
AcDbEntity
  8
0
  6
Continuous
 62
     7
370
    35
100
AcDbCircle
 10
-24.1503747086
 20
249.0469334243
 30
0.0
 40
9.587024921386178
100
AcDbArc
 50
250.7690229758
 51
263.1838182293
  0
ARC
  5
E5
330
1F
100
AcDbEntity
  8
0
  6
Continuous
 62
     7
370
    35
100
AcDbCircle
 10
-8.7994489773
 20
249.6006257996
 30
0.0
 40
9.587024921386176
100
AcDbArc
 50
66.6573662957
 51
83.1838182293
  0
ARC
  5
E6
330
1F
100
AcDbEntity
  8
0
  6
Continuous
 62
     7
370
    35
100
AcDbCircle
 10
-25.9713349572
 20
253.8202027262
 30
0.0
 40
4.991295853393996
100
AcDbArc
 50
113.3426337043
 51
154.0649454243
  0
ARC
  5
E7
330
1F
100
AcDbEntity
  8
0
  6
Continuous
 62
     7
370
    35
100
AcDbCircle
 10
-6.9784887287
 20
244.8273564977
 30
0.0
 40
4.991295853394011
100
AcDbArc
 50
296.7493643159
 51
336.6573662957
  0
ARC
  5
E8
330
1F
100
AcDbEntity
  8
0
  6
Continuous
 62
     7
370
    35
100
AcDbCircle
 10
-6.9784887287
 20
253.8202027262
 30
0.0
 40
4.991295853393996
100
AcDbArc
 50
23.3426337043
 51
66.6573662957
  0
ARC
  5
E9
330
1F
100
AcDbEntity
  8
0
  6
Continuous
 62
     7
370
    35
100
AcDbCircle
 10
-11.1980656553
 20
246.6483167463
 30
0.0
 40
9.587024921386163
100
AcDbArc
 50
336.6573662957
 51
353.1838182293
  0
ARC
  5
EA
330
1F
100
AcDbEntity
  8
0
  6
Continuous
 62
     7
370
    35
100
AcDbCircle
 10
-11.1980656553
 20
251.9992424776
 30
0.0
 40
9.587024921386163
100
AcDbArc
 50
6.8161817707
 51
23.3426337043
  0
ARC
  5
EB
330
1F
100
AcDbEntity
  8
0
  6
Continuous
 62
     7
370
    35
100
AcDbCircle
 10
-30.3219020937
 20
248.9341742147
 30
0.0
 40
28.84699025082814
100
AcDbArc
 50
353.1838182293
 51
0.0
  0
ARC
  5
EC
330
1F
100
AcDbEntity
  8
0
  6
Continuous
 62
     7
370
    35
100
AcDbCircle
 10
-30.3219020937
 20
249.7133850091
 30
0.0
 40
28.84699025082814
100
AcDbArc
 50
0.0
 51
6.8161817707
  0
ARC
  5
ED
330
1F
100
AcDbEntity
  8
0
  6
Continuous
 62
     7
370
    35
100
AcDbCircle
 10
5.5071908156
 20
155.7737988327
 30
0.0
 40
111.0609124656893
100
AcDbArc
 50
180.0
 51
186.8161817707
  0
ARC
  5
EE
330
1F
100
AcDbEntity
  8
0
  6
Continuous
 62
     7
370
    35
100
AcDbCircle
 10
-139.6146341157
 20
155.7737988327
 30
0.0
 40
111.0609124656893
100
AcDbArc
 50
353.1838182293
 51
0.0
  0
ARC
  5
EF
330
1F
100
AcDbEntity
  8
0
  6
Continuous
 62
     7
370
    35
100
AcDbCircle
 10
-68.1195794725
 20
146.9732475792
 30
0.0
 40
36.91004594733654
100
AcDbArc
 50
186.8161817707
 51
203.3426337043
  0
ARC
  5
F0
330
1F
100
AcDbEntity
  8
0
  6
Continuous
 62
     7
370
    35
100
AcDbCircle
 10
-65.9878638276
 20
146.9732475792
 30
0.0
 40
36.91004594733654
100
AcDbArc
 50
336.6573662957
 51
353.1838182293
  0
ARC
  5
F1
330
1F
100
AcDbEntity
  8
0
  6
Continuous
 62
     7
370
    35
100
AcDbCircle
 10
-84.3649506399
 20
139.9625506221
 30
0.0
 40
19.21648903556698
100
AcDbArc
 50
203.3426337043
 51
246.6573662957
  0
ARC
  5
F2
330
1F
100
AcDbEntity
  8
0
  6
Continuous
 62
     7
370
    35
100
AcDbCircle
 10
-49.7424926602
 20
139.9625506221
 30
0.0
 40
19.21648903556698
100
AcDbArc
 50
293.3426337043
 51
336.6573662957
  0
ARC
  5
F3
330
1F
100
AcDbEntity
  8
0
  6
Continuous
 62
     7
370
    35
100
AcDbCircle
 10
-77.3542536828
 20
156.2079217895
 30
0.0
 40
36.91004594733657
100
AcDbArc
 50
246.6573662957
 51
253.7425567893
  0
ARC
  5
F4
330
1F
100
AcDbEntity
  8
0
  6
Continuous
 62
     7
370
    35
100
AcDbCircle
 10
-56.7531896173
 20
156.2079217895
 30
0.0
 40
36.91004594733657
100
AcDbArc
 50
286.2574432107
 51
293.3426337043
  0
LINE
  5
F5
330
1F
100
AcDbEntity
  8
0
  6
Continuous
 62
     7
370
    35
100
AcDbLine
 10
-67.0537216501
 20
155.7653580231
 30
0.0
 11
-27.0537216501
 21
155.7653580231
 31
0.0
  0
LINE
  5
F6
330
1F
100
AcDbEntity
  8
0
  6
Continuous
 62
     7
370
    35
100
AcDbLine
 10
-107.0537216501
 20
155.7653580231
 30
0.0
 11
-67.0537216501
 21
155.7653580231
 31
0.0
  0
SPLINE
  5
F7
330
1F
100
AcDbEntity
  8
0
  6
Continuous
 62
     7
370
    35
100
AcDbSpline
210
0.0
220
0.0
230
1.0
 70
     8
 71
     3
 72
    10
 73
     6
 74
     0
 42
0.00000001
 43
0.00000001
 40
0.0
 40
0.0
 40
0.0
 40
0.0
 40
0.2156494187154212
 40
0.6023334918061432
 40
1.0
 40
1.0
 40
1.0
 40
1.0
 10
-28.05505331255464
 20
242.9183163191671
 30
0.0
 10
-28.10014206477521
 20
243.1104273502846
 30
0.0
 10
-28.22608010684351
 20
243.6470154332795
 30
0.0
 10
-28.44884185568967
 20
244.689180528627
 30
0.0
 10
-28.61496411930781
 20
245.5712969049416
 30
0.0
 10
-28.69918826866471
 20
246.0185307663803
 30
0.0
  0
SPLINE
  5
F8
330
1F
100
AcDbEntity
  8
0
  6
Continuous
 62
     7
370
    35
100
AcDbSpline
210
0.0
220
0.0
230
1.0
 70
     8
 71
     3
 72
    13
 73
     9
 74
     0
 42
0.00000001
 43
0.00000001
 40
0.0
 40
0.0
 40
0.0
 40
0.0
 40
0.0697810491125857
 40
0.2810758926099788
 40
0.4843712786027106
 40
0.6933888030503714
 40
0.8455833966225857
 40
1.0
 40
1.0
 40
1.0
 40
1.0
 10
-27.31590609908561
 20
240.0200238837611
 30
0.0
 10
-27.3140238902122
 20
240.0132501971666
 30
0.0
 10
-27.30644241148843
 20
239.9859659985194
 30
0.0
 10
-27.35777061004746
 20
240.1704273514898
 30
0.0
 10
-27.46682758756562
 20
240.5685173241187
 30
0.0
 10
-27.61649202849652
 20
241.1317418333331
 30
0.0
 10
-27.78075769262955
 20
241.7710140540417
 30
0.0
 10
-27.89241588262005
 20
242.2288001202486
 30
0.0
 10
-27.94864957078649
 20
242.4593519400139
 30
0.0
  0
SPLINE
  5
F9
330
1F
100
AcDbEntity
  8
0
  6
Continuous
 62
     7
370
    35
100
AcDbSpline
210
0.0
220
0.0
230
1.0
 70
     8
 71
     3
 72
    19
 73
    15
 74
     0
 42
0.00000001
 43
0.00000001
 40
0.0
 40
0.0
 40
0.0
 40
0.0
 40
0.0880061092685359
 40
0.1785728252237139
 40
0.2664322555312836
 40
0.356897801856767
 40
0.4438712352003553
 40
0.5333481767539923
 40
0.6208612559782385
 40
0.7107740967946686
 40
0.8009476603774197
 40
0.8935043386082874
 40
0.9881522098177573
 40
1.0
 40
1.0
 40
1.0
 40
1.0
 10
-28.69918826866471
 20
246.0185307663803
 30
0.0
 10
-28.77581072019672
 20
246.4410174321326
 30
0.0
 10
-28.93128501350843
 20
247.2982833441221
 30
0.0
 10
-29.16913535451488
 20
248.6172080720024
 30
0.0
 10
-29.40457798652955
 20
249.9292224086866
 30
0.0
 10
-29.62621874094447
 20
251.1735808283407
 30
0.0
 10
-29.83186211313445
 20
252.3371647977688
 30
0.0
 10
-30.01218321579394
 20
253.3693658172362
 30
0.0
 10
-30.16710906466597
 20
254.2659617492634
 30
0.0
 10
-30.29103699292298
 20
254.9932624874919
 30
0.0
 10
-30.38461526606322
 20
255.5492110078701
 30
0.0
 10
-30.44032200273997
 20
255.8849076412377
 30
0.0
 10
-30.46452060895491
 20
256.031352981099
 30
0.0
 10
-30.45836935719665
 20
255.9941633967794
 30
0.0
 10
-30.45768502189851
 20
255.9900260038919
 30
0.0
  0
SPLINE
  5
FA
330
1F
100
AcDbEntity
  8
0
  6
Continuous
 62
     7
370
    35
100
AcDbSpline
210
0.0
220
0.0
230
1.0
 70
    24
 71
     3
 72
    10
 73
     6
 74
     0
 42
0.00000001
 43
0.00000001
 40
0.0
 40
0.0
 40
0.0
 40
0.0
 40
0.232229720039339
 40
0.5029161857836549
 40
1.0
 40
1.0
 40
1.0
 40
1.0
 10
-65.98634004913772
 20
270.7653580231432
 30
0.0
 10
-66.05467316545186
 20
270.7653580231432
 30
0.0
 10
-66.2026552162143
 20
270.7653580231432
 30
0.0
 10
-66.55639645536637
 20
270.7653580231432
 30
0.0
 10
-66.85827436026669
 20
270.7653580231432
 30
0.0
 10
-67.0537216500513
 20
270.7653580231432
 30
0.0
  0
LINE
  5
FB
330
1F
100
AcDbEntity
  8
0
  6
Continuous
 62
     7
370
    35
100
AcDbLine
 10
-67.0537216501
 20
119.7737796119
 30
0.0
 11
-47.0537216501
 21
119.7737796119
 31
0.0
  0
LINE
  5
FC
330
1F
100
AcDbEntity
  8
0
  6
Continuous
 62
     7
370
    35
100
AcDbLine
 10
-87.0537216501
 20
119.7737796119
 30
0.0
 11
-67.0537216501
 21
119.7737796119
 31
0.0
  0
SPLINE
  5
FD
330
1F
100
AcDbEntity
  8
0
  6
Continuous
 62
     7
370
    35
100
AcDbSpline
210
0.0
220
0.0
230
1.0
 70
     8
 71
     3
 72
     9
 73
     5
 74
     0
 42
0.00000001
 43
0.00000001
 40
0.0
 40
0.0
 40
0.0
 40
0.0
 40
0.4989238078546436
 40
1.0
 40
1.0
 40
1.0
 40
1.0
 10
-7.661618657116641
 20
239.6124692044387
 30
0.0
 10
-7.729527993224392
 20
239.5957149357825
 30
0.0
 10
-7.865639629988666
 20
239.5621341196489
 30
0.0
 10
-7.964441455007923
 20
239.5361082479779
 30
0.0
 10
-8.013948697265599
 20
239.5230673033037
 30
0.0
  0
SPLINE
  5
FE
330
1F
100
AcDbEntity
  8
0
  6
Continuous
 62
     7
370
    35
100
AcDbSpline
210
0.0
220
0.0
230
1.0
 70
     8
 71
     3
 72
    13
 73
     9
 74
     0
 42
0.00000001
 43
0.00000001
 40
0.0
 40
0.0
 40
0.0
 40
0.0
 40
0.0110072598847976
 40
0.2126367780114795
 40
0.4055467004007531
 40
0.6038987366695717
 40
0.7992992619854588
 40
1.0
 40
1.0
 40
1.0
 40
1.0
 10
-8.223683366227336
 20
239.4662844469944
 30
0.0
 10
-8.224092783752447
 20
239.466171212456
 30
0.0
 10
-8.232001856883477
 20
239.4639837627486
 30
0.0
 10
-8.203095282064261
 20
239.471998016403
 30
0.0
 10
-8.134274589905212
 20
239.490913934602
 30
0.0
 10
-8.017338533549037
 20
239.522337410301
 30
0.0
 10
-7.862182784048488
 20
239.5629758233332
 30
0.0
 10
-7.729067104346635
 20
239.5958248934405
 30
0.0
 10
-7.661618657116641
 20
239.6124692044387
 30
0.0
  0
SPLINE
  5
FF
330
1F
100
AcDbEntity
  8
0
  6
Continuous
 62
     7
370
    35
100
AcDbSpline
210
0.0
220
0.0
230
1.0
 70
     8
 71
     3
 72
    20
 73
    16
 74
     0
 42
0.00000001
 43
0.00000001
 40
0.0
 40
0.0
 40
0.0
 40
0.0
 40
0.1250000000000039
 40
0.1250000000000039
 40
0.2500000000000078
 40
0.2500000000000078
 40
0.5000000000000097
 40
0.5000000000000097
 40
0.6250000000000072
 40
0.6250000000000072
 40
0.7500000000000048
 40
0.7500000000000048
 40
0.8750000000000024
 40
0.8750000000000024
 40
1.0
 40
1.0
 40
1.0
 40
1.0
 10
-7.661618657116641
 20
239.6124692044387
 30
0.0
 10
-7.566199947496653
 20
239.6356341374015
 30
0.0
 10
-7.463222868588533
 20
239.6607577552373
 30
0.0
 10
-7.243051192764291
 20
239.7148362314923
 30
0.0
 10
-7.124424774915545
 20
239.7441493395635
 30
0.0
 10
-6.761644763744474
 20
239.8344626382572
 30
0.0
 10
-6.502733516051504
 20
239.8998282535967
 30
0.0
 10
-6.127829183310042
 20
239.9959919436354
 30
0.0
 10
-6.00289805696947
 20
240.0282894777813
 30
0.0
 10
-5.763931170879165
 20
240.0905290976256
 30
0.0
 10
-5.650237071997799
 20
240.12037496621
 30
0.0
 10
-5.43453963701801
 20
240.1773746907197
 30
0.0
 10
-5.332863836300383
 20
240.2044473668746
 30
0.0
 10
-5.151910224147994
 20
240.252896410576
 30
0.0
 10
-5.071141828429569
 20
240.2746664198072
 30
0.0
 10
-5.000793524403988
 20
240.2937063510994
 30
0.0
  0
SPLINE
  5
100
330
1F
100
AcDbEntity
  8
0
  6
Continuous
 62
     7
370
    35
100
AcDbSpline
210
0.0
220
0.0
230
1.0
 70
     8
 71
     3
 72
    12
 73
     8
 74
     0
 42
0.00000001
 43
0.00000001
 40
0.0
 40
0.0
 40
0.0
 40
0.0
 40
0.200097784776268
 40
0.405835073036431
 40
0.6059877509254331
 40
0.812201350494332
 40
1.0
 40
1.0
 40
1.0
 40
1.0
 10
-5.000793524403988
 20
240.2937063510994
 30
0.0
 10
-4.953825844009038
 20
240.3067220275559
 30
0.0
 10
-4.85856675843372
 20
240.3331202108802
 30
0.0
 10
-4.768869630904324
 20
240.3602089382863
 30
0.0
 10
-4.722619385505091
 20
240.3744765565045
 30
0.0
 10
-4.721430451057114
 20
240.3748003284798
 30
0.0
 10
-4.758769582546778
 20
240.363383144981
 30
0.0
 10
-4.776566588817373
 20
240.3579413556782
 30
0.0
  0
SPLINE
  5
101
330
1F
100
AcDbEntity
  8
0
  6
Continuous
 62
     7
370
    35
100
AcDbSpline
210
0.0
220
0.0
230
1.0
 70
    24
 71
     3
 72
    10
 73
     6
 74
     0
 42
0.00000001
 43
0.00000001
 40
0.0
 40
0.0
 40
0.0
 40
0.0
 40
0.5
 40
0.5
 40
1.0
 40
1.0
 40
1.0
 40
1.0
 10
-1.474911842919667
 20
249.7133850091321
 30
0.0
 10
-1.474911842919667
 20
249.7133850091323
 30
0.0
 10
-1.474911842919667
 20
249.5388086785947
 30
0.0
 10
-1.474911842919667
 20
249.1087505452729
 30
0.0
 10
-1.474911842919667
 20
248.9341742147351
 30
0.0
 10
-1.474911842919667
 20
248.9341742147351
 30
0.0
  0
LINE
  5
102
330
1F
100
AcDbEntity
  8
0
  6
Continuous
 62
     7
370
    35
100
AcDbLine
 10
-87.6873587327
 20
120.7737796119
 30
0.0
 11
-46.4200845674
 21
120.7737796119
 31
0.0
  0
LINE
  5
103
330
1F
100
AcDbEntity
  8
0
  6
Continuous
 62
     7
370
    35
100
AcDbLine
 10
400.4014500181
 20
155.7653580231
 30
0.0
 11
400.4014500181
 21
232.3237796119
 31
0.0
  0
LINE
  5
104
330
1F
100
AcDbEntity
  8
0
  6
Continuous
 62
     7
370
    35
100
AcDbLine
 10
320.4014500181
 20
232.3237796119
 30
0.0
 11
320.4014500181
 21
155.7653580231
 31
0.0
  0
ARC
  5
105
330
1F
100
AcDbEntity
  8
0
  6
Continuous
 62
     7
370
    35
100
AcDbCircle
 10
285.0134890148
 20
232.3237796119
 30
0.0
 40
115.3879610033131
100
AcDbArc
 50
0.0
 51
6.8161817707
  0
ARC
  5
106
330
1F
100
AcDbEntity
  8
0
  6
Continuous
 62
     7
370
    35
100
AcDbCircle
 10
435.7894110214
 20
232.3237796119
 30
0.0
 40
115.3879610033131
100
AcDbArc
 50
173.1838182293
 51
180.0
  0
ARC
  5
107
330
1F
100
AcDbEntity
  8
0
  6
Continuous
 62
     7
370
    35
100
AcDbCircle
 10
361.5088347687
 20
241.4672094858
 30
0.0
 40
38.34809968554448
100
AcDbArc
 50
6.8161817708
 51
23.3426337043
  0
ARC
  5
108
330
1F
100
AcDbEntity
  8
0
  6
Continuous
 62
     7
370
    35
100
AcDbCircle
 10
359.2940652676
 20
241.4672094858
 30
0.0
 40
38.34809968554451
100
AcDbArc
 50
156.6573662957
 51
173.1838182292
  0
ARC
  5
109
330
1F
100
AcDbEntity
  8
0
  6
Continuous
 62
     7
370
    35
100
AcDbCircle
 10
378.387142475
 20
248.7510504801
 30
0.0
 40
19.96518341357605
100
AcDbArc
 50
23.3426337043
 51
66.6573662957
  0
ARC
  5
10A
330
1F
100
AcDbEntity
  8
0
  6
Continuous
 62
     7
370
    35
100
AcDbCircle
 10
342.4157575612
 20
248.7510504801
 30
0.0
 40
19.96518341357607
100
AcDbArc
 50
113.3426337043
 51
156.6573662957
  0
ARC
  5
10B
330
1F
100
AcDbEntity
  8
0
  6
Continuous
 62
     7
370
    35
100
AcDbCircle
 10
371.1033014807
 20
231.8727427737
 30
0.0
 40
38.34809968554455
100
AcDbArc
 50
66.6573662957
 51
83.1838182293
  0
ARC
  5
10C
330
1F
100
AcDbEntity
  8
0
  6
Continuous
 62
     7
370
    35
100
AcDbCircle
 10
349.6995985555
 20
231.8727427737
 30
0.0
 40
38.34809968554455
100
AcDbArc
 50
96.8161817707
 51
113.3426337043
  0
ARC
  5
10D
330
1F
100
AcDbEntity
  8
0
  6
Continuous
 62
     7
370
    35
100
AcDbCircle
 10
361.9598716069
 20
155.3773970198
 30
0.0
 40
115.3879610033131
100
AcDbArc
 50
83.1838182293
 51
90.0
  0
ARC
  5
10E
330
1F
100
AcDbEntity
  8
0
  6
Continuous
 62
     7
370
    35
100
AcDbCircle
 10
358.8430284293
 20
155.3773970198
 30
0.0
 40
115.3879610033131
100
AcDbArc
 50
90.0
 51
96.8161817707
  0
LINE
  5
10F
330
1F
100
AcDbEntity
  8
0
  6
Continuous
 62
     7
370
    35
100
AcDbLine
 10
380.4014500181
 20
119.7737796119
 30
0.0
 11
380.4014500181
 21
120.7737796119
 31
0.0
  0
LINE
  5
110
330
1F
100
AcDbEntity
  8
0
  6
Continuous
 62
     7
370
    35
100
AcDbLine
 10
340.4014500181
 20
120.7737796119
 30
0.0
 11
340.4014500181
 21
119.7737796119
 31
0.0
  0
ARC
  5
111
330
1F
100
AcDbEntity
  8
0
  6
Continuous
 62
     7
370
    35
100
AcDbCircle
 10
432.9623624838
 20
155.7737988327
 30
0.0
 40
111.0609124656892
100
AcDbArc
 50
180.0
 51
186.8161817707
  0
ARC
  5
112
330
1F
100
AcDbEntity
  8
0
  6
Continuous
 62
     7
370
    35
100
AcDbCircle
 10
287.8405375524
 20
155.7737988327
 30
0.0
 40
111.0609124656892
100
AcDbArc
 50
353.1838182293
 51
0.0
  0
ARC
  5
113
330
1F
100
AcDbEntity
  8
0
  6
Continuous
 62
     7
370
    35
100
AcDbCircle
 10
359.3355921957
 20
146.9732475792
 30
0.0
 40
36.91004594733653
100
AcDbArc
 50
186.8161817707
 51
203.3426337043
  0
ARC
  5
114
330
1F
100
AcDbEntity
  8
0
  6
Continuous
 62
     7
370
    35
100
AcDbCircle
 10
361.4673078405
 20
146.9732475792
 30
0.0
 40
36.91004594733658
100
AcDbArc
 50
336.6573662957
 51
353.1838182293
  0
ARC
  5
115
330
1F
100
AcDbEntity
  8
0
  6
Continuous
 62
     7
370
    35
100
AcDbCircle
 10
343.0902210283
 20
139.9625506221
 30
0.0
 40
19.21648903556699
100
AcDbArc
 50
203.3426337043
 51
246.6573662957
  0
ARC
  5
116
330
1F
100
AcDbEntity
  8
0
  6
Continuous
 62
     7
370
    35
100
AcDbCircle
 10
377.7126790079
 20
139.9625506221
 30
0.0
 40
19.21648903556699
100
AcDbArc
 50
293.3426337043
 51
336.6573662957
  0
ARC
  5
117
330
1F
100
AcDbEntity
  8
0
  6
Continuous
 62
     7
370
    35
100
AcDbCircle
 10
350.1009179853
 20
156.2079217895
 30
0.0
 40
36.91004594733657
100
AcDbArc
 50
246.6573662957
 51
253.7425567893
  0
ARC
  5
118
330
1F
100
AcDbEntity
  8
0
  6
Continuous
 62
     7
370
    35
100
AcDbCircle
 10
370.7019820509
 20
156.2079217895
 30
0.0
 40
36.91004594733659
100
AcDbArc
 50
286.2574432107
 51
293.3426337043
  0
LINE
  5
119
330
1F
100
AcDbEntity
  8
0
  6
Continuous
 62
     7
370
    35
100
AcDbLine
 10
320.4014500181
 20
155.7653580231
 30
0.0
 11
400.4014500181
 21
155.7653580231
 31
0.0
  0
SPLINE
  5
11A
330
1F
100
AcDbEntity
  8
0
  6
Continuous
 62
     7
370
    35
100
AcDbSpline
210
0.0
220
0.0
230
1.0
 70
    24
 71
     3
 72
    10
 73
     6
 74
     0
 42
0.00000001
 43
0.00000001
 40
0.0
 40
0.0
 40
0.0
 40
0.0
 40
0.5
 40
0.5
 40
1.0
 40
1.0
 40
1.0
 40
1.0
 10
361.9598716069006
 20
270.7653580231431
 30
0.0
 10
361.9598716069006
 20
270.7653580231431
 30
0.0
 10
361.2615662847493
 20
270.7653580231431
 30
0.0
 10
359.5413337514621
 20
270.7653580231431
 30
0.0
 10
358.8430284293116
 20
270.7653580231431
 30
0.0
 10
358.8430284293127
 20
270.7653580231431
 30
0.0
  0
LINE
  5
11B
330
1F
100
AcDbEntity
  8
0
  6
Continuous
 62
     7
370
    35
100
AcDbLine
 10
340.4014500181
 20
119.7737796119
 30
0.0
 11
380.4014500181
 21
119.7737796119
 31
0.0
  0
LINE
  5
11C
330
1F
100
AcDbEntity
  8
0
  6
Continuous
 62
     7
370
    35
100
AcDbLine
 10
339.7678129354
 20
120.7737796119
 30
0.0
 11
381.0350871008
 21
120.7737796119
 31
0.0
  0
LINE
  5
11D
330
1F
100
AcDbEntity
  8
0
  6
Continuous
 62
     7
370
    35
100
AcDbLine
 10
185.0084482299
 20
352.9521528703
 30
0.0
 11
174.2292374355
 21
352.9521528703
 31
0.0
  0
LINE
  5
11E
330
1F
100
AcDbEntity
  8
0
  6
Continuous
 62
     7
370
    35
100
AcDbLine
 10
174.2292374355
 20
332.9521528703
 30
0.0
 11
185.0084482299
 21
332.9521528703
 31
0.0
  0
ARC
  5
11F
330
1F
100
AcDbEntity
  8
0
  6
Continuous
 62
     7
370
    35
100
AcDbCircle
 10
174.2292374355
 20
324.1051626195
 30
0.0
 40
28.84699025082814
100
AcDbArc
 50
90.0
 51
96.8161817707
  0
ARC
  5
120
330
1F
100
AcDbEntity
  8
0
  6
Continuous
 62
     7
370
    35
100
AcDbCircle
 10
174.2292374355
 20
361.7991431211
 30
0.0
 40
28.8469902508282
100
AcDbArc
 50
263.1838182293
 51
270.0
  0
ARC
  5
121
330
1F
100
AcDbEntity
  8
0
  6
Continuous
 62
     7
370
    35
100
AcDbCircle
 10
185.0084482299
 20
361.7991431211
 30
0.0
 40
28.84699025082819
100
AcDbArc
 50
270.0
 51
276.8161817707
  0
ARC
  5
122
330
1F
100
AcDbEntity
  8
0
  6
Continuous
 62
     7
370
    35
100
AcDbCircle
 10
185.0084482299
 20
324.1051626195
 30
0.0
 40
28.84699025082814
100
AcDbArc
 50
83.1838182293
 51
90.0
  0
ARC
  5
123
330
1F
100
AcDbEntity
  8
0
  6
Continuous
 62
     7
370
    35
100
AcDbCircle
 10
171.943379967
 20
343.2289990579
 30
0.0
 40
9.587024921386202
100
AcDbArc
 50
96.8161817707
 51
113.3426337043
  0
ARC
  5
124
330
1F
100
AcDbEntity
  8
0
  6
Continuous
 62
     7
370
    35
100
AcDbCircle
 10
171.943379967
 20
342.6753066827
 30
0.0
 40
9.587024921386146
100
AcDbArc
 50
246.6573662957
 51
263.1838182293
  0
ARC
  5
125
330
1F
100
AcDbEntity
  8
0
  6
Continuous
 62
     7
370
    35
100
AcDbCircle
 10
187.2943056983
 20
342.6753066827
 30
0.0
 40
9.587024921386158
100
AcDbArc
 50
276.8161817707
 51
293.3426337043
  0
ARC
  5
126
330
1F
100
AcDbEntity
  8
0
  6
Continuous
 62
     7
370
    35
100
AcDbCircle
 10
187.2943056983
 20
343.2289990579
 30
0.0
 40
9.587024921386206
100
AcDbArc
 50
66.6573662957
 51
83.1838182293
  0
ARC
  5
127
330
1F
100
AcDbEntity
  8
0
  6
Continuous
 62
     7
370
    35
100
AcDbCircle
 10
189.1152659469
 20
338.4557297561
 30
0.0
 40
4.991295853393992
100
AcDbArc
 50
293.3426337043
 51
311.7698973247
  0
ARC
  5
128
330
1F
100
AcDbEntity
  8
0
  6
Continuous
 62
     7
370
    35
100
AcDbCircle
 10
189.1152659469
 20
347.4485759845
 30
0.0
 40
4.991295853394028
100
AcDbArc
 50
48.2301017307
 51
66.6573662957
  0
ARC
  5
129
330
1F
100
AcDbEntity
  8
0
  6
Continuous
 62
     7
370
    35
100
AcDbCircle
 10
170.1224197185
 20
347.4485759845
 30
0.0
 40
4.991295853394018
100
AcDbArc
 50
113.3426337043
 51
156.6573662957
  0
ARC
  5
12A
330
1F
100
AcDbEntity
  8
0
  6
Continuous
 62
     7
370
    35
100
AcDbCircle
 10
170.1224197185
 20
338.4557297561
 30
0.0
 40
4.991295853394018
100
AcDbArc
 50
203.3426337043
 51
246.6573662957
  0
ARC
  5
12B
330
1F
100
AcDbEntity
  8
0
  6
Continuous
 62
     7
370
    35
100
AcDbCircle
 10
174.341996645
 20
345.627615736
 30
0.0
 40
9.587024921386181
100
AcDbArc
 50
156.6573662957
 51
173.1838182293
  0
ARC
  5
12C
330
1F
100
AcDbEntity
  8
0
  6
Continuous
 62
     7
370
    35
100
AcDbCircle
 10
174.341996645
 20
340.2766900046
 30
0.0
 40
9.587024921386183
100
AcDbArc
 50
186.8161817707
 51
203.3426337043
  0
ARC
  5
12D
330
1F
100
AcDbEntity
  8
0
  6
Continuous
 62
     7
370
    35
100
AcDbCircle
 10
193.4658330835
 20
343.3417582675
 30
0.0
 40
28.84699025082818
100
AcDbArc
 50
173.1838182293
 51
180.0
  0
ARC
  5
12E
330
1F
100
AcDbEntity
  8
0
  6
Continuous
 62
     7
370
    35
100
AcDbCircle
 10
193.4658330835
 20
342.5625474731
 30
0.0
 40
28.84699025082817
100
AcDbArc
 50
180.0
 51
186.8161817707
  0
SPLINE
  5
12F
330
1F
100
AcDbEntity
  8
0
  6
Continuous
 62
     7
370
    35
100
AcDbSpline
210
0.0
220
0.0
230
1.0
 70
     8
 71
     3
 72
    25
 73
    21
 74
     0
 42
0.00000001
 43
0.00000001
 40
0.0
 40
0.0
 40
0.0
 40
0.0
 40
0.0479745002240401
 40
0.1037314210159563
 40
0.1573360365951521
 40
0.2124836474320935
 40
0.2664208646905548
 40
0.3218371347204818
 40
0.3774140968505605
 40
0.434459851687589
 40
0.4927944782111823
 40
0.5527145962074781
 40
0.612852772347999
 40
0.6748208249841293
 40
0.7334095571690339
 40
0.7938828946917016
 40
0.849512903317556
 40
0.9068675954316041
 40
0.9607694814931286
 40
1.0
 40
1.0
 40
1.0
 40
1.0
 10
192.3409052792304
 20
351.2277141262512
 30
0.0
 10
192.4093049559091
 20
351.1825433126588
 30
0.0
 10
192.5572001007418
 20
351.0848740787844
 30
0.0
 10
192.7700635284237
 20
350.6653803192152
 30
0.0
 10
192.9758138612827
 20
350.0403040329008
 30
0.0
 10
193.1561191022554
 20
349.2291355986455
 30
0.0
 10
193.311000716764
 20
348.2473815598278
 30
0.0
 10
193.4351257032875
 20
347.1267983268109
 30
0.0
 10
193.5279480143504
 20
345.8791725591573
 30
0.0
 10
193.5865735428674
 20
344.5350644818608
 30
0.0
 10
193.6098573948841
 20
343.1158924893542
 30
0.0
 10
193.5950284880403
 20
341.6668718791182
 30
0.0
 10
193.5402070674567
 20
340.2237802455641
 30
0.0
 10
193.444685158843
 20
338.8695144328817
 30
0.0
 10
193.309578282805
 20
337.6347179929805
 30
0.0
 10
193.1431253672368
 20
336.5999824586665
 30
0.0
 10
192.9476699954744
 20
335.7575438625889
 30
0.0
 10
192.7354662904989
 20
335.1579097531077
 30
0.0
 10
192.5299104891721
 20
334.7856858514859
 30
0.0
 10
192.3966654881904
 20
334.7179197519009
 30
0.0
 10
192.3405381874814
 20
334.6893743789319
 30
0.0
  0
ARC
  5
130
330
1F
100
AcDbEntity
  8
0
  6
Continuous
 62
     7
370
    35
100
AcDbCircle
 10
230.1976526398
 20
342.9521528703
 30
0.0
 40
40.00000000000001
100
AcDbArc
 50
193.0303681704
 51
90.0
  0
ARC
  5
131
330
1F
100
AcDbEntity
  8
0
  6
Continuous
 62
     7
370
    35
100
AcDbCircle
 10
230.1976526398
 20
342.9521528703
 30
0.0
 40
40.00000000000002
100
AcDbArc
 50
90.0
 51
166.9696318296
  0
SPLINE
  5
132
330
1F
100
AcDbEntity
  8
0
  6
Continuous
 62
     7
370
    35
100
AcDbSpline
210
0.0
220
0.0
230
1.0
 70
    24
 71
     3
 72
    22
 73
    18
 74
     0
 42
0.00000001
 43
0.00000001
 40
0.0
 40
0.0
 40
0.0
 40
0.0
 40
0.0966021551370784
 40
0.148985087657051
 40
0.2017224975443407
 40
0.2541055891462671
 40
0.3068431591688333
 40
0.403445314305912
 40
0.5000474694429905
 40
0.5524304019632359
 40
0.6051678118502418
 40
0.6575509034519678
 40
0.710288473474725
 40
0.8068906286118035
 40
0.9034927837488843
 40
0.9558757162689013
 40
0.9999999999999999
 40
0.9999999999999999
 40
0.9999999999999999
 40
0.9999999999999999
 10
164.6188428326861
 20
343.3417582674942
 30
0.0
 10
164.6188428326861
 20
343.3365264836458
 30
0.0
 10
164.6188428326861
 20
343.3284577425898
 30
0.0
 10
164.6188428326861
 20
343.2799833921204
 30
0.0
 10
164.6188428326861
 20
343.2297120914916
 30
0.0
 10
164.6188428326861
 20
343.1676720449207
 30
0.0
 10
164.6188428326861
 20
343.0768875556089
 30
0.0
 10
164.6188428326861
 20
342.9521504987272
 30
0.0
 10
164.6188428326861
 20
342.8276053655209
 30
0.0
 10
164.6188428326861
 20
342.7367730042355
 30
0.0
 10
164.6188428326861
 20
342.6749146079722
 30
0.0
 10
164.6188428326861
 20
342.6241625116004
 30
0.0
 10
164.6188428326861
 20
342.5771844561247
 30
0.0
 10
164.6188428326861
 20
342.5529562842037
 30
0.0
 10
164.6188428326861
 20
342.577529530371
 30
0.0
 10
164.6188428326861
 20
342.6213563231621
 30
0.0
 10
164.6188428326861
 20
342.6536634847429
 30
0.0
 10
164.6188428326861
 20
342.6684347155328
 30
0.0
  0
LINE
  5
133
330
1F
100
AcDbEntity
  8
0
  6
Continuous
 62
     7
370
    35
100
AcDbLine
 10
185.0084482299
 20
61.1379566439
 30
0.0
 11
174.2292374355
 21
61.1379566439
 31
0.0
  0
LINE
  5
134
330
1F
100
AcDbEntity
  8
0
  6
Continuous
 62
     7
370
    35
100
AcDbLine
 10
174.2292374355
 20
41.1379566439
 30
0.0
 11
185.0084482299
 21
41.1379566439
 31
0.0
  0
ARC
  5
135
330
1F
100
AcDbEntity
  8
0
  6
Continuous
 62
     7
370
    35
100
AcDbCircle
 10
174.2292374355
 20
32.290966393
 30
0.0
 40
28.84699025082815
100
AcDbArc
 50
90.0
 51
96.8161817707
  0
ARC
  5
136
330
1F
100
AcDbEntity
  8
0
  6
Continuous
 62
     7
370
    35
100
AcDbCircle
 10
174.2292374355
 20
69.9849468947
 30
0.0
 40
28.84699025082815
100
AcDbArc
 50
263.1838182293
 51
270.0
  0
ARC
  5
137
330
1F
100
AcDbEntity
  8
0
  6
Continuous
 62
     7
370
    35
100
AcDbCircle
 10
185.0084482299
 20
69.9849468947
 30
0.0
 40
28.84699025082815
100
AcDbArc
 50
270.0
 51
276.8161817707
  0
ARC
  5
138
330
1F
100
AcDbEntity
  8
0
  6
Continuous
 62
     7
370
    35
100
AcDbCircle
 10
185.0084482299
 20
32.290966393
 30
0.0
 40
28.84699025082815
100
AcDbArc
 50
83.1838182293
 51
90.0
  0
ARC
  5
139
330
1F
100
AcDbEntity
  8
0
  6
Continuous
 62
     7
370
    35
100
AcDbCircle
 10
187.2943056983
 20
50.8611104562
 30
0.0
 40
9.587024921386178
100
AcDbArc
 50
276.8161817707
 51
293.3426337043
  0
ARC
  5
13A
330
1F
100
AcDbEntity
  8
0
  6
Continuous
 62
     7
370
    35
100
AcDbCircle
 10
187.2943056983
 20
51.4148028315
 30
0.0
 40
9.587024921386178
100
AcDbArc
 50
66.6573662957
 51
83.1838182293
  0
ARC
  5
13B
330
1F
100
AcDbEntity
  8
0
  6
Continuous
 62
     7
370
    35
100
AcDbCircle
 10
171.943379967
 20
51.4148028315
 30
0.0
 40
9.587024921386167
100
AcDbArc
 50
96.8161817707
 51
113.3426337043
  0
ARC
  5
13C
330
1F
100
AcDbEntity
  8
0
  6
Continuous
 62
     7
370
    35
100
AcDbCircle
 10
171.943379967
 20
50.8611104562
 30
0.0
 40
9.58702492138616
100
AcDbArc
 50
246.6573662957
 51
263.1838182293
  0
ARC
  5
13D
330
1F
100
AcDbEntity
  8
0
  6
Continuous
 62
     7
370
    35
100
AcDbCircle
 10
170.1224197185
 20
55.6343797581
 30
0.0
 40
4.991295853394015
100
AcDbArc
 50
113.3426337043
 51
156.6573662957
  0
ARC
  5
13E
330
1F
100
AcDbEntity
  8
0
  6
Continuous
 62
     7
370
    35
100
AcDbCircle
 10
170.1224197185
 20
46.6415335296
 30
0.0
 40
4.991295853394015
100
AcDbArc
 50
203.3426337043
 51
246.6573662957
  0
ARC
  5
13F
330
1F
100
AcDbEntity
  8
0
  6
Continuous
 62
     7
370
    35
100
AcDbCircle
 10
174.341996645
 20
53.8134195095
 30
0.0
 40
9.587024921386181
100
AcDbArc
 50
156.6573662957
 51
173.1838182293
  0
ARC
  5
140
330
1F
100
AcDbEntity
  8
0
  6
Continuous
 62
     7
370
    35
100
AcDbCircle
 10
174.341996645
 20
48.4624937782
 30
0.0
 40
9.587024921386181
100
AcDbArc
 50
186.8161817707
 51
203.3426337043
  0
ARC
  5
141
330
1F
100
AcDbEntity
  8
0
  6
Continuous
 62
     7
370
    35
100
AcDbCircle
 10
193.4658330835
 20
51.5275620411
 30
0.0
 40
28.84699025082818
100
AcDbArc
 50
173.1838182293
 51
180.0
  0
ARC
  5
142
330
1F
100
AcDbEntity
  8
0
  6
Continuous
 62
     7
370
    35
100
AcDbCircle
 10
193.4658330835
 20
50.7483512467
 30
0.0
 40
28.84699025082818
100
AcDbArc
 50
180.0
 51
186.8161817707
  0
CIRCLE
  5
143
330
1F
100
AcDbEntity
  8
0
  6
Continuous
 62
     7
370
    35
100
AcDbCircle
 10
230.1976526398
 20
51.1379566439
 30
0.0
 40
39.20000000000001
  0
CIRCLE
  5
144
330
1F
100
AcDbEntity
  8
0
  6
Continuous
 62
     7
370
    35
100
AcDbCircle
 10
230.1976526398
 20
51.1379566439
 30
0.0
 40
40.00000000000001
  0
SPLINE
  5
145
330
1F
100
AcDbEntity
  8
0
  6
Continuous
 62
     7
370
    35
100
AcDbSpline
210
0.0
220
0.0
230
1.0
 70
     8
 71
     3
 72
    14
 73
    10
 74
     0
 42
0.00000001
 43
0.00000001
 40
0.0
 40
0.0
 40
0.0
 40
0.0
 40
0.25
 40
0.25
 40
0.5
 40
0.5
 40
0.75
 40
0.75
 40
1.0
 40
1.0
 40
1.0
 40
1.0
 10
192.6491424611863
 20
43.14365754917932
 30
0.0
 10
192.5887139981726
 20
43.2403583762753
 30
0.0
 10
192.5270442885733
 20
43.35623890018024
 30
0.0
 10
192.4018977628232
 20
43.6265800696715
 30
0.0
 10
192.3383717687261
 20
43.78126900347723
 30
0.0
 10
192.2120142041043
 20
44.12581724616676
 30
0.0
 10
192.148791340516
 20
44.31663570668422
 30
0.0
 10
192.024812488874
 20
44.73151803088177
 30
0.0
 10
191.9640611499964
 20
44.95540270618952
 30
0.0
 10
191.9051207775791
 20
45.19562284173258
 30
0.0
  0
SPLINE
  5
146
330
1F
100
AcDbEntity
  8
0
  6
Continuous
 62
     7
370
    35
100
AcDbSpline
210
0.0
220
0.0
230
1.0
 70
     8
 71
     3
 72
    14
 73
    10
 74
     0
 42
0.00000001
 43
0.00000001
 40
0.0
 40
0.0
 40
0.0
 40
0.0
 40
0.25
 40
0.25
 40
0.5
 40
0.5
 40
0.75
 40
0.75
 40
1.0
 40
1.0
 40
1.0
 40
1.0
 10
191.9051207775845
 20
57.08029044603717
 30
0.0
 10
191.9640629071335
 20
57.32051774302692
 30
0.0
 10
192.0247948225047
 20
57.54420372705284
 30
0.0
 10
192.1487509671937
 20
57.95900793512633
 30
0.0
 10
192.2120034235798
 20
58.1500360404059
 30
0.0
 10
192.3383624300949
 20
58.4946454105508
 30
0.0
 10
192.4018983496833
 20
58.6494836404454
 30
0.0
 10
192.5270755546732
 20
58.91989051528477
 30
0.0
 10
192.5887235421682
 20
59.03560200945355
 30
0.0
 10
192.6491438000406
 20
59.13226202704512
 30
0.0
  0
SPLINE
  5
147
330
1F
100
AcDbEntity
  8
0
  6
Continuous
 62
     7
370
    35
100
AcDbSpline
210
0.0
220
0.0
230
1.0
 70
     8
 71
     3
 72
    28
 73
    24
 74
     0
 42
0.00000001
 43
0.00000001
 40
0.0
 40
0.0
 40
0.0
 40
0.0
 40
0.125
 40
0.125
 40
0.1875
 40
0.1875
 40
0.25
 40
0.25
 40
0.375
 40
0.375
 40
0.5
 40
0.5
 40
0.6250000000000001
 40
0.6250000000000001
 40
0.6875000000000002
 40
0.6875000000000002
 40
0.7500000000000002
 40
0.7500000000000002
 40
0.8125000000000002
 40
0.8125000000000002
 40
0.8750000000000002
 40
0.8750000000000002
 40
1.0
 40
1.0
 40
1.0
 40
1.0
 10
191.9051207775791
 20
45.19562284173281
 30
0.0
 10
191.8098373686086
 20
45.58396435501379
 30
0.0
 10
191.721658097974
 20
46.00455075097913
 30
0.0
 10
191.6027352939487
 20
46.68291740627244
 30
0.0
 10
191.5653275392642
 20
46.9169489422873
 30
0.0
 10
191.4955698674324
 20
47.40159242602668
 30
0.0
 10
191.4631446984967
 20
47.6532057797401
 30
0.0
 10
191.3763552161398
 20
48.41630599471137
 30
0.0
 10
191.3316410404185
 20
48.94078814500797
 30
0.0
 10
191.2707272124442
 20
50.02129323350449
 30
0.0
 10
191.254826995694
 20
50.5817658559039
 30
0.0
 10
191.2546581226526
 20
51.68497936369143
 30
0.0
 10
191.2698457288705
 20
52.23324034920864
 30
0.0
 10
191.315440920983
 20
53.05050457242758
 30
0.0
 10
191.3344567163638
 20
53.32125649320328
 30
0.0
 10
191.3789928948235
 20
53.84882264309327
 30
0.0
 10
191.4045896645534
 20
54.10715296010876
 30
0.0
 10
191.4619893091043
 20
54.61323333609173
 30
0.0
 10
191.4937919946353
 20
54.86099865729216
 30
0.0
 10
191.5632893096793
 20
55.34572886389525
 30
0.0
 10
191.6011688881163
 20
55.58362886699017
 30
0.0
 10
191.7211450001718
 20
56.26927996451587
 30
0.0
 10
191.809816860234
 20
56.69186534784642
 30
0.0
 10
191.9051207775845
 20
57.08029044603717
 30
0.0
  0
CIRCLE
  5
148
330
1F
100
AcDbEntity
  8
0
  6
Continuous
 62
     7
370
    35
100
AcDbCircle
 10
230.1976526398
 20
51.1379566439
 30
0.0
 40
20.0
  0
SPLINE
  5
149
330
1F
100
AcDbEntity
  8
0
  6
Continuous
 62
     7
370
    35
100
AcDbSpline
210
0.0
220
0.0
230
1.0
 70
     8
 71
     3
 72
    20
 73
    16
 74
     0
 42
0.00000001
 43
0.00000001
 40
0.0
 40
0.0
 40
0.0
 40
0.0
 40
0.125
 40
0.125
 40
0.25
 40
0.25
 40
0.375
 40
0.375
 40
0.5
 40
0.5
 40
0.75
 40
0.75
 40
0.875
 40
0.875
 40
1.0
 40
1.0
 40
1.0
 40
1.0
 10
170.805549646883
 20
52.42412418239229
 30
0.0
 10
170.894032534433
 20
52.34248377206416
 30
0.0
 10
170.972847532608
 20
52.25304345607756
 30
0.0
 10
171.1117166607238
 20
52.05886655245401
 30
0.0
 10
171.172264850787
 20
51.95273594153196
 30
0.0
 10
171.2691829396032
 20
51.73239991426539
 30
0.0
 10
171.3060468235367
 20
51.61808798603396
 30
0.0
 10
171.3561192695901
 20
51.38096691988085
 30
0.0
 10
171.3688234863377
 20
51.25881997850185
 30
0.0
 10
171.3688814579695
 20
50.89707130753083
 30
0.0
 10
171.3177141176305
 20
50.65395452704995
 30
0.0
 10
171.1724216144086
 20
50.32347927036612
 30
0.0
 10
171.111871461816
 20
50.21728338633108
 30
0.0
 10
170.9728927913077
 20
50.0229129478186
 30
0.0
 10
170.8940358710116
 20
49.93343259424103
 30
0.0
 10
170.805549646883
 20
49.8517891053555
 30
0.0
  0
SPLINE
  5
14A
330
1F
100
AcDbEntity
  8
0
  6
Continuous
 62
     7
370
    35
100
AcDbSpline
210
0.0
220
0.0
230
1.0
 70
     8
 71
     3
 72
    20
 73
    16
 74
     0
 42
0.00000001
 43
0.00000001
 40
0.0
 40
0.0
 40
0.0
 40
0.0
 40
0.1250000000000001
 40
0.1250000000000001
 40
0.2500000000000001
 40
0.2500000000000001
 40
0.4999999999999999
 40
0.4999999999999999
 40
0.6249999999999998
 40
0.6249999999999998
 40
0.7499999999999999
 40
0.7499999999999999
 40
0.8749999999999999
 40
0.8749999999999999
 40
1.0
 40
1.0
 40
1.0
 40
1.0
 10
168.1447245141704
 20
52.08107656361715
 30
0.0
 10
168.2150692550185
 20
52.19102702582737
 30
0.0
 10
168.2959528574412
 20
52.29069688849951
 30
0.0
 10
168.477550780127
 20
52.47073584874938
 30
0.0
 10
168.5795577554091
 20
52.55166391706964
 30
0.0
 10
168.9026119423114
 20
52.75481786742298
 30
0.0
 10
169.1478895054922
 20
52.84214502369858
 30
0.0
 10
169.5230175831344
 20
52.88987167866568
 30
0.0
 10
169.6515966779055
 20
52.89222533794229
 30
0.0
 10
169.903782169488
 20
52.86923970556773
 30
0.0
 10
170.0274946482841
 20
52.84432686430081
 30
0.0
 10
170.2700681549846
 20
52.76725134255446
 30
0.0
 10
170.3880761741694
 20
52.71493212668373
 30
0.0
 10
170.6073310095321
 20
52.58759892087485
 30
0.0
 10
170.7101202806903
 20
52.51217389267023
 30
0.0
 10
170.805549646883
 20
52.42412418239229
 30
0.0
  0
SPLINE
  5
14B
330
1F
100
AcDbEntity
  8
0
  6
Continuous
 62
     7
370
    35
100
AcDbSpline
210
0.0
220
0.0
230
1.0
 70
     8
 71
     3
 72
    20
 73
    16
 74
     0
 42
0.00000001
 43
0.00000001
 40
0.0
 40
0.0
 40
0.0
 40
0.0
 40
0.1250000000000039
 40
0.1250000000000039
 40
0.2500000000000078
 40
0.2500000000000078
 40
0.5000000000000097
 40
0.5000000000000097
 40
0.6250000000000072
 40
0.6250000000000072
 40
0.7500000000000048
 40
0.7500000000000048
 40
0.8750000000000024
 40
0.8750000000000024
 40
1.0
 40
1.0
 40
1.0
 40
1.0
 10
170.805549646883
 20
49.8517891053555
 30
0.0
 10
170.7101309372631
 20
49.76374922756605
 30
0.0
 10
170.607153858355
 20
49.68814985803077
 30
0.0
 10
170.3869821825307
 20
49.56040780502431
 30
0.0
 10
170.268355764682
 20
49.50801054543911
 30
0.0
 10
169.9055757535109
 20
49.39306422236307
 30
0.0
 10
169.6466645058179
 20
49.37012835284315
 30
0.0
 10
169.2717601730764
 20
49.41810015119363
 30
0.0
 10
169.1468290467359
 20
49.44803930778546
 30
0.0
 10
168.9078621606456
 20
49.53386060531383
 30
0.0
 10
168.7941680617642
 20
49.58919736371163
 30
0.0
 10
168.5784706267844
 20
49.72502725467178
 30
0.0
 10
168.4767948260668
 20
49.80586439716335
 30
0.0
 10
168.2958412139144
 20
49.98538989097104
 30
0.0
 10
168.215072818196
 20
50.08488069259133
 30
0.0
 10
168.1447245141704
 20
50.19483672413066
 30
0.0
  0
SPLINE
  5
14C
330
1F
100
AcDbEntity
  8
0
  6
Continuous
 62
     7
370
    35
100
AcDbSpline
210
0.0
220
0.0
230
1.0
 70
     8
 71
     3
 72
    14
 73
    10
 74
     0
 42
0.00000001
 43
0.00000001
 40
0.0
 40
0.0
 40
0.0
 40
0.0
 40
0.25
 40
0.25
 40
0.5
 40
0.5
 40
0.75
 40
0.75
 40
1.0
 40
1.0
 40
1.0
 40
1.0
 10
168.1447245141704
 20
50.19483672413067
 30
0.0
 10
168.055098816304
 20
50.33492376955181
 30
0.0
 10
167.9868388271837
 20
50.48469238298424
 30
0.0
 10
167.8929635884334
 20
50.80399242005794
 30
0.0
 10
167.8689984231987
 20
50.97016381060987
 30
0.0
 10
167.8686887616292
 20
51.30248816022293
 30
0.0
 10
167.892742953524
 20
51.47023594588673
 30
0.0
 10
167.9855027007989
 20
51.78759526723042
 30
0.0
 10
168.0550845457836
 20
51.94096721304149
 30
0.0
 10
168.1447245141704
 20
52.08107656361715
 30
0.0
  0
SPLINE
  5
14D
330
1F
100
AcDbEntity
  8
0
  6
Continuous
 62
     7
370
    35
100
AcDbSpline
210
0.0
220
0.0
230
1.0
 70
    24
 71
     3
 72
    10
 73
     6
 74
     0
 42
0.00000001
 43
0.00000001
 40
0.0
 40
0.0
 40
0.0
 40
0.0
 40
0.2316136255572618
 40
0.5029602493948215
 40
1.0
 40
1.0
 40
1.0
 40
1.0
 10
164.6188428326861
 20
51.40482402449955
 30
0.0
 10
164.6188428326861
 20
51.38778710623977
 30
0.0
 10
164.6188428326861
 20
51.35079060987111
 30
0.0
 10
164.6188428326861
 20
51.2623546382348
 30
0.0
 10
164.6188428326861
 20
51.18681824619824
 30
0.0
 10
164.6188428326861
 20
51.13795664387391
 30
0.0
  0
CIRCLE
  5
14E
330
1F
100
AcDbEntity
  8
0
  6
Continuous
 62
     7
370
    35
100
AcDbCircle
 10
230.1976526398
 20
51.1379566439
 30
0.0
 40
20.63363708268827
  0
CIRCLE
  5
14F
330
1F
100
AcDbEntity
  8
0
  6
Continuous
 62
     7
370
    35
100
AcDbCircle
 10
230.1976526398
 20
51.1379566439
 30
0.0
 40
20.5
  0
CIRCLE
  5
150
330
1F
100
AcDbEntity
  8
0
  6
Continuous
 62
     7
370
    35
100
AcDbCircle
 10
230.1976526398
 20
51.1379566439
 30
0.0
 40
38.49999999999999
  0
ENDSEC
  0
SECTION
  2
OBJECTS
  0
DICTIONARY
  5
C
330
0
100
AcDbDictionary
281
     1
  3
ACAD_GROUP
350
D
  3
ACAD_LAYOUT
350
1A
  3
ACAD_MLINESTYLE
350
17
  3
ACAD_PLOTSETTINGS
350
19
  3
ACAD_PLOTSTYLENAME
350
E
  3
ACAD_SCALELIST
350
47
  3
DWGPROPS
350
151
  0
DICTIONARY
  5
D
102
{ACAD_REACTORS
330
C
102
}
330
C
100
AcDbDictionary
281
     1
  0
DICTIONARY
  5
1A
102
{ACAD_REACTORS
330
C
102
}
330
C
100
AcDbDictionary
281
     1
  3
Layout1
350
1E
  3
Layout2
350
26
  3
Model
350
22
  0
DICTIONARY
  5
17
102
{ACAD_REACTORS
330
C
102
}
330
C
100
AcDbDictionary
281
     1
  3
Standard
350
18
  0
DICTIONARY
  5
19
102
{ACAD_REACTORS
330
C
102
}
330
C
100
AcDbDictionary
281
     1
  0
ACDBDICTIONARYWDFLT
  5
E
102
{ACAD_REACTORS
330
C
102
}
330
C
100
AcDbDictionary
281
     1
  3
Normal
350
F
100
AcDbDictionaryWithDefault
340
F
  0
DICTIONARY
  5
47
102
{ACAD_REACTORS
330
C
102
}
330
C
100
AcDbDictionary
281
     1
  3
A0
350
48
  3
A1
350
49
  3
A2
350
4A
  3
A3
350
4B
  3
A4
350
4C
  3
A5
350
4D
  3
A6
350
4E
  3
A7
350
4F
  3
A8
350
50
  3
A9
350
51
  3
B0
350
52
  3
B1
350
53
  3
B2
350
54
  3
B3
350
55
  3
B4
350
56
  3
B5
350
57
  3
B6
350
58
  3
B7
350
59
  3
B8
350
5A
  3
B9
350
5B
  3
C0
350
5C
  3
C1
350
5D
  3
C2
350
5E
  3
C3
350
5F
  3
C4
350
60
  3
C5
350
61
  3
C6
350
62
  3
C7
350
63
  3
C8
350
64
  3
C9
350
65
  3
D0
350
66
  3
D1
350
67
  3
D2
350
68
  0
XRECORD
  5
151
102
{ACAD_REACTORS
330
C
102
}
330
C
100
AcDbXrecord
280
     1
  1
DWGPROPS COOKIE
  2

  3

  4

  6

  7

  8
y_harada
  9

300
=
301
=
302
=
303
=
304
=
305
=
306
=
307
=
308
=
309
=
 40
0.0
 41
2459317.17599478
 42
2459317.175995891
  1

 90
        0
  0
LAYOUT
  5
1E
102
{ACAD_REACTORS
330
1A
102
}
330
1A
100
AcDbPlotSettings
  1

  2
none_device
  4

  6

 40
0.0
 41
0.0
 42
0.0
 43
0.0
 44
0.0
 45
0.0
 46
0.0
 47
0.0
 48
0.0
 49
0.0
140
0.0
141
0.0
142
1.0
143
1.0
 70
   688
 72
     1
 73
     0
 74
     5
  7

 75
    16
147
1.0
148
0.0
149
0.0
100
AcDbLayout
  1
Layout1
 70
     1
 71
     1
 10
0.0
 20
0.0
 11
420.0
 21
297.0
 12
0.0
 22
0.0
 32
0.0
 14
1.0000000000E+20
 24
1.0000000000E+20
 34
1.0000000000E+20
 15
-1.0000000000E+20
 25
-1.0000000000E+20
 35
-1.0000000000E+20
146
0.0
 13
0.0
 23
0.0
 33
0.0
 16
1.0
 26
0.0
 36
0.0
 17
0.0
 27
1.0
 37
0.0
 76
     0
330
1B
  0
LAYOUT
  5
26
102
{ACAD_REACTORS
330
1A
102
}
330
1A
100
AcDbPlotSettings
  1

  2
none_device
  4

  6

 40
0.0
 41
0.0
 42
0.0
 43
0.0
 44
0.0
 45
0.0
 46
0.0
 47
0.0
 48
0.0
 49
0.0
140
0.0
141
0.0
142
1.0
143
1.0
 70
   688
 72
     1
 73
     0
 74
     5
  7

 75
    16
147
1.0
148
0.0
149
0.0
100
AcDbLayout
  1
Layout2
 70
     1
 71
     2
 10
0.0
 20
0.0
 11
0.0
 21
0.0
 12
0.0
 22
0.0
 32
0.0
 14
0.0
 24
0.0
 34
0.0
 15
0.0
 25
0.0
 35
0.0
146
0.0
 13
0.0
 23
0.0
 33
0.0
 16
1.0
 26
0.0
 36
0.0
 17
0.0
 27
1.0
 37
0.0
 76
     0
330
23
  0
LAYOUT
  5
22
102
{ACAD_REACTORS
330
1A
102
}
330
1A
100
AcDbPlotSettings
  1

  2
none_device
  4
Letter_(8.50_x_11.00_Inches)
  6

 40
6.35
 41
6.35
 42
6.35000508
 43
6.35000508
 44
215.9
 45
279.4
 46
0.0
 47
0.0
 48
0.0
 49
0.0
140
0.0
141
0.0
142
1.0
143
1.0
 70
  1712
 72
     1
 73
     0
 74
     0
  7

 75
     0
147
1.0
148
0.0
149
0.0
100
AcDbLayout
  1
Model
 70
     1
 71
     0
 10
0.0
 20
0.0
 11
420.0
 21
297.0
 12
0.0
 22
0.0
 32
0.0
 14
0.0
 24
0.0
 34
0.0
 15
420.0
 25
297.0
 35
0.0
146
0.0
 13
0.0
 23
0.0
 33
0.0
 16
1.0
 26
0.0
 36
0.0
 17
0.0
 27
1.0
 37
0.0
 76
     0
330
1F
331
29
  0
MLINESTYLE
  5
18
102
{ACAD_REACTORS
330
17
102
}
330
17
100
AcDbMlineStyle
  2
Standard
 70
     0
  3

 62
   256
 51
90.0
 52
90.0
 71
     2
 49
0.5
 62
   256
  6
BYLAYER
 49
-0.5
 62
   256
  6
BYLAYER
  0
ACDBPLACEHOLDER
  5
F
102
{ACAD_REACTORS
330
E
102
}
330
E
  0
SCALE
  5
48
102
{ACAD_REACTORS
330
47
102
}
330
47
100
AcDbScale
 70
     0
300
1:1
140
1.0
141
1.0
290
     1
  0
SCALE
  5
49
102
{ACAD_REACTORS
330
47
102
}
330
47
100
AcDbScale
 70
     0
300
1:2
140
1.0
141
2.0
290
     0
  0
SCALE
  5
4A
102
{ACAD_REACTORS
330
47
102
}
330
47
100
AcDbScale
 70
     0
300
1:4
140
1.0
141
4.0
290
     0
  0
SCALE
  5
4B
102
{ACAD_REACTORS
330
47
102
}
330
47
100
AcDbScale
 70
     0
300
1:5
140
1.0
141
5.0
290
     0
  0
SCALE
  5
4C
102
{ACAD_REACTORS
330
47
102
}
330
47
100
AcDbScale
 70
     0
300
1:8
140
1.0
141
8.0
290
     0
  0
SCALE
  5
4D
102
{ACAD_REACTORS
330
47
102
}
330
47
100
AcDbScale
 70
     0
300
1:10
140
1.0
141
10.0
290
     0
  0
SCALE
  5
4E
102
{ACAD_REACTORS
330
47
102
}
330
47
100
AcDbScale
 70
     0
300
1:16
140
1.0
141
16.0
290
     0
  0
SCALE
  5
4F
102
{ACAD_REACTORS
330
47
102
}
330
47
100
AcDbScale
 70
     0
300
1:20
140
1.0
141
20.0
290
     0
  0
SCALE
  5
50
102
{ACAD_REACTORS
330
47
102
}
330
47
100
AcDbScale
 70
     0
300
1:30
140
1.0
141
30.0
290
     0
  0
SCALE
  5
51
102
{ACAD_REACTORS
330
47
102
}
330
47
100
AcDbScale
 70
     0
300
1:40
140
1.0
141
40.0
290
     0
  0
SCALE
  5
52
102
{ACAD_REACTORS
330
47
102
}
330
47
100
AcDbScale
 70
     0
300
1:50
140
1.0
141
50.0
290
     0
  0
SCALE
  5
53
102
{ACAD_REACTORS
330
47
102
}
330
47
100
AcDbScale
 70
     0
300
1:100
140
1.0
141
100.0
290
     0
  0
SCALE
  5
54
102
{ACAD_REACTORS
330
47
102
}
330
47
100
AcDbScale
 70
     0
300
2:1
140
2.0
141
1.0
290
     0
  0
SCALE
  5
55
102
{ACAD_REACTORS
330
47
102
}
330
47
100
AcDbScale
 70
     0
300
4:1
140
4.0
141
1.0
290
     0
  0
SCALE
  5
56
102
{ACAD_REACTORS
330
47
102
}
330
47
100
AcDbScale
 70
     0
300
8:1
140
8.0
141
1.0
290
     0
  0
SCALE
  5
57
102
{ACAD_REACTORS
330
47
102
}
330
47
100
AcDbScale
 70
     0
300
10:1
140
10.0
141
1.0
290
     0
  0
SCALE
  5
58
102
{ACAD_REACTORS
330
47
102
}
330
47
100
AcDbScale
 70
     0
300
100:1
140
100.0
141
1.0
290
     0
  0
SCALE
  5
59
102
{ACAD_REACTORS
330
47
102
}
330
47
100
AcDbScale
 70
     0
300
1/128" = 1'-0"
140
0.0078125
141
12.0
290
     0
  0
SCALE
  5
5A
102
{ACAD_REACTORS
330
47
102
}
330
47
100
AcDbScale
 70
     0
300
1/64" = 1'-0"
140
0.015625
141
12.0
290
     0
  0
SCALE
  5
5B
102
{ACAD_REACTORS
330
47
102
}
330
47
100
AcDbScale
 70
     0
300
1/32" = 1'-0"
140
0.03125
141
12.0
290
     0
  0
SCALE
  5
5C
102
{ACAD_REACTORS
330
47
102
}
330
47
100
AcDbScale
 70
     0
300
1/16" = 1'-0"
140
0.0625
141
12.0
290
     0
  0
SCALE
  5
5D
102
{ACAD_REACTORS
330
47
102
}
330
47
100
AcDbScale
 70
     0
300
3/32" = 1'-0"
140
0.09375
141
12.0
290
     0
  0
SCALE
  5
5E
102
{ACAD_REACTORS
330
47
102
}
330
47
100
AcDbScale
 70
     0
300
1/8" = 1'-0"
140
0.125
141
12.0
290
     0
  0
SCALE
  5
5F
102
{ACAD_REACTORS
330
47
102
}
330
47
100
AcDbScale
 70
     0
300
3/16" = 1'-0"
140
0.1875
141
12.0
290
     0
  0
SCALE
  5
60
102
{ACAD_REACTORS
330
47
102
}
330
47
100
AcDbScale
 70
     0
300
1/4" = 1'-0"
140
0.25
141
12.0
290
     0
  0
SCALE
  5
61
102
{ACAD_REACTORS
330
47
102
}
330
47
100
AcDbScale
 70
     0
300
3/8" = 1'-0"
140
0.375
141
12.0
290
     0
  0
SCALE
  5
62
102
{ACAD_REACTORS
330
47
102
}
330
47
100
AcDbScale
 70
     0
300
1/2" = 1'-0"
140
0.5
141
12.0
290
     0
  0
SCALE
  5
63
102
{ACAD_REACTORS
330
47
102
}
330
47
100
AcDbScale
 70
     0
300
3/4" = 1'-0"
140
0.75
141
12.0
290
     0
  0
SCALE
  5
64
102
{ACAD_REACTORS
330
47
102
}
330
47
100
AcDbScale
 70
     0
300
1" = 1'-0"
140
1.0
141
12.0
290
     0
  0
SCALE
  5
65
102
{ACAD_REACTORS
330
47
102
}
330
47
100
AcDbScale
 70
     0
300
1-1/2" = 1'-0"
140
1.5
141
12.0
290
     0
  0
SCALE
  5
66
102
{ACAD_REACTORS
330
47
102
}
330
47
100
AcDbScale
 70
     0
300
3" = 1'-0"
140
3.0
141
12.0
290
     0
  0
SCALE
  5
67
102
{ACAD_REACTORS
330
47
102
}
330
47
100
AcDbScale
 70
     0
300
6" = 1'-0"
140
6.0
141
12.0
290
     0
  0
SCALE
  5
68
102
{ACAD_REACTORS
330
47
102
}
330
47
100
AcDbScale
 70
     0
300
1'-0" = 1'-0"
140
12.0
141
12.0
290
     0
  0
ENDSEC
  0
EOF
