  0
SECTION
  2
HEADER
  9
$ACADVER
  1
AC1015
  9
$ACADMAINTVER
 70
     6
  9
$DWGCODEPAGE
  3
DOS932
  9
$INSBASE
 10
0.0
 20
0.0
 30
0.0
  9
$EXTMIN
 10
0.0
 20
0.0
 30
0.0
  9
$EXTMAX
 10
420.0
 20
297.0
 30
0.0
  9
$LIMMIN
 10
0.0
 20
0.0
  9
$LIMMAX
 10
420.0
 20
297.0
  9
$ORTHOMODE
 70
     0
  9
$REGENMODE
 70
     1
  9
$FILLMODE
 70
     1
  9
$QTEXTMODE
 70
     0
  9
$MIRRTEXT
 70
     1
  9
$LTSCALE
 40
1.0
  9
$ATTMODE
 70
     1
  9
$TEXTSIZE
 40
3.8805555556
  9
$TRACEWID
 40
1.0
  9
$TEXTSTYLE
  7
Standard
  9
$CLAYER
  8
0
  9
$CELTYPE
  6
ByLayer
  9
$CECOLOR
 62
   256
  9
$CELTSCALE
 40
1.0
  9
$DISPSILH
 70
     0
  9
$DIMSCALE
 40
1.0
  9
$DIMASZ
 40
3.0
  9
$DIMEXO
 40
0.0
  9
$DIMDLI
 40
3.75
  9
$DIMRND
 40
0.0
  9
$DIMDLE
 40
0.0
  9
$DIMEXE
 40
1.0
  9
$DIMTP
 40
0.0
  9
$DIMTM
 40
0.0
  9
$DIMTXT
 40
3.5277777778
  9
$DIMCEN
 40
2.5
  9
$DIMTSZ
 40
0.0
  9
$DIMTOL
 70
     0
  9
$DIMLIM
 70
     0
  9
$DIMTIH
 70
     1
  9
$DIMTOH
 70
     1
  9
$DIMSE1
 70
     0
  9
$DIMSE2
 70
     0
  9
$DIMTAD
 70
     1
  9
$DIMZIN
 70
     0
  9
$DIMBLK
  1

  9
$DIMASO
 70
     1
  9
$DIMSHO
 70
     1
  9
$DIMPOST
  1

  9
$DIMAPOST
  1

  9
$DIMALT
 70
     0
  9
$DIMALTD
 70
     3
  9
$DIMALTF
 40
0.0393700787
  9
$DIMLFAC
 40
1.0
  9
$DIMTOFL
 70
     1
  9
$DIMTVP
 40
0.0
  9
$DIMTIX
 70
     0
  9
$DIMSOXD
 70
     0
  9
$DIMSAH
 70
     0
  9
$DIMBLK1
  1

  9
$DIMBLK2
  1

  9
$DIMSTYLE
  2
ISO-25
  9
$DIMCLRD
 70
     0
  9
$DIMCLRE
 70
     0
  9
$DIMCLRT
 70
     0
  9
$DIMTFAC
 40
1.0
  9
$DIMGAP
 40
1.0
  9
$DIMJUST
 70
     0
  9
$DIMSD1
 70
     0
  9
$DIMSD2
 70
     0
  9
$DIMTOLJ
 70
     0
  9
$DIMTZIN
 70
     0
  9
$DIMALTZ
 70
     0
  9
$DIMALTTZ
 70
     0
  9
$DIMUPT
 70
     0
  9
$DIMDEC
 70
     2
  9
$DIMTDEC
 70
     2
  9
$DIMALTU
 70
     2
  9
$DIMALTTD
 70
     3
  9
$DIMTXSTY
  7
Standard
  9
$DIMAUNIT
 70
     0
  9
$DIMADEC
 70
     2
  9
$DIMALTRND
 40
0.0
  9
$DIMAZIN
 70
     0
  9
$DIMDSEP
 70
    44
  9
$DIMATFIT
 70
     3
  9
$DIMFRAC
 70
     0
  9
$DIMLDRBLK
  1

  9
$DIMLUNIT
 70
     2
  9
$DIMLWD
 70
    -2
  9
$DIMLWE
 70
    -2
  9
$DIMTMOVE
 70
     0
  9
$LUNITS
 70
     2
  9
$LUPREC
 70
     2
  9
$SKETCHINC
 40
1.0
  9
$FILLETRAD
 40
10.0
  9
$AUNITS
 70
     0
  9
$AUPREC
 70
     2
  9
$MENU
  1
.
  9
$ELEVATION
 40
0.0
  9
$PELEVATION
 40
0.0
  9
$THICKNESS
 40
0.0
  9
$LIMCHECK
 70
     0
  9
$CHAMFERA
 40
0.0
  9
$CHAMFERB
 40
0.0
  9
$CHAMFERC
 40
0.0
  9
$CHAMFERD
 40
0.0
  9
$SKPOLY
 70
     0
  9
$TDCREATE
 40
2459317.552694954
  9
$TDUCREATE
 40
2459317.177694954
  9
$TDUPDATE
 40
2459317.55269625
  9
$TDUUPDATE
 40
2459317.17769625
  9
$TDINDWG
 40
0.0000000116
  9
$TDUSRTIMER
 40
0.0000000116
  9
$USRTIMER
 70
     1
  9
$ANGBASE
 50
0.0
  9
$ANGDIR
 70
     0
  9
$PDMODE
 70
     0
  9
$PDSIZE
 40
-1.0
  9
$PLINEWID
 40
0.0
  9
$SPLFRAME
 70
     0
  9
$SPLINETYPE
 70
     6
  9
$SPLINESEGS
 70
     8
  9
$HANDSEED
  5
1E2
  9
$SURFTAB1
 70
     6
  9
$SURFTAB2
 70
     6
  9
$SURFTYPE
 70
     6
  9
$SURFU
 70
     6
  9
$SURFV
 70
     6
  9
$UCSBASE
  2

  9
$UCSNAME
  2

  9
$UCSORG
 10
0.0
 20
0.0
 30
0.0
  9
$UCSXDIR
 10
1.0
 20
0.0
 30
0.0
  9
$UCSYDIR
 10
0.0
 20
1.0
 30
0.0
  9
$UCSORTHOREF
  2

  9
$UCSORTHOVIEW
 70
     0
  9
$UCSORGTOP
 10
0.0
 20
0.0
 30
0.0
  9
$UCSORGBOTTOM
 10
0.0
 20
0.0
 30
0.0
  9
$UCSORGLEFT
 10
0.0
 20
0.0
 30
0.0
  9
$UCSORGRIGHT
 10
0.0
 20
0.0
 30
0.0
  9
$UCSORGFRONT
 10
0.0
 20
0.0
 30
0.0
  9
$UCSORGBACK
 10
0.0
 20
0.0
 30
0.0
  9
$PUCSBASE
  2

  9
$PUCSNAME
  2

  9
$PUCSORG
 10
0.0
 20
0.0
 30
0.0
  9
$PUCSXDIR
 10
1.0
 20
0.0
 30
0.0
  9
$PUCSYDIR
 10
0.0
 20
1.0
 30
0.0
  9
$PUCSORTHOREF
  2

  9
$PUCSORTHOVIEW
 70
     0
  9
$PUCSORGTOP
 10
0.0
 20
0.0
 30
0.0
  9
$PUCSORGBOTTOM
 10
0.0
 20
0.0
 30
0.0
  9
$PUCSORGLEFT
 10
0.0
 20
0.0
 30
0.0
  9
$PUCSORGRIGHT
 10
0.0
 20
0.0
 30
0.0
  9
$PUCSORGFRONT
 10
0.0
 20
0.0
 30
0.0
  9
$PUCSORGBACK
 10
0.0
 20
0.0
 30
0.0
  9
$USERI1
 70
     0
  9
$USERI2
 70
     0
  9
$USERI3
 70
     0
  9
$USERI4
 70
     0
  9
$USERI5
 70
     0
  9
$USERR1
 40
0.0
  9
$USERR2
 40
0.0
  9
$USERR3
 40
0.0
  9
$USERR4
 40
0.0
  9
$USERR5
 40
0.0
  9
$WORLDVIEW
 70
     1
  9
$SHADEDGE
 70
     3
  9
$SHADEDIF
 70
    70
  9
$TILEMODE
 70
     1
  9
$MAXACTVP
 70
    64
  9
$PINSBASE
 10
0.0
 20
0.0
 30
0.0
  9
$PLIMCHECK
 70
     0
  9
$PEXTMIN
 10
1.0000000000E+20
 20
1.0000000000E+20
 30
1.0000000000E+20
  9
$PEXTMAX
 10
-1.0000000000E+20
 20
-1.0000000000E+20
 30
-1.0000000000E+20
  9
$PLIMMIN
 10
0.0
 20
0.0
  9
$PLIMMAX
 10
420.0
 20
297.0
  9
$UNITMODE
 70
     0
  9
$VISRETAIN
 70
     1
  9
$PLINEGEN
 70
     0
  9
$PSLTSCALE
 70
     1
  9
$TREEDEPTH
 70
  3020
  9
$CMLSTYLE
  2
Standard
  9
$CMLJUST
 70
     0
  9
$CMLSCALE
 40
20.0
  9
$PROXYGRAPHICS
 70
     1
  9
$MEASUREMENT
 70
     1
  9
$CELWEIGHT
370
    -1
  9
$ENDCAPS
280
     0
  9
$JOINSTYLE
280
     0
  9
$LWDISPLAY
290
     1
  9
$INSUNITS
 70
     4
  9
$HYPERLINKBASE
  1

  9
$STYLESHEET
  1

  9
$XEDIT
290
     1
  9
$CEPSNTYPE
380
     0
  9
$PSTYLEMODE
290
     1
  9
$FINGERPRINTGUID
  2
{ec1d7aa8-37f5-4ef7-8c0f-e9b9e03dcf0f}
  9
$VERSIONGUID
  2
{FAEB1C32-E019-11D5-929B-00C0DF256EC4}
  9
$EXTNAMES
290
     1
  9
$PSVPSCALE
 40
0.0
  9
$OLESTARTUP
290
     0
  0
ENDSEC
  0
SECTION
  2
CLASSES
  0
CLASS
  1
ACDBDICTIONARYWDFLT
  2
AcDbDictionaryWithDefault
  3
ObjectDBX Classes
 90
        0
280
     0
281
     0
  0
CLASS
  1
VISUALSTYLE
  2
AcDbVisualStyle
  3
ObjectDBX Classes
 90
     4095
280
     0
281
     0
  0
CLASS
  1
MATERIAL
  2
AcDbMaterial
  3
ObjectDBX Classes
 90
     1153
280
     0
281
     0
  0
CLASS
  1
SCALE
  2
AcDbScale
  3
ObjectDBX Classes
 90
     1153
280
     0
281
     0
  0
CLASS
  1
TABLESTYLE
  2
AcDbTableStyle
  3
ObjectDBX Classes
 90
     4095
280
     0
281
     0
  0
CLASS
  1
MLEADERSTYLE
  2
AcDbMLeaderStyle
  3
ACDB_MLEADERSTYLE_CLASS
 90
     4095
280
     0
281
     0
  0
CLASS
  1
SUN
  2
AcDbSun
  3
SCENEOE
 90
     1153
280
     0
281
     0
  0
CLASS
  1
ACDBPLACEHOLDER
  2
AcDbPlaceHolder
  3
ObjectDBX Classes
 90
        0
280
     0
281
     0
  0
CLASS
  1
LAYOUT
  2
AcDbLayout
  3
ObjectDBX Classes
 90
        0
280
     0
281
     0
  0
ENDSEC
  0
SECTION
  2
TABLES
  0
TABLE
  2
VPORT
  5
8
330
0
100
AcDbSymbolTable
 70
     1
  0
VPORT
  5
29
330
8
100
AcDbSymbolTableRecord
100
AcDbViewportTableRecord
  2
*Active
 70
     0
 10
0.0
 20
0.0
 11
1.0
 21
1.0
 12
210.0
 22
148.5
 13
0.0
 23
0.0
 14
10.0
 24
10.0
 15
10.0
 25
10.0
 16
0.0
 26
0.0
 36
1.0
 17
0.0
 27
0.0
 37
0.0
 40
297.0
 41
1.4141414141
 42
50.0
 43
0.0
 44
0.0
 50
0.0
 51
0.0
 71
     0
 72
  2000
 73
     1
 74
     3
 75
     0
 76
     0
 77
     0
 78
     0
281
     0
 65
     1
110
0.0
120
0.0
130
0.0
111
1.0
121
0.0
131
0.0
112
0.0
122
1.0
132
0.0
 79
     0
146
0.0
  0
ENDTAB
  0
TABLE
  2
LTYPE
  5
5
330
0
100
AcDbSymbolTable
 70
     6
  0
LTYPE
  5
14
330
5
100
AcDbSymbolTableRecord
100
AcDbLinetypeTableRecord
  2
ByBlock
 70
     0
  3

 72
    65
 73
     0
 40
0.0
  0
LTYPE
  5
15
330
5
100
AcDbSymbolTableRecord
100
AcDbLinetypeTableRecord
  2
ByLayer
 70
     0
  3

 72
    65
 73
     0
 40
0.0
  0
LTYPE
  5
16
330
5
100
AcDbSymbolTableRecord
100
AcDbLinetypeTableRecord
  2
Continuous
 70
     0
  3
Solid line
 72
    65
 73
     0
 40
0.0
  0
LTYPE
  5
6E
330
5
100
AcDbSymbolTableRecord
100
AcDbLinetypeTableRecord
  2
HIDDEN
 70
     0
  3
Hidden __ __ __ __ __ __ __ __ __ __ __ __ __ __
 72
    65
 73
     2
 40
1.905
 49
1.27
 74
     0
 49
-0.635
 74
     0
  0
LTYPE
  5
6F
330
5
100
AcDbSymbolTableRecord
100
AcDbLinetypeTableRecord
  2
PHANTOM
 70
     0
  3
Phantom ______  __  __  ______  __  __  ______
 72
    65
 73
     6
 40
12.7
 49
6.35
 74
     0
 49
-1.27
 74
     0
 49
1.27
 74
     0
 49
-1.27
 74
     0
 49
1.27
 74
     0
 49
-1.27
 74
     0
  0
LTYPE
  5
70
330
5
100
AcDbSymbolTableRecord
100
AcDbLinetypeTableRecord
  2
CENTER
 70
     0
  3
Center ____ _ ____ _ ____ _ ____ _ ____ _ ____
 72
    65
 73
     4
 40
10.16
 49
6.35
 74
     0
 49
-1.27
 74
     0
 49
1.27
 74
     0
 49
-1.27
 74
     0
  0
LTYPE
  5
71
330
5
100
AcDbSymbolTableRecord
100
AcDbLinetypeTableRecord
  2
CENTERX2
 70
     0
  3
Center (2x) ________  __  ________  __  _____
 72
    65
 73
     4
 40
20.32
 49
12.7
 74
     0
 49
-2.54
 74
     0
 49
2.54
 74
     0
 49
-2.54
 74
     0
  0
LTYPE
  5
72
330
5
100
AcDbSymbolTableRecord
100
AcDbLinetypeTableRecord
  2
DOT2
 70
     0
  3
Dot (.5x) ........................................
 72
    65
 73
     2
 40
0.635
 49
0.0
 74
     0
 49
-0.635
 74
     0
  0
ENDTAB
  0
TABLE
  2
LAYER
  5
2
330
0
100
AcDbSymbolTable
 70
     6
  0
LAYER
  5
10
330
2
100
AcDbSymbolTableRecord
100
AcDbLayerTableRecord
  2
0
 70
     0
 62
     7
  6
Continuous
370
    -3
390
F
  0
LAYER
  5
73
330
2
100
AcDbSymbolTableRecord
100
AcDbLayerTableRecord
  2
SLD-0
 70
     0
 62
     7
  6
Continuous
370
    -3
390
F
  0
LAYER
  5
74
330
2
100
AcDbSymbolTableRecord
100
AcDbLayerTableRecord
  2
8
 70
     0
 62
     7
  6
Continuous
370
    25
390
F
  0
LAYER
  5
75
330
2
100
AcDbSymbolTableRecord
100
AcDbLayerTableRecord
  2
9
 70
     0
 62
     7
  6
Continuous
370
    -3
390
F
  0
LAYER
  5
76
330
2
100
AcDbSymbolTableRecord
100
AcDbLayerTableRecord
  2
10
 70
     0
 62
     1
  6
Continuous
370
    -3
390
F
  0
LAYER
  5
77
330
2
100
AcDbSymbolTableRecord
100
AcDbLayerTableRecord
  2
11
 70
     0
 62
     7
  6
Continuous
370
    -3
390
F
  0
ENDTAB
  0
TABLE
  2
STYLE
  5
3
330
0
100
AcDbSymbolTable
 70
     2
  0
STYLE
  5
11
330
3
100
AcDbSymbolTableRecord
100
AcDbTextStyleTableRecord
  2
Standard
 70
     0
 40
0.0
 41
1.0
 50
0.0
 71
     0
 42
3.8805555556
  3
txt
  4
bigfont
  0
STYLE
  5
78
330
3
100
AcDbSymbolTableRecord
100
AcDbTextStyleTableRecord
  2
SLDTEXTSTYLE0
 70
     0
 40
0.0
 41
0.7
 50
0.0
 71
     0
 42
3.8805555556
  3
TXT
  4
bigfont
  0
ENDTAB
  0
TABLE
  2
VIEW
  5
6
330
0
100
AcDbSymbolTable
 70
     0
  0
ENDTAB
  0
TABLE
  2
UCS
  5
7
330
0
100
AcDbSymbolTable
 70
     0
  0
ENDTAB
  0
TABLE
  2
APPID
  5
9
330
0
100
AcDbSymbolTable
 70
     1
  0
APPID
  5
12
330
9
100
AcDbSymbolTableRecord
100
AcDbRegAppTableRecord
  2
ACAD
 70
     0
  0
ENDTAB
  0
TABLE
  2
DIMSTYLE
  5
A
330
0
100
AcDbSymbolTable
 70
     1
100
AcDbDimStyleTable
  0
DIMSTYLE
105
27
330
A
100
AcDbSymbolTableRecord
100
AcDbDimStyleTableRecord
  2
ISO-25
 70
     0
 41
2.5
 42
0.625
 43
3.75
 44
1.25
 73
     0
 74
     0
 77
     1
 78
     8
140
2.5
141
2.5
143
0.0393700787
147
0.625
171
     3
172
     1
178
     0
271
     2
272
     2
274
     3
278
    44
283
     0
284
     8
340
11
  0
ENDTAB
  0
TABLE
  2
BLOCK_RECORD
  5
1
330
0
100
AcDbSymbolTable
 70
     1
  0
BLOCK_RECORD
  5
1F
330
1
100
AcDbSymbolTableRecord
100
AcDbBlockTableRecord
  2
*Model_Space
340
22
  0
BLOCK_RECORD
  5
1B
330
1
100
AcDbSymbolTableRecord
100
AcDbBlockTableRecord
  2
*Paper_Space
340
1E
  0
BLOCK_RECORD
  5
23
330
1
100
AcDbSymbolTableRecord
100
AcDbBlockTableRecord
  2
*Paper_Space0
340
26
  0
ENDTAB
  0
ENDSEC
  0
SECTION
  2
BLOCKS
  0
BLOCK
  5
20
330
1F
100
AcDbEntity
  8
0
100
AcDbBlockBegin
  2
*Model_Space
 70
     0
 10
0.0
 20
0.0
 30
0.0
  3
*Model_Space
  1

  0
ENDBLK
  5
21
330
1F
100
AcDbEntity
  8
0
100
AcDbBlockEnd
  0
BLOCK
  5
1C
330
1B
100
AcDbEntity
 67
     1
  8
0
100
AcDbBlockBegin
  2
*Paper_Space
 70
     0
 10
0.0
 20
0.0
 30
0.0
  3
*Paper_Space
  1

  0
ENDBLK
  5
1D
330
1B
100
AcDbEntity
 67
     1
  8
0
100
AcDbBlockEnd
  0
BLOCK
  5
24
330
23
100
AcDbEntity
  8
0
100
AcDbBlockBegin
  2
*Paper_Space0
 70
     0
 10
0.0
 20
0.0
 30
0.0
  3
*Paper_Space0
  1

  0
ENDBLK
  5
25
330
23
100
AcDbEntity
  8
0
100
AcDbBlockEnd
  0
ENDSEC
  0
SECTION
  2
ENTITIES
  0
MTEXT
  5
79
330
1F
100
AcDbEntity
  8
9
 62
     7
100
AcDbMText
 10
22.9810592731
 20
14.7698939359
 30
0.0
 40
3.7041666667
 41
0.0
 71
     1
 72
     1
  1
2021/03/09
  7
SLDTEXTSTYLE0
 73
     1
 44
1.0
  0
MTEXT
  5
7A
330
1F
100
AcDbEntity
  8
9
 62
     7
100
AcDbMText
 10
22.9810592731
 20
39.3097759652
 30
0.0
 40
3.7041666667
 41
0.0
 71
     1
 72
     1
  1
12-8008型
  7
SLDTEXTSTYLE0
 73
     1
 44
1.0
  0
MTEXT
  5
7B
330
1F
100
AcDbEntity
  8
9
 62
     7
100
AcDbMText
 10
22.9810592731
 20
22.271836236
 30
0.0
 40
3.7041666667
 41
0.0
 71
     1
 72
     1
  1
-
  7
SLDTEXTSTYLE0
 73
     1
 44
1.0
  0
MTEXT
  5
7C
330
1F
100
AcDbEntity
  8
9
 62
     7
100
AcDbMText
 10
22.9810592731
 20
30.9293045781
 30
0.0
 40
3.7041666667
 41
0.0
 71
     1
 72
     1
  1
1:1
  7
SLDTEXTSTYLE0
 73
     1
 44
1.0
  0
LINE
  5
7D
330
1F
100
AcDbEntity
  8
0
  6
Continuous
 62
     7
370
    35
100
AcDbLine
 10
125.3347694129
 20
149.1899781691
 30
0.0
 11
125.3347694129
 21
123.0861090242
 31
0.0
  0
LINE
  5
7E
330
1F
100
AcDbEntity
  8
0
  6
Continuous
 62
     7
370
    35
100
AcDbLine
 10
233.3347694129
 20
123.0861090242
 30
0.0
 11
233.3347694129
 21
149.1899781691
 31
0.0
  0
ARC
  5
7F
330
1F
100
AcDbEntity
  8
0
  6
Continuous
 62
     7
370
    35
100
AcDbCircle
 10
77.5610220584
 20
123.0861090242
 30
0.0
 40
155.7737473544767
100
AcDbArc
 50
353.1838182293
 51
0.0
  0
ARC
  5
80
330
1F
100
AcDbEntity
  8
0
  6
Continuous
 62
     7
370
    35
100
AcDbCircle
 10
281.1085167673
 20
123.0861090242
 30
0.0
 40
155.7737473544767
100
AcDbArc
 50
180.0
 51
186.8161817707
  0
ARC
  5
81
330
1F
100
AcDbEntity
  8
0
  6
Continuous
 62
     7
370
    35
100
AcDbCircle
 10
177.8397999996
 20
110.7424786945
 30
0.0
 40
51.76993457548544
100
AcDbArc
 50
186.8161817707
 51
203.3426337043
  0
ARC
  5
82
330
1F
100
AcDbEntity
  8
0
  6
Continuous
 62
     7
370
    35
100
AcDbCircle
 10
180.8297388261
 20
110.7424786945
 30
0.0
 40
51.76993457548546
100
AcDbArc
 50
336.6573662957
 51
353.1838182293
  0
ARC
  5
83
330
1F
100
AcDbEntity
  8
0
  6
Continuous
 62
     7
370
    35
100
AcDbCircle
 10
155.054084596
 20
100.9092933522
 30
0.0
 40
26.95299760832778
100
AcDbArc
 50
203.3426337043
 51
246.6573662957
  0
ARC
  5
84
330
1F
100
AcDbEntity
  8
0
  6
Continuous
 62
     7
370
    35
100
AcDbCircle
 10
203.6154542297
 20
100.9092933522
 30
0.0
 40
26.95299760832779
100
AcDbArc
 50
293.3426337043
 51
336.6573662957
  0
ARC
  5
85
330
1F
100
AcDbEntity
  8
0
  6
Continuous
 62
     7
370
    35
100
AcDbCircle
 10
164.8872699383
 20
123.6950087558
 30
0.0
 40
51.76993457548467
100
AcDbArc
 50
246.6573662957
 51
257.1058396908
  0
ARC
  5
86
330
1F
100
AcDbEntity
  8
0
  6
Continuous
 62
     7
370
    35
100
AcDbCircle
 10
193.7822688874
 20
123.6950087558
 30
0.0
 40
51.76993457548465
100
AcDbArc
 50
282.8941603092
 51
293.3426337043
  0
LINE
  5
87
330
1F
100
AcDbEntity
  8
0
  6
Continuous
 62
     7
370
    35
100
AcDbLine
 10
228.4645242165
 20
326.1899781691
 30
0.0
 11
227.5845761855
 21
327.9169734189
 31
0.0
  0
LINE
  5
88
330
1F
100
AcDbEntity
  8
0
  6
Continuous
 62
     7
370
    35
100
AcDbLine
 10
131.0849626402
 20
327.9169734189
 30
0.0
 11
130.2050146092
 21
326.1899781691
 31
0.0
  0
ARC
  5
89
330
1F
100
AcDbEntity
  8
0
  6
Continuous
 62
     7
370
    35
100
AcDbCircle
 10
131.5304659023
 20
327.6899781691
 30
0.0
 40
0.4999999999999757
100
AcDbArc
 50
90.0
 51
153.0
  0
ARC
  5
8A
330
1F
100
AcDbEntity
  8
0
  6
Continuous
 62
     7
370
    35
100
AcDbCircle
 10
227.1390729234
 20
327.6899781691
 30
0.0
 40
0.4999999999999748
100
AcDbArc
 50
27.0
 51
90.0
  0
LINE
  5
8B
330
1F
100
AcDbEntity
  8
0
  6
Continuous
 62
     7
370
    35
100
AcDbLine
 10
169.3347694129
 20
357.4157216028
 30
0.0
 11
169.3347694129
 21
354.5261162056
 31
0.0
  0
LINE
  5
8C
330
1F
100
AcDbEntity
  8
0
  6
Continuous
 62
     7
370
    35
100
AcDbLine
 10
189.3347694129
 20
354.5261162056
 30
0.0
 11
189.3347694129
 21
357.4157216028
 31
0.0
  0
ARC
  5
8D
330
1F
100
AcDbEntity
  8
0
  6
Continuous
 62
     7
370
    35
100
AcDbCircle
 10
160.487779162
 20
354.5261162056
 30
0.0
 40
28.84699025082642
100
AcDbArc
 50
353.1838182293
 51
0.0
  0
ARC
  5
8E
330
1F
100
AcDbEntity
  8
0
  6
Continuous
 62
     7
370
    35
100
AcDbCircle
 10
198.1817596637
 20
354.5261162056
 30
0.0
 40
28.84699025082642
100
AcDbArc
 50
180.0
 51
186.8161817707
  0
ARC
  5
8F
330
1F
100
AcDbEntity
  8
0
  6
Continuous
 62
     7
370
    35
100
AcDbCircle
 10
179.0579232252
 20
352.2402587371
 30
0.0
 40
9.587024921386439
100
AcDbArc
 50
186.8161817707
 51
203.3426337043
  0
ARC
  5
90
330
1F
100
AcDbEntity
  8
0
  6
Continuous
 62
     7
370
    35
100
AcDbCircle
 10
179.6116156005
 20
352.2402587371
 30
0.0
 40
9.58702492138644
100
AcDbArc
 50
336.6573662957
 51
353.1838182293
  0
ARC
  5
91
330
1F
100
AcDbEntity
  8
0
  6
Continuous
 62
     7
370
    35
100
AcDbCircle
 10
174.8383462986
 20
350.4192984885
 30
0.0
 40
4.991295853394514
100
AcDbArc
 50
203.3426337043
 51
246.6573662957
  0
ARC
  5
92
330
1F
100
AcDbEntity
  8
0
  6
Continuous
 62
     7
370
    35
100
AcDbCircle
 10
183.8311925271
 20
350.4192984885
 30
0.0
 40
4.991295853394503
100
AcDbArc
 50
293.3426337043
 51
336.6573662957
  0
ARC
  5
93
330
1F
100
AcDbEntity
  8
0
  6
Continuous
 62
     7
370
    35
100
AcDbCircle
 10
203.6154542297
 20
315.470662986
 30
0.0
 40
26.95299760832763
100
AcDbArc
 50
28.1581721326
 51
66.6573662957
  0
ARC
  5
94
330
1F
100
AcDbEntity
  8
0
  6
Continuous
 62
     7
370
    35
100
AcDbCircle
 10
155.054084596
 20
315.470662986
 30
0.0
 40
26.95299760832765
100
AcDbArc
 50
113.3426337043
 51
151.8418278674
  0
ARC
  5
95
330
1F
100
AcDbEntity
  8
0
  6
Continuous
 62
     7
370
    35
100
AcDbCircle
 10
193.7822688874
 20
292.6849475823
 30
0.0
 40
51.76993457548611
100
AcDbArc
 50
66.6573662957
 51
83.1838182293
  0
ARC
  5
96
330
1F
100
AcDbEntity
  8
0
  6
Continuous
 62
     7
370
    35
100
AcDbCircle
 10
164.8872699383
 20
292.6849475823
 30
0.0
 40
51.76993457548611
100
AcDbArc
 50
96.8161817707
 51
113.3426337043
  0
ARC
  5
97
330
1F
100
AcDbEntity
  8
0
  6
Continuous
 62
     7
370
    35
100
AcDbCircle
 10
181.4386385577
 20
189.4162308146
 30
0.0
 40
155.7737473544664
100
AcDbArc
 50
83.1838182293
 51
89.2105978529
  0
ARC
  5
98
330
1F
100
AcDbEntity
  8
0
  6
Continuous
 62
     7
370
    35
100
AcDbCircle
 10
177.230900268
 20
189.4162308146
 30
0.0
 40
155.7737473544664
100
AcDbArc
 50
90.7894021471
 51
96.8161817707
  0
LINE
  5
99
330
1F
100
AcDbEntity
  8
0
  6
Continuous
 62
     7
370
    35
100
AcDbLine
 10
233.3347694129
 20
267.1899781691
 30
0.0
 11
233.3347694129
 21
293.2938473139
 31
0.0
  0
LINE
  5
9A
330
1F
100
AcDbEntity
  8
0
  6
Continuous
 62
     7
370
    35
100
AcDbLine
 10
125.3347694129
 20
293.2938473139
 30
0.0
 11
125.3347694129
 21
267.1899781691
 31
0.0
  0
ARC
  5
9B
330
1F
100
AcDbEntity
  8
0
  6
Continuous
 62
     7
370
    35
100
AcDbCircle
 10
281.1085167673
 20
293.2938473139
 30
0.0
 40
155.7737473544751
100
AcDbArc
 50
173.1838182293
 51
180.0
  0
ARC
  5
9C
330
1F
100
AcDbEntity
  8
0
  6
Continuous
 62
     7
370
    35
100
AcDbCircle
 10
77.5610220584
 20
293.2938473139
 30
0.0
 40
155.7737473544751
100
AcDbArc
 50
0.0
 51
6.8161817707
  0
ARC
  5
9D
330
1F
100
AcDbEntity
  8
0
  6
Continuous
 62
     7
370
    35
100
AcDbCircle
 10
180.8297388261
 20
305.6374776436
 30
0.0
 40
51.76993457548561
100
AcDbArc
 50
6.8161817707
 51
23.3426337043
  0
ARC
  5
9E
330
1F
100
AcDbEntity
  8
0
  6
Continuous
 62
     7
370
    35
100
AcDbCircle
 10
177.8397999996
 20
305.6374776436
 30
0.0
 40
51.76993457548556
100
AcDbArc
 50
156.6573662957
 51
173.1838182293
  0
ARC
  5
9F
330
1F
100
AcDbEntity
  8
0
  6
Continuous
 62
     7
370
    35
100
AcDbCircle
 10
203.6154543163
 20
315.4706630233
 30
0.0
 40
26.95299751405583
100
AcDbArc
 50
23.3426337043
 51
23.4347231953
  0
ARC
  5
A0
330
1F
100
AcDbEntity
  8
0
  6
Continuous
 62
     7
370
    35
100
AcDbCircle
 10
155.0540845094
 20
315.4706630233
 30
0.0
 40
26.95299751405587
100
AcDbArc
 50
156.5652768047
 51
156.6573662957
  0
LINE
  5
A1
330
1F
100
AcDbEntity
  8
0
  6
Continuous
 62
     7
370
    35
100
AcDbLine
 10
233.3347694129
 20
149.1899781691
 30
0.0
 11
233.3347694129
 21
267.1899781691
 31
0.0
  0
LINE
  5
A2
330
1F
100
AcDbEntity
  8
0
  6
Continuous
 62
     7
370
    35
100
AcDbLine
 10
125.3347694129
 20
267.1899781691
 30
0.0
 11
125.3347694129
 21
149.1899781691
 31
0.0
  0
ARC
  5
A3
330
1F
100
AcDbEntity
  8
0
  6
Continuous
 62
     7
370
    35
100
AcDbCircle
 10
198.1817596637
 20
435.305327
 30
0.0
 40
28.84699025082813
100
AcDbArc
 50
173.1838182293
 51
180.0
  0
ARC
  5
A4
330
1F
100
AcDbEntity
  8
0
  6
Continuous
 62
     7
370
    35
100
AcDbCircle
 10
160.487779162
 20
435.305327
 30
0.0
 40
28.84699025082813
100
AcDbArc
 50
0.0
 51
6.8161817707
  0
LINE
  5
A5
330
1F
100
AcDbEntity
  8
0
  6
Continuous
 62
     7
370
    35
100
AcDbLine
 10
189.3347694129
 20
432.4157216028
 30
0.0
 11
189.3347694129
 21
435.305327
 31
0.0
  0
LINE
  5
A6
330
1F
100
AcDbEntity
  8
0
  6
Continuous
 62
     7
370
    35
100
AcDbLine
 10
169.3347694129
 20
435.305327
 30
0.0
 11
169.3347694129
 21
432.4157216028
 31
0.0
  0
ARC
  5
A7
330
1F
100
AcDbEntity
  8
0
  6
Continuous
 62
     7
370
    35
100
AcDbCircle
 10
179.6116156005
 20
437.5911844684
 30
0.0
 40
9.587024921386131
100
AcDbArc
 50
6.8161817707
 51
23.3426337043
  0
ARC
  5
A8
330
1F
100
AcDbEntity
  8
0
  6
Continuous
 62
     7
370
    35
100
AcDbCircle
 10
179.0579232252
 20
437.5911844684
 30
0.0
 40
9.587024921386107
100
AcDbArc
 50
156.6573662957
 51
173.1838182293
  0
ARC
  5
A9
330
1F
100
AcDbEntity
  8
0
  6
Continuous
 62
     7
370
    35
100
AcDbCircle
 10
183.8311925271
 20
439.412144717
 30
0.0
 40
4.991295853394923
100
AcDbArc
 50
23.3426337043
 51
66.6573662957
  0
ARC
  5
AA
330
1F
100
AcDbEntity
  8
0
  6
Continuous
 62
     7
370
    35
100
AcDbCircle
 10
174.8383462986
 20
439.412144717
 30
0.0
 40
4.991295853394911
100
AcDbArc
 50
113.3426337043
 51
156.6573662957
  0
ARC
  5
AB
330
1F
100
AcDbEntity
  8
0
  6
Continuous
 62
     7
370
    35
100
AcDbCircle
 10
182.0102322785
 20
435.1925677904
 30
0.0
 40
9.587024921388089
100
AcDbArc
 50
66.6573662957
 51
83.1838182293
  0
ARC
  5
AC
330
1F
100
AcDbEntity
  8
0
  6
Continuous
 62
     7
370
    35
100
AcDbCircle
 10
176.6593065472
 20
435.1925677904
 30
0.0
 40
9.58702492138809
100
AcDbArc
 50
96.8161817707
 51
113.3426337043
  0
ARC
  5
AD
330
1F
100
AcDbEntity
  8
0
  6
Continuous
 62
     7
370
    35
100
AcDbCircle
 10
179.7243748101
 20
416.0687313519
 30
0.0
 40
28.8469902508242
100
AcDbArc
 50
83.1838182293
 51
90.0
  0
ARC
  5
AE
330
1F
100
AcDbEntity
  8
0
  6
Continuous
 62
     7
370
    35
100
AcDbCircle
 10
178.9451640157
 20
416.0687313519
 30
0.0
 40
28.8469902508242
100
AcDbArc
 50
90.0
 51
96.8161817707
  0
LINE
  5
AF
330
1F
100
AcDbEntity
  8
0
  6
Continuous
 62
     7
370
    35
100
AcDbLine
 10
154.3347694129
 20
73.2305077917
 30
0.0
 11
154.3347694129
 21
72.8305077917
 31
0.0
  0
LINE
  5
B0
330
1F
100
AcDbEntity
  8
0
  6
Continuous
 62
     7
370
    35
100
AcDbLine
 10
204.3347694129
 20
72.8305077917
 30
0.0
 11
204.3347694129
 21
73.2305077917
 31
0.0
  0
ARC
  5
B1
330
1F
100
AcDbEntity
  8
0
  6
Continuous
 62
     7
370
    35
100
AcDbCircle
 10
204.1347694129
 20
72.8305077917
 30
0.0
 40
0.2000000000000028
100
AcDbArc
 50
270.0
 51
0.0
  0
ARC
  5
B2
330
1F
100
AcDbEntity
  8
0
  6
Continuous
 62
     7
370
    35
100
AcDbCircle
 10
154.5347694129
 20
72.8305077917
 30
0.0
 40
0.2000000000000028
100
AcDbArc
 50
180.0
 51
270.0
  0
LINE
  5
B3
330
1F
100
AcDbEntity
  8
0
  6
Continuous
 62
     7
370
    35
100
AcDbLine
 10
189.3347694129
 20
357.4157216028
 30
0.0
 11
189.3347694129
 21
432.4157216028
 31
0.0
  0
LINE
  5
B4
330
1F
100
AcDbEntity
  8
0
  6
Continuous
 62
     7
370
    35
100
AcDbLine
 10
169.3347694129
 20
432.4157216028
 30
0.0
 11
169.3347694129
 21
357.4157216028
 31
0.0
  0
LINE
  5
B5
330
1F
100
AcDbEntity
  8
0
  6
Continuous
 62
     7
370
    35
100
AcDbLine
 10
179.3347694129
 20
149.1899781691
 30
0.0
 11
125.3347694129
 21
149.1899781691
 31
0.0
  0
LINE
  5
B6
330
1F
100
AcDbEntity
  8
0
  6
Continuous
 62
     7
370
    35
100
AcDbLine
 10
233.3347694129
 20
149.1899781691
 30
0.0
 11
179.3347694129
 21
149.1899781691
 31
0.0
  0
LINE
  5
B7
330
1F
100
AcDbEntity
  8
0
  6
Continuous
 62
     7
370
    35
100
AcDbLine
 10
153.3347694129
 20
73.2305077917
 30
0.0
 11
205.3347694129
 21
73.2305077917
 31
0.0
  0
LINE
  5
B8
330
1F
100
AcDbEntity
  8
0
  6
Continuous
 62
     7
370
    35
100
AcDbLine
 10
130.2050146092
 20
326.1899781691
 30
0.0
 11
228.4645242165
 21
326.1899781691
 31
0.0
  0
LINE
  5
B9
330
1F
100
AcDbEntity
  8
0
  6
Continuous
 62
   144
370
    18
100
AcDbLine
 10
188.9737838122
 20
357.4157216028
 30
0.0
 11
169.3347694129
 21
357.4157216028
 31
0.0
  0
LINE
  5
BA
330
1F
100
AcDbEntity
  8
0
  6
Continuous
 62
   144
370
    18
100
AcDbLine
 10
189.3347694129
 20
357.4157216028
 30
0.0
 11
188.9737838122
 21
357.4157216028
 31
0.0
  0
LINE
  5
BB
330
1F
100
AcDbEntity
  8
0
  6
Continuous
 62
   144
370
    18
100
AcDbLine
 10
185.5751813824
 20
345.836531205
 30
0.0
 11
185.8088877314
 21
345.836531205
 31
0.0
  0
LINE
  5
BC
330
1F
100
AcDbEntity
  8
0
  6
Continuous
 62
   144
370
    18
100
AcDbLine
 10
172.8606510943
 20
345.836531205
 30
0.0
 11
185.5751813824
 21
345.836531205
 31
0.0
  0
LINE
  5
BD
330
1F
100
AcDbEntity
  8
0
  6
Continuous
 62
     7
370
    35
100
AcDbLine
 10
131.2910228962
 20
328.1899781691
 30
0.0
 11
227.3785159295
 21
328.1899781691
 31
0.0
  0
LINE
  5
BE
330
1F
100
AcDbEntity
  8
0
  6
Continuous
 62
   144
370
    18
100
AcDbLine
 10
175.0902623671
 20
345.1751935975
 30
0.0
 11
175.0847694129
 21
345.1751935975
 31
0.0
  0
LINE
  5
BF
330
1F
100
AcDbEntity
  8
0
  6
Continuous
 62
   144
370
    18
100
AcDbLine
 10
183.5847694129
 20
345.1751935975
 30
0.0
 11
175.0902623671
 21
345.1751935975
 31
0.0
  0
LINE
  5
C0
330
1F
100
AcDbEntity
  8
0
  6
Continuous
 62
     7
370
    35
100
AcDbLine
 10
125.3347694129
 20
267.1899781691
 30
0.0
 11
233.3347694129
 21
267.1899781691
 31
0.0
  0
LINE
  5
C1
330
1F
100
AcDbEntity
  8
0
  6
Continuous
 62
     7
370
    35
100
AcDbLine
 10
125.3347694129
 20
149.1899781691
 30
0.0
 11
233.3347694129
 21
149.1899781691
 31
0.0
  0
LINE
  5
C2
330
1F
100
AcDbEntity
  8
0
  6
Continuous
 62
   144
370
    18
100
AcDbLine
 10
169.8089947343
 20
432.4157216028
 30
0.0
 11
189.3347694129
 21
432.4157216028
 31
0.0
  0
LINE
  5
C3
330
1F
100
AcDbEntity
  8
0
  6
Continuous
 62
   144
370
    18
100
AcDbLine
 10
169.3347694129
 20
432.4157216028
 30
0.0
 11
169.8089947343
 21
432.4157216028
 31
0.0
  0
LINE
  5
C4
330
1F
100
AcDbEntity
  8
0
  6
Continuous
 62
   144
370
    18
100
AcDbLine
 10
179.7243748101
 20
444.9157216028
 30
0.0
 11
178.9451640157
 21
444.9157216028
 31
0.0
  0
LINE
  5
C5
330
1F
100
AcDbEntity
  8
0
  6
Continuous
 62
     7
370
    35
100
AcDbLine
 10
204.1347694129
 20
72.6305077917
 30
0.0
 11
154.5347695572
 21
72.6305077917
 31
0.0
  0
LINE
  5
C6
330
1F
100
AcDbEntity
  8
0
  6
Continuous
 62
   144
370
    18
100
AcDbLine
 10
169.3347694129
 20
357.4157216028
 30
0.0
 11
189.3347694129
 21
357.4157216028
 31
0.0
  0
LINE
  5
C7
330
1F
100
AcDbEntity
  8
0
  6
Continuous
 62
   144
370
    18
100
AcDbLine
 10
189.3347694129
 20
432.4157216028
 30
0.0
 11
169.3347694129
 21
432.4157216028
 31
0.0
  0
LINE
  5
C8
330
1F
100
AcDbEntity
  8
0
  6
HIDDEN
 62
   144
370
    18
100
AcDbLine
 10
160.7433033724
 20
74.2254952288
 30
0.0
 11
204.4347694129
 21
74.2254952288
 31
0.0
  0
LINE
  5
C9
330
1F
100
AcDbEntity
  8
0
  6
HIDDEN
 62
   144
370
    18
100
AcDbLine
 10
154.2347694129
 20
74.2254952288
 30
0.0
 11
160.7433033724
 21
74.2254952288
 31
0.0
  0
LINE
  5
CA
330
1F
100
AcDbEntity
  8
0
  6
HIDDEN
 62
     7
370
    18
100
AcDbLine
 10
175.0768092938
 20
73.8455077917
 30
0.0
 11
187.1197694129
 21
73.8455077917
 31
0.0
  0
LINE
  5
CB
330
1F
100
AcDbEntity
  8
0
  6
HIDDEN
 62
     7
370
    18
100
AcDbLine
 10
171.5497694129
 20
73.8455077917
 30
0.0
 11
175.0768092938
 21
73.8455077917
 31
0.0
  0
LINE
  5
CC
330
1F
100
AcDbEntity
  8
0
  6
HIDDEN
 62
   144
370
    18
100
AcDbLine
 10
177.0668947438
 20
77.4840611823
 30
0.0
 11
175.1883228035
 21
77.4840611823
 31
0.0
  0
LINE
  5
CD
330
1F
100
AcDbEntity
  8
0
  6
HIDDEN
 62
   144
370
    18
100
AcDbLine
 10
183.4812160223
 20
77.4840611823
 30
0.0
 11
177.0668947438
 21
77.4840611823
 31
0.0
  0
LINE
  5
CE
330
1F
100
AcDbEntity
  8
0
  6
HIDDEN
 62
     7
370
    18
100
AcDbLine
 10
181.7611352477
 20
73.2305077917
 30
0.0
 11
181.7611352477
 21
76.7305077917
 31
0.0
  0
LINE
  5
CF
330
1F
100
AcDbEntity
  8
0
  6
HIDDEN
 62
     7
370
    18
100
AcDbLine
 10
179.1751225424
 20
73.2305077917
 30
0.0
 11
179.1751225424
 21
76.7305077917
 31
0.0
  0
LINE
  5
D0
330
1F
100
AcDbEntity
  8
0
  6
HIDDEN
 62
   144
370
    18
100
AcDbLine
 10
179.1751225424
 20
76.7305077917
 30
0.0
 11
181.7611352477
 21
76.7305077917
 31
0.0
  0
LINE
  5
D1
330
1F
100
AcDbEntity
  8
0
  6
HIDDEN
 62
     7
370
    18
100
AcDbLine
 10
176.7487567075
 20
73.2305077917
 30
0.0
 11
176.7487567075
 21
76.7305077917
 31
0.0
  0
LINE
  5
D2
330
1F
100
AcDbEntity
  8
0
  6
HIDDEN
 62
   144
370
    18
100
AcDbLine
 10
176.7487567075
 20
76.7305077917
 30
0.0
 11
179.1751225424
 21
76.7305077917
 31
0.0
  0
LINE
  5
D3
330
1F
100
AcDbEntity
  8
0
  6
HIDDEN
 62
     7
370
    18
100
AcDbLine
 10
181.9207821182
 20
73.2305077917
 30
0.0
 11
181.9207821182
 21
76.7305077917
 31
0.0
  0
LINE
  5
D4
330
1F
100
AcDbEntity
  8
0
  6
HIDDEN
 62
   144
370
    18
100
AcDbLine
 10
181.7611352477
 20
76.7305077917
 30
0.0
 11
181.9207821182
 21
76.7305077917
 31
0.0
  0
LINE
  5
D5
330
1F
100
AcDbEntity
  8
0
  6
HIDDEN
 62
     7
370
    18
100
AcDbLine
 10
176.908403578
 20
76.7305077917
 30
0.0
 11
176.908403578
 21
73.2305077917
 31
0.0
  0
LINE
  5
D6
330
1F
100
AcDbEntity
  8
0
  6
HIDDEN
 62
     7
370
    18
100
AcDbLine
 10
179.4944162833
 20
73.2305077917
 30
0.0
 11
179.4944162833
 21
76.7305077917
 31
0.0
  0
LINE
  5
D7
330
1F
100
AcDbEntity
  8
0
  6
HIDDEN
 62
   144
370
    18
100
AcDbLine
 10
192.7715792376
 20
74.2305077917
 30
0.0
 11
159.3347694129
 21
74.2305077917
 31
0.0
  0
LINE
  5
D8
330
1F
100
AcDbEntity
  8
0
  6
HIDDEN
 62
   144
370
    18
100
AcDbLine
 10
199.3347694129
 20
74.2305077917
 30
0.0
 11
192.7715792376
 21
74.2305077917
 31
0.0
  0
LINE
  5
D9
330
1F
100
AcDbEntity
  8
0
  6
HIDDEN
 62
   144
370
    18
100
AcDbLine
 10
182.1829295656
 20
77.66984762
 30
0.0
 11
175.0954295847
 21
77.66984762
 31
0.0
  0
LINE
  5
DA
330
1F
100
AcDbEntity
  8
0
  6
HIDDEN
 62
   144
370
    18
100
AcDbLine
 10
183.574109241
 20
77.66984762
 30
0.0
 11
182.1829295656
 21
77.66984762
 31
0.0
  0
LINE
  5
DB
330
1F
100
AcDbEntity
  8
0
  6
HIDDEN
 62
   144
370
    18
100
AcDbLine
 10
204.3347694129
 20
75.4305077917
 30
0.0
 11
154.3347694129
 21
75.4305077917
 31
0.0
  0
ARC
  5
DC
330
1F
100
AcDbEntity
  8
0
  6
HIDDEN
 62
     7
370
    18
100
AcDbCircle
 10
205.4347694129
 20
74.2254952288
 30
0.0
 40
1.000000000000012
100
AcDbArc
 50
180.0
 51
264.2608295227
  0
ARC
  5
DD
330
1F
100
AcDbEntity
  8
0
  6
HIDDEN
 62
     7
370
    18
100
AcDbCircle
 10
153.2347694129
 20
74.2254952288
 30
0.0
 40
1.000000000000012
100
AcDbArc
 50
275.7391704773
 51
0.0
  0
LINE
  5
DE
330
1F
100
AcDbEntity
  8
0
  6
HIDDEN
 62
     7
370
    18
100
AcDbLine
 10
187.1197694129
 20
73.2305077917
 30
0.0
 11
187.1197694129
 21
73.8455077917
 31
0.0
  0
LINE
  5
DF
330
1F
100
AcDbEntity
  8
0
  6
HIDDEN
 62
     7
370
    18
100
AcDbLine
 10
171.5497694129
 20
73.8455077917
 30
0.0
 11
171.5497694129
 21
73.2305077917
 31
0.0
  0
LINE
  5
E0
330
1F
100
AcDbEntity
  8
0
  6
HIDDEN
 62
     7
370
    18
100
AcDbLine
 10
187.1197694129
 20
73.8455077917
 30
0.0
 11
183.4812160223
 21
77.4840611823
 31
0.0
  0
LINE
  5
E1
330
1F
100
AcDbEntity
  8
0
  6
HIDDEN
 62
     7
370
    18
100
AcDbLine
 10
175.1883228035
 20
77.4840611823
 30
0.0
 11
171.5497694129
 21
73.8455077917
 31
0.0
  0
ARC
  5
E2
330
1F
100
AcDbEntity
  8
0
  6
HIDDEN
 62
     7
370
    18
100
AcDbCircle
 10
160.3347694129
 20
74.2305077917
 30
0.0
 40
1.0
100
AcDbArc
 50
180.0
 51
270.0
  0
ARC
  5
E3
330
1F
100
AcDbEntity
  8
0
  6
HIDDEN
 62
     7
370
    18
100
AcDbCircle
 10
198.3347694129
 20
74.2305077917
 30
0.0
 40
1.0
100
AcDbArc
 50
270.0
 51
0.0
  0
ARC
  5
E4
330
1F
100
AcDbEntity
  8
0
  6
HIDDEN
 62
     7
370
    18
100
AcDbCircle
 10
189.3347694129
 20
76.4204572854
 30
0.0
 40
3.189949493661126
100
AcDbArc
 50
225.0
 51
270.0
  0
ARC
  5
E5
330
1F
100
AcDbEntity
  8
0
  6
HIDDEN
 62
     7
370
    18
100
AcDbCircle
 10
169.3347694129
 20
76.4204572854
 30
0.0
 40
3.189949493661146
100
AcDbArc
 50
270.0
 51
315.0
  0
LINE
  5
E6
330
1F
100
AcDbEntity
  8
0
  6
HIDDEN
 62
     7
370
    18
100
AcDbLine
 10
187.0791344943
 20
74.1648223667
 30
0.0
 11
183.574109241
 21
77.66984762
 31
0.0
  0
LINE
  5
E7
330
1F
100
AcDbEntity
  8
0
  6
HIDDEN
 62
     7
370
    18
100
AcDbLine
 10
175.0954295847
 20
77.66984762
 30
0.0
 11
171.5904043314
 21
74.1648223667
 31
0.0
  0
LINE
  5
E8
330
1F
100
AcDbEntity
  8
0
  6
HIDDEN
 62
     7
370
    18
100
AcDbLine
 10
154.3347694129
 20
75.4305077917
 30
0.0
 11
154.3347694129
 21
73.2305077917
 31
0.0
  0
LINE
  5
E9
330
1F
100
AcDbEntity
  8
0
  6
HIDDEN
 62
     7
370
    18
100
AcDbLine
 10
204.3347694129
 20
73.2305077917
 30
0.0
 11
204.3347694129
 21
75.4305077917
 31
0.0
  0
ARC
  5
EA
330
1F
100
AcDbEntity
  8
0
  6
HIDDEN
 62
     7
370
    18
100
AcDbCircle
 10
199.5347694129
 20
72.8305077917
 30
0.0
 40
0.2000000000000171
100
AcDbArc
 50
180.0
 51
270.0
  0
ARC
  5
EB
330
1F
100
AcDbEntity
  8
0
  6
HIDDEN
 62
     7
370
    18
100
AcDbCircle
 10
159.1347694129
 20
72.8305077917
 30
0.0
 40
0.2000000000000171
100
AcDbArc
 50
270.0
 51
0.0
  0
LINE
  5
EC
330
1F
100
AcDbEntity
  8
0
  6
HIDDEN
 62
     7
370
    18
100
AcDbLine
 10
159.3347694129
 20
75.4305077917
 30
0.0
 11
159.3347694129
 21
72.8305077917
 31
0.0
  0
LINE
  5
ED
330
1F
100
AcDbEntity
  8
0
  6
HIDDEN
 62
     7
370
    18
100
AcDbLine
 10
199.3347694129
 20
72.8305077917
 30
0.0
 11
199.3347694129
 21
75.4305077917
 31
0.0
  0
LINE
  5
EE
330
1F
100
AcDbEntity
  8
0
  6
Continuous
 62
     7
370
    35
100
AcDbLine
 10
-37.0467512388
 20
149.1899781691
 30
0.0
 11
-37.0467512388
 21
123.0861090242
 31
0.0
  0
LINE
  5
EF
330
1F
100
AcDbEntity
  8
0
  6
Continuous
 62
     7
370
    35
100
AcDbLine
 10
70.9532487612
 20
123.0861090242
 30
0.0
 11
70.9532487612
 21
149.1899781691
 31
0.0
  0
ARC
  5
F0
330
1F
100
AcDbEntity
  8
0
  6
Continuous
 62
     7
370
    35
100
AcDbCircle
 10
-84.8204985933
 20
123.0861090242
 30
0.0
 40
155.7737473544767
100
AcDbArc
 50
353.1838182293
 51
0.0
  0
ARC
  5
F1
330
1F
100
AcDbEntity
  8
0
  6
Continuous
 62
     7
370
    35
100
AcDbCircle
 10
118.7269961157
 20
123.0861090242
 30
0.0
 40
155.7737473544767
100
AcDbArc
 50
180.0
 51
186.8161817707
  0
ARC
  5
F2
330
1F
100
AcDbEntity
  8
0
  6
Continuous
 62
     7
370
    35
100
AcDbCircle
 10
15.458279348
 20
110.7424786945
 30
0.0
 40
51.76993457548544
100
AcDbArc
 50
186.8161817707
 51
203.3426337043
  0
ARC
  5
F3
330
1F
100
AcDbEntity
  8
0
  6
Continuous
 62
     7
370
    35
100
AcDbCircle
 10
18.4482181745
 20
110.7424786945
 30
0.0
 40
51.76993457548544
100
AcDbArc
 50
336.6573662957
 51
353.1838182293
  0
ARC
  5
F4
330
1F
100
AcDbEntity
  8
0
  6
Continuous
 62
     7
370
    35
100
AcDbCircle
 10
-7.3274360557
 20
100.9092933522
 30
0.0
 40
26.95299760832778
100
AcDbArc
 50
203.3426337043
 51
246.6573662957
  0
ARC
  5
F5
330
1F
100
AcDbEntity
  8
0
  6
Continuous
 62
     7
370
    35
100
AcDbCircle
 10
41.2339335781
 20
100.9092933522
 30
0.0
 40
26.95299760832779
100
AcDbArc
 50
293.3426337043
 51
336.6573662957
  0
ARC
  5
F6
330
1F
100
AcDbEntity
  8
0
  6
Continuous
 62
     7
370
    35
100
AcDbCircle
 10
2.5057492867
 20
123.6950087558
 30
0.0
 40
51.76993457548468
100
AcDbArc
 50
246.6573662957
 51
257.1058396908
  0
ARC
  5
F7
330
1F
100
AcDbEntity
  8
0
  6
Continuous
 62
     7
370
    35
100
AcDbCircle
 10
31.4007482358
 20
123.6950087558
 30
0.0
 40
51.76993457548466
100
AcDbArc
 50
282.8941603092
 51
293.3426337043
  0
LINE
  5
F8
330
1F
100
AcDbEntity
  8
0
  6
Continuous
 62
     7
370
    35
100
AcDbLine
 10
66.0830035648
 20
326.1899781691
 30
0.0
 11
65.2030555339
 21
327.9169734189
 31
0.0
  0
LINE
  5
F9
330
1F
100
AcDbEntity
  8
0
  6
Continuous
 62
     7
370
    35
100
AcDbLine
 10
-31.2965580115
 20
327.9169734189
 30
0.0
 11
-32.1765060424
 21
326.1899781691
 31
0.0
  0
ARC
  5
FA
330
1F
100
AcDbEntity
  8
0
  6
Continuous
 62
     7
370
    35
100
AcDbCircle
 10
-30.8510547494
 20
327.6899781691
 30
0.0
 40
0.4999999999999879
100
AcDbArc
 50
90.0
 51
153.0
  0
ARC
  5
FB
330
1F
100
AcDbEntity
  8
0
  6
Continuous
 62
     7
370
    35
100
AcDbCircle
 10
64.7575522718
 20
327.6899781691
 30
0.0
 40
0.5000000000000006
100
AcDbArc
 50
27.0
 51
90.0
  0
LINE
  5
FC
330
1F
100
AcDbEntity
  8
0
  6
Continuous
 62
     7
370
    35
100
AcDbLine
 10
6.9532487612
 20
357.4157216028
 30
0.0
 11
6.9532487612
 21
354.5261162056
 31
0.0
  0
LINE
  5
FD
330
1F
100
AcDbEntity
  8
0
  6
Continuous
 62
     7
370
    35
100
AcDbLine
 10
26.9532487612
 20
354.5261162056
 30
0.0
 11
26.9532487612
 21
357.4157216028
 31
0.0
  0
ARC
  5
FE
330
1F
100
AcDbEntity
  8
0
  6
Continuous
 62
     7
370
    35
100
AcDbCircle
 10
-1.8937414896
 20
354.5261162056
 30
0.0
 40
28.84699025082641
100
AcDbArc
 50
353.1838182293
 51
0.0
  0
ARC
  5
FF
330
1F
100
AcDbEntity
  8
0
  6
Continuous
 62
     7
370
    35
100
AcDbCircle
 10
35.800239012
 20
354.5261162056
 30
0.0
 40
28.84699025082642
100
AcDbArc
 50
180.0
 51
186.8161817707
  0
ARC
  5
100
330
1F
100
AcDbEntity
  8
0
  6
Continuous
 62
     7
370
    35
100
AcDbCircle
 10
16.6764025736
 20
352.2402587371
 30
0.0
 40
9.587024921386428
100
AcDbArc
 50
186.8161817707
 51
203.3426337043
  0
ARC
  5
101
330
1F
100
AcDbEntity
  8
0
  6
Continuous
 62
     7
370
    35
100
AcDbCircle
 10
17.2300949489
 20
352.2402587371
 30
0.0
 40
9.587024921386432
100
AcDbArc
 50
336.6573662957
 51
353.1838182293
  0
ARC
  5
102
330
1F
100
AcDbEntity
  8
0
  6
Continuous
 62
     7
370
    35
100
AcDbCircle
 10
12.456825647
 20
350.4192984885
 30
0.0
 40
4.991295853394518
100
AcDbArc
 50
203.3426337043
 51
246.6573662957
  0
ARC
  5
103
330
1F
100
AcDbEntity
  8
0
  6
Continuous
 62
     7
370
    35
100
AcDbCircle
 10
21.4496718754
 20
350.4192984885
 30
0.0
 40
4.991295853394516
100
AcDbArc
 50
293.3426337043
 51
336.6573662957
  0
ARC
  5
104
330
1F
100
AcDbEntity
  8
0
  6
Continuous
 62
     7
370
    35
100
AcDbCircle
 10
41.2339335781
 20
315.470662986
 30
0.0
 40
26.95299760832765
100
AcDbArc
 50
28.1581721326
 51
66.6573662957
  0
ARC
  5
105
330
1F
100
AcDbEntity
  8
0
  6
Continuous
 62
     7
370
    35
100
AcDbCircle
 10
-7.3274360557
 20
315.470662986
 30
0.0
 40
26.95299760832764
100
AcDbArc
 50
113.3426337043
 51
151.8418278674
  0
ARC
  5
106
330
1F
100
AcDbEntity
  8
0
  6
Continuous
 62
     7
370
    35
100
AcDbCircle
 10
31.4007482358
 20
292.6849475823
 30
0.0
 40
51.76993457548611
100
AcDbArc
 50
66.6573662957
 51
83.1838182293
  0
ARC
  5
107
330
1F
100
AcDbEntity
  8
0
  6
Continuous
 62
     7
370
    35
100
AcDbCircle
 10
2.5057492867
 20
292.6849475823
 30
0.0
 40
51.76993457548612
100
AcDbArc
 50
96.8161817707
 51
113.3426337043
  0
ARC
  5
108
330
1F
100
AcDbEntity
  8
0
  6
Continuous
 62
     7
370
    35
100
AcDbCircle
 10
19.0571179061
 20
189.4162308146
 30
0.0
 40
155.7737473544664
100
AcDbArc
 50
83.1838182293
 51
89.2105978529
  0
ARC
  5
109
330
1F
100
AcDbEntity
  8
0
  6
Continuous
 62
     7
370
    35
100
AcDbCircle
 10
14.8493796163
 20
189.4162308146
 30
0.0
 40
155.7737473544665
100
AcDbArc
 50
90.7894021471
 51
96.8161817707
  0
ARC
  5
10A
330
1F
100
AcDbEntity
  8
0
  6
Continuous
 62
     7
370
    35
100
AcDbCircle
 10
118.7269961157
 20
293.2938473139
 30
0.0
 40
155.7737473544751
100
AcDbArc
 50
173.1838182293
 51
180.0
  0
ARC
  5
10B
330
1F
100
AcDbEntity
  8
0
  6
Continuous
 62
     7
370
    35
100
AcDbCircle
 10
-84.8204985933
 20
293.2938473139
 30
0.0
 40
155.7737473544752
100
AcDbArc
 50
0.0
 51
6.8161817707
  0
LINE
  5
10C
330
1F
100
AcDbEntity
  8
0
  6
Continuous
 62
     7
370
    35
100
AcDbLine
 10
70.9532487612
 20
267.1899781691
 30
0.0
 11
70.9532487612
 21
293.2938473139
 31
0.0
  0
LINE
  5
10D
330
1F
100
AcDbEntity
  8
0
  6
Continuous
 62
     7
370
    35
100
AcDbLine
 10
-37.0467512388
 20
293.2938473139
 30
0.0
 11
-37.0467512388
 21
267.1899781691
 31
0.0
  0
ARC
  5
10E
330
1F
100
AcDbEntity
  8
0
  6
Continuous
 62
     7
370
    35
100
AcDbCircle
 10
18.4482181745
 20
305.6374776436
 30
0.0
 40
51.76993457548558
100
AcDbArc
 50
6.8161817707
 51
23.3426337043
  0
ARC
  5
10F
330
1F
100
AcDbEntity
  8
0
  6
Continuous
 62
     7
370
    35
100
AcDbCircle
 10
15.458279348
 20
305.6374776436
 30
0.0
 40
51.76993457548559
100
AcDbArc
 50
156.6573662957
 51
173.1838182293
  0
ARC
  5
110
330
1F
100
AcDbEntity
  8
0
  6
Continuous
 62
     7
370
    35
100
AcDbCircle
 10
41.2339336646
 20
315.4706630233
 30
0.0
 40
26.95299751405585
100
AcDbArc
 50
23.3426337043
 51
23.4347231953
  0
ARC
  5
111
330
1F
100
AcDbEntity
  8
0
  6
Continuous
 62
     7
370
    35
100
AcDbCircle
 10
-7.3274361422
 20
315.4706630233
 30
0.0
 40
26.95299751405585
100
AcDbArc
 50
156.5652768047
 51
156.6573662957
  0
LINE
  5
112
330
1F
100
AcDbEntity
  8
0
  6
Continuous
 62
     7
370
    35
100
AcDbLine
 10
70.9532487612
 20
149.1899781691
 30
0.0
 11
70.9532487612
 21
267.1899781691
 31
0.0
  0
LINE
  5
113
330
1F
100
AcDbEntity
  8
0
  6
Continuous
 62
     7
370
    35
100
AcDbLine
 10
-37.0467512388
 20
267.1899781691
 30
0.0
 11
-37.0467512388
 21
149.1899781691
 31
0.0
  0
ARC
  5
114
330
1F
100
AcDbEntity
  8
0
  6
Continuous
 62
     7
370
    35
100
AcDbCircle
 10
35.800239012
 20
435.305327
 30
0.0
 40
28.84699025082813
100
AcDbArc
 50
173.1838182293
 51
180.0
  0
ARC
  5
115
330
1F
100
AcDbEntity
  8
0
  6
Continuous
 62
     7
370
    35
100
AcDbCircle
 10
-1.8937414896
 20
435.305327
 30
0.0
 40
28.84699025082813
100
AcDbArc
 50
0.0
 51
6.8161817707
  0
LINE
  5
116
330
1F
100
AcDbEntity
  8
0
  6
Continuous
 62
     7
370
    35
100
AcDbLine
 10
26.9532487612
 20
432.4157216028
 30
0.0
 11
26.9532487612
 21
435.305327
 31
0.0
  0
LINE
  5
117
330
1F
100
AcDbEntity
  8
0
  6
Continuous
 62
     7
370
    35
100
AcDbLine
 10
6.9532487612
 20
435.305327
 30
0.0
 11
6.9532487612
 21
432.4157216028
 31
0.0
  0
ARC
  5
118
330
1F
100
AcDbEntity
  8
0
  6
Continuous
 62
     7
370
    35
100
AcDbCircle
 10
17.2300949489
 20
437.5911844684
 30
0.0
 40
9.587024921386119
100
AcDbArc
 50
6.8161817707
 51
23.3426337043
  0
ARC
  5
119
330
1F
100
AcDbEntity
  8
0
  6
Continuous
 62
     7
370
    35
100
AcDbCircle
 10
16.6764025736
 20
437.5911844684
 30
0.0
 40
9.587024921386119
100
AcDbArc
 50
156.6573662957
 51
173.1838182293
  0
ARC
  5
11A
330
1F
100
AcDbEntity
  8
0
  6
Continuous
 62
     7
370
    35
100
AcDbCircle
 10
21.4496718754
 20
439.412144717
 30
0.0
 40
4.991295853394915
100
AcDbArc
 50
23.3426337043
 51
66.6573662957
  0
ARC
  5
11B
330
1F
100
AcDbEntity
  8
0
  6
Continuous
 62
     7
370
    35
100
AcDbCircle
 10
12.456825647
 20
439.412144717
 30
0.0
 40
4.991295853394915
100
AcDbArc
 50
113.3426337043
 51
156.6573662957
  0
ARC
  5
11C
330
1F
100
AcDbEntity
  8
0
  6
Continuous
 62
     7
370
    35
100
AcDbCircle
 10
19.6287116269
 20
435.1925677904
 30
0.0
 40
9.587024921388139
100
AcDbArc
 50
66.6573662957
 51
83.1838182293
  0
ARC
  5
11D
330
1F
100
AcDbEntity
  8
0
  6
Continuous
 62
     7
370
    35
100
AcDbCircle
 10
14.2777858956
 20
435.1925677904
 30
0.0
 40
9.587024921388098
100
AcDbArc
 50
96.8161817707
 51
113.3426337043
  0
ARC
  5
11E
330
1F
100
AcDbEntity
  8
0
  6
Continuous
 62
     7
370
    35
100
AcDbCircle
 10
17.3428541584
 20
416.0687313519
 30
0.0
 40
28.8469902508242
100
AcDbArc
 50
83.1838182293
 51
90.0
  0
ARC
  5
11F
330
1F
100
AcDbEntity
  8
0
  6
Continuous
 62
     7
370
    35
100
AcDbCircle
 10
16.563643364
 20
416.0687313519
 30
0.0
 40
28.8469902508242
100
AcDbArc
 50
90.0
 51
96.8161817707
  0
LINE
  5
120
330
1F
100
AcDbEntity
  8
0
  6
Continuous
 62
     7
370
    35
100
AcDbLine
 10
-8.0467512388
 20
73.2305077917
 30
0.0
 11
-8.0467512388
 21
72.8305077917
 31
0.0
  0
LINE
  5
121
330
1F
100
AcDbEntity
  8
0
  6
Continuous
 62
     7
370
    35
100
AcDbLine
 10
41.9532487612
 20
72.8305077917
 30
0.0
 11
41.9532487612
 21
73.2305077917
 31
0.0
  0
ARC
  5
122
330
1F
100
AcDbEntity
  8
0
  6
Continuous
 62
     7
370
    35
100
AcDbCircle
 10
41.7532487612
 20
72.8305077917
 30
0.0
 40
0.2000000000000028
100
AcDbArc
 50
270.0
 51
0.0
  0
ARC
  5
123
330
1F
100
AcDbEntity
  8
0
  6
Continuous
 62
     7
370
    35
100
AcDbCircle
 10
-7.8467512388
 20
72.8305077917
 30
0.0
 40
0.2000000000000028
100
AcDbArc
 50
180.0
 51
270.0
  0
LINE
  5
124
330
1F
100
AcDbEntity
  8
0
  6
Continuous
 62
     7
370
    35
100
AcDbLine
 10
26.9532487612
 20
357.4157216028
 30
0.0
 11
26.9532487612
 21
432.4157216028
 31
0.0
  0
LINE
  5
125
330
1F
100
AcDbEntity
  8
0
  6
Continuous
 62
     7
370
    35
100
AcDbLine
 10
6.9532487612
 20
432.4157216028
 30
0.0
 11
6.9532487612
 21
357.4157216028
 31
0.0
  0
LINE
  5
126
330
1F
100
AcDbEntity
  8
0
  6
Continuous
 62
     7
370
    35
100
AcDbLine
 10
70.9532487612
 20
149.1899781691
 30
0.0
 11
-37.0467512388
 21
149.1899781691
 31
0.0
  0
LINE
  5
127
330
1F
100
AcDbEntity
  8
0
  6
Continuous
 62
     7
370
    35
100
AcDbLine
 10
-9.0467512388
 20
73.2305077917
 30
0.0
 11
42.9532487612
 21
73.2305077917
 31
0.0
  0
LINE
  5
128
330
1F
100
AcDbEntity
  8
0
  6
Continuous
 62
     7
370
    35
100
AcDbLine
 10
-32.1765060424
 20
326.1899781691
 30
0.0
 11
66.0830035648
 21
326.1899781691
 31
0.0
  0
LINE
  5
129
330
1F
100
AcDbEntity
  8
0
  6
Continuous
 62
   144
370
    18
100
AcDbLine
 10
26.9532487612
 20
357.4157216028
 30
0.0
 11
6.9532487612
 21
357.4157216028
 31
0.0
  0
LINE
  5
12A
330
1F
100
AcDbEntity
  8
0
  6
Continuous
 62
   144
370
    18
100
AcDbLine
 10
10.4791304427
 20
345.836531205
 30
0.0
 11
23.4273670797
 21
345.836531205
 31
0.0
  0
LINE
  5
12B
330
1F
100
AcDbEntity
  8
0
  6
Continuous
 62
     7
370
    35
100
AcDbLine
 10
-31.0904977554
 20
328.1899781691
 30
0.0
 11
64.9969952779
 21
328.1899781691
 31
0.0
  0
LINE
  5
12C
330
1F
100
AcDbEntity
  8
0
  6
Continuous
 62
   144
370
    18
100
AcDbLine
 10
17.1692578779
 20
345.1751935975
 30
0.0
 11
12.7032487612
 21
345.1751935975
 31
0.0
  0
LINE
  5
12D
330
1F
100
AcDbEntity
  8
0
  6
Continuous
 62
   144
370
    18
100
AcDbLine
 10
21.2032487612
 20
345.1751935975
 30
0.0
 11
17.1692578779
 21
345.1751935975
 31
0.0
  0
LINE
  5
12E
330
1F
100
AcDbEntity
  8
0
  6
Continuous
 62
     7
370
    35
100
AcDbLine
 10
-37.0467512388
 20
267.1899781691
 30
0.0
 11
70.9532487612
 21
267.1899781691
 31
0.0
  0
LINE
  5
12F
330
1F
100
AcDbEntity
  8
0
  6
Continuous
 62
   144
370
    18
100
AcDbLine
 10
19.9962106034
 20
432.4157216028
 30
0.0
 11
26.9532487612
 21
432.4157216028
 31
0.0
  0
LINE
  5
130
330
1F
100
AcDbEntity
  8
0
  6
Continuous
 62
   144
370
    18
100
AcDbLine
 10
6.9532487612
 20
432.4157216028
 30
0.0
 11
19.9962106034
 21
432.4157216028
 31
0.0
  0
LINE
  5
131
330
1F
100
AcDbEntity
  8
0
  6
Continuous
 62
   144
370
    18
100
AcDbLine
 10
17.3428541584
 20
444.9157216028
 30
0.0
 11
16.563643364
 21
444.9157216028
 31
0.0
  0
LINE
  5
132
330
1F
100
AcDbEntity
  8
0
  6
Continuous
 62
     7
370
    35
100
AcDbLine
 10
41.7532487612
 20
72.6305077917
 30
0.0
 11
-7.8467512388
 21
72.6305077917
 31
0.0
  0
LINE
  5
133
330
1F
100
AcDbEntity
  8
0
  6
Continuous
 62
   144
370
    18
100
AcDbLine
 10
7.1011023834
 20
432.4157216028
 30
0.0
 11
6.9532487612
 21
432.4157216028
 31
0.0
  0
LINE
  5
134
330
1F
100
AcDbEntity
  8
0
  6
Continuous
 62
   144
370
    18
100
AcDbLine
 10
26.9532487612
 20
432.4157216028
 30
0.0
 11
7.1011023834
 21
432.4157216028
 31
0.0
  0
LINE
  5
135
330
1F
100
AcDbEntity
  8
0
  6
Continuous
 62
     7
370
    35
100
AcDbLine
 10
-248.0742432325
 20
149.1899781691
 30
0.0
 11
-248.0742432325
 21
123.0861090242
 31
0.0
  0
LINE
  5
136
330
1F
100
AcDbEntity
  8
0
  6
Continuous
 62
     7
370
    35
100
AcDbLine
 10
-140.0742432325
 20
123.0861090242
 30
0.0
 11
-140.0742432325
 21
149.1899781691
 31
0.0
  0
ARC
  5
137
330
1F
100
AcDbEntity
  8
0
  6
Continuous
 62
     7
370
    35
100
AcDbCircle
 10
-295.847990587
 20
123.0861090242
 30
0.0
 40
155.7737473544767
100
AcDbArc
 50
353.1838182293
 51
0.0
  0
ARC
  5
138
330
1F
100
AcDbEntity
  8
0
  6
Continuous
 62
     7
370
    35
100
AcDbCircle
 10
-92.300495878
 20
123.0861090242
 30
0.0
 40
155.7737473544767
100
AcDbArc
 50
180.0
 51
186.8161817707
  0
ARC
  5
139
330
1F
100
AcDbEntity
  8
0
  6
Continuous
 62
     7
370
    35
100
AcDbCircle
 10
-195.5692126457
 20
110.7424786945
 30
0.0
 40
51.76993457548544
100
AcDbArc
 50
186.8161817707
 51
203.3426337043
  0
ARC
  5
13A
330
1F
100
AcDbEntity
  8
0
  6
Continuous
 62
     7
370
    35
100
AcDbCircle
 10
-192.5792738192
 20
110.7424786945
 30
0.0
 40
51.76993457548544
100
AcDbArc
 50
336.6573662957
 51
353.1838182293
  0
ARC
  5
13B
330
1F
100
AcDbEntity
  8
0
  6
Continuous
 62
     7
370
    35
100
AcDbCircle
 10
-218.3549280493
 20
100.9092933522
 30
0.0
 40
26.95299760832779
100
AcDbArc
 50
203.3426337043
 51
246.6573662957
  0
ARC
  5
13C
330
1F
100
AcDbEntity
  8
0
  6
Continuous
 62
     7
370
    35
100
AcDbCircle
 10
-169.7935584156
 20
100.9092933522
 30
0.0
 40
26.95299760832779
100
AcDbArc
 50
293.3426337043
 51
336.6573662957
  0
ARC
  5
13D
330
1F
100
AcDbEntity
  8
0
  6
Continuous
 62
     7
370
    35
100
AcDbCircle
 10
-208.521742707
 20
123.6950087558
 30
0.0
 40
51.76993457548468
100
AcDbArc
 50
246.6573662957
 51
257.1058396908
  0
ARC
  5
13E
330
1F
100
AcDbEntity
  8
0
  6
Continuous
 62
     7
370
    35
100
AcDbCircle
 10
-179.6267437579
 20
123.6950087558
 30
0.0
 40
51.76993457548468
100
AcDbArc
 50
282.8941603092
 51
293.3426337043
  0
LINE
  5
13F
330
1F
100
AcDbEntity
  8
0
  6
Continuous
 62
     7
370
    35
100
AcDbLine
 10
-144.9444884288
 20
326.1899781691
 30
0.0
 11
-145.8244364598
 21
327.9169734189
 31
0.0
  0
LINE
  5
140
330
1F
100
AcDbEntity
  8
0
  6
Continuous
 62
     7
370
    35
100
AcDbLine
 10
-242.3240500051
 20
327.9169734189
 30
0.0
 11
-243.2039980361
 21
326.1899781691
 31
0.0
  0
ARC
  5
141
330
1F
100
AcDbEntity
  8
0
  6
Continuous
 62
     7
370
    35
100
AcDbCircle
 10
-241.8785467431
 20
327.6899781691
 30
0.0
 40
0.5000000000000001
100
AcDbArc
 50
90.0
 51
153.0
  0
ARC
  5
142
330
1F
100
AcDbEntity
  8
0
  6
Continuous
 62
     7
370
    35
100
AcDbCircle
 10
-146.2699397219
 20
327.6899781691
 30
0.0
 40
0.500000000000001
100
AcDbArc
 50
27.0
 51
90.0
  0
LINE
  5
143
330
1F
100
AcDbEntity
  8
0
  6
Continuous
 62
     7
370
    35
100
AcDbLine
 10
-204.0742432325
 20
357.4157216028
 30
0.0
 11
-204.0742432325
 21
354.5261162056
 31
0.0
  0
LINE
  5
144
330
1F
100
AcDbEntity
  8
0
  6
Continuous
 62
     7
370
    35
100
AcDbLine
 10
-184.0742432325
 20
354.5261162056
 30
0.0
 11
-184.0742432325
 21
357.4157216028
 31
0.0
  0
ARC
  5
145
330
1F
100
AcDbEntity
  8
0
  6
Continuous
 62
     7
370
    35
100
AcDbCircle
 10
-212.9212334833
 20
354.5261162056
 30
0.0
 40
28.84699025082642
100
AcDbArc
 50
353.1838182293
 51
0.0
  0
ARC
  5
146
330
1F
100
AcDbEntity
  8
0
  6
Continuous
 62
     7
370
    35
100
AcDbCircle
 10
-175.2272529817
 20
354.5261162056
 30
0.0
 40
28.84699025082642
100
AcDbArc
 50
180.0
 51
186.8161817707
  0
ARC
  5
147
330
1F
100
AcDbEntity
  8
0
  6
Continuous
 62
     7
370
    35
100
AcDbCircle
 10
-194.3510894201
 20
352.2402587371
 30
0.0
 40
9.587024921386439
100
AcDbArc
 50
186.8161817707
 51
203.3426337043
  0
ARC
  5
148
330
1F
100
AcDbEntity
  8
0
  6
Continuous
 62
     7
370
    35
100
AcDbCircle
 10
-193.7973970448
 20
352.2402587371
 30
0.0
 40
9.587024921386439
100
AcDbArc
 50
336.6573662957
 51
353.1838182293
  0
ARC
  5
149
330
1F
100
AcDbEntity
  8
0
  6
Continuous
 62
     7
370
    35
100
AcDbCircle
 10
-198.5706663467
 20
350.4192984885
 30
0.0
 40
4.991295853394514
100
AcDbArc
 50
203.3426337043
 51
246.6573662957
  0
ARC
  5
14A
330
1F
100
AcDbEntity
  8
0
  6
Continuous
 62
     7
370
    35
100
AcDbCircle
 10
-189.5778201182
 20
350.4192984885
 30
0.0
 40
4.991295853394514
100
AcDbArc
 50
293.3426337043
 51
336.6573662957
  0
ARC
  5
14B
330
1F
100
AcDbEntity
  8
0
  6
Continuous
 62
     7
370
    35
100
AcDbCircle
 10
-169.7935584156
 20
315.470662986
 30
0.0
 40
26.95299760832765
100
AcDbArc
 50
28.1581721326
 51
66.6573662957
  0
ARC
  5
14C
330
1F
100
AcDbEntity
  8
0
  6
Continuous
 62
     7
370
    35
100
AcDbCircle
 10
-218.3549280494
 20
315.470662986
 30
0.0
 40
26.95299760832761
100
AcDbArc
 50
113.3426337043
 51
151.8418278674
  0
ARC
  5
14D
330
1F
100
AcDbEntity
  8
0
  6
Continuous
 62
     7
370
    35
100
AcDbCircle
 10
-179.6267437579
 20
292.6849475823
 30
0.0
 40
51.76993457548611
100
AcDbArc
 50
66.6573662957
 51
83.1838182293
  0
ARC
  5
14E
330
1F
100
AcDbEntity
  8
0
  6
Continuous
 62
     7
370
    35
100
AcDbCircle
 10
-208.521742707
 20
292.6849475823
 30
0.0
 40
51.76993457548611
100
AcDbArc
 50
96.8161817707
 51
113.3426337043
  0
ARC
  5
14F
330
1F
100
AcDbEntity
  8
0
  6
Continuous
 62
     7
370
    35
100
AcDbCircle
 10
-191.9703740876
 20
189.4162308146
 30
0.0
 40
155.7737473544664
100
AcDbArc
 50
83.1838182293
 51
89.2105978529
  0
ARC
  5
150
330
1F
100
AcDbEntity
  8
0
  6
Continuous
 62
     7
370
    35
100
AcDbCircle
 10
-196.1781123773
 20
189.4162308146
 30
0.0
 40
155.7737473544664
100
AcDbArc
 50
90.7894021471
 51
96.8161817707
  0
ARC
  5
151
330
1F
100
AcDbEntity
  8
0
  6
Continuous
 62
     7
370
    35
100
AcDbCircle
 10
-92.300495878
 20
293.2938473139
 30
0.0
 40
155.7737473544751
100
AcDbArc
 50
173.1838182293
 51
180.0
  0
ARC
  5
152
330
1F
100
AcDbEntity
  8
0
  6
Continuous
 62
     7
370
    35
100
AcDbCircle
 10
-295.847990587
 20
293.2938473139
 30
0.0
 40
155.7737473544751
100
AcDbArc
 50
0.0
 51
6.8161817707
  0
LINE
  5
153
330
1F
100
AcDbEntity
  8
0
  6
Continuous
 62
     7
370
    35
100
AcDbLine
 10
-140.0742432325
 20
267.1899781691
 30
0.0
 11
-140.0742432325
 21
293.2938473139
 31
0.0
  0
LINE
  5
154
330
1F
100
AcDbEntity
  8
0
  6
Continuous
 62
     7
370
    35
100
AcDbLine
 10
-248.0742432325
 20
293.2938473139
 30
0.0
 11
-248.0742432325
 21
267.1899781691
 31
0.0
  0
ARC
  5
155
330
1F
100
AcDbEntity
  8
0
  6
Continuous
 62
     7
370
    35
100
AcDbCircle
 10
-192.5792738192
 20
305.6374776436
 30
0.0
 40
51.76993457548561
100
AcDbArc
 50
6.8161817707
 51
23.3426337043
  0
ARC
  5
156
330
1F
100
AcDbEntity
  8
0
  6
Continuous
 62
     7
370
    35
100
AcDbCircle
 10
-195.5692126457
 20
305.6374776436
 30
0.0
 40
51.76993457548558
100
AcDbArc
 50
156.6573662957
 51
173.1838182293
  0
ARC
  5
157
330
1F
100
AcDbEntity
  8
0
  6
Continuous
 62
     7
370
    35
100
AcDbCircle
 10
-169.793558329
 20
315.4706630233
 30
0.0
 40
26.95299751405587
100
AcDbArc
 50
23.3426337043
 51
23.4347231953
  0
ARC
  5
158
330
1F
100
AcDbEntity
  8
0
  6
Continuous
 62
     7
370
    35
100
AcDbCircle
 10
-218.3549281359
 20
315.4706630233
 30
0.0
 40
26.95299751405587
100
AcDbArc
 50
156.5652768047
 51
156.6573662957
  0
LINE
  5
159
330
1F
100
AcDbEntity
  8
0
  6
Continuous
 62
     7
370
    35
100
AcDbLine
 10
-140.0742432325
 20
149.1899781691
 30
0.0
 11
-140.0742432325
 21
267.1899781691
 31
0.0
  0
LINE
  5
15A
330
1F
100
AcDbEntity
  8
0
  6
Continuous
 62
     7
370
    35
100
AcDbLine
 10
-248.0742432325
 20
267.1899781691
 30
0.0
 11
-248.0742432325
 21
149.1899781691
 31
0.0
  0
ARC
  5
15B
330
1F
100
AcDbEntity
  8
0
  6
Continuous
 62
     7
370
    35
100
AcDbCircle
 10
-175.2272529816
 20
435.305327
 30
0.0
 40
28.84699025082813
100
AcDbArc
 50
173.1838182293
 51
180.0
  0
ARC
  5
15C
330
1F
100
AcDbEntity
  8
0
  6
Continuous
 62
     7
370
    35
100
AcDbCircle
 10
-212.9212334833
 20
435.305327
 30
0.0
 40
28.84699025082813
100
AcDbArc
 50
0.0
 51
6.8161817707
  0
LINE
  5
15D
330
1F
100
AcDbEntity
  8
0
  6
Continuous
 62
     7
370
    35
100
AcDbLine
 10
-184.0742432325
 20
432.4157216028
 30
0.0
 11
-184.0742432325
 21
435.305327
 31
0.0
  0
LINE
  5
15E
330
1F
100
AcDbEntity
  8
0
  6
Continuous
 62
     7
370
    35
100
AcDbLine
 10
-204.0742432325
 20
435.305327
 30
0.0
 11
-204.0742432325
 21
432.4157216028
 31
0.0
  0
ARC
  5
15F
330
1F
100
AcDbEntity
  8
0
  6
Continuous
 62
     7
370
    35
100
AcDbCircle
 10
-193.7973970448
 20
437.5911844684
 30
0.0
 40
9.587024921386131
100
AcDbArc
 50
6.8161817707
 51
23.3426337043
  0
ARC
  5
160
330
1F
100
AcDbEntity
  8
0
  6
Continuous
 62
     7
370
    35
100
AcDbCircle
 10
-194.3510894201
 20
437.5911844684
 30
0.0
 40
9.58702492138612
100
AcDbArc
 50
156.6573662957
 51
173.1838182293
  0
ARC
  5
161
330
1F
100
AcDbEntity
  8
0
  6
Continuous
 62
     7
370
    35
100
AcDbCircle
 10
-189.5778201182
 20
439.412144717
 30
0.0
 40
4.991295853394922
100
AcDbArc
 50
23.3426337043
 51
66.6573662957
  0
ARC
  5
162
330
1F
100
AcDbEntity
  8
0
  6
Continuous
 62
     7
370
    35
100
AcDbCircle
 10
-198.5706663467
 20
439.412144717
 30
0.0
 40
4.991295853394923
100
AcDbArc
 50
113.3426337043
 51
156.6573662957
  0
ARC
  5
163
330
1F
100
AcDbEntity
  8
0
  6
Continuous
 62
     7
370
    35
100
AcDbCircle
 10
-191.3987803668
 20
435.1925677904
 30
0.0
 40
9.58702492138809
100
AcDbArc
 50
66.6573662957
 51
83.1838182293
  0
ARC
  5
164
330
1F
100
AcDbEntity
  8
0
  6
Continuous
 62
     7
370
    35
100
AcDbCircle
 10
-196.7497060981
 20
435.1925677904
 30
0.0
 40
9.587024921388085
100
AcDbArc
 50
96.8161817707
 51
113.3426337043
  0
ARC
  5
165
330
1F
100
AcDbEntity
  8
0
  6
Continuous
 62
     7
370
    35
100
AcDbCircle
 10
-193.6846378353
 20
416.0687313519
 30
0.0
 40
28.8469902508242
100
AcDbArc
 50
83.1838182293
 51
90.0
  0
ARC
  5
166
330
1F
100
AcDbEntity
  8
0
  6
Continuous
 62
     7
370
    35
100
AcDbCircle
 10
-194.4638486297
 20
416.0687313519
 30
0.0
 40
28.8469902508242
100
AcDbArc
 50
90.0
 51
96.8161817707
  0
LINE
  5
167
330
1F
100
AcDbEntity
  8
0
  6
Continuous
 62
     7
370
    35
100
AcDbLine
 10
-219.0742432325
 20
73.2305077917
 30
0.0
 11
-219.0742432325
 21
72.8305077917
 31
0.0
  0
LINE
  5
168
330
1F
100
AcDbEntity
  8
0
  6
Continuous
 62
     7
370
    35
100
AcDbLine
 10
-169.0742432325
 20
72.8305077917
 30
0.0
 11
-169.0742432325
 21
73.2305077917
 31
0.0
  0
ARC
  5
169
330
1F
100
AcDbEntity
  8
0
  6
Continuous
 62
     7
370
    35
100
AcDbCircle
 10
-169.2742432325
 20
72.8305077917
 30
0.0
 40
0.2000000000000028
100
AcDbArc
 50
270.0
 51
0.0
  0
ARC
  5
16A
330
1F
100
AcDbEntity
  8
0
  6
Continuous
 62
     7
370
    35
100
AcDbCircle
 10
-218.8742432325
 20
72.8305077917
 30
0.0
 40
0.2000000000000028
100
AcDbArc
 50
180.0
 51
270.0
  0
LINE
  5
16B
330
1F
100
AcDbEntity
  8
0
  6
Continuous
 62
     7
370
    35
100
AcDbLine
 10
-184.0742432325
 20
357.4157216028
 30
0.0
 11
-184.0742432325
 21
432.4157216028
 31
0.0
  0
LINE
  5
16C
330
1F
100
AcDbEntity
  8
0
  6
Continuous
 62
     7
370
    35
100
AcDbLine
 10
-204.0742432325
 20
432.4157216028
 30
0.0
 11
-204.0742432325
 21
357.4157216028
 31
0.0
  0
LINE
  5
16D
330
1F
100
AcDbEntity
  8
0
  6
Continuous
 62
     7
370
    35
100
AcDbLine
 10
-140.0742432325
 20
149.1899781691
 30
0.0
 11
-248.0742432325
 21
149.1899781691
 31
0.0
  0
LINE
  5
16E
330
1F
100
AcDbEntity
  8
0
  6
Continuous
 62
     7
370
    35
100
AcDbLine
 10
-213.3323355453
 20
73.2305077917
 30
0.0
 11
-168.0742432325
 21
73.2305077917
 31
0.0
  0
LINE
  5
16F
330
1F
100
AcDbEntity
  8
0
  6
Continuous
 62
     7
370
    35
100
AcDbLine
 10
-220.0742432325
 20
73.2305077917
 30
0.0
 11
-213.3323355453
 21
73.2305077917
 31
0.0
  0
LINE
  5
170
330
1F
100
AcDbEntity
  8
0
  6
Continuous
 62
     7
370
    35
100
AcDbLine
 10
-194.0742432325
 20
326.1899781691
 30
0.0
 11
-144.9444884288
 21
326.1899781691
 31
0.0
  0
LINE
  5
171
330
1F
100
AcDbEntity
  8
0
  6
Continuous
 62
     7
370
    35
100
AcDbLine
 10
-243.2039980361
 20
326.1899781691
 30
0.0
 11
-194.0742432325
 21
326.1899781691
 31
0.0
  0
LINE
  5
172
330
1F
100
AcDbEntity
  8
0
  6
Continuous
 62
   144
370
    18
100
AcDbLine
 10
-184.0742432325
 20
357.4157216028
 30
0.0
 11
-204.0742432325
 21
357.4157216028
 31
0.0
  0
LINE
  5
173
330
1F
100
AcDbEntity
  8
0
  6
Continuous
 62
   144
370
    18
100
AcDbLine
 10
-200.548361551
 20
345.836531205
 30
0.0
 11
-187.600124914
 21
345.836531205
 31
0.0
  0
LINE
  5
174
330
1F
100
AcDbEntity
  8
0
  6
Continuous
 62
     7
370
    35
100
AcDbLine
 10
-194.0742432325
 20
328.1899781691
 30
0.0
 11
-146.0304967158
 21
328.1899781691
 31
0.0
  0
LINE
  5
175
330
1F
100
AcDbEntity
  8
0
  6
Continuous
 62
     7
370
    35
100
AcDbLine
 10
-242.1179897491
 20
328.1899781691
 30
0.0
 11
-194.0742432325
 21
328.1899781691
 31
0.0
  0
LINE
  5
176
330
1F
100
AcDbEntity
  8
0
  6
Continuous
 62
   144
370
    18
100
AcDbLine
 10
-189.8242432325
 20
345.1751935975
 30
0.0
 11
-198.3242432325
 21
345.1751935975
 31
0.0
  0
LINE
  5
177
330
1F
100
AcDbEntity
  8
0
  6
Continuous
 62
     7
370
    35
100
AcDbLine
 10
-248.0742432325
 20
267.1899781691
 30
0.0
 11
-140.0742432325
 21
267.1899781691
 31
0.0
  0
LINE
  5
178
330
1F
100
AcDbEntity
  8
0
  6
Continuous
 62
     7
370
    35
100
AcDbLine
 10
-194.0742432325
 20
149.1899781691
 30
0.0
 11
-140.0742432325
 21
149.1899781691
 31
0.0
  0
LINE
  5
179
330
1F
100
AcDbEntity
  8
0
  6
Continuous
 62
     7
370
    35
100
AcDbLine
 10
-248.0742432325
 20
149.1899781691
 30
0.0
 11
-194.0742432325
 21
149.1899781691
 31
0.0
  0
LINE
  5
17A
330
1F
100
AcDbEntity
  8
0
  6
Continuous
 62
     7
370
    35
100
AcDbLine
 10
-194.0742432325
 20
267.1899781691
 30
0.0
 11
-248.0742432325
 21
267.1899781691
 31
0.0
  0
LINE
  5
17B
330
1F
100
AcDbEntity
  8
0
  6
Continuous
 62
     7
370
    35
100
AcDbLine
 10
-140.0742432325
 20
267.1899781691
 30
0.0
 11
-194.0742432325
 21
267.1899781691
 31
0.0
  0
LINE
  5
17C
330
1F
100
AcDbEntity
  8
0
  6
Continuous
 62
   144
370
    18
100
AcDbLine
 10
-204.0742432325
 20
432.4157216028
 30
0.0
 11
-184.0742432325
 21
432.4157216028
 31
0.0
  0
LINE
  5
17D
330
1F
100
AcDbEntity
  8
0
  6
Continuous
 62
   144
370
    18
100
AcDbLine
 10
-194.0742432325
 20
444.9157216028
 30
0.0
 11
-194.4638486297
 21
444.9157216028
 31
0.0
  0
LINE
  5
17E
330
1F
100
AcDbEntity
  8
0
  6
Continuous
 62
   144
370
    18
100
AcDbLine
 10
-193.6846378353
 20
444.9157216028
 30
0.0
 11
-194.0742432325
 21
444.9157216028
 31
0.0
  0
LINE
  5
17F
330
1F
100
AcDbEntity
  8
0
  6
Continuous
 62
     7
370
    35
100
AcDbLine
 10
-218.8742432325
 20
72.6305077917
 30
0.0
 11
-169.2742432325
 21
72.6305077917
 31
0.0
  0
LINE
  5
180
330
1F
100
AcDbEntity
  8
0
  6
Continuous
 62
   144
370
    18
100
AcDbLine
 10
-192.3609972637
 20
357.4157216028
 30
0.0
 11
-184.0742432325
 21
357.4157216028
 31
0.0
  0
LINE
  5
181
330
1F
100
AcDbEntity
  8
0
  6
Continuous
 62
   144
370
    18
100
AcDbLine
 10
-204.0742432325
 20
357.4157216028
 30
0.0
 11
-192.3609972637
 21
357.4157216028
 31
0.0
  0
LINE
  5
182
330
1F
100
AcDbEntity
  8
0
  6
Continuous
 62
   144
370
    18
100
AcDbLine
 10
-192.3609972637
 20
432.4157216028
 30
0.0
 11
-204.0742432325
 21
432.4157216028
 31
0.0
  0
LINE
  5
183
330
1F
100
AcDbEntity
  8
0
  6
Continuous
 62
   144
370
    18
100
AcDbLine
 10
-184.0742432325
 20
432.4157216028
 30
0.0
 11
-192.3609972637
 21
432.4157216028
 31
0.0
  0
ARC
  5
184
330
1F
100
AcDbEntity
  8
0
  6
Continuous
 62
     7
370
    35
100
AcDbCircle
 10
241.1772293384
 20
123.0861090242
 30
0.0
 40
155.7737473544767
100
AcDbArc
 50
353.1838182293
 51
0.0
  0
ARC
  5
185
330
1F
100
AcDbEntity
  8
0
  6
Continuous
 62
     7
370
    35
100
AcDbCircle
 10
444.7247240473
 20
123.0861090242
 30
0.0
 40
155.7737473544767
100
AcDbArc
 50
180.0
 51
186.8161817707
  0
LINE
  5
186
330
1F
100
AcDbEntity
  8
0
  6
Continuous
 62
     7
370
    35
100
AcDbLine
 10
288.9509766929
 20
149.1899781691
 30
0.0
 11
288.9509766929
 21
123.0861090242
 31
0.0
  0
LINE
  5
187
330
1F
100
AcDbEntity
  8
0
  6
Continuous
 62
     7
370
    35
100
AcDbLine
 10
396.9509766929
 20
123.0861090242
 30
0.0
 11
396.9509766929
 21
149.1899781691
 31
0.0
  0
ARC
  5
188
330
1F
100
AcDbEntity
  8
0
  6
Continuous
 62
     7
370
    35
100
AcDbCircle
 10
341.4560072796
 20
110.7424786945
 30
0.0
 40
51.76993457548543
100
AcDbArc
 50
186.8161817707
 51
203.3426337043
  0
ARC
  5
189
330
1F
100
AcDbEntity
  8
0
  6
Continuous
 62
     7
370
    35
100
AcDbCircle
 10
344.4459461061
 20
110.7424786945
 30
0.0
 40
51.76993457548549
100
AcDbArc
 50
336.6573662957
 51
353.1838182293
  0
ARC
  5
18A
330
1F
100
AcDbEntity
  8
0
  6
Continuous
 62
     7
370
    35
100
AcDbCircle
 10
318.670291876
 20
100.9092933522
 30
0.0
 40
26.9529976083278
100
AcDbArc
 50
203.3426337043
 51
246.6573662957
  0
ARC
  5
18B
330
1F
100
AcDbEntity
  8
0
  6
Continuous
 62
     7
370
    35
100
AcDbCircle
 10
367.2316615097
 20
100.9092933522
 30
0.0
 40
26.95299760832778
100
AcDbArc
 50
293.3426337043
 51
336.6573662957
  0
ARC
  5
18C
330
1F
100
AcDbEntity
  8
0
  6
Continuous
 62
     7
370
    35
100
AcDbCircle
 10
328.5034772183
 20
123.6950087558
 30
0.0
 40
51.7699345754847
100
AcDbArc
 50
246.6573662957
 51
257.1058396908
  0
ARC
  5
18D
330
1F
100
AcDbEntity
  8
0
  6
Continuous
 62
     7
370
    35
100
AcDbCircle
 10
357.3984761674
 20
123.6950087558
 30
0.0
 40
51.76993457548465
100
AcDbArc
 50
282.8941603092
 51
293.3426337043
  0
LINE
  5
18E
330
1F
100
AcDbEntity
  8
0
  6
Continuous
 62
     7
370
    35
100
AcDbLine
 10
392.0807314965
 20
326.1899781691
 30
0.0
 11
391.2007834655
 21
327.9169734189
 31
0.0
  0
LINE
  5
18F
330
1F
100
AcDbEntity
  8
0
  6
Continuous
 62
     7
370
    35
100
AcDbLine
 10
294.7011699202
 20
327.9169734189
 30
0.0
 11
293.8212218892
 21
326.1899781691
 31
0.0
  0
ARC
  5
190
330
1F
100
AcDbEntity
  8
0
  6
Continuous
 62
     7
370
    35
100
AcDbCircle
 10
295.1466731823
 20
327.6899781691
 30
0.0
 40
0.5000000000000259
100
AcDbArc
 50
90.0
 51
153.0
  0
ARC
  5
191
330
1F
100
AcDbEntity
  8
0
  6
Continuous
 62
     7
370
    35
100
AcDbCircle
 10
390.7552802034
 20
327.6899781691
 30
0.0
 40
0.4999999999999432
100
AcDbArc
 50
27.0
 51
90.0
  0
LINE
  5
192
330
1F
100
AcDbEntity
  8
0
  6
Continuous
 62
     7
370
    35
100
AcDbLine
 10
332.9509766929
 20
357.4157216028
 30
0.0
 11
332.9509766929
 21
354.5261162056
 31
0.0
  0
LINE
  5
193
330
1F
100
AcDbEntity
  8
0
  6
Continuous
 62
     7
370
    35
100
AcDbLine
 10
352.9509766929
 20
354.5261162056
 30
0.0
 11
352.9509766929
 21
357.4157216028
 31
0.0
  0
ARC
  5
194
330
1F
100
AcDbEntity
  8
0
  6
Continuous
 62
     7
370
    35
100
AcDbCircle
 10
324.103986442
 20
354.5261162056
 30
0.0
 40
28.84699025082645
100
AcDbArc
 50
353.1838182293
 51
0.0
  0
ARC
  5
195
330
1F
100
AcDbEntity
  8
0
  6
Continuous
 62
     7
370
    35
100
AcDbCircle
 10
361.7979669437
 20
354.5261162056
 30
0.0
 40
28.84699025082644
100
AcDbArc
 50
180.0
 51
186.8161817707
  0
ARC
  5
196
330
1F
100
AcDbEntity
  8
0
  6
Continuous
 62
     7
370
    35
100
AcDbCircle
 10
342.6741305052
 20
352.2402587371
 30
0.0
 40
9.587024921386389
100
AcDbArc
 50
186.8161817707
 51
203.3426337043
  0
ARC
  5
197
330
1F
100
AcDbEntity
  8
0
  6
Continuous
 62
     7
370
    35
100
AcDbCircle
 10
343.2278228805
 20
352.2402587371
 30
0.0
 40
9.58702492138644
100
AcDbArc
 50
336.6573662957
 51
353.1838182293
  0
ARC
  5
198
330
1F
100
AcDbEntity
  8
0
  6
Continuous
 62
     7
370
    35
100
AcDbCircle
 10
338.4545535786
 20
350.4192984885
 30
0.0
 40
4.991295853394503
100
AcDbArc
 50
203.3426337043
 51
246.6573662957
  0
ARC
  5
199
330
1F
100
AcDbEntity
  8
0
  6
Continuous
 62
     7
370
    35
100
AcDbCircle
 10
347.4473998071
 20
350.4192984885
 30
0.0
 40
4.991295853394503
100
AcDbArc
 50
293.3426337043
 51
336.6573662957
  0
ARC
  5
19A
330
1F
100
AcDbEntity
  8
0
  6
Continuous
 62
     7
370
    35
100
AcDbCircle
 10
367.2316615097
 20
315.470662986
 30
0.0
 40
26.95299760832763
100
AcDbArc
 50
28.1581721326
 51
66.6573662957
  0
ARC
  5
19B
330
1F
100
AcDbEntity
  8
0
  6
Continuous
 62
     7
370
    35
100
AcDbCircle
 10
318.670291876
 20
315.470662986
 30
0.0
 40
26.95299760832763
100
AcDbArc
 50
113.3426337043
 51
151.8418278674
  0
ARC
  5
19C
330
1F
100
AcDbEntity
  8
0
  6
Continuous
 62
     7
370
    35
100
AcDbCircle
 10
357.3984761674
 20
292.6849475823
 30
0.0
 40
51.76993457548611
100
AcDbArc
 50
66.6573662957
 51
83.1838182293
  0
ARC
  5
19D
330
1F
100
AcDbEntity
  8
0
  6
Continuous
 62
     7
370
    35
100
AcDbCircle
 10
328.5034772183
 20
292.6849475823
 30
0.0
 40
51.76993457548611
100
AcDbArc
 50
96.8161817707
 51
113.3426337043
  0
ARC
  5
19E
330
1F
100
AcDbEntity
  8
0
  6
Continuous
 62
     7
370
    35
100
AcDbCircle
 10
345.0548458377
 20
189.4162308146
 30
0.0
 40
155.7737473544665
100
AcDbArc
 50
83.1838182293
 51
89.2105978529
  0
ARC
  5
19F
330
1F
100
AcDbEntity
  8
0
  6
Continuous
 62
     7
370
    35
100
AcDbCircle
 10
340.847107548
 20
189.4162308146
 30
0.0
 40
155.7737473544664
100
AcDbArc
 50
90.7894021471
 51
96.8161817707
  0
LINE
  5
1A0
330
1F
100
AcDbEntity
  8
0
  6
Continuous
 62
     7
370
    35
100
AcDbLine
 10
396.9509766929
 20
267.1899781691
 30
0.0
 11
396.9509766929
 21
293.2938473139
 31
0.0
  0
LINE
  5
1A1
330
1F
100
AcDbEntity
  8
0
  6
Continuous
 62
     7
370
    35
100
AcDbLine
 10
288.9509766929
 20
293.2938473139
 30
0.0
 11
288.9509766929
 21
267.1899781691
 31
0.0
  0
ARC
  5
1A2
330
1F
100
AcDbEntity
  8
0
  6
Continuous
 62
     7
370
    35
100
AcDbCircle
 10
444.7247240473
 20
293.2938473139
 30
0.0
 40
155.7737473544751
100
AcDbArc
 50
173.1838182293
 51
180.0
  0
ARC
  5
1A3
330
1F
100
AcDbEntity
  8
0
  6
Continuous
 62
     7
370
    35
100
AcDbCircle
 10
241.1772293384
 20
293.2938473139
 30
0.0
 40
155.7737473544751
100
AcDbArc
 50
0.0
 51
6.8161817707
  0
ARC
  5
1A4
330
1F
100
AcDbEntity
  8
0
  6
Continuous
 62
     7
370
    35
100
AcDbCircle
 10
344.4459461061
 20
305.6374776436
 30
0.0
 40
51.76993457548564
100
AcDbArc
 50
6.8161817707
 51
23.3426337043
  0
ARC
  5
1A5
330
1F
100
AcDbEntity
  8
0
  6
Continuous
 62
     7
370
    35
100
AcDbCircle
 10
341.4560072796
 20
305.6374776436
 30
0.0
 40
51.76993457548558
100
AcDbArc
 50
156.6573662957
 51
173.1838182293
  0
ARC
  5
1A6
330
1F
100
AcDbEntity
  8
0
  6
Continuous
 62
     7
370
    35
100
AcDbCircle
 10
367.2316615963
 20
315.4706630233
 30
0.0
 40
26.95299751405586
100
AcDbArc
 50
23.3426337043
 51
23.4347231953
  0
ARC
  5
1A7
330
1F
100
AcDbEntity
  8
0
  6
Continuous
 62
     7
370
    35
100
AcDbCircle
 10
318.6702917894
 20
315.4706630233
 30
0.0
 40
26.95299751405584
100
AcDbArc
 50
156.5652768047
 51
156.6573662957
  0
LINE
  5
1A8
330
1F
100
AcDbEntity
  8
0
  6
Continuous
 62
     7
370
    35
100
AcDbLine
 10
396.9509766929
 20
149.1899781691
 30
0.0
 11
396.9509766929
 21
267.1899781691
 31
0.0
  0
LINE
  5
1A9
330
1F
100
AcDbEntity
  8
0
  6
Continuous
 62
     7
370
    35
100
AcDbLine
 10
288.9509766929
 20
267.1899781691
 30
0.0
 11
288.9509766929
 21
149.1899781691
 31
0.0
  0
ARC
  5
1AA
330
1F
100
AcDbEntity
  8
0
  6
Continuous
 62
     7
370
    35
100
AcDbCircle
 10
361.7979669437
 20
435.305327
 30
0.0
 40
28.84699025082813
100
AcDbArc
 50
173.1838182293
 51
180.0
  0
ARC
  5
1AB
330
1F
100
AcDbEntity
  8
0
  6
Continuous
 62
     7
370
    35
100
AcDbCircle
 10
324.103986442
 20
435.305327
 30
0.0
 40
28.84699025082819
100
AcDbArc
 50
0.0
 51
6.8161817707
  0
LINE
  5
1AC
330
1F
100
AcDbEntity
  8
0
  6
Continuous
 62
     7
370
    35
100
AcDbLine
 10
352.9509766929
 20
432.4157216028
 30
0.0
 11
352.9509766929
 21
435.305327
 31
0.0
  0
LINE
  5
1AD
330
1F
100
AcDbEntity
  8
0
  6
Continuous
 62
     7
370
    35
100
AcDbLine
 10
332.9509766929
 20
435.305327
 30
0.0
 11
332.9509766929
 21
432.4157216028
 31
0.0
  0
ARC
  5
1AE
330
1F
100
AcDbEntity
  8
0
  6
Continuous
 62
     7
370
    35
100
AcDbCircle
 10
343.2278228805
 20
437.5911844684
 30
0.0
 40
9.587024921386158
100
AcDbArc
 50
6.8161817707
 51
23.3426337043
  0
ARC
  5
1AF
330
1F
100
AcDbEntity
  8
0
  6
Continuous
 62
     7
370
    35
100
AcDbCircle
 10
342.6741305052
 20
437.5911844684
 30
0.0
 40
9.587024921386107
100
AcDbArc
 50
156.6573662957
 51
173.1838182293
  0
ARC
  5
1B0
330
1F
100
AcDbEntity
  8
0
  6
Continuous
 62
     7
370
    35
100
AcDbCircle
 10
347.4473998071
 20
439.412144717
 30
0.0
 40
4.991295853394923
100
AcDbArc
 50
23.3426337043
 51
66.6573662957
  0
ARC
  5
1B1
330
1F
100
AcDbEntity
  8
0
  6
Continuous
 62
     7
370
    35
100
AcDbCircle
 10
338.4545535786
 20
439.412144717
 30
0.0
 40
4.991295853394923
100
AcDbArc
 50
113.3426337043
 51
156.6573662957
  0
ARC
  5
1B2
330
1F
100
AcDbEntity
  8
0
  6
Continuous
 62
     7
370
    35
100
AcDbCircle
 10
345.6264395585
 20
435.1925677904
 30
0.0
 40
9.587024921388103
100
AcDbArc
 50
66.6573662957
 51
83.1838182293
  0
ARC
  5
1B3
330
1F
100
AcDbEntity
  8
0
  6
Continuous
 62
     7
370
    35
100
AcDbCircle
 10
340.2755138272
 20
435.1925677904
 30
0.0
 40
9.587024921388135
100
AcDbArc
 50
96.8161817707
 51
113.3426337043
  0
ARC
  5
1B4
330
1F
100
AcDbEntity
  8
0
  6
Continuous
 62
     7
370
    35
100
AcDbCircle
 10
343.3405820901
 20
416.0687313519
 30
0.0
 40
28.8469902508242
100
AcDbArc
 50
83.1838182293
 51
90.0
  0
ARC
  5
1B5
330
1F
100
AcDbEntity
  8
0
  6
Continuous
 62
     7
370
    35
100
AcDbCircle
 10
342.5613712957
 20
416.0687313519
 30
0.0
 40
28.8469902508242
100
AcDbArc
 50
90.0
 51
96.8161817707
  0
LINE
  5
1B6
330
1F
100
AcDbEntity
  8
0
  6
Continuous
 62
     7
370
    35
100
AcDbLine
 10
317.9509766929
 20
73.2305077917
 30
0.0
 11
317.9509766929
 21
72.8305077917
 31
0.0
  0
LINE
  5
1B7
330
1F
100
AcDbEntity
  8
0
  6
Continuous
 62
     7
370
    35
100
AcDbLine
 10
367.9509766929
 20
72.8305077917
 30
0.0
 11
367.9509766929
 21
73.2305077917
 31
0.0
  0
ARC
  5
1B8
330
1F
100
AcDbEntity
  8
0
  6
Continuous
 62
     7
370
    35
100
AcDbCircle
 10
367.7509766929
 20
72.8305077917
 30
0.0
 40
0.2000000000000028
100
AcDbArc
 50
270.0
 51
0.0
  0
ARC
  5
1B9
330
1F
100
AcDbEntity
  8
0
  6
Continuous
 62
     7
370
    35
100
AcDbCircle
 10
318.1509766929
 20
72.8305077917
 30
0.0
 40
0.2000000000000455
100
AcDbArc
 50
180.0
 51
270.0
  0
LINE
  5
1BA
330
1F
100
AcDbEntity
  8
0
  6
Continuous
 62
     7
370
    35
100
AcDbLine
 10
352.9509766929
 20
357.4157216028
 30
0.0
 11
352.9509766929
 21
432.4157216028
 31
0.0
  0
LINE
  5
1BB
330
1F
100
AcDbEntity
  8
0
  6
Continuous
 62
     7
370
    35
100
AcDbLine
 10
332.9509766929
 20
432.4157216028
 30
0.0
 11
332.9509766929
 21
357.4157216028
 31
0.0
  0
LINE
  5
1BC
330
1F
100
AcDbEntity
  8
0
  6
Continuous
 62
     7
370
    35
100
AcDbLine
 10
396.9509766929
 20
149.1899781691
 30
0.0
 11
288.9509766929
 21
149.1899781691
 31
0.0
  0
LINE
  5
1BD
330
1F
100
AcDbEntity
  8
0
  6
Continuous
 62
     7
370
    35
100
AcDbLine
 10
360.4188294651
 20
73.2305077917
 30
0.0
 11
368.9509766929
 21
73.2305077917
 31
0.0
  0
LINE
  5
1BE
330
1F
100
AcDbEntity
  8
0
  6
Continuous
 62
     7
370
    35
100
AcDbLine
 10
316.9509766929
 20
73.2305077917
 30
0.0
 11
360.4188294651
 21
73.2305077917
 31
0.0
  0
LINE
  5
1BF
330
1F
100
AcDbEntity
  8
0
  6
Continuous
 62
     7
370
    35
100
AcDbLine
 10
293.8212218892
 20
326.1899781691
 30
0.0
 11
392.0807314965
 21
326.1899781691
 31
0.0
  0
LINE
  5
1C0
330
1F
100
AcDbEntity
  8
0
  6
Continuous
 62
   144
370
    18
100
AcDbLine
 10
340.2883837067
 20
357.4157216028
 30
0.0
 11
332.9509766929
 21
357.4157216028
 31
0.0
  0
LINE
  5
1C1
330
1F
100
AcDbEntity
  8
0
  6
Continuous
 62
   144
370
    18
100
AcDbLine
 10
352.9509766929
 20
357.4157216028
 30
0.0
 11
340.2883837067
 21
357.4157216028
 31
0.0
  0
LINE
  5
1C2
330
1F
100
AcDbEntity
  8
0
  6
Continuous
 62
   144
370
    18
100
AcDbLine
 10
341.2271824902
 20
345.836531205
 30
0.0
 11
349.4250950114
 21
345.836531205
 31
0.0
  0
LINE
  5
1C3
330
1F
100
AcDbEntity
  8
0
  6
Continuous
 62
   144
370
    18
100
AcDbLine
 10
336.4768583743
 20
345.836531205
 30
0.0
 11
341.2271824902
 21
345.836531205
 31
0.0
  0
LINE
  5
1C4
330
1F
100
AcDbEntity
  8
0
  6
Continuous
 62
     7
370
    35
100
AcDbLine
 10
294.9072301762
 20
328.1899781691
 30
0.0
 11
390.9947232095
 21
328.1899781691
 31
0.0
  0
LINE
  5
1C5
330
1F
100
AcDbEntity
  8
0
  6
Continuous
 62
   144
370
    18
100
AcDbLine
 10
347.2009766929
 20
345.1751935975
 30
0.0
 11
338.7009766929
 21
345.1751935975
 31
0.0
  0
LINE
  5
1C6
330
1F
100
AcDbEntity
  8
0
  6
Continuous
 62
     7
370
    35
100
AcDbLine
 10
342.9509766929
 20
267.1899781691
 30
0.0
 11
396.9509766929
 21
267.1899781691
 31
0.0
  0
LINE
  5
1C7
330
1F
100
AcDbEntity
  8
0
  6
Continuous
 62
     7
370
    35
100
AcDbLine
 10
288.9509766929
 20
267.1899781691
 30
0.0
 11
342.9509766929
 21
267.1899781691
 31
0.0
  0
LINE
  5
1C8
330
1F
100
AcDbEntity
  8
0
  6
Continuous
 62
     7
370
    35
100
AcDbLine
 10
396.9509766929
 20
267.1899781691
 30
0.0
 11
288.9509766929
 21
267.1899781691
 31
0.0
  0
LINE
  5
1C9
330
1F
100
AcDbEntity
  8
0
  6
Continuous
 62
   144
370
    18
100
AcDbLine
 10
332.9509766929
 20
432.4157216028
 30
0.0
 11
352.9509766929
 21
432.4157216028
 31
0.0
  0
LINE
  5
1CA
330
1F
100
AcDbEntity
  8
0
  6
Continuous
 62
   144
370
    18
100
AcDbLine
 10
343.3405820901
 20
444.9157216028
 30
0.0
 11
342.5613712957
 21
444.9157216028
 31
0.0
  0
LINE
  5
1CB
330
1F
100
AcDbEntity
  8
0
  6
Continuous
 62
     7
370
    35
100
AcDbLine
 10
342.9509766929
 20
72.6305077917
 30
0.0
 11
318.1509766929
 21
72.6305077917
 31
0.0
  0
LINE
  5
1CC
330
1F
100
AcDbEntity
  8
0
  6
Continuous
 62
     7
370
    35
100
AcDbLine
 10
367.7509766929
 20
72.6305077917
 30
0.0
 11
342.9509766929
 21
72.6305077917
 31
0.0
  0
LINE
  5
1CD
330
1F
100
AcDbEntity
  8
0
  6
Continuous
 62
   144
370
    18
100
AcDbLine
 10
332.9509766929
 20
357.4157216028
 30
0.0
 11
352.9509766929
 21
357.4157216028
 31
0.0
  0
CIRCLE
  5
1CE
330
1F
100
AcDbEntity
  8
0
  6
Continuous
 62
     7
370
    35
100
AcDbCircle
 10
179.3347694129
 20
582.1681942424
 30
0.0
 40
49.12975480363264
  0
CIRCLE
  5
1CF
330
1F
100
AcDbEntity
  8
0
  6
Continuous
 62
     7
370
    35
100
AcDbCircle
 10
179.3347694129
 20
582.1681942424
 30
0.0
 40
48.0437465166375
  0
CIRCLE
  5
1D0
330
1F
100
AcDbEntity
  8
0
  6
Continuous
 62
     7
370
    35
100
AcDbCircle
 10
179.3347694129
 20
582.1681942424
 30
0.0
 40
49.01043131940139
  0
CIRCLE
  5
1D1
330
1F
100
AcDbEntity
  8
0
  6
Continuous
 62
     7
370
    35
100
AcDbCircle
 10
179.3347694129
 20
582.1681942424
 30
0.0
 40
53.99999999999994
  0
CIRCLE
  5
1D2
330
1F
100
AcDbEntity
  8
0
  6
Continuous
 62
   144
370
    18
100
AcDbCircle
 10
179.3347694129
 20
582.1681942424
 30
0.0
 40
0.3896053971984657
  0
CIRCLE
  5
1D3
330
1F
100
AcDbEntity
  8
0
  6
Continuous
 62
     7
370
    35
100
AcDbCircle
 10
179.3347694129
 20
582.1681942424
 30
0.0
 40
10.00000000000006
  0
CIRCLE
  5
1D4
330
1F
100
AcDbEntity
  8
0
  6
Continuous
 62
     7
370
    35
100
AcDbCircle
 10
179.3347694129
 20
-115.63880218
 30
0.0
 40
25.99999999999999
  0
CIRCLE
  5
1D5
330
1F
100
AcDbEntity
  8
0
  6
Continuous
 62
   144
370
    18
100
AcDbCircle
 10
179.3347694129
 20
-115.63880218
 30
0.0
 40
25.10000000000003
  0
CIRCLE
  5
1D6
330
1F
100
AcDbEntity
  8
0
  6
Continuous
 62
     7
370
    35
100
AcDbCircle
 10
179.3347694129
 20
-115.63880218
 30
0.0
 40
53.99999999999997
  0
CIRCLE
  5
1D7
330
1F
100
AcDbEntity
  8
0
  6
Continuous
 62
     7
370
    35
100
AcDbCircle
 10
179.3347694129
 20
-115.63880218
 30
0.0
 40
7.784999999999997
  0
LINE
  5
1D8
330
1F
100
AcDbEntity
  8
0
  6
Continuous
 62
     7
370
    35
100
AcDbLine
 10
181.7611352477
 20
-114.0535948849
 30
0.0
 11
181.9207821182
 21
-116.9474929843
 31
0.0
  0
LINE
  5
1D9
330
1F
100
AcDbEntity
  8
0
  6
Continuous
 62
     7
370
    35
100
AcDbLine
 10
179.1751225424
 20
-112.7449040806
 30
0.0
 11
181.7611352477
 21
-114.0535948849
 31
0.0
  0
LINE
  5
1DA
330
1F
100
AcDbEntity
  8
0
  6
Continuous
 62
     7
370
    35
100
AcDbLine
 10
176.7487567075
 20
-114.3301113758
 30
0.0
 11
179.1751225424
 21
-112.7449040806
 31
0.0
  0
LINE
  5
1DB
330
1F
100
AcDbEntity
  8
0
  6
Continuous
 62
     7
370
    35
100
AcDbLine
 10
176.908403578
 20
-117.2240094752
 30
0.0
 11
176.7487567075
 21
-114.3301113758
 31
0.0
  0
LINE
  5
1DC
330
1F
100
AcDbEntity
  8
0
  6
Continuous
 62
     7
370
    35
100
AcDbLine
 10
179.4944162833
 20
-118.5327002795
 30
0.0
 11
176.908403578
 21
-117.2240094752
 31
0.0
  0
LINE
  5
1DD
330
1F
100
AcDbEntity
  8
0
  6
Continuous
 62
     7
370
    35
100
AcDbLine
 10
181.9207821182
 20
-116.9474929843
 30
0.0
 11
179.4944162833
 21
-118.5327002795
 31
0.0
  0
CIRCLE
  5
1DE
330
1F
100
AcDbEntity
  8
0
  6
Continuous
 62
   144
370
    18
100
AcDbCircle
 10
179.3347694129
 20
-115.63880218
 30
0.0
 40
0.3896053971984941
  0
CIRCLE
  5
1DF
330
1F
100
AcDbEntity
  8
0
  6
Continuous
 62
     7
370
    35
100
AcDbCircle
 10
179.3347694129
 20
-115.63880218
 30
0.0
 40
25.0
  0
CIRCLE
  5
1E0
330
1F
100
AcDbEntity
  8
0
  6
Continuous
 62
     7
370
    35
100
AcDbCircle
 10
179.3347694129
 20
-115.63880218
 30
0.0
 40
19.99999999999999
  0
ENDSEC
  0
SECTION
  2
OBJECTS
  0
DICTIONARY
  5
C
330
0
100
AcDbDictionary
281
     1
  3
ACAD_GROUP
350
D
  3
ACAD_LAYOUT
350
1A
  3
ACAD_MLINESTYLE
350
17
  3
ACAD_PLOTSETTINGS
350
19
  3
ACAD_PLOTSTYLENAME
350
E
  3
ACAD_SCALELIST
350
47
  3
DWGPROPS
350
1E1
  0
DICTIONARY
  5
D
102
{ACAD_REACTORS
330
C
102
}
330
C
100
AcDbDictionary
281
     1
  0
DICTIONARY
  5
1A
102
{ACAD_REACTORS
330
C
102
}
330
C
100
AcDbDictionary
281
     1
  3
Layout1
350
1E
  3
Layout2
350
26
  3
Model
350
22
  0
DICTIONARY
  5
17
102
{ACAD_REACTORS
330
C
102
}
330
C
100
AcDbDictionary
281
     1
  3
Standard
350
18
  0
DICTIONARY
  5
19
102
{ACAD_REACTORS
330
C
102
}
330
C
100
AcDbDictionary
281
     1
  0
ACDBDICTIONARYWDFLT
  5
E
102
{ACAD_REACTORS
330
C
102
}
330
C
100
AcDbDictionary
281
     1
  3
Normal
350
F
100
AcDbDictionaryWithDefault
340
F
  0
DICTIONARY
  5
47
102
{ACAD_REACTORS
330
C
102
}
330
C
100
AcDbDictionary
281
     1
  3
A0
350
48
  3
A1
350
49
  3
A2
350
4A
  3
A3
350
4B
  3
A4
350
4C
  3
A5
350
4D
  3
A6
350
4E
  3
A7
350
4F
  3
A8
350
50
  3
A9
350
51
  3
B0
350
52
  3
B1
350
53
  3
B2
350
54
  3
B3
350
55
  3
B4
350
56
  3
B5
350
57
  3
B6
350
58
  3
B7
350
59
  3
B8
350
5A
  3
B9
350
5B
  3
C0
350
5C
  3
C1
350
5D
  3
C2
350
5E
  3
C3
350
5F
  3
C4
350
60
  3
C5
350
61
  3
C6
350
62
  3
C7
350
63
  3
C8
350
64
  3
C9
350
65
  3
D0
350
66
  3
D1
350
67
  3
D2
350
68
  0
XRECORD
  5
1E1
102
{ACAD_REACTORS
330
C
102
}
330
C
100
AcDbXrecord
280
     1
  1
DWGPROPS COOKIE
  2

  3

  4

  6

  7

  8
y_harada
  9

300
=
301
=
302
=
303
=
304
=
305
=
306
=
307
=
308
=
309
=
 40
0.0
 41
2459317.177694954
 42
2459317.17769625
  1

 90
        0
  0
LAYOUT
  5
1E
102
{ACAD_REACTORS
330
1A
102
}
330
1A
100
AcDbPlotSettings
  1

  2
none_device
  4

  6

 40
0.0
 41
0.0
 42
0.0
 43
0.0
 44
0.0
 45
0.0
 46
0.0
 47
0.0
 48
0.0
 49
0.0
140
0.0
141
0.0
142
1.0
143
1.0
 70
   688
 72
     1
 73
     0
 74
     5
  7

 75
    16
147
1.0
148
0.0
149
0.0
100
AcDbLayout
  1
Layout1
 70
     1
 71
     1
 10
0.0
 20
0.0
 11
420.0
 21
297.0
 12
0.0
 22
0.0
 32
0.0
 14
1.0000000000E+20
 24
1.0000000000E+20
 34
1.0000000000E+20
 15
-1.0000000000E+20
 25
-1.0000000000E+20
 35
-1.0000000000E+20
146
0.0
 13
0.0
 23
0.0
 33
0.0
 16
1.0
 26
0.0
 36
0.0
 17
0.0
 27
1.0
 37
0.0
 76
     0
330
1B
  0
LAYOUT
  5
26
102
{ACAD_REACTORS
330
1A
102
}
330
1A
100
AcDbPlotSettings
  1

  2
none_device
  4

  6

 40
0.0
 41
0.0
 42
0.0
 43
0.0
 44
0.0
 45
0.0
 46
0.0
 47
0.0
 48
0.0
 49
0.0
140
0.0
141
0.0
142
1.0
143
1.0
 70
   688
 72
     1
 73
     0
 74
     5
  7

 75
    16
147
1.0
148
0.0
149
0.0
100
AcDbLayout
  1
Layout2
 70
     1
 71
     2
 10
0.0
 20
0.0
 11
0.0
 21
0.0
 12
0.0
 22
0.0
 32
0.0
 14
0.0
 24
0.0
 34
0.0
 15
0.0
 25
0.0
 35
0.0
146
0.0
 13
0.0
 23
0.0
 33
0.0
 16
1.0
 26
0.0
 36
0.0
 17
0.0
 27
1.0
 37
0.0
 76
     0
330
23
  0
LAYOUT
  5
22
102
{ACAD_REACTORS
330
1A
102
}
330
1A
100
AcDbPlotSettings
  1

  2
none_device
  4
Letter_(8.50_x_11.00_Inches)
  6

 40
6.35
 41
6.35
 42
6.35000508
 43
6.35000508
 44
215.9
 45
279.4
 46
0.0
 47
0.0
 48
0.0
 49
0.0
140
0.0
141
0.0
142
1.0
143
1.0
 70
  1712
 72
     1
 73
     0
 74
     0
  7

 75
     0
147
1.0
148
0.0
149
0.0
100
AcDbLayout
  1
Model
 70
     1
 71
     0
 10
0.0
 20
0.0
 11
420.0
 21
297.0
 12
0.0
 22
0.0
 32
0.0
 14
0.0
 24
0.0
 34
0.0
 15
420.0
 25
297.0
 35
0.0
146
0.0
 13
0.0
 23
0.0
 33
0.0
 16
1.0
 26
0.0
 36
0.0
 17
0.0
 27
1.0
 37
0.0
 76
     0
330
1F
331
29
  0
MLINESTYLE
  5
18
102
{ACAD_REACTORS
330
17
102
}
330
17
100
AcDbMlineStyle
  2
Standard
 70
     0
  3

 62
   256
 51
90.0
 52
90.0
 71
     2
 49
0.5
 62
   256
  6
BYLAYER
 49
-0.5
 62
   256
  6
BYLAYER
  0
ACDBPLACEHOLDER
  5
F
102
{ACAD_REACTORS
330
E
102
}
330
E
  0
SCALE
  5
48
102
{ACAD_REACTORS
330
47
102
}
330
47
100
AcDbScale
 70
     0
300
1:1
140
1.0
141
1.0
290
     1
  0
SCALE
  5
49
102
{ACAD_REACTORS
330
47
102
}
330
47
100
AcDbScale
 70
     0
300
1:2
140
1.0
141
2.0
290
     0
  0
SCALE
  5
4A
102
{ACAD_REACTORS
330
47
102
}
330
47
100
AcDbScale
 70
     0
300
1:4
140
1.0
141
4.0
290
     0
  0
SCALE
  5
4B
102
{ACAD_REACTORS
330
47
102
}
330
47
100
AcDbScale
 70
     0
300
1:5
140
1.0
141
5.0
290
     0
  0
SCALE
  5
4C
102
{ACAD_REACTORS
330
47
102
}
330
47
100
AcDbScale
 70
     0
300
1:8
140
1.0
141
8.0
290
     0
  0
SCALE
  5
4D
102
{ACAD_REACTORS
330
47
102
}
330
47
100
AcDbScale
 70
     0
300
1:10
140
1.0
141
10.0
290
     0
  0
SCALE
  5
4E
102
{ACAD_REACTORS
330
47
102
}
330
47
100
AcDbScale
 70
     0
300
1:16
140
1.0
141
16.0
290
     0
  0
SCALE
  5
4F
102
{ACAD_REACTORS
330
47
102
}
330
47
100
AcDbScale
 70
     0
300
1:20
140
1.0
141
20.0
290
     0
  0
SCALE
  5
50
102
{ACAD_REACTORS
330
47
102
}
330
47
100
AcDbScale
 70
     0
300
1:30
140
1.0
141
30.0
290
     0
  0
SCALE
  5
51
102
{ACAD_REACTORS
330
47
102
}
330
47
100
AcDbScale
 70
     0
300
1:40
140
1.0
141
40.0
290
     0
  0
SCALE
  5
52
102
{ACAD_REACTORS
330
47
102
}
330
47
100
AcDbScale
 70
     0
300
1:50
140
1.0
141
50.0
290
     0
  0
SCALE
  5
53
102
{ACAD_REACTORS
330
47
102
}
330
47
100
AcDbScale
 70
     0
300
1:100
140
1.0
141
100.0
290
     0
  0
SCALE
  5
54
102
{ACAD_REACTORS
330
47
102
}
330
47
100
AcDbScale
 70
     0
300
2:1
140
2.0
141
1.0
290
     0
  0
SCALE
  5
55
102
{ACAD_REACTORS
330
47
102
}
330
47
100
AcDbScale
 70
     0
300
4:1
140
4.0
141
1.0
290
     0
  0
SCALE
  5
56
102
{ACAD_REACTORS
330
47
102
}
330
47
100
AcDbScale
 70
     0
300
8:1
140
8.0
141
1.0
290
     0
  0
SCALE
  5
57
102
{ACAD_REACTORS
330
47
102
}
330
47
100
AcDbScale
 70
     0
300
10:1
140
10.0
141
1.0
290
     0
  0
SCALE
  5
58
102
{ACAD_REACTORS
330
47
102
}
330
47
100
AcDbScale
 70
     0
300
100:1
140
100.0
141
1.0
290
     0
  0
SCALE
  5
59
102
{ACAD_REACTORS
330
47
102
}
330
47
100
AcDbScale
 70
     0
300
1/128" = 1'-0"
140
0.0078125
141
12.0
290
     0
  0
SCALE
  5
5A
102
{ACAD_REACTORS
330
47
102
}
330
47
100
AcDbScale
 70
     0
300
1/64" = 1'-0"
140
0.015625
141
12.0
290
     0
  0
SCALE
  5
5B
102
{ACAD_REACTORS
330
47
102
}
330
47
100
AcDbScale
 70
     0
300
1/32" = 1'-0"
140
0.03125
141
12.0
290
     0
  0
SCALE
  5
5C
102
{ACAD_REACTORS
330
47
102
}
330
47
100
AcDbScale
 70
     0
300
1/16" = 1'-0"
140
0.0625
141
12.0
290
     0
  0
SCALE
  5
5D
102
{ACAD_REACTORS
330
47
102
}
330
47
100
AcDbScale
 70
     0
300
3/32" = 1'-0"
140
0.09375
141
12.0
290
     0
  0
SCALE
  5
5E
102
{ACAD_REACTORS
330
47
102
}
330
47
100
AcDbScale
 70
     0
300
1/8" = 1'-0"
140
0.125
141
12.0
290
     0
  0
SCALE
  5
5F
102
{ACAD_REACTORS
330
47
102
}
330
47
100
AcDbScale
 70
     0
300
3/16" = 1'-0"
140
0.1875
141
12.0
290
     0
  0
SCALE
  5
60
102
{ACAD_REACTORS
330
47
102
}
330
47
100
AcDbScale
 70
     0
300
1/4" = 1'-0"
140
0.25
141
12.0
290
     0
  0
SCALE
  5
61
102
{ACAD_REACTORS
330
47
102
}
330
47
100
AcDbScale
 70
     0
300
3/8" = 1'-0"
140
0.375
141
12.0
290
     0
  0
SCALE
  5
62
102
{ACAD_REACTORS
330
47
102
}
330
47
100
AcDbScale
 70
     0
300
1/2" = 1'-0"
140
0.5
141
12.0
290
     0
  0
SCALE
  5
63
102
{ACAD_REACTORS
330
47
102
}
330
47
100
AcDbScale
 70
     0
300
3/4" = 1'-0"
140
0.75
141
12.0
290
     0
  0
SCALE
  5
64
102
{ACAD_REACTORS
330
47
102
}
330
47
100
AcDbScale
 70
     0
300
1" = 1'-0"
140
1.0
141
12.0
290
     0
  0
SCALE
  5
65
102
{ACAD_REACTORS
330
47
102
}
330
47
100
AcDbScale
 70
     0
300
1-1/2" = 1'-0"
140
1.5
141
12.0
290
     0
  0
SCALE
  5
66
102
{ACAD_REACTORS
330
47
102
}
330
47
100
AcDbScale
 70
     0
300
3" = 1'-0"
140
3.0
141
12.0
290
     0
  0
SCALE
  5
67
102
{ACAD_REACTORS
330
47
102
}
330
47
100
AcDbScale
 70
     0
300
6" = 1'-0"
140
6.0
141
12.0
290
     0
  0
SCALE
  5
68
102
{ACAD_REACTORS
330
47
102
}
330
47
100
AcDbScale
 70
     0
300
1'-0" = 1'-0"
140
12.0
141
12.0
290
     0
  0
ENDSEC
  0
EOF
