  0
SECTION
  2
HEADER
  9
$ACADVER
  1
AC1009
  9
$INSBASE
 10
0
 20
0
 30
0
  9
$EXTMIN
 10
0
 20
0
  9
$EXTMAX
 10
420
 20
297
  9
$LIMMIN
 10
0
 20
0
  9
$LIMMAX
 10
420
 20
297
  9
$LTSCALE
 40
1
  0
ENDSEC
  0
SECTION
  2
TABLES
  0
TABLE
  2
LTYPE
 70
     9
  0
LTYPE
  2
CONTINUOUS
 70
    64
  3
実線
 72
    65
 73
     0
 40
0.0
  0
LTYPE
  2
DASHED1
 70
    64
  3
--  --  --  --  --  --  --  --  
 72
    65
 73
     2
 40
2.5
 49
1.25
 49
-1.25
  0
LTYPE
  2
DASHED2
 70
    64
  3
----    ----    ----    ----    
 72
    65
 73
     2
 40
5.0
 49
2.5
 49
-2.5
  0
LTYPE
  2
DASHED3
 70
    64
  3
------  ------  ------  ------  
 72
    65
 73
     2
 40
5.0
 49
3.75
 49
-1.25
  0
LTYPE
  2
CENTER1
 70
    64
  3
----- - ----- - ----- - ----- - 
 72
    65
 73
     4
 40
10.0
 49
6.25
 49
-1.25
 49
1.25
 49
-1.25
  0
LTYPE
  2
CENTER2
 70
    64
  3
----------  --  ----------  --  
 72
    65
 73
     4
 40
20.0
 49
12.5
 49
-2.5
 49
2.5
 49
-2.5
  0
LTYPE
  2
PHANTOM1
 70
    64
  3
--- - - --- - - --- - - --- - - 
 72
    65
 73
     6
 40
10.0
 49
3.25
 49
-1.25
 49
1.25
 49
-1.25
 49
1.25
 49
-1.25
  0
LTYPE
  2
PHANTOM2
 70
    64
  3
--------  -  -  --------  -  -  
 72
    65
 73
     6
 40
20.0
 49
10.0
 49
-2.5
 49
1.25
 49
-2.5
 49
1.25
 49
-2.5
  0
LTYPE
  2
DOT
 70
    64
  3
-   -   -   -   -   -   -   -   
 72
    65
 73
     2
 40
2.5
 49
0.625
 49
-1.875
  0
LTYPE
  2
DUMMY
 70
    64
  3
ダミー
 72
    65
 73
     0
 40
0.0
  0
LTYPE
  2
RAND1
 70
    64
  3
ランダム線1
 72
    65
 73
     4
 40
10.0
 49
1.0
 49
-2.0
 49
3.0
 49
-4.0
  0
LTYPE
  2
RAND2
 70
    64
  3
ランダム線2
 72
    65
 73
     4
 40
14.0
 49
2.0
 49
-3.0
 49
4.0
 49
-5.0
  0
LTYPE
  2
RAND3
 70
    64
  3
ランダム線3
 72
    65
 73
     4
 40
18.0
 49
3.0
 49
-4.0
 49
5.0
 49
-6.0
  0
LTYPE
  2
RAND4
 70
    64
  3
ランダム線4
 72
    65
 73
     4
 40
22.0
 49
4.0
 49
-5.0
 49
6.0
 49
-7.0
  0
LTYPE
  2
RAND5
 70
    64
  3
ランダム線5
 72
    65
 73
     4
 40
26.0
 49
5.0
 49
-6.0
 49
7.0
 49
-8.0
  0
LTYPE
  2
LONG1
 70
    64
  3
----------  --  ----------  --  
 72
    65
 73
     4
 40
40.0
 49
32.5
 49
-2.5
 49
2.5
 49
-2.5
  0
LTYPE
  2
LONG2
 70
    64
  3
--------  -  -  --------  -  -  
 72
    65
 73
     6
 40
40.0
 49
30.0
 49
-2.5
 49
1.25
 49
-2.5
 49
1.25
 49
-2.5
  0
LTYPE
  2
LONG3
 70
    64
  3
+++++++++++++++..+++++++++++++++
 72
    65
 73
     2
 40
40.0
 49
37.5
 49
-2.5
  0
LTYPE
  2
LONG4
 70
    64
  3
+++++++++++++++..+++++++++++++++
 72
    65
 73
     2
 40
80.0
 49
75.0
 49
-5.0
  0
LTYPE
  2
LONG5
 70
    64
  3
----------  --  ----------  --  
 72
    65
 73
     4
 40
60.0
 49
37.5
 49
-7.5
 49
7.5
 49
-7.5
  0
LTYPE
  2
dashed
 70
   64
  3
-------   -------------   ------
 72
   65
 73
    2
 40
7.5
 49
6
 49
-1.5
  0
LTYPE
  2
dashed_spaced
 70
   64
  3
----        --------        ----
 72
   65
 73
    2
 40
12
 49
6
 49
-6
  0
LTYPE
  2
long_dashed_dotted
 70
   64
  3
------------- --- --------------
 72
   65
 73
    4
 40
15.25
 49
12
 49
-1.5
 49
0.25
 49
-1.5
  0
LTYPE
  2
long_dashed_double-dotted
 70
   64
  3
----------- --- --- ------------
 72
   65
 73
    6
 40
17
 49
12
 49
-1.5
 49
0.25
 49
-1.5
 49
0.25
 49
-1.5
  0
LTYPE
  2
long_dashed_triplicate-dotted
 70
   64
  3
--------- --- --- --- ----------
 72
   65
 73
    8
 40
18.75
 49
12
 49
-1.5
 49
0.25
 49
-1.5
 49
0.25
 49
-1.5
 49
0.25
 49
-1.5
  0
LTYPE
  2
dotted
 70
   64
  3
   -       -       -       -    
 72
   65
 73
    2
 40
1.75
 49
0.25
 49
-1.5
  0
LTYPE
  2
chain
 70
   64
  3
-------------- -- --------------
 72
   65
 73
    4
 40
18.5
 49
12
 49
-1.5
 49
3.5
 49
-1.5
  0
LTYPE
  2
chain_double_dash
 70
   64
  3
------------ -- -- -------------
 72
   65
 73
    6
 40
23.5
 49
12
 49
-1.5
 49
3.5
 49
-1.5
 49
3.5
 49
-1.5
  0
LTYPE
  2
dashed_dotted
 70
   64
  3
-----------     -     ----------
 72
   65
 73
    4
 40
9.25
 49
6
 49
-1.5
 49
0.25
 49
-1.5
  0
LTYPE
  2
double-dashed_dotted
 70
   64
  3
------   -----------   -   -----
 72
   65
 73
    6
 40
16.75
 49
6
 49
-1.5
 49
6
 49
-1.5
 49
0.25
 49
-1.5
  0
LTYPE
  2
dashed_double-dotted
 70
   64
  3
---------    -    -    ---------
 72
   65
 73
    6
 40
11
 49
6
 49
-1.5
 49
0.25
 49
-1.5
 49
0.25
 49
-1.5
  0
LTYPE
  2
double-dashed_double-dotted
 70
   64
  3
-----   ---------   -   -   ----
 72
   65
 73
    8
 40
18.5
 49
6
 49
-1.5
 49
6
 49
-1.5
 49
0.25
 49
-1.5
 49
0.25
 49
-1.5
  0
LTYPE
  2
dashed_triplicate-dotted
 70
   64
  3
-------    -    -    -    ------
 72
   65
 73
    8
 40
12.75
 49
6
 49
-1.5
 49
0.25
 49
-1.5
 49
0.25
 49
-1.5
 49
0.25
 49
-1.5
  0
LTYPE
  2
double-dashed_triplicate-dotted
 70
   64
  3
-----  ---------  -  -  -  -----
 72
   65
 73
   10
 40
20.25
 49
6
 49
-1.5
 49
6
 49
-1.5
 49
0.25
 49
-1.5
 49
0.25
 49
-1.5
 49
0.25
 49
-1.5
  0
LTYPE
  2
undefined
 70
   64
  3
--------------------------------
 72
   65
 73
    0
 40
0
  0
LTYPE
  2
HIDDEN
 70
   64
  3
------     -----------     -----
 72
   65
 73
    2
 40
1.905
 49
1.27
 49
-0.635
  0
LTYPE
  2
PHANTOM
 70
   64
  3
---------   ---   ---   --------
 72
   65
 73
    6
 40
12.699999999999998
 49
6.3499999999999996
 49
-1.27
 49
1.27
 49
-1.27
 49
1.27
 49
-1.27
  0
LTYPE
  2
DOT2
 70
   64
  3
-               -               
 72
   65
 73
    2
 40
0.645
 49
0.01
 49
-0.635
  0
ENDTAB
  0
TABLE
  2
STYLE
  5
3
100
AcDbSymbolTable
 70
     1
  0
STYLE
  5
10
100
AcDbSymbolTableRecord
100
AcDbTextStyleTableRecord
  2
STANDARD
 70
     0
 40
0.0
 41
1.0
 50
0.0
 71
     0
 42
0.2
  3
txt
  4
bigfont.shx
  0
STYLE
  5
26
100
AcDbSymbolTableRecord
100
AcDbTextStyleTableRecord
  2
TATEGAKI
 70
    68
 40
0.0
 41
1.0
 50
0.0
 71
     0
 42
1.0
  3
txt
  4
bigfont.shx
  0
ENDTAB
  0
TABLE
  2
LAYER
 70
    3
  0
LAYER
  2
_0-0_0
 70
   64
 62
    7
  6
CONTINUOUS
  0
LAYER
  2
_0-3_
 70
   64
 62
    7
  6
CONTINUOUS
  0
LAYER
  2
ADD_LINE
 70
   64
 62
    7
  6
CONTINUOUS
  0
ENDTAB
  0
ENDSEC
  0
SECTION
  2
BLOCKS
  0
ENDSEC
  0
SECTION
  2
ENTITIES
  0
LINE
  8
_0-0_0
  6
CONTINUOUS
 62
    7
 10
264.18799999999999
 20
189.875
 11
260.18799999999999
 21
189.875
  0
LINE
  8
_0-0_0
  6
CONTINUOUS
 62
    7
 10
260.18799999999999
 20
164.875
 11
264.18799999999999
 21
164.875
  0
ARC
  8
_0-0_0
  6
CONTINUOUS
 62
    7
 10
258.68799999999999
 20
185.875
 40
1.5
 50
270
 51
0
  0
ARC
  8
_0-0_0
  6
CONTINUOUS
 62
    7
 10
258.68799999999999
 20
168.875
 40
1.5
 50
0
 51
90
  0
LINE
  8
_0-0_0
  6
CONTINUOUS
 62
    7
 10
248.95341951040001
 20
184.375
 11
243.18799999999999
 21
184.375
  0
LINE
  8
_0-0_0
  6
CONTINUOUS
 62
    7
 10
258.68799999999999
 20
184.375
 11
251.435144979
 21
184.375
  0
LINE
  8
_0-0_0
  6
CONTINUOUS
 62
    7
 10
243.18799999999999
 20
170.375
 11
258.68799999999999
 21
170.375
  0
LINE
  8
_0-0_0
  6
CONTINUOUS
 62
    7
 10
264.18799999999999
 20
189.875
 11
264.18799999999999
 21
164.875
  0
LINE
  8
_0-0_0
  6
CONTINUOUS
 62
    7
 10
260.18799999999999
 20
189.875
 11
260.18799999999999
 21
164.875
  0
LINE
  8
_0-0_0
  6
CONTINUOUS
 62
    7
 10
243.18799999999999
 20
184.375
 11
243.18799999999999
 21
170.375
  0
LINE
  8
_0-0_0
  6
CONTINUOUS
 62
    8
 10
258.68799999999999
 20
184.375
 11
258.68799999999999
 21
170.375
  0
LINE
  8
_0-0_0
  6
CONTINUOUS
 62
    7
 10
264.18799999999999
 20
235.86253002401924
 11
260.18799999999999
 21
235.86253002401924
  0
LINE
  8
_0-0_0
  6
CONTINUOUS
 62
    7
 10
260.18799999999999
 20
210.86253002401921
 11
264.18799999999999
 21
210.86253002401921
  0
ARC
  8
_0-0_0
  6
CONTINUOUS
 62
    7
 10
258.68799999999999
 20
231.86253002401924
 40
1.5
 50
270
 51
0
  0
ARC
  8
_0-0_0
  6
CONTINUOUS
 62
    7
 10
258.68799999999999
 20
214.86253002401921
 40
1.5
 50
0
 51
90
  0
LINE
  8
_0-0_0
  6
CONTINUOUS
 62
    7
 10
258.68799999999999
 20
230.36253002401921
 11
243.18799999999999
 21
230.36253002401921
  0
LINE
  8
_0-0_0
  6
CONTINUOUS
 62
    7
 10
243.18799999999999
 20
216.36253002401921
 11
258.68799999999999
 21
216.36253002401921
  0
CIRCLE
  8
_0-0_0
  6
CONTINUOUS
 62
    7
 10
250.18799999999999
 20
223.36253002401921
 40
1.219500000000012
  0
LINE
  8
_0-0_0
  6
CONTINUOUS
 62
    7
 10
250.0323130498
 20
224.21444643631921
 11
249.37237526999999
 21
223.65365937631921
  0
LINE
  8
_0-0_0
  6
CONTINUOUS
 62
    7
 10
249.5280622201
 20
222.80174296401921
 11
249.37237526999999
 21
223.65365937631921
  0
LINE
  8
_0-0_0
  6
CONTINUOUS
 62
    7
 10
250.34368695020001
 20
222.51061361171921
 11
249.5280622201
 21
222.80174296401921
  0
LINE
  8
_0-0_0
  6
CONTINUOUS
 62
    7
 10
250.34368695020001
 20
222.51061361171921
 11
251.00362473000001
 21
223.0714006717192
  0
LINE
  8
_0-0_0
  6
CONTINUOUS
 62
    7
 10
250.84793777990001
 20
223.9233170840192
 11
251.00362473000001
 21
223.0714006717192
  0
LINE
  8
_0-0_0
  6
CONTINUOUS
 62
    7
 10
250.84793777990001
 20
223.9233170840192
 11
250.0323130498
 21
224.21444643631921
  0
LINE
  8
_0-0_0
  6
CONTINUOUS
 62
    7
 10
264.18799999999999
 20
235.86253002401924
 11
264.18799999999999
 21
210.86253002401921
  0
LINE
  8
_0-0_0
  6
CONTINUOUS
 62
    7
 10
260.18799999999999
 20
235.86253002401924
 11
260.18799999999999
 21
210.86253002401921
  0
LINE
  8
_0-0_0
  6
CONTINUOUS
 62
    7
 10
243.18799999999999
 20
230.36253002401921
 11
243.18799999999999
 21
216.36253002401921
  0
LINE
  8
_0-0_0
  6
CONTINUOUS
 62
    8
 10
258.68799999999999
 20
230.36253002401921
 11
258.68799999999999
 21
216.36253002401921
  0
LINE
  8
_0-0_0
  6
CONTINUOUS
 62
    7
 10
264.18799999999999
 20
144.48767013610887
 11
260.18799999999999
 21
144.48767013610887
  0
LINE
  8
_0-0_0
  6
CONTINUOUS
 62
    7
 10
260.18799999999999
 20
119.48767013610889
 11
264.18799999999999
 21
119.48767013610889
  0
ARC
  8
_0-0_0
  6
CONTINUOUS
 62
    7
 10
258.68799999999999
 20
140.48767013610887
 40
1.5
 50
270
 51
0
  0
ARC
  8
_0-0_0
  6
CONTINUOUS
 62
    7
 10
258.68799999999999
 20
123.48767013610889
 40
1.5
 50
0
 51
90
  0
LINE
  8
_0-0_0
  6
CONTINUOUS
 62
    7
 10
258.68799999999999
 20
138.98767013610887
 11
243.18799999999999
 21
138.98767013610887
  0
LINE
  8
_0-0_0
  6
CONTINUOUS
 62
    7
 10
243.18799999999999
 20
124.98767013610889
 11
258.68799999999999
 21
124.98767013610889
  0
LINE
  8
_0-0_0
  6
CONTINUOUS
 62
    7
 10
264.18799999999999
 20
144.48767013610887
 11
264.18799999999999
 21
119.48767013610889
  0
LINE
  8
_0-0_0
  6
CONTINUOUS
 62
    7
 10
260.18799999999999
 20
144.48767013610887
 11
260.18799999999999
 21
119.48767013610889
  0
LINE
  8
_0-0_0
  6
CONTINUOUS
 62
    7
 10
243.18799999999999
 20
138.98767013610887
 11
243.18799999999999
 21
124.98767013610889
  0
LINE
  8
_0-0_0
  6
CONTINUOUS
 62
    8
 10
258.68799999999999
 20
138.98767013610887
 11
258.68799999999999
 21
124.98767013610889
  0
CIRCLE
  8
_0-0_0
  6
CONTINUOUS
 62
    7
 10
320.53018414731787
 20
177.375
 40
12.49999999999994
  0
LINE
  8
_0-0_0
  6
CONTINUOUS
 62
    7
 10
203.5561687881185
 20
182.7184539392
 11
203.5561687881185
 21
182.61451333619999
  0
LINE
  8
_0-0_0
  6
CONTINUOUS
 62
    7
 10
206.5561687881185
 20
182.61451333619999
 11
206.5561687881185
 21
182.7184539392
  0
CIRCLE
  8
_0-0_0
  6
CONTINUOUS
 62
    7
 10
205.0561687881185
 20
177.375
 40
6.9999999999999716
  0
CIRCLE
  8
_0-0_0
  6
CONTINUOUS
 62
    7
 10
205.0561687881185
 20
177.375
 40
5.5500000000000114
  0
CIRCLE
  8
_0-0_0
  6
CONTINUOUS
 62
    7
 10
205.0561687881185
 20
177.375
 40
8.5
  0
CIRCLE
  8
_0-0_0
  6
CONTINUOUS
 62
    7
 10
205.0561687881185
 20
177.375
 40
12.5
  0
CIRCLE
  8
_0-0_0
  6
CONTINUOUS
 62
    7
 10
205.0561687881185
 20
177.375
 40
5.4500000000000171
  0
CIRCLE
  8
_0-0_0
  6
CONTINUOUS
 62
    7
 10
205.0561687881185
 20
177.375
 40
2.4499999999999891
  0
LINE
  8
_0-0_0
  6
CONTINUOUS
 62
    7
 10
137.39804358279315
 20
164.875
 11
141.39804358279315
 21
164.875
  0
LINE
  8
_0-0_0
  6
CONTINUOUS
 62
    7
 10
141.39804358279315
 20
189.875
 11
137.39804358279315
 21
189.875
  0
ARC
  8
_0-0_0
  6
CONTINUOUS
 62
    7
 10
142.89804358279315
 20
168.875
 40
1.5
 50
90
 51
180
  0
ARC
  8
_0-0_0
  6
CONTINUOUS
 62
    7
 10
142.89804358279315
 20
185.875
 40
1.5
 50
180
 51
270
  0
LINE
  8
_0-0_0
  6
CONTINUOUS
 62
    7
 10
142.89804358279315
 20
170.375
 11
158.39804358279315
 21
170.375
  0
LINE
  8
_0-0_0
  6
CONTINUOUS
 62
    7
 10
150.15089860379317
 20
184.375
 11
142.89804358279315
 21
184.375
  0
LINE
  8
_0-0_0
  6
CONTINUOUS
 62
    7
 10
158.39804358279315
 20
184.375
 11
152.63262407239318
 21
184.375
  0
LINE
  8
_0-0_0
  6
CONTINUOUS
 62
    7
 10
137.39804358279315
 20
177.375
 11
137.39804358279315
 21
189.875
  0
LINE
  8
_0-0_0
  6
CONTINUOUS
 62
    7
 10
137.39804358279315
 20
164.875
 11
137.39804358279315
 21
177.375
  0
LINE
  8
_0-0_0
  6
CONTINUOUS
 62
    7
 10
141.39804358279315
 20
177.375
 11
141.39804358279315
 21
189.875
  0
LINE
  8
_0-0_0
  6
CONTINUOUS
 62
    7
 10
141.39804358279315
 20
164.875
 11
141.39804358279315
 21
177.375
  0
LINE
  8
_0-0_0
  6
CONTINUOUS
 62
    7
 10
158.39804358279315
 20
177.375
 11
158.39804358279315
 21
184.375
  0
LINE
  8
_0-0_0
  6
CONTINUOUS
 62
    7
 10
158.39804358279315
 20
170.375
 11
158.39804358279315
 21
177.375
  0
LINE
  8
_0-0_0
  6
CONTINUOUS
 62
    8
 10
142.89804358279315
 20
177.375
 11
142.89804358279315
 21
184.375
  0
LINE
  8
_0-0_0
  6
CONTINUOUS
 62
    8
 10
142.89804358279315
 20
170.375
 11
142.89804358279315
 21
177.375
  0
TEXT
  8
_0-0_0
 62
    7
 10
112.02559439000228
 20
273.35000000000002
 40
6
 41
1
 50
0
  1
DL14-5600-02-000
  0
LINE
  8
_0-3_
  6
CONTINUOUS
 62
    3
 10
137.39804358279315
 20
202.42288527117989
 11
158.39804358279315
 21
202.42288527117989
  0
POINT
  8
_0-3_
 62
    3
 10
137.39804358279315
 20
202.42288527117989
  0
POINT
  8
_0-3_
 62
    3
 10
158.39804358279315
 20
202.42288527117989
  0
LINE
  8
_0-3_
  6
CONTINUOUS
 62
    3
 10
137.39804358279315
 20
202.42288527117989
 11
137.39804358279315
 21
196.14321383032353
  0
LINE
  8
_0-3_
  6
CONTINUOUS
 62
    3
 10
158.39804358279315
 20
202.42288527117989
 11
158.39804358279315
 21
196.14321383032353
  0
LINE
  8
_0-3_
  6
CONTINUOUS
 62
    3
 10
125.24163212051121
 20
189.875
 11
125.24163212051121
 21
164.875
  0
POINT
  8
_0-3_
 62
    3
 10
125.24163212051121
 20
189.875
  0
LINE
  8
_0-3_
  6
CONTINUOUS
 62
    3
 10
125.24163212051121
 20
189.875
 11
130.37954511757553
 21
189.875
  0
POINT
  8
_0-3_
 62
    3
 10
125.24163212051121
 20
164.875
  0
LINE
  8
_0-3_
  6
CONTINUOUS
 62
    3
 10
125.24163212051121
 20
164.875
 11
130.37954511757553
 21
164.875
  0
LINE
  8
_0-3_
  6
CONTINUOUS
 62
    3
 10
170.25651595075786
 20
184.375
 11
164.17770942130932
 21
184.375
  0
POINT
  8
_0-3_
 62
    3
 10
170.25651595075786
 20
184.375
  0
LINE
  8
_0-3_
  6
CONTINUOUS
 62
    3
 10
170.25651595075786
 20
184.375
 11
170.25651595075786
 21
170.375
  0
LINE
  8
_0-3_
  6
CONTINUOUS
 62
    3
 10
170.25651595075786
 20
170.375
 11
164.17770942130932
 21
170.375
  0
POINT
  8
_0-3_
 62
    3
 10
170.25651595075786
 20
170.375
  0
LINE
  8
_0-3_
  6
CONTINUOUS
 62
    3
 10
308.03043105582293
 20
202.42288527117989
 11
333.02993723881275
 21
202.42288527117989
  0
POINT
  8
_0-3_
 62
    3
 10
308.03043105582293
 20
202.42288527117989
  0
LINE
  8
_0-3_
  6
CONTINUOUS
 62
    3
 10
308.03043105582293
 20
202.42288527117989
 11
308.03043105582293
 21
196.14321383032353
  0
POINT
  8
_0-3_
 62
    3
 10
333.02993723881275
 20
202.42288527117989
  0
LINE
  8
_0-3_
  6
CONTINUOUS
 62
    3
 10
333.02993723881275
 20
202.42288527117989
 11
333.02993723881275
 21
196.14321383032353
  0
TEXT
  8
_0-3_
 62
    3
 10
145.27304358279315
 20
202.92288527117989
 40
5
 41
1
 50
0
  1
21
  0
TEXT
  8
_0-3_
 62
    3
 10
124.74163212051121
 20
172.62962962962962
 40
5
 41
1
 50
90
  1
φ25
  0
TEXT
  8
_0-3_
 62
    3
 10
169.75651595075786
 20
174.75
 40
5
 41
1
 50
90
  1
14
  0
TEXT
  8
_0-3_
 62
    3
 10
317.90518414731787
 20
202.92288527117989
 40
5
 41
1
 50
0
  1
25
  0
ENDSEC
  0
EOF
