  0
SECTION
  2
HEADER
  9
$ACADVER
  1
AC1009
  9
$INSBASE
 10
0
 20
0
 30
0
  9
$EXTMIN
 10
0
 20
0
  9
$EXTMAX
 10
420
 20
297
  9
$LIMMIN
 10
0
 20
0
  9
$LIMMAX
 10
420
 20
297
  9
$LTSCALE
 40
1
  0
ENDSEC
  0
SECTION
  2
TABLES
  0
TABLE
  2
LTYPE
 70
     9
  0
LTYPE
  2
CONTINUOUS
 70
    64
  3
実線
 72
    65
 73
     0
 40
0.0
  0
LTYPE
  2
DASHED1
 70
    64
  3
--  --  --  --  --  --  --  --  
 72
    65
 73
     2
 40
2.5
 49
1.25
 49
-1.25
  0
LTYPE
  2
DASHED2
 70
    64
  3
----    ----    ----    ----    
 72
    65
 73
     2
 40
5.0
 49
2.5
 49
-2.5
  0
LTYPE
  2
DASHED3
 70
    64
  3
------  ------  ------  ------  
 72
    65
 73
     2
 40
5.0
 49
3.75
 49
-1.25
  0
LTYPE
  2
CENTER1
 70
    64
  3
----- - ----- - ----- - ----- - 
 72
    65
 73
     4
 40
10.0
 49
6.25
 49
-1.25
 49
1.25
 49
-1.25
  0
LTYPE
  2
CENTER2
 70
    64
  3
----------  --  ----------  --  
 72
    65
 73
     4
 40
20.0
 49
12.5
 49
-2.5
 49
2.5
 49
-2.5
  0
LTYPE
  2
PHANTOM1
 70
    64
  3
--- - - --- - - --- - - --- - - 
 72
    65
 73
     6
 40
10.0
 49
3.25
 49
-1.25
 49
1.25
 49
-1.25
 49
1.25
 49
-1.25
  0
LTYPE
  2
PHANTOM2
 70
    64
  3
--------  -  -  --------  -  -  
 72
    65
 73
     6
 40
20.0
 49
10.0
 49
-2.5
 49
1.25
 49
-2.5
 49
1.25
 49
-2.5
  0
LTYPE
  2
DOT
 70
    64
  3
-   -   -   -   -   -   -   -   
 72
    65
 73
     2
 40
2.5
 49
0.625
 49
-1.875
  0
LTYPE
  2
DUMMY
 70
    64
  3
ダミー
 72
    65
 73
     0
 40
0.0
  0
LTYPE
  2
RAND1
 70
    64
  3
ランダム線1
 72
    65
 73
     4
 40
10.0
 49
1.0
 49
-2.0
 49
3.0
 49
-4.0
  0
LTYPE
  2
RAND2
 70
    64
  3
ランダム線2
 72
    65
 73
     4
 40
14.0
 49
2.0
 49
-3.0
 49
4.0
 49
-5.0
  0
LTYPE
  2
RAND3
 70
    64
  3
ランダム線3
 72
    65
 73
     4
 40
18.0
 49
3.0
 49
-4.0
 49
5.0
 49
-6.0
  0
LTYPE
  2
RAND4
 70
    64
  3
ランダム線4
 72
    65
 73
     4
 40
22.0
 49
4.0
 49
-5.0
 49
6.0
 49
-7.0
  0
LTYPE
  2
RAND5
 70
    64
  3
ランダム線5
 72
    65
 73
     4
 40
26.0
 49
5.0
 49
-6.0
 49
7.0
 49
-8.0
  0
LTYPE
  2
LONG1
 70
    64
  3
----------  --  ----------  --  
 72
    65
 73
     4
 40
40.0
 49
32.5
 49
-2.5
 49
2.5
 49
-2.5
  0
LTYPE
  2
LONG2
 70
    64
  3
--------  -  -  --------  -  -  
 72
    65
 73
     6
 40
40.0
 49
30.0
 49
-2.5
 49
1.25
 49
-2.5
 49
1.25
 49
-2.5
  0
LTYPE
  2
LONG3
 70
    64
  3
+++++++++++++++..+++++++++++++++
 72
    65
 73
     2
 40
40.0
 49
37.5
 49
-2.5
  0
LTYPE
  2
LONG4
 70
    64
  3
+++++++++++++++..+++++++++++++++
 72
    65
 73
     2
 40
80.0
 49
75.0
 49
-5.0
  0
LTYPE
  2
LONG5
 70
    64
  3
----------  --  ----------  --  
 72
    65
 73
     4
 40
60.0
 49
37.5
 49
-7.5
 49
7.5
 49
-7.5
  0
LTYPE
  2
dashed
 70
   64
  3
-------   -------------   ------
 72
   65
 73
    2
 40
7.5
 49
6
 49
-1.5
  0
LTYPE
  2
dashed_spaced
 70
   64
  3
----        --------        ----
 72
   65
 73
    2
 40
12
 49
6
 49
-6
  0
LTYPE
  2
long_dashed_dotted
 70
   64
  3
------------- --- --------------
 72
   65
 73
    4
 40
15.25
 49
12
 49
-1.5
 49
0.25
 49
-1.5
  0
LTYPE
  2
long_dashed_double-dotted
 70
   64
  3
----------- --- --- ------------
 72
   65
 73
    6
 40
17
 49
12
 49
-1.5
 49
0.25
 49
-1.5
 49
0.25
 49
-1.5
  0
LTYPE
  2
long_dashed_triplicate-dotted
 70
   64
  3
--------- --- --- --- ----------
 72
   65
 73
    8
 40
18.75
 49
12
 49
-1.5
 49
0.25
 49
-1.5
 49
0.25
 49
-1.5
 49
0.25
 49
-1.5
  0
LTYPE
  2
dotted
 70
   64
  3
   -       -       -       -    
 72
   65
 73
    2
 40
1.75
 49
0.25
 49
-1.5
  0
LTYPE
  2
chain
 70
   64
  3
-------------- -- --------------
 72
   65
 73
    4
 40
18.5
 49
12
 49
-1.5
 49
3.5
 49
-1.5
  0
LTYPE
  2
chain_double_dash
 70
   64
  3
------------ -- -- -------------
 72
   65
 73
    6
 40
23.5
 49
12
 49
-1.5
 49
3.5
 49
-1.5
 49
3.5
 49
-1.5
  0
LTYPE
  2
dashed_dotted
 70
   64
  3
-----------     -     ----------
 72
   65
 73
    4
 40
9.25
 49
6
 49
-1.5
 49
0.25
 49
-1.5
  0
LTYPE
  2
double-dashed_dotted
 70
   64
  3
------   -----------   -   -----
 72
   65
 73
    6
 40
16.75
 49
6
 49
-1.5
 49
6
 49
-1.5
 49
0.25
 49
-1.5
  0
LTYPE
  2
dashed_double-dotted
 70
   64
  3
---------    -    -    ---------
 72
   65
 73
    6
 40
11
 49
6
 49
-1.5
 49
0.25
 49
-1.5
 49
0.25
 49
-1.5
  0
LTYPE
  2
double-dashed_double-dotted
 70
   64
  3
-----   ---------   -   -   ----
 72
   65
 73
    8
 40
18.5
 49
6
 49
-1.5
 49
6
 49
-1.5
 49
0.25
 49
-1.5
 49
0.25
 49
-1.5
  0
LTYPE
  2
dashed_triplicate-dotted
 70
   64
  3
-------    -    -    -    ------
 72
   65
 73
    8
 40
12.75
 49
6
 49
-1.5
 49
0.25
 49
-1.5
 49
0.25
 49
-1.5
 49
0.25
 49
-1.5
  0
LTYPE
  2
double-dashed_triplicate-dotted
 70
   64
  3
-----  ---------  -  -  -  -----
 72
   65
 73
   10
 40
20.25
 49
6
 49
-1.5
 49
6
 49
-1.5
 49
0.25
 49
-1.5
 49
0.25
 49
-1.5
 49
0.25
 49
-1.5
  0
LTYPE
  2
undefined
 70
   64
  3
--------------------------------
 72
   65
 73
    0
 40
0
  0
LTYPE
  2
HIDDEN
 70
   64
  3
------     -----------     -----
 72
   65
 73
    2
 40
1.905
 49
1.27
 49
-0.635
  0
LTYPE
  2
PHANTOM
 70
   64
  3
---------   ---   ---   --------
 72
   65
 73
    6
 40
12.699999999999998
 49
6.3499999999999996
 49
-1.27
 49
1.27
 49
-1.27
 49
1.27
 49
-1.27
  0
LTYPE
  2
DOT2
 70
   64
  3
-               -               
 72
   65
 73
    2
 40
0.645
 49
0.01
 49
-0.635
  0
ENDTAB
  0
TABLE
  2
STYLE
  5
3
100
AcDbSymbolTable
 70
     1
  0
STYLE
  5
10
100
AcDbSymbolTableRecord
100
AcDbTextStyleTableRecord
  2
STANDARD
 70
     0
 40
0.0
 41
1.0
 50
0.0
 71
     0
 42
0.2
  3
txt
  4
bigfont.shx
  0
STYLE
  5
26
100
AcDbSymbolTableRecord
100
AcDbTextStyleTableRecord
  2
TATEGAKI
 70
    68
 40
0.0
 41
1.0
 50
0.0
 71
     0
 42
1.0
  3
txt
  4
bigfont.shx
  0
ENDTAB
  0
TABLE
  2
LAYER
 70
    5
  0
LAYER
  2
_0-0_0
 70
   64
 62
    7
  6
CONTINUOUS
  0
LAYER
  2
_0-3_
 70
   64
 62
    7
  6
CONTINUOUS
  0
LAYER
  2
_0-a_
 70
   64
 62
    7
  6
CONTINUOUS
  0
LAYER
  2
_3-0_ADD_LINE
 70
   64
 62
    7
  6
CONTINUOUS
  0
LAYER
  2
ADD_LINE
 70
   64
 62
    7
  6
CONTINUOUS
  0
ENDTAB
  0
ENDSEC
  0
SECTION
  2
BLOCKS
  0
ENDSEC
  0
SECTION
  2
ENTITIES
  0
LINE
  8
_0-0_0
  6
CONTINUOUS
 62
    7
 10
105.1459966621
 20
112.4046297312
 11
105.1459966621
 21
139.9046314448
  0
LINE
  8
_0-0_0
  6
CONTINUOUS
 62
    7
 10
98.145997377399993
 20
139.9046314448
 11
98.145997377399993
 21
112.4046297312
  0
ARC
  8
_0-0_0
  6
CONTINUOUS
 62
    7
 10
108.146
 20
139.90463157889999
 40
3
 50
90
 51
180
  0
ARC
  8
_0-0_0
  6
CONTINUOUS
 62
    7
 10
108.146
 20
139.90463157889999
 40
9.9999999999999858
 50
90
 51
180
  0
CIRCLE
  8
_0-0_0
  6
CONTINUOUS
 62
    7
 10
101.646
 20
116.90463157889999
 40
0.805000000000005
  0
LINE
  8
_0-0_0
  6
CONTINUOUS
 62
    7
 10
102.63961389879999
 20
116.7917867691
 11
102.6383398495
 21
117.0281601638
  0
LINE
  8
_0-0_0
  6
CONTINUOUS
 62
    7
 10
102.6383398495
 20
117.0281601638
 11
102.63555333230001
 21
117.0488075853
  0
LINE
  8
_0-0_0
  6
CONTINUOUS
 62
    7
 10
101.35380760050001
 20
116.40668115920001
 11
101.9311381898
 21
116.4026075542
  0
LINE
  8
_0-0_0
  6
CONTINUOUS
 62
    7
 10
101.9381938896
 20
117.4025835037
 11
102.2233350596
 21
116.9005596578
  0
LINE
  8
_0-0_0
  6
CONTINUOUS
 62
    7
 10
101.0686664305
 20
116.9087050051
 11
101.3608558497
 21
117.406655246
  0
LINE
  8
_0-0_0
  6
CONTINUOUS
 62
    7
 10
101.9381938896
 20
117.4025835037
 11
101.3608558497
 21
117.406655246
  0
LINE
  8
_0-0_0
  6
CONTINUOUS
 62
    7
 10
101.0686664305
 20
116.9087050051
 11
101.35380760050001
 21
116.40668115920001
  0
LINE
  8
_0-0_0
  6
CONTINUOUS
 62
    7
 10
102.2233350596
 20
116.9005596578
 11
101.9311381898
 21
116.4026075542
  0
LINE
  8
_0-0_0
  6
CONTINUOUS
 62
    7
 10
101.64599701980001
 20
112.4046297312
 11
98.145997377399993
 21
112.4046297312
  0
LINE
  8
_0-0_0
  6
CONTINUOUS
 62
    7
 10
105.1459966621
 20
112.4046297312
 11
101.64599701980001
 21
112.4046297312
  0
LINE
  8
_0-0_0
  6
CONTINUOUS
 62
    7
 10
47.68021063430001
 20
117.89736724799999
 11
47.68021063430001
 21
139.9046314448
  0
LINE
  8
_0-0_0
  6
CONTINUOUS
 62
    7
 10
47.68021063430001
 20
112.4046297312
 11
47.68021063430001
 21
115.91613865799999
  0
LINE
  8
_0-0_0
  6
CONTINUOUS
 62
    7
 10
40.680210418299993
 20
139.9046314448
 11
40.680210418299993
 21
112.4046297312
  0
LINE
  8
_0-0_0
  6
CONTINUOUS
 62
    7
 10
40.680210418299993
 20
146.40463157889999
 11
40.680210418299993
 21
139.9046314448
  0
LINE
  8
_0-0_0
  6
CONTINUOUS
 62
    7
 10
47.68021063430001
 20
139.9046314448
 11
47.68021063430001
 21
146.40463157889999
  0
LINE
  8
_0-0_0
  6
CONTINUOUS
 62
    7
 10
47.534312433799983
 20
116.9046314001
 11
47.537838188199999
 21
116.8312953353
  0
LINE
  8
_0-0_0
  6
CONTINUOUS
 62
    7
 10
47.538962061700005
 20
117.0110871583
 11
47.534312433799983
 21
116.9046314001
  0
LINE
  8
_0-0_0
  6
CONTINUOUS
 62
    7
 10
47.68021063430001
 20
112.4046297312
 11
40.680210418299993
 21
112.4046297312
  0
ARC
  8
_0-0_0
  6
CONTINUOUS
 62
    7
 10
44.180210526300016
 20
146.40463157889999
 40
3.5000000000000071
 50
0
 51
180
  0
LINE
  8
_0-0_0
  6
CONTINUOUS
 62
    7
 10
108.1460027418
 20
201.2821053712
 11
101.64599701980001
 21
201.2821053712
  0
LINE
  8
_0-0_0
  6
CONTINUOUS
 62
    7
 10
101.64599701980001
 20
194.2821051551
 11
108.1460027418
 21
194.2821051551
  0
ARC
  8
_0-0_0
  6
CONTINUOUS
 62
    7
 10
101.646
 20
197.78210526320001
 40
3.500000000000028
 50
90
 51
270
  0
LINE
  8
_0-0_0
  6
CONTINUOUS
 62
    7
 10
100.6460024438
 20
56.285603550700003
 11
100.6460024438
 21
56.2309425989
  0
LINE
  8
_0-0_0
  6
CONTINUOUS
 62
    7
 10
102.64599904630001
 20
56.2309425989
 11
102.64599904630001
 21
56.285603550700003
  0
LINE
  8
_0-0_0
  6
CONTINUOUS
 62
    7
 10
101.64599701980001
 20
50.494315681399996
 11
108.1460027418
 21
50.494315681399996
  0
LINE
  8
_0-0_0
  6
CONTINUOUS
 62
    7
 10
108.1460027418
 20
57.494315897500002
 11
101.64599701980001
 21
57.494315897500002
  0
CIRCLE
  8
_0-0_0
  6
CONTINUOUS
 62
    7
 10
101.646
 20
53.994315789500007
 40
1.4249999999999969
  0
CIRCLE
  8
_0-0_0
  6
CONTINUOUS
 62
    7
 10
101.646
 20
53.994315789500007
 40
2.4500000000000028
  0
CIRCLE
  8
_0-0_0
  6
CONTINUOUS
 62
    7
 10
101.646
 20
53.994315789500007
 40
2.5000000000000071
  0
CIRCLE
  8
_0-0_0
  6
CONTINUOUS
 62
    7
 10
101.646
 20
53.994315789500007
 40
3.5000000000000071
  0
LINE
  8
_0-0_0
  6
CONTINUOUS
 62
    7
 10
98.145997377399993
 20
276.2504229004
 11
98.145997377399993
 21
248.75042118670001
  0
LINE
  8
_0-0_0
  6
CONTINUOUS
 62
    7
 10
105.1459966621
 20
248.75042118670001
 11
105.1459966621
 21
276.2504229004
  0
ARC
  8
_0-0_0
  6
CONTINUOUS
 62
    7
 10
108.146
 20
248.75042105259999
 40
3
 50
180
 51
270
  0
ARC
  8
_0-0_0
  6
CONTINUOUS
 62
    7
 10
108.146
 20
248.75042105259999
 40
9.9999999999999858
 50
180
 51
270
  0
LINE
  8
_0-0_0
  6
CONTINUOUS
 62
    7
 10
98.145997377399993
 20
276.2504229004
 11
105.1459966621
 21
276.2504229004
  0
LINE
  8
ADD_LINE
  6
DOT
 62
    9
 10
101.64599701975
 20
280.94568543723869
 11
101.64599701975
 21
267.23898674495149
  0
LINE
  8
_0-0_0
  6
CONTINUOUS
 62
    7
 10
330.14600262260001
 20
112.4046297312
 11
330.14600262260001
 21
139.9046314448
  0
LINE
  8
_0-0_0
  6
CONTINUOUS
 62
    7
 10
323.14600333789997
 20
139.9046314448
 11
323.14600333789997
 21
112.4046297312
  0
ARC
  8
_0-0_0
  6
CONTINUOUS
 62
    7
 10
320.14599999999996
 20
139.90463157889999
 40
3
 50
0
 51
90
  0
ARC
  8
_0-0_0
  6
CONTINUOUS
 62
    7
 10
320.14599999999996
 20
139.90463157889999
 40
10
 50
0
 51
90
  0
LINE
  8
_0-0_0
  6
CONTINUOUS
 62
    7
 10
108.1460027418
 20
142.9046314709
 11
320.1459972582
 21
142.9046314709
  0
LINE
  8
_0-0_0
  6
CONTINUOUS
 62
    7
 10
320.1459972582
 20
149.90463168700001
 11
108.1460027418
 21
149.90463168700001
  0
CIRCLE
  8
_0-0_0
  6
CONTINUOUS
 62
    7
 10
326.64599999999996
 20
116.90463157889999
 40
0.8049999999999978
  0
LINE
  8
_0-0_0
  6
CONTINUOUS
 62
    7
 10
327.64001473999997
 20
116.7953686357
 11
327.63769760939999
 21
117.0332172454
  0
LINE
  8
_0-0_0
  6
CONTINUOUS
 62
    7
 10
327.63769760939999
 20
117.0332172454
 11
327.61490628339999
 21
117.15206145649999
  0
LINE
  8
_0-0_0
  6
CONTINUOUS
 62
    7
 10
326.35634675840004
 20
116.4051984936
 11
326.93369224880001
 21
116.404067868
  0
LINE
  8
_0-0_0
  6
CONTINUOUS
 62
    7
 10
327.22334847069999
 20
116.9035007745
 11
326.93369224880001
 21
116.404067868
  0
LINE
  8
_0-0_0
  6
CONTINUOUS
 62
    7
 10
326.93565175150002
 20
117.40406616929999
 11
327.22334847069999
 21
116.9035007745
  0
LINE
  8
_0-0_0
  6
CONTINUOUS
 62
    7
 10
326.93565175150002
 20
117.40406616929999
 11
326.35830626109998
 21
117.4051949322
  0
LINE
  8
_0-0_0
  6
CONTINUOUS
 62
    7
 10
326.06865003920001
 20
116.9057620257
 11
326.35830626109998
 21
117.4051949322
  0
LINE
  8
_0-0_0
  6
CONTINUOUS
 62
    7
 10
326.06865003920001
 20
116.9057620257
 11
326.35634675840004
 21
116.4051984936
  0
LINE
  8
_0-0_0
  6
CONTINUOUS
 62
    7
 10
326.64600298020002
 20
112.4046297312
 11
330.14600262260001
 21
112.4046297312
  0
LINE
  8
_0-0_0
  6
CONTINUOUS
 62
    7
 10
323.14600333789997
 20
112.4046297312
 11
326.64600298020002
 21
112.4046297312
  0
LINE
  8
_0-0_0
  6
CONTINUOUS
 62
    7
 10
362.41284199720002
 20
146.40463157889999
 11
362.41284199720002
 21
139.9046314448
  0
LINE
  8
_0-0_0
  6
CONTINUOUS
 62
    7
 10
369.4128422133
 20
139.9046314448
 11
369.4128422133
 21
146.40463157889999
  0
LINE
  8
_0-0_0
  6
CONTINUOUS
 62
    7
 10
369.4128422133
 20
112.4046297312
 11
369.4128422133
 21
139.9046314448
  0
LINE
  8
_0-0_0
  6
CONTINUOUS
 62
    7
 10
362.41284199720002
 20
115.91613865799999
 11
362.41284199720002
 21
112.4046297312
  0
LINE
  8
_0-0_0
  6
CONTINUOUS
 62
    7
 10
362.41284199720002
 20
139.9046314448
 11
362.41284199720002
 21
117.89736724799999
  0
ARC
  8
_0-0_0
  6
CONTINUOUS
 62
    7
 10
365.9128421053
 20
146.40463157889999
 40
3.5000000000000568
 50
0
 51
180
  0
LINE
  8
_0-0_0
  6
CONTINUOUS
 62
    7
 10
362.41284199720002
 20
112.4046297312
 11
369.4128422133
 21
112.4046297312
  0
LINE
  8
_0-0_0
  6
CONTINUOUS
 62
    7
 10
362.55521444340002
 20
116.8312953353
 11
362.5540905698
 21
117.0110871583
  0
LINE
  8
_0-0_0
  6
CONTINUOUS
 62
    7
 10
108.1460027418
 20
194.2821051551
 11
320.1459972582
 21
194.2821051551
  0
LINE
  8
_0-0_0
  6
CONTINUOUS
 62
    7
 10
320.1459972582
 20
201.2821053712
 11
108.1460027418
 21
201.2821053712
  0
LINE
  8
_0-0_0
  6
CONTINUOUS
 62
    7
 10
320.1459972582
 20
194.2821051551
 11
326.64600298020002
 21
194.2821051551
  0
LINE
  8
_0-0_0
  6
CONTINUOUS
 62
    7
 10
326.64600298020002
 20
201.2821053712
 11
320.1459972582
 21
201.2821053712
  0
ARC
  8
_0-0_0
  6
CONTINUOUS
 62
    7
 10
326.64599999999996
 20
197.78210526320001
 40
3.500000000000028
 50
270
 51
90
  0
LINE
  8
_0-0_0
  6
CONTINUOUS
 62
    7
 10
325.64600095369997
 20
56.285603550700003
 11
325.64600095369997
 21
56.2309425989
  0
LINE
  8
_0-0_0
  6
CONTINUOUS
 62
    7
 10
327.64599755619997
 20
56.2309425989
 11
327.64599755619997
 21
56.285603550700003
  0
LINE
  8
_0-0_0
  6
CONTINUOUS
 62
    7
 10
326.64600298020002
 20
57.494315897500002
 11
320.1459972582
 21
57.494315897500002
  0
LINE
  8
_0-0_0
  6
CONTINUOUS
 62
    7
 10
320.1459972582
 20
50.494315681399996
 11
326.64600298020002
 21
50.494315681399996
  0
LINE
  8
_0-0_0
  6
CONTINUOUS
 62
    7
 10
108.1460027418
 20
50.494315681399996
 11
320.1459972582
 21
50.494315681399996
  0
LINE
  8
_0-0_0
  6
CONTINUOUS
 62
    7
 10
320.1459972582
 20
57.494315897500002
 11
108.1460027418
 21
57.494315897500002
  0
CIRCLE
  8
_0-0_0
  6
CONTINUOUS
 62
    7
 10
326.64599999999996
 20
53.994315789500007
 40
1.4250000000000109
  0
CIRCLE
  8
_0-0_0
  6
CONTINUOUS
 62
    7
 10
326.64599999999996
 20
53.994315789500007
 40
2.4500000000000171
  0
CIRCLE
  8
_0-0_0
  6
CONTINUOUS
 62
    7
 10
326.64599999999996
 20
53.994315789500007
 40
3.5000000000000071
  0
CIRCLE
  8
_0-0_0
  6
CONTINUOUS
 62
    7
 10
326.64599999999996
 20
53.994315789500007
 40
2.5000000000000071
  0
LINE
  8
_0-0_0
  6
CONTINUOUS
 62
    7
 10
323.14600333789997
 20
276.2504229004
 11
323.14600333789997
 21
248.75042118670001
  0
LINE
  8
_0-0_0
  6
CONTINUOUS
 62
    7
 10
330.14600262260001
 20
248.75042118670001
 11
330.14600262260001
 21
276.2504229004
  0
ARC
  8
_0-0_0
  6
CONTINUOUS
 62
    7
 10
320.14599999999996
 20
248.75042105259999
 40
3
 50
270
 51
0
  0
ARC
  8
_0-0_0
  6
CONTINUOUS
 62
    7
 10
320.14599999999996
 20
248.75042105259999
 40
10
 50
270
 51
0
  0
LINE
  8
_0-0_0
  6
CONTINUOUS
 62
    7
 10
108.1460027418
 20
238.75042094459999
 11
320.1459972582
 21
238.75042094459999
  0
LINE
  8
_0-0_0
  6
CONTINUOUS
 62
    7
 10
320.1459972582
 20
245.7504211607
 11
108.1460027418
 21
245.7504211607
  0
LINE
  8
_0-0_0
  6
CONTINUOUS
 62
    7
 10
330.14600262260001
 20
276.2504229004
 11
323.14600333789997
 21
276.2504229004
  0
LINE
  8
ADD_LINE
  6
DOT
 62
    9
 10
326.64600298024999
 20
279.16381460724131
 11
326.64600298024999
 21
269.56912552264032
  0
POINT
  8
_0-3_
 62
    3
 10
101.64599701975
 20
303.43421787407982
  0
LINE
  8
_0-3_
  6
CONTINUOUS
 62
    3
 10
101.64599701975
 20
303.43421787407982
 11
101.64599701975
 21
290.2225960860643
  0
LINE
  8
_0-3_
  6
CONTINUOUS
 62
    3
 10
101.64599701975
 20
303.43421787407982
 11
326.64600298024999
 21
303.43421787407982
  0
POINT
  8
_0-3_
 62
    3
 10
326.64600298024999
 20
303.43421787407982
  0
LINE
  8
_0-3_
  6
CONTINUOUS
 62
    3
 10
326.64600298024999
 20
303.43421787407982
 11
326.64600298024999
 21
290.2225960860643
  0
POINT
  8
_0-3_
 62
    3
 10
98.145997377399993
 20
222.60236596924068
  0
LINE
  8
_0-3_
  6
CONTINUOUS
 62
    3
 10
98.145997377399993
 20
222.60236596924068
 11
98.145997377399993
 21
207.49977337664808
  0
LINE
  8
_0-3_
  6
CONTINUOUS
 62
    3
 10
98.145997377399993
 20
222.60236596924068
 11
330.14600262260001
 21
222.60236596924068
  0
POINT
  8
_0-3_
 62
    3
 10
330.14600262260001
 20
222.60236596924068
  0
LINE
  8
_0-3_
  6
CONTINUOUS
 62
    3
 10
330.14600262260001
 20
222.60236596924068
 11
330.14600262260001
 21
207.49977337664808
  0
LINE
  8
_0-3_
  6
CONTINUOUS
 62
    3
 10
40.680210526300016
 20
159.53365962493342
 11
47.680210526300016
 21
159.53365962493342
  0
POINT
  8
_0-3_
 62
    3
 10
40.680210526300016
 20
159.53365962493342
  0
POINT
  8
_0-3_
 62
    3
 10
47.680210526300016
 20
159.53365962493342
  0
LINE
  8
_0-3_
  6
CONTINUOUS
 62
    3
 10
40.680210526300016
 20
159.53365962493342
 11
40.680210526300016
 21
154.3865740282256
  0
LINE
  8
_0-3_
  6
CONTINUOUS
 62
    3
 10
47.680210526300016
 20
159.53365962493342
 11
47.680210526300016
 21
154.3865740282256
  0
LINE
  8
_0-3_
  6
CONTINUOUS
 62
    3
 10
74.473443975252792
 20
112.4046297312
 11
74.473443975252792
 21
149.90463157889999
  0
POINT
  8
_0-3_
 62
    3
 10
74.473443975252792
 20
112.4046297312
  0
POINT
  8
_0-3_
 62
    3
 10
74.473443975252792
 20
149.90463157889999
  0
LINE
  8
_0-3_
  6
CONTINUOUS
 62
    3
 10
74.473443975252792
 20
112.4046297312
 11
85.045258790067578
 21
112.4046297312
  0
LINE
  8
_0-3_
  6
CONTINUOUS
 62
    3
 10
74.473443975252792
 20
149.90463157889999
 11
85.045258790067578
 21
149.90463157889999
  0
TEXT
  8
_0-3_
 62
    3
 10
208.71911192480724
 20
303.93421787407982
 40
5
 41
1
 50
0
  1
450
  0
TEXT
  8
_0-3_
 62
    3
 10
208.71911192480721
 20
223.10236596924068
 40
5
 41
1
 50
0
  1
464
  0
TEXT
  8
_0-3_
 62
    3
 10
39.136099928041972
 20
160.03365962493342
 40
5
 41
1
 50
0
  1
φ14
  0
TEXT
  8
_0-3_
 62
    3
 10
73.973443975252792
 20
128.52963065505
 40
5
 41
1
 50
90
  1
75
  0
TEXT
  8
_0-a_
 62
    3
 10
-22.739221408526134
 20
314.63642972569221
 40
5
 41
1
 50
0
  1
品番：DL14-7050-02-453
  0
ENDSEC
  0
EOF
