  0
SECTION
  2
HEADER
  9
$ACADVER
  1
AC1009
  9
$INSBASE
 10
0.0
 20
0.0
 30
0.0
  9
$EXTMIN
 10
-4.7006899999999989
 20
-21.070999999999991
 30
0.0
  9
$EXTMAX
 10
205.30099999999999
 20
275.93099999999993
 30
0.0
  9
$LIMMIN
 10
0.0
 20
0.0
  9
$LIMMAX
 10
12.0
 20
9.0
  9
$ORTHOMODE
 70
     0
  9
$REGENMODE
 70
     1
  9
$FILLMODE
 70
     1
  9
$QTEXTMODE
 70
     0
  9
$MIRRTEXT
 70
     1
  9
$DRAGMODE
 70
     2
  9
$LTSCALE
 40
1.0
  9
$OSMODE
 70
    37
  9
$ATTMODE
 70
     1
  9
$TEXTSIZE
 40
0.0
  9
$TRACEWID
 40
0.05
  9
$TEXTSTYLE
  7
STANDARD
  9
$CLAYER
  8
0
  9
$CELTYPE
  6
CONTINUOUS
  9
$CECOLOR
 62
   256
  9
$DIMSCALE
 40
1.0
  9
$DIMASZ
 40
0.18
  9
$DIMEXO
 40
0.0625
  9
$DIMDLI
 40
0.38
  9
$DIMRND
 40
0.0
  9
$DIMDLE
 40
0.0
  9
$DIMEXE
 40
0.18
  9
$DIMTP
 40
0.0
  9
$DIMTM
 40
0.0
  9
$DIMTXT
 40
0.18
  9
$DIMCEN
 40
0.09
  9
$DIMTSZ
 40
0.0
  9
$DIMTOL
 70
     0
  9
$DIMLIM
 70
     0
  9
$DIMTIH
 70
     1
  9
$DIMTOH
 70
     1
  9
$DIMSE1
 70
     0
  9
$DIMSE2
 70
     0
  9
$DIMTAD
 70
     0
  9
$DIMZIN
 70
     0
  9
$DIMBLK
  1

  9
$DIMASO
 70
     1
  9
$DIMSHO
 70
     1
  9
$DIMPOST
  1

  9
$DIMAPOST
  1

  9
$DIMALT
 70
     0
  9
$DIMALTD
 70
     2
  9
$DIMALTF
 40
25.399999999999999
  9
$DIMLFAC
 40
1.0
  9
$DIMTOFL
 70
     0
  9
$DIMTVP
 40
0.0
  9
$DIMTIX
 70
     0
  9
$DIMSOXD
 70
     0
  9
$DIMSAH
 70
     0
  9
$DIMBLK1
  1

  9
$DIMBLK2
  1

  9
$DIMSTYLE
  2
STANDARD
  9
$DIMCLRD
 70
     0
  9
$DIMCLRE
 70
     0
  9
$DIMCLRT
 70
     0
  9
$DIMTFAC
 40
1.0
  9
$DIMGAP
 40
0.09
  9
$LUNITS
 70
     2
  9
$LUPREC
 70
     4
  9
$SKETCHINC
 40
0.1
  9
$FILLETRAD
 40
0.0
  9
$AUNITS
 70
     0
  9
$AUPREC
 70
     0
  9
$MENU
  1
.
  9
$ELEVATION
 40
0.0
  9
$PELEVATION
 40
0.0
  9
$THICKNESS
 40
0.0
  9
$LIMCHECK
 70
     0
  9
$BLIPMODE
 70
     0
  9
$CHAMFERA
 40
0.0
  9
$CHAMFERB
 40
0.0
  9
$SKPOLY
 70
     0
  9
$TDCREATE
 40
2444972.375
  9
$TDUPDATE
 40
2453708.255535474
  9
$TDINDWG
 40
0.0000151157
  9
$TDUSRTIMER
 40
0.0000151157
  9
$USRTIMER
 70
     1
  9
$ANGBASE
 50
0.0
  9
$ANGDIR
 70
     0
  9
$PDMODE
 70
     0
  9
$PDSIZE
 40
0.0
  9
$PLINEWID
 40
0.0
  9
$COORDS
 70
     1
  9
$SPLFRAME
 70
     0
  9
$SPLINETYPE
 70
     6
  9
$SPLINESEGS
 70
     8
  9
$ATTDIA
 70
     0
  9
$ATTREQ
 70
     1
  9
$HANDLING
 70
     1
  9
$HANDSEED
  5
1E5
  9
$SURFTAB1
 70
     6
  9
$SURFTAB2
 70
     6
  9
$SURFTYPE
 70
     6
  9
$SURFU
 70
     6
  9
$SURFV
 70
     6
  9
$UCSNAME
  2

  9
$UCSORG
 10
0.0
 20
0.0
 30
0.0
  9
$UCSXDIR
 10
1.0
 20
0.0
 30
0.0
  9
$UCSYDIR
 10
0.0
 20
1.0
 30
0.0
  9
$PUCSNAME
  2

  9
$PUCSORG
 10
0.0
 20
0.0
 30
0.0
  9
$PUCSXDIR
 10
1.0
 20
0.0
 30
0.0
  9
$PUCSYDIR
 10
0.0
 20
1.0
 30
0.0
  9
$USERI1
 70
     0
  9
$USERI2
 70
     0
  9
$USERI3
 70
     0
  9
$USERI4
 70
     0
  9
$USERI5
 70
     0
  9
$USERR1
 40
0.0
  9
$USERR2
 40
0.0
  9
$USERR3
 40
0.0
  9
$USERR4
 40
0.0
  9
$USERR5
 40
0.0
  9
$WORLDVIEW
 70
     1
  9
$SHADEDGE
 70
     3
  9
$SHADEDIF
 70
    70
  9
$TILEMODE
 70
     1
  9
$MAXACTVP
 70
    48
  9
$PLIMCHECK
 70
     0
  9
$PEXTMIN
 10
1.0000000000000000E+020
 20
1.0000000000000000E+020
 30
1.0000000000000000E+020
  9
$PEXTMAX
 10
-1.0000000000000000E+020
 20
-1.0000000000000000E+020
 30
-1.0000000000000000E+020
  9
$PLIMMIN
 10
0.0
 20
0.0
  9
$PLIMMAX
 10
12.0
 20
9.0
  9
$UNITMODE
 70
     0
  9
$VISRETAIN
 70
     1
  9
$PLINEGEN
 70
     0
  9
$PSLTSCALE
 70
     1
  0
ENDSEC
  0
SECTION
  2
TABLES
  0
TABLE
  2
VPORT
 70
     2
  0
VPORT
  2
*ACTIVE
 70
     0
 10
0.0
 20
0.0
 11
1.0
 21
1.0
 12
189.5606512987321
 22
127.42999999999989
 13
0.0
 23
0.0
 14
1.0
 24
1.0
 15
0.0
 25
0.0
 16
0.0
 26
0.0
 36
1.0
 17
0.0
 27
0.0
 37
0.0
 40
299.24634760705283
 41
2.1842105263157889
 42
50.0
 43
0.0
 44
0.0
 50
0.0
 51
0.0
 71
     0
 72
   100
 73
     1
 74
     1
 75
     0
 76
     0
 77
     0
 78
     0
  0
ENDTAB
  0
TABLE
  2
LTYPE
 70
     2
  0
LTYPE
  2
CONTINUOUS
 70
     0
  3
Solid line
 72
    65
 73
     0
 40
0.0
  0
LTYPE
  2
AIGENLINE001
 70
     0
  3
generate AI->DXF Converter
 72
    65
 73
     4
 40
5.8561449999999988
 49
3.5278
 49
-0.776115
 49
0.776115
 49
-0.776115
  0
ENDTAB
  0
TABLE
  2
LAYER
 70
     2
  0
LAYER
  2
0
 70
     0
 62
     7
  6
CONTINUOUS
  0
LAYER
  2
_________2
 70
     0
 62
     7
  6
CONTINUOUS
  0
ENDTAB
  0
TABLE
  2
STYLE
 70
     1
  0
STYLE
  2
STANDARD
 70
     0
 40
0.0
 41
0.0
 50
0.0
 71
     0
 42
0.0
  3
TXT
  4
EXTFONT.SHX
  0
ENDTAB
  0
TABLE
  2
VIEW
 70
     0
  0
ENDTAB
  0
TABLE
  2
UCS
 70
     0
  0
ENDTAB
  0
TABLE
  2
APPID
 70
     1
  0
APPID
  2
ACAD
 70
     0
  0
ENDTAB
  0
TABLE
  2
DIMSTYLE
 70
     1
  0
DIMSTYLE
  2
STANDARD
 70
     0
  3

  4

  5

  6

  7

 40
1.0
 41
0.18
 42
0.0625
 43
0.38
 44
0.18
 45
0.0
 46
0.0
 47
0.0
 48
0.0
140
0.18
141
0.09
142
0.0
143
25.399999999999999
144
1.0
145
0.0
146
1.0
147
0.09
 71
     0
 72
     0
 73
     1
 74
     1
 75
     0
 76
     0
 77
     0
 78
     0
170
     0
171
     2
172
     0
173
     0
174
     0
175
     0
176
     0
177
     0
178
     0
  0
ENDTAB
  0
ENDSEC
  0
SECTION
  2
BLOCKS
  0
BLOCK
  8
0
  2
$MODEL_SPACE
 70
     0
 10
0.0
 20
0.0
 30
0.0
  3
$MODEL_SPACE
  1

  0
ENDBLK
  5
1A
  8
0
  0
BLOCK
 67
     1
  8
0
  2
$PAPER_SPACE
 70
     0
 10
0.0
 20
0.0
 30
0.0
  3
$PAPER_SPACE
  1

  0
ENDBLK
  5
17
 67
     1
  8
0
  0
ENDSEC
  0
SECTION
  2
ENTITIES
  0
TEXT
  5
22
  8
0
 62
     7
 10
146.59448935458909
 20
133.88423462002879
 30
0.0
 40
3.0923400000000001
  1
25
 50
65.001099999999994
 41
0.5
 72
     1
 11
147.13900000000001
 21
135.05199999999999
 31
0.0
  0
TEXT
  5
23
  8
0
 62
     7
 10
150.713618
 20
198.62299999999991
 30
0.0
 40
3.0923400000000001
  1
W 3/8
 41
0.5
 72
     2
 11
157.82599999999999
 21
198.62299999999991
 31
0.0
  0
TEXT
  5
24
  8
0
 62
     7
 10
135.834135
 20
116.471
 30
0.0
 40
3.0923400000000001
  1
25%%d
 41
0.5
 72
     1
 11
137.63800000000001
 21
116.471
 31
0.0
  0
TEXT
  5
25
  8
0
 62
     7
 10
149.851
 20
151.58922000000001
 30
0.0
 40
3.0923400000000001
  1
17
 50
90.0
 41
0.5
 72
     1
 11
149.851
 21
152.62
 31
0.0
  0
TEXT
  5
26
  8
0
 62
     7
 10
149.49799999999991
 20
158.54006749999999
 30
0.0
 40
3.0923400000000001
  1
10
 50
90.0
 41
0.5
 72
     1
 11
149.49799999999991
 21
159.44200000000001
 31
0.0
  0
TEXT
  5
27
  8
0
 62
     7
 10
105.6069404191302
 20
104.0100111580259
 30
0.0
 40
3.0923400000000001
  1
40
 50
65.001099999999994
 41
0.5
 72
     1
 11
106.09699999999999
 21
105.06100000000001
 31
0.0
  0
TEXT
  5
28
  8
0
 62
     7
 10
117.7544893545891
 20
130.38723462002881
 30
0.0
 40
3.0923400000000001
  1
77
 50
65.001099999999994
 41
0.5
 72
     1
 11
118.29899999999989
 21
131.55499999999989
 31
0.0
  0
TEXT
  5
29
  8
0
 62
     7
 10
140.49161000000001
 20
201.58399999999989
 30
0.0
 40
3.0923400000000001
  1
8
 41
0.5
 72
     1
 11
141.00700000000001
 21
201.58399999999989
 31
0.0
  0
TEXT
  5
2A
  8
0
 62
     7
 10
55.416739999999997
 20
201.78399999999999
 30
0.0
 40
3.0923400000000001
  1
16.5
 41
0.5
 72
     1
 11
57.478299999999997
 21
201.78399999999999
 31
0.0
  0
TEXT
  5
2B
  8
0
 62
     7
 10
74.465524999999985
 20
83.164100000000005
 30
0.0
 40
3.0923400000000001
  1
22
 41
0.5
 72
     1
 11
75.753999999999991
 21
83.164100000000005
 31
0.0
  0
TEXT
  5
2C
  8
0
 62
     7
 10
66.490467499999994
 20
83.164100000000005
 30
0.0
 40
3.0923400000000001
  1
10
 41
0.5
 72
     1
 11
67.392399999999995
 21
83.164100000000005
 31
0.0
  0
TEXT
  5
2D
  8
0
 62
     7
 10
60.111620000000002
 20
83.164100000000005
 30
0.0
 40
3.0923400000000001
  1
15
 41
0.5
 72
     1
 11
61.142400000000002
 21
83.164100000000005
 31
0.0
  0
TEXT
  5
2E
  8
0
 62
     7
 10
60.961300000000001
 20
162.70500000000001
 30
0.0
 40
3.0923400000000001
  1
%%c14
 50
45.0
 41
0.5
  0
LINE
  5
2F
  8
0
 62
     7
 10
158.29699999999991
 20
197.4959999999999
 30
0.0
 11
147.49399999999989
 21
197.4959999999999
 31
0.0
  0
LINE
  5
30
  8
0
 62
     7
 10
143.9139999999999
 20
193.77399999999989
 30
0.0
 11
143.0449999999999
 21
191.65700000000001
 31
0.0
  0
LINE
  5
31
  8
0
 62
     7
 10
143.0449999999999
 20
191.65700000000001
 30
0.0
 11
144.85599999999999
 21
193.0559999999999
 31
0.0
  0
LINE
  5
32
  8
0
 62
     7
 10
144.85599999999999
 20
193.0559999999999
 30
0.0
 11
143.9139999999999
 21
193.77399999999989
 31
0.0
  0
LINE
  5
33
  8
0
 62
     7
 10
143.0449999999999
 20
191.65700000000001
 30
0.0
 11
147.49399999999989
 21
197.4959999999999
 31
0.0
  0
LINE
  5
34
  8
0
 62
     7
 10
143.0449999999999
 20
201.16800000000001
 30
0.0
 11
143.0449999999999
 21
196.97300000000001
 31
0.0
  0
LINE
  5
35
  8
0
 62
     7
 10
139.0449999999999
 20
201.16800000000001
 30
0.0
 11
139.0449999999999
 21
196.97300000000001
 31
0.0
  0
LINE
  5
36
  8
0
 62
     7
 10
146.30199999999999
 20
200.79400000000001
 30
0.0
 11
135.636
 21
200.79400000000001
 31
0.0
  0
LINE
  5
37
  8
0
 62
     7
 10
136.83500000000001
 20
200.20899999999989
 30
0.0
 11
139.0449999999999
 21
200.80099999999999
 31
0.0
  0
LINE
  5
38
  8
0
 62
     7
 10
139.0449999999999
 20
200.80099999999999
 30
0.0
 11
136.83500000000001
 21
201.393
 31
0.0
  0
LINE
  5
39
  8
0
 62
     7
 10
136.83500000000001
 20
201.393
 30
0.0
 11
136.83500000000001
 21
200.20899999999989
 31
0.0
  0
LINE
  5
3A
  8
0
 62
     7
 10
145.255
 20
201.37899999999999
 30
0.0
 11
143.0449999999999
 21
200.78599999999989
 31
0.0
  0
LINE
  5
3B
  8
0
 62
     7
 10
143.0449999999999
 20
200.78599999999989
 30
0.0
 11
145.255
 21
200.19399999999999
 31
0.0
  0
LINE
  5
3C
  8
0
 62
     7
 10
145.255
 20
200.19399999999999
 30
0.0
 11
145.255
 21
201.37899999999999
 31
0.0
  0
LINE
  5
3D
  8
0
 62
     7
 10
59.488
 20
200.20899999999989
 30
0.0
 11
61.698599999999992
 21
200.80099999999999
 31
0.0
  0
LINE
  5
3E
  8
0
 62
     7
 10
61.698599999999992
 20
200.80099999999999
 30
0.0
 11
59.488
 21
201.393
 31
0.0
  0
LINE
  5
3F
  8
0
 62
     7
 10
59.488
 20
201.393
 30
0.0
 11
59.488
 21
200.20899999999989
 31
0.0
  0
LINE
  5
40
  8
0
 62
     7
 10
55.658999999999999
 20
201.37899999999999
 30
0.0
 11
53.448599999999999
 21
200.78599999999989
 31
0.0
  0
LINE
  5
41
  8
0
 62
     7
 10
53.448599999999999
 20
200.78599999999989
 30
0.0
 11
55.658999999999999
 21
200.19399999999999
 31
0.0
  0
LINE
  5
42
  8
0
 62
     7
 10
55.658999999999999
 20
200.19399999999999
 30
0.0
 11
55.658999999999999
 21
201.37899999999999
 31
0.0
  0
LINE
  5
43
  8
0
 62
     7
 10
61.698599999999992
 20
200.79400000000001
 30
0.0
 11
53.448599999999999
 21
200.79400000000001
 31
0.0
  0
LINE
  5
44
  8
0
 62
     7
 10
61.698599999999992
 20
201.16800000000001
 30
0.0
 11
61.698599999999992
 21
194.648
 31
0.0
  0
LINE
  5
45
  8
0
 62
     7
 10
53.448599999999999
 20
201.16800000000001
 30
0.0
 11
53.448599999999999
 21
194.648
 31
0.0
  0
LINE
  5
46
  8
0
  6
AIGENLINE001
 62
     7
 10
144.3539999999999
 20
191.65700000000001
 30
0.0
 11
137.6049999999999
 21
191.65700000000001
 31
0.0
  0
LINE
  5
47
  8
0
 62
     7
 10
143.0449999999999
 20
187.00700000000001
 30
0.0
 11
143.0449999999999
 21
196.30699999999999
 31
0.0
  0
LINE
  5
48
  8
0
 62
     7
 10
139.0449999999999
 20
187.00700000000001
 30
0.0
 11
139.0449999999999
 21
196.30699999999999
 31
0.0
  0
LINE
  5
49
  8
0
 62
     7
 10
139.0449999999999
 20
187.00700000000001
 30
0.0
 11
143.0449999999999
 21
187.00700000000001
 31
0.0
  0
LINE
  5
4A
  8
0
 62
     7
 10
139.0449999999999
 20
189.33199999999991
 30
0.0
 11
143.0449999999999
 21
189.33199999999991
 31
0.0
  0
LINE
  5
4B
  8
0
 62
     7
 10
139.0449999999999
 20
193.982
 30
0.0
 11
143.0449999999999
 21
193.982
 31
0.0
  0
LINE
  5
4C
  8
0
 62
     7
 10
139.0449999999999
 20
196.30699999999999
 30
0.0
 11
143.0449999999999
 21
196.30699999999999
 31
0.0
  0
LINE
  5
4D
  8
0
  6
AIGENLINE001
 62
     7
 10
63.118299999999998
 20
191.65700000000001
 30
0.0
 11
51.9803
 21
191.65700000000001
 31
0.0
  0
LINE
  5
4E
  8
0
  6
AIGENLINE001
 62
     7
 10
57.573399999999999
 20
185.58000000000001
 30
0.0
 11
57.573399999999999
 21
197.49199999999999
 31
0.0
  0
ARC
  5
4F
  8
0
 62
     7
 10
57.487266000000012
 20
191.57105799999999
 30
0.0
 40
2.3377500000000002
 50
2.1120580000000002
 51
87.887931999999978
  0
ARC
  5
50
  8
0
 62
     7
 10
57.66035200000001
 20
191.57028299999999
 30
0.0
 40
2.3385519999999991
 50
92.130308999999997
 51
177.86966100000001
  0
ARC
  5
51
  8
0
 62
     7
 10
57.573593999999993
 20
191.65704099999999
 30
0.0
 40
2.250178
 50
179.99558400000001
 51
269.99563399999988
  0
ARC
  5
52
  8
0
 62
     7
 10
57.573248999999997
 20
191.65704099999999
 30
0.0
 40
2.2501790000000002
 50
270.00440600000002
 51
0.004376
  0
ARC
  5
53
  8
0
 62
     7
 10
57.573420999999989
 20
191.6572129999999
 30
0.0
 40
2.8749509999999989
 50
0.00001
 51
89.999980000000008
  0
ARC
  5
54
  8
0
 62
     7
 10
57.573422000000001
 20
191.6572129999999
 30
0.0
 40
2.8749509999999989
 50
90.0
 51
179.99996999999991
  0
ARC
  5
55
  8
0
 62
     7
 10
57.573593000000002
 20
191.65704099999999
 30
0.0
 40
2.8751220000000002
 50
179.99653699999999
 51
269.99658699999998
  0
ARC
  5
56
  8
0
 62
     7
 10
57.573248999999997
 20
191.65704199999999
 30
0.0
 40
2.875122999999999
 50
270.00345299999992
 51
0.003423
  0
LINE
  5
57
  8
0
 62
     7
 10
57.573399999999999
 20
187.00700000000001
 30
0.0
 11
53.448599999999999
 21
189.33199999999991
 31
0.0
  0
LINE
  5
58
  8
0
 62
     7
 10
57.573399999999999
 20
187.00700000000001
 30
0.0
 11
61.698599999999992
 21
189.33199999999991
 31
0.0
  0
LINE
  5
59
  8
0
 62
     7
 10
57.573399999999999
 20
196.30699999999999
 30
0.0
 11
53.448599999999999
 21
193.982
 31
0.0
  0
LINE
  5
5A
  8
0
 62
     7
 10
57.573399999999999
 20
196.30699999999999
 30
0.0
 11
61.698599999999992
 21
193.982
 31
0.0
  0
LINE
  5
5B
  8
0
 62
     7
 10
61.698599999999992
 20
189.33199999999991
 30
0.0
 11
61.698599999999992
 21
193.982
 31
0.0
  0
LINE
  5
5C
  8
0
 62
     7
 10
53.448599999999999
 20
189.33199999999991
 30
0.0
 11
53.448599999999999
 21
193.982
 31
0.0
  0
LINE
  5
5D
  8
0
 62
     7
 10
140.846
 20
114.0479999999999
 30
0.0
 11
143.07900000000001
 21
114.547
 31
0.0
  0
LINE
  5
5E
  8
0
 62
     7
 10
143.07900000000001
 20
114.547
 30
0.0
 11
140.89500000000001
 21
115.23099999999999
 31
0.0
  0
LINE
  5
5F
  8
0
 62
     7
 10
140.89500000000001
 20
115.23099999999999
 30
0.0
 11
140.846
 21
114.0479999999999
 31
0.0
  0
LINE
  5
60
  8
0
 62
     7
 10
133.02600000000001
 20
116.89
 30
0.0
 11
130.762
 21
117.2239999999999
 31
0.0
  0
LINE
  5
61
  8
0
 62
     7
 10
130.762
 20
117.2239999999999
 30
0.0
 11
132.55500000000001
 21
115.80200000000001
 31
0.0
  0
LINE
  5
62
  8
0
 62
     7
 10
132.55500000000001
 20
115.80200000000001
 30
0.0
 11
133.02600000000001
 21
116.89
 31
0.0
  0
ARC
  5
63
  8
0
 62
     7
 10
143.45305400000001
 20
153.08934999999991
 30
0.0
 40
38.518807000000002
 50
260.92773999999991
 51
269.52738399999998
  0
ARC
  5
64
  8
0
 62
     7
 10
141.56163000000001
 20
139.51888500000001
 30
0.0
 40
24.821356999999999
 50
248.404607
 51
260.29979100000003
  0
ARC
  5
65
  8
0
 62
     7
 10
139.96219899999991
 20
134.94537500000001
 30
0.0
 40
19.981170999999989
 50
242.64384100000001
 51
247.84222799999989
  0
LINE
  5
66
  8
0
 62
     7
 10
137.233
 20
131.1999999999999
 30
0.0
 11
130.3129999999999
 21
116.3589999999999
 31
0.0
  0
LINE
  5
67
  8
0
 62
     7
 10
143.1039999999999
 20
143.56700000000001
 30
0.0
 11
143.1039999999999
 21
113.6689999999999
 31
0.0
  0
ARC
  5
68
  8
0
 62
     7
 10
64.50943199999999
 20
143.72510700000001
 30
0.0
 40
2.042505999999999
 50
30.564605
 51
38.417909000000002
  0
ARC
  5
69
  8
0
 62
     7
 10
65.010338000000004
 20
143.89996599999989
 30
0.0
 40
1.5258389999999991
 50
14.120374999999999
 51
34.478629999999988
  0
ARC
  5
6A
  8
0
 62
     7
 10
66.830364000000003
 20
142.99781100000001
 30
0.0
 40
3.428887
 50
144.3905189999999
 51
157.28059999999991
  0
ARC
  5
6B
  8
0
 62
     7
 10
63.970959999999998
 20
144.20451499999999
 30
0.0
 40
0.325418
 50
158.815956
 51
177.7858469999999
  0
LINE
  5
6C
  8
0
 62
     7
 10
65.073400000000007
 20
102.87899999999991
 30
0.0
 11
65.073400000000007
 21
81.124600000000001
 31
0.0
  0
LINE
  5
6D
  8
0
 62
     7
 10
57.573399999999999
 20
81.301000000000002
 30
0.0
 11
57.573399999999999
 21
128.98500000000001
 31
0.0
  0
LINE
  5
6E
  8
0
 62
     7
 10
60.017699999999998
 20
144.286
 30
0.0
 11
60.017699999999998
 21
135.7359999999999
 31
0.0
  0
LINE
  5
6F
  8
0
 62
     7
 10
60.017699999999998
 20
144.286
 30
0.0
 11
55.132899999999999
 21
144.286
 31
0.0
  0
LINE
  5
70
  8
0
 62
     7
 10
55.132899999999999
 20
144.286
 30
0.0
 11
55.132899999999999
 21
135.74100000000001
 31
0.0
  0
LINE
  5
71
  8
0
 62
     7
 10
53.9876
 20
152.703
 30
0.0
 11
55.131900000000002
 21
154.685
 31
0.0
  0
LINE
  5
72
  8
0
 62
     7
 10
55.131900000000002
 20
154.685
 30
0.0
 11
53.149900000000002
 21
153.54099999999991
 31
0.0
  0
LINE
  5
73
  8
0
 62
     7
 10
53.149900000000002
 20
153.54099999999991
 30
0.0
 11
53.9876
 21
152.703
 31
0.0
  0
LINE
  5
74
  8
0
 62
     7
 10
61.34879999999999
 20
161.71899999999991
 30
0.0
 11
60.204500000000003
 21
159.73699999999991
 31
0.0
  0
LINE
  5
75
  8
0
 62
     7
 10
60.204500000000003
 20
159.73699999999991
 30
0.0
 11
62.186399999999999
 21
160.881
 31
0.0
  0
LINE
  5
76
  8
0
 62
     7
 10
62.186399999999999
 20
160.881
 30
0.0
 11
61.34879999999999
 21
161.71899999999991
 31
0.0
  0
LINE
  5
77
  8
0
 62
     7
 10
67.265199999999993
 20
166.80799999999991
 30
0.0
 11
52.965899999999998
 21
152.5079999999999
 31
0.0
  0
LINE
  5
78
  8
0
 62
     7
 10
62.57419999999999
 20
157.11699999999999
 30
0.0
 11
62.57419999999999
 21
148.65000000000001
 31
0.0
  0
LINE
  5
79
  8
0
 62
     7
 10
52.57419999999999
 20
157.11699999999999
 30
0.0
 11
52.57419999999999
 21
148.65000000000001
 31
0.0
  0
ARC
  5
7A
  8
0
 62
     7
 10
57.471525999999997
 20
148.71020200000001
 30
0.0
 40
5.1030089999999992
 50
299.929104
 51
359.32507700000002
  0
ARC
  5
7B
  8
0
 62
     7
 10
57.677683999999999
 20
148.71073799999991
 30
0.0
 40
5.1038319999999988
 50
180.68085500000001
 51
240.09020000000001
  0
ARC
  5
7C
  8
0
 62
     7
 10
57.574109999999997
 20
157.11681100000001
 30
0.0
 40
5.0000720000000003
 50
0.00001
 51
89.999980000000008
  0
ARC
  5
7D
  8
0
 62
     7
 10
57.574198000000003
 20
157.11689699999991
 30
0.0
 40
4.9999859999999989
 50
90.000986999999981
 51
180.0009969999999
  0
ARC
  5
7E
  8
0
 62
     7
 10
57.574109999999997
 20
148.65009099999989
 30
0.0
 40
3.500067
 50
0.00001
 51
89.999980000000008
  0
ARC
  5
7F
  8
0
 62
     7
 10
57.574196999999991
 20
148.65017800000001
 30
0.0
 40
3.4999809999999991
 50
90.001410000000007
 51
180.00141999999991
  0
ARC
  5
80
  8
0
 62
     7
 10
57.574195999999993
 20
148.65000499999991
 30
0.0
 40
3.4999799999999999
 50
179.99856
 51
269.99860999999993
  0
ARC
  5
81
  8
0
 62
     7
 10
57.574109999999997
 20
148.650093
 30
0.0
 40
3.500067
 50
270.00002000000001
 51
359.99998999999991
  0
ARC
  5
82
  8
0
 62
     7
 10
57.574109999999997
 20
157.11681200000001
 30
0.0
 40
3.500067
 50
0.00001
 51
89.999980000000008
  0
ARC
  5
83
  8
0
 62
     7
 10
57.574196999999991
 20
157.11689799999991
 30
0.0
 40
3.4999809999999991
 50
90.001410000000007
 51
180.00141999999991
  0
ARC
  5
84
  8
0
 62
     7
 10
57.574195999999993
 20
157.116725
 30
0.0
 40
3.4999799999999999
 50
179.99856
 51
269.99860999999993
  0
ARC
  5
85
  8
0
 62
     7
 10
57.574109999999997
 20
157.11681299999989
 30
0.0
 40
3.500067
 50
270.00002000000001
 51
359.99998999999991
  0
LINE
  5
86
  8
0
  6
AIGENLINE001
 62
     7
 10
64.1464
 20
157.11699999999999
 30
0.0
 11
51.446300000000001
 21
157.11699999999999
 31
0.0
  0
LINE
  5
87
  8
0
  6
AIGENLINE001
 62
     7
 10
64.1464
 20
148.61699999999999
 30
0.0
 11
51.181699999999999
 21
148.61699999999999
 31
0.0
  0
ARC
  5
88
  8
0
 62
     7
 10
57.008203000000002
 20
145.04107500000001
 30
0.0
 40
10.53764299999999
 50
248.95907999999989
 51
261.63394299999999
  0
ARC
  5
89
  8
0
 62
     7
 10
57.64323199999999
 20
148.29272399999991
 30
0.0
 40
13.847954
 50
260.99193199999991
 51
269.81807599999991
  0
ARC
  5
8A
  8
0
 62
     7
 10
57.504272
 20
148.41005499999989
 30
0.0
 40
13.965540000000001
 50
270.39112899999992
 51
284.97533399999992
  0
ARC
  5
8B
  8
0
 62
     7
 10
58.472841000000003
 20
144.270025
 30
0.0
 40
9.7167619999999992
 50
285.76622500000002
 51
291.121307
  0
ARC
  5
8C
  8
0
 62
     7
 10
57.082644999999992
 20
142.88577900000001
 30
0.0
 40
7.4122969999999988
 50
247.018182
 51
262.284198
  0
ARC
  5
8D
  8
0
 62
     7
 10
57.636347000000001
 20
145.6821129999999
 30
0.0
 40
10.259116000000001
 50
261.31655099999989
 51
269.76786900000002
  0
ARC
  5
8E
  8
0
 62
     7
 10
57.504961999999999
 20
145.19070799999989
 30
0.0
 40
9.7678659999999997
 50
270.40157799999992
 51
290.83879999999999
  0
LINE
  5
8F
  8
0
 62
     7
 10
50.114100000000001
 20
131.49899999999991
 30
0.0
 11
63.654899999999998
 21
131.49899999999991
 31
0.0
  0
ARC
  5
90
  8
0
 62
     7
 10
50.020277999999998
 20
136.95096000000001
 30
0.0
 40
1.9175369999999989
 50
243.08190399999989
 51
272.18491
  0
ARC
  5
91
  8
0
 62
     7
 10
50.10774099999999
 20
137.2336139999999
 30
0.0
 40
2.1988449999999991
 50
269.625877
 51
293.79703699999999
  0
ARC
  5
92
  8
0
 62
     7
 10
49.190705000000001
 20
134.606402
 30
0.0
 40
0.5146460000000001
 50
180.2094139999999
 51
217.2076339999999
  0
ARC
  5
93
  8
0
 62
     7
 10
49.561624000000002
 20
134.87054599999991
 30
0.0
 40
0.969894
 50
216.38532599999991
 51
246.75169299999999
  0
ARC
  5
94
  8
0
 62
     7
 10
50.039972999999989
 20
135.795818
 30
0.0
 40
2.0102220000000002
 50
244.63385799999989
 51
271.52250600000002
  0
ARC
  5
95
  8
0
 62
     7
 10
50.092531999999991
 20
136.01970600000001
 30
0.0
 40
2.2334000000000001
 50
270.02183100000002
 51
295.99174199999999
  0
ARC
  5
96
  8
0
 62
     7
 10
50.610247999999999
 20
134.88528099999991
 30
0.0
 40
0.9873420000000001
 50
297.83741800000001
 51
327.938219
  0
ARC
  5
97
  8
0
 62
     7
 10
50.993759999999988
 20
134.609836
 30
0.0
 40
0.516972
 50
331.2485529999999
 51
359.410977
  0
ARC
  5
98
  8
0
 62
     7
 10
50.995910000000002
 20
134.6026389999999
 30
0.0
 40
0.514798
 50
0.209443
 51
37.197986
  0
ARC
  5
99
  8
0
 62
     7
 10
50.625070000000001
 20
134.33867100000001
 30
0.0
 40
0.9698779999999999
 50
36.374730999999997
 51
66.742141000000004
  0
ARC
  5
9A
  8
0
 62
     7
 10
50.146945000000002
 20
133.41451000000001
 30
0.0
 40
2.0091130000000001
 50
64.621409999999983
 51
91.527648999999997
  0
ARC
  5
9B
  8
0
 62
     7
 10
50.094237
 20
133.19053999999991
 30
0.0
 40
2.2323689999999989
 50
90.021902000000011
 51
116.00287299999999
  0
ARC
  5
9C
  8
0
 62
     7
 10
49.57685
 20
134.32355699999999
 30
0.0
 40
0.9877239999999998
 50
117.8432389999999
 51
147.93732900000001
  0
ARC
  5
9D
  8
0
 62
     7
 10
49.192987000000002
 20
134.5991929999999
 30
0.0
 40
0.5169520000000001
 50
151.24423100000001
 51
179.40938399999999
  0
LINE
  5
9E
  8
0
 62
     7
 10
51.767499999999998
 20
135.82899999999989
 30
0.0
 11
53.202599999999997
 21
135.20400000000001
 31
0.0
  0
LINE
  5
9F
  8
0
 62
     7
 10
51.738399999999999
 20
137.10299999999989
 30
0.0
 11
54.188899999999997
 21
136.06200000000001
 31
0.0
  0
ARC
  5
A0
  8
0
 62
     7
 10
57.082644999999992
 20
142.88577900000001
 30
0.0
 40
7.4122969999999988
 50
247.018182
 51
262.284198
  0
ARC
  5
A1
  8
0
 62
     7
 10
57.636347000000001
 20
145.6821129999999
 30
0.0
 40
10.259116000000001
 50
261.31655099999989
 51
269.76786900000002
  0
LINE
  5
A2
  8
0
 62
     7
 10
47.167599999999993
 20
135.52199999999999
 30
0.0
 11
47.167599999999993
 21
133.393
 31
0.0
  0
ARC
  5
A3
  8
0
 62
     7
 10
48.477311
 20
133.396727
 30
0.0
 40
1.309701
 50
180.18367000000001
 51
216.74869599999991
  0
ARC
  5
A4
  8
0
 62
     7
 10
49.070920000000001
 20
133.78570999999999
 30
0.0
 40
2.0185390000000001
 50
215.514422
 51
236.50531000000001
  0
ARC
  5
A5
  8
0
 62
     7
 10
49.807334999999988
 20
134.825627
 30
0.0
 40
3.2924089999999988
 50
235.80511299999989
 51
260.65208899999999
  0
ARC
  5
A6
  8
0
 62
     7
 10
50.105703999999989
 20
135.96618499999991
 30
0.0
 40
4.4676169999999988
 50
259.25217299999991
 51
270.10709500000002
  0
ARC
  5
A7
  8
0
 62
     7
 10
50.189295999999992
 20
133.44565499999999
 30
0.0
 40
3.9714839999999989
 50
67.036147
 51
91.085555000000014
  0
ARC
  5
A8
  8
0
 62
     7
 10
50.116233000000001
 20
133.14114299999989
 30
0.0
 40
4.2752840000000001
 50
90.029196999999996
 51
116.4389449999999
  0
ARC
  5
A9
  8
0
 62
     7
 10
49.325938000000001
 20
134.883725
 30
0.0
 40
2.364069999999999
 50
118.0929749999999
 51
146.306386
  0
ARC
  5
AA
  8
0
 62
     7
 10
48.521661999999999
 20
135.5008629999999
 30
0.0
 40
1.354214
 50
149.15477699999991
 51
179.09295099999991
  0
ARC
  5
AB
  8
0
 62
     7
 10
50.194240000000001
 20
132.2098409999999
 30
0.0
 40
3.9464869999999999
 50
66.502969999999991
 51
91.164229000000006
  0
ARC
  5
AC
  8
0
 62
     7
 10
50.116234000000013
 20
131.879673
 30
0.0
 40
4.2758409999999998
 50
90.029206000000016
 51
116.4352469999999
  0
ARC
  5
AD
  8
0
 62
     7
 10
49.325516
 20
133.623197
 30
0.0
 40
2.3635890000000002
 50
118.087593
 51
146.30542299999999
  0
ARC
  5
AE
  8
0
 62
     7
 10
48.521476
 20
134.24015299999991
 30
0.0
 40
1.354028
 50
149.1526419999999
 51
179.094122
  0
ARC
  5
AF
  8
0
 62
     7
 10
65.536833999999999
 20
144.61676299999991
 30
0.0
 40
0.687693
 50
34.022595000000003
 51
65.728254000000007
  0
ARC
  5
B0
  8
0
 62
     7
 10
65.123131999999998
 20
143.87205199999991
 30
0.0
 40
1.538273999999999
 50
63.082473
 51
91.741977999999989
  0
ARC
  5
B1
  8
0
 62
     7
 10
65.078205000000011
 20
143.71602499999989
 30
0.0
 40
1.6935899999999999
 50
90.062054000000003
 51
119.9355639999999
  0
ARC
  5
B2
  8
0
 62
     7
 10
64.613499000000004
 20
144.6068139999999
 30
0.0
 40
0.691011
 50
123.405143
 51
146.08111099999999
  0
ARC
  5
B3
  8
0
 62
     7
 10
65.977431999999993
 20
144.19384600000001
 30
0.0
 40
0.514712
 50
0.2094380000000001
 51
37.205148000000001
  0
ARC
  5
B4
  8
0
 62
     7
 10
65.606294999999989
 20
143.9295789999999
 30
0.0
 40
0.970209
 50
36.382264999999997
 51
66.741399999999999
  0
ARC
  5
B5
  8
0
 62
     7
 10
65.128295999999992
 20
143.00562099999991
 30
0.0
 40
2.0092059999999998
 50
64.622166000000007
 51
91.525118999999975
  0
ARC
  5
B6
  8
0
 62
     7
 10
65.075673999999992
 20
142.78174599999991
 30
0.0
 40
2.2323689999999989
 50
90.021902000000011
 51
116.00287299999999
  0
ARC
  5
B7
  8
0
 62
     7
 10
64.558286999999993
 20
143.91476299999991
 30
0.0
 40
0.9877239999999998
 50
117.8432389999999
 51
147.93732900000001
  0
ARC
  5
B8
  8
0
 62
     7
 10
64.174424000000002
 20
144.1903989999999
 30
0.0
 40
0.5169520000000001
 50
151.24423100000001
 51
179.40938399999999
  0
ARC
  5
B9
  8
0
 62
     7
 10
65.977431999999993
 20
134.60263999999989
 30
0.0
 40
0.514712
 50
0.2094380000000001
 51
37.205148000000001
  0
ARC
  5
BA
  8
0
 62
     7
 10
65.606294999999989
 20
134.33837199999999
 30
0.0
 40
0.970209
 50
36.382264999999997
 51
66.741399999999999
  0
ARC
  5
BB
  8
0
 62
     7
 10
65.128295999999992
 20
133.41441399999999
 30
0.0
 40
2.0092059999999998
 50
64.622166000000007
 51
91.525118999999975
  0
ARC
  5
BC
  8
0
 62
     7
 10
65.075673999999992
 20
133.19053999999991
 30
0.0
 40
2.2323689999999989
 50
90.021902000000011
 51
116.00287299999999
  0
ARC
  5
BD
  8
0
 62
     7
 10
64.558286999999993
 20
134.32355699999999
 30
0.0
 40
0.9877239999999998
 50
117.8432389999999
 51
147.93732900000001
  0
ARC
  5
BE
  8
0
 62
     7
 10
64.174424000000002
 20
134.5991929999999
 30
0.0
 40
0.5169520000000001
 50
151.24423100000001
 51
179.40938399999999
  0
LINE
  5
BF
  8
0
 62
     7
 10
63.430100000000003
 20
137.10299999999989
 30
0.0
 11
60.979599999999998
 21
136.06200000000001
 31
0.0
  0
ARC
  5
C0
  8
0
 62
     7
 10
57.504961999999999
 20
145.19070799999989
 30
0.0
 40
9.7678659999999997
 50
270.40157799999992
 51
290.83879999999999
  0
LINE
  5
C1
  8
0
 62
     7
 10
68.000799999999998
 20
135.52199999999999
 30
0.0
 11
68.000799999999998
 21
133.393
 31
0.0
  0
ARC
  5
C2
  8
0
 62
     7
 10
65.449280999999985
 20
134.64448300000001
 30
0.0
 40
3.0866630000000002
 50
289.74995200000001
 51
312.02221700000001
  0
ARC
  5
C3
  8
0
 62
     7
 10
66.399503999999993
 20
133.505201
 30
0.0
 40
1.605213
 50
314.04826200000002
 51
355.9750259999999
  0
ARC
  5
C4
  8
0
 62
     7
 10
66.690963999999994
 20
135.518102
 30
0.0
 40
1.3098000000000001
 50
0.183672
 51
36.747227000000002
  0
ARC
  5
C5
  8
0
 62
     7
 10
66.097468000000006
 20
135.12934199999989
 30
0.0
 40
2.0184189999999989
 50
35.510216
 51
56.502899999999997
  0
ARC
  5
C6
  8
0
 62
     7
 10
65.361140000000006
 20
134.09003299999989
 30
0.0
 40
3.2917369999999999
 50
55.79889399999999
 51
80.650183999999996
  0
ARC
  5
C7
  8
0
 62
     7
 10
65.062795999999992
 20
132.95030899999989
 30
0.0
 40
4.466124999999999
 50
79.248878000000005
 51
90.106494999999995
  0
ARC
  5
C8
  8
0
 62
     7
 10
65.056551999999996
 20
133.04571299999989
 30
0.0
 40
4.3707129999999994
 50
90.026967999999997
 51
111.85128999999991
  0
ARC
  5
C9
  8
0
 62
     7
 10
66.691063999999997
 20
134.257362
 30
0.0
 40
1.309701
 50
0.18365
 51
36.748676000000003
  0
ARC
  5
CA
  8
0
 62
     7
 10
66.097577999999999
 20
133.86854099999991
 30
0.0
 40
2.0183450000000001
 50
35.512675999999999
 51
56.505268000000008
  0
ARC
  5
CB
  8
0
 62
     7
 10
65.361056000000005
 20
132.828541
 30
0.0
 40
3.2923429999999998
 50
55.804299
 51
80.650440999999987
  0
ARC
  5
CC
  8
0
 62
     7
 10
65.062831000000003
 20
131.68857099999991
 30
0.0
 40
4.4669489999999987
 50
79.251350000000002
 51
90.106931000000003
  0
ARC
  5
CD
  8
0
 62
     7
 10
65.056419999999989
 20
131.793859
 30
0.0
 40
4.3616539999999988
 50
90.025299000000004
 51
112.307463
  0
LINE
  5
CE
  8
0
 62
     7
 10
66.179299999999998
 20
137.273
 30
0.0
 11
66.179299999999998
 21
144.702
 31
0.0
  0
LINE
  5
CF
  8
0
 62
     7
 10
63.9679
 20
137.2829999999999
 30
0.0
 11
63.9679
 21
144.70799999999991
 31
0.0
  0
LINE
  5
D0
  8
0
 62
     7
 10
66.492099999999994
 20
137.17500000000001
 30
0.0
 11
66.492099999999994
 21
144.19499999999999
 31
0.0
  0
LINE
  5
D1
  8
0
 62
     7
 10
66.492099999999994
 20
111.28100000000001
 30
0.0
 11
66.492099999999994
 21
134.6049999999999
 31
0.0
  0
LINE
  5
D2
  8
0
 62
     7
 10
63.654699999999998
 20
137.18899999999999
 30
0.0
 11
63.654699999999998
 21
144.21700000000001
 31
0.0
  0
LINE
  5
D3
  8
0
 62
     7
 10
63.654699999999998
 20
111.28100000000001
 30
0.0
 11
63.654699999999998
 21
134.66999999999999
 31
0.0
  0
LINE
  5
D4
  8
0
  6
AIGENLINE001
 62
     7
 10
111.7199999999999
 20
90.634799999999998
 30
0.0
 11
137.57099999999991
 21
146.0739999999999
 31
0.0
  0
LINE
  5
D5
  8
0
 62
     7
 10
138.0439999999999
 20
144.4729999999999
 30
0.0
 11
136.03999999999999
 21
145.40700000000001
 31
0.0
  0
LINE
  5
D6
  8
0
 62
     7
 10
133.911
 20
135.60900000000001
 30
0.0
 11
138.0439999999999
 21
144.4729999999999
 31
0.0
  0
LINE
  5
D7
  8
0
 62
     7
 10
131.90700000000001
 20
136.5439999999999
 30
0.0
 11
136.03999999999999
 21
145.40700000000001
 31
0.0
  0
LINE
  5
D8
  8
0
 62
     7
 10
138.15100000000001
 20
143.96100000000001
 30
0.0
 11
138.0439999999999
 21
144.4729999999999
 31
0.0
  0
LINE
  5
D9
  8
0
 62
     7
 10
136.03999999999999
 20
145.40700000000001
 30
0.0
 11
135.57900000000001
 21
145.16
 31
0.0
  0
LINE
  5
DA
  8
0
 62
     7
 10
138.15100000000001
 20
143.96100000000001
 30
0.0
 11
135.57900000000001
 21
145.16
 31
0.0
  0
LINE
  5
DB
  8
0
 62
     7
 10
134.19499999999991
 20
135.477
 30
0.0
 11
138.15100000000001
 21
143.96100000000001
 31
0.0
  0
LINE
  5
DC
  8
0
 62
     7
 10
131.62299999999999
 20
136.67599999999999
 30
0.0
 11
135.57900000000001
 21
145.16
 31
0.0
  0
LINE
  5
DD
  8
0
 62
     7
 10
70.573599999999999
 20
111.28100000000001
 30
0.0
 11
63.600099999999991
 21
111.28100000000001
 31
0.0
  0
LINE
  5
DE
  8
0
 62
     7
 10
61.850200000000001
 20
109.121
 30
0.0
 11
61.850200000000001
 21
110.271
 31
0.0
  0
ARC
  5
DF
  8
0
 62
     7
 10
63.601469000000002
 20
108.474383
 30
0.0
 40
2.8070389999999992
 50
90.027169999999984
 51
113.392808
  0
ARC
  5
E0
  8
0
 62
     7
 10
63.082962000000002
 20
109.75941999999991
 30
0.0
 40
1.4221760000000001
 50
114.77534299999991
 51
139.29955200000001
  0
ARC
  5
E1
  8
0
 62
     7
 10
62.551797999999998
 20
110.246833
 30
0.0
 40
0.702023
 50
141.18914099999989
 51
178.02972600000001
  0
LINE
  5
E2
  8
0
 62
     7
 10
69.698499999999996
 20
110.131
 30
0.0
 11
63.600099999999991
 21
110.131
 31
0.0
  0
LINE
  5
E3
  8
0
 62
     7
 10
61.850200000000001
 20
108.8959999999999
 30
0.0
 11
61.850200000000001
 21
109.121
 31
0.0
  0
ARC
  5
E4
  8
0
 62
     7
 10
63.601472999999999
 20
107.322822
 30
0.0
 40
2.808619999999999
 50
90.027229000000005
 51
113.378935
  0
ARC
  5
E5
  8
0
 62
     7
 10
63.082501999999998
 20
108.60980600000001
 30
0.0
 40
1.4217779999999991
 50
114.76231799999989
 51
139.289751
  0
ARC
  5
E6
  8
0
 62
     7
 10
62.551575999999997
 20
109.0972229999999
 30
0.0
 40
0.7018
 50
141.18281399999989
 51
178.03120899999999
  0
LINE
  5
E7
  8
0
 62
     7
 10
70.073700000000002
 20
108.20999999999999
 30
0.0
 11
68.353899999999996
 21
108.20999999999999
 31
0.0
  0
LINE
  5
E8
  8
0
 62
     7
 10
70.073700000000002
 20
109.91500000000001
 30
0.0
 11
70.073700000000002
 21
96.801199999999994
 31
0.0
  0
ARC
  5
E9
  8
0
 62
     7
 10
69.938333999999983
 20
109.91434700000001
 30
0.0
 40
0.135353
 50
0.313781
 51
33.728504000000001
  0
ARC
  5
EA
  8
0
 62
     7
 10
69.844724999999997
 20
109.848783
 30
0.0
 40
0.249624
 50
34.313951000000003
 51
62.357129999999998
  0
ARC
  5
EB
  8
0
 62
     7
 10
69.712816000000004
 20
109.6036449999999
 30
0.0
 40
0.52799
 50
62.01873599999999
 51
91.552436
  0
LINE
  5
EC
  8
0
 62
     7
 10
71.573700000000002
 20
96.801199999999994
 30
0.0
 11
71.573700000000002
 21
110.70399999999999
 31
0.0
  0
ARC
  5
ED
  8
0
 62
     7
 10
71.198898
 20
110.7015939999999
 30
0.0
 40
0.374799
 50
0.3708270000000001
 51
43.732888000000003
  0
ARC
  5
EE
  8
0
 62
     7
 10
70.942920000000001
 20
110.49545000000001
 30
0.0
 40
0.7028270000000001
 50
41.449454000000003
 51
58.922376000000007
  0
ARC
  5
EF
  8
0
 62
     7
 10
70.630460999999997
 20
109.9593049999999
 30
0.0
 40
1.3233399999999991
 50
59.318368999999997
 51
92.463864000000001
  0
ARC
  5
F0
  8
0
 62
     7
 10
65.245535000000004
 20
109.93299399999999
 30
0.0
 40
3.3127870000000001
 50
277.48407099999991
 51
291.59442200000001
  0
ARC
  5
F1
  8
0
 62
     7
 10
64.786043000000006
 20
109.3808749999999
 30
0.0
 40
2.7452669999999988
 50
247.26370600000001
 51
262.83587599999993
  0
ARC
  5
F2
  8
0
 62
     7
 10
64.266393000000008
 20
106.7193899999999
 30
0.0
 40
1.3931480000000001
 50
112.867088
 51
136.97798599999999
  0
ARC
  5
F3
  8
0
 62
     7
 10
66.321006000000011
 20
107.2025639999999
 30
0.0
 40
0.770407
 50
40.171230000000001
 51
52.911287999999999
  0
ARC
  5
F4
  8
0
 62
     7
 10
65.942181000000005
 20
106.706988
 30
0.0
 40
1.3941840000000001
 50
52.774337000000003
 51
68.37554200000001
  0
LINE
  5
F5
  8
0
 62
     7
 10
65.683700000000002
 20
107.1809999999999
 30
0.0
 11
66.909899999999993
 21
107.699
 31
0.0
  0
LINE
  5
F6
  8
0
 62
     7
 10
64.443700000000007
 20
106.657
 30
0.0
 11
65.048599999999993
 21
106.9129999999999
 31
0.0
  0
LINE
  5
F7
  8
0
 62
     7
 10
65.048599999999993
 20
106.9129999999999
 30
0.0
 11
65.676999999999992
 21
106.6479999999999
 31
0.0
  0
LINE
  5
F8
  8
0
 62
     7
 10
63.247900000000001
 20
107.6699999999999
 30
0.0
 11
64.460899999999995
 21
107.1599999999999
 31
0.0
  0
LINE
  5
F9
  8
0
 62
     7
 10
65.096199999999996
 20
107.4279999999999
 30
0.0
 11
66.456000000000003
 21
108.0029999999999
 31
0.0
  0
LINE
  5
FA
  8
0
 62
     7
 10
63.724899999999991
 20
106.8489999999999
 30
0.0
 11
64.460899999999995
 21
107.1599999999999
 31
0.0
  0
LINE
  5
FB
  8
0
 62
     7
 10
67.409199999999998
 20
106.4559999999999
 30
0.0
 11
67.460899999999995
 21
106.434
 31
0.0
  0
LINE
  5
FC
  8
0
 62
     7
 10
65.675299999999993
 20
107.1839999999999
 30
0.0
 11
66.4649
 21
106.85299999999989
 31
0.0
  0
LINE
  5
FD
  8
0
 62
     7
 10
63.727400000000003
 20
108.00399999999991
 30
0.0
 11
65.096199999999996
 21
107.4279999999999
 31
0.0
  0
LINE
  5
FE
  8
0
 62
     7
 10
67.397900000000007
 20
109.724
 30
0.0
 11
67.397900000000007
 21
108.401
 31
0.0
  0
LINE
  5
FF
  8
0
 62
     7
 10
65.891999999999996
 20
110.0859999999999
 30
0.0
 11
65.891999999999996
 21
108.76299999999991
 31
0.0
  0
LINE
  5
100
  8
0
 62
     7
 10
64.194199999999995
 20
110.075
 30
0.0
 11
64.194199999999995
 21
108.752
 31
0.0
  0
LINE
  5
101
  8
0
 62
     7
 10
62.783099999999997
 20
109.724
 30
0.0
 11
62.783099999999997
 21
108.401
 31
0.0
  0
LINE
  5
102
  8
0
 62
     7
 10
61.827500000000001
 20
108.749
 30
0.0
 11
61.827500000000001
 21
107.4259999999999
 31
0.0
  0
LINE
  5
103
  8
0
 62
     7
 10
68.353899999999996
 20
108.749
 30
0.0
 11
68.353899999999996
 21
107.4259999999999
 31
0.0
  0
ARC
  5
104
  8
0
 62
     7
 10
67.718040000000002
 20
108.747034
 30
0.0
 40
0.635846
 50
0.169635
 51
33.026790999999989
  0
ARC
  5
105
  8
0
 62
     7
 10
67.36171800000001
 20
108.540634
 30
0.0
 40
1.047299999999999
 50
31.869176
 51
46.567568000000001
  0
ARC
  5
106
  8
0
 62
     7
 10
66.909101000000007
 20
108.0664049999999
 30
0.0
 40
1.7028540000000001
 50
46.478334999999987
 51
57.726624000000008
  0
ARC
  5
107
  8
0
 62
     7
 10
66.162431999999995
 20
106.8670679999999
 30
0.0
 40
3.1156090000000001
 50
57.893624999999993
 51
74.793175000000005
  0
ARC
  5
108
  8
0
 62
     7
 10
65.202359999999999
 20
103.8172
 30
0.0
 40
6.3117849999999986
 50
73.645127000000002
 51
91.013943000000026
  0
ARC
  5
109
  8
0
 62
     7
 10
65.089130999999995
 20
102.954549
 30
0.0
 40
7.1734479999999987
 50
89.987717000000004
 51
104.722105
  0
ARC
  5
10A
  8
0
 62
     7
 10
64.239532999999994
 20
106.367637
 30
0.0
 40
3.6567879999999988
 50
105.43765500000001
 51
120.875978
  0
ARC
  5
10B
  8
0
 62
     7
 10
63.132651000000003
 20
108.265615
 30
0.0
 40
1.4599569999999991
 50
121.81761299999999
 51
145.45017899999999
  0
ARC
  5
10C
  8
0
 62
     7
 10
62.506232999999987
 20
108.734253
 30
0.0
 40
0.6789390000000001
 50
148.04437799999991
 51
178.76244299999991
  0
ARC
  5
10D
  8
0
 62
     7
 10
62.463353000000012
 20
107.427874
 30
0.0
 40
0.6359040000000001
 50
180.16969499999999
 51
213.02348399999991
  0
ARC
  5
10E
  8
0
 62
     7
 10
62.819701999999992
 20
107.6342949999999
 30
0.0
 40
1.0473920000000001
 50
211.867456
 51
226.56397699999991
  0
ARC
  5
10F
  8
0
 62
     7
 10
63.272348000000001
 20
108.10861
 30
0.0
 40
1.7030289999999999
 50
226.47744800000001
 51
237.72414599999999
  0
ARC
  5
110
  8
0
 62
     7
 10
64.018668999999989
 20
109.30734199999991
 30
0.0
 40
3.1150869999999991
 50
237.89177100000001
 51
254.79371800000001
  0
ARC
  5
111
  8
0
 62
     7
 10
64.978859999999997
 20
112.35733999999989
 30
0.0
 40
6.31142
 50
253.64460299999999
 51
271.01506899999993
  0
ARC
  5
112
  8
0
 62
     7
 10
65.092200000000005
 20
113.219803
 30
0.0
 40
7.1728929999999993
 50
269.98776499999991
 51
284.72269699999998
  0
ARC
  5
113
  8
0
 62
     7
 10
65.941622999999993
 20
109.80767
 30
0.0
 40
3.6572010000000001
 50
285.43757499999992
 51
300.87461500000001
  0
ARC
  5
114
  8
0
 62
     7
 10
67.048651000000007
 20
107.9093749999999
 30
0.0
 40
1.460021999999999
 50
301.81555900000001
 51
325.44800199999992
  0
ARC
  5
115
  8
0
 62
     7
 10
67.675147999999993
 20
107.440659
 30
0.0
 40
0.6788930000000001
 50
328.04156099999989
 51
358.76201200000003
  0
ARC
  5
116
  8
0
 62
     7
 10
67.718040000000002
 20
107.424109
 30
0.0
 40
0.635846
 50
0.169635
 51
33.026790999999989
  0
ARC
  5
117
  8
0
 62
     7
 10
67.36171800000001
 20
107.217709
 30
0.0
 40
1.047299999999999
 50
31.869176
 51
46.567568000000001
  0
ARC
  5
118
  8
0
 62
     7
 10
66.909101000000007
 20
106.74348000000001
 30
0.0
 40
1.7028540000000001
 50
46.478334999999987
 51
57.726624000000008
  0
ARC
  5
119
  8
0
 62
     7
 10
66.162431999999995
 20
105.54414299999991
 30
0.0
 40
3.1156090000000001
 50
57.893624999999993
 51
74.793175000000005
  0
ARC
  5
11A
  8
0
 62
     7
 10
65.202359999999999
 20
102.494275
 30
0.0
 40
6.3117849999999986
 50
73.645127000000002
 51
91.013943000000026
  0
ARC
  5
11B
  8
0
 62
     7
 10
65.089130999999995
 20
101.631624
 30
0.0
 40
7.1734479999999987
 50
89.987717000000004
 51
104.722105
  0
ARC
  5
11C
  8
0
 62
     7
 10
64.239532999999994
 20
105.044712
 30
0.0
 40
3.6567879999999988
 50
105.43765500000001
 51
120.875978
  0
ARC
  5
11D
  8
0
 62
     7
 10
63.132651000000003
 20
106.9426899999999
 30
0.0
 40
1.4599569999999991
 50
121.81761299999999
 51
145.45017899999999
  0
ARC
  5
11E
  8
0
 62
     7
 10
62.506232999999987
 20
107.4113279999999
 30
0.0
 40
0.6789390000000001
 50
148.04437799999991
 51
178.76244299999991
  0
LINE
  5
11F
  8
0
 62
     7
 10
62.938499999999991
 20
81.686099999999996
 30
0.0
 11
65.149100000000004
 21
82.278400000000005
 31
0.0
  0
LINE
  5
120
  8
0
 62
     7
 10
65.149100000000004
 20
82.278400000000005
 30
0.0
 11
62.938499999999991
 21
82.870599999999996
 31
0.0
  0
LINE
  5
121
  8
0
 62
     7
 10
62.938499999999991
 20
82.870599999999996
 30
0.0
 11
62.938499999999991
 21
81.686099999999996
 31
0.0
  0
LINE
  5
122
  8
0
 62
     7
 10
78.901799999999994
 20
81.686099999999996
 30
0.0
 11
81.112399999999994
 21
82.278400000000005
 31
0.0
  0
LINE
  5
123
  8
0
 62
     7
 10
81.112399999999994
 20
82.278400000000005
 30
0.0
 11
78.901799999999994
 21
82.870599999999996
 31
0.0
  0
LINE
  5
124
  8
0
 62
     7
 10
78.901799999999994
 20
82.870599999999996
 30
0.0
 11
78.901799999999994
 21
81.686099999999996
 31
0.0
  0
LINE
  5
125
  8
0
 62
     7
 10
72.213399999999993
 20
82.856099999999998
 30
0.0
 11
70.002899999999997
 21
82.263900000000007
 31
0.0
  0
LINE
  5
126
  8
0
 62
     7
 10
70.002899999999997
 20
82.263900000000007
 30
0.0
 11
72.213399999999993
 21
81.671300000000002
 31
0.0
  0
LINE
  5
127
  8
0
 62
     7
 10
72.213399999999993
 20
81.671300000000002
 30
0.0
 11
72.213399999999993
 21
82.856099999999998
 31
0.0
  0
LINE
  5
128
  8
0
 62
     7
 10
59.777999999999999
 20
82.856099999999998
 30
0.0
 11
57.567399999999999
 21
82.263900000000007
 31
0.0
  0
LINE
  5
129
  8
0
 62
     7
 10
57.567399999999999
 20
82.263900000000007
 30
0.0
 11
59.777999999999999
 21
81.671300000000002
 31
0.0
  0
LINE
  5
12A
  8
0
 62
     7
 10
59.777999999999999
 20
81.671300000000002
 30
0.0
 11
59.777999999999999
 21
82.856099999999998
 31
0.0
  0
LINE
  5
12B
  8
0
 62
     7
 10
81.079800000000006
 20
82.271100000000004
 30
0.0
 11
57.560299999999991
 21
82.271100000000004
 31
0.0
  0
LINE
  5
12C
  8
0
  6
AIGENLINE001
 62
     7
 10
65.073400000000007
 20
103.87899999999991
 30
0.0
 11
65.073400000000007
 21
147.58000000000001
 31
0.0
  0
LINE
  5
12D
  8
0
 62
     7
 10
71.573499999999996
 20
97.940200000000004
 30
0.0
 11
70.073499999999996
 21
97.940200000000004
 31
0.0
  0
LINE
  5
12E
  8
0
 62
     7
 10
71.573499999999996
 20
100.88200000000001
 30
0.0
 11
70.073700000000002
 21
100.88200000000001
 31
0.0
  0
LINE
  5
12F
  8
0
 62
     7
 10
70.073499999999996
 20
81.565600000000003
 30
0.0
 11
70.073499999999996
 21
94.496099999999984
 31
0.0
  0
ARC
  5
130
  8
0
 62
     7
 10
75.573728000000003
 20
96.801163000000017
 30
0.0
 40
4.0000390000000001
 50
179.99873700000001
 51
269.99878599999988
  0
ARC
  5
131
  8
0
 62
     7
 10
75.573556000000011
 20
96.801164000000014
 30
0.0
 40
4.0000400000000003
 50
270.00125400000002
 51
0.001224
  0
LINE
  5
132
  8
0
 62
     7
 10
81.073599999999985
 20
97.053799999999995
 30
0.0
 11
79.573599999999999
 21
97.053799999999995
 31
0.0
  0
LINE
  5
133
  8
0
 62
     7
 10
79.573599999999999
 20
96.801199999999994
 30
0.0
 11
79.573599999999999
 21
97.053799999999995
 31
0.0
  0
ARC
  5
134
  8
0
 62
     7
 10
75.573556000000011
 20
96.801334999999995
 30
0.0
 40
5.4998699999999987
 50
180.00090700000001
 51
270.00091700000002
  0
ARC
  5
135
  8
0
 62
     7
 10
75.573728000000003
 20
96.801335999999992
 30
0.0
 40
5.499871999999999
 50
269.999123
 51
359.99909300000002
  0
LINE
  5
136
  8
0
 62
     7
 10
81.073599999999985
 20
94.584299999999985
 30
0.0
 11
81.073599999999985
 21
81.565600000000003
 31
0.0
  0
LINE
  5
137
  8
0
 62
     7
 10
81.073599999999985
 20
97.053799999999995
 30
0.0
 11
81.073599999999985
 21
96.801199999999994
 31
0.0
  0
LINE
  5
138
  8
0
 62
     7
 10
151.35599999999999
 20
143.61600000000001
 30
0.0
 11
143.374
 21
143.61600000000001
 31
0.0
  0
LINE
  5
139
  8
0
 62
     7
 10
145.6879999999999
 20
131.023
 30
0.0
 11
145.28999999999991
 21
128.77000000000001
 31
0.0
  0
LINE
  5
13A
  8
0
 62
     7
 10
145.28999999999991
 20
128.77000000000001
 30
0.0
 11
146.76199999999989
 21
130.52299999999991
 31
0.0
  0
LINE
  5
13B
  8
0
 62
     7
 10
146.76199999999989
 20
130.52299999999991
 30
0.0
 11
145.6879999999999
 21
131.023
 31
0.0
  0
LINE
  5
13C
  8
0
 62
     7
 10
150.16200000000001
 20
137.8899999999999
 30
0.0
 11
150.56
 21
140.14299999999989
 31
0.0
  0
LINE
  5
13D
  8
0
 62
     7
 10
150.56
 20
140.14299999999989
 30
0.0
 11
149.089
 21
138.3899999999999
 31
0.0
  0
LINE
  5
13E
  8
0
 62
     7
 10
149.089
 20
138.3899999999999
 30
0.0
 11
150.16200000000001
 21
137.8899999999999
 31
0.0
  0
LINE
  5
13F
  8
0
 62
     7
 10
145.31100000000001
 20
128.81499999999991
 30
0.0
 11
150.56499999999991
 21
140.102
 31
0.0
  0
LINE
  5
140
  8
0
 62
     7
 10
146.06999999999991
 20
128.459
 30
0.0
 11
137.762
 21
132.28699999999989
 31
0.0
  0
LINE
  5
141
  8
0
 62
     7
 10
137.762
 20
132.28699999999989
 30
0.0
 11
129.45500000000001
 21
136.16099999999989
 31
0.0
  0
LINE
  5
142
  8
0
 62
     7
 10
151.24899999999991
 20
139.83600000000001
 30
0.0
 11
143.52999999999989
 21
143.3899999999999
 31
0.0
  0
LINE
  5
143
  8
0
 62
     7
 10
141.608
 20
162.11699999999999
 30
0.0
 11
141.608
 21
144.286
 31
0.0
  0
LINE
  5
144
  8
0
 62
     7
 10
143.0449999999999
 20
145.11600000000001
 30
0.0
 11
143.0449999999999
 21
143.61600000000001
 31
0.0
  0
LINE
  5
145
  8
0
 62
     7
 10
137.762
 20
132.28699999999989
 30
0.0
 11
143.0449999999999
 21
143.61600000000001
 31
0.0
  0
LINE
  5
146
  8
0
 62
     7
 10
138.0439999999999
 20
144.4729999999999
 30
0.0
 11
136.03999999999999
 21
145.40700000000001
 31
0.0
  0
LINE
  5
147
  8
0
 62
     7
 10
135.047
 20
145.88099999999989
 30
0.0
 11
127.14
 21
149.65199999999999
 31
0.0
  0
LINE
  5
148
  8
0
 62
     7
 10
133.911
 20
135.60900000000001
 30
0.0
 11
138.0439999999999
 21
144.4729999999999
 31
0.0
  0
LINE
  5
149
  8
0
 62
     7
 10
131.90700000000001
 20
136.5439999999999
 30
0.0
 11
136.03999999999999
 21
145.40700000000001
 31
0.0
  0
LINE
  5
14A
  8
0
 62
     7
 10
111.77500000000001
 20
116.67
 30
0.0
 11
111.377
 21
114.416
 31
0.0
  0
LINE
  5
14B
  8
0
 62
     7
 10
111.377
 20
114.416
 30
0.0
 11
112.8479999999999
 21
116.1689999999999
 31
0.0
  0
LINE
  5
14C
  8
0
 62
     7
 10
112.8479999999999
 20
116.1689999999999
 30
0.0
 11
111.77500000000001
 21
116.67
 31
0.0
  0
LINE
  5
14D
  8
0
 62
     7
 10
103.30799999999989
 20
98.677800000000005
 30
0.0
 11
102.9099999999999
 21
96.424000000000007
 31
0.0
  0
LINE
  5
14E
  8
0
 62
     7
 10
102.9099999999999
 20
96.424000000000007
 30
0.0
 11
104.38199999999991
 21
98.176900000000003
 31
0.0
  0
LINE
  5
14F
  8
0
 62
     7
 10
104.38199999999991
 20
98.176900000000003
 30
0.0
 11
103.30799999999989
 21
98.677800000000005
 31
0.0
  0
LINE
  5
150
  8
0
 62
     7
 10
110.87599999999991
 20
112.1169999999999
 30
0.0
 11
111.2729999999999
 21
114.37
 31
0.0
  0
LINE
  5
151
  8
0
 62
     7
 10
111.2729999999999
 20
114.37
 30
0.0
 11
109.80199999999989
 21
112.617
 31
0.0
  0
LINE
  5
152
  8
0
 62
     7
 10
109.80199999999989
 20
112.617
 30
0.0
 11
110.87599999999991
 21
112.1169999999999
 31
0.0
  0
LINE
  5
153
  8
0
 62
     7
 10
127.2799999999999
 20
147.13
 30
0.0
 11
127.67700000000001
 21
149.3839999999999
 31
0.0
  0
LINE
  5
154
  8
0
 62
     7
 10
127.67700000000001
 20
149.3839999999999
 30
0.0
 11
126.2059999999999
 21
147.63099999999989
 31
0.0
  0
LINE
  5
155
  8
0
 62
     7
 10
126.2059999999999
 20
147.63099999999989
 30
0.0
 11
127.2799999999999
 21
147.13
 31
0.0
  0
LINE
  5
156
  8
0
 62
     7
 10
102.9099999999999
 20
96.346800000000016
 30
0.0
 11
111.355
 21
114.4379999999999
 31
0.0
  0
LINE
  5
157
  8
0
 62
     7
 10
111.355
 20
114.4379999999999
 30
0.0
 11
127.702
 21
149.41999999999999
 31
0.0
  0
LINE
  5
158
  8
0
 62
     7
 10
142.62999999999991
 20
153.61699999999999
 30
0.0
 11
143.0449999999999
 21
153.61699999999999
 31
0.0
  0
LINE
  5
159
  8
0
 62
     7
 10
142.62999999999991
 20
160.61699999999999
 30
0.0
 11
143.0449999999999
 21
160.61699999999999
 31
0.0
  0
LINE
  5
15A
  8
0
 62
     7
 10
143.0449999999999
 20
152.11699999999999
 30
0.0
 11
142.62999999999991
 21
152.11699999999999
 31
0.0
  0
LINE
  5
15B
  8
0
 62
     7
 10
143.0449999999999
 20
145.11699999999999
 30
0.0
 11
142.62999999999991
 21
145.11699999999999
 31
0.0
  0
LINE
  5
15C
  8
0
 62
     7
 10
141.608
 20
153.61699999999999
 30
0.0
 11
142.16499999999991
 21
153.61699999999999
 31
0.0
  0
LINE
  5
15D
  8
0
 62
     7
 10
141.608
 20
162.11699999999999
 30
0.0
 11
143.0449999999999
 21
162.11699999999999
 31
0.0
  0
LINE
  5
15E
  8
0
 62
     7
 10
143.0449999999999
 20
162.11699999999999
 30
0.0
 11
151.268
 21
162.11699999999999
 31
0.0
  0
LINE
  5
15F
  8
0
 62
     7
 10
141.608
 20
160.61699999999999
 30
0.0
 11
142.16499999999991
 21
160.61699999999999
 31
0.0
  0
LINE
  5
160
  8
0
 62
     7
 10
150.34999999999999
 20
150.67400000000001
 30
0.0
 11
150.94200000000001
 21
148.46299999999991
 31
0.0
  0
LINE
  5
161
  8
0
 62
     7
 10
150.94200000000001
 20
148.46299999999991
 30
0.0
 11
151.53499999999991
 21
150.67400000000001
 31
0.0
  0
LINE
  5
162
  8
0
 62
     7
 10
151.53499999999991
 20
150.67400000000001
 30
0.0
 11
150.34999999999999
 21
150.67400000000001
 31
0.0
  0
LINE
  5
163
  8
0
 62
     7
 10
150.34999999999999
 20
164.34399999999999
 30
0.0
 11
150.94200000000001
 21
162.1329999999999
 31
0.0
  0
LINE
  5
164
  8
0
 62
     7
 10
150.94200000000001
 20
162.1329999999999
 30
0.0
 11
151.53499999999991
 21
164.34399999999999
 31
0.0
  0
LINE
  5
165
  8
0
 62
     7
 10
151.53499999999991
 20
164.34399999999999
 30
0.0
 11
150.34999999999999
 21
164.34399999999999
 31
0.0
  0
LINE
  5
166
  8
0
 62
     7
 10
151.56100000000001
 20
154.92799999999991
 30
0.0
 11
150.96899999999991
 21
157.13900000000001
 31
0.0
  0
LINE
  5
167
  8
0
 62
     7
 10
150.96899999999991
 20
157.13900000000001
 30
0.0
 11
150.37700000000001
 21
154.92799999999991
 31
0.0
  0
LINE
  5
168
  8
0
 62
     7
 10
150.37700000000001
 20
154.92799999999991
 30
0.0
 11
151.56100000000001
 21
154.92799999999991
 31
0.0
  0
LINE
  5
169
  8
0
 62
     7
 10
151.52000000000001
 20
141.42799999999991
 30
0.0
 11
150.92799999999991
 21
143.63900000000001
 31
0.0
  0
LINE
  5
16A
  8
0
 62
     7
 10
150.92799999999991
 20
143.63900000000001
 30
0.0
 11
150.33500000000001
 21
141.42799999999991
 31
0.0
  0
LINE
  5
16B
  8
0
 62
     7
 10
150.33500000000001
 20
141.42799999999991
 30
0.0
 11
151.52000000000001
 21
141.42799999999991
 31
0.0
  0
LINE
  5
16C
  8
0
 62
     7
 10
150.93499999999989
 20
140.833
 30
0.0
 11
150.93499999999989
 21
166.233
 31
0.0
  0
LINE
  5
16D
  8
0
  6
AIGENLINE001
 62
     7
 10
151.40000000000001
 20
157.11699999999999
 30
0.0
 11
139.179
 21
157.11699999999999
 31
0.0
  0
LINE
  5
16E
  8
0
 62
     7
 10
142.16499999999991
 20
152.11699999999999
 30
0.0
 11
141.608
 21
152.11699999999999
 31
0.0
  0
LINE
  5
16F
  8
0
  6
AIGENLINE001
 62
     7
 10
140.02699999999999
 20
148.61699999999999
 30
0.0
 11
151.40000000000001
 21
148.61699999999999
 31
0.0
  0
LINE
  5
170
  8
0
 62
     7
 10
142.16499999999991
 20
145.11699999999999
 30
0.0
 11
141.608
 21
145.11699999999999
 31
0.0
  0
LINE
  5
171
  8
0
 62
     7
 10
143.0449999999999
 20
162.11699999999999
 30
0.0
 11
143.0449999999999
 21
145.11600000000001
 31
0.0
  0
LINE
  5
172
  8
0
 62
     7
 10
138.15100000000001
 20
143.96100000000001
 30
0.0
 11
138.0439999999999
 21
144.4729999999999
 31
0.0
  0
LINE
  5
173
  8
0
 62
     7
 10
136.03999999999999
 20
145.40700000000001
 30
0.0
 11
135.57900000000001
 21
145.16
 31
0.0
  0
LINE
  5
174
  8
0
 62
     7
 10
138.15100000000001
 20
143.96100000000001
 30
0.0
 11
135.57900000000001
 21
145.16
 31
0.0
  0
LINE
  5
175
  8
0
 62
     7
 10
136.90999999999991
 20
134.21100000000001
 30
0.0
 11
141.608
 21
144.286
 31
0.0
  0
LINE
  5
176
  8
0
 62
     7
 10
138.34700000000001
 20
133.54099999999991
 30
0.0
 11
130.03999999999999
 21
137.41499999999991
 31
0.0
  0
LINE
  5
177
  8
0
 62
     7
 10
130.03999999999999
 20
137.41499999999991
 30
0.0
 11
129.45500000000001
 21
136.16099999999989
 31
0.0
  0
ARC
  5
178
  8
0
 62
     7
 10
114.07309100000001
 20
95.659943999999996
 30
0.0
 40
1.4196429999999991
 50
335.03559200000001
 51
0.011414
  0
ARC
  5
179
  8
0
 62
     7
 10
114.01949499999991
 20
95.605688000000001
 30
0.0
 40
1.474246999999999
 50
2.1200890000000001
 51
87.879901000000004
  0
ARC
  5
17A
  8
0
 62
     7
 10
114.095406
 20
95.626867000000004
 30
0.0
 40
1.4522170000000001
 50
90.843234999999993
 51
154.16664900000001
  0
LINE
  5
17B
  8
0
 62
     7
 10
122.1489999999999
 20
106.0899999999999
 30
0.0
 11
122.60299999999989
 21
105.8779999999999
 31
0.0
  0
LINE
  5
17C
  8
0
 62
     7
 10
116.401
 20
108.7699999999999
 30
0.0
 11
116.8549999999999
 21
108.559
 31
0.0
  0
LINE
  5
17D
  8
0
 62
     7
 10
116.401
 20
108.7699999999999
 30
0.0
 11
117.036
 21
110.131
 31
0.0
  0
LINE
  5
17E
  8
0
 62
     7
 10
122.60299999999989
 20
105.8779999999999
 30
0.0
 11
123.238
 21
107.23999999999999
 31
0.0
  0
LINE
  5
17F
  8
0
 62
     7
 10
116.13200000000001
 20
96.741000000000014
 30
0.0
 11
118.569
 21
98.412899999999993
 31
0.0
  0
LINE
  5
180
  8
0
 62
     7
 10
134.19499999999991
 20
135.477
 30
0.0
 11
138.15100000000001
 21
143.96100000000001
 31
0.0
  0
LINE
  5
181
  8
0
 62
     7
 10
122.057
 20
109.44799999999989
 30
0.0
 11
133.61000000000001
 21
134.2229999999999
 31
0.0
  0
LINE
  5
182
  8
0
 62
     7
 10
111.0329999999999
 20
92.520300000000006
 30
0.0
 11
113.56100000000001
 21
97.940200000000004
 31
0.0
  0
LINE
  5
183
  8
0
 62
     7
 10
113.56100000000001
 20
97.940200000000004
 30
0.0
 11
113.27500000000001
 21
100.88200000000001
 31
0.0
  0
LINE
  5
184
  8
0
 62
     7
 10
131.62299999999999
 20
136.67599999999999
 30
0.0
 11
135.57900000000001
 21
145.16
 31
0.0
  0
LINE
  5
185
  8
0
 62
     7
 10
119.486
 20
110.64700000000001
 30
0.0
 11
131.0389999999999
 21
135.42199999999991
 31
0.0
  0
LINE
  5
186
  8
0
 62
     7
 10
113.605
 20
91.321100000000001
 30
0.0
 11
116.13200000000001
 21
96.741000000000014
 31
0.0
  0
LINE
  5
187
  8
0
 62
     7
 10
122.78400000000001
 20
107.45099999999999
 30
0.0
 11
123.23699999999999
 21
107.23999999999999
 31
0.0
  0
LINE
  5
188
  8
0
 62
     7
 10
117.036
 20
110.131
 30
0.0
 11
117.48999999999999
 21
109.9199999999999
 31
0.0
  0
LINE
  5
189
  8
0
 62
     7
 10
110.824
 20
114.639
 30
0.0
 11
117.595
 21
111.52800000000001
 31
0.0
  0
LINE
  5
18A
  8
0
 62
     7
 10
118.124
 20
111.28100000000001
 30
0.0
 11
123.4189999999999
 21
108.8129999999999
 31
0.0
  0
LINE
  5
18B
  8
0
 62
     7
 10
118.569
 20
98.412899999999993
 30
0.0
 11
123.4189999999999
 21
108.8129999999999
 31
0.0
  0
LINE
  5
18C
  8
0
 62
     7
 10
113.27500000000001
 20
100.88200000000001
 30
0.0
 11
118.124
 21
111.28100000000001
 31
0.0
  0
LINE
  5
18D
  8
0
 62
     7
 10
109.899
 20
93.049499999999995
 30
0.0
 11
102.486
 21
96.505700000000004
 31
0.0
  0
LINE
  5
18E
  8
0
 62
     7
 10
113.605
 20
91.321100000000001
 30
0.0
 11
111.0329999999999
 21
92.520300000000006
 31
0.0
  0
LINE
  5
18F
  8
0
 62
     7
 10
119.7699999999999
 20
110.515
 30
0.0
 11
131.322
 21
135.28999999999991
 31
0.0
  0
LINE
  5
190
  8
0
 62
     7
 10
121.774
 20
109.58
 30
0.0
 11
133.32699999999991
 21
134.35499999999999
 31
0.0
  0
LINE
  5
191
  8
0
  6
AIGENLINE001
 62
     7
 10
57.573399999999999
 20
164.90999999999991
 30
0.0
 11
57.573399999999999
 21
129.98500000000001
 31
0.0
  0
LINE
  5
192
  8
0
 62
     7
 10
63.400799999999997
 20
135.82899999999989
 30
0.0
 11
61.965899999999998
 21
135.20400000000001
 31
0.0
  0
LINE
  5
193
  8
0
 62
     7
 10
63.9679
 20
111.28100000000001
 30
0.0
 11
63.9679
 21
135.11600000000001
 31
0.0
  0
LINE
  5
194
  8
0
 62
     7
 10
66.179299999999998
 20
111.28100000000001
 30
0.0
 11
66.179299999999998
 21
135.11699999999999
 31
0.0
  0
LINE
  5
195
  8
_________2
 62
     7
 10
205.30099999999999
 20
127.411
 30
0.0
 11
183.55000000000001
 21
127.411
 31
0.0
  0
LINE
  5
196
  8
_________2
 62
     7
 10
100.2999999999999
 20
-4.0910799999999998
 30
0.0
 11
100.2999999999999
 21
-21.070999999999991
 31
0.0
  0
LINE
  5
197
  8
_________2
 62
     7
 10
100.2999999999999
 20
275.93099999999993
 30
0.0
 11
100.2999999999999
 21
258.911
 31
0.0
  0
LINE
  5
198
  8
_________2
 62
     7
 10
17.049399999999991
 20
127.411
 30
0.0
 11
-4.7006899999999989
 21
127.411
 31
0.0
  0
LINE
  5
199
  8
_________2
 62
     7
 10
76.740799999999993
 20
29.8047
 30
0.0
 11
74.554599999999994
 21
29.8047
 31
0.0
  0
LINE
  5
19A
  8
_________2
 62
     7
 10
77.233500000000006
 20
29.8047
 30
0.0
 11
76.981300000000005
 21
29.8047
 31
0.0
  0
LINE
  5
19B
  8
_________2
 62
     7
 10
77.726200000000006
 20
29.8047
 30
0.0
 11
80.6511
 21
29.8047
 31
0.0
  0
LINE
  5
19C
  8
_________2
 62
     7
 10
77.233500000000006
 20
29.8047
 30
0.0
 11
77.485299999999995
 21
29.8047
 31
0.0
  0
LINE
  5
19D
  8
_________2
 62
     7
 10
70.837000000000003
 20
29.8047
 30
0.0
 11
68.650300000000001
 21
29.8047
 31
0.0
  0
LINE
  5
19E
  8
_________2
 62
     7
 10
71.329300000000003
 20
29.8047
 30
0.0
 11
71.077399999999983
 21
29.8047
 31
0.0
  0
LINE
  5
19F
  8
_________2
 62
     7
 10
71.329300000000003
 20
30.2974
 30
0.0
 11
71.329300000000003
 21
32.484400000000001
 31
0.0
  0
LINE
  5
1A0
  8
_________2
 62
     7
 10
71.329300000000003
 20
29.8047
 30
0.0
 11
71.329300000000003
 21
30.057300000000001
 31
0.0
  0
LINE
  5
1A1
  8
_________2
 62
     7
 10
71.821899999999999
 20
29.8047
 30
0.0
 11
74.008899999999997
 21
29.8047
 31
0.0
  0
LINE
  5
1A2
  8
_________2
 62
     7
 10
71.329300000000003
 20
29.8047
 30
0.0
 11
71.581400000000002
 21
29.8047
 31
0.0
  0
LINE
  5
1A3
  8
_________2
 62
     7
 10
71.329300000000003
 20
29.312799999999999
 30
0.0
 11
71.329300000000003
 21
27.126200000000001
 31
0.0
  0
LINE
  5
1A4
  8
_________2
 62
     7
 10
71.329300000000003
 20
29.8047
 30
0.0
 11
71.329300000000003
 21
29.5532
 31
0.0
  0
LINE
  5
1A5
  8
_________2
 62
     7
 10
75.040300000000002
 20
28.5852
 30
0.0
 11
80.218299999999985
 21
27.720400000000001
 31
0.0
  0
LINE
  5
1A6
  8
_________2
 62
     7
 10
75.040300000000002
 20
31.024699999999999
 30
0.0
 11
80.218299999999985
 21
31.8901
 31
0.0
  0
LINE
  5
1A7
  8
_________2
 62
     7
 10
80.218299999999985
 20
27.720400000000001
 30
0.0
 11
80.218299999999985
 21
31.8901
 31
0.0
  0
LINE
  5
1A8
  8
_________2
 62
     7
 10
75.040300000000002
 20
28.5852
 30
0.0
 11
75.040300000000002
 21
31.024699999999999
 31
0.0
  0
ARC
  5
1A9
  8
_________2
 62
     7
 10
71.282340000000005
 20
29.757825
 30
0.0
 40
1.2677020000000001
 50
2.1210029999999991
 51
87.878986999999995
  0
ARC
  5
1AA
  8
_________2
 62
     7
 10
71.375812999999994
 20
29.758545999999999
 30
0.0
 40
1.2669680000000001
 50
92.105782999999988
 51
177.91037
  0
ARC
  5
1AB
  8
_________2
 62
     7
 10
71.376186000000004
 20
29.851671
 30
0.0
 40
1.2673680000000001
 50
182.12203600000001
 51
267.877993
  0
ARC
  5
1AC
  8
_________2
 62
     7
 10
71.282359999999997
 20
29.851998999999989
 30
0.0
 40
1.267695999999999
 50
272.12015300000002
 51
357.863674
  0
ARC
  5
1AD
  8
_________2
 62
     7
 10
71.248890000000003
 20
29.724731999999989
 30
0.0
 40
2.1668310000000002
 50
2.1161439999999989
 51
87.874379000000005
  0
ARC
  5
1AE
  8
_________2
 62
     7
 10
71.408918999999983
 20
29.725798000000001
 30
0.0
 40
2.1657399999999991
 50
92.107930000000025
 51
177.91097500000001
  0
ARC
  5
1AF
  8
_________2
 62
     7
 10
71.408934000000002
 20
29.884775999999999
 30
0.0
 40
2.1657950000000001
 50
182.11776599999999
 51
267.89173399999999
  0
ARC
  5
1B0
  8
_________2
 62
     7
 10
71.249286999999995
 20
29.885429999999989
 30
0.0
 40
2.1664590000000001
 50
272.11546800000002
 51
357.86560400000002
  0
TEXT
  5
1B1
  8
_________2
 62
     7
 10
104.604
 20
1.6794899999999999
 30
0.0
 40
3.0923400000000001
  1
図番
 41
0.5
  0
LINE
  5
1B2
  8
_________2
 62
     7
 10
103.55
 20
5.9087199999999989
 30
0.0
 11
183.55099999999999
 21
5.9087199999999989
 31
0.0
  0
TEXT
  5
1B3
  8
_________2
 62
     7
 10
104.604
 20
11.679299999999991
 30
0.0
 40
3.0923400000000001
  1
品番
 41
0.5
  0
TEXT
  5
1B4
  8
_________2
 62
     7
 10
104.604
 20
31.8184
 30
0.0
 40
3.0923400000000001
  1
名称
 41
0.5
  0
TEXT
  5
1B5
  8
_________2
 62
     7
 10
91.844958333333338
 20
26.822299999999998
 30
0.0
 40
3.6545800000000002
  1
mm
 41
0.5
 72
     1
 11
93.367699999999985
 21
26.822299999999998
 31
0.0
  0
TEXT
  5
1B6
  8
_________2
 62
     7
 10
85.642999999999986
 20
31.8184
 30
0.0
 40
3.0923400000000001
  1
単位
 41
0.5
  0
TEXT
  5
1B7
  8
_________2
 62
     7
 10
85.642999999999986
 20
19.410799999999991
 30
0.0
 40
3.0923400000000001
  1
尺度
 41
0.5
  0
TEXT
  5
1B8
  8
_________2
 62
     7
 10
90.548558666666679
 20
13.218199999999991
 30
0.0
 40
3.6545800000000002
  1
1 ： 2
 41
0.5
 72
     1
 11
93.959500000000006
 21
13.218199999999991
 31
0.0
  0
TEXT
  5
1B9
  8
_________2
 62
     7
 10
135.35062500000001
 20
9.1082000000000001
 30
0.0
 40
3.9357000000000002
  1
DV0055030
 41
0.5
 72
     1
 11
143.55000000000001
 21
9.1082000000000001
 31
0.0
  0
TEXT
  5
1BA
  8
_________2
 62
     7
 10
135.35062500000001
 20
-0.8926299999999999
 30
0.0
 40
3.9357000000000002
  1
DV0055030
 41
0.5
 72
     1
 11
143.55000000000001
 21
-0.8926299999999999
 31
0.0
  0
TEXT
  5
1BB
  8
_________2
 62
     7
 10
24.586600000000001
 20
0.707627
 30
0.0
 40
3.9357000000000002
  1
2本入り
 41
0.5
  0
TEXT
  5
1BC
  8
_________2
 62
     7
 10
109.179
 20
24.226099999999999
 30
0.0
 40
3.9357000000000002
  1
ハーフペデスタル用固定金具
 41
0.5
  0
TEXT
  5
1BD
  8
_________2
 62
     7
 10
39.425100333333333
 20
13.603400000000001
 30
0.0
 40
3.6545800000000002
  1
福田
 41
0.5
 72
     1
 11
41.313299999999998
 21
13.603400000000001
 31
0.0
  0
TEXT
  5
1BE
  8
_________2
 62
     7
 10
20.789890666666661
 20
13.603400000000001
 30
0.0
 40
3.6545800000000002
  1
石原
 41
0.5
 72
     1
 11
22.739000000000001
 21
13.603400000000001
 31
0.0
  0
TEXT
  5
1BF
  8
_________2
 62
     7
 10
67.785300000000007
 20
13.218199999999991
 30
0.0
 40
3.6545800000000002
  1
05.11.30
 41
0.5
  0
TEXT
  5
1C0
  8
_________2
 62
     7
 10
66.5929
 20
19.410799999999991
 30
0.0
 40
3.0923400000000001
  1
日付
 41
0.5
  0
TEXT
  5
1C1
  8
_________2
 62
     7
 10
29.639199999999992
 20
19.410799999999991
 30
0.0
 40
3.0923400000000001
  1
検図
 41
0.5
  0
TEXT
  5
1C2
  8
_________2
 62
     7
 10
18.020900000000001
 20
5.21143
 30
0.0
 40
3.0923400000000001
  1
備考
 41
0.5
  0
TEXT
  5
1C3
  8
_________2
 62
     7
 10
18.020900000000001
 20
19.410799999999991
 30
0.0
 40
3.0923400000000001
  1
製図
 41
0.5
  0
TEXT
  5
1C4
  8
_________2
 62
     7
 10
23.788265333333339
 20
27.936800000000002
 30
0.0
 40
4.4979399999999989
  1
セラトレーディング株式会社
 41
0.5
 72
     1
 11
41.180300000000003
 21
27.936800000000002
 31
0.0
  0
LINE
  5
1C5
  8
_________2
 62
     7
 10
183.55099999999999
 20
-4.0910799999999998
 30
0.0
 11
17.049399999999991
 21
-4.0910799999999998
 31
0.0
  0
LINE
  5
1C6
  8
_________2
 62
     7
 10
17.049399999999991
 20
-4.0910799999999998
 30
0.0
 11
17.049399999999991
 21
258.911
 31
0.0
  0
LINE
  5
1C7
  8
_________2
 62
     7
 10
17.049399999999991
 20
258.911
 30
0.0
 11
183.55099999999999
 21
258.911
 31
0.0
  0
LINE
  5
1C8
  8
_________2
 62
     7
 10
183.55099999999999
 20
258.911
 30
0.0
 11
183.55099999999999
 21
-4.0910799999999998
 31
0.0
  0
LINE
  5
1C9
  8
_________2
 62
     7
 10
65.549400000000006
 20
9.4092999999999982
 30
0.0
 11
65.549400000000006
 21
35.909100000000002
 31
0.0
  0
LINE
  5
1CA
  8
_________2
 62
     7
 10
84.549599999999984
 20
9.4092999999999982
 30
0.0
 11
84.549599999999984
 21
35.909100000000002
 31
0.0
  0
LINE
  5
1CB
  8
_________2
 62
     7
 10
103.55
 20
-4.0910799999999998
 30
0.0
 11
103.55
 21
35.909100000000002
 31
0.0
  0
LINE
  5
1CC
  8
_________2
 62
     7
 10
28.549199999999988
 20
9.4092999999999982
 30
0.0
 11
28.549199999999988
 21
23.409199999999998
 31
0.0
  0
LINE
  5
1CD
  8
_________2
 62
     7
 10
17.049399999999991
 20
9.4092999999999982
 30
0.0
 11
103.55
 21
9.4092999999999982
 31
0.0
  0
LINE
  5
1CE
  8
_________2
 62
     7
 10
17.049399999999991
 20
23.409199999999998
 30
0.0
 11
103.55
 21
23.409199999999998
 31
0.0
  0
LINE
  5
1CF
  8
_________2
 62
     7
 10
103.55
 20
15.9085
 30
0.0
 11
183.55099999999999
 21
15.9085
 31
0.0
  0
LINE
  5
1D0
  8
_________2
 62
     7
 10
17.049399999999991
 20
35.909100000000002
 30
0.0
 11
183.55099999999999
 21
35.909100000000002
 31
0.0
  0
ENDSEC
  0
EOF
