  0
SECTION
  2
HEADER
  9
$ACADVER
  1
AC1015
  9
$ACADMAINTVER
 70
     6
  9
$DWGCODEPAGE
  3
ANSI_932
  9
$INSBASE
 10
0.0
 20
0.0
 30
0.0
  9
$EXTMIN
 10
-4.700169999999999
 20
-21.07099999999999
 30
0.0
  9
$EXTMAX
 10
205.301
 20
275.9309999999999
 30
0.0
  9
$LIMMIN
 10
0.0
 20
0.0
  9
$LIMMAX
 10
12.0
 20
9.0
  9
$ORTHOMODE
 70
     0
  9
$REGENMODE
 70
     1
  9
$FILLMODE
 70
     1
  9
$QTEXTMODE
 70
     0
  9
$MIRRTEXT
 70
     1
  9
$LTSCALE
 40
1.0
  9
$ATTMODE
 70
     1
  9
$TEXTSIZE
 40
0.0
  9
$TRACEWID
 40
0.05
  9
$TEXTSTYLE
  7
STANDARD
  9
$CLAYER
  8
0
  9
$CELTYPE
  6
CONTINUOUS
  9
$CECOLOR
 62
   256
  9
$CELTSCALE
 40
1.0
  9
$DISPSILH
 70
     0
  9
$DIMSCALE
 40
1.0
  9
$DIMASZ
 40
0.18
  9
$DIMEXO
 40
0.0625
  9
$DIMDLI
 40
0.38
  9
$DIMRND
 40
0.0
  9
$DIMDLE
 40
0.0
  9
$DIMEXE
 40
0.18
  9
$DIMTP
 40
0.0
  9
$DIMTM
 40
0.0
  9
$DIMTXT
 40
0.18
  9
$DIMCEN
 40
0.09
  9
$DIMTSZ
 40
0.0
  9
$DIMTOL
 70
     0
  9
$DIMLIM
 70
     0
  9
$DIMTIH
 70
     1
  9
$DIMTOH
 70
     1
  9
$DIMSE1
 70
     0
  9
$DIMSE2
 70
     0
  9
$DIMTAD
 70
     0
  9
$DIMZIN
 70
     0
  9
$DIMBLK
  1

  9
$DIMASO
 70
     1
  9
$DIMSHO
 70
     1
  9
$DIMPOST
  1

  9
$DIMAPOST
  1

  9
$DIMALT
 70
     0
  9
$DIMALTD
 70
     2
  9
$DIMALTF
 40
25.4
  9
$DIMLFAC
 40
1.0
  9
$DIMTOFL
 70
     0
  9
$DIMTVP
 40
0.0
  9
$DIMTIX
 70
     0
  9
$DIMSOXD
 70
     0
  9
$DIMSAH
 70
     0
  9
$DIMBLK1
  1

  9
$DIMBLK2
  1

  9
$DIMSTYLE
  2
STANDARD
  9
$DIMCLRD
 70
     0
  9
$DIMCLRE
 70
     0
  9
$DIMCLRT
 70
     0
  9
$DIMTFAC
 40
1.0
  9
$DIMGAP
 40
0.09
  9
$DIMJUST
 70
     0
  9
$DIMSD1
 70
     0
  9
$DIMSD2
 70
     0
  9
$DIMTOLJ
 70
     1
  9
$DIMTZIN
 70
     0
  9
$DIMALTZ
 70
     0
  9
$DIMALTTZ
 70
     0
  9
$DIMUPT
 70
     0
  9
$DIMDEC
 70
     4
  9
$DIMTDEC
 70
     4
  9
$DIMALTU
 70
     2
  9
$DIMALTTD
 70
     2
  9
$DIMTXSTY
  7
STANDARD
  9
$DIMAUNIT
 70
     0
  9
$DIMADEC
 70
     0
  9
$DIMALTRND
 40
0.0
  9
$DIMAZIN
 70
     0
  9
$DIMDSEP
 70
    46
  9
$DIMATFIT
 70
     3
  9
$DIMFRAC
 70
     0
  9
$DIMLDRBLK
  1

  9
$DIMLUNIT
 70
     2
  9
$DIMLWD
 70
    -2
  9
$DIMLWE
 70
    -2
  9
$DIMTMOVE
 70
     0
  9
$LUNITS
 70
     2
  9
$LUPREC
 70
     4
  9
$SKETCHINC
 40
0.1
  9
$FILLETRAD
 40
0.0
  9
$AUNITS
 70
     0
  9
$AUPREC
 70
     0
  9
$MENU
  1
.
  9
$ELEVATION
 40
0.0
  9
$PELEVATION
 40
0.0
  9
$THICKNESS
 40
0.0
  9
$LIMCHECK
 70
     0
  9
$CHAMFERA
 40
0.0
  9
$CHAMFERB
 40
0.0
  9
$CHAMFERC
 40
0.0
  9
$CHAMFERD
 40
0.0
  9
$SKPOLY
 70
     0
  9
$TDCREATE
 40
2444972.375000000
  9
$TDUCREATE
 40
2444972.000000000
  9
$TDUPDATE
 40
2454657.450250497
  9
$TDUUPDATE
 40
2454657.075250497
  9
$TDINDWG
 40
0.0007880903
  9
$TDUSRTIMER
 40
0.0007880903
  9
$USRTIMER
 70
     1
  9
$ANGBASE
 50
0.0
  9
$ANGDIR
 70
     0
  9
$PDMODE
 70
     0
  9
$PDSIZE
 40
0.0
  9
$PLINEWID
 40
0.0
  9
$SPLFRAME
 70
     0
  9
$SPLINETYPE
 70
     6
  9
$SPLINESEGS
 70
     8
  9
$HANDSEED
  5
223
  9
$SURFTAB1
 70
     6
  9
$SURFTAB2
 70
     6
  9
$SURFTYPE
 70
     6
  9
$SURFU
 70
     6
  9
$SURFV
 70
     6
  9
$UCSBASE
  2

  9
$UCSNAME
  2

  9
$UCSORG
 10
0.0
 20
0.0
 30
0.0
  9
$UCSXDIR
 10
1.0
 20
0.0
 30
0.0
  9
$UCSYDIR
 10
0.0
 20
1.0
 30
0.0
  9
$UCSORTHOREF
  2

  9
$UCSORTHOVIEW
 70
     0
  9
$UCSORGTOP
 10
0.0
 20
0.0
 30
0.0
  9
$UCSORGBOTTOM
 10
0.0
 20
0.0
 30
0.0
  9
$UCSORGLEFT
 10
0.0
 20
0.0
 30
0.0
  9
$UCSORGRIGHT
 10
0.0
 20
0.0
 30
0.0
  9
$UCSORGFRONT
 10
0.0
 20
0.0
 30
0.0
  9
$UCSORGBACK
 10
0.0
 20
0.0
 30
0.0
  9
$PUCSBASE
  2

  9
$PUCSNAME
  2

  9
$PUCSORG
 10
0.0
 20
0.0
 30
0.0
  9
$PUCSXDIR
 10
1.0
 20
0.0
 30
0.0
  9
$PUCSYDIR
 10
0.0
 20
1.0
 30
0.0
  9
$PUCSORTHOREF
  2

  9
$PUCSORTHOVIEW
 70
     0
  9
$PUCSORGTOP
 10
0.0
 20
0.0
 30
0.0
  9
$PUCSORGBOTTOM
 10
0.0
 20
0.0
 30
0.0
  9
$PUCSORGLEFT
 10
0.0
 20
0.0
 30
0.0
  9
$PUCSORGRIGHT
 10
0.0
 20
0.0
 30
0.0
  9
$PUCSORGFRONT
 10
0.0
 20
0.0
 30
0.0
  9
$PUCSORGBACK
 10
0.0
 20
0.0
 30
0.0
  9
$USERI1
 70
     0
  9
$USERI2
 70
     0
  9
$USERI3
 70
     0
  9
$USERI4
 70
     0
  9
$USERI5
 70
     0
  9
$USERR1
 40
0.0
  9
$USERR2
 40
0.0
  9
$USERR3
 40
0.0
  9
$USERR4
 40
0.0
  9
$USERR5
 40
0.0
  9
$WORLDVIEW
 70
     1
  9
$SHADEDGE
 70
     3
  9
$SHADEDIF
 70
    70
  9
$TILEMODE
 70
     1
  9
$MAXACTVP
 70
    48
  9
$PINSBASE
 10
0.0
 20
0.0
 30
0.0
  9
$PLIMCHECK
 70
     0
  9
$PEXTMIN
 10
1.000000000000000E+20
 20
1.000000000000000E+20
 30
1.000000000000000E+20
  9
$PEXTMAX
 10
-1.000000000000000E+20
 20
-1.000000000000000E+20
 30
-1.000000000000000E+20
  9
$PLIMMIN
 10
0.0
 20
0.0
  9
$PLIMMAX
 10
12.0
 20
9.0
  9
$UNITMODE
 70
     0
  9
$VISRETAIN
 70
     1
  9
$PLINEGEN
 70
     0
  9
$PSLTSCALE
 70
     1
  9
$TREEDEPTH
 70
  3020
  9
$CMLSTYLE
  2
STANDARD
  9
$CMLJUST
 70
     0
  9
$CMLSCALE
 40
1.0
  9
$PROXYGRAPHICS
 70
     1
  9
$MEASUREMENT
 70
     0
  9
$CELWEIGHT
370
    -1
  9
$ENDCAPS
280
     0
  9
$JOINSTYLE
280
     0
  9
$LWDISPLAY
290
     0
  9
$INSUNITS
 70
     0
  9
$HYPERLINKBASE
  1

  9
$STYLESHEET
  1

  9
$XEDIT
290
     1
  9
$CEPSNTYPE
380
     0
  9
$PSTYLEMODE
290
     1
  9
$FINGERPRINTGUID
  2
{6D604EF4-260F-4368-9927-ECDC5499CB2B}
  9
$VERSIONGUID
  2
{1B230714-2705-4158-9149-61F3FB68B789}
  9
$EXTNAMES
290
     1
  9
$PSVPSCALE
 40
0.0
  9
$OLESTARTUP
290
     0
  0
ENDSEC
  0
SECTION
  2
CLASSES
  0
CLASS
  1
ACDBDICTIONARYWDFLT
  2
AcDbDictionaryWithDefault
  3
AutoCAD 2000
 90
        0
280
     0
281
     0
  0
CLASS
  1
ACDBPLACEHOLDER
  2
AcDbPlaceHolder
  3
AutoCAD 2000
 90
        0
280
     0
281
     0
  0
CLASS
  1
LAYOUT
  2
AcDbLayout
  3
AutoCAD 2000
 90
        0
280
     0
281
     0
  0
ENDSEC
  0
SECTION
  2
TABLES
  0
TABLE
  2
VPORT
  5
8
330
0
100
AcDbSymbolTable
 70
     2
  0
VPORT
  5
222
330
8
100
AcDbSymbolTableRecord
100
AcDbViewportTableRecord
  2
*Active
 70
     0
 10
0.0
 20
0.0
 11
1.0
 21
1.0
 12
148.9916031030768
 22
132.7226174886033
 13
0.0
 23
0.0
 14
1.0
 24
1.0
 15
0.0
 25
0.0
 16
0.0
 26
0.0
 36
1.0
 17
0.0
 27
0.0
 37
0.0
 40
309.9258334024036
 41
1.912109375
 42
50.0
 43
0.0
 44
0.0
 50
0.0
 51
0.0
 71
     0
 72
   100
 73
     1
 74
     1
 75
     0
 76
     0
 77
     0
 78
     0
281
     0
 65
     1
110
0.0
120
0.0
130
0.0
111
1.0
121
0.0
131
0.0
112
0.0
122
1.0
132
0.0
 79
     0
146
0.0
  0
ENDTAB
  0
TABLE
  2
LTYPE
  5
5
330
0
100
AcDbSymbolTable
 70
     4
  0
LTYPE
  5
12
330
5
100
AcDbSymbolTableRecord
100
AcDbLinetypeTableRecord
  2
BYBLOCK
 70
     0
  3

 72
    65
 73
     0
 40
0.0
  0
LTYPE
  5
13
330
5
100
AcDbSymbolTableRecord
100
AcDbLinetypeTableRecord
  2
BYLAYER
 70
     0
  3

 72
    65
 73
     0
 40
0.0
  0
LTYPE
  5
14
330
5
100
AcDbSymbolTableRecord
100
AcDbLinetypeTableRecord
  2
CONTINUOUS
 70
     0
  3
Solid line
 72
    65
 73
     0
 40
0.0
  0
LTYPE
  5
1F
330
5
100
AcDbSymbolTableRecord
100
AcDbLinetypeTableRecord
  2
AIGENLINE001
 70
     0
  3
generate AI->DXF Converter
 72
    65
 73
     4
 40
5.856144999999999
 49
3.5278
 74
     0
 49
-0.776115
 74
     0
 49
0.776115
 74
     0
 49
-0.776115
 74
     0
  0
LTYPE
  5
20
330
5
100
AcDbSymbolTableRecord
100
AcDbLinetypeTableRecord
  2
AIGENLINE002
 70
     0
  3
generate AI->DXF Converter
 72
    65
 73
     2
 40
1.552229999999999
 49
0.776115
 74
     0
 49
-0.776115
 74
     0
  0
LTYPE
  5
21
330
5
100
AcDbSymbolTableRecord
100
AcDbLinetypeTableRecord
  2
AIGENLINE003
 70
     0
  3
generate AI->DXF Converter
 72
    65
 73
     6
 40
7.408375
 49
3.5278
 74
     0
 49
-0.776115
 74
     0
 49
0.776115
 74
     0
 49
-0.776115
 74
     0
 49
0.776115
 74
     0
 49
-0.776115
 74
     0
  0
ENDTAB
  0
TABLE
  2
LAYER
  5
2
330
0
100
AcDbSymbolTable
 70
     2
  0
LAYER
  5
E
330
2
100
AcDbSymbolTableRecord
100
AcDbLayerTableRecord
  2
0
 70
     0
 62
     7
  6
CONTINUOUS
370
    -3
390
214
  0
LAYER
  5
22
330
2
100
AcDbSymbolTableRecord
100
AcDbLayerTableRecord
  2
_________2
 70
     0
 62
     7
  6
CONTINUOUS
370
    -3
390
214
  0
ENDTAB
  0
TABLE
  2
STYLE
  5
3
330
0
100
AcDbSymbolTable
 70
     1
  0
STYLE
  5
F
330
3
100
AcDbSymbolTableRecord
100
AcDbTextStyleTableRecord
  2
STANDARD
 70
     0
 40
0.0
 41
0.0
 50
0.0
 71
     0
 42
0.0
  3
TXT
  4
BIGFONT
  0
ENDTAB
  0
TABLE
  2
VIEW
  5
6
330
0
100
AcDbSymbolTable
 70
     0
  0
ENDTAB
  0
TABLE
  2
UCS
  5
7
330
0
100
AcDbSymbolTable
 70
     0
  0
ENDTAB
  0
TABLE
  2
APPID
  5
9
330
0
100
AcDbSymbolTable
 70
     1
  0
APPID
  5
10
330
9
100
AcDbSymbolTableRecord
100
AcDbRegAppTableRecord
  2
ACAD
 70
     0
  0
ENDTAB
  0
TABLE
  2
DIMSTYLE
  5
A
330
0
100
AcDbSymbolTable
 70
     1
100
AcDbDimStyleTable
 71
     0
  0
DIMSTYLE
105
210
330
A
100
AcDbSymbolTableRecord
100
AcDbDimStyleTableRecord
  2
STANDARD
 70
     0
340
F
  0
ENDTAB
  0
TABLE
  2
BLOCK_RECORD
  5
1
330
0
100
AcDbSymbolTable
 70
     0
  0
BLOCK_RECORD
  5
18
330
1
100
AcDbSymbolTableRecord
100
AcDbBlockTableRecord
  2
*MODEL_SPACE
340
217
  0
BLOCK_RECORD
  5
15
330
1
100
AcDbSymbolTableRecord
100
AcDbBlockTableRecord
  2
*PAPER_SPACE
340
218
  0
ENDTAB
  0
ENDSEC
  0
SECTION
  2
BLOCKS
  0
BLOCK
  5
19
330
18
100
AcDbEntity
  8
0
100
AcDbBlockBegin
  2
*MODEL_SPACE
 70
     0
 10
0.0
 20
0.0
 30
0.0
  3
*MODEL_SPACE
  1

  0
ENDBLK
  5
1A
330
18
100
AcDbEntity
  8
0
100
AcDbBlockEnd
  0
BLOCK
  5
16
330
15
100
AcDbEntity
 67
     1
  8
0
100
AcDbBlockBegin
  2
*PAPER_SPACE
 70
     0
 10
0.0
 20
0.0
 30
0.0
  3
*PAPER_SPACE
  1

  0
ENDBLK
  5
17
330
15
100
AcDbEntity
 67
     1
  8
0
100
AcDbBlockEnd
  0
ENDSEC
  0
SECTION
  2
ENTITIES
  0
TEXT
  5
24
330
18
100
AcDbEntity
  8
0
100
AcDbText
 10
112.3025249999999
 20
158.6599999999999
 30
0.0
 40
3.09234
  1
35
 41
0.5
 72
     1
 11
113.591
 21
158.6599999999999
 31
0.0
100
AcDbText
  0
TEXT
  5
25
330
18
100
AcDbEntity
  8
0
100
AcDbText
 10
38.598425
 20
158.6599999999999
 30
0.0
 40
3.09234
  1
35
 41
0.5
 72
     1
 11
39.8869
 21
158.6599999999999
 31
0.0
100
AcDbText
  0
TEXT
  5
26
330
18
100
AcDbEntity
  8
0
100
AcDbText
 10
119.5965249999999
 20
115.666
 30
0.0
 40
3.09234
  1
35
 41
0.5
 72
     1
 11
120.8849999999999
 21
115.666
 31
0.0
100
AcDbText
  0
TEXT
  5
27
330
18
100
AcDbEntity
  8
0
100
AcDbText
 10
165.1245249999999
 20
115.8939999999999
 30
0.0
 40
3.09234
  1
35
 41
0.5
 72
     1
 11
166.4129999999999
 21
115.8939999999999
 31
0.0
100
AcDbText
  0
TEXT
  5
28
330
18
100
AcDbEntity
  8
0
100
AcDbText
 10
160.474525
 20
115.8939999999999
 30
0.0
 40
3.09234
  1
45
 41
0.5
 72
     1
 11
161.763
 21
115.8939999999999
 31
0.0
100
AcDbText
  0
TEXT
  5
29
330
18
100
AcDbEntity
  8
0
100
AcDbText
 10
155.023525
 20
115.8939999999999
 30
0.0
 40
3.09234
  1
65
 41
0.5
 72
     1
 11
156.312
 21
115.8939999999999
 31
0.0
100
AcDbText
  0
TEXT
  5
2A
330
18
100
AcDbEntity
  8
0
100
AcDbText
 10
155.6719825
 20
80.6867
 30
0.0
 40
3.09234
  1
210
 41
0.5
 72
     1
 11
157.347
 21
80.6867
 31
0.0
100
AcDbText
  0
TEXT
  5
2B
330
18
100
AcDbEntity
  8
0
100
AcDbText
 10
135.7462874999999
 20
115.666
 30
0.0
 40
3.09234
  1
305
 41
0.5
 72
     1
 11
137.6789999999999
 21
115.666
 31
0.0
100
AcDbText
  0
TEXT
  5
2C
330
18
100
AcDbEntity
  8
0
100
AcDbText
 10
75.14658750000001
 20
115.613
 30
0.0
 40
3.09234
  1
280
 41
0.5
 72
     1
 11
77.07930000000001
 21
115.613
 31
0.0
100
AcDbText
  0
TEXT
  5
2D
330
18
100
AcDbEntity
  8
0
100
AcDbText
 10
75.14658750000001
 20
151.2539999999999
 30
0.0
 40
3.09234
  1
650
 41
0.5
 72
     1
 11
77.07930000000001
 21
151.2539999999999
 31
0.0
100
AcDbText
  0
TEXT
  5
2E
330
18
100
AcDbEntity
  8
0
100
AcDbText
 10
75.14658750000001
 20
158.6599999999999
 30
0.0
 40
3.09234
  1
580
 41
0.5
 72
     1
 11
77.07930000000001
 21
158.6599999999999
 31
0.0
100
AcDbText
  0
TEXT
  5
2F
330
18
100
AcDbEntity
  8
0
100
AcDbText
 10
80.29503
 20
221.3459999999999
 30
0.0
 40
3.09234
  1
100
 41
0.5
 72
     1
 11
81.8412
 21
221.3459999999999
 31
0.0
100
AcDbText
  0
TEXT
  5
30
330
18
100
AcDbEntity
  8
0
100
AcDbText
 10
57.0415
 20
216.797525
 30
0.0
 40
3.09234
  1
35
 50
90.0
 41
0.5
 72
     1
 11
57.0415
 21
218.086
 31
0.0
100
AcDbText
  0
TEXT
  5
31
330
18
100
AcDbEntity
  8
0
100
AcDbText
 10
116.036
 20
205.230135
 30
0.0
 40
3.09234
  1
145
 50
90.0
 41
0.5
 72
     1
 11
116.036
 21
207.034
 31
0.0
100
AcDbText
  0
TEXT
  5
32
330
18
100
AcDbEntity
  8
0
100
AcDbText
 10
122.916
 20
188.28544
 30
0.0
 40
3.09234
  1
485
 50
90.0
 41
0.5
 72
     1
 11
122.916
 21
190.347
 31
0.0
100
AcDbText
  0
TEXT
  5
33
330
18
100
AcDbEntity
  8
0
100
AcDbText
 10
116.036
 20
183.3352874999999
 30
0.0
 40
3.09234
  1
305
 50
90.0
 41
0.5
 72
     1
 11
116.036
 21
185.268
 31
0.0
100
AcDbText
  0
TEXT
  5
34
330
18
100
AcDbEntity
  8
0
100
AcDbText
 10
57.0415
 20
207.470525
 30
0.0
 40
3.09234
  1
45
 50
90.0
 41
0.5
 72
     1
 11
57.0415
 21
208.759
 31
0.0
100
AcDbText
  0
TEXT
  5
35
330
18
100
AcDbEntity
  8
0
100
AcDbText
 10
116.087
 20
166.472525
 30
0.0
 40
3.09234
  1
35
 50
90.0
 41
0.5
 72
     1
 11
116.087
 21
167.761
 31
0.0
100
AcDbText
  0
TEXT
  5
36
330
18
100
AcDbEntity
  8
0
100
AcDbText
 10
150.6979999999999
 20
108.57022
 30
0.0
 40
3.09234
  1
15
 50
90.0
 41
0.5
 72
     1
 11
150.6979999999999
 21
109.6009999999999
 31
0.0
100
AcDbText
  0
TEXT
  5
37
330
18
100
AcDbEntity
  8
0
100
AcDbText
 10
143.5109999999999
 20
96.074335
 30
0.0
 40
3.09234
  1
145
 50
90.0
 41
0.5
 72
     1
 11
143.5109999999999
 21
97.87820000000001
 31
0.0
100
AcDbText
  0
TEXT
  5
38
330
18
100
AcDbEntity
  8
0
100
AcDbText
 10
33.3656
 20
93.933835
 30
0.0
 40
3.09234
  1
200
 50
90.0
 41
0.5
 72
     1
 11
33.3656
 21
95.73770000000001
 31
0.0
100
AcDbText
  0
TEXT
  5
39
330
18
100
AcDbEntity
  8
0
100
AcDbText
 10
33.1386
 20
106.1105249999999
 30
0.0
 40
3.09234
  1
35
 50
90.0
 41
0.5
 72
     1
 11
33.1386
 21
107.399
 31
0.0
100
AcDbText
  0
TEXT
  5
3A
330
18
100
AcDbEntity
  8
0
100
AcDbText
 10
97.36679999999999
 20
95.24332499999999
 30
0.0
 40
3.09234
  1
65
 50
90.0
 41
0.5
 72
     1
 11
97.36679999999999
 21
96.5318
 31
0.0
100
AcDbText
  0
TEXT
  5
3B
330
18
100
AcDbEntity
  8
0
100
AcDbText
 10
39.6936
 20
101.8255249999999
 30
0.0
 40
3.09234
  1
35
 50
90.0
 41
0.5
 72
     1
 11
39.6936
 21
103.1139999999999
 31
0.0
100
AcDbText
  0
TEXT
  5
3C
330
18
100
AcDbEntity
  8
0
100
AcDbText
 10
37.1563
 20
202.0379825
 30
0.0
 40
3.09234
  1
210
 50
90.0
 41
0.5
 72
     1
 11
37.1563
 21
203.7129999999999
 31
0.0
100
AcDbText
  0
TEXT
  5
3D
330
18
100
AcDbEntity
  8
0
100
AcDbText
 10
56.9366
 20
201.9635249999999
 30
0.0
 40
3.09234
  1
65
 50
90.0
 41
0.5
 72
     1
 11
56.9366
 21
203.252
 31
0.0
100
AcDbText
  0
TEXT
  5
3E
330
18
100
AcDbEntity
  8
0
100
AcDbText
 10
70.77605694417705
 20
202.1642569441771
 30
0.0
 40
3.09234
  1
%%c35
 50
45.0
 41
0.5
 72
     1
 11
72.2338
 21
203.622
 31
0.0
100
AcDbText
  0
TEXT
  5
3F
330
18
100
AcDbEntity
  8
0
100
AcDbText
 10
68.62385694417705
 20
187.272256944177
 30
0.0
 40
3.09234
  1
%%c46
 50
45.0
 41
0.5
 72
     1
 11
70.0816
 21
188.7299999999999
 31
0.0
100
AcDbText
  0
TEXT
  5
40
330
18
100
AcDbEntity
  8
0
100
AcDbText
 10
70.28432999999999
 20
221.3459999999999
 30
0.0
 40
3.09234
  1
100
 41
0.5
 72
     1
 11
71.8305
 21
221.3459999999999
 31
0.0
100
AcDbText
  0
ARC
  5
41
330
18
100
AcDbEntity
  8
0
100
AcDbCircle
 10
57.793731
 20
211.090597
 30
0.0
 40
0.4767780000000001
100
AcDbArc
 50
182.1112629999999
 51
267.8887669999999
  0
ARC
  5
42
330
18
100
AcDbEntity
  8
0
100
AcDbCircle
 10
57.75906899999999
 20
211.090488
 30
0.0
 40
0.476652
100
AcDbArc
 50
272.0557129999999
 51
357.9012979999999
  0
ARC
  5
43
330
18
100
AcDbEntity
  8
0
100
AcDbCircle
 10
57.75893599999999
 20
211.055444
 30
0.0
 40
0.47679
100
AcDbArc
 50
2.114134999999999
 51
87.92885400000001
  0
ARC
  5
44
330
18
100
AcDbEntity
  8
0
100
AcDbCircle
 10
57.793741
 20
211.055458
 30
0.0
 40
0.476788
100
AcDbArc
 50
92.11240500000002
 51
177.8875649999999
  0
ARC
  5
45
330
18
100
AcDbEntity
  8
0
100
AcDbCircle
 10
164.129849
 20
114.7799229999999
 30
0.0
 40
0.476767
100
AcDbArc
 50
182.110091
 51
267.8899379999999
  0
ARC
  5
46
330
18
100
AcDbEntity
  8
0
100
AcDbCircle
 10
164.095191
 20
114.77983
 30
0.0
 40
0.476658
100
AcDbArc
 50
272.056387
 51
357.900624
  0
ARC
  5
47
330
18
100
AcDbEntity
  8
0
100
AcDbCircle
 10
164.095074
 20
114.7447889999999
 30
0.0
 40
0.4767800000000001
100
AcDbArc
 50
2.112964
 51
87.930025
  0
ARC
  5
48
330
18
100
AcDbEntity
  8
0
100
AcDbCircle
 10
164.1298699999999
 20
114.7447939999999
 30
0.0
 40
0.476788
100
AcDbArc
 50
92.11240500000002
 51
177.8875649999999
  0
LINE
  5
49
330
18
100
AcDbEntity
  8
0
100
AcDbLine
 10
157.8619999999999
 20
104.1179999999999
 30
0.0
 11
157.8619999999999
 21
103.1179999999999
 31
0.0
  0
LINE
  5
4A
330
18
100
AcDbEntity
  8
0
100
AcDbLine
 10
161.362
 20
104.1179999999999
 30
0.0
 11
161.362
 21
103.1179999999999
 31
0.0
  0
ARC
  5
4B
330
18
100
AcDbEntity
  8
0
100
AcDbCircle
 10
157.099978
 20
102.5999969999999
 30
0.0
 40
0.518146
100
AcDbArc
 50
91.85318
 51
174.727162
  0
ARC
  5
4C
330
18
100
AcDbEntity
  8
0
100
AcDbCircle
 10
163.111833
 20
102.617641
 30
0.0
 40
0.5002310000000002
100
AcDbArc
 50
0.00001
 51
89.99998000000001
  0
ARC
  5
4D
330
18
100
AcDbEntity
  8
0
100
AcDbCircle
 10
143.8309689999999
 20
86.136624
 30
0.0
 40
0.519262
100
AcDbArc
 50
182.0999679999999
 51
267.900061
  0
ARC
  5
4E
330
18
100
AcDbEntity
  8
0
100
AcDbCircle
 10
79.768343
 20
86.136619
 30
0.0
 40
0.519257
100
AcDbArc
 50
272.099443
 51
357.9005669999999
  0
ARC
  5
4F
330
18
100
AcDbEntity
  8
0
100
AcDbCircle
 10
74.206187
 20
86.13662899999999
 30
0.0
 40
0.5192680000000001
100
AcDbArc
 50
182.100502
 51
267.8995279999999
  0
ARC
  5
50
330
18
100
AcDbEntity
  8
0
100
AcDbCircle
 10
152.07872
 20
92.37402499999999
 30
0.0
 40
1.033714
100
AcDbArc
 50
279.8512909999999
 51
358.4096039999999
  0
ARC
  5
51
330
18
100
AcDbEntity
  8
0
100
AcDbCircle
 10
163.5933709999999
 20
104.636569
 30
0.0
 40
0.519273
100
AcDbArc
 50
272.101042
 51
357.898968
  0
ARC
  5
52
330
18
100
AcDbEntity
  8
0
100
AcDbCircle
 10
162.112232
 20
107.617712
 30
0.0
 40
2.000062999999999
100
AcDbArc
 50
270.004954
 51
0.004925
  0
ARC
  5
53
330
18
100
AcDbEntity
  8
0
100
AcDbCircle
 10
152.32837
 20
88.536532
 30
0.0
 40
1.618980999999999
100
AcDbArc
 50
270.069682
 51
290.7471
  0
ARC
  5
54
330
18
100
AcDbEntity
  8
0
100
AcDbCircle
 10
152.0571159999999
 20
89.312275
 30
0.0
 40
2.440601
100
AcDbArc
 50
290.250858
 51
309.6112319999999
  0
ARC
  5
55
330
18
100
AcDbEntity
  8
0
100
AcDbCircle
 10
151.127609
 20
90.49104699999999
 30
0.0
 40
3.941502999999999
100
AcDbArc
 50
309.095543
 51
351.2640999999999
  0
ARC
  5
56
330
18
100
AcDbEntity
  8
0
100
AcDbCircle
 10
138.586745
 20
89.08045899999999
 30
0.0
 40
2.153500999999999
100
AcDbArc
 50
53.639028
 51
61.18349300000001
  0
ARC
  5
57
330
18
100
AcDbEntity
  8
0
100
AcDbCircle
 10
139.7087329999999
 20
90.675422
 30
0.0
 40
0.208183
100
AcDbArc
 50
338.967652
 51
41.979785
  0
ARC
  5
58
330
18
100
AcDbEntity
  8
0
100
AcDbCircle
 10
139.4705279999999
 20
90.765162
 30
0.0
 40
0.4627290000000001
100
AcDbArc
 50
323.639786
 51
339.1817899999999
  0
ARC
  5
59
330
18
100
AcDbEntity
  8
0
100
AcDbCircle
 10
138.749717
 20
90.57801299999999
 30
0.0
 40
0.836545
100
AcDbArc
 50
302.9378759999999
 51
315.197599
  0
ARC
  5
5A
330
18
100
AcDbEntity
  8
0
100
AcDbCircle
 10
139.0666469999999
 20
90.11323799999999
 30
0.0
 40
0.274474
100
AcDbArc
 50
271.609419
 51
300.1656089999999
  0
ARC
  5
5B
330
18
100
AcDbEntity
  8
0
100
AcDbCircle
 10
139.094022
 20
90.70768800000001
 30
0.0
 40
0.8690379999999999
100
AcDbArc
 50
251.4501459999999
 51
268.703328
  0
ARC
  5
5C
330
18
100
AcDbEntity
  8
0
100
AcDbCircle
 10
139.310279
 20
89.907526
 30
0.0
 40
0.9654959999999999
100
AcDbArc
 50
252.9179569999999
 51
311.932571
  0
ARC
  5
5D
330
18
100
AcDbEntity
  8
0
100
AcDbCircle
 10
145.839432
 20
116.429872
 30
0.0
 40
27.428956
100
AcDbArc
 50
262.642942
 51
264.713126
  0
ARC
  5
5E
330
18
100
AcDbEntity
  8
0
100
AcDbCircle
 10
143.0085929999999
 20
94.45149499999999
 30
0.0
 40
5.269026999999999
100
AcDbArc
 50
255.721859
 51
262.568423
  0
ARC
  5
5F
330
18
100
AcDbEntity
  8
0
100
AcDbCircle
 10
142.610855
 20
92.68350299999999
 30
0.0
 40
3.457923999999999
100
AcDbArc
 50
246.990079
 51
254.883624
  0
ARC
  5
60
330
18
100
AcDbEntity
  8
0
100
AcDbCircle
 10
128.1289279999999
 20
59.44752
 30
0.0
 40
32.796301
100
AcDbArc
 50
66.39944100000001
 51
67.78807900000001
  0
ARC
  5
61
330
18
100
AcDbEntity
  8
0
100
AcDbCircle
 10
155.799358
 20
134.049981
 30
0.0
 40
46.018871
100
AcDbArc
 50
237.7133359999999
 51
249.422281
  0
ARC
  5
62
330
18
100
AcDbEntity
  8
0
100
AcDbCircle
 10
149.2410999999999
 20
123.168998
 30
0.0
 40
33.318186
100
AcDbArc
 50
227.340364
 51
237.2526689999999
  0
ARC
  5
63
330
18
100
AcDbEntity
  8
0
100
AcDbCircle
 10
141.706881
 20
114.7357989999999
 30
0.0
 40
22.01166399999999
100
AcDbArc
 50
214.0068229999999
 51
226.887221
  0
ARC
  5
64
330
18
100
AcDbEntity
  8
0
100
AcDbCircle
 10
135.590212
 20
110.3355649999999
 30
0.0
 40
14.48188299999999
100
AcDbArc
 50
202.878267
 51
213.1100059999999
  0
ARC
  5
65
330
18
100
AcDbEntity
  8
0
100
AcDbCircle
 10
143.720913
 20
100.639516
 30
0.0
 40
9.656689
100
AcDbArc
 50
256.688598
 51
260.4078149999999
  0
ARC
  5
66
330
18
100
AcDbEntity
  8
0
100
AcDbCircle
 10
145.3568689999999
 20
107.493211
 30
0.0
 40
16.70292
100
AcDbArc
 50
249.3903759999999
 51
256.640632
  0
ARC
  5
67
330
18
100
AcDbEntity
  8
0
100
AcDbCircle
 10
150.8018229999999
 20
122.7133919999999
 30
0.0
 40
32.86667
100
AcDbArc
 50
241.8747199999999
 51
249.845395
  0
ARC
  5
68
330
18
100
AcDbEntity
  8
0
100
AcDbCircle
 10
155.00753
 20
131.402411
 30
0.0
 40
42.514016
100
AcDbArc
 50
231.183533
 51
242.3961799999999
  0
ARC
  5
69
330
18
100
AcDbEntity
  8
0
100
AcDbCircle
 10
145.9535879999999
 20
119.784732
 30
0.0
 40
27.787682
100
AcDbArc
 50
222.85026
 51
230.713745
  0
ARC
  5
6A
330
18
100
AcDbEntity
  8
0
100
AcDbCircle
 10
137.987313
 20
112.2468129999999
 30
0.0
 40
16.821266
100
AcDbArc
 50
211.3413379999999
 51
222.48048
  0
ARC
  5
6B
330
18
100
AcDbEntity
  8
0
100
AcDbCircle
 10
132.2835809999999
 20
108.605004
 30
0.0
 40
10.056593
100
AcDbArc
 50
198.704789
 51
210.522606
  0
ARC
  5
6C
330
18
100
AcDbEntity
  8
0
100
AcDbCircle
 10
144.6106659999999
 20
112.042329
 30
0.0
 40
22.903288
100
AcDbArc
 50
249.991389
 51
255.3485789999999
  0
ARC
  5
6D
330
18
100
AcDbEntity
  8
0
100
AcDbCircle
 10
148.1530689999999
 20
122.064699
 30
0.0
 40
33.532945
100
AcDbArc
 50
227.4456209999999
 51
250.163419
  0
ARC
  5
6E
330
18
100
AcDbEntity
  8
0
100
AcDbCircle
 10
141.3013149999999
 20
114.1632199999999
 30
0.0
 40
23.080566
100
AcDbArc
 50
212.15554
 51
226.7097
  0
ARC
  5
6F
330
18
100
AcDbEntity
  8
0
100
AcDbCircle
 10
137.103845
 20
111.218572
 30
0.0
 40
17.96162999999999
100
AcDbArc
 50
208.321584
 51
211.329379
  0
ARC
  5
70
330
18
100
AcDbEntity
  8
0
100
AcDbCircle
 10
142.425309
 20
106.5106689999999
 30
0.0
 40
17.85253599999999
100
AcDbArc
 50
249.353102
 51
259.0254759999999
  0
ARC
  5
71
330
18
100
AcDbEntity
  8
0
100
AcDbCircle
 10
145.7642149999999
 20
116.0741909999999
 30
0.0
 40
27.980225
100
AcDbArc
 50
241.1782609999999
 51
249.860374
  0
ARC
  5
72
330
18
100
AcDbEntity
  8
0
100
AcDbCircle
 10
149.96007
 20
124.187862
 30
0.0
 40
37.112315
100
AcDbArc
 50
224.985164
 51
241.5416879999999
  0
ARC
  5
73
330
18
100
AcDbEntity
  8
0
100
AcDbCircle
 10
138.88856
 20
112.7175199999999
 30
0.0
 40
21.174826
100
AcDbArc
 50
217.764148
 51
224.2108649999999
  0
ARC
  5
74
330
18
100
AcDbEntity
  8
0
100
AcDbCircle
 10
131.149572
 20
106.702457
 30
0.0
 40
11.37317
100
AcDbArc
 50
205.8169659999999
 51
217.6851189999999
  0
LINE
  5
75
330
18
100
AcDbEntity
  8
0
100
AcDbLine
 10
157.401
 20
114.1699999999999
 30
0.0
 11
159.6119999999999
 21
114.762
 31
0.0
  0
LINE
  5
76
330
18
100
AcDbEntity
  8
0
100
AcDbLine
 10
159.6119999999999
 20
114.762
 30
0.0
 11
157.401
 21
115.355
 31
0.0
  0
LINE
  5
77
330
18
100
AcDbEntity
  8
0
100
AcDbLine
 10
157.401
 20
115.355
 30
0.0
 11
157.401
 21
114.1699999999999
 31
0.0
  0
LINE
  5
78
330
18
100
AcDbEntity
  8
0
100
AcDbLine
 10
116.901
 20
114.1699999999999
 30
0.0
 11
119.112
 21
114.762
 31
0.0
  0
LINE
  5
79
330
18
100
AcDbEntity
  8
0
100
AcDbLine
 10
119.112
 20
114.762
 30
0.0
 11
116.901
 21
115.355
 31
0.0
  0
LINE
  5
7A
330
18
100
AcDbEntity
  8
0
100
AcDbLine
 10
116.901
 20
115.355
 30
0.0
 11
116.901
 21
114.1699999999999
 31
0.0
  0
LINE
  5
7B
330
18
100
AcDbEntity
  8
0
100
AcDbLine
 10
150.901
 20
114.1699999999999
 30
0.0
 11
153.112
 21
114.762
 31
0.0
  0
LINE
  5
7C
330
18
100
AcDbEntity
  8
0
100
AcDbLine
 10
153.112
 20
114.762
 30
0.0
 11
150.901
 21
115.355
 31
0.0
  0
LINE
  5
7D
330
18
100
AcDbEntity
  8
0
100
AcDbLine
 10
150.901
 20
115.355
 30
0.0
 11
150.901
 21
114.1699999999999
 31
0.0
  0
LINE
  5
7E
330
18
100
AcDbEntity
  8
0
100
AcDbLine
 10
155.3229999999999
 20
115.355
 30
0.0
 11
153.112
 21
114.762
 31
0.0
  0
LINE
  5
7F
330
18
100
AcDbEntity
  8
0
100
AcDbLine
 10
153.112
 20
114.762
 30
0.0
 11
155.3229999999999
 21
114.1699999999999
 31
0.0
  0
LINE
  5
80
330
18
100
AcDbEntity
  8
0
100
AcDbLine
 10
155.3229999999999
 20
114.1699999999999
 30
0.0
 11
155.3229999999999
 21
115.355
 31
0.0
  0
LINE
  5
81
330
18
100
AcDbEntity
  8
0
100
AcDbLine
 10
169.8229999999999
 20
115.355
 30
0.0
 11
167.612
 21
114.762
 31
0.0
  0
LINE
  5
82
330
18
100
AcDbEntity
  8
0
100
AcDbLine
 10
167.612
 20
114.762
 30
0.0
 11
169.8229999999999
 21
114.1699999999999
 31
0.0
  0
LINE
  5
83
330
18
100
AcDbEntity
  8
0
100
AcDbLine
 10
169.8229999999999
 20
114.1699999999999
 30
0.0
 11
169.8229999999999
 21
115.355
 31
0.0
  0
LINE
  5
84
330
18
100
AcDbEntity
  8
0
100
AcDbLine
 10
124.822
 20
115.355
 30
0.0
 11
122.611
 21
114.762
 31
0.0
  0
LINE
  5
85
330
18
100
AcDbEntity
  8
0
100
AcDbLine
 10
122.611
 20
114.762
 30
0.0
 11
124.822
 21
114.1699999999999
 31
0.0
  0
LINE
  5
86
330
18
100
AcDbEntity
  8
0
100
AcDbLine
 10
124.822
 20
114.1699999999999
 30
0.0
 11
124.822
 21
115.355
 31
0.0
  0
LINE
  5
87
330
18
100
AcDbEntity
  8
0
100
AcDbLine
 10
170.7179999999999
 20
114.762
 30
0.0
 11
116.031
 21
114.762
 31
0.0
  0
LINE
  5
88
330
18
100
AcDbEntity
  8
0
100
AcDbLine
 10
119.112
 20
105.918
 30
0.0
 11
119.112
 21
115.2619999999999
 31
0.0
  0
LINE
  5
89
330
18
100
AcDbEntity
  8
0
100
AcDbLine
 10
153.112
 20
115.2619999999999
 30
0.0
 11
153.112
 21
104.573
 31
0.0
  0
LINE
  5
8A
330
18
100
AcDbEntity
  8
0
100
AcDbLine
 10
159.6119999999999
 20
115.2619999999999
 30
0.0
 11
159.6119999999999
 21
108.5779999999999
 31
0.0
  0
LINE
  5
8B
330
18
100
AcDbEntity
  8
0
100
AcDbLine
 10
164.1119999999999
 20
115.2619999999999
 30
0.0
 11
164.1119999999999
 21
109.4179999999999
 31
0.0
  0
LINE
  5
8C
330
18
100
AcDbEntity
  8
0
100
AcDbLine
 10
167.612
 20
115.2619999999999
 30
0.0
 11
167.612
 21
109.9169999999999
 31
0.0
  0
LINE
  5
8D
330
18
100
AcDbEntity
  8
0
100
AcDbLine
 10
143.719
 20
93.32930000000001
 30
0.0
 11
144.311
 21
91.1185
 31
0.0
  0
LINE
  5
8E
330
18
100
AcDbEntity
  8
0
100
AcDbLine
 10
144.311
 20
91.1185
 30
0.0
 11
144.9039999999999
 21
93.32930000000001
 31
0.0
  0
LINE
  5
8F
330
18
100
AcDbEntity
  8
0
100
AcDbLine
 10
144.9039999999999
 20
93.32930000000001
 30
0.0
 11
143.719
 21
93.32930000000001
 31
0.0
  0
LINE
  5
90
330
18
100
AcDbEntity
  8
0
100
AcDbLine
 10
144.889
 20
103.4059999999999
 30
0.0
 11
144.297
 21
105.617
 31
0.0
  0
LINE
  5
91
330
18
100
AcDbEntity
  8
0
100
AcDbLine
 10
144.297
 20
105.617
 30
0.0
 11
143.705
 21
103.4059999999999
 31
0.0
  0
LINE
  5
92
330
18
100
AcDbEntity
  8
0
100
AcDbLine
 10
143.705
 20
103.4059999999999
 30
0.0
 11
144.889
 21
103.4059999999999
 31
0.0
  0
LINE
  5
93
330
18
100
AcDbEntity
  8
0
100
AcDbLine
 10
144.297
 20
91.11780000000001
 30
0.0
 11
144.297
 21
105.6179999999999
 31
0.0
  0
LINE
  5
94
330
18
100
AcDbEntity
  8
0
100
AcDbLine
 10
148.8239999999999
 20
80.57819999999999
 30
0.0
 11
146.6129999999999
 21
79.986
 31
0.0
  0
LINE
  5
95
330
18
100
AcDbEntity
  8
0
100
AcDbLine
 10
146.6129999999999
 20
79.986
 30
0.0
 11
148.8239999999999
 21
79.39379999999999
 31
0.0
  0
LINE
  5
96
330
18
100
AcDbEntity
  8
0
100
AcDbLine
 10
148.8239999999999
 20
79.39379999999999
 30
0.0
 11
148.8239999999999
 21
80.57819999999999
 31
0.0
  0
LINE
  5
97
330
18
100
AcDbEntity
  8
0
100
AcDbLine
 10
165.4009999999999
 20
79.40819999999999
 30
0.0
 11
167.612
 21
80.0004
 31
0.0
  0
LINE
  5
98
330
18
100
AcDbEntity
  8
0
100
AcDbLine
 10
167.612
 20
80.0004
 30
0.0
 11
165.4009999999999
 21
80.59269999999999
 31
0.0
  0
LINE
  5
99
330
18
100
AcDbEntity
  8
0
100
AcDbLine
 10
165.4009999999999
 20
80.59269999999999
 30
0.0
 11
165.4009999999999
 21
79.40819999999999
 31
0.0
  0
LINE
  5
9A
330
18
100
AcDbEntity
  8
0
100
AcDbLine
 10
146.6119999999999
 20
79.986
 30
0.0
 11
167.612
 21
79.986
 31
0.0
  0
LINE
  5
9B
330
18
100
AcDbEntity
  8
0
100
AcDbLine
 10
167.612
 20
79.35349999999999
 30
0.0
 11
167.612
 21
88.56430000000001
 31
0.0
  0
LINE
  5
9C
330
18
100
AcDbEntity
  8
0
100
AcDbLine
 10
146.6119999999999
 20
79.35349999999999
 30
0.0
 11
146.6119999999999
 21
83.7701
 31
0.0
  0
LINE
  5
9D
330
18
100
AcDbEntity
  8
0
100
AcDbLine
 10
150.802
 20
107.8279999999999
 30
0.0
 11
151.394
 21
105.6179999999999
 31
0.0
  0
LINE
  5
9E
330
18
100
AcDbEntity
  8
0
100
AcDbLine
 10
151.394
 20
105.6179999999999
 30
0.0
 11
151.9859999999999
 21
107.8279999999999
 31
0.0
  0
LINE
  5
9F
330
18
100
AcDbEntity
  8
0
100
AcDbLine
 10
151.9859999999999
 20
107.8279999999999
 30
0.0
 11
150.802
 21
107.8279999999999
 31
0.0
  0
LINE
  5
A0
330
18
100
AcDbEntity
  8
0
100
AcDbLine
 10
151.9859999999999
 20
101.907
 30
0.0
 11
151.394
 21
104.1179999999999
 31
0.0
  0
LINE
  5
A1
330
18
100
AcDbEntity
  8
0
100
AcDbLine
 10
151.394
 20
104.1179999999999
 30
0.0
 11
150.802
 21
101.907
 31
0.0
  0
LINE
  5
A2
330
18
100
AcDbEntity
  8
0
100
AcDbLine
 10
150.802
 20
101.907
 30
0.0
 11
151.9859999999999
 21
101.907
 31
0.0
  0
LINE
  5
A3
330
18
100
AcDbEntity
  8
0
100
AcDbLine
 10
151.394
 20
100.845
 30
0.0
 11
151.394
 21
111.6789999999999
 31
0.0
  0
LINE
  5
A4
330
18
100
AcDbEntity
  8
0
100
AcDbLine
 10
151.1109999999999
 20
104.1179999999999
 30
0.0
 11
152.821
 21
104.1179999999999
 31
0.0
  0
LINE
  5
A5
330
18
100
AcDbEntity
  8
0
100
AcDbLine
 10
120.162
 20
102.9179999999999
 30
0.0
 11
120.8779999999999
 21
102.9179999999999
 31
0.0
  0
ARC
  5
A6
330
18
100
AcDbEntity
  8
0
100
AcDbCircle
 10
120.8726129999999
 20
102.408209
 30
0.0
 40
0.509528
100
AcDbArc
 50
34.556564
 51
89.41717
  0
LINE
  5
A7
330
18
100
AcDbEntity
  8
0
100
AcDbLine
 10
120.162
 20
104.8179999999999
 30
0.0
 11
122.039
 21
104.8179999999999
 31
0.0
  0
ARC
  5
A8
330
18
100
AcDbEntity
  8
0
100
AcDbCircle
 10
122.037039
 20
104.564218
 30
0.0
 40
0.253481
100
AcDbArc
 50
33.841755
 51
89.60183499999999
  0
LINE
  5
A9
330
18
100
AcDbEntity
  8
0
100
AcDbLine
 10
119.911
 20
104.5679999999999
 30
0.0
 11
119.911
 21
103.167
 31
0.0
  0
ARC
  5
AA
330
18
100
AcDbEntity
  8
0
100
AcDbCircle
 10
120.1713199999999
 20
104.557801
 30
0.0
 40
0.260063
100
AcDbArc
 50
92.07559399999999
 51
177.845511
  0
ARC
  5
AB
330
18
100
AcDbEntity
  8
0
100
AcDbCircle
 10
120.170703
 20
103.1769979999999
 30
0.0
 40
0.259437
100
AcDbArc
 50
182.1022139999999
 51
268.0556549999999
  0
LINE
  5
AC
330
18
100
AcDbEntity
  8
0
100
AcDbLine
 10
119.612
 20
105.6179999999999
 30
0.0
 11
162.1119999999999
 21
105.6179999999999
 31
0.0
  0
ARC
  5
AD
330
18
100
AcDbEntity
  8
0
100
AcDbCircle
 10
122.327308
 20
105.108431
 30
0.0
 40
0.509246
100
AcDbArc
 50
32.218556
 51
89.39685799999999
  0
LINE
  5
AE
330
18
100
AcDbEntity
  8
0
100
AcDbLine
 10
119.612
 20
102.117
 30
0.0
 11
120.136
 21
102.117
 31
0.0
  0
LINE
  5
AF
330
18
100
AcDbEntity
  8
0
100
AcDbLine
 10
119.112
 20
105.117
 30
0.0
 11
119.112
 21
102.6179999999999
 31
0.0
  0
ARC
  5
B0
330
18
100
AcDbEntity
  8
0
100
AcDbCircle
 10
119.6311029999999
 20
102.636671
 30
0.0
 40
0.519623
100
AcDbArc
 50
182.0988439999999
 51
267.861712
  0
ARC
  5
B1
330
18
100
AcDbEntity
  8
0
100
AcDbCircle
 10
119.6307669999999
 20
105.0987239999999
 30
0.0
 40
0.5192750000000001
100
AcDbArc
 50
92.102579
 51
177.9368639999999
  0
ARC
  5
B2
330
18
100
AcDbEntity
  8
0
100
AcDbCircle
 10
120.12961
 20
101.102601
 30
0.0
 40
1.014831999999999
100
AcDbArc
 50
39.599445
 51
89.61627400000001
  0
LINE
  5
B3
330
18
100
AcDbEntity
  8
0
100
AcDbLine
 10
122.611
 20
106.4179999999999
 30
0.0
 11
122.611
 21
115.2619999999999
 31
0.0
  0
LINE
  5
B4
330
18
100
AcDbEntity
  8
0
100
AcDbLine
 10
153.112
 20
103.6179999999999
 30
0.0
 11
153.112
 21
92.34529999999999
 31
0.0
  0
LINE
  5
B5
330
18
100
AcDbEntity
  8
0
100
AcDbLine
 10
151.112
 20
91.11780000000001
 30
0.0
 11
152.256
 21
91.35559999999999
 31
0.0
  0
LINE
  5
B6
330
18
100
AcDbEntity
  8
0
100
AcDbLine
 10
153.912
 20
103.1179999999999
 30
0.0
 11
153.912
 21
92.04909999999999
 31
0.0
  0
LINE
  5
B7
330
18
100
AcDbEntity
  8
0
100
AcDbLine
 10
151.5349999999999
 20
90.41020000000001
 30
0.0
 11
152.827
 21
90.6273
 31
0.0
  0
ARC
  5
B8
330
18
100
AcDbEntity
  8
0
100
AcDbCircle
 10
152.395163
 20
92.081537
 30
0.0
 40
1.517177
100
AcDbArc
 50
286.555347
 51
358.773212
  0
LINE
  5
B9
330
18
100
AcDbEntity
  8
0
100
AcDbLine
 10
155.685
 20
89.11759999999999
 30
0.0
 11
163.612
 21
89.11759999999999
 31
0.0
  0
LINE
  5
BA
330
18
100
AcDbEntity
  8
0
100
AcDbLine
 10
155.0229999999999
 20
89.8924
 30
0.0
 11
155.812
 21
103.1179999999999
 31
0.0
  0
LINE
  5
BB
330
18
100
AcDbEntity
  8
0
100
AcDbLine
 10
155.8229999999999
 20
89.8924
 30
0.0
 11
156.584
 21
102.648
 31
0.0
  0
LINE
  5
BC
330
18
100
AcDbEntity
  8
0
100
AcDbLine
 10
149.912
 20
88.41790000000001
 30
0.0
 11
148.9119999999999
 21
88.41790000000001
 31
0.0
  0
LINE
  5
BD
330
18
100
AcDbEntity
  8
0
100
AcDbLine
 10
152.33
 20
86.9176
 30
0.0
 11
148.9119999999999
 21
86.9176
 31
0.0
  0
LINE
  5
BE
330
18
100
AcDbEntity
  8
0
100
AcDbLine
 10
152.33
 20
86.1176
 30
0.0
 11
149.912
 21
86.1176
 31
0.0
  0
ARC
  5
BF
330
18
100
AcDbEntity
  8
0
100
AcDbCircle
 10
152.322808
 20
88.937106
 30
0.0
 40
2.81952
100
AcDbArc
 50
270.153036
 51
303.9666809999999
  0
ARC
  5
C0
330
18
100
AcDbEntity
  8
0
100
AcDbCircle
 10
151.5331409999999
 20
90.190595
 30
0.0
 40
4.300551999999999
100
AcDbArc
 50
303.3615839999999
 51
356.0241439999999
  0
LINE
  5
C1
330
18
100
AcDbEntity
  8
0
100
AcDbLine
 10
151.5349999999999
 20
90.41020000000001
 30
0.0
 11
149.912
 21
88.93500000000001
 31
0.0
  0
LINE
  5
C2
330
18
100
AcDbEntity
  8
0
  6
AIGENLINE001
100
AcDbLine
 10
162.402
 20
99.11740000000001
 30
0.0
 11
168.659
 21
99.11740000000001
 31
0.0
  0
LINE
  5
C3
330
18
100
AcDbEntity
  8
0
100
AcDbLine
 10
167.612
 20
95.1176
 30
0.0
 11
163.612
 21
95.1176
 31
0.0
  0
LINE
  5
C4
330
18
100
AcDbEntity
  8
0
100
AcDbLine
 10
167.612
 20
92.11759999999999
 30
0.0
 11
163.612
 21
92.11759999999999
 31
0.0
  0
LINE
  5
C5
330
18
100
AcDbEntity
  8
0
100
AcDbLine
 10
167.612
 20
89.11759999999999
 30
0.0
 11
163.612
 21
89.11759999999999
 31
0.0
  0
LINE
  5
C6
330
18
100
AcDbEntity
  8
0
100
AcDbLine
 10
153.112
 20
99.86769999999999
 30
0.0
 11
153.912
 21
99.86769999999999
 31
0.0
  0
LINE
  5
C7
330
18
100
AcDbEntity
  8
0
100
AcDbLine
 10
153.112
 20
102.3679999999999
 30
0.0
 11
153.912
 21
102.3679999999999
 31
0.0
  0
LINE
  5
C8
330
18
100
AcDbEntity
  8
0
  6
AIGENLINE001
100
AcDbLine
 10
152.38
 20
101.1179999999999
 30
0.0
 11
154.74
 21
101.1179999999999
 31
0.0
  0
LINE
  5
C9
330
18
100
AcDbEntity
  8
0
100
AcDbLine
 10
153.6119999999999
 20
104.1179999999999
 30
0.0
 11
163.612
 21
104.1179999999999
 31
0.0
  0
ARC
  5
CA
330
18
100
AcDbEntity
  8
0
100
AcDbCircle
 10
153.630959
 20
103.598721
 30
0.0
 40
0.519273
100
AcDbArc
 50
92.10100500000001
 51
177.8989649999999
  0
LINE
  5
CB
330
18
100
AcDbEntity
  8
0
100
AcDbLine
 10
157.0829999999999
 20
103.1179999999999
 30
0.0
 11
163.1119999999999
 21
103.1179999999999
 31
0.0
  0
LINE
  5
CC
330
18
100
AcDbEntity
  8
0
100
AcDbLine
 10
153.912
 20
103.1179999999999
 30
0.0
 11
155.812
 21
103.1179999999999
 31
0.0
  0
LINE
  5
CD
330
18
100
AcDbEntity
  8
0
100
AcDbLine
 10
164.1119999999999
 20
106.6179999999999
 30
0.0
 11
164.1119999999999
 21
104.6179999999999
 31
0.0
  0
LINE
  5
CE
330
18
100
AcDbEntity
  8
0
100
AcDbLine
 10
164.613
 20
109.118
 30
0.0
 11
167.612
 21
109.118
 31
0.0
  0
LINE
  5
CF
330
18
100
AcDbEntity
  8
0
100
AcDbLine
 10
164.1119999999999
 20
108.6179999999999
 30
0.0
 11
164.1119999999999
 21
106.6179999999999
 31
0.0
  0
ARC
  5
D0
330
18
100
AcDbEntity
  8
0
100
AcDbCircle
 10
164.6125259999999
 20
108.617657
 30
0.0
 40
0.5002310000000002
100
AcDbArc
 50
90.0
 51
179.9999699999999
  0
LINE
  5
D1
330
18
100
AcDbEntity
  8
0
  6
AIGENLINE001
100
AcDbLine
 10
159.6119999999999
 20
107.7779999999999
 30
0.0
 11
159.6119999999999
 21
100.795
 31
0.0
  0
LINE
  5
D2
330
18
100
AcDbEntity
  8
0
100
AcDbLine
 10
163.612
 20
102.6179999999999
 30
0.0
 11
163.612
 21
89.11759999999999
 31
0.0
  0
LINE
  5
D3
330
18
100
AcDbEntity
  8
0
100
AcDbLine
 10
149.912
 20
86.9176
 30
0.0
 11
149.912
 21
88.93500000000001
 31
0.0
  0
LINE
  5
D4
330
18
100
AcDbEntity
  8
0
100
AcDbLine
 10
149.912
 20
85.6177
 30
0.0
 11
149.912
 21
86.1176
 31
0.0
  0
LINE
  5
D5
330
18
100
AcDbEntity
  8
0
100
AcDbLine
 10
139.3429999999999
 20
89.9885
 30
0.0
 11
139.8429999999999
 21
90.4908
 31
0.0
  0
LINE
  5
D6
330
18
100
AcDbEntity
  8
0
100
AcDbLine
 10
139.955
 20
89.18930000000001
 30
0.0
 11
140.527
 21
89.81010000000001
 31
0.0
  0
LINE
  5
D7
330
18
100
AcDbEntity
  8
0
100
AcDbLine
 10
143.312
 20
86.1176
 30
0.0
 11
143.312
 21
89.11759999999999
 31
0.0
  0
LINE
  5
D8
330
18
100
AcDbEntity
  8
0
100
AcDbLine
 10
151.112
 20
91.11780000000001
 30
0.0
 11
148.9119999999999
 21
89.11759999999999
 31
0.0
  0
LINE
  5
D9
330
18
100
AcDbEntity
  8
0
100
AcDbLine
 10
142.1119999999999
 20
91.11780000000001
 30
0.0
 11
144.312
 21
89.11759999999999
 31
0.0
  0
LINE
  5
DA
330
18
100
AcDbEntity
  8
0
100
AcDbLine
 10
142.1119999999999
 20
91.11780000000001
 30
0.0
 11
151.112
 21
91.11780000000001
 31
0.0
  0
LINE
  5
DB
330
18
100
AcDbEntity
  8
0
100
AcDbLine
 10
148.9119999999999
 20
85.6177
 30
0.0
 11
148.9119999999999
 21
89.11759999999999
 31
0.0
  0
LINE
  5
DC
330
18
100
AcDbEntity
  8
0
100
AcDbLine
 10
144.312
 20
85.6177
 30
0.0
 11
144.312
 21
89.11759999999999
 31
0.0
  0
LINE
  5
DD
330
18
100
AcDbEntity
  8
0
100
AcDbLine
 10
144.312
 20
89.11759999999999
 30
0.0
 11
148.9119999999999
 21
89.11759999999999
 31
0.0
  0
LINE
  5
DE
330
18
100
AcDbEntity
  8
0
100
AcDbLine
 10
143.812
 20
85.6177
 30
0.0
 11
149.912
 21
85.6177
 31
0.0
  0
LINE
  5
DF
330
18
100
AcDbEntity
  8
0
  6
AIGENLINE001
100
AcDbLine
 10
146.6119999999999
 20
84.19870000000001
 30
0.0
 11
146.6119999999999
 21
107.8359999999999
 31
0.0
  0
LINE
  5
E0
330
18
100
AcDbEntity
  8
0
100
AcDbLine
 10
167.612
 20
109.118
 30
0.0
 11
167.612
 21
89.11759999999999
 31
0.0
  0
ARC
  5
E1
330
18
100
AcDbEntity
  8
0
100
AcDbCircle
 10
108.5212419999999
 20
100.62332
 30
0.0
 40
1.490458
100
AcDbArc
 50
144.409747
 51
159.645056
  0
ARC
  5
E2
330
18
100
AcDbEntity
  8
0
100
AcDbCircle
 10
108.542749
 20
100.590143
 30
0.0
 40
1.527323999999999
100
AcDbArc
 50
90.49844699999999
 51
143.867209
  0
ARC
  5
E3
330
18
100
AcDbEntity
  8
0
100
AcDbCircle
 10
27.06053
 20
189.5942559999999
 30
0.0
 40
121.7582689999999
100
AcDbArc
 50
304.9005339999999
 51
305.859687
  0
ARC
  5
E4
330
18
100
AcDbEntity
  8
0
100
AcDbCircle
 10
77.37468599999999
 20
119.7322679999999
 30
0.0
 40
35.664501
100
AcDbArc
 50
306.09744
 51
313.214402
  0
ARC
  5
E5
330
18
100
AcDbEntity
  8
0
100
AcDbCircle
 10
84.54815600000001
 20
111.775563
 30
0.0
 40
24.95476099999999
100
AcDbArc
 50
313.7199749999999
 51
334.778204
  0
LINE
  5
E6
330
18
100
AcDbEntity
  8
0
100
AcDbLine
 10
94.8379
 20
89.11759999999999
 30
0.0
 11
76.98730000000001
 21
89.11759999999999
 31
0.0
  0
ARC
  5
E7
330
18
100
AcDbEntity
  8
0
100
AcDbCircle
 10
94.62969800000001
 20
92.94844499999999
 30
0.0
 40
3.836491999999999
100
AcDbArc
 50
273.110566
 51
303.1022459999999
  0
ARC
  5
E8
330
18
100
AcDbEntity
  8
0
100
AcDbCircle
 10
127.0627459999999
 20
189.806587
 30
0.0
 40
122.017226
100
AcDbArc
 50
234.1423029999999
 51
235.099444
  0
ARC
  5
E9
330
18
100
AcDbEntity
  8
0
100
AcDbCircle
 10
76.59634
 20
119.72778
 30
0.0
 40
35.658546
100
AcDbArc
 50
226.78527
 51
233.903462
  0
ARC
  5
EA
330
18
100
AcDbEntity
  8
0
100
AcDbCircle
 10
69.429067
 20
111.777449
 30
0.0
 40
24.957698
100
AcDbArc
 50
205.223426
 51
226.279258
  0
LINE
  5
EB
330
18
100
AcDbEntity
  8
0
100
AcDbLine
 10
72.45440000000001
 20
85.6177
 30
0.0
 11
33.56609999999999
 21
85.6177
 31
0.0
  0
LINE
  5
EC
330
18
100
AcDbEntity
  8
0
100
AcDbLine
 10
34.8437
 20
103.407
 30
0.0
 11
34.2515
 21
105.6179999999999
 31
0.0
  0
LINE
  5
ED
330
18
100
AcDbEntity
  8
0
100
AcDbLine
 10
34.2515
 20
105.6179999999999
 30
0.0
 11
33.6591
 21
103.407
 31
0.0
  0
LINE
  5
EE
330
18
100
AcDbEntity
  8
0
100
AcDbLine
 10
33.6591
 20
103.407
 30
0.0
 11
34.8437
 21
103.407
 31
0.0
  0
LINE
  5
EF
330
18
100
AcDbEntity
  8
0
100
AcDbLine
 10
33.6738
 20
111.3289999999999
 30
0.0
 11
34.266
 21
109.118
 31
0.0
  0
LINE
  5
F0
330
18
100
AcDbEntity
  8
0
100
AcDbLine
 10
34.266
 20
109.118
 30
0.0
 11
34.8584
 21
111.3289999999999
 31
0.0
  0
LINE
  5
F1
330
18
100
AcDbEntity
  8
0
100
AcDbLine
 10
34.8584
 20
111.3289999999999
 30
0.0
 11
33.6738
 21
111.3289999999999
 31
0.0
  0
LINE
  5
F2
330
18
100
AcDbEntity
  8
0
100
AcDbLine
 10
33.6738
 20
87.82909999999999
 30
0.0
 11
34.266
 21
85.6184
 31
0.0
  0
LINE
  5
F3
330
18
100
AcDbEntity
  8
0
100
AcDbLine
 10
34.266
 20
85.6184
 30
0.0
 11
34.8584
 21
87.82909999999999
 31
0.0
  0
LINE
  5
F4
330
18
100
AcDbEntity
  8
0
100
AcDbLine
 10
34.8584
 20
87.82909999999999
 30
0.0
 11
33.6738
 21
87.82909999999999
 31
0.0
  0
LINE
  5
F5
330
18
100
AcDbEntity
  8
0
100
AcDbLine
 10
34.2515
 20
113.1809999999999
 30
0.0
 11
34.2515
 21
85.6177
 31
0.0
  0
LINE
  5
F6
330
18
100
AcDbEntity
  8
0
100
AcDbLine
 10
41.33189999999999
 20
99.90670000000001
 30
0.0
 11
40.7397
 21
102.117
 31
0.0
  0
LINE
  5
F7
330
18
100
AcDbEntity
  8
0
100
AcDbLine
 10
40.7397
 20
102.117
 30
0.0
 11
40.1473
 21
99.90670000000001
 31
0.0
  0
LINE
  5
F8
330
18
100
AcDbEntity
  8
0
100
AcDbLine
 10
40.1473
 20
99.90670000000001
 30
0.0
 11
41.33189999999999
 21
99.90670000000001
 31
0.0
  0
LINE
  5
F9
330
18
100
AcDbEntity
  8
0
100
AcDbLine
 10
40.1475
 20
107.8279999999999
 30
0.0
 11
40.7397
 21
105.6179999999999
 31
0.0
  0
LINE
  5
FA
330
18
100
AcDbEntity
  8
0
100
AcDbLine
 10
40.7397
 20
105.6179999999999
 30
0.0
 11
41.3321
 21
107.8279999999999
 31
0.0
  0
LINE
  5
FB
330
18
100
AcDbEntity
  8
0
100
AcDbLine
 10
41.3321
 20
107.8279999999999
 30
0.0
 11
40.1475
 21
107.8279999999999
 31
0.0
  0
LINE
  5
FC
330
18
100
AcDbEntity
  8
0
100
AcDbLine
 10
40.7397
 20
108.501
 30
0.0
 11
40.7397
 21
98.90830000000001
 31
0.0
  0
LINE
  5
FD
330
18
100
AcDbEntity
  8
0
100
AcDbLine
 10
43.7692
 20
102.117
 30
0.0
 11
40.2479
 21
102.117
 31
0.0
  0
LINE
  5
FE
330
18
100
AcDbEntity
  8
0
100
AcDbLine
 10
43.78849999999999
 20
109.118
 30
0.0
 11
33.6852
 21
109.118
 31
0.0
  0
LINE
  5
FF
330
18
100
AcDbEntity
  8
0
100
AcDbLine
 10
43.6986
 20
105.6179999999999
 30
0.0
 11
33.6047
 21
105.6179999999999
 31
0.0
  0
LINE
  5
100
330
18
100
AcDbEntity
  8
0
100
AcDbLine
 10
98.68380000000001
 20
103.4059999999999
 30
0.0
 11
98.0916
 21
105.617
 31
0.0
  0
LINE
  5
101
330
18
100
AcDbEntity
  8
0
100
AcDbLine
 10
98.0916
 20
105.617
 30
0.0
 11
97.49920000000001
 21
103.4059999999999
 31
0.0
  0
LINE
  5
102
330
18
100
AcDbEntity
  8
0
100
AcDbLine
 10
97.49920000000001
 20
103.4059999999999
 30
0.0
 11
98.68380000000001
 21
103.4059999999999
 31
0.0
  0
LINE
  5
103
330
18
100
AcDbEntity
  8
0
100
AcDbLine
 10
97.49970000000001
 20
101.3279999999999
 30
0.0
 11
98.0916
 21
99.1177
 31
0.0
  0
LINE
  5
104
330
18
100
AcDbEntity
  8
0
100
AcDbLine
 10
98.0916
 20
99.1177
 30
0.0
 11
98.6842
 21
101.3279999999999
 31
0.0
  0
LINE
  5
105
330
18
100
AcDbEntity
  8
0
100
AcDbLine
 10
98.6842
 20
101.3279999999999
 30
0.0
 11
97.49970000000001
 21
101.3279999999999
 31
0.0
  0
LINE
  5
106
330
18
100
AcDbEntity
  8
0
100
AcDbLine
 10
98.0916
 20
105.6179999999999
 30
0.0
 11
98.0916
 21
94.7338
 31
0.0
  0
LINE
  5
107
330
18
100
AcDbEntity
  8
0
100
AcDbLine
 10
94.18139999999999
 20
99.1177
 30
0.0
 11
98.849
 21
99.1177
 31
0.0
  0
LINE
  5
108
330
18
100
AcDbEntity
  8
0
100
AcDbLine
 10
65.19849999999999
 20
115.355
 30
0.0
 11
62.9881
 21
114.762
 31
0.0
  0
LINE
  5
109
330
18
100
AcDbEntity
  8
0
100
AcDbLine
 10
62.9881
 20
114.762
 30
0.0
 11
65.19849999999999
 21
114.1699999999999
 31
0.0
  0
LINE
  5
10A
330
18
100
AcDbEntity
  8
0
100
AcDbLine
 10
65.19849999999999
 20
114.1699999999999
 30
0.0
 11
65.19849999999999
 21
115.355
 31
0.0
  0
LINE
  5
10B
330
18
100
AcDbEntity
  8
0
100
AcDbLine
 10
88.7758
 20
114.185
 30
0.0
 11
90.9862
 21
114.7769999999999
 31
0.0
  0
LINE
  5
10C
330
18
100
AcDbEntity
  8
0
100
AcDbLine
 10
90.9862
 20
114.7769999999999
 30
0.0
 11
88.7758
 21
115.369
 31
0.0
  0
LINE
  5
10D
330
18
100
AcDbEntity
  8
0
100
AcDbLine
 10
88.7758
 20
115.369
 30
0.0
 11
88.7758
 21
114.185
 31
0.0
  0
LINE
  5
10E
330
18
100
AcDbEntity
  8
0
100
AcDbLine
 10
62.98729999999999
 20
114.762
 30
0.0
 11
90.9871
 21
114.762
 31
0.0
  0
LINE
  5
10F
330
18
100
AcDbEntity
  8
0
  6
AIGENLINE001
100
AcDbLine
 10
62.98729999999999
 20
216.802
 30
0.0
 11
62.98729999999999
 21
208.844
 31
0.0
  0
LINE
  5
110
330
18
100
AcDbEntity
  8
0
  6
AIGENLINE001
100
AcDbLine
 10
90.9871
 20
216.8229999999999
 30
0.0
 11
90.9871
 21
208.8229999999999
 31
0.0
  0
LINE
  5
111
330
18
100
AcDbEntity
  8
0
100
AcDbLine
 10
62.98729999999999
 20
115.322
 30
0.0
 11
62.98729999999999
 21
101.7329999999999
 31
0.0
  0
LINE
  5
112
330
18
100
AcDbEntity
  8
0
100
AcDbLine
 10
90.9871
 20
115.322
 30
0.0
 11
90.9871
 21
101.662
 31
0.0
  0
LINE
  5
113
330
18
100
AcDbEntity
  8
0
100
AcDbLine
 10
79.369
 20
209.792
 30
0.0
 11
78.2247
 21
207.81
 31
0.0
  0
LINE
  5
114
330
18
100
AcDbEntity
  8
0
100
AcDbLine
 10
78.2247
 20
207.81
 30
0.0
 11
80.20659999999999
 21
208.9539999999999
 31
0.0
  0
LINE
  5
115
330
18
100
AcDbEntity
  8
0
100
AcDbLine
 10
80.20659999999999
 20
208.9539999999999
 30
0.0
 11
79.369
 21
209.792
 31
0.0
  0
LINE
  5
116
330
18
100
AcDbEntity
  8
0
100
AcDbLine
 10
74.4733
 20
203.2209999999999
 30
0.0
 11
75.61759999999999
 21
205.203
 31
0.0
  0
LINE
  5
117
330
18
100
AcDbEntity
  8
0
100
AcDbLine
 10
75.61759999999999
 20
205.203
 30
0.0
 11
73.63559999999999
 21
204.059
 31
0.0
  0
LINE
  5
118
330
18
100
AcDbEntity
  8
0
100
AcDbLine
 10
73.63559999999999
 20
204.059
 30
0.0
 11
74.4733
 21
203.2209999999999
 31
0.0
  0
LINE
  5
119
330
18
100
AcDbEntity
  8
0
100
AcDbLine
 10
71.0555
 20
200.6409999999999
 30
0.0
 11
80.28119999999999
 21
209.867
 31
0.0
  0
LINE
  5
11A
330
18
100
AcDbEntity
  8
0
100
AcDbLine
 10
57.1841
 20
202.284
 30
0.0
 11
57.7763
 21
200.0729999999999
 31
0.0
  0
LINE
  5
11B
330
18
100
AcDbEntity
  8
0
100
AcDbLine
 10
57.7763
 20
200.0729999999999
 30
0.0
 11
58.3687
 21
202.284
 31
0.0
  0
LINE
  5
11C
330
18
100
AcDbEntity
  8
0
100
AcDbLine
 10
58.3687
 20
202.284
 30
0.0
 11
57.1841
 21
202.284
 31
0.0
  0
LINE
  5
11D
330
18
100
AcDbEntity
  8
0
100
AcDbLine
 10
57.1841
 20
216.784
 30
0.0
 11
57.7763
 21
214.5729999999999
 31
0.0
  0
LINE
  5
11E
330
18
100
AcDbEntity
  8
0
100
AcDbLine
 10
57.7763
 20
214.5729999999999
 30
0.0
 11
58.3687
 21
216.784
 31
0.0
  0
LINE
  5
11F
330
18
100
AcDbEntity
  8
0
100
AcDbLine
 10
58.3687
 20
216.784
 30
0.0
 11
57.1841
 21
216.784
 31
0.0
  0
LINE
  5
120
330
18
100
AcDbEntity
  8
0
100
AcDbLine
 10
58.3686
 20
204.3629999999999
 30
0.0
 11
57.7763
 21
206.5729999999999
 31
0.0
  0
LINE
  5
121
330
18
100
AcDbEntity
  8
0
100
AcDbLine
 10
57.7763
 20
206.5729999999999
 30
0.0
 11
57.18399999999999
 21
204.3629999999999
 31
0.0
  0
LINE
  5
122
330
18
100
AcDbEntity
  8
0
100
AcDbLine
 10
57.18399999999999
 20
204.3629999999999
 30
0.0
 11
58.3686
 21
204.3629999999999
 31
0.0
  0
LINE
  5
123
330
18
100
AcDbEntity
  8
0
100
AcDbLine
 10
57.7763
 20
200.0729999999999
 30
0.0
 11
57.7763
 21
219.579
 31
0.0
  0
LINE
  5
124
330
18
100
AcDbEntity
  8
0
100
AcDbLine
 10
57.2839
 20
206.5729999999999
 30
0.0
 11
63.0987
 21
206.5729999999999
 31
0.0
  0
LINE
  5
125
330
18
100
AcDbEntity
  8
0
100
AcDbLine
 10
79.1976
 20
221.0809999999999
 30
0.0
 11
76.9872
 21
220.489
 31
0.0
  0
LINE
  5
126
330
18
100
AcDbEntity
  8
0
100
AcDbLine
 10
76.9872
 20
220.489
 30
0.0
 11
79.1976
 21
219.896
 31
0.0
  0
LINE
  5
127
330
18
100
AcDbEntity
  8
0
100
AcDbLine
 10
79.1976
 20
219.896
 30
0.0
 11
79.1976
 21
221.0809999999999
 31
0.0
  0
LINE
  5
128
330
18
100
AcDbEntity
  8
0
100
AcDbLine
 10
69.1981
 20
221.0809999999999
 30
0.0
 11
66.9877
 21
220.489
 31
0.0
  0
LINE
  5
129
330
18
100
AcDbEntity
  8
0
100
AcDbLine
 10
66.9877
 20
220.489
 30
0.0
 11
69.1981
 21
219.896
 31
0.0
  0
LINE
  5
12A
330
18
100
AcDbEntity
  8
0
100
AcDbLine
 10
69.1981
 20
219.896
 30
0.0
 11
69.1981
 21
221.0809999999999
 31
0.0
  0
LINE
  5
12B
330
18
100
AcDbEntity
  8
0
100
AcDbLine
 10
74.7766
 20
219.9109999999999
 30
0.0
 11
76.9872
 21
220.5029999999999
 31
0.0
  0
LINE
  5
12C
330
18
100
AcDbEntity
  8
0
100
AcDbLine
 10
76.9872
 20
220.5029999999999
 30
0.0
 11
74.7766
 21
221.0949999999999
 31
0.0
  0
LINE
  5
12D
330
18
100
AcDbEntity
  8
0
100
AcDbLine
 10
74.7766
 20
221.0949999999999
 30
0.0
 11
74.7766
 21
219.9109999999999
 31
0.0
  0
LINE
  5
12E
330
18
100
AcDbEntity
  8
0
100
AcDbLine
 10
84.7761
 20
219.9109999999999
 30
0.0
 11
86.9866
 21
220.5029999999999
 31
0.0
  0
LINE
  5
12F
330
18
100
AcDbEntity
  8
0
100
AcDbLine
 10
86.9866
 20
220.5029999999999
 30
0.0
 11
84.7761
 21
221.0949999999999
 31
0.0
  0
LINE
  5
130
330
18
100
AcDbEntity
  8
0
100
AcDbLine
 10
84.7761
 20
221.0949999999999
 30
0.0
 11
84.7761
 21
219.9109999999999
 31
0.0
  0
LINE
  5
131
330
18
100
AcDbEntity
  8
0
100
AcDbLine
 10
66.9869
 20
220.489
 30
0.0
 11
86.9875
 21
220.489
 31
0.0
  0
LINE
  5
132
330
18
100
AcDbEntity
  8
0
100
AcDbLine
 10
66.9872
 20
221.294
 30
0.0
 11
66.9872
 21
212.309
 31
0.0
  0
LINE
  5
133
330
18
100
AcDbEntity
  8
0
100
AcDbLine
 10
86.9875
 20
221.294
 30
0.0
 11
86.9875
 21
212.309
 31
0.0
  0
LINE
  5
134
330
18
100
AcDbEntity
  8
0
100
AcDbLine
 10
76.9872
 20
221.294
 30
0.0
 11
76.9872
 21
216.8039999999999
 31
0.0
  0
LINE
  5
135
330
18
100
AcDbEntity
  8
0
100
AcDbLine
 10
105.987
 20
157.2659999999999
 30
0.0
 11
105.987
 21
164.994
 31
0.0
  0
LINE
  5
136
330
18
100
AcDbEntity
  8
0
100
AcDbLine
 10
47.98699999999999
 20
157.2659999999999
 30
0.0
 11
47.98699999999999
 21
165.101
 31
0.0
  0
LINE
  5
137
330
18
100
AcDbEntity
  8
0
100
AcDbLine
 10
117.511
 20
200.0729999999999
 30
0.0
 11
111.043
 21
200.0729999999999
 31
0.0
  0
LINE
  5
138
330
18
100
AcDbEntity
  8
0
100
AcDbLine
 10
37.2595
 20
195.784
 30
0.0
 11
37.8517
 21
193.574
 31
0.0
  0
LINE
  5
139
330
18
100
AcDbEntity
  8
0
100
AcDbLine
 10
37.8517
 20
193.574
 30
0.0
 11
38.44409999999999
 21
195.784
 31
0.0
  0
LINE
  5
13A
330
18
100
AcDbEntity
  8
0
100
AcDbLine
 10
38.44409999999999
 20
195.784
 30
0.0
 11
37.2595
 21
195.784
 31
0.0
  0
LINE
  5
13B
330
18
100
AcDbEntity
  8
0
100
AcDbLine
 10
38.4294
 20
212.3619999999999
 30
0.0
 11
37.8372
 21
214.572
 31
0.0
  0
LINE
  5
13C
330
18
100
AcDbEntity
  8
0
100
AcDbLine
 10
37.8372
 20
214.572
 30
0.0
 11
37.24479999999999
 21
212.3619999999999
 31
0.0
  0
LINE
  5
13D
330
18
100
AcDbEntity
  8
0
100
AcDbLine
 10
37.24479999999999
 20
212.3619999999999
 30
0.0
 11
38.4294
 21
212.3619999999999
 31
0.0
  0
LINE
  5
13E
330
18
100
AcDbEntity
  8
0
100
AcDbLine
 10
37.8372
 20
193.5729999999999
 30
0.0
 11
37.8372
 21
214.5729999999999
 31
0.0
  0
LINE
  5
13F
330
18
100
AcDbEntity
  8
0
100
AcDbLine
 10
69.44929999999999
 20
193.5729999999999
 30
0.0
 11
37.2658
 21
193.5729999999999
 31
0.0
  0
LINE
  5
140
330
18
100
AcDbEntity
  8
0
100
AcDbLine
 10
43.6913
 20
214.5729999999999
 30
0.0
 11
37.1559
 21
214.5729999999999
 31
0.0
  0
LINE
  5
141
330
18
100
AcDbEntity
  8
0
100
AcDbLine
 10
111.6979999999999
 20
158.426
 30
0.0
 11
109.488
 21
157.834
 31
0.0
  0
LINE
  5
142
330
18
100
AcDbEntity
  8
0
100
AcDbLine
 10
109.488
 20
157.834
 30
0.0
 11
111.6979999999999
 21
157.241
 31
0.0
  0
LINE
  5
143
330
18
100
AcDbEntity
  8
0
100
AcDbLine
 10
111.6979999999999
 20
157.241
 30
0.0
 11
111.6979999999999
 21
158.426
 31
0.0
  0
LINE
  5
144
330
18
100
AcDbEntity
  8
0
100
AcDbLine
 10
50.1974
 20
158.426
 30
0.0
 11
47.98699999999999
 21
157.834
 31
0.0
  0
LINE
  5
145
330
18
100
AcDbEntity
  8
0
100
AcDbLine
 10
47.98699999999999
 20
157.834
 30
0.0
 11
50.1974
 21
157.241
 31
0.0
  0
LINE
  5
146
330
18
100
AcDbEntity
  8
0
100
AcDbLine
 10
50.1974
 20
157.241
 30
0.0
 11
50.1974
 21
158.426
 31
0.0
  0
LINE
  5
147
330
18
100
AcDbEntity
  8
0
100
AcDbLine
 10
42.2764
 20
157.241
 30
0.0
 11
44.4871
 21
157.834
 31
0.0
  0
LINE
  5
148
330
18
100
AcDbEntity
  8
0
100
AcDbLine
 10
44.4871
 20
157.834
 30
0.0
 11
42.2764
 21
158.426
 31
0.0
  0
LINE
  5
149
330
18
100
AcDbEntity
  8
0
100
AcDbLine
 10
42.2764
 20
158.426
 30
0.0
 11
42.2764
 21
157.241
 31
0.0
  0
LINE
  5
14A
330
18
100
AcDbEntity
  8
0
100
AcDbLine
 10
103.777
 20
157.241
 30
0.0
 11
105.987
 21
157.834
 31
0.0
  0
LINE
  5
14B
330
18
100
AcDbEntity
  8
0
100
AcDbLine
 10
105.987
 20
157.834
 30
0.0
 11
103.777
 21
158.426
 31
0.0
  0
LINE
  5
14C
330
18
100
AcDbEntity
  8
0
100
AcDbLine
 10
103.777
 20
158.426
 30
0.0
 11
103.777
 21
157.241
 31
0.0
  0
LINE
  5
14D
330
18
100
AcDbEntity
  8
0
100
AcDbLine
 10
37.7871
 20
157.834
 30
0.0
 11
115.744
 21
157.834
 31
0.0
  0
LINE
  5
14E
330
18
100
AcDbEntity
  8
0
100
AcDbLine
 10
117.296
 20
169.5729999999999
 30
0.0
 11
111.2579999999999
 21
169.5729999999999
 31
0.0
  0
LINE
  5
14F
330
18
100
AcDbEntity
  8
0
100
AcDbLine
 10
117.365
 20
163.8619999999999
 30
0.0
 11
116.7729999999999
 21
166.0729999999999
 31
0.0
  0
LINE
  5
150
330
18
100
AcDbEntity
  8
0
100
AcDbLine
 10
116.7729999999999
 20
166.0729999999999
 30
0.0
 11
116.18
 21
163.8619999999999
 31
0.0
  0
LINE
  5
151
330
18
100
AcDbEntity
  8
0
100
AcDbLine
 10
116.18
 20
163.8619999999999
 30
0.0
 11
117.365
 21
163.8619999999999
 31
0.0
  0
LINE
  5
152
330
18
100
AcDbEntity
  8
0
100
AcDbLine
 10
117.365
 20
197.863
 30
0.0
 11
116.7729999999999
 21
200.0729999999999
 31
0.0
  0
LINE
  5
153
330
18
100
AcDbEntity
  8
0
100
AcDbLine
 10
116.7729999999999
 20
200.0729999999999
 30
0.0
 11
116.18
 21
197.863
 31
0.0
  0
LINE
  5
154
330
18
100
AcDbEntity
  8
0
100
AcDbLine
 10
116.18
 20
197.863
 30
0.0
 11
117.365
 21
197.863
 31
0.0
  0
LINE
  5
155
330
18
100
AcDbEntity
  8
0
100
AcDbLine
 10
117.365
 20
212.3619999999999
 30
0.0
 11
116.7729999999999
 21
214.572
 31
0.0
  0
LINE
  5
156
330
18
100
AcDbEntity
  8
0
100
AcDbLine
 10
116.7729999999999
 20
214.572
 30
0.0
 11
116.18
 21
212.3619999999999
 31
0.0
  0
LINE
  5
157
330
18
100
AcDbEntity
  8
0
100
AcDbLine
 10
116.18
 20
212.3619999999999
 30
0.0
 11
117.365
 21
212.3619999999999
 31
0.0
  0
LINE
  5
158
330
18
100
AcDbEntity
  8
0
100
AcDbLine
 10
116.18
 20
202.284
 30
0.0
 11
116.7729999999999
 21
200.0729999999999
 31
0.0
  0
LINE
  5
159
330
18
100
AcDbEntity
  8
0
100
AcDbLine
 10
116.7729999999999
 20
200.0729999999999
 30
0.0
 11
117.365
 21
202.284
 31
0.0
  0
LINE
  5
15A
330
18
100
AcDbEntity
  8
0
100
AcDbLine
 10
117.365
 20
202.284
 30
0.0
 11
116.18
 21
202.284
 31
0.0
  0
LINE
  5
15B
330
18
100
AcDbEntity
  8
0
100
AcDbLine
 10
116.18
 20
171.783
 30
0.0
 11
116.7729999999999
 21
169.5729999999999
 31
0.0
  0
LINE
  5
15C
330
18
100
AcDbEntity
  8
0
100
AcDbLine
 10
116.7729999999999
 20
169.5729999999999
 30
0.0
 11
117.365
 21
171.783
 31
0.0
  0
LINE
  5
15D
330
18
100
AcDbEntity
  8
0
100
AcDbLine
 10
117.365
 20
171.783
 30
0.0
 11
116.18
 21
171.783
 31
0.0
  0
LINE
  5
15E
330
18
100
AcDbEntity
  8
0
100
AcDbLine
 10
116.7729999999999
 20
214.5729999999999
 30
0.0
 11
116.7729999999999
 21
162.935
 31
0.0
  0
LINE
  5
15F
330
18
100
AcDbEntity
  8
0
100
AcDbLine
 10
123.096
 20
168.284
 30
0.0
 11
123.689
 21
166.074
 31
0.0
  0
LINE
  5
160
330
18
100
AcDbEntity
  8
0
100
AcDbLine
 10
123.689
 20
166.074
 30
0.0
 11
124.281
 21
168.284
 31
0.0
  0
LINE
  5
161
330
18
100
AcDbEntity
  8
0
100
AcDbLine
 10
124.281
 20
168.284
 30
0.0
 11
123.096
 21
168.284
 31
0.0
  0
LINE
  5
162
330
18
100
AcDbEntity
  8
0
100
AcDbLine
 10
124.266
 20
212.3619999999999
 30
0.0
 11
123.6739999999999
 21
214.572
 31
0.0
  0
LINE
  5
163
330
18
100
AcDbEntity
  8
0
100
AcDbLine
 10
123.6739999999999
 20
214.572
 30
0.0
 11
123.082
 21
212.3619999999999
 31
0.0
  0
LINE
  5
164
330
18
100
AcDbEntity
  8
0
100
AcDbLine
 10
123.082
 20
212.3619999999999
 30
0.0
 11
124.266
 21
212.3619999999999
 31
0.0
  0
LINE
  5
165
330
18
100
AcDbEntity
  8
0
100
AcDbLine
 10
123.6739999999999
 20
166.0729999999999
 30
0.0
 11
123.6739999999999
 21
214.5729999999999
 31
0.0
  0
LINE
  5
166
330
18
100
AcDbEntity
  8
0
100
AcDbLine
 10
124.526
 20
166.0729999999999
 30
0.0
 11
108.5439999999999
 21
166.0729999999999
 31
0.0
  0
LINE
  5
167
330
18
100
AcDbEntity
  8
0
100
AcDbLine
 10
124.526
 20
214.5729999999999
 30
0.0
 11
110.0489999999999
 21
214.5729999999999
 31
0.0
  0
LINE
  5
168
330
18
100
AcDbEntity
  8
0
100
AcDbLine
 10
107.276
 20
149.8839999999999
 30
0.0
 11
109.487
 21
150.477
 31
0.0
  0
LINE
  5
169
330
18
100
AcDbEntity
  8
0
100
AcDbLine
 10
109.487
 20
150.477
 30
0.0
 11
107.276
 21
151.0689999999999
 31
0.0
  0
LINE
  5
16A
330
18
100
AcDbEntity
  8
0
100
AcDbLine
 10
107.276
 20
151.0689999999999
 30
0.0
 11
107.276
 21
149.8839999999999
 31
0.0
  0
LINE
  5
16B
330
18
100
AcDbEntity
  8
0
100
AcDbLine
 10
46.69839999999999
 20
151.0539999999999
 30
0.0
 11
44.488
 21
150.462
 31
0.0
  0
LINE
  5
16C
330
18
100
AcDbEntity
  8
0
100
AcDbLine
 10
44.488
 20
150.462
 30
0.0
 11
46.69839999999999
 21
149.87
 31
0.0
  0
LINE
  5
16D
330
18
100
AcDbEntity
  8
0
100
AcDbLine
 10
46.69839999999999
 20
149.87
 30
0.0
 11
46.69839999999999
 21
151.0539999999999
 31
0.0
  0
LINE
  5
16E
330
18
100
AcDbEntity
  8
0
100
AcDbLine
 10
109.488
 20
150.462
 30
0.0
 11
44.4871
 21
150.462
 31
0.0
  0
LINE
  5
16F
330
18
100
AcDbEntity
  8
0
100
AcDbLine
 10
109.488
 20
149.894
 30
0.0
 11
109.488
 21
166.9299999999999
 31
0.0
  0
LINE
  5
170
330
18
100
AcDbEntity
  8
0
100
AcDbLine
 10
44.4871
 20
149.894
 30
0.0
 11
44.4871
 21
167.252
 31
0.0
  0
LINE
  5
171
330
18
100
AcDbEntity
  8
0
100
AcDbLine
 10
49.48699999999999
 20
166.0729999999999
 30
0.0
 11
104.487
 21
166.0729999999999
 31
0.0
  0
LINE
  5
172
330
18
100
AcDbEntity
  8
0
100
AcDbLine
 10
109.488
 20
212.073
 30
0.0
 11
109.488
 21
171.0729999999999
 31
0.0
  0
ARC
  5
173
330
18
100
AcDbEntity
  8
0
100
AcDbCircle
 10
104.4873909999999
 20
171.0728969999999
 30
0.0
 40
5.000157999999999
100
AcDbArc
 50
269.9990329999999
 51
359.9990029999999
  0
LINE
  5
174
330
18
100
AcDbEntity
  8
0
100
AcDbLine
 10
44.4871
 20
212.073
 30
0.0
 11
44.4871
 21
171.0729999999999
 31
0.0
  0
ARC
  5
175
330
18
100
AcDbEntity
  8
0
100
AcDbCircle
 10
49.487128
 20
171.0727229999999
 30
0.0
 40
4.999983999999999
100
AcDbArc
 50
179.998983
 51
269.9990329999999
  0
LINE
  5
176
330
18
100
AcDbEntity
  8
0
100
AcDbLine
 10
49.48699999999999
 20
169.5729999999999
 30
0.0
 11
104.487
 21
169.5729999999999
 31
0.0
  0
LINE
  5
177
330
18
100
AcDbEntity
  8
0
100
AcDbLine
 10
47.98699999999999
 20
210.0729999999999
 30
0.0
 11
47.98699999999999
 21
171.0729999999999
 31
0.0
  0
ARC
  5
178
330
18
100
AcDbEntity
  8
0
100
AcDbCircle
 10
49.5446
 20
171.1303669999999
 30
0.0
 40
1.558624
100
AcDbArc
 50
182.1163299999999
 51
267.8836999999999
  0
LINE
  5
179
330
18
100
AcDbEntity
  8
0
100
AcDbLine
 10
49.48699999999999
 20
200.0729999999999
 30
0.0
 11
104.487
 21
200.0729999999999
 31
0.0
  0
ARC
  5
17A
330
18
100
AcDbEntity
  8
0
100
AcDbCircle
 10
49.54499699999999
 20
198.514987
 30
0.0
 40
1.559037
100
AcDbArc
 50
92.13037000000001
 51
177.869601
  0
LINE
  5
17B
330
18
100
AcDbEntity
  8
0
100
AcDbLine
 10
105.987
 20
210.0729999999999
 30
0.0
 11
105.987
 21
171.0729999999999
 31
0.0
  0
ARC
  5
17C
330
18
100
AcDbEntity
  8
0
100
AcDbCircle
 10
104.487306
 20
171.07281
 30
0.0
 40
1.500004
100
AcDbArc
 50
270.00002
 51
359.9999899999999
  0
ARC
  5
17D
330
18
100
AcDbEntity
  8
0
100
AcDbCircle
 10
104.487306
 20
198.5729409999999
 30
0.0
 40
1.500004
100
AcDbArc
 50
0.00001
 51
89.99998000000001
  0
LINE
  5
17E
330
18
100
AcDbEntity
  8
0
100
AcDbLine
 10
104.9879999999999
 20
211.0729999999999
 30
0.0
 11
108.9879999999999
 21
211.0729999999999
 31
0.0
  0
LINE
  5
17F
330
18
100
AcDbEntity
  8
0
100
AcDbLine
 10
48.9872
 20
211.0729999999999
 30
0.0
 11
104.9879999999999
 21
211.0729999999999
 31
0.0
  0
ARC
  5
180
330
18
100
AcDbEntity
  8
0
100
AcDbCircle
 10
104.948733
 20
210.034462
 30
0.0
 40
1.039295
100
AcDbArc
 50
2.129884
 51
87.860235
  0
LINE
  5
181
330
18
100
AcDbEntity
  8
0
100
AcDbLine
 10
44.98699999999999
 20
211.0729999999999
 30
0.0
 11
48.9872
 21
211.0729999999999
 31
0.0
  0
ARC
  5
182
330
18
100
AcDbEntity
  8
0
100
AcDbCircle
 10
48.98707
 20
210.0730009999999
 30
0.0
 40
1.000032
100
AcDbArc
 50
89.995065
 51
179.995036
  0
LINE
  5
183
330
18
100
AcDbEntity
  8
0
100
AcDbLine
 10
44.4871
 20
213.5729999999999
 30
0.0
 11
44.4871
 21
212.073
 31
0.0
  0
ARC
  5
184
330
18
100
AcDbEntity
  8
0
100
AcDbCircle
 10
45.00644099999999
 20
211.5923229999999
 30
0.0
 40
0.519653
100
AcDbArc
 50
182.1209379999999
 51
267.859351
  0
LINE
  5
185
330
18
100
AcDbEntity
  8
0
100
AcDbLine
 10
45.48709999999999
 20
214.5729999999999
 30
0.0
 11
108.488
 21
214.5729999999999
 31
0.0
  0
ARC
  5
186
330
18
100
AcDbEntity
  8
0
100
AcDbCircle
 10
45.487175
 20
213.5730679999999
 30
0.0
 40
1.000032
100
AcDbArc
 50
90.00493500000001
 51
180.0049449999999
  0
LINE
  5
187
330
18
100
AcDbEntity
  8
0
100
AcDbLine
 10
109.488
 20
213.5729999999999
 30
0.0
 11
109.488
 21
212.073
 31
0.0
  0
ARC
  5
188
330
18
100
AcDbEntity
  8
0
100
AcDbCircle
 10
108.968826
 20
211.591749
 30
0.0
 40
0.5190580000000001
100
AcDbArc
 50
272.079708
 51
357.940042
  0
ARC
  5
189
330
18
100
AcDbEntity
  8
0
100
AcDbCircle
 10
108.448797
 20
213.534361
 30
0.0
 40
1.03947
100
AcDbArc
 50
2.129281
 51
87.85096899999999
  0
LINE
  5
18A
330
18
100
AcDbEntity
  8
0
  6
AIGENLINE001
100
AcDbLine
 10
76.9872
 20
216.081
 30
0.0
 11
76.9872
 21
163.972
 31
0.0
  0
LINE
  5
18B
330
18
100
AcDbEntity
  8
0
  6
AIGENLINE001
100
AcDbLine
 10
63.4961
 20
206.5729999999999
 30
0.0
 11
70.2633
 21
206.5729999999999
 31
0.0
  0
LINE
  5
18C
330
18
100
AcDbEntity
  8
0
  6
AIGENLINE001
100
AcDbLine
 10
73.5925
 20
206.5729999999999
 30
0.0
 11
80.35989999999999
 21
206.5729999999999
 31
0.0
  0
LINE
  5
18D
330
18
100
AcDbEntity
  8
0
  6
AIGENLINE001
100
AcDbLine
 10
83.59250000000001
 20
206.5729999999999
 30
0.0
 11
90.35989999999999
 21
206.5729999999999
 31
0.0
  0
ARC
  5
18E
330
18
100
AcDbEntity
  8
0
100
AcDbCircle
 10
76.98725999999999
 20
193.572784
 30
0.0
 40
2.300047
100
AcDbArc
 50
0.002155
 51
90.00212600000001
  0
ARC
  5
18F
330
18
100
AcDbEntity
  8
0
100
AcDbCircle
 10
76.98717499999999
 20
193.57287
 30
0.0
 40
2.299961
100
AcDbArc
 50
90.0
 51
179.9999699999999
  0
ARC
  5
190
330
18
100
AcDbEntity
  8
0
100
AcDbCircle
 10
76.98717399999999
 20
193.57287
 30
0.0
 40
2.29996
100
AcDbArc
 50
179.9999699999999
 51
270.00002
  0
ARC
  5
191
330
18
100
AcDbEntity
  8
0
100
AcDbCircle
 10
76.98725999999999
 20
193.572957
 30
0.0
 40
2.300047
100
AcDbArc
 50
269.997874
 51
359.997845
  0
ARC
  5
192
330
18
100
AcDbEntity
  8
0
100
AcDbCircle
 10
76.98725999999999
 20
193.572784
 30
0.0
 40
4.500098999999999
100
AcDbArc
 50
0.001107
 51
90.00107699999999
  0
ARC
  5
193
330
18
100
AcDbEntity
  8
0
100
AcDbCircle
 10
76.987261
 20
193.572956
 30
0.0
 40
4.499926999999999
100
AcDbArc
 50
90.00109700000001
 51
180.001107
  0
ARC
  5
194
330
18
100
AcDbEntity
  8
0
100
AcDbCircle
 10
76.98725999999999
 20
193.572784
 30
0.0
 40
4.499925
100
AcDbArc
 50
179.998874
 51
269.9989229999999
  0
ARC
  5
195
330
18
100
AcDbEntity
  8
0
100
AcDbCircle
 10
76.98725999999999
 20
193.572958
 30
0.0
 40
4.500098999999999
100
AcDbArc
 50
269.9989229999999
 51
359.998893
  0
LINE
  5
196
330
18
100
AcDbEntity
  8
0
100
AcDbLine
 10
79.7608
 20
197.178
 30
0.0
 11
78.6165
 21
195.1959999999999
 31
0.0
  0
LINE
  5
197
330
18
100
AcDbEntity
  8
0
100
AcDbLine
 10
78.6165
 20
195.1959999999999
 30
0.0
 11
80.5985
 21
196.34
 31
0.0
  0
LINE
  5
198
330
18
100
AcDbEntity
  8
0
100
AcDbLine
 10
80.5985
 20
196.34
 30
0.0
 11
79.7608
 21
197.178
 31
0.0
  0
LINE
  5
199
330
18
100
AcDbEntity
  8
0
100
AcDbLine
 10
74.2199
 20
189.962
 30
0.0
 11
75.36419999999999
 21
191.944
 31
0.0
  0
LINE
  5
19A
330
18
100
AcDbEntity
  8
0
100
AcDbLine
 10
75.36419999999999
 20
191.944
 30
0.0
 11
73.38219999999999
 21
190.799
 31
0.0
  0
LINE
  5
19B
330
18
100
AcDbEntity
  8
0
100
AcDbLine
 10
73.38219999999999
 20
190.799
 30
0.0
 11
74.2199
 21
189.962
 31
0.0
  0
LINE
  5
19C
330
18
100
AcDbEntity
  8
0
100
AcDbLine
 10
68.6979
 20
185.277
 30
0.0
 11
81.36750000000001
 21
197.947
 31
0.0
  0
LINE
  5
19D
330
18
100
AcDbEntity
  8
0
  6
AIGENLINE001
100
AcDbLine
 10
71.0323
 20
193.5729999999999
 30
0.0
 11
83.13120000000001
 21
193.5729999999999
 31
0.0
  0
ARC
  5
19E
330
18
100
AcDbEntity
  8
0
  6
AIGENLINE002
100
AcDbCircle
 10
66.98729
 20
206.5729339999999
 30
0.0
 40
1.750034
100
AcDbArc
 50
0.00283
 51
90.00280000000001
  0
ARC
  5
19F
330
18
100
AcDbEntity
  8
0
  6
AIGENLINE002
100
AcDbCircle
 10
66.98711899999999
 20
206.5729339999999
 30
0.0
 40
1.750034
100
AcDbArc
 50
89.99717999999999
 51
179.99715
  0
ARC
  5
1A0
330
18
100
AcDbEntity
  8
0
  6
AIGENLINE002
100
AcDbCircle
 10
66.987204
 20
206.5730209999999
 30
0.0
 40
1.750118999999999
100
AcDbArc
 50
179.9999699999999
 51
270.00002
  0
ARC
  5
1A1
330
18
100
AcDbEntity
  8
0
  6
AIGENLINE002
100
AcDbCircle
 10
66.987204
 20
206.5730209999999
 30
0.0
 40
1.75012
100
AcDbArc
 50
270.00002
 51
359.9999899999999
  0
ARC
  5
1A2
330
18
100
AcDbEntity
  8
0
  6
AIGENLINE002
100
AcDbCircle
 10
86.987316
 20
206.573193
 30
0.0
 40
1.749775
100
AcDbArc
 50
359.9943689999999
 51
89.99434
  0
ARC
  5
1A3
330
18
100
AcDbEntity
  8
0
  6
AIGENLINE002
100
AcDbCircle
 10
87.05508599999999
 20
206.505244
 30
0.0
 40
1.818979999999999
100
AcDbArc
 50
92.12972800000001
 51
177.864603
  0
ARC
  5
1A4
330
18
100
AcDbEntity
  8
0
  6
AIGENLINE002
100
AcDbCircle
 10
87.05472099999999
 20
206.6402529999999
 30
0.0
 40
1.818595
100
AcDbArc
 50
182.1186899999999
 51
267.8813399999999
  0
ARC
  5
1A5
330
18
100
AcDbEntity
  8
0
  6
AIGENLINE002
100
AcDbCircle
 10
86.98723000000001
 20
206.572763
 30
0.0
 40
1.749861999999999
100
AcDbArc
 50
270.00848
 51
0.00845
  0
ARC
  5
1A6
330
18
100
AcDbEntity
  8
0
100
AcDbCircle
 10
76.98725999999999
 20
206.5729339999999
 30
0.0
 40
1.750034
100
AcDbArc
 50
0.00283
 51
90.00280000000001
  0
ARC
  5
1A7
330
18
100
AcDbEntity
  8
0
100
AcDbCircle
 10
76.98717499999999
 20
206.5730209999999
 30
0.0
 40
1.749948
100
AcDbArc
 50
90.0
 51
179.9999699999999
  0
ARC
  5
1A8
330
18
100
AcDbEntity
  8
0
100
AcDbCircle
 10
76.98725999999999
 20
206.5729339999999
 30
0.0
 40
1.750033
100
AcDbArc
 50
179.99715
 51
269.9972
  0
ARC
  5
1A9
330
18
100
AcDbEntity
  8
0
100
AcDbCircle
 10
76.98717399999999
 20
206.5730209999999
 30
0.0
 40
1.75012
100
AcDbArc
 50
270.00002
 51
359.9999899999999
  0
LINE
  5
1AA
330
18
100
AcDbEntity
  8
0
  6
AIGENLINE001
100
AcDbLine
 10
66.9872
 20
209.5429999999999
 30
0.0
 11
66.9872
 21
203.5959999999999
 31
0.0
  0
LINE
  5
1AB
330
18
100
AcDbEntity
  8
0
  6
AIGENLINE001
100
AcDbLine
 10
86.9875
 20
209.6459999999999
 30
0.0
 11
86.9875
 21
203.699
 31
0.0
  0
LINE
  5
1AC
330
18
100
AcDbEntity
  8
0
100
AcDbLine
 10
80.28730000000001
 20
86.1176
 30
0.0
 11
80.28730000000001
 21
89.11759999999999
 31
0.0
  0
LINE
  5
1AD
330
18
100
AcDbEntity
  8
0
100
AcDbLine
 10
73.68729999999999
 20
86.1176
 30
0.0
 11
73.68729999999999
 21
89.11759999999999
 31
0.0
  0
LINE
  5
1AE
330
18
100
AcDbEntity
  8
0
100
AcDbLine
 10
45.44559999999999
 20
102.117
 30
0.0
 11
108.9879999999999
 21
102.117
 31
0.0
  0
LINE
  5
1AF
330
18
100
AcDbEntity
  8
0
100
AcDbLine
 10
44.98699999999999
 20
102.117
 30
0.0
 11
45.44559999999999
 21
102.117
 31
0.0
  0
ARC
  5
1B0
330
18
100
AcDbEntity
  8
0
100
AcDbCircle
 10
45.44763099999999
 20
100.6195359999999
 30
0.0
 40
1.497392999999999
100
AcDbArc
 50
20.41090899999999
 51
35.578356
  0
ARC
  5
1B1
330
18
100
AcDbEntity
  8
0
100
AcDbCircle
 10
45.433102
 20
100.592406
 30
0.0
 40
1.525054999999999
100
AcDbArc
 50
36.089781
 51
89.53137299999999
  0
LINE
  5
1B2
330
18
100
AcDbEntity
  8
0
100
AcDbLine
 10
59.1372
 20
89.11759999999999
 30
0.0
 11
76.98730000000001
 21
89.11759999999999
 31
0.0
  0
ARC
  5
1B3
330
18
100
AcDbEntity
  8
0
100
AcDbCircle
 10
59.344659
 20
92.946363
 30
0.0
 40
3.834376999999999
100
AcDbArc
 50
236.889306
 51
266.8979209999999
  0
LINE
  5
1B4
330
18
100
AcDbEntity
  8
0
  6
AIGENLINE001
100
AcDbLine
 10
62.98729999999999
 20
100.9279999999999
 30
0.0
 11
62.98729999999999
 21
96.97830000000001
 31
0.0
  0
LINE
  5
1B5
330
18
100
AcDbEntity
  8
0
  6
AIGENLINE003
100
AcDbLine
 10
62.4837
 20
98.1135
 30
0.0
 11
63.4837
 21
98.1135
 31
0.0
  0
LINE
  5
1B6
330
18
100
AcDbEntity
  8
0
  6
AIGENLINE003
100
AcDbLine
 10
62.4837
 20
100.113
 30
0.0
 11
63.4837
 21
100.113
 31
0.0
  0
ARC
  5
1B7
330
18
100
AcDbEntity
  8
0
  6
AIGENLINE003
100
AcDbCircle
 10
63.44507700000001
 20
99.15224100000001
 30
0.0
 40
1.039463999999999
100
AcDbArc
 50
272.129018
 51
357.8512519999999
  0
ARC
  5
1B8
330
18
100
AcDbEntity
  8
0
  6
AIGENLINE003
100
AcDbCircle
 10
63.44545
 20
99.07502499999999
 30
0.0
 40
1.039063999999999
100
AcDbArc
 50
2.109252999999999
 51
87.89073700000001
  0
ARC
  5
1B9
330
18
100
AcDbEntity
  8
0
  6
AIGENLINE003
100
AcDbCircle
 10
62.522392
 20
99.07480200000001
 30
0.0
 40
1.039301999999999
100
AcDbArc
 50
92.130919
 51
177.87892
  0
ARC
  5
1BA
330
18
100
AcDbEntity
  8
0
  6
AIGENLINE003
100
AcDbCircle
 10
62.521818
 20
99.151517
 30
0.0
 40
1.03872
100
AcDbArc
 50
182.110334
 51
267.899567
  0
LINE
  5
1BB
330
18
100
AcDbEntity
  8
0
  6
AIGENLINE001
100
AcDbLine
 10
60.7188
 20
99.1177
 30
0.0
 11
65.363
 21
99.1177
 31
0.0
  0
LINE
  5
1BC
330
18
100
AcDbEntity
  8
0
  6
AIGENLINE001
100
AcDbLine
 10
90.9871
 20
100.9279999999999
 30
0.0
 11
90.9871
 21
96.97830000000001
 31
0.0
  0
LINE
  5
1BD
330
18
100
AcDbEntity
  8
0
  6
AIGENLINE003
100
AcDbLine
 10
90.48390000000001
 20
98.1135
 30
0.0
 11
91.48369999999999
 21
98.1135
 31
0.0
  0
LINE
  5
1BE
330
18
100
AcDbEntity
  8
0
  6
AIGENLINE003
100
AcDbLine
 10
90.48390000000001
 20
100.113
 30
0.0
 11
91.48369999999999
 21
100.113
 31
0.0
  0
ARC
  5
1BF
330
18
100
AcDbEntity
  8
0
  6
AIGENLINE003
100
AcDbCircle
 10
91.44509599999999
 20
99.152062
 30
0.0
 40
1.039285
100
AcDbArc
 50
272.1293479999999
 51
357.860791
  0
ARC
  5
1C0
330
18
100
AcDbEntity
  8
0
  6
AIGENLINE003
100
AcDbCircle
 10
91.44490899999999
 20
99.07464499999999
 30
0.0
 40
1.039464999999999
100
AcDbArc
 50
2.129392999999999
 51
87.86072700000001
  0
ARC
  5
1C1
330
18
100
AcDbEntity
  8
0
  6
AIGENLINE003
100
AcDbCircle
 10
90.522577
 20
99.074807
 30
0.0
 40
1.039296999999999
100
AcDbArc
 50
92.130646
 51
177.8791939999999
  0
ARC
  5
1C2
330
18
100
AcDbEntity
  8
0
  6
AIGENLINE003
100
AcDbCircle
 10
90.52200799999999
 20
99.151517
 30
0.0
 40
1.03872
100
AcDbArc
 50
182.110334
 51
267.899567
  0
LINE
  5
1C3
330
18
100
AcDbEntity
  8
0
100
AcDbLine
 10
74.1872
 20
85.6177
 30
0.0
 11
79.78740000000001
 21
85.6177
 31
0.0
  0
LINE
  5
1C4
330
18
100
AcDbEntity
  8
0
  6
AIGENLINE001
100
AcDbLine
 10
76.9872
 20
111.327
 30
0.0
 11
76.9872
 21
81.79120000000001
 31
0.0
  0
LINE
  5
1C5
330
18
100
AcDbEntity
  8
0
100
AcDbLine
 10
109.488
 20
105.118
 30
0.0
 11
109.488
 21
102.6179999999999
 31
0.0
  0
ARC
  5
1C6
330
18
100
AcDbEntity
  8
0
100
AcDbCircle
 10
108.9687709999999
 20
102.6361749999999
 30
0.0
 40
0.5191090000000001
100
AcDbArc
 50
272.0855789999999
 51
357.9539049999999
  0
LINE
  5
1C7
330
18
100
AcDbEntity
  8
0
100
AcDbLine
 10
44.4871
 20
105.118
 30
0.0
 11
44.4871
 21
102.6179999999999
 31
0.0
  0
ARC
  5
1C8
330
18
100
AcDbEntity
  8
0
100
AcDbCircle
 10
45.00661599999999
 20
102.6368689999999
 30
0.0
 40
0.519828
100
AcDbArc
 50
182.119844
 51
267.840712
  0
LINE
  5
1C9
330
18
100
AcDbEntity
  8
0
100
AcDbLine
 10
109.488
 20
108.6179999999999
 30
0.0
 11
109.488
 21
105.118
 31
0.0
  0
LINE
  5
1CA
330
18
100
AcDbEntity
  8
0
100
AcDbLine
 10
44.98699999999999
 20
105.6179999999999
 30
0.0
 11
108.9879999999999
 21
105.6179999999999
 31
0.0
  0
ARC
  5
1CB
330
18
100
AcDbEntity
  8
0
100
AcDbCircle
 10
108.968635
 20
105.0987349999999
 30
0.0
 40
0.5192630000000001
100
AcDbArc
 50
2.099965999999999
 51
87.900024
  0
LINE
  5
1CC
330
18
100
AcDbEntity
  8
0
100
AcDbLine
 10
44.98699999999999
 20
109.118
 30
0.0
 11
108.9879999999999
 21
109.118
 31
0.0
  0
ARC
  5
1CD
330
18
100
AcDbEntity
  8
0
100
AcDbCircle
 10
108.968285
 20
108.598637
 30
0.0
 40
0.5196130000000001
100
AcDbArc
 50
2.097774999999999
 51
87.86274199999999
  0
LINE
  5
1CE
330
18
100
AcDbEntity
  8
0
100
AcDbLine
 10
44.4871
 20
108.6179999999999
 30
0.0
 11
44.4871
 21
105.118
 31
0.0
  0
ARC
  5
1CF
330
18
100
AcDbEntity
  8
0
100
AcDbCircle
 10
45.006063
 20
105.09873
 30
0.0
 40
0.5192680000000001
100
AcDbArc
 50
92.10047199999999
 51
177.899498
  0
ARC
  5
1D0
330
18
100
AcDbEntity
  8
0
100
AcDbCircle
 10
45.00608699999999
 20
108.598958
 30
0.0
 40
0.51928
100
AcDbArc
 50
92.10311300000002
 51
177.9363309999999
  0
LINE
  5
1D1
330
18
100
AcDbEntity
  8
0
  6
AIGENLINE001
100
AcDbLine
 10
88.7188
 20
99.1177
 30
0.0
 11
93.36289999999999
 21
99.1177
 31
0.0
  0
TEXT
  5
1D2
330
18
100
AcDbEntity
  8
_________2
100
AcDbText
 10
24.58709999999999
 20
0.707627
 30
0.0
 40
3.9357
  1
650サイズ・実容量10L・オーバーフロー付・重量：20kg
 41
0.5
100
AcDbText
  0
LINE
  5
1D3
330
18
100
AcDbEntity
  8
_________2
100
AcDbLine
 10
205.301
 20
127.412
 30
0.0
 11
183.551
 21
127.412
 31
0.0
  0
LINE
  5
1D4
330
18
100
AcDbEntity
  8
_________2
100
AcDbLine
 10
100.2999999999999
 20
-4.09073
 30
0.0
 11
100.2999999999999
 21
-21.07099999999999
 31
0.0
  0
LINE
  5
1D5
330
18
100
AcDbEntity
  8
_________2
100
AcDbLine
 10
100.2999999999999
 20
275.9309999999999
 30
0.0
 11
100.2999999999999
 21
258.911
 31
0.0
  0
LINE
  5
1D6
330
18
100
AcDbEntity
  8
_________2
100
AcDbLine
 10
17.0499
 20
127.412
 30
0.0
 11
-4.700169999999999
 21
127.412
 31
0.0
  0
LINE
  5
1D7
330
18
100
AcDbEntity
  8
_________2
100
AcDbLine
 10
76.7414
 20
29.8051
 30
0.0
 11
74.5551
 21
29.8051
 31
0.0
  0
LINE
  5
1D8
330
18
100
AcDbEntity
  8
_________2
100
AcDbLine
 10
77.23399999999999
 20
29.8051
 30
0.0
 11
76.9818
 21
29.8051
 31
0.0
  0
LINE
  5
1D9
330
18
100
AcDbEntity
  8
_________2
100
AcDbLine
 10
77.72669999999999
 20
29.8051
 30
0.0
 11
80.6516
 21
29.8051
 31
0.0
  0
LINE
  5
1DA
330
18
100
AcDbEntity
  8
_________2
100
AcDbLine
 10
77.23399999999999
 20
29.8051
 30
0.0
 11
77.4859
 21
29.8051
 31
0.0
  0
LINE
  5
1DB
330
18
100
AcDbEntity
  8
_________2
100
AcDbLine
 10
70.83750000000001
 20
29.8051
 30
0.0
 11
68.65089999999999
 21
29.8051
 31
0.0
  0
LINE
  5
1DC
330
18
100
AcDbEntity
  8
_________2
100
AcDbLine
 10
71.3298
 20
29.8051
 30
0.0
 11
71.0779
 21
29.8051
 31
0.0
  0
LINE
  5
1DD
330
18
100
AcDbEntity
  8
_________2
100
AcDbLine
 10
71.3298
 20
30.2977
 30
0.0
 11
71.3298
 21
32.48469999999999
 31
0.0
  0
LINE
  5
1DE
330
18
100
AcDbEntity
  8
_________2
100
AcDbLine
 10
71.3298
 20
29.8051
 30
0.0
 11
71.3298
 21
30.0573
 31
0.0
  0
LINE
  5
1DF
330
18
100
AcDbEntity
  8
_________2
100
AcDbLine
 10
71.8224
 20
29.8051
 30
0.0
 11
74.0094
 21
29.8051
 31
0.0
  0
LINE
  5
1E0
330
18
100
AcDbEntity
  8
_________2
100
AcDbLine
 10
71.3298
 20
29.8051
 30
0.0
 11
71.58199999999999
 21
29.8051
 31
0.0
  0
LINE
  5
1E1
330
18
100
AcDbEntity
  8
_________2
100
AcDbLine
 10
71.3298
 20
29.31309999999999
 30
0.0
 11
71.3298
 21
27.1262
 31
0.0
  0
LINE
  5
1E2
330
18
100
AcDbEntity
  8
_________2
100
AcDbLine
 10
71.3298
 20
29.8051
 30
0.0
 11
71.3298
 21
29.5536
 31
0.0
  0
LINE
  5
1E3
330
18
100
AcDbEntity
  8
_________2
100
AcDbLine
 10
75.04089999999999
 20
28.5855
 30
0.0
 11
80.2189
 21
27.7208
 31
0.0
  0
LINE
  5
1E4
330
18
100
AcDbEntity
  8
_________2
100
AcDbLine
 10
75.04089999999999
 20
31.0247
 30
0.0
 11
80.2189
 21
31.8901
 31
0.0
  0
LINE
  5
1E5
330
18
100
AcDbEntity
  8
_________2
100
AcDbLine
 10
80.2189
 20
27.7208
 30
0.0
 11
80.2189
 21
31.8901
 31
0.0
  0
LINE
  5
1E6
330
18
100
AcDbEntity
  8
_________2
100
AcDbLine
 10
75.04089999999999
 20
28.5855
 30
0.0
 11
75.04089999999999
 21
31.0247
 31
0.0
  0
ARC
  5
1E7
330
18
100
AcDbEntity
  8
_________2
100
AcDbCircle
 10
71.283201
 20
29.758156
 30
0.0
 40
1.267359
100
AcDbArc
 50
2.122214
 51
87.893959
  0
ARC
  5
1E8
330
18
100
AcDbEntity
  8
_________2
100
AcDbCircle
 10
71.376305
 20
29.758557
 30
0.0
 40
1.266955999999999
100
AcDbArc
 50
92.104701
 51
177.8952689999999
  0
ARC
  5
1E9
330
18
100
AcDbEntity
  8
_________2
100
AcDbCircle
 10
71.376703
 20
29.852015
 30
0.0
 40
1.267368
100
AcDbArc
 50
182.122036
 51
267.877993
  0
ARC
  5
1EA
330
18
100
AcDbEntity
  8
_________2
100
AcDbCircle
 10
71.282876
 20
29.85234399999999
 30
0.0
 40
1.267695999999999
100
AcDbArc
 50
272.120153
 51
357.863674
  0
ARC
  5
1EB
330
18
100
AcDbEntity
  8
_________2
100
AcDbCircle
 10
71.32977499999999
 20
29.805087
 30
0.0
 40
2.084984999999999
100
AcDbArc
 50
0.00001
 51
89.99998000000001
  0
ARC
  5
1EC
330
18
100
AcDbEntity
  8
_________2
100
AcDbCircle
 10
71.329948
 20
29.805259
 30
0.0
 40
2.084813
100
AcDbArc
 50
90.004734
 51
180.004744
  0
ARC
  5
1ED
330
18
100
AcDbEntity
  8
_________2
100
AcDbCircle
 10
71.40945000000001
 20
29.885121
 30
0.0
 40
2.165795
100
AcDbArc
 50
182.117766
 51
267.891734
  0
ARC
  5
1EE
330
18
100
AcDbEntity
  8
_________2
100
AcDbCircle
 10
71.249804
 20
29.885774
 30
0.0
 40
2.166459
100
AcDbArc
 50
272.115468
 51
357.865604
  0
TEXT
  5
1EF
330
18
100
AcDbEntity
  8
_________2
100
AcDbText
 10
104.605
 20
1.67984
 30
0.0
 40
3.09234
  1
図番
 41
0.5
100
AcDbText
  0
LINE
  5
1F0
330
18
100
AcDbEntity
  8
_________2
100
AcDbLine
 10
103.5509999999999
 20
5.909069999999999
 30
0.0
 11
183.551
 21
5.909069999999999
 31
0.0
  0
TEXT
  5
1F1
330
18
100
AcDbEntity
  8
_________2
100
AcDbText
 10
104.605
 20
11.6796
 30
0.0
 40
3.09234
  1
品番
 41
0.5
100
AcDbText
  0
TEXT
  5
1F2
330
18
100
AcDbEntity
  8
_________2
100
AcDbText
 10
104.605
 20
31.8184
 30
0.0
 40
3.09234
  1
名称
 41
0.5
100
AcDbText
  0
TEXT
  5
1F3
330
18
100
AcDbEntity
  8
_________2
100
AcDbText
 10
91.84545833333334
 20
26.8223
 30
0.0
 40
3.65458
  1
mm
 41
0.5
 72
     1
 11
93.36820000000001
 21
26.8223
 31
0.0
100
AcDbText
  0
TEXT
  5
1F4
330
18
100
AcDbEntity
  8
_________2
100
AcDbText
 10
85.64350000000001
 20
31.8184
 30
0.0
 40
3.09234
  1
単位
 41
0.5
100
AcDbText
  0
TEXT
  5
1F5
330
18
100
AcDbEntity
  8
_________2
100
AcDbText
 10
85.64350000000001
 20
19.4112
 30
0.0
 40
3.09234
  1
尺度
 41
0.5
100
AcDbText
  0
TEXT
  5
1F6
330
18
100
AcDbEntity
  8
_________2
100
AcDbText
 10
90.09233616666667
 20
13.21819999999999
 30
0.0
 40
3.65458
  1
1 ： 10
 41
0.5
 72
     1
 11
93.9601
 21
13.21819999999999
 31
0.0
100
AcDbText
  0
TEXT
  5
1F7
330
18
100
AcDbEntity
  8
_________2
100
AcDbText
 10
132.5628374999999
 20
9.1082
 30
0.0
 40
3.9357
  1
DV030065R-00
 41
0.5
 72
     1
 11
143.55
 21
9.1082
 31
0.0
100
AcDbText
  0
TEXT
  5
1F8
330
18
100
AcDbEntity
  8
_________2
100
AcDbText
 10
135.1866375
 20
-0.892285
 30
0.0
 40
3.9357
  1
DV030065R
 41
0.5
 72
     1
 11
143.55
 21
-0.892285
 31
0.0
100
AcDbText
  0
TEXT
  5
1F9
330
18
100
AcDbEntity
  8
_________2
100
AcDbText
 10
109.179
 20
24.2261
 30
0.0
 40
3.9357
  1
スタルク3　壁掛式洗面器
 41
0.5
100
AcDbText
  0
TEXT
  5
1FA
330
18
100
AcDbEntity
  8
_________2
100
AcDbText
 10
39.36469066666667
 20
13.6034
 30
0.0
 40
3.65458
  1
高橋
 41
0.5
 72
     1
 11
41.3138
 21
13.6034
 31
0.0
100
AcDbText
  0
TEXT
  5
1FB
330
18
100
AcDbEntity
  8
_________2
100
AcDbText
 10
20.79039066666666
 20
13.6034
 30
0.0
 40
3.65458
  1
石原
 41
0.5
 72
     1
 11
22.7395
 21
13.6034
 31
0.0
100
AcDbText
  0
TEXT
  5
1FC
330
18
100
AcDbEntity
  8
_________2
100
AcDbText
 10
67.78579999999999
 20
13.21819999999999
 30
0.0
 40
3.65458
  1
08.06.11
 41
0.5
100
AcDbText
  0
TEXT
  5
1FD
330
18
100
AcDbEntity
  8
_________2
100
AcDbText
 10
66.5934
 20
19.4112
 30
0.0
 40
3.09234
  1
日付
 41
0.5
100
AcDbText
  0
TEXT
  5
1FE
330
18
100
AcDbEntity
  8
_________2
100
AcDbText
 10
29.6397
 20
19.4112
 30
0.0
 40
3.09234
  1
検図
 41
0.5
100
AcDbText
  0
TEXT
  5
1FF
330
18
100
AcDbEntity
  8
_________2
100
AcDbText
 10
18.02139999999999
 20
5.211769999999999
 30
0.0
 40
3.09234
  1
備考
 41
0.5
100
AcDbText
  0
TEXT
  5
200
330
18
100
AcDbEntity
  8
_________2
100
AcDbText
 10
18.02139999999999
 20
19.4112
 30
0.0
 40
3.09234
  1
製図
 41
0.5
100
AcDbText
  0
TEXT
  5
201
330
18
100
AcDbEntity
  8
_________2
100
AcDbText
 10
23.863831
 20
27.9371
 30
0.0
 40
4.497939999999999
  1
セラトレーディング株式会社
 41
0.5
 72
     1
 11
41.1809
 21
27.9371
 31
0.0
100
AcDbText
  0
LINE
  5
202
330
18
100
AcDbEntity
  8
_________2
100
AcDbLine
 10
183.551
 20
-4.09073
 30
0.0
 11
17.0499
 21
-4.09073
 31
0.0
  0
LINE
  5
203
330
18
100
AcDbEntity
  8
_________2
100
AcDbLine
 10
17.0499
 20
-4.09073
 30
0.0
 11
17.0499
 21
258.911
 31
0.0
  0
LINE
  5
204
330
18
100
AcDbEntity
  8
_________2
100
AcDbLine
 10
17.0499
 20
258.911
 30
0.0
 11
183.551
 21
258.911
 31
0.0
  0
LINE
  5
205
330
18
100
AcDbEntity
  8
_________2
100
AcDbLine
 10
183.551
 20
258.911
 30
0.0
 11
183.551
 21
-4.09073
 31
0.0
  0
LINE
  5
206
330
18
100
AcDbEntity
  8
_________2
100
AcDbLine
 10
65.5499
 20
9.409299999999999
 30
0.0
 11
65.5499
 21
35.9091
 31
0.0
  0
LINE
  5
207
330
18
100
AcDbEntity
  8
_________2
100
AcDbLine
 10
84.55009999999999
 20
9.409299999999999
 30
0.0
 11
84.55009999999999
 21
35.9091
 31
0.0
  0
LINE
  5
208
330
18
100
AcDbEntity
  8
_________2
100
AcDbLine
 10
103.5509999999999
 20
-4.09073
 30
0.0
 11
103.5509999999999
 21
35.9091
 31
0.0
  0
LINE
  5
209
330
18
100
AcDbEntity
  8
_________2
100
AcDbLine
 10
28.5497
 20
9.409299999999999
 30
0.0
 11
28.5497
 21
23.4096
 31
0.0
  0
LINE
  5
20A
330
18
100
AcDbEntity
  8
_________2
100
AcDbLine
 10
17.0499
 20
9.409299999999999
 30
0.0
 11
103.5509999999999
 21
9.409299999999999
 31
0.0
  0
LINE
  5
20B
330
18
100
AcDbEntity
  8
_________2
100
AcDbLine
 10
17.0499
 20
23.4096
 30
0.0
 11
103.5509999999999
 21
23.4096
 31
0.0
  0
LINE
  5
20C
330
18
100
AcDbEntity
  8
_________2
100
AcDbLine
 10
103.5509999999999
 20
15.90889999999999
 30
0.0
 11
183.551
 21
15.90889999999999
 31
0.0
  0
LINE
  5
20D
330
18
100
AcDbEntity
  8
_________2
100
AcDbLine
 10
17.0499
 20
35.9091
 30
0.0
 11
183.551
 21
35.9091
 31
0.0
  0
TEXT
  5
20E
330
18
100
AcDbEntity
  8
_________2
100
AcDbText
 10
20.3227
 20
39.18889999999999
 30
0.0
 40
3.9357
  1
・ペデスタル（DV086516）とセットの施工に当たっては、施工説明書を参照してください。
 41
0.5
100
AcDbText
  0
TEXT
  5
20F
330
18
100
AcDbEntity
  8
_________2
100
AcDbText
 10
20.3227
 20
45.7167
 30
0.0
 40
3.9357
  1
・壁取付部には厚さ30mm以上の補強木を入れてください。
 41
0.5
100
AcDbText
  0
ENDSEC
  0
SECTION
  2
OBJECTS
  0
DICTIONARY
  5
C
330
0
100
AcDbDictionary
281
     1
  3
ACAD_GROUP
350
D
  3
ACAD_LAYOUT
350
215
  3
ACAD_MLINESTYLE
350
1B
  3
ACAD_PLOTSETTINGS
350
216
  3
ACAD_PLOTSTYLENAME
350
213
  0
DICTIONARY
  5
D
102
{ACAD_REACTORS
330
C
102
}
330
C
100
AcDbDictionary
281
     1
  0
DICTIONARY
  5
215
102
{ACAD_REACTORS
330
C
102
}
330
C
100
AcDbDictionary
281
     1
  3
Model
350
217
  3
ﾚｲｱｳﾄ1
350
218
  0
DICTIONARY
  5
1B
102
{ACAD_REACTORS
330
C
102
}
330
C
100
AcDbDictionary
281
     1
  3
STANDARD
350
1C
  0
DICTIONARY
  5
216
102
{ACAD_REACTORS
330
C
102
}
330
C
100
AcDbDictionary
281
     1
  0
ACDBDICTIONARYWDFLT
  5
213
102
{ACAD_REACTORS
330
C
102
}
330
C
100
AcDbDictionary
281
     1
  3
Normal
350
214
100
AcDbDictionaryWithDefault
340
214
  0
LAYOUT
  5
217
102
{ACAD_REACTORS
330
215
102
}
330
215
100
AcDbPlotSettings
  1

  2
FX DocuPrint 181 XPL2
  4

  6

 40
0.0
 41
0.0
 42
0.0
 43
0.0
 44
0.0
 45
0.0
 46
0.0
 47
0.0
 48
0.0
 49
0.0
140
0.0
141
0.0
142
1.0
143
1.0
 70
  1712
 72
     0
 73
     0
 74
     0
  7

 75
     0
147
1.0
148
0.0
149
0.0
100
AcDbLayout
  1
Model
 70
     1
 71
     0
 10
0.0
 20
0.0
 11
12.0
 21
9.0
 12
0.0
 22
0.0
 32
0.0
 14
0.0
 24
0.0
 34
0.0
 15
0.0
 25
0.0
 35
0.0
146
0.0
 13
0.0
 23
0.0
 33
0.0
 16
1.0
 26
0.0
 36
0.0
 17
0.0
 27
1.0
 37
0.0
 76
     0
330
18
  0
LAYOUT
  5
218
102
{ACAD_REACTORS
330
215
102
}
330
215
100
AcDbPlotSettings
  1

  2
FX DocuPrint 181 XPL2
  4

  6

 40
0.0
 41
0.0
 42
0.0
 43
0.0
 44
0.0
 45
0.0
 46
0.0
 47
0.0
 48
0.0
 49
0.0
140
0.0
141
0.0
142
1.0
143
1.0
 70
   688
 72
     0
 73
     0
 74
     5
  7

 75
    16
147
1.0
148
0.0
149
0.0
100
AcDbLayout
  1
ﾚｲｱｳﾄ1
 70
     1
 71
     1
 10
0.0
 20
0.0
 11
12.0
 21
9.0
 12
0.0
 22
0.0
 32
0.0
 14
1.000000000000000E+20
 24
1.000000000000000E+20
 34
1.000000000000000E+20
 15
-1.000000000000000E+20
 25
-1.000000000000000E+20
 35
-1.000000000000000E+20
146
0.0
 13
0.0
 23
0.0
 33
0.0
 16
1.0
 26
0.0
 36
0.0
 17
0.0
 27
1.0
 37
0.0
 76
     0
330
15
  0
MLINESTYLE
  5
1C
102
{ACAD_REACTORS
330
1B
102
}
330
1B
100
AcDbMlineStyle
  2
STANDARD
 70
     0
  3

 62
   256
 51
90.0
 52
90.0
 71
     2
 49
0.5
 62
   256
  6
BYLAYER
 49
-0.5
 62
   256
  6
BYLAYER
  0
ACDBPLACEHOLDER
  5
214
102
{ACAD_REACTORS
330
213
102
}
330
213
  0
ENDSEC
  0
EOF
