  0
SECTION
  2
HEADER
  9
$ACADVER
  1
AC1009
  9
$INSBASE
 10
0.0
 20
0.0
 30
0.0
  9
$EXTMIN
 10
-4.70052
 20
-21.071400000000001
 30
0.0
  9
$EXTMAX
 10
205.30099999999999
 20
275.93099999999993
 30
0.0
  9
$LIMMIN
 10
0.0
 20
0.0
  9
$LIMMAX
 10
12.0
 20
9.0
  9
$ORTHOMODE
 70
     0
  9
$REGENMODE
 70
     1
  9
$FILLMODE
 70
     1
  9
$QTEXTMODE
 70
     0
  9
$MIRRTEXT
 70
     1
  9
$DRAGMODE
 70
     2
  9
$LTSCALE
 40
1.0
  9
$OSMODE
 70
    37
  9
$ATTMODE
 70
     1
  9
$TEXTSIZE
 40
0.0
  9
$TRACEWID
 40
0.05
  9
$TEXTSTYLE
  7
STANDARD
  9
$CLAYER
  8
0
  9
$CELTYPE
  6
CONTINUOUS
  9
$CECOLOR
 62
   256
  9
$DIMSCALE
 40
1.0
  9
$DIMASZ
 40
0.18
  9
$DIMEXO
 40
0.0625
  9
$DIMDLI
 40
0.38
  9
$DIMRND
 40
0.0
  9
$DIMDLE
 40
0.0
  9
$DIMEXE
 40
0.18
  9
$DIMTP
 40
0.0
  9
$DIMTM
 40
0.0
  9
$DIMTXT
 40
0.18
  9
$DIMCEN
 40
0.09
  9
$DIMTSZ
 40
0.0
  9
$DIMTOL
 70
     0
  9
$DIMLIM
 70
     0
  9
$DIMTIH
 70
     1
  9
$DIMTOH
 70
     1
  9
$DIMSE1
 70
     0
  9
$DIMSE2
 70
     0
  9
$DIMTAD
 70
     0
  9
$DIMZIN
 70
     0
  9
$DIMBLK
  1

  9
$DIMASO
 70
     1
  9
$DIMSHO
 70
     1
  9
$DIMPOST
  1

  9
$DIMAPOST
  1

  9
$DIMALT
 70
     0
  9
$DIMALTD
 70
     2
  9
$DIMALTF
 40
25.399999999999999
  9
$DIMLFAC
 40
1.0
  9
$DIMTOFL
 70
     0
  9
$DIMTVP
 40
0.0
  9
$DIMTIX
 70
     0
  9
$DIMSOXD
 70
     0
  9
$DIMSAH
 70
     0
  9
$DIMBLK1
  1

  9
$DIMBLK2
  1

  9
$DIMSTYLE
  2
STANDARD
  9
$DIMCLRD
 70
     0
  9
$DIMCLRE
 70
     0
  9
$DIMCLRT
 70
     0
  9
$DIMTFAC
 40
1.0
  9
$DIMGAP
 40
0.09
  9
$LUNITS
 70
     2
  9
$LUPREC
 70
     4
  9
$SKETCHINC
 40
0.1
  9
$FILLETRAD
 40
0.0
  9
$AUNITS
 70
     0
  9
$AUPREC
 70
     0
  9
$MENU
  1
.
  9
$ELEVATION
 40
0.0
  9
$PELEVATION
 40
0.0
  9
$THICKNESS
 40
0.0
  9
$LIMCHECK
 70
     0
  9
$BLIPMODE
 70
     0
  9
$CHAMFERA
 40
0.0
  9
$CHAMFERB
 40
0.0
  9
$SKPOLY
 70
     0
  9
$TDCREATE
 40
2444972.375
  9
$TDUPDATE
 40
2454870.284790752
  9
$TDINDWG
 40
0.0028981481
  9
$TDUSRTIMER
 40
0.0028981481
  9
$USRTIMER
 70
     1
  9
$ANGBASE
 50
0.0
  9
$ANGDIR
 70
     0
  9
$PDMODE
 70
     0
  9
$PDSIZE
 40
0.0
  9
$PLINEWID
 40
0.0
  9
$COORDS
 70
     1
  9
$SPLFRAME
 70
     0
  9
$SPLINETYPE
 70
     6
  9
$SPLINESEGS
 70
     8
  9
$ATTDIA
 70
     0
  9
$ATTREQ
 70
     1
  9
$HANDLING
 70
     1
  9
$HANDSEED
  5
2B7
  9
$SURFTAB1
 70
     6
  9
$SURFTAB2
 70
     6
  9
$SURFTYPE
 70
     6
  9
$SURFU
 70
     6
  9
$SURFV
 70
     6
  9
$UCSNAME
  2

  9
$UCSORG
 10
0.0
 20
0.0
 30
0.0
  9
$UCSXDIR
 10
1.0
 20
0.0
 30
0.0
  9
$UCSYDIR
 10
0.0
 20
1.0
 30
0.0
  9
$PUCSNAME
  2

  9
$PUCSORG
 10
0.0
 20
0.0
 30
0.0
  9
$PUCSXDIR
 10
1.0
 20
0.0
 30
0.0
  9
$PUCSYDIR
 10
0.0
 20
1.0
 30
0.0
  9
$USERI1
 70
     0
  9
$USERI2
 70
     0
  9
$USERI3
 70
     0
  9
$USERI4
 70
     0
  9
$USERI5
 70
     0
  9
$USERR1
 40
0.0
  9
$USERR2
 40
0.0
  9
$USERR3
 40
0.0
  9
$USERR4
 40
0.0
  9
$USERR5
 40
0.0
  9
$WORLDVIEW
 70
     1
  9
$SHADEDGE
 70
     3
  9
$SHADEDIF
 70
    70
  9
$TILEMODE
 70
     1
  9
$MAXACTVP
 70
    48
  9
$PLIMCHECK
 70
     0
  9
$PEXTMIN
 10
1.0000000000000000E+020
 20
1.0000000000000000E+020
 30
1.0000000000000000E+020
  9
$PEXTMAX
 10
-1.0000000000000000E+020
 20
-1.0000000000000000E+020
 30
-1.0000000000000000E+020
  9
$PLIMMIN
 10
0.0
 20
0.0
  9
$PLIMMAX
 10
12.0
 20
9.0
  9
$UNITMODE
 70
     0
  9
$VISRETAIN
 70
     1
  9
$PLINEGEN
 70
     0
  9
$PSLTSCALE
 70
     1
  0
ENDSEC
  0
SECTION
  2
TABLES
  0
TABLE
  2
VPORT
 70
     2
  0
VPORT
  2
*ACTIVE
 70
     0
 10
0.0
 20
0.0
 11
1.0
 21
1.0
 12
196.822535640621
 22
134.93902924719109
 13
0.0
 23
0.0
 14
1.0
 24
1.0
 15
0.0
 25
0.0
 16
0.0
 26
0.0
 36
1.0
 17
0.0
 27
0.0
 37
0.0
 40
271.09313802098131
 41
2.2894736842105261
 42
50.0
 43
0.0
 44
0.0
 50
0.0
 51
0.0
 71
     0
 72
   100
 73
     1
 74
     1
 75
     0
 76
     0
 77
     0
 78
     0
  0
ENDTAB
  0
TABLE
  2
LTYPE
 70
     4
  0
LTYPE
  2
CONTINUOUS
 70
     0
  3
Solid line
 72
    65
 73
     0
 40
0.0
  0
LTYPE
  2
AIGENLINE001
 70
     0
  3
generate AI->DXF Converter
 72
    65
 73
     2
 40
1.5522299999999991
 49
0.776115
 49
-0.776115
  0
LTYPE
  2
AIGENLINE002
 70
     0
  3
generate AI->DXF Converter
 72
    65
 73
     4
 40
5.8561449999999988
 49
3.5278
 49
-0.776115
 49
0.776115
 49
-0.776115
  0
LTYPE
  2
AIGENLINE003
 70
     0
  3
generate AI->DXF Converter
 72
    65
 73
     6
 40
7.4083750000000004
 49
3.5278
 49
-0.776115
 49
0.776115
 49
-0.776115
 49
0.776115
 49
-0.776115
  0
ENDTAB
  0
TABLE
  2
LAYER
 70
     2
  0
LAYER
  2
0
 70
     0
 62
     7
  6
CONTINUOUS
  0
LAYER
  2
_________2
 70
     0
 62
     7
  6
CONTINUOUS
  0
ENDTAB
  0
TABLE
  2
STYLE
 70
     1
  0
STYLE
  2
STANDARD
 70
     0
 40
0.0
 41
0.0
 50
0.0
 71
     0
 42
0.0
  3
TXT
  4
EXTFONT.SHX
  0
ENDTAB
  0
TABLE
  2
VIEW
 70
     0
  0
ENDTAB
  0
TABLE
  2
UCS
 70
     0
  0
ENDTAB
  0
TABLE
  2
APPID
 70
     1
  0
APPID
  2
ACAD
 70
     0
  0
ENDTAB
  0
TABLE
  2
DIMSTYLE
 70
     1
  0
DIMSTYLE
  2
STANDARD
 70
     0
  3

  4

  5

  6

  7

 40
1.0
 41
0.18
 42
0.0625
 43
0.38
 44
0.18
 45
0.0
 46
0.0
 47
0.0
 48
0.0
140
0.18
141
0.09
142
0.0
143
25.399999999999999
144
1.0
145
0.0
146
1.0
147
0.09
 71
     0
 72
     0
 73
     1
 74
     1
 75
     0
 76
     0
 77
     0
 78
     0
170
     0
171
     2
172
     0
173
     0
174
     0
175
     0
176
     0
177
     0
178
     0
  0
ENDTAB
  0
ENDSEC
  0
SECTION
  2
BLOCKS
  0
BLOCK
  8
0
  2
$MODEL_SPACE
 70
     0
 10
0.0
 20
0.0
 30
0.0
  3
$MODEL_SPACE
  1

  0
ENDBLK
  5
1A
  8
0
  0
BLOCK
 67
     1
  8
0
  2
$PAPER_SPACE
 70
     0
 10
0.0
 20
0.0
 30
0.0
  3
$PAPER_SPACE
  1

  0
ENDBLK
  5
17
 67
     1
  8
0
  0
ENDSEC
  0
SECTION
  2
ENTITIES
  0
TEXT
  5
24
  8
0
 62
     7
 10
135.05500000000001
 20
55.740600000000001
 30
0.0
 40
3.0923400000000001
  1
〈付属品〉
 41
0.5
  0
TEXT
  5
25
  8
0
 62
     7
 10
135.05500000000001
 20
51.8752
 30
0.0
 40
3.0923400000000001
  1
洗面器固定金具×4
 41
0.5
  0
TEXT
  5
26
  8
0
 62
     7
 10
135.05500000000001
 20
48.009799999999998
 30
0.0
 40
3.0923400000000001
  1
%%c5×25SUSねじ付
 41
0.5
  0
TEXT
  5
27
  8
0
 62
     7
 10
135.05500000000001
 20
44.14439999999999
 30
0.0
 40
3.0923400000000001
  1
（尺度 1：3）
 41
0.5
  0
TEXT
  5
28
  8
0
 62
     7
 10
128.76357499999989
 20
207.71000000000001
 30
0.0
 40
3.0923400000000001
  1
R30
 41
0.5
 72
     2
 11
132.62899999999991
 21
207.71000000000001
 31
0.0
  0
TEXT
  5
29
  8
0
 62
     7
 10
128.745575
 20
220.37799999999999
 30
0.0
 40
3.0923400000000001
  1
R30
 41
0.5
 72
     2
 11
132.6109999999999
 21
220.37799999999999
 31
0.0
  0
TEXT
  5
2A
  8
0
 62
     7
 10
117.40064699999991
 20
160.9189999999999
 30
0.0
 40
3.0923400000000001
  1
（t24～30）
 41
0.5
 72
     2
 11
129.09999999999991
 21
160.9189999999999
 31
0.0
  0
TEXT
  5
2B
  8
0
 62
     7
 10
112.8136759999999
 20
165.20099999999991
 30
0.0
 40
3.0923400000000001
  1
カウンター裏補強木
 41
0.5
 72
     2
 11
129.09999999999991
 21
165.20099999999991
 31
0.0
  0
TEXT
  5
2C
  8
0
 62
     7
 10
118.2969659999999
 20
170.65899999999999
 30
0.0
 40
3.0923400000000001
  1
洗面器固定用
 41
0.5
 72
     2
 11
128.9139999999999
 21
170.65899999999999
 31
0.0
  0
TEXT
  5
2D
  8
0
 62
     7
 10
133.71976000000001
 20
179.49700000000001
 30
0.0
 40
3.0923400000000001
  1
カウンター切込寸法
 41
0.5
 72
     1
 11
141.96600000000001
 21
179.49700000000001
 31
0.0
  0
TEXT
  5
2E
  8
0
 62
     7
 10
156.3755249999999
 20
97.024500000000003
 30
0.0
 40
3.0923400000000001
  1
%%c7
 41
0.5
 72
     1
 11
157.6639999999999
 21
97.024500000000003
 31
0.0
  0
TEXT
  5
2F
  8
0
 62
     7
 10
140.9705249999999
 20
78.444599999999994
 30
0.0
 40
3.0923400000000001
  1
34
 41
0.5
 72
     1
 11
142.2589999999999
 21
78.444599999999994
 31
0.0
  0
TEXT
  5
30
  8
0
 62
     7
 10
145.908525
 20
72.329899999999995
 30
0.0
 40
3.0923400000000001
  1
64
 41
0.5
 72
     1
 11
147.19699999999989
 21
72.329899999999995
 31
0.0
  0
TEXT
  5
31
  8
0
 62
     7
 10
151.8003724999999
 20
78.444599999999994
 30
0.0
 40
3.0923400000000001
  1
30
 41
0.5
 72
     1
 11
152.96000000000001
 21
78.444599999999994
 31
0.0
  0
TEXT
  5
32
  8
0
 62
     7
 10
148.5691349999999
 20
108.96299999999989
 30
0.0
 40
3.0923400000000001
  1
175
 41
0.5
 72
     1
 11
150.37299999999999
 21
108.96299999999989
 31
0.0
  0
TEXT
  5
33
  8
0
 62
     7
 10
162.8053725
 20
145.0979999999999
 30
0.0
 40
3.0923400000000001
  1
20
 41
0.5
 72
     1
 11
163.965
 21
145.0979999999999
 31
0.0
  0
TEXT
  5
34
  8
0
 62
     7
 10
154.4295249999999
 20
145.0979999999999
 30
0.0
 40
3.0923400000000001
  1
45
 41
0.5
 72
     1
 11
155.7179999999999
 21
145.0979999999999
 31
0.0
  0
TEXT
  5
35
  8
0
 62
     7
 10
149.515525
 20
145.0979999999999
 30
0.0
 40
3.0923400000000001
  1
45
 41
0.5
 72
     1
 11
150.804
 21
145.0979999999999
 31
0.0
  0
TEXT
  5
36
  8
0
 62
     7
 10
113.4145249999999
 20
145.0979999999999
 30
0.0
 40
3.0923400000000001
  1
25
 41
0.5
 72
     1
 11
114.7029999999999
 21
145.0979999999999
 31
0.0
  0
TEXT
  5
37
  8
0
 62
     7
 10
134.2542875
 20
145.0979999999999
 30
0.0
 40
3.0923400000000001
  1
270
 41
0.5
 72
     1
 11
136.18700000000001
 21
145.0979999999999
 31
0.0
  0
TEXT
  5
38
  8
0
 62
     7
 10
137.26628749999989
 20
152.06200000000001
 30
0.0
 40
3.0923400000000001
  1
405
 41
0.5
 72
     1
 11
139.1989999999999
 21
152.06200000000001
 31
0.0
  0
TEXT
  5
39
  8
0
 62
     7
 10
140.00543999999999
 20
187.72900000000001
 30
0.0
 40
3.0923400000000001
  1
475
 41
0.5
 72
     1
 11
142.06700000000001
 21
187.72900000000001
 31
0.0
  0
TEXT
  5
3A
  8
0
 62
     7
 10
65.663740000000004
 20
175.95099999999991
 30
0.0
 40
3.0923400000000001
  1
525
 41
0.5
 72
     1
 11
67.725300000000004
 21
175.95099999999991
 31
0.0
  0
TEXT
  5
3B
  8
0
 62
     7
 10
97.523880000000005
 20
182.798
 30
0.0
 40
3.0923400000000001
  1
17.5
 41
0.5
 72
     2
 11
101.64699999999991
 21
182.798
 31
0.0
  0
TEXT
  5
3C
  8
0
 62
     7
 10
33.465899999999991
 20
182.798
 30
0.0
 40
3.0923400000000001
  1
17.5
 41
0.5
  0
TEXT
  5
3D
  8
0
 62
     7
 10
65.79258750000001
 20
182.798
 30
0.0
 40
3.0923400000000001
  1
490
 41
0.5
 72
     1
 11
67.725300000000004
 21
182.798
 31
0.0
  0
TEXT
  5
3E
  8
0
 62
     7
 10
155.76599999999999
 20
206.79243999999991
 30
0.0
 40
3.0923400000000001
  1
345
 50
90.0
 41
0.5
 72
     1
 11
155.76599999999999
 21
208.85400000000001
 31
0.0
  0
TEXT
  5
3F
  8
0
 62
     7
 10
152.74343999999999
 20
241.679
 30
0.0
 40
3.0923400000000001
  1
272
 41
0.5
 72
     1
 11
154.80500000000001
 21
241.679
 31
0.0
  0
TEXT
  5
40
  8
0
 62
     7
 10
125.84544
 20
241.679
 30
0.0
 40
3.0923400000000001
  1
272
 41
0.5
 72
     1
 11
127.907
 21
241.679
 31
0.0
  0
TEXT
  5
41
  8
0
 62
     7
 10
170.24942949999991
 20
242.03200000000001
 30
0.0
 40
3.0923400000000001
  1
50以上
 41
0.5
 72
     1
 11
173.31599999999989
 21
242.03200000000001
 31
0.0
  0
TEXT
  5
42
  8
0
 62
     7
 10
71.056529999999995
 20
241.822
 30
0.0
 40
3.0923400000000001
  1
100
 41
0.5
 72
     1
 11
72.602699999999999
 21
241.822
 31
0.0
  0
TEXT
  5
43
  8
0
 62
     7
 10
61.056929999999987
 20
241.822
 30
0.0
 40
3.0923400000000001
  1
100
 41
0.5
 72
     1
 11
62.603099999999998
 21
241.822
 31
0.0
  0
TEXT
  5
44
  8
0
 62
     7
 10
107.8444295
 20
242.03200000000001
 30
0.0
 40
3.0923400000000001
  1
50以上
 41
0.5
 72
     1
 11
110.911
 21
242.03200000000001
 31
0.0
  0
TEXT
  5
45
  8
0
 62
     7
 10
54.245240000000003
 20
208.6399999999999
 30
0.0
 40
3.0923400000000001
  1
%%c46
 41
0.5
 72
     1
 11
56.306800000000003
 21
208.6399999999999
 31
0.0
  0
TEXT
  5
46
  8
0
 62
     7
 10
52.380240000000001
 20
218.17899999999989
 30
0.0
 40
3.0923400000000001
  1
%%c35
 41
0.5
 72
     1
 11
54.441800000000001
 21
218.17899999999989
 31
0.0
  0
TEXT
  5
47
  8
0
 62
     7
 10
30.218699999999991
 20
187.354525
 30
0.0
 40
3.0923400000000001
  1
25
 50
90.0
 41
0.5
 72
     1
 11
30.218699999999991
 21
188.643
 31
0.0
  0
TEXT
  5
48
  8
0
 62
     7
 10
86.577699999999993
 20
217.945525
 30
0.0
 40
3.0923400000000001
  1
45
 50
90.0
 41
0.5
 72
     1
 11
86.577699999999993
 21
219.23400000000001
 31
0.0
  0
TEXT
  5
49
  8
0
 62
     7
 10
99.936700000000016
 20
222.316135
 30
0.0
 40
3.0923400000000001
  1
175
 50
90.0
 41
0.5
 72
     1
 11
99.936700000000016
 21
224.12
 31
0.0
  0
TEXT
  5
4A
  8
0
 62
     7
 10
86.7196
 20
235.1865249999999
 30
0.0
 40
3.0923400000000001
  1
65
 50
90.0
 41
0.5
 72
     1
 11
86.7196
 21
236.47499999999991
 31
0.0
  0
TEXT
  5
4B
  8
0
 62
     7
 10
36.468600000000002
 20
207.5342875
 30
0.0
 40
3.0923400000000001
  1
270
 50
90.0
 41
0.5
 72
     1
 11
36.468600000000002
 21
209.46700000000001
 31
0.0
  0
TEXT
  5
4C
  8
0
 62
     7
 10
36.468600000000002
 20
225.55237249999999
 30
0.0
 40
3.0923400000000001
  1
90
 50
90.0
 41
0.5
 72
     1
 11
36.468600000000002
 21
226.71199999999999
 31
0.0
  0
TEXT
  5
4D
  8
0
 62
     7
 10
30.218699999999991
 20
236.32037249999991
 30
0.0
 40
3.0923400000000001
  1
20
 50
90.0
 41
0.5
 72
     1
 11
30.218699999999991
 21
237.47999999999999
 31
0.0
  0
TEXT
  5
4E
  8
0
 62
     7
 10
30.218699999999991
 20
211.40528749999999
 30
0.0
 40
3.0923400000000001
  1
360
 50
90.0
 41
0.5
 72
     1
 11
30.218699999999991
 21
213.33799999999991
 31
0.0
  0
TEXT
  5
4F
  8
0
 62
     7
 10
144.98400000000001
 20
138.2105249999999
 30
0.0
 40
3.0923400000000001
  1
24
 50
90.0
 41
0.5
 72
     1
 11
144.98400000000001
 21
139.49899999999991
 31
0.0
  0
TEXT
  5
50
  8
0
 62
     7
 10
138.83699999999999
 20
125.8379825
 30
0.0
 40
3.0923400000000001
  1
140
 50
90.0
 41
0.5
 72
     1
 11
138.83699999999999
 21
127.51299999999991
 31
0.0
  0
TEXT
  5
51
  8
0
 62
     7
 10
166.80500000000001
 20
87.498072500000006
 30
0.0
 40
3.0923400000000001
  1
30
 50
90.0
 41
0.5
 72
     1
 11
166.80500000000001
 21
88.657700000000006
 31
0.0
  0
TEXT
  5
52
  8
0
 62
     7
 10
165.6279999999999
 20
123.3809825
 30
0.0
 40
3.0923400000000001
  1
190
 50
90.0
 41
0.5
 72
     1
 11
165.6279999999999
 21
125.0559999999999
 31
0.0
  0
TEXT
  5
53
  8
0
 62
     7
 10
33.935099999999998
 20
138.40452499999989
 30
0.0
 40
3.0923400000000001
  1
35
 50
90.0
 41
0.5
 72
     1
 11
33.935099999999998
 21
139.6929999999999
 31
0.0
  0
TEXT
  5
54
  8
0
 62
     7
 10
28.739699999999988
 20
123.4479824999999
 30
0.0
 40
3.0923400000000001
  1
190
 50
90.0
 41
0.5
 72
     1
 11
28.739699999999988
 21
125.12299999999991
 31
0.0
  0
TEXT
  5
55
  8
0
 62
     7
 10
23.946100000000001
 20
211.26328749999999
 30
0.0
 40
3.0923400000000001
  1
405
 50
90.0
 41
0.5
 72
     1
 11
23.946100000000001
 21
213.19599999999991
 31
0.0
  0
LINE
  5
56
  8
0
 62
     7
 10
149.6989999999999
 20
91.353099999999998
 30
0.0
 11
148.554
 21
89.370500000000007
 31
0.0
  0
LINE
  5
57
  8
0
 62
     7
 10
148.554
 20
89.370500000000007
 30
0.0
 11
150.53700000000001
 21
90.514899999999983
 31
0.0
  0
LINE
  5
58
  8
0
 62
     7
 10
150.53700000000001
 20
90.514899999999983
 30
0.0
 11
149.6989999999999
 21
91.353099999999998
 31
0.0
  0
LINE
  5
59
  8
0
 62
     7
 10
145.76400000000001
 20
85.752099999999999
 30
0.0
 11
146.9079999999999
 21
87.734700000000004
 31
0.0
  0
LINE
  5
5A
  8
0
 62
     7
 10
146.9079999999999
 20
87.734700000000004
 30
0.0
 11
144.92500000000001
 21
86.590299999999985
 31
0.0
  0
LINE
  5
5B
  8
0
 62
     7
 10
144.92500000000001
 20
86.590299999999985
 30
0.0
 11
145.76400000000001
 21
85.752099999999999
 31
0.0
  0
LINE
  5
5C
  8
0
 62
     7
 10
143.934
 20
84.750600000000006
 30
0.0
 11
155.04300000000001
 21
95.859399999999994
 31
0.0
  0
LINE
  5
5D
  8
0
 62
     7
 10
149.94499999999991
 20
78.0929
 30
0.0
 11
147.73400000000001
 21
77.500299999999996
 31
0.0
  0
LINE
  5
5E
  8
0
 62
     7
 10
147.73400000000001
 20
77.500299999999996
 30
0.0
 11
149.94499999999991
 21
76.907799999999995
 31
0.0
  0
LINE
  5
5F
  8
0
 62
     7
 10
149.94499999999991
 20
76.907799999999995
 30
0.0
 11
149.94499999999991
 21
78.0929
 31
0.0
  0
LINE
  5
60
  8
0
 62
     7
 10
138.61199999999999
 20
78.0929
 30
0.0
 11
136.40000000000001
 21
77.500299999999996
 31
0.0
  0
LINE
  5
61
  8
0
 62
     7
 10
136.40000000000001
 20
77.500299999999996
 30
0.0
 11
138.61199999999999
 21
76.907799999999995
 31
0.0
  0
LINE
  5
62
  8
0
 62
     7
 10
138.61199999999999
 20
76.907799999999995
 30
0.0
 11
138.61199999999999
 21
78.0929
 31
0.0
  0
LINE
  5
63
  8
0
 62
     7
 10
145.52199999999999
 20
76.907799999999995
 30
0.0
 11
147.73400000000001
 21
77.500299999999996
 31
0.0
  0
LINE
  5
64
  8
0
 62
     7
 10
147.73400000000001
 20
77.500299999999996
 30
0.0
 11
145.52199999999999
 21
78.0929
 31
0.0
  0
LINE
  5
65
  8
0
 62
     7
 10
145.52199999999999
 20
78.0929
 30
0.0
 11
145.52199999999999
 21
76.907799999999995
 31
0.0
  0
LINE
  5
66
  8
0
 62
     7
 10
155.52299999999991
 20
76.922200000000004
 30
0.0
 11
157.73400000000001
 21
77.514799999999994
 31
0.0
  0
LINE
  5
67
  8
0
 62
     7
 10
157.73400000000001
 20
77.514799999999994
 30
0.0
 11
155.52299999999991
 21
78.107399999999998
 31
0.0
  0
LINE
  5
68
  8
0
 62
     7
 10
155.52299999999991
 20
78.107399999999998
 30
0.0
 11
155.52299999999991
 21
76.922200000000004
 31
0.0
  0
LINE
  5
69
  8
0
 62
     7
 10
136.40000000000001
 20
77.500299999999996
 30
0.0
 11
157.73400000000001
 21
77.500299999999996
 31
0.0
  0
LINE
  5
6A
  8
0
 62
     7
 10
138.61199999999999
 20
72.085599999999999
 30
0.0
 11
136.40000000000001
 21
71.493099999999984
 31
0.0
  0
LINE
  5
6B
  8
0
 62
     7
 10
136.40000000000001
 20
71.493099999999984
 30
0.0
 11
138.61199999999999
 21
70.900499999999994
 31
0.0
  0
LINE
  5
6C
  8
0
 62
     7
 10
138.61199999999999
 20
70.900499999999994
 30
0.0
 11
138.61199999999999
 21
72.085599999999999
 31
0.0
  0
LINE
  5
6D
  8
0
 62
     7
 10
155.52299999999991
 20
70.915000000000006
 30
0.0
 11
157.73400000000001
 21
71.507499999999993
 31
0.0
  0
LINE
  5
6E
  8
0
 62
     7
 10
157.73400000000001
 20
71.507499999999993
 30
0.0
 11
155.52299999999991
 21
72.100099999999998
 31
0.0
  0
LINE
  5
6F
  8
0
 62
     7
 10
155.52299999999991
 20
72.100099999999998
 30
0.0
 11
155.52299999999991
 21
70.915000000000006
 31
0.0
  0
LINE
  5
70
  8
0
 62
     7
 10
136.40000000000001
 20
71.493099999999984
 30
0.0
 11
157.73400000000001
 21
71.493099999999984
 31
0.0
  0
LINE
  5
71
  8
0
 62
     7
 10
168.33799999999991
 20
91.338699999999989
 30
0.0
 11
167.745
 21
93.5501
 31
0.0
  0
LINE
  5
72
  8
0
 62
     7
 10
167.745
 20
93.5501
 30
0.0
 11
167.15299999999991
 21
91.338699999999989
 31
0.0
  0
LINE
  5
73
  8
0
 62
     7
 10
167.15299999999991
 20
91.338699999999989
 30
0.0
 11
168.33799999999991
 21
91.338699999999989
 31
0.0
  0
LINE
  5
74
  8
0
 62
     7
 10
167.16699999999989
 20
85.761399999999995
 30
0.0
 11
167.75999999999991
 21
83.549999999999997
 31
0.0
  0
LINE
  5
75
  8
0
 62
     7
 10
167.75999999999991
 20
83.549999999999997
 30
0.0
 11
168.352
 21
85.761399999999995
 31
0.0
  0
LINE
  5
76
  8
0
 62
     7
 10
168.352
 20
85.761399999999995
 30
0.0
 11
167.16699999999989
 21
85.761399999999995
 31
0.0
  0
LINE
  5
77
  8
0
 62
     7
 10
167.745
 20
93.5501
 30
0.0
 11
167.745
 21
83.549999999999997
 31
0.0
  0
LINE
  5
78
  8
0
 62
     7
 10
141.73299999999989
 20
63.436999999999998
 30
0.0
 11
144.5379999999999
 21
65.703199999999995
 31
0.0
  0
LINE
  5
79
  8
0
 62
     7
 10
140.958
 20
63.372199999999999
 30
0.0
 11
136.64500000000001
 21
65.794799999999995
 31
0.0
  0
ARC
  5
7A
  8
0
 62
     7
 10
141.29607799999991
 20
63.99709399999999
 30
0.0
 40
0.710445
 50
241.584688
 51
307.96790299999992
  0
LINE
  5
7B
  8
0
 62
     7
 10
142.05899999999991
 20
63.05769999999999
 30
0.0
 11
144.88
 21
65.335999999999984
 31
0.0
  0
LINE
  5
7C
  8
0
 62
     7
 10
140.6999999999999
 20
62.9437
 30
0.0
 11
136.40000000000001
 21
65.359399999999994
 31
0.0
  0
ARC
  5
7D
  8
0
 62
     7
 10
141.29259400000001
 20
64.038456000000011
 30
0.0
 40
1.244729999999999
 50
241.58647899999991
 51
308.00814600000001
  0
LINE
  5
7E
  8
0
 62
     7
 10
145.721
 20
65.5685
 30
0.0
 11
149.81100000000001
 21
64.988699999999994
 31
0.0
  0
ARC
  5
7F
  8
0
 62
     7
 10
145.57230799999999
 20
64.46916800000001
 30
0.0
 40
1.1093779999999991
 50
82.285619999999994
 51
128.61731399999999
  0
LINE
  5
80
  8
0
 62
     7
 10
145.82599999999991
 20
66.058700000000002
 30
0.0
 11
149.87799999999999
 21
65.484099999999998
 31
0.0
  0
ARC
  5
81
  8
0
 62
     7
 10
145.59730400000001
 20
64.376941000000002
 30
0.0
 40
1.6972769999999999
 50
82.257712999999995
 51
128.61016100000001
  0
LINE
  5
82
  8
0
 62
     7
 10
150.6879999999999
 20
65.087900000000005
 30
0.0
 11
153.53399999999991
 21
66.176599999999993
 31
0.0
  0
ARC
  5
83
  8
0
 62
     7
 10
150.05651499999991
 20
66.744236999999998
 30
0.0
 40
1.77264
 50
262.03635099999991
 51
290.871239
  0
LINE
  5
84
  8
0
 62
     7
 10
150.51199999999989
 20
65.555800000000005
 30
0.0
 11
153.24700000000001
 21
66.601699999999994
 31
0.0
  0
ARC
  5
85
  8
0
 62
     7
 10
150.0558969999999
 20
66.749601999999996
 30
0.0
 40
1.2778819999999991
 50
262.01804099999998
 51
290.89496400000002
  0
LINE
  5
86
  8
0
 62
     7
 10
154.15700000000001
 20
66.049099999999996
 30
0.0
 11
157.38599999999991
 21
62.923000000000002
 31
0.0
  0
ARC
  5
87
  8
0
 62
     7
 10
153.74247
 20
65.609930000000006
 30
0.0
 40
0.60363
 50
46.681136000000002
 51
110.1625999999999
  0
LINE
  5
88
  8
0
 62
     7
 10
154.58799999999991
 20
66.327500000000001
 30
0.0
 11
157.73400000000001
 21
63.282299999999999
 31
0.0
  0
ARC
  5
89
  8
0
 62
     7
 10
153.695199
 20
65.377631999999991
 30
0.0
 40
1.3035099999999991
 50
46.775235999999992
 51
110.10705400000001
  0
LINE
  5
8A
  8
0
  6
AIGENLINE002
 62
     7
 10
147.73400000000001
 20
90.680999999999983
 30
0.0
 11
147.73400000000001
 21
86.638499999999993
 31
0.0
  0
LINE
  5
8B
  8
0
  6
AIGENLINE002
 62
     7
 10
149.642
 20
88.549800000000005
 30
0.0
 11
145.82699999999991
 21
88.549800000000005
 31
0.0
  0
ARC
  5
8C
  8
0
 62
     7
 10
147.67763899999991
 20
88.505826999999996
 30
0.0
 40
1.212170999999999
 50
2.0812289999999991
 51
87.357792000000003
  0
ARC
  5
8D
  8
0
 62
     7
 10
147.7788149999999
 20
88.517370999999983
 30
0.0
 40
1.2001949999999999
 50
92.162887999999995
 51
178.44932
  0
ARC
  5
8E
  8
0
 62
     7
 10
147.79005599999991
 20
88.593806999999998
 30
0.0
 40
1.211794
 50
182.07886799999989
 51
267.32584199999991
  0
ARC
  5
8F
  8
0
 62
     7
 10
147.68828400000001
 20
88.583683999999991
 30
0.0
 40
1.201203
 50
272.15813799999989
 51
358.38592299999988
  0
LINE
  5
90
  8
0
  6
AIGENLINE002
 62
     7
 10
147.4079999999999
 20
63.488
 30
0.0
 11
148.03399999999991
 21
67.905299999999997
 31
0.0
  0
LINE
  5
91
  8
0
 62
     7
 10
136.64500000000001
 20
93.5501
 30
0.0
 11
136.64500000000001
 21
83.549999999999997
 31
0.0
  0
LINE
  5
92
  8
0
 62
     7
 10
141.40299999999991
 20
93.049899999999994
 30
0.0
 11
141.40299999999991
 21
84.049800000000005
 31
0.0
  0
LINE
  5
93
  8
0
 62
     7
 10
145.21799999999999
 20
93.049899999999994
 30
0.0
 11
145.21799999999999
 21
84.049800000000005
 31
0.0
  0
LINE
  5
94
  8
0
 62
     7
 10
150.1039999999999
 20
93.049899999999994
 30
0.0
 11
150.1039999999999
 21
84.049800000000005
 31
0.0
  0
LINE
  5
95
  8
0
 62
     7
 10
153.733
 20
93.049899999999994
 30
0.0
 11
153.733
 21
84.049800000000005
 31
0.0
  0
LINE
  5
96
  8
0
 62
     7
 10
157.73400000000001
 20
63.282299999999999
 30
0.0
 11
157.38599999999991
 21
62.923000000000002
 31
0.0
  0
LINE
  5
97
  8
0
 62
     7
 10
136.40000000000001
 20
65.359399999999994
 30
0.0
 11
136.64500000000001
 21
65.794799999999995
 31
0.0
  0
LINE
  5
98
  8
0
 62
     7
 10
168.727
 20
83.549999999999997
 30
0.0
 11
158.786
 21
83.549999999999997
 31
0.0
  0
LINE
  5
99
  8
0
 62
     7
 10
159.59999999999999
 20
95.859399999999994
 30
0.0
 11
155.04300000000001
 21
95.859399999999994
 31
0.0
  0
LINE
  5
9A
  8
0
 62
     7
 10
168.727
 20
93.5501
 30
0.0
 11
158.786
 21
93.5501
 31
0.0
  0
LINE
  5
9B
  8
0
 62
     7
 10
157.73400000000001
 20
83.549999999999997
 30
0.0
 11
136.40000000000001
 21
83.549999999999997
 31
0.0
  0
LINE
  5
9C
  8
0
 62
     7
 10
157.73400000000001
 20
93.5501
 30
0.0
 11
136.40000000000001
 21
93.5501
 31
0.0
  0
LINE
  5
9D
  8
0
 62
     7
 10
157.73400000000001
 20
82.7607
 30
0.0
 11
157.73400000000001
 21
70.954599999999999
 31
0.0
  0
LINE
  5
9E
  8
0
 62
     7
 10
147.73400000000001
 20
85.903299999999987
 30
0.0
 11
147.73400000000001
 21
76.900199999999998
 31
0.0
  0
LINE
  5
9F
  8
0
 62
     7
 10
136.40000000000001
 20
82.7607
 30
0.0
 11
136.40000000000001
 21
70.954599999999999
 31
0.0
  0
LINE
  5
A0
  8
0
 62
     7
 10
157.73400000000001
 20
93.5501
 30
0.0
 11
157.73400000000001
 21
83.549999999999997
 31
0.0
  0
LINE
  5
A1
  8
0
 62
     7
 10
136.40000000000001
 20
93.5501
 30
0.0
 11
136.40000000000001
 21
83.549999999999997
 31
0.0
  0
ARC
  5
A2
  8
0
 62
     7
 10
145.24743599999999
 20
116.2593439999999
 30
0.0
 40
0.5196130000000001
 50
272.13725799999997
 51
357.90222499999987
  0
ARC
  5
A3
  8
0
 62
     7
 10
64.242788000000004
 20
130.72217599999999
 30
0.0
 40
0.51904
 50
2.077793999999999
 51
87.941936999999996
  0
ARC
  5
A4
  8
0
 62
     7
 10
71.280422000000002
 20
130.72195500000001
 30
0.0
 40
0.519269
 50
92.081519
 51
177.89871099999999
  0
ARC
  5
A5
  8
0
 62
     7
 10
162.71702199999999
 20
227.51537099999999
 30
0.0
 40
3.000008999999999
 50
0.00001
 51
89.999980000000008
  0
ARC
  5
A6
  8
0
 62
     7
 10
162.71702199999999
 20
199.01512299999999
 30
0.0
 40
3.000008999999999
 50
270.00002000000001
 51
359.99998999999991
  0
LINE
  5
A7
  8
0
 62
     7
 10
165.71700000000001
 20
199.0149999999999
 30
0.0
 11
165.71700000000001
 21
227.51499999999999
 31
0.0
  0
ARC
  5
A8
  8
0
 62
     7
 10
121.21645100000001
 20
227.51537099999999
 30
0.0
 40
3.000008999999999
 50
90.0
 51
179.99996999999991
  0
ARC
  5
A9
  8
0
 62
     7
 10
121.2164499999999
 20
199.01512199999991
 30
0.0
 40
3.0000079999999998
 50
179.99996999999991
 51
270.00002000000001
  0
LINE
  5
AA
  8
0
 62
     7
 10
132.7949999999999
 20
206.83199999999991
 30
0.0
 11
125.815
 21
206.83199999999991
 31
0.0
  0
LINE
  5
AB
  8
0
 62
     7
 10
120.7999999999999
 20
198.244
 30
0.0
 11
119.08199999999999
 21
196.733
 31
0.0
  0
LINE
  5
AC
  8
0
 62
     7
 10
119.08199999999999
 20
196.733
 30
0.0
 11
119.81399999999989
 21
198.90000000000001
 31
0.0
  0
LINE
  5
AD
  8
0
 62
     7
 10
119.81399999999989
 20
198.90000000000001
 30
0.0
 11
120.7999999999999
 21
198.244
 31
0.0
  0
LINE
  5
AE
  8
0
 62
     7
 10
125.815
 20
206.83199999999991
 30
0.0
 11
119.08799999999989
 21
196.72799999999989
 31
0.0
  0
LINE
  5
AF
  8
0
 62
     7
 10
132.77699999999999
 20
219.50299999999999
 30
0.0
 11
125.797
 21
219.50299999999999
 31
0.0
  0
LINE
  5
B0
  8
0
 62
     7
 10
120.782
 20
228.08999999999989
 30
0.0
 11
119.0629999999999
 21
229.60199999999989
 31
0.0
  0
LINE
  5
B1
  8
0
 62
     7
 10
119.0629999999999
 20
229.60199999999989
 30
0.0
 11
119.79600000000001
 21
227.434
 31
0.0
  0
LINE
  5
B2
  8
0
 62
     7
 10
119.79600000000001
 20
227.434
 30
0.0
 11
120.782
 21
228.08999999999989
 31
0.0
  0
LINE
  5
B3
  8
0
 62
     7
 10
125.797
 20
219.50299999999999
 30
0.0
 11
119.06999999999989
 21
229.60599999999999
 31
0.0
  0
LINE
  5
B4
  8
0
 62
     7
 10
137.46700000000001
 20
120.7579999999999
 30
0.0
 11
140.8174374145014
 21
120.7579999999999
 31
0.0
  0
LINE
  5
B5
  8
0
 62
     7
 10
145.274
 20
132.34100000000001
 30
0.0
 11
147.93899999999991
 21
132.34100000000001
 31
0.0
  0
ARC
  5
B6
  8
0
 62
     7
 10
157.4827929999999
 20
144.1141879999999
 30
0.0
 40
0.4325880000000001
 50
182.091207
 51
267.90882299999998
  0
ARC
  5
B7
  8
0
 62
     7
 10
157.45123000000001
 20
144.114182
 30
0.0
 40
0.4325810000000001
 50
272.09034400000002
 51
357.90966600000002
  0
ARC
  5
B8
  8
0
 62
     7
 10
157.451223
 20
144.082618
 30
0.0
 40
0.4325880000000001
 50
2.0912039999999998
 51
87.908785999999992
  0
ARC
  5
B9
  8
0
 62
     7
 10
157.4827929999999
 20
144.082618
 30
0.0
 40
0.4325880000000001
 50
92.091177000000002
 51
177.908793
  0
ARC
  5
BA
  8
0
 62
     7
 10
152.98278099999999
 20
144.1141879999999
 30
0.0
 40
0.4325880000000001
 50
182.091207
 51
267.90882299999998
  0
ARC
  5
BB
  8
0
 62
     7
 10
152.9512179999999
 20
144.114182
 30
0.0
 40
0.4325810000000001
 50
272.09034400000002
 51
357.90966600000002
  0
ARC
  5
BC
  8
0
 62
     7
 10
152.95121099999989
 20
144.082618
 30
0.0
 40
0.4325880000000001
 50
2.0912039999999998
 51
87.908785999999992
  0
ARC
  5
BD
  8
0
 62
     7
 10
152.98278099999999
 20
144.082618
 30
0.0
 40
0.4325880000000001
 50
92.091177000000002
 51
177.908793
  0
ARC
  5
BE
  8
0
 62
     7
 10
121.0208189999999
 20
134.18445199999991
 30
0.0
 40
0.556335
 50
46.092894999999999
 51
90.360011999999983
  0
ARC
  5
BF
  8
0
 62
     7
 10
120.741737
 20
133.90256199999999
 30
0.0
 40
0.952983
 50
23.749419
 51
45.757337999999997
  0
LINE
  5
C0
  8
0
 62
     7
 10
120.82899999999989
 20
133.94099999999989
 30
0.0
 11
119.82899999999989
 21
133.94099999999989
 31
0.0
  0
ARC
  5
C1
  8
0
 62
     7
 10
145.7492389999999
 20
122.24403700000001
 30
0.0
 40
2.7196539999999998
 50
329.53410200000002
 51
353.84264100000001
  0
ARC
  5
C2
  8
0
 62
     7
 10
146.39307700000001
 20
121.986569
 30
0.0
 40
2.0368509999999991
 50
266.85705000000002
 51
326.59261800000002
  0
ARC
  5
C3
  8
0
 62
     7
 10
149.73428100000001
 20
130.637832
 30
0.0
 40
0.6133250000000001
 50
100.50330599999999
 51
178.34408199999999
  0
ARC
  5
C4
  8
0
 62
     7
 10
148.9169949999999
 20
131.822338
 30
0.0
 40
0.519262
 50
92.09993900000002
 51
177.90003200000001
  0
ARC
  5
C5
  8
0
 62
     7
 10
146.59551399999989
 20
121.7860629999999
 30
0.0
 40
1.0287319999999991
 50
271.213503
 51
343.71397400000001
  0
LINE
  5
C6
  8
0
 62
     7
 10
146.46700000000001
 20
120.741
 30
0.0
 11
146.61699999999999
 21
120.7579999999999
 31
0.0
  0
LINE
  5
C7
  8
0
 62
     7
 10
148.398
 20
131.84100000000001
 30
0.0
 11
147.583
 21
121.49799999999991
 31
0.0
  0
LINE
  5
C8
  8
0
 62
     7
 10
148.453
 20
121.952
 30
0.0
 11
149.12100000000001
 21
130.65600000000001
 31
0.0
  0
LINE
  5
C9
  8
0
 62
     7
 10
148.89799999999991
 20
132.34100000000001
 30
0.0
 11
156.98500000000001
 21
132.34100000000001
 31
0.0
  0
LINE
  5
CA
  8
0
 62
     7
 10
151.21700000000001
 20
132.34100000000001
 30
0.0
 11
151.21700000000001
 21
131.24100000000001
 31
0.0
  0
LINE
  5
CB
  8
0
 62
     7
 10
154.71700000000001
 20
132.34100000000001
 30
0.0
 11
154.71700000000001
 21
131.24100000000001
 31
0.0
  0
LINE
  5
CC
  8
0
  6
AIGENLINE002
 62
     7
 10
152.96700000000001
 20
132.79099999999991
 30
0.0
 11
152.96700000000001
 21
128.8549999999999
 31
0.0
  0
LINE
  5
CD
  8
0
 62
     7
 10
157.46700000000001
 20
134.74100000000001
 30
0.0
 11
157.285
 21
132.62299999999999
 31
0.0
  0
ARC
  5
CE
  8
0
 62
     7
 10
156.97525099999999
 20
132.65194199999991
 30
0.0
 40
0.310855
 50
271.86751400000003
 51
354.66931299999987
  0
LINE
  5
CF
  8
0
 62
     7
 10
149.62200000000001
 20
131.24100000000001
 30
0.0
 11
159.20500000000001
 21
131.24100000000001
 31
0.0
  0
LINE
  5
D0
  8
0
 62
     7
 10
159.46700000000001
 20
134.74100000000001
 30
0.0
 11
159.20500000000001
 21
131.24100000000001
 31
0.0
  0
LINE
  5
D1
  8
0
 62
     7
 10
87.0321
 20
228.976
 30
0.0
 11
87.624300000000005
 21
226.7649999999999
 31
0.0
  0
LINE
  5
D2
  8
0
 62
     7
 10
87.624300000000005
 20
226.7649999999999
 30
0.0
 11
88.216700000000003
 21
228.976
 31
0.0
  0
LINE
  5
D3
  8
0
 62
     7
 10
88.216700000000003
 20
228.976
 30
0.0
 11
87.0321
 21
228.976
 31
0.0
  0
LINE
  5
D4
  8
0
 62
     7
 10
88.202100000000016
 20
231.05500000000001
 30
0.0
 11
87.609800000000007
 21
233.26499999999999
 31
0.0
  0
LINE
  5
D5
  8
0
 62
     7
 10
87.609800000000007
 20
233.26499999999999
 30
0.0
 11
87.017499999999998
 21
231.05500000000001
 31
0.0
  0
LINE
  5
D6
  8
0
 62
     7
 10
87.017499999999998
 20
231.05500000000001
 30
0.0
 11
88.202100000000016
 21
231.05500000000001
 31
0.0
  0
LINE
  5
D7
  8
0
 62
     7
 10
88.202100000000016
 20
220.05500000000001
 30
0.0
 11
87.609800000000007
 21
222.2649999999999
 31
0.0
  0
LINE
  5
D8
  8
0
 62
     7
 10
87.609800000000007
 20
222.2649999999999
 30
0.0
 11
87.017499999999998
 21
220.05500000000001
 31
0.0
  0
LINE
  5
D9
  8
0
 62
     7
 10
87.017499999999998
 20
220.05500000000001
 30
0.0
 11
88.202100000000016
 21
220.05500000000001
 31
0.0
  0
LINE
  5
DA
  8
0
 62
     7
 10
100.238
 20
217.97599999999991
 30
0.0
 11
100.8299999999999
 21
215.7649999999999
 31
0.0
  0
LINE
  5
DB
  8
0
 62
     7
 10
100.8299999999999
 20
215.7649999999999
 30
0.0
 11
101.4229999999999
 21
217.97599999999991
 31
0.0
  0
LINE
  5
DC
  8
0
 62
     7
 10
101.4229999999999
 20
217.97599999999991
 30
0.0
 11
100.238
 21
217.97599999999991
 31
0.0
  0
LINE
  5
DD
  8
0
 62
     7
 10
101.4079999999999
 20
231.05500000000001
 30
0.0
 11
100.8159999999999
 21
233.26499999999999
 31
0.0
  0
LINE
  5
DE
  8
0
 62
     7
 10
100.8159999999999
 20
233.26499999999999
 30
0.0
 11
100.2229999999999
 21
231.05500000000001
 31
0.0
  0
LINE
  5
DF
  8
0
 62
     7
 10
100.2229999999999
 20
231.05500000000001
 30
0.0
 11
101.4079999999999
 21
231.05500000000001
 31
0.0
  0
LINE
  5
E0
  8
0
 62
     7
 10
100.82299999999989
 20
215.7649999999999
 30
0.0
 11
100.82299999999989
 21
233.26499999999999
 31
0.0
  0
LINE
  5
E1
  8
0
 62
     7
 10
87.617099999999979
 20
217.35599999999999
 30
0.0
 11
87.617099999999979
 21
238.4489999999999
 31
0.0
  0
LINE
  5
E2
  8
0
 62
     7
 10
82.046499999999995
 20
226.7649999999999
 30
0.0
 11
88.174999999999997
 21
226.7649999999999
 31
0.0
  0
LINE
  5
E3
  8
0
 62
     7
 10
52.869300000000003
 20
207.614
 30
0.0
 11
59.609999999999999
 21
207.614
 31
0.0
  0
LINE
  5
E4
  8
0
 62
     7
 10
51.104999999999997
 20
216.95099999999991
 30
0.0
 11
57.946899999999999
 21
216.95099999999991
 31
0.0
  0
ARC
  5
E5
  8
0
 62
     7
 10
68.523769000000001
 20
196.76674099999991
 30
0.0
 40
0.4877890000000001
 50
322.99735699999991
 51
359.80915800000002
  0
ARC
  5
E6
  8
0
 62
     7
 10
68.183487
 20
197.010479
 30
0.0
 40
0.906292
 50
291.89211199999988
 51
323.63895899999989
  0
ARC
  5
E7
  8
0
 62
     7
 10
67.797025000000005
 20
197.78719099999989
 30
0.0
 40
1.7724329999999999
 50
268.85137300000002
 51
294.12279699999999
  0
ARC
  5
E8
  8
0
 62
     7
 10
67.763392999999994
 20
197.89887999999991
 30
0.0
 40
1.8837669999999991
 50
241.23061799999999
 51
269.94225799999992
  0
ARC
  5
E9
  8
0
 62
     7
 10
67.270134999999996
 20
196.93442499999989
 30
0.0
 40
0.8015939999999998
 50
204.994721
 51
238.95662400000001
  0
ARC
  5
EA
  8
0
 62
     7
 10
66.981428000000008
 20
196.7661709999999
 30
0.0
 40
0.469823
 50
180.12863899999991
 51
201.2716079999999
  0
ARC
  5
EB
  8
0
 62
     7
 10
66.999414000000002
 20
196.7634919999999
 30
0.0
 40
0.487811
 50
142.99923599999991
 51
179.80913699999999
  0
ARC
  5
EC
  8
0
 62
     7
 10
67.339652000000001
 20
196.519812
 30
0.0
 40
0.9062440000000001
 50
111.894346
 51
143.64125799999999
  0
ARC
  5
ED
  8
0
 62
     7
 10
67.726019999999991
 20
195.7433969999999
 30
0.0
 40
1.7720759999999991
 50
88.852937999999995
 51
114.12515399999999
  0
ARC
  5
EE
  8
0
 62
     7
 10
67.759598999999994
 20
195.63077799999991
 30
0.0
 40
1.8843419999999991
 50
61.235081999999991
 51
89.942355000000006
  0
ARC
  5
EF
  8
0
 62
     7
 10
68.253123000000002
 20
196.59586899999991
 30
0.0
 40
0.8014789999999999
 50
24.993631000000001
 51
58.961592000000003
  0
ARC
  5
F0
  8
0
 62
     7
 10
68.541733999999991
 20
196.764062
 30
0.0
 40
0.469823
 50
0.128619
 51
21.271588000000001
  0
ARC
  5
F1
  8
0
 62
     7
 10
150.35762199999999
 20
158.916414
 30
0.0
 40
43.583997999999987
 50
247.75507899999999
 51
254.09462400000001
  0
ARC
  5
F2
  8
0
 62
     7
 10
155.20877200000001
 20
171.91480999999999
 30
0.0
 40
57.453074000000001
 50
238.6563339999999
 51
248.1845669999999
  0
ARC
  5
F3
  8
0
 62
     7
 10
141.88190399999991
 20
149.472261
 30
0.0
 40
31.354851
 50
232.8835939999999
 51
238.12279799999999
  0
ARC
  5
F4
  8
0
 62
     7
 10
132.77822499999999
 20
137.369924
 30
0.0
 40
16.210881000000001
 50
225.18075499999989
 51
232.72943099999989
  0
ARC
  5
F5
  8
0
 62
     7
 10
126.926975
 20
131.38496399999991
 30
0.0
 40
7.8414559999999991
 50
217.15073699999999
 51
224.68282699999989
  0
ARC
  5
F6
  8
0
 62
     7
 10
145.11900399999999
 20
143.86426299999991
 30
0.0
 40
25.186184999999998
 50
245.69162
 51
253.73489000000001
  0
ARC
  5
F7
  8
0
 62
     7
 10
148.144282
 20
151.0565629999999
 30
0.0
 40
32.986815999999997
 50
225.47736699999999
 51
246.045311
  0
ARC
  5
F8
  8
0
 62
     7
 10
140.31498300000001
 20
142.643789
 30
0.0
 40
21.501232999999999
 50
212.61150599999999
 51
224.63292200000001
  0
ARC
  5
F9
  8
0
 62
     7
 10
134.31535700000001
 20
138.59721899999991
 30
0.0
 40
14.267699
 50
199.04798199999999
 51
211.90805299999991
  0
ARC
  5
FA
  8
0
 62
     7
 10
126.3742679999999
 20
130.53998100000001
 30
0.0
 40
6.898992999999999
 50
210.32433099999989
 51
214.32835299999999
  0
ARC
  5
FB
  8
0
 62
     7
 10
121.9311049999999
 20
127.6576509999999
 30
0.0
 40
1.626965
 50
185.15849700000001
 51
201.6759329999999
  0
ARC
  5
FC
  8
0
 62
     7
 10
145.39182600000001
 20
145.37746299999989
 30
0.0
 40
25.879746999999998
 50
241.22987999999989
 51
252.16795699999989
  0
ARC
  5
FD
  8
0
 62
     7
 10
147.45468099999991
 20
149.64567199999991
 30
0.0
 40
30.614913999999999
 50
223.29947100000001
 51
241.690393
  0
ARC
  5
FE
  8
0
 62
     7
 10
140.08388899999991
 20
142.34948899999989
 30
0.0
 40
20.24840399999999
 50
209.84355599999989
 51
222.57778699999989
  0
ARC
  5
FF
  8
0
 62
     7
 10
134.16645700000001
 20
138.728826
 30
0.0
 40
13.315375
 50
199.48950999999991
 51
209.00096999999991
  0
ARC
  5
100
  8
0
 62
     7
 10
164.73020600000001
 20
198.01476199999999
 30
0.0
 40
85.980878000000004
 50
247.79567
 51
252.00381699999991
  0
ARC
  5
101
  8
0
 62
     7
 10
153.37518799999989
 20
169.59569999999991
 30
0.0
 40
55.378596999999999
 50
241.68728100000001
 51
247.560891
  0
ARC
  5
102
  8
0
 62
     7
 10
144.00781099999989
 20
151.83734399999989
 30
0.0
 40
35.302279999999989
 50
234.00476399999991
 51
241.40207699999999
  0
ARC
  5
103
  8
0
 62
     7
 10
135.8406709999999
 20
140.38861199999999
 30
0.0
 40
21.239871000000001
 50
219.9842899999999
 51
233.67869400000001
  0
ARC
  5
104
  8
0
 62
     7
 10
70.716690999999997
 20
157.49608000000001
 30
0.0
 40
37.283977999999998
 50
272.22074700000002
 51
283.71515799999997
  0
ARC
  5
105
  8
0
 62
     7
 10
73.010379999999998
 20
146.96804800000001
 30
0.0
 40
26.513667000000002
 50
284.29400399999997
 51
297.6953059999999
  0
ARC
  5
106
  8
0
 62
     7
 10
76.229782999999983
 20
140.360039
 30
0.0
 40
19.167716999999989
 50
298.354849
 51
318.078509
  0
ARC
  5
107
  8
0
 62
     7
 10
78.225195999999997
 20
138.24270799999999
 30
0.0
 40
16.270198000000001
 50
318.93167899999997
 51
334.51043300000009
  0
ARC
  5
108
  8
0
 62
     7
 10
64.806297999999984
 20
157.49608000000001
 30
0.0
 40
37.283977999999998
 50
256.28486099999992
 51
267.77927199999999
  0
ARC
  5
109
  8
0
 62
     7
 10
62.512608999999998
 20
146.96804800000001
 30
0.0
 40
26.513667000000002
 50
242.30471399999999
 51
255.70601600000001
  0
ARC
  5
10A
  8
0
 62
     7
 10
59.293205999999998
 20
140.360039
 30
0.0
 40
19.167716999999989
 50
221.9215109999999
 51
241.645171
  0
ARC
  5
10B
  8
0
 62
     7
 10
57.298664999999993
 20
138.24327999999991
 30
0.0
 40
16.271231
 50
205.49008499999999
 51
221.06784300000001
  0
LINE
  5
10C
  8
0
 62
     7
 10
111.1539999999999
 20
197.68599999999989
 30
0.0
 11
110.7729999999999
 21
199.9429999999999
 31
0.0
  0
LINE
  5
10D
  8
0
 62
     7
 10
110.7729999999999
 20
199.9429999999999
 30
0.0
 11
109.97499999999999
 21
197.798
 31
0.0
  0
LINE
  5
10E
  8
0
 62
     7
 10
109.97499999999999
 20
197.798
 30
0.0
 11
111.1539999999999
 21
197.68599999999989
 31
0.0
  0
LINE
  5
10F
  8
0
 62
     7
 10
110.78
 20
199.94200000000001
 30
0.0
 11
107.8779999999999
 21
169.3249999999999
 31
0.0
  0
LINE
  5
110
  8
0
 62
     7
 10
120.42700000000001
 20
187.416
 30
0.0
 11
118.21599999999999
 21
186.82400000000001
 31
0.0
  0
LINE
  5
111
  8
0
 62
     7
 10
118.21599999999999
 20
186.82400000000001
 30
0.0
 11
120.42700000000001
 21
186.23099999999991
 31
0.0
  0
LINE
  5
112
  8
0
 62
     7
 10
120.42700000000001
 20
186.23099999999991
 30
0.0
 11
120.42700000000001
 21
187.416
 31
0.0
  0
LINE
  5
113
  8
0
 62
     7
 10
163.506
 20
186.2459999999999
 30
0.0
 11
165.71700000000001
 21
186.83799999999991
 31
0.0
  0
LINE
  5
114
  8
0
 62
     7
 10
165.71700000000001
 20
186.83799999999991
 30
0.0
 11
163.506
 21
187.4309999999999
 31
0.0
  0
LINE
  5
115
  8
0
 62
     7
 10
163.506
 20
187.4309999999999
 30
0.0
 11
163.506
 21
186.2459999999999
 31
0.0
  0
LINE
  5
116
  8
0
 62
     7
 10
107.8779999999999
 20
169.3249999999999
 30
0.0
 11
129.51300000000001
 21
169.3249999999999
 31
0.0
  0
LINE
  5
117
  8
0
 62
     7
 10
118.21599999999999
 20
186.8309999999999
 30
0.0
 11
165.71700000000001
 21
186.8309999999999
 31
0.0
  0
LINE
  5
118
  8
0
 62
     7
 10
165.71700000000001
 20
195.57900000000001
 30
0.0
 11
165.71700000000001
 21
185.97499999999999
 31
0.0
  0
LINE
  5
119
  8
0
 62
     7
 10
118.21599999999999
 20
195.57900000000001
 30
0.0
 11
118.21599999999999
 21
185.97499999999999
 31
0.0
  0
LINE
  5
11A
  8
0
 62
     7
 10
141.96600000000001
 20
234.125
 30
0.0
 11
141.96600000000001
 21
241.16800000000001
 31
0.0
  0
LINE
  5
11B
  8
0
 62
     7
 10
171.3779999999999
 20
241.102
 30
0.0
 11
169.167
 21
240.50999999999999
 31
0.0
  0
LINE
  5
11C
  8
0
 62
     7
 10
169.167
 20
240.50999999999999
 30
0.0
 11
171.3779999999999
 21
239.917
 31
0.0
  0
LINE
  5
11D
  8
0
 62
     7
 10
171.3779999999999
 20
239.917
 30
0.0
 11
171.3779999999999
 21
241.102
 31
0.0
  0
LINE
  5
11E
  8
0
 62
     7
 10
156.0439999999999
 20
198.226
 30
0.0
 11
156.637
 21
196.0149999999999
 31
0.0
  0
LINE
  5
11F
  8
0
 62
     7
 10
156.637
 20
196.0149999999999
 30
0.0
 11
157.2289999999999
 21
198.226
 31
0.0
  0
LINE
  5
120
  8
0
 62
     7
 10
157.2289999999999
 20
198.226
 30
0.0
 11
156.0439999999999
 21
198.226
 31
0.0
  0
LINE
  5
121
  8
0
 62
     7
 10
157.214
 20
228.30500000000001
 30
0.0
 11
156.62200000000001
 21
230.5149999999999
 31
0.0
  0
LINE
  5
122
  8
0
 62
     7
 10
156.62200000000001
 20
230.5149999999999
 30
0.0
 11
156.02999999999989
 21
228.30500000000001
 31
0.0
  0
LINE
  5
123
  8
0
 62
     7
 10
156.02999999999989
 20
228.30500000000001
 30
0.0
 11
157.214
 21
228.30500000000001
 31
0.0
  0
LINE
  5
124
  8
0
 62
     7
 10
156.62899999999991
 20
196.0149999999999
 30
0.0
 11
156.62899999999991
 21
230.5149999999999
 31
0.0
  0
LINE
  5
125
  8
0
 62
     7
 10
144.17699999999999
 20
241.102
 30
0.0
 11
141.96600000000001
 21
240.50999999999999
 31
0.0
  0
LINE
  5
126
  8
0
 62
     7
 10
141.96600000000001
 20
240.50999999999999
 30
0.0
 11
144.17699999999999
 21
239.917
 31
0.0
  0
LINE
  5
127
  8
0
 62
     7
 10
144.17699999999999
 20
239.917
 30
0.0
 11
144.17699999999999
 21
241.102
 31
0.0
  0
LINE
  5
128
  8
0
 62
     7
 10
116.9769999999999
 20
241.102
 30
0.0
 11
114.767
 21
240.50999999999999
 31
0.0
  0
LINE
  5
129
  8
0
 62
     7
 10
114.767
 20
240.50999999999999
 30
0.0
 11
116.9769999999999
 21
239.917
 31
0.0
  0
LINE
  5
12A
  8
0
 62
     7
 10
116.9769999999999
 20
239.917
 30
0.0
 11
116.9769999999999
 21
241.102
 31
0.0
  0
LINE
  5
12B
  8
0
 62
     7
 10
69.972700000000003
 20
241.102
 30
0.0
 11
67.762
 21
240.50999999999999
 31
0.0
  0
LINE
  5
12C
  8
0
 62
     7
 10
67.762
 20
240.50999999999999
 30
0.0
 11
69.972700000000003
 21
239.917
 31
0.0
  0
LINE
  5
12D
  8
0
 62
     7
 10
69.972700000000003
 20
239.917
 30
0.0
 11
69.972700000000003
 21
241.102
 31
0.0
  0
LINE
  5
12E
  8
0
 62
     7
 10
75.550899999999984
 20
239.93199999999999
 30
0.0
 11
77.761600000000001
 21
240.524
 31
0.0
  0
LINE
  5
12F
  8
0
 62
     7
 10
77.761600000000001
 20
240.524
 30
0.0
 11
75.550899999999984
 21
241.11699999999999
 31
0.0
  0
LINE
  5
130
  8
0
 62
     7
 10
75.550899999999984
 20
241.11699999999999
 30
0.0
 11
75.550899999999984
 21
239.93199999999999
 31
0.0
  0
LINE
  5
131
  8
0
 62
     7
 10
67.762
 20
240.517
 30
0.0
 11
77.761600000000001
 21
240.517
 31
0.0
  0
LINE
  5
132
  8
0
 62
     7
 10
77.761600000000001
 20
232.30099999999999
 30
0.0
 11
77.761600000000001
 21
241.22300000000001
 31
0.0
  0
LINE
  5
133
  8
0
 62
     7
 10
59.973100000000002
 20
241.102
 30
0.0
 11
57.7624
 21
240.50999999999999
 31
0.0
  0
LINE
  5
134
  8
0
 62
     7
 10
57.7624
 20
240.50999999999999
 30
0.0
 11
59.973100000000002
 21
239.917
 31
0.0
  0
LINE
  5
135
  8
0
 62
     7
 10
59.973100000000002
 20
239.917
 30
0.0
 11
59.973100000000002
 21
241.102
 31
0.0
  0
LINE
  5
136
  8
0
 62
     7
 10
65.551299999999998
 20
239.93199999999999
 30
0.0
 11
67.762
 21
240.524
 31
0.0
  0
LINE
  5
137
  8
0
 62
     7
 10
67.762
 20
240.524
 30
0.0
 11
65.551299999999998
 21
241.11699999999999
 31
0.0
  0
LINE
  5
138
  8
0
 62
     7
 10
65.551299999999998
 20
241.11699999999999
 30
0.0
 11
65.551299999999998
 21
239.93199999999999
 31
0.0
  0
LINE
  5
139
  8
0
 62
     7
 10
57.7624
 20
240.517
 30
0.0
 11
67.762
 21
240.517
 31
0.0
  0
LINE
  5
13A
  8
0
 62
     7
 10
67.762
 20
237.51599999999999
 30
0.0
 11
67.762
 21
241.22300000000001
 31
0.0
  0
LINE
  5
13B
  8
0
 62
     7
 10
57.761699999999998
 20
232.30099999999999
 30
0.0
 11
57.761699999999998
 21
241.22300000000001
 31
0.0
  0
LINE
  5
13C
  8
0
 62
     7
 10
108.97799999999989
 20
241.102
 30
0.0
 11
106.767
 21
240.50999999999999
 31
0.0
  0
LINE
  5
13D
  8
0
 62
     7
 10
106.767
 20
240.50999999999999
 30
0.0
 11
108.97799999999989
 21
239.917
 31
0.0
  0
LINE
  5
13E
  8
0
 62
     7
 10
108.97799999999989
 20
239.917
 30
0.0
 11
108.97799999999989
 21
241.102
 31
0.0
  0
LINE
  5
13F
  8
0
 62
     7
 10
139.756
 20
239.93199999999999
 30
0.0
 11
141.96600000000001
 21
240.524
 31
0.0
  0
LINE
  5
140
  8
0
 62
     7
 10
141.96600000000001
 20
240.524
 30
0.0
 11
139.756
 21
241.11699999999999
 31
0.0
  0
LINE
  5
141
  8
0
 62
     7
 10
139.756
 20
241.11699999999999
 30
0.0
 11
139.756
 21
239.93199999999999
 31
0.0
  0
LINE
  5
142
  8
0
 62
     7
 10
112.5559999999999
 20
239.93199999999999
 30
0.0
 11
114.767
 21
240.524
 31
0.0
  0
LINE
  5
143
  8
0
 62
     7
 10
114.767
 20
240.524
 30
0.0
 11
112.5559999999999
 21
241.11699999999999
 31
0.0
  0
LINE
  5
144
  8
0
 62
     7
 10
112.5559999999999
 20
241.11699999999999
 30
0.0
 11
112.5559999999999
 21
239.93199999999999
 31
0.0
  0
LINE
  5
145
  8
0
 62
     7
 10
166.9559999999999
 20
239.93199999999999
 30
0.0
 11
169.167
 21
240.524
 31
0.0
  0
LINE
  5
146
  8
0
 62
     7
 10
169.167
 20
240.524
 30
0.0
 11
166.9559999999999
 21
241.11699999999999
 31
0.0
  0
LINE
  5
147
  8
0
 62
     7
 10
166.9559999999999
 20
241.11699999999999
 30
0.0
 11
166.9559999999999
 21
239.93199999999999
 31
0.0
  0
LINE
  5
148
  8
0
 62
     7
 10
174.9559999999999
 20
239.93199999999999
 30
0.0
 11
177.167
 21
240.524
 31
0.0
  0
LINE
  5
149
  8
0
 62
     7
 10
177.167
 20
240.524
 30
0.0
 11
174.9559999999999
 21
241.11699999999999
 31
0.0
  0
LINE
  5
14A
  8
0
 62
     7
 10
174.9559999999999
 20
241.11699999999999
 30
0.0
 11
174.9559999999999
 21
239.93199999999999
 31
0.0
  0
LINE
  5
14B
  8
0
 62
     7
 10
106.767
 20
240.517
 30
0.0
 11
177.167
 21
240.517
 31
0.0
  0
LINE
  5
14C
  8
0
 62
     7
 10
177.167
 20
231.63800000000001
 30
0.0
 11
177.167
 21
241.22300000000001
 31
0.0
  0
LINE
  5
14D
  8
0
 62
     7
 10
169.167
 20
231.63800000000001
 30
0.0
 11
169.167
 21
241.22300000000001
 31
0.0
  0
LINE
  5
14E
  8
0
 62
     7
 10
114.767
 20
231.63800000000001
 30
0.0
 11
114.767
 21
241.22300000000001
 31
0.0
  0
LINE
  5
14F
  8
0
 62
     7
 10
106.76600000000001
 20
231.63800000000001
 30
0.0
 11
106.76600000000001
 21
241.22300000000001
 31
0.0
  0
LINE
  5
151
  8
0
  6
AIGENLINE003
 62
     7
 10
106.76600000000001
 20
230.5149999999999
 30
0.0
 11
114.767
 21
196.0149999999999
 31
0.0
  0
LINE
  5
152
  8
0
  6
AIGENLINE003
 62
     7
 10
106.76600000000001
 20
196.0149999999999
 30
0.0
 11
114.767
 21
230.5149999999999
 31
0.0
  0
LINE
  5
153
  8
0
  6
AIGENLINE003
 62
     7
 10
106.76600000000001
 20
196.0149999999999
 30
0.0
 11
114.767
 21
196.0149999999999
 31
0.0
  0
LINE
  5
154
  8
0
  6
AIGENLINE003
 62
     7
 10
106.76600000000001
 20
230.5149999999999
 30
0.0
 11
114.767
 21
230.5149999999999
 31
0.0
  0
LINE
  5
155
  8
0
  6
AIGENLINE003
 62
     7
 10
114.767
 20
196.0149999999999
 30
0.0
 11
114.767
 21
230.5149999999999
 31
0.0
  0
LINE
  5
156
  8
0
  6
AIGENLINE003
 62
     7
 10
106.76600000000001
 20
196.0149999999999
 30
0.0
 11
106.76600000000001
 21
230.5149999999999
 31
0.0
  0
LINE
  5
157
  8
0
  6
AIGENLINE003
 62
     7
 10
169.167
 20
230.5149999999999
 30
0.0
 11
177.167
 21
196.0149999999999
 31
0.0
  0
LINE
  5
158
  8
0
  6
AIGENLINE003
 62
     7
 10
169.167
 20
196.0149999999999
 30
0.0
 11
177.167
 21
230.5149999999999
 31
0.0
  0
LINE
  5
159
  8
0
  6
AIGENLINE003
 62
     7
 10
169.167
 20
196.0149999999999
 30
0.0
 11
177.167
 21
196.0149999999999
 31
0.0
  0
LINE
  5
15A
  8
0
  6
AIGENLINE003
 62
     7
 10
169.167
 20
230.5149999999999
 30
0.0
 11
177.167
 21
230.5149999999999
 31
0.0
  0
LINE
  5
15B
  8
0
  6
AIGENLINE003
 62
     7
 10
177.167
 20
196.0149999999999
 30
0.0
 11
177.167
 21
230.5149999999999
 31
0.0
  0
LINE
  5
15C
  8
0
  6
AIGENLINE003
 62
     7
 10
169.167
 20
196.0149999999999
 30
0.0
 11
169.167
 21
230.5149999999999
 31
0.0
  0
LINE
  5
15D
  8
0
  6
AIGENLINE002
 62
     7
 10
141.96600000000001
 20
192.559
 30
0.0
 11
141.96600000000001
 21
233.33500000000001
 31
0.0
  0
LINE
  5
15E
  8
0
 62
     7
 10
121.21599999999999
 20
196.0149999999999
 30
0.0
 11
162.71700000000001
 21
196.0149999999999
 31
0.0
  0
LINE
  5
15F
  8
0
 62
     7
 10
121.21599999999999
 20
230.5149999999999
 30
0.0
 11
162.71700000000001
 21
230.5149999999999
 31
0.0
  0
LINE
  5
160
  8
0
 62
     7
 10
118.21599999999999
 20
199.0149999999999
 30
0.0
 11
118.21599999999999
 21
227.51499999999999
 31
0.0
  0
LINE
  5
161
  8
0
 62
     7
 10
157.46700000000001
 20
144.709
 30
0.0
 11
157.46700000000001
 21
135.2239999999999
 31
0.0
  0
LINE
  5
162
  8
0
 62
     7
 10
152.96700000000001
 20
144.709
 30
0.0
 11
152.96700000000001
 21
133.46100000000001
 31
0.0
  0
LINE
  5
163
  8
0
 62
     7
 10
146.29199999999989
 20
130.13099999999989
 30
0.0
 11
145.6999999999999
 21
132.34100000000001
 31
0.0
  0
LINE
  5
164
  8
0
 62
     7
 10
145.6999999999999
 20
132.34100000000001
 30
0.0
 11
145.108
 21
130.13099999999989
 31
0.0
  0
LINE
  5
165
  8
0
 62
     7
 10
145.108
 20
130.13099999999989
 30
0.0
 11
146.29199999999989
 21
130.13099999999989
 31
0.0
  0
LINE
  5
166
  8
0
 62
     7
 10
145.12200000000001
 20
136.952
 30
0.0
 11
145.714
 21
134.74100000000001
 31
0.0
  0
LINE
  5
167
  8
0
 62
     7
 10
145.714
 20
134.74100000000001
 30
0.0
 11
146.30699999999999
 21
136.952
 31
0.0
  0
LINE
  5
168
  8
0
 62
     7
 10
146.30699999999999
 20
136.952
 30
0.0
 11
145.12200000000001
 21
136.952
 31
0.0
  0
LINE
  5
169
  8
0
 62
     7
 10
145.70699999999991
 20
141.649
 30
0.0
 11
145.70699999999991
 21
127.739
 31
0.0
  0
LINE
  5
16A
  8
0
 62
     7
 10
148.46700000000001
 20
144.709
 30
0.0
 11
148.46700000000001
 21
133.11399999999989
 31
0.0
  0
LINE
  5
16B
  8
0
 62
     7
 10
122.506
 20
132.30000000000001
 30
0.0
 11
121.7109999999999
 21
131.90999999999991
 31
0.0
  0
LINE
  5
16C
  8
0
 62
     7
 10
122.057
 20
133.18899999999999
 30
0.0
 11
121.27200000000001
 21
132.804
 31
0.0
  0
LINE
  5
16E
  8
0
 62
     7
 10
121.467
 20
144.709
 30
0.0
 11
121.467
 21
135.268
 31
0.0
  0
LINE
  5
16F
  8
0
 62
     7
 10
118.967
 20
151.55600000000001
 30
0.0
 11
118.967
 21
135.268
 31
0.0
  0
LINE
  5
170
  8
0
 62
     7
 10
159.46700000000001
 20
151.55600000000001
 30
0.0
 11
159.46700000000001
 21
135.268
 31
0.0
  0
LINE
  5
171
  8
0
 62
     7
 10
146.256
 20
143.51300000000001
 30
0.0
 11
148.46700000000001
 21
144.10599999999999
 31
0.0
  0
LINE
  5
172
  8
0
 62
     7
 10
148.46700000000001
 20
144.10599999999999
 30
0.0
 11
146.256
 21
144.69799999999989
 31
0.0
  0
LINE
  5
173
  8
0
 62
     7
 10
146.256
 20
144.69799999999989
 30
0.0
 11
146.256
 21
143.51300000000001
 31
0.0
  0
LINE
  5
174
  8
0
 62
     7
 10
116.7559999999999
 20
143.51300000000001
 30
0.0
 11
118.967
 21
144.10599999999999
 31
0.0
  0
LINE
  5
175
  8
0
 62
     7
 10
118.967
 20
144.10599999999999
 30
0.0
 11
116.7559999999999
 21
144.69799999999989
 31
0.0
  0
LINE
  5
176
  8
0
 62
     7
 10
116.7559999999999
 20
144.69799999999989
 30
0.0
 11
116.7559999999999
 21
143.51300000000001
 31
0.0
  0
LINE
  5
177
  8
0
 62
     7
 10
161.678
 20
144.68299999999999
 30
0.0
 11
159.46700000000001
 21
144.09100000000001
 31
0.0
  0
LINE
  5
178
  8
0
 62
     7
 10
159.46700000000001
 20
144.09100000000001
 30
0.0
 11
161.678
 21
143.49899999999991
 31
0.0
  0
LINE
  5
179
  8
0
 62
     7
 10
161.678
 20
143.49899999999991
 30
0.0
 11
161.678
 21
144.68299999999999
 31
0.0
  0
LINE
  5
17A
  8
0
 62
     7
 10
123.67700000000001
 20
144.68299999999999
 30
0.0
 11
121.467
 21
144.09100000000001
 31
0.0
  0
LINE
  5
17B
  8
0
 62
     7
 10
121.467
 20
144.09100000000001
 30
0.0
 11
123.67700000000001
 21
143.49899999999991
 31
0.0
  0
LINE
  5
17C
  8
0
 62
     7
 10
123.67700000000001
 20
143.49899999999991
 30
0.0
 11
123.67700000000001
 21
144.68299999999999
 31
0.0
  0
LINE
  5
17D
  8
0
 62
     7
 10
165.76300000000001
 20
144.0979999999999
 30
0.0
 11
112.7299999999999
 21
144.0979999999999
 31
0.0
  0
LINE
  5
17E
  8
0
 62
     7
 10
157.256
 20
150.30799999999991
 30
0.0
 11
159.46700000000001
 21
150.90000000000001
 31
0.0
  0
LINE
  5
17F
  8
0
 62
     7
 10
159.46700000000001
 20
150.90000000000001
 30
0.0
 11
157.256
 21
151.49299999999991
 31
0.0
  0
LINE
  5
180
  8
0
 62
     7
 10
157.256
 20
151.49299999999991
 30
0.0
 11
157.256
 21
150.30799999999991
 31
0.0
  0
LINE
  5
181
  8
0
 62
     7
 10
121.178
 20
151.47799999999989
 30
0.0
 11
118.967
 21
150.886
 31
0.0
  0
LINE
  5
182
  8
0
 62
     7
 10
118.967
 20
150.886
 30
0.0
 11
121.178
 21
150.2939999999999
 31
0.0
  0
LINE
  5
183
  8
0
 62
     7
 10
121.178
 20
150.2939999999999
 30
0.0
 11
121.178
 21
151.47799999999989
 31
0.0
  0
LINE
  5
184
  8
0
 62
     7
 10
159.46700000000001
 20
150.893
 30
0.0
 11
118.967
 21
150.893
 31
0.0
  0
LINE
  5
185
  8
0
 62
     7
 10
138.93199999999999
 20
122.9679999999999
 30
0.0
 11
139.524
 21
120.7579999999999
 31
0.0
  0
LINE
  5
186
  8
0
 62
     7
 10
139.524
 20
120.7579999999999
 30
0.0
 11
140.11600000000001
 21
122.9679999999999
 31
0.0
  0
LINE
  5
187
  8
0
 62
     7
 10
140.11600000000001
 20
122.9679999999999
 30
0.0
 11
138.93199999999999
 21
122.9679999999999
 31
0.0
  0
LINE
  5
188
  8
0
 62
     7
 10
140.11600000000001
 20
132.53
 30
0.0
 11
139.524
 21
134.74100000000001
 31
0.0
  0
LINE
  5
189
  8
0
 62
     7
 10
139.524
 20
134.74100000000001
 30
0.0
 11
138.93199999999999
 21
132.53
 31
0.0
  0
LINE
  5
18A
  8
0
 62
     7
 10
138.93199999999999
 20
132.53
 30
0.0
 11
140.11600000000001
 21
132.53
 31
0.0
  0
LINE
  5
18B
  8
0
 62
     7
 10
139.53100000000001
 20
120.741
 30
0.0
 11
139.53100000000001
 21
134.74100000000001
 31
0.0
  0
LINE
  5
18C
  8
0
 62
     7
 10
157.256
 20
107.4019999999999
 30
0.0
 11
159.46700000000001
 21
107.994
 31
0.0
  0
LINE
  5
18D
  8
0
 62
     7
 10
159.46700000000001
 20
107.994
 30
0.0
 11
157.256
 21
108.587
 31
0.0
  0
LINE
  5
18E
  8
0
 62
     7
 10
157.256
 20
108.587
 30
0.0
 11
157.256
 21
107.4019999999999
 31
0.0
  0
LINE
  5
192
  8
0
 62
     7
 10
159.46700000000001
 20
107.98699999999999
 30
0.0
 11
141.96700000000001
 21
107.98699999999999
 31
0.0
  0
LINE
  5
193
  8
0
 62
     7
 10
159.46700000000001
 20
107.63200000000001
 30
0.0
 11
159.46700000000001
 21
130.52299999999991
 31
0.0
  0
LINE
  5
194
  8
0
 62
     7
 10
141.96700000000001
 20
107.592
 30
0.0
 11
141.96700000000001
 21
113.399
 31
0.0
  0
LINE
  5
195
  8
0
 62
     7
 10
167.04699999999991
 20
132.53
 30
0.0
 11
166.45500000000001
 21
134.74100000000001
 31
0.0
  0
LINE
  5
196
  8
0
 62
     7
 10
166.45500000000001
 20
134.74100000000001
 30
0.0
 11
165.86199999999991
 21
132.53
 31
0.0
  0
LINE
  5
197
  8
0
 62
     7
 10
165.86199999999991
 20
132.53
 30
0.0
 11
167.04699999999991
 21
132.53
 31
0.0
  0
LINE
  5
198
  8
0
 62
     7
 10
165.87700000000001
 20
117.9499999999999
 30
0.0
 11
166.46899999999999
 21
115.7399999999999
 31
0.0
  0
LINE
  5
199
  8
0
 62
     7
 10
166.46899999999999
 20
115.7399999999999
 30
0.0
 11
167.06099999999989
 21
117.9499999999999
 31
0.0
  0
LINE
  5
19A
  8
0
 62
     7
 10
167.06099999999989
 20
117.9499999999999
 30
0.0
 11
165.87700000000001
 21
117.9499999999999
 31
0.0
  0
LINE
  5
19B
  8
0
 62
     7
 10
166.46199999999999
 20
134.74100000000001
 30
0.0
 11
166.46199999999999
 21
115.7399999999999
 31
0.0
  0
LINE
  5
19C
  8
0
 62
     7
 10
160.017
 20
134.74100000000001
 30
0.0
 11
166.893
 21
134.74100000000001
 31
0.0
  0
LINE
  5
19D
  8
0
 62
     7
 10
146.46700000000001
 20
115.7399999999999
 30
0.0
 11
167.08799999999991
 21
115.7399999999999
 31
0.0
  0
LINE
  5
19E
  8
0
  6
AIGENLINE002
 62
     7
 10
141.96700000000001
 20
113.822
 30
0.0
 11
141.96700000000001
 21
126.44480206282191
 31
0.0
  0
LINE
  5
19F
  8
0
 62
     7
 10
145.767
 20
116.2399999999999
 30
0.0
 11
145.767
 21
119.3589999999999
 31
0.0
  0
ARC
  5
1A0
  8
0
 62
     7
 10
146.385696
 20
119.3424159999999
 30
0.0
 40
0.6192130000000001
 50
99.696547999999979
 51
178.479716
  0
LINE
  5
1A1
  8
0
 62
     7
 10
118.967
 20
134.74100000000001
 30
0.0
 11
119.5659999999999
 21
126.73999999999999
 31
0.0
  0
LINE
  5
1A2
  8
0
 62
     7
 10
120.31100000000001
 20
127.511
 30
0.0
 11
119.82899999999989
 21
133.94099999999989
 31
0.0
  0
LINE
  5
1A3
  8
0
 62
     7
 10
159.46700000000001
 20
134.74100000000001
 30
0.0
 11
118.967
 21
134.74100000000001
 31
0.0
  0
LINE
  5
1A4
  8
0
 62
     7
 10
139.16699999999989
 20
118.2409999999999
 30
0.0
 11
138.06499999999991
 21
119.68600000000001
 31
0.0
  0
LINE
  5
1A5
  8
0
 62
     7
 10
138.4129999999999
 20
117.00099999999991
 30
0.0
 11
139.16699999999989
 21
116.741
 31
0.0
  0
LINE
  5
1A6
  8
0
 62
     7
 10
139.666
 20
119.2409999999999
 30
0.0
 11
137.46700000000001
 21
120.741
 31
0.0
  0
LINE
  5
1A7
  8
0
 62
     7
 10
146.46700000000001
 20
120.741
 30
0.0
 11
144.26699999999991
 21
119.2409999999999
 31
0.0
  0
LINE
  5
1A8
  8
0
 62
     7
 10
144.76599999999991
 20
118.2409999999999
 30
0.0
 11
144.76599999999991
 21
116.741
 31
0.0
  0
LINE
  5
1A9
  8
0
 62
     7
 10
144.26699999999991
 20
118.2409999999999
 30
0.0
 11
144.26699999999991
 21
119.2409999999999
 31
0.0
  0
LINE
  5
1AA
  8
0
 62
     7
 10
144.26699999999991
 20
115.7399999999999
 30
0.0
 11
144.26699999999991
 21
116.741
 31
0.0
  0
LINE
  5
1AB
  8
0
 62
     7
 10
139.666
 20
118.2409999999999
 30
0.0
 11
139.666
 21
119.2409999999999
 31
0.0
  0
LINE
  5
1AC
  8
0
 62
     7
 10
139.666
 20
115.7399999999999
 30
0.0
 11
139.666
 21
116.741
 31
0.0
  0
LINE
  5
1AD
  8
0
 62
     7
 10
139.666
 20
119.2409999999999
 30
0.0
 11
144.26699999999991
 21
119.2409999999999
 31
0.0
  0
LINE
  5
1AE
  8
0
 62
     7
 10
139.16699999999989
 20
118.2409999999999
 30
0.0
 11
144.76599999999991
 21
118.2409999999999
 31
0.0
  0
LINE
  5
1AF
  8
0
 62
     7
 10
139.16699999999989
 20
116.741
 30
0.0
 11
144.76599999999991
 21
116.741
 31
0.0
  0
LINE
  5
1B0
  8
0
 62
     7
 10
138.16599999999991
 20
115.7399999999999
 30
0.0
 11
138.16599999999991
 21
116.2399999999999
 31
0.0
  0
LINE
  5
1B1
  8
0
 62
     7
 10
138.16599999999991
 20
115.7399999999999
 30
0.0
 11
145.26699999999991
 21
115.7399999999999
 31
0.0
  0
LINE
  5
1B2
  8
0
 62
     7
 10
63.384
 20
115.7399999999999
 30
0.0
 11
29.208200000000001
 21
115.7399999999999
 31
0.0
  0
LINE
  5
1B3
  8
0
 62
     7
 10
41.039999999999999
 20
131.24100000000001
 30
0.0
 11
34.070300000000003
 21
131.24100000000001
 31
0.0
  0
LINE
  5
1B4
  8
0
 62
     7
 10
40.903399999999998
 20
134.74100000000001
 30
0.0
 11
29.218900000000001
 21
134.74100000000001
 31
0.0
  0
LINE
  5
1B5
  8
0
 62
     7
 10
30.3034
 20
132.53
 30
0.0
 11
29.711200000000002
 21
134.74100000000001
 31
0.0
  0
LINE
  5
1B6
  8
0
 62
     7
 10
29.711200000000002
 20
134.74100000000001
 30
0.0
 11
29.1188
 21
132.53
 31
0.0
  0
LINE
  5
1B7
  8
0
 62
     7
 10
29.1188
 20
132.53
 30
0.0
 11
30.3034
 21
132.53
 31
0.0
  0
LINE
  5
1B8
  8
0
 62
     7
 10
29.133500000000002
 20
117.9499999999999
 30
0.0
 11
29.7257
 21
115.7399999999999
 31
0.0
  0
LINE
  5
1B9
  8
0
 62
     7
 10
29.7257
 20
115.7399999999999
 30
0.0
 11
30.318100000000001
 21
117.9499999999999
 31
0.0
  0
LINE
  5
1BA
  8
0
 62
     7
 10
30.318100000000001
 20
117.9499999999999
 30
0.0
 11
29.133500000000002
 21
117.9499999999999
 31
0.0
  0
LINE
  5
1BB
  8
0
 62
     7
 10
29.718399999999999
 20
134.74100000000001
 30
0.0
 11
29.718399999999999
 21
115.7399999999999
 31
0.0
  0
LINE
  5
1BC
  8
0
 62
     7
 10
34.1496
 20
136.95099999999999
 30
0.0
 11
34.741799999999998
 21
134.74100000000001
 31
0.0
  0
LINE
  5
1BD
  8
0
 62
     7
 10
34.741799999999998
 20
134.74100000000001
 30
0.0
 11
35.334200000000003
 21
136.95099999999999
 31
0.0
  0
LINE
  5
1BE
  8
0
 62
     7
 10
35.334200000000003
 20
136.95099999999999
 30
0.0
 11
34.1496
 21
136.95099999999999
 31
0.0
  0
LINE
  5
1BF
  8
0
 62
     7
 10
35.319499999999998
 20
129.03
 30
0.0
 11
34.7273
 21
131.24100000000001
 31
0.0
  0
LINE
  5
1C0
  8
0
 62
     7
 10
34.7273
 20
131.24100000000001
 30
0.0
 11
34.134900000000002
 21
129.03
 31
0.0
  0
LINE
  5
1C1
  8
0
 62
     7
 10
34.134900000000002
 20
129.03
 30
0.0
 11
35.319499999999998
 21
129.03
 31
0.0
  0
LINE
  5
1C2
  8
0
 62
     7
 10
34.73449999999999
 20
127.6939999999999
 30
0.0
 11
34.73449999999999
 21
141.6329999999999
 31
0.0
  0
LINE
  5
1C3
  8
0
 62
     7
 10
25.469799999999999
 20
231.05500000000001
 30
0.0
 11
24.877500000000001
 21
233.26499999999999
 31
0.0
  0
LINE
  5
1C4
  8
0
 62
     7
 10
24.877500000000001
 20
233.26499999999999
 30
0.0
 11
24.2851
 21
231.05500000000001
 31
0.0
  0
LINE
  5
1C5
  8
0
 62
     7
 10
24.2851
 20
231.05500000000001
 30
0.0
 11
25.469799999999999
 21
231.05500000000001
 31
0.0
  0
LINE
  5
1C6
  8
0
 62
     7
 10
24.299800000000001
 20
194.97599999999991
 30
0.0
 11
24.891999999999999
 21
192.7649999999999
 31
0.0
  0
LINE
  5
1C7
  8
0
 62
     7
 10
24.891999999999999
 20
192.7649999999999
 30
0.0
 11
25.484400000000001
 21
194.97599999999991
 31
0.0
  0
LINE
  5
1C8
  8
0
 62
     7
 10
25.484400000000001
 20
194.97599999999991
 30
0.0
 11
24.299800000000001
 21
194.97599999999991
 31
0.0
  0
LINE
  5
1C9
  8
0
 62
     7
 10
24.884799999999998
 20
233.26499999999999
 30
0.0
 11
24.884799999999998
 21
192.7649999999999
 31
0.0
  0
LINE
  5
1CA
  8
0
 62
     7
 10
101.6189999999999
 20
233.26499999999999
 30
0.0
 11
92.356399999999994
 21
233.26499999999999
 31
0.0
  0
LINE
  5
1CB
  8
0
 62
     7
 10
43.000100000000003
 20
233.26499999999999
 30
0.0
 11
24.601199999999992
 21
233.26499999999999
 31
0.0
  0
LINE
  5
1CC
  8
0
 62
     7
 10
101.3989999999999
 20
215.7649999999999
 30
0.0
 11
75.226699999999994
 21
215.7649999999999
 31
0.0
  0
LINE
  5
1CD
  8
0
 62
     7
 10
44.229999999999997
 20
222.2649999999999
 30
0.0
 11
36.948900000000002
 21
222.2649999999999
 31
0.0
  0
LINE
  5
1CE
  8
0
 62
     7
 10
44.110399999999991
 20
231.26499999999999
 30
0.0
 11
30.6981
 21
231.26499999999999
 31
0.0
  0
LINE
  5
1CF
  8
0
 62
     7
 10
44.038200000000003
 20
195.26499999999999
 30
0.0
 11
30.5427
 21
195.26499999999999
 31
0.0
  0
LINE
  5
1D0
  8
0
 62
     7
 10
63.621000000000002
 20
192.7649999999999
 30
0.0
 11
24.601199999999992
 21
192.7649999999999
 31
0.0
  0
LINE
  5
1D1
  8
0
 62
     7
 10
43.261400000000002
 20
195.21700000000001
 30
0.0
 11
43.261400000000002
 21
181.11199999999999
 31
0.0
  0
LINE
  5
1D2
  8
0
 62
     7
 10
91.801199999999994
 20
174.4909999999999
 30
0.0
 11
94.011600000000001
 21
175.083
 31
0.0
  0
LINE
  5
1D3
  8
0
 62
     7
 10
94.011600000000001
 20
175.083
 30
0.0
 11
91.801199999999994
 21
175.6759999999999
 31
0.0
  0
LINE
  5
1D4
  8
0
 62
     7
 10
91.801199999999994
 20
175.6759999999999
 30
0.0
 11
91.801199999999994
 21
174.4909999999999
 31
0.0
  0
LINE
  5
1D5
  8
0
 62
     7
 10
43.721800000000002
 20
175.66099999999989
 30
0.0
 11
41.511400000000002
 21
175.06899999999999
 31
0.0
  0
LINE
  5
1D6
  8
0
 62
     7
 10
41.511400000000002
 20
175.06899999999999
 30
0.0
 11
43.721800000000002
 21
174.476
 31
0.0
  0
LINE
  5
1D7
  8
0
 62
     7
 10
43.721800000000002
 20
174.476
 30
0.0
 11
43.721800000000002
 21
175.66099999999989
 31
0.0
  0
LINE
  5
1D8
  8
0
 62
     7
 10
94.011600000000001
 20
175.07599999999991
 30
0.0
 11
41.511400000000002
 21
175.07599999999991
 31
0.0
  0
LINE
  5
1D9
  8
0
 62
     7
 10
96.222000000000008
 20
182.37899999999999
 30
0.0
 11
94.011600000000001
 21
181.78700000000001
 31
0.0
  0
LINE
  5
1DA
  8
0
 62
     7
 10
94.011600000000001
 20
181.78700000000001
 30
0.0
 11
96.222000000000008
 21
181.19499999999991
 31
0.0
  0
LINE
  5
1DB
  8
0
 62
     7
 10
96.222000000000008
 20
181.19499999999991
 30
0.0
 11
96.222000000000008
 21
182.37899999999999
 31
0.0
  0
LINE
  5
1DC
  8
0
 62
     7
 10
45.471799999999988
 20
182.37899999999999
 30
0.0
 11
43.261400000000002
 21
181.78700000000001
 31
0.0
  0
LINE
  5
1DD
  8
0
 62
     7
 10
43.261400000000002
 20
181.78700000000001
 30
0.0
 11
45.471799999999988
 21
181.19499999999991
 31
0.0
  0
LINE
  5
1DE
  8
0
 62
     7
 10
45.471799999999988
 20
181.19499999999991
 30
0.0
 11
45.471799999999988
 21
182.37899999999999
 31
0.0
  0
LINE
  5
1DF
  8
0
 62
     7
 10
39.300699999999999
 20
181.20899999999989
 30
0.0
 11
41.511400000000002
 21
181.8009999999999
 31
0.0
  0
LINE
  5
1E0
  8
0
 62
     7
 10
41.511400000000002
 20
181.8009999999999
 30
0.0
 11
39.300699999999999
 21
182.39400000000001
 31
0.0
  0
LINE
  5
1E1
  8
0
 62
     7
 10
39.300699999999999
 20
182.39400000000001
 30
0.0
 11
39.300699999999999
 21
181.20899999999989
 31
0.0
  0
LINE
  5
1E2
  8
0
 62
     7
 10
90.050899999999999
 20
181.20899999999989
 30
0.0
 11
92.261600000000001
 21
181.8009999999999
 31
0.0
  0
LINE
  5
1E3
  8
0
 62
     7
 10
92.261600000000001
 20
181.8009999999999
 30
0.0
 11
90.050899999999999
 21
182.39400000000001
 31
0.0
  0
LINE
  5
1E4
  8
0
 62
     7
 10
90.050899999999999
 20
182.39400000000001
 30
0.0
 11
90.050899999999999
 21
181.20899999999989
 31
0.0
  0
LINE
  5
1E5
  8
0
 62
     7
 10
33.190600000000003
 20
181.79400000000001
 30
0.0
 11
101.93000000000001
 21
181.79400000000001
 31
0.0
  0
LINE
  5
1E6
  8
0
 62
     7
 10
92.261600000000001
 20
195.36999999999989
 30
0.0
 11
92.261600000000001
 21
181.238
 31
0.0
  0
LINE
  5
1E7
  8
0
 62
     7
 10
94.011600000000001
 20
194.143
 30
0.0
 11
94.011600000000001
 21
174.47200000000001
 31
0.0
  0
LINE
  5
1E8
  8
0
 62
     7
 10
41.511400000000002
 20
192.30299999999991
 30
0.0
 11
41.511400000000002
 21
174.47200000000001
 31
0.0
  0
LINE
  5
1E9
  8
0
 62
     7
 10
67.761499999999998
 20
115.7399999999999
 30
0.0
 11
71.261399999999995
 21
115.7399999999999
 31
0.0
  0
LINE
  5
1EA
  8
0
 62
     7
 10
71.561499999999995
 20
119.64099999999991
 30
0.0
 11
71.561499999999995
 21
116.0409999999999
 31
0.0
  0
ARC
  5
1EB
  8
0
 62
     7
 10
71.250095000000002
 20
116.0514439999999
 30
0.0
 40
0.311556
 50
272.07750899999991
 51
357.9882439999999
  0
LINE
  5
1EC
  8
0
 62
     7
 10
67.761499999999998
 20
116.2399999999999
 30
0.0
 11
70.461600000000004
 21
116.2399999999999
 31
0.0
  0
LINE
  5
1ED
  8
0
 62
     7
 10
70.761499999999998
 20
116.53999999999991
 30
0.0
 11
70.761499999999998
 21
134.74100000000001
 31
0.0
  0
ARC
  5
1EE
  8
0
 62
     7
 10
70.450291000000007
 20
116.5515419999999
 30
0.0
 40
0.311424
 50
272.08215999999987
 51
357.88493099999988
  0
ARC
  5
1EF
  8
0
 62
     7
 10
72.184399999999997
 20
119.6171379999999
 30
0.0
 40
0.6233840000000001
 50
92.096122999999977
 51
177.83802800000001
  0
LINE
  5
1F0
  8
0
 62
     7
 10
93.711799999999997
 20
131.24100000000001
 30
0.0
 11
71.261600000000001
 21
131.24100000000001
 31
0.0
  0
LINE
  5
1F1
  8
0
 62
     7
 10
93.711799999999997
 20
131.24100000000001
 30
0.0
 11
94.011600000000001
 21
134.74100000000001
 31
0.0
  0
LINE
  5
1F2
  8
0
 62
     7
 10
94.011600000000001
 20
134.74100000000001
 30
0.0
 11
67.761499999999998
 21
134.74100000000001
 31
0.0
  0
LINE
  5
1F3
  8
0
 62
     7
 10
67.761499999999998
 20
115.7399999999999
 30
0.0
 11
64.261399999999995
 21
115.7399999999999
 31
0.0
  0
LINE
  5
1F4
  8
0
 62
     7
 10
63.961500000000001
 20
119.64099999999991
 30
0.0
 11
63.961500000000001
 21
116.0409999999999
 31
0.0
  0
ARC
  5
1F5
  8
0
 62
     7
 10
64.273271999999992
 20
116.05181399999989
 30
0.0
 40
0.311946
 50
182.077314
 51
267.824072
  0
LINE
  5
1F6
  8
0
 62
     7
 10
67.761499999999998
 20
116.2399999999999
 30
0.0
 11
65.061599999999999
 21
116.2399999999999
 31
0.0
  0
LINE
  5
1F7
  8
0
 62
     7
 10
64.761499999999998
 20
116.53999999999991
 30
0.0
 11
64.761499999999998
 21
134.74100000000001
 31
0.0
  0
ARC
  5
1F8
  8
0
 62
     7
 10
65.072684999999993
 20
116.551535
 30
0.0
 40
0.311411
 50
182.11390900000001
 51
267.95193999999992
  0
ARC
  5
1F9
  8
0
 62
     7
 10
63.339222999999997
 20
119.6177779999999
 30
0.0
 40
0.622728
 50
2.1053120000000001
 51
87.944050000000004
  0
LINE
  5
1FA
  8
0
  6
AIGENLINE002
 62
     7
 10
67.761499999999998
 20
112.52200000000001
 30
0.0
 11
67.761499999999998
 21
136.89199999999991
 31
0.0
  0
LINE
  5
1FB
  8
0
 62
     7
 10
41.811500000000002
 20
131.24100000000001
 30
0.0
 11
64.261399999999995
 21
131.24100000000001
 31
0.0
  0
LINE
  5
1FC
  8
0
 62
     7
 10
41.811500000000002
 20
131.24100000000001
 30
0.0
 11
41.511400000000002
 21
134.74100000000001
 31
0.0
  0
LINE
  5
1FD
  8
0
 62
     7
 10
41.511400000000002
 20
134.74100000000001
 30
0.0
 11
67.761499999999998
 21
134.74100000000001
 31
0.0
  0
LINE
  5
1FE
  8
0
 62
     7
 10
64.986099999999993
 20
212.1629999999999
 30
0.0
 11
66.130399999999995
 21
214.14400000000001
 31
0.0
  0
LINE
  5
1FF
  8
0
 62
     7
 10
66.130399999999995
 20
214.14400000000001
 30
0.0
 11
64.148399999999995
 21
213.0
 31
0.0
  0
LINE
  5
200
  8
0
 62
     7
 10
64.148399999999995
 20
213.0
 30
0.0
 11
64.986099999999993
 21
212.1629999999999
 31
0.0
  0
LINE
  5
201
  8
0
 62
     7
 10
70.447100000000006
 20
219.2879999999999
 30
0.0
 11
69.302800000000005
 21
217.30699999999999
 31
0.0
  0
LINE
  5
202
  8
0
 62
     7
 10
69.302800000000005
 20
217.30699999999999
 30
0.0
 11
71.284800000000004
 21
218.45099999999991
 31
0.0
  0
LINE
  5
203
  8
0
 62
     7
 10
71.284800000000004
 20
218.45099999999991
 30
0.0
 11
70.447100000000006
 21
219.2879999999999
 31
0.0
  0
LINE
  5
204
  8
0
 62
     7
 10
65.379900000000006
 20
223.54599999999991
 30
0.0
 11
66.524199999999993
 21
225.52799999999991
 31
0.0
  0
LINE
  5
205
  8
0
 62
     7
 10
66.524199999999993
 20
225.52799999999991
 30
0.0
 11
64.542199999999994
 21
224.38399999999999
 31
0.0
  0
LINE
  5
206
  8
0
 62
     7
 10
64.542199999999994
 20
224.38399999999999
 30
0.0
 11
65.379900000000006
 21
223.54599999999991
 31
0.0
  0
LINE
  5
207
  8
0
 62
     7
 10
70.148099999999999
 20
229.97900000000001
 30
0.0
 11
69.003799999999998
 21
227.99799999999999
 31
0.0
  0
LINE
  5
208
  8
0
 62
     7
 10
69.003799999999998
 20
227.99799999999999
 30
0.0
 11
70.985799999999998
 21
229.142
 31
0.0
  0
LINE
  5
209
  8
0
 62
     7
 10
70.985799999999998
 20
229.142
 30
0.0
 11
70.148099999999999
 21
229.97900000000001
 31
0.0
  0
LINE
  5
20A
  8
0
 62
     7
 10
71.506699999999995
 20
230.51099999999991
 30
0.0
 11
57.946899999999999
 21
216.95099999999991
 31
0.0
  0
ARC
  5
20B
  8
0
  6
AIGENLINE001
 62
     7
 10
57.761611000000002
 20
226.76528300000001
 30
0.0
 40
1.7500340000000001
 50
0.00283
 51
90.002800000000008
  0
ARC
  5
20C
  8
0
  6
AIGENLINE001
 62
     7
 10
57.761524999999999
 20
226.76536999999999
 30
0.0
 40
1.7499480000000001
 50
90.0
 51
179.99996999999991
  0
ARC
  5
20D
  8
0
  6
AIGENLINE001
 62
     7
 10
57.761524999999999
 20
226.76536999999999
 30
0.0
 40
1.7499469999999999
 50
179.99996999999991
 51
270.00002000000001
  0
ARC
  5
20E
  8
0
  6
AIGENLINE001
 62
     7
 10
57.761611000000002
 20
226.76545599999989
 30
0.0
 40
1.7500340000000001
 50
269.99720000000002
 51
359.99716999999998
  0
LINE
  5
20F
  8
0
  6
AIGENLINE002
 62
     7
 10
57.761699999999998
 20
230.13599999999991
 30
0.0
 11
57.761699999999998
 21
223.43999999999991
 31
0.0
  0
ARC
  5
210
  8
0
  6
AIGENLINE001
 62
     7
 10
77.761721999999992
 20
226.76528300000001
 30
0.0
 40
1.7500340000000001
 50
0.00283
 51
90.002800000000008
  0
ARC
  5
211
  8
0
  6
AIGENLINE001
 62
     7
 10
77.761636999999993
 20
226.76536999999999
 30
0.0
 40
1.7499480000000001
 50
90.0
 51
179.99996999999991
  0
ARC
  5
212
  8
0
  6
AIGENLINE001
 62
     7
 10
77.761635999999996
 20
226.76536999999999
 30
0.0
 40
1.7499469999999999
 50
179.99996999999991
 51
270.00002000000001
  0
ARC
  5
213
  8
0
  6
AIGENLINE001
 62
     7
 10
77.761721999999992
 20
226.76545599999989
 30
0.0
 40
1.7500340000000001
 50
269.99720000000002
 51
359.99716999999998
  0
ARC
  5
214
  8
0
 62
     7
 10
67.761581000000007
 20
226.76528300000001
 30
0.0
 40
1.7500340000000001
 50
0.00283
 51
90.002800000000008
  0
ARC
  5
215
  8
0
 62
     7
 10
67.761494999999996
 20
226.76536999999999
 30
0.0
 40
1.7499480000000001
 50
90.0
 51
179.99996999999991
  0
ARC
  5
216
  8
0
 62
     7
 10
67.761493999999999
 20
226.76536999999999
 30
0.0
 40
1.7499469999999999
 50
179.99996999999991
 51
270.00002000000001
  0
ARC
  5
217
  8
0
 62
     7
 10
67.761581000000007
 20
226.76545599999989
 30
0.0
 40
1.7500340000000001
 50
269.99720000000002
 51
359.99716999999998
  0
LINE
  5
218
  8
0
 62
     7
 10
74.936300000000003
 20
222.94
 30
0.0
 11
59.609999999999999
 21
207.614
 31
0.0
  0
ARC
  5
219
  8
0
 62
     7
 10
67.761580000000009
 20
215.76519599999989
 30
0.0
 40
2.3000470000000002
 50
0.002155
 51
90.002126000000004
  0
ARC
  5
21A
  8
0
 62
     7
 10
67.761494999999996
 20
215.76528200000001
 30
0.0
 40
2.2999610000000001
 50
90.0
 51
179.99996999999991
  0
ARC
  5
21B
  8
0
 62
     7
 10
67.761493999999999
 20
215.76528200000001
 30
0.0
 40
2.29996
 50
179.99996999999991
 51
270.00002000000001
  0
ARC
  5
21C
  8
0
 62
     7
 10
67.761580000000009
 20
215.76536899999999
 30
0.0
 40
2.3000470000000002
 50
269.99787400000002
 51
359.99784499999998
  0
ARC
  5
21D
  8
0
 62
     7
 10
67.761493999999999
 20
215.76528200000001
 30
0.0
 40
4.500013
 50
0.00001
 51
89.999980000000008
  0
ARC
  5
21E
  8
0
 62
     7
 10
67.761494999999996
 20
215.76528200000001
 30
0.0
 40
4.500013
 50
90.0
 51
179.99996999999991
  0
ARC
  5
21F
  8
0
 62
     7
 10
67.761493999999999
 20
215.76528200000001
 30
0.0
 40
4.5000109999999989
 50
179.99996999999991
 51
270.00002000000001
  0
ARC
  5
220
  8
0
 62
     7
 10
67.761493999999999
 20
215.7652829999999
 30
0.0
 40
4.500013
 50
270.00002000000001
 51
359.99998999999991
  0
LINE
  5
221
  8
0
  6
AIGENLINE002
 62
     7
 10
77.761799999999994
 20
230.13599999999991
 30
0.0
 11
77.761799999999994
 21
223.43999999999991
 31
0.0
  0
LINE
  5
222
  8
0
  6
AIGENLINE002
 62
     7
 10
67.761499999999998
 20
236.37
 30
0.0
 11
67.761499999999998
 21
190.78099999999989
 31
0.0
  0
LINE
  5
223
  8
0
  6
AIGENLINE002
 62
     7
 10
61.167000000000002
 20
215.7649999999999
 30
0.0
 11
74.447599999999994
 21
215.7649999999999
 31
0.0
  0
LINE
  5
225
  8
0
 62
     7
 10
46.261400000000002
 20
195.26499999999999
 30
0.0
 11
89.261600000000016
 21
195.26499999999999
 31
0.0
  0
LINE
  5
226
  8
0
 62
     7
 10
43.261400000000002
 20
198.2649999999999
 30
0.0
 11
43.261400000000002
 21
228.2649999999999
 31
0.0
  0
ARC
  5
227
  8
0
 62
     7
 10
46.261378999999991
 20
198.26512
 30
0.0
 40
3.0000079999999998
 50
179.99996999999991
 51
270.00002000000001
  0
LINE
  5
228
  8
0
  6
AIGENLINE002
 62
     7
 10
54.359099999999991
 20
226.7649999999999
 30
0.0
 11
81.478700000000003
 21
226.7649999999999
 31
0.0
  0
LINE
  5
229
  8
0
 62
     7
 10
46.261400000000002
 20
222.2649999999999
 30
0.0
 11
89.261600000000016
 21
222.2649999999999
 31
0.0
  0
LINE
  5
22A
  8
0
 62
     7
 10
46.261400000000002
 20
231.26499999999999
 30
0.0
 11
89.261600000000016
 21
231.26499999999999
 31
0.0
  0
ARC
  5
22B
  8
0
 62
     7
 10
46.261380000000003
 20
219.26534899999999
 30
0.0
 40
3.000008999999999
 50
90.0
 51
179.99996999999991
  0
ARC
  5
22C
  8
0
 62
     7
 10
89.261610000000005
 20
219.26534899999999
 30
0.0
 40
3.000008999999999
 50
0.00001
 51
89.999980000000008
  0
ARC
  5
22D
  8
0
 62
     7
 10
46.261380000000003
 20
228.26537300000001
 30
0.0
 40
3.000008999999999
 50
90.0
 51
179.99996999999991
  0
LINE
  5
22E
  8
0
 62
     7
 10
92.261600000000001
 20
198.2649999999999
 30
0.0
 11
92.261600000000001
 21
228.2649999999999
 31
0.0
  0
ARC
  5
22F
  8
0
 62
     7
 10
89.261610000000005
 20
228.26537300000001
 30
0.0
 40
3.000008999999999
 50
0.00001
 51
89.999980000000008
  0
ARC
  5
230
  8
0
 62
     7
 10
89.261610000000005
 20
198.26512099999999
 30
0.0
 40
3.000008999999999
 50
270.00002000000001
 51
359.99998999999991
  0
LINE
  5
231
  8
0
 62
     7
 10
94.011600000000001
 20
228.7649999999999
 30
0.0
 11
94.011600000000001
 21
197.7649999999999
 31
0.0
  0
LINE
  5
232
  8
0
 62
     7
 10
70.761499999999998
 20
192.7649999999999
 30
0.0
 11
71.261600000000001
 21
193.2649999999999
 31
0.0
  0
LINE
  5
233
  8
0
 62
     7
 10
64.261399999999995
 20
193.2649999999999
 30
0.0
 11
64.761499999999998
 21
192.7649999999999
 31
0.0
  0
LINE
  5
234
  8
0
 62
     7
 10
67.761499999999998
 20
192.7649999999999
 30
0.0
 11
70.761499999999998
 21
192.7649999999999
 31
0.0
  0
LINE
  5
235
  8
0
 62
     7
 10
64.761499999999998
 20
192.7649999999999
 30
0.0
 11
67.761499999999998
 21
192.7649999999999
 31
0.0
  0
LINE
  5
236
  8
0
 62
     7
 10
42.011299999999999
 20
193.2649999999999
 30
0.0
 11
64.261399999999995
 21
193.2649999999999
 31
0.0
  0
LINE
  5
237
  8
0
 62
     7
 10
71.261600000000001
 20
193.2649999999999
 30
0.0
 11
89.511599999999987
 21
193.2649999999999
 31
0.0
  0
ARC
  5
238
  8
0
 62
     7
 10
89.511553000000006
 20
197.765063
 30
0.0
 40
4.500013
 50
270.00002000000001
 51
359.99998999999991
  0
LINE
  5
239
  8
0
 62
     7
 10
46.011400000000002
 20
233.26499999999999
 30
0.0
 11
89.511599999999987
 21
233.26499999999999
 31
0.0
  0
ARC
  5
23A
  8
0
 62
     7
 10
89.511553000000006
 20
228.76543199999989
 30
0.0
 40
4.500013
 50
0.00001
 51
89.999980000000008
  0
LINE
  5
23B
  8
0
 62
     7
 10
41.511400000000002
 20
228.7649999999999
 30
0.0
 11
41.511400000000002
 21
193.7649999999999
 31
0.0
  0
ARC
  5
23C
  8
0
 62
     7
 10
46.011437000000001
 20
228.76543199999989
 30
0.0
 40
4.500013
 50
90.0
 51
179.99996999999991
  0
ARC
  5
23D
  8
0
 62
     7
 10
42.030875999999992
 20
193.7844879999999
 30
0.0
 40
0.5198070000000001
 50
182.11767800000001
 51
267.84287899999993
  0
LINE
  5
23E
  8
0
 62
     7
 10
30.5489
 20
235.476
 30
0.0
 11
31.141100000000002
 21
233.26499999999999
 31
0.0
  0
LINE
  5
23F
  8
0
 62
     7
 10
31.141100000000002
 20
233.26499999999999
 30
0.0
 11
31.733499999999999
 21
235.476
 31
0.0
  0
LINE
  5
240
  8
0
 62
     7
 10
31.733499999999999
 20
235.476
 30
0.0
 11
30.5489
 21
235.476
 31
0.0
  0
LINE
  5
241
  8
0
 62
     7
 10
30.5489
 20
197.476
 30
0.0
 11
31.141100000000002
 21
195.26499999999999
 31
0.0
  0
LINE
  5
242
  8
0
 62
     7
 10
31.141100000000002
 20
195.26499999999999
 30
0.0
 11
31.733499999999999
 21
197.476
 31
0.0
  0
LINE
  5
243
  8
0
 62
     7
 10
31.733499999999999
 20
197.476
 30
0.0
 11
30.5489
 21
197.476
 31
0.0
  0
LINE
  5
244
  8
0
 62
     7
 10
31.718900000000001
 20
190.554
 30
0.0
 11
31.126599999999989
 21
192.7649999999999
 31
0.0
  0
LINE
  5
245
  8
0
 62
     7
 10
31.126599999999989
 20
192.7649999999999
 30
0.0
 11
30.534199999999998
 21
190.554
 31
0.0
  0
LINE
  5
246
  8
0
 62
     7
 10
30.534199999999998
 20
190.554
 30
0.0
 11
31.718900000000001
 21
190.554
 31
0.0
  0
LINE
  5
247
  8
0
 62
     7
 10
31.718900000000001
 20
229.05500000000001
 30
0.0
 11
31.126599999999989
 21
231.26499999999999
 31
0.0
  0
LINE
  5
248
  8
0
 62
     7
 10
31.126599999999989
 20
231.26499999999999
 30
0.0
 11
30.534199999999998
 21
229.05500000000001
 31
0.0
  0
LINE
  5
249
  8
0
 62
     7
 10
30.534199999999998
 20
229.05500000000001
 30
0.0
 11
31.718900000000001
 21
229.05500000000001
 31
0.0
  0
LINE
  5
24A
  8
0
 62
     7
 10
36.92199999999999
 20
224.47599999999991
 30
0.0
 11
37.514200000000002
 21
222.2649999999999
 31
0.0
  0
LINE
  5
24B
  8
0
 62
     7
 10
37.514200000000002
 20
222.2649999999999
 30
0.0
 11
38.1066
 21
224.47599999999991
 31
0.0
  0
LINE
  5
24C
  8
0
 62
     7
 10
38.1066
 20
224.47599999999991
 30
0.0
 11
36.92199999999999
 21
224.47599999999991
 31
0.0
  0
LINE
  5
24D
  8
0
 62
     7
 10
36.92199999999999
 20
197.476
 30
0.0
 11
37.514200000000002
 21
195.26499999999999
 31
0.0
  0
LINE
  5
24E
  8
0
 62
     7
 10
37.514200000000002
 20
195.26499999999999
 30
0.0
 11
38.1066
 21
197.476
 31
0.0
  0
LINE
  5
24F
  8
0
 62
     7
 10
38.1066
 20
197.476
 30
0.0
 11
36.92199999999999
 21
197.476
 31
0.0
  0
LINE
  5
250
  8
0
 62
     7
 10
38.091999999999999
 20
220.05500000000001
 30
0.0
 11
37.4998
 21
222.2649999999999
 31
0.0
  0
LINE
  5
251
  8
0
 62
     7
 10
37.4998
 20
222.2649999999999
 30
0.0
 11
36.907400000000003
 21
220.05500000000001
 31
0.0
  0
LINE
  5
252
  8
0
 62
     7
 10
36.907400000000003
 20
220.05500000000001
 30
0.0
 11
38.091999999999999
 21
220.05500000000001
 31
0.0
  0
LINE
  5
253
  8
0
 62
     7
 10
38.091999999999999
 20
229.05500000000001
 30
0.0
 11
37.4998
 21
231.26499999999999
 31
0.0
  0
LINE
  5
254
  8
0
 62
     7
 10
37.4998
 20
231.26499999999999
 30
0.0
 11
36.907400000000003
 21
229.05500000000001
 31
0.0
  0
LINE
  5
255
  8
0
 62
     7
 10
36.907400000000003
 20
229.05500000000001
 30
0.0
 11
38.091999999999999
 21
229.05500000000001
 31
0.0
  0
LINE
  5
256
  8
0
 62
     7
 10
37.506999999999998
 20
195.26499999999999
 30
0.0
 11
37.506999999999998
 21
231.26499999999999
 31
0.0
  0
LINE
  5
257
  8
0
 62
     7
 10
31.133900000000001
 20
186.25499999999991
 30
0.0
 11
31.133900000000001
 21
239.6879999999999
 31
0.0
  0
LINE
  5
258
  8
_________2
 62
     7
 10
205.30099999999999
 20
127.411
 30
0.0
 11
183.55000000000001
 21
127.411
 31
0.0
  0
LINE
  5
259
  8
_________2
 62
     7
 10
100.2999999999999
 20
-4.0910799999999998
 30
0.0
 11
100.2999999999999
 21
-21.071400000000001
 31
0.0
  0
LINE
  5
25A
  8
_________2
 62
     7
 10
100.2999999999999
 20
275.93099999999993
 30
0.0
 11
100.2999999999999
 21
258.911
 31
0.0
  0
LINE
  5
25B
  8
_________2
 62
     7
 10
17.049499999999998
 20
127.411
 30
0.0
 11
-4.70052
 21
127.411
 31
0.0
  0
LINE
  5
25C
  8
_________2
 62
     7
 10
76.741
 20
29.8047
 30
0.0
 11
74.554699999999997
 21
29.8047
 31
0.0
  0
LINE
  5
25D
  8
_________2
 62
     7
 10
77.233699999999999
 20
29.8047
 30
0.0
 11
76.981499999999997
 21
29.8047
 31
0.0
  0
LINE
  5
25E
  8
_________2
 62
     7
 10
77.726299999999995
 20
29.8047
 30
0.0
 11
80.651200000000003
 21
29.8047
 31
0.0
  0
LINE
  5
25F
  8
_________2
 62
     7
 10
77.233699999999999
 20
29.8047
 30
0.0
 11
77.485500000000002
 21
29.8047
 31
0.0
  0
LINE
  5
260
  8
_________2
 62
     7
 10
70.837100000000007
 20
29.8047
 30
0.0
 11
68.650499999999994
 21
29.8047
 31
0.0
  0
LINE
  5
261
  8
_________2
 62
     7
 10
71.329400000000007
 20
29.8047
 30
0.0
 11
71.077600000000004
 21
29.8047
 31
0.0
  0
LINE
  5
262
  8
_________2
 62
     7
 10
71.329400000000007
 20
30.2974
 30
0.0
 11
71.329400000000007
 21
32.484400000000001
 31
0.0
  0
LINE
  5
263
  8
_________2
 62
     7
 10
71.329400000000007
 20
29.8047
 30
0.0
 11
71.329400000000007
 21
30.056899999999992
 31
0.0
  0
LINE
  5
264
  8
_________2
 62
     7
 10
71.822100000000006
 20
29.8047
 30
0.0
 11
74.009
 21
29.8047
 31
0.0
  0
LINE
  5
265
  8
_________2
 62
     7
 10
71.329400000000007
 20
29.8047
 30
0.0
 11
71.581599999999995
 21
29.8047
 31
0.0
  0
LINE
  5
266
  8
_________2
 62
     7
 10
71.329400000000007
 20
29.312799999999999
 30
0.0
 11
71.329400000000007
 21
27.125800000000002
 31
0.0
  0
LINE
  5
267
  8
_________2
 62
     7
 10
71.329400000000007
 20
29.8047
 30
0.0
 11
71.329400000000007
 21
29.5532
 31
0.0
  0
LINE
  5
268
  8
_________2
 62
     7
 10
75.040499999999994
 20
28.5852
 30
0.0
 11
80.218500000000006
 21
27.720400000000001
 31
0.0
  0
LINE
  5
269
  8
_________2
 62
     7
 10
75.040499999999994
 20
31.0243
 30
0.0
 11
80.218500000000006
 21
31.889700000000001
 31
0.0
  0
LINE
  5
26A
  8
_________2
 62
     7
 10
80.218500000000006
 20
27.720400000000001
 30
0.0
 11
80.218500000000006
 21
31.889700000000001
 31
0.0
  0
LINE
  5
26B
  8
_________2
 62
     7
 10
75.040499999999994
 20
28.5852
 30
0.0
 11
75.040499999999994
 21
31.0243
 31
0.0
  0
ARC
  5
26C
  8
_________2
 62
     7
 10
71.28285600000001
 20
29.757811
 30
0.0
 40
1.2673589999999999
 50
2.122214
 51
87.893958999999995
  0
ARC
  5
26D
  8
_________2
 62
     7
 10
71.375959999999992
 20
29.758213000000001
 30
0.0
 40
1.2669559999999991
 50
92.104701000000006
 51
177.8952689999999
  0
ARC
  5
26E
  8
_________2
 62
     7
 10
71.376357999999996
 20
29.851671
 30
0.0
 40
1.2673680000000001
 50
182.12203600000001
 51
267.877993
  0
ARC
  5
26F
  8
_________2
 62
     7
 10
71.282531999999989
 20
29.851998999999989
 30
0.0
 40
1.267695999999999
 50
272.12015300000002
 51
357.863674
  0
ARC
  5
270
  8
_________2
 62
     7
 10
71.329430000000002
 20
29.804742999999998
 30
0.0
 40
2.0849849999999992
 50
0.00001
 51
89.999980000000008
  0
ARC
  5
271
  8
_________2
 62
     7
 10
71.329603000000006
 20
29.804915000000001
 30
0.0
 40
2.084813
 50
90.004733999999999
 51
180.00474399999999
  0
ARC
  5
272
  8
_________2
 62
     7
 10
71.409106000000008
 20
29.884775999999999
 30
0.0
 40
2.1657950000000001
 50
182.11776599999999
 51
267.89173399999999
  0
ARC
  5
273
  8
_________2
 62
     7
 10
71.249459000000002
 20
29.885429999999989
 30
0.0
 40
2.1664590000000001
 50
272.11546800000002
 51
357.86560400000002
  0
TEXT
  5
274
  8
_________2
 62
     7
 10
104.605
 20
1.6794899999999999
 30
0.0
 40
3.0923400000000001
  1
図番
 41
0.5
  0
LINE
  5
275
  8
_________2
 62
     7
 10
103.55
 20
5.9087199999999989
 30
0.0
 11
183.55099999999999
 21
5.9087199999999989
 31
0.0
  0
TEXT
  5
276
  8
_________2
 62
     7
 10
104.605
 20
11.679299999999991
 30
0.0
 40
3.0923400000000001
  1
品番
 41
0.5
  0
TEXT
  5
277
  8
_________2
 62
     7
 10
104.605
 20
31.818100000000001
 30
0.0
 40
3.0923400000000001
  1
名称
 41
0.5
  0
TEXT
  5
278
  8
_________2
 62
     7
 10
91.845058333333341
 20
26.821999999999989
 30
0.0
 40
3.6545800000000002
  1
mm
 41
0.5
 72
     1
 11
93.367800000000003
 21
26.821999999999989
 31
0.0
  0
TEXT
  5
279
  8
_________2
 62
     7
 10
85.643199999999993
 20
31.818100000000001
 30
0.0
 40
3.0923400000000001
  1
単位
 41
0.5
  0
TEXT
  5
27A
  8
_________2
 62
     7
 10
85.643199999999993
 20
19.410799999999991
 30
0.0
 40
3.0923400000000001
  1
尺度
 41
0.5
  0
TEXT
  5
27B
  8
_________2
 62
     7
 10
90.09193616666667
 20
13.2179
 30
0.0
 40
3.6545800000000002
  1
1 ： 10
 41
0.5
 72
     1
 11
93.959699999999998
 21
13.2179
 31
0.0
  0
TEXT
  5
27C
  8
_________2
 62
     7
 10
133.38277500000001
 20
9.1078600000000005
 30
0.0
 40
3.9357000000000002
  1
DV030249-00
 41
0.5
 72
     1
 11
143.55000000000001
 21
9.1078600000000005
 31
0.0
  0
TEXT
  5
27D
  8
_________2
 62
     7
 10
136.00657499999991
 20
-0.8926299999999999
 30
0.0
 40
3.9357000000000002
  1
DV030249
 41
0.5
 72
     1
 11
143.55000000000001
 21
-0.8926299999999999
 31
0.0
  0
TEXT
  5
27E
  8
_________2
 62
     7
 10
24.5868
 20
0.707283
 30
0.0
 40
3.9357000000000002
  1
525サイズ・実容量4.7L・オーバーフロー付・重量：8.2kg
 41
0.5
  0
TEXT
  5
27F
  8
_________2
 62
     7
 10
109.179
 20
24.2257
 30
0.0
 40
3.9357000000000002
  1
スタルク3　アンダーカウンター式洗面器
 41
0.5
  0
TEXT
  5
280
  8
_________2
 62
     7
 10
39.364390666666658
 20
13.603
 30
0.0
 40
3.6545800000000002
  1
高橋
 41
0.5
 72
     1
 11
41.313499999999998
 21
13.603
 31
0.0
  0
TEXT
  5
281
  8
_________2
 62
     7
 10
20.790090666666661
 20
13.603
 30
0.0
 40
3.6545800000000002
  1
石原
 41
0.5
 72
     1
 11
22.73919999999999
 21
13.603
 31
0.0
  0
TEXT
  5
282
  8
_________2
 62
     7
 10
67.785399999999996
 20
13.2179
 30
0.0
 40
3.6545800000000002
  1
09.02.04
 41
0.5
  0
TEXT
  5
283
  8
_________2
 62
     7
 10
66.593100000000007
 20
19.410799999999991
 30
0.0
 40
3.0923400000000001
  1
日付
 41
0.5
  0
TEXT
  5
284
  8
_________2
 62
     7
 10
29.639399999999998
 20
19.410799999999991
 30
0.0
 40
3.0923400000000001
  1
検図
 41
0.5
  0
TEXT
  5
285
  8
_________2
 62
     7
 10
18.021100000000001
 20
5.21143
 30
0.0
 40
3.0923400000000001
  1
備考
 41
0.5
  0
TEXT
  5
286
  8
_________2
 62
     7
 10
18.021100000000001
 20
19.410799999999991
 30
0.0
 40
3.0923400000000001
  1
製図
 41
0.5
  0
TEXT
  5
287
  8
_________2
 62
     7
 10
23.788465333333338
 20
27.936800000000002
 30
0.0
 40
4.4979399999999989
  1
セラトレーディング株式会社
 41
0.5
 72
     1
 11
41.180500000000002
 21
27.936800000000002
 31
0.0
  0
LINE
  5
288
  8
_________2
 62
     7
 10
183.55099999999999
 20
-4.0910799999999998
 30
0.0
 11
17.049499999999998
 21
-4.0910799999999998
 31
0.0
  0
LINE
  5
289
  8
_________2
 62
     7
 10
17.049499999999998
 20
-4.0910799999999998
 30
0.0
 11
17.049499999999998
 21
258.911
 31
0.0
  0
LINE
  5
28A
  8
_________2
 62
     7
 10
17.049499999999998
 20
258.911
 30
0.0
 11
183.55099999999999
 21
258.911
 31
0.0
  0
LINE
  5
28B
  8
_________2
 62
     7
 10
183.55099999999999
 20
258.911
 30
0.0
 11
183.55099999999999
 21
-4.0910799999999998
 31
0.0
  0
LINE
  5
28C
  8
_________2
 62
     7
 10
65.549599999999998
 20
9.4089600000000004
 30
0.0
 11
65.549599999999998
 21
35.908799999999999
 31
0.0
  0
LINE
  5
28D
  8
_________2
 62
     7
 10
84.549700000000016
 20
9.4089600000000004
 30
0.0
 11
84.549700000000016
 21
35.908799999999999
 31
0.0
  0
LINE
  5
28E
  8
_________2
 62
     7
 10
103.55
 20
-4.0910799999999998
 30
0.0
 11
103.55
 21
35.908799999999999
 31
0.0
  0
LINE
  5
28F
  8
_________2
 62
     7
 10
28.549299999999992
 20
9.4089600000000004
 30
0.0
 11
28.549299999999992
 21
23.409199999999998
 31
0.0
  0
LINE
  5
290
  8
_________2
 62
     7
 10
17.049499999999998
 20
9.4089600000000004
 30
0.0
 11
103.55
 21
9.4089600000000004
 31
0.0
  0
LINE
  5
291
  8
_________2
 62
     7
 10
17.049499999999998
 20
23.409199999999998
 30
0.0
 11
103.55
 21
23.409199999999998
 31
0.0
  0
LINE
  5
292
  8
_________2
 62
     7
 10
103.55
 20
15.9085
 30
0.0
 11
183.55099999999999
 21
15.9085
 31
0.0
  0
LINE
  5
293
  8
_________2
 62
     7
 10
17.049499999999998
 20
35.908799999999999
 30
0.0
 11
183.55099999999999
 21
35.908799999999999
 31
0.0
  0
LINE
  5
2A5
  8
0
 62
     7
 10
141.96890172424639
 20
107.9749347539412
 30
0.0
 11
144.1789017242464
 21
107.3829347539412
 31
0.0
  0
LINE
  5
2A6
  8
0
 62
     7
 10
144.1789017242464
 20
108.5669347539412
 30
0.0
 11
141.96890172424639
 21
107.9749347539412
 31
0.0
  0
LINE
  5
2A7
  8
0
 62
     7
 10
144.1789017242464
 20
107.3829347539412
 30
0.0
 11
144.1789017242464
 21
108.5669347539412
 31
0.0
  0
ENDSEC
  0
EOF
